  0
SECTION
  2
HEADER
  9
$ACADVER
  1
AC1009
  9
$INSBASE
 10
0
 20
0
 30
0
  9
$EXTMIN
 10
0
 20
0
  9
$EXTMAX
 10
420
 20
297
  9
$LIMMIN
 10
0
 20
0
  9
$LIMMAX
 10
420
 20
297
  9
$LTSCALE
 40
1
  0
ENDSEC
  0
SECTION
  2
TABLES
  0
TABLE
  2
LTYPE
 70
     9
  0
LTYPE
  2
CONTINUOUS
 70
    64
  3
実線
 72
    65
 73
     0
 40
0.0
  0
LTYPE
  2
DASHED1
 70
    64
  3
--  --  --  --  --  --  --  --  
 72
    65
 73
     2
 40
2.5
 49
1.25
 49
-1.25
  0
LTYPE
  2
DASHED2
 70
    64
  3
----    ----    ----    ----    
 72
    65
 73
     2
 40
5.0
 49
2.5
 49
-2.5
  0
LTYPE
  2
DASHED3
 70
    64
  3
------  ------  ------  ------  
 72
    65
 73
     2
 40
5.0
 49
3.75
 49
-1.25
  0
LTYPE
  2
CENTER1
 70
    64
  3
----- - ----- - ----- - ----- - 
 72
    65
 73
     4
 40
10.0
 49
6.25
 49
-1.25
 49
1.25
 49
-1.25
  0
LTYPE
  2
CENTER2
 70
    64
  3
----------  --  ----------  --  
 72
    65
 73
     4
 40
20.0
 49
12.5
 49
-2.5
 49
2.5
 49
-2.5
  0
LTYPE
  2
PHANTOM1
 70
    64
  3
--- - - --- - - --- - - --- - - 
 72
    65
 73
     6
 40
10.0
 49
3.25
 49
-1.25
 49
1.25
 49
-1.25
 49
1.25
 49
-1.25
  0
LTYPE
  2
PHANTOM2
 70
    64
  3
--------  -  -  --------  -  -  
 72
    65
 73
     6
 40
20.0
 49
10.0
 49
-2.5
 49
1.25
 49
-2.5
 49
1.25
 49
-2.5
  0
LTYPE
  2
DOT
 70
    64
  3
-   -   -   -   -   -   -   -   
 72
    65
 73
     2
 40
2.5
 49
0.625
 49
-1.875
  0
LTYPE
  2
DUMMY
 70
    64
  3
ダミー
 72
    65
 73
     0
 40
0.0
  0
LTYPE
  2
RAND1
 70
    64
  3
ランダム線1
 72
    65
 73
     4
 40
10.0
 49
1.0
 49
-2.0
 49
3.0
 49
-4.0
  0
LTYPE
  2
RAND2
 70
    64
  3
ランダム線2
 72
    65
 73
     4
 40
14.0
 49
2.0
 49
-3.0
 49
4.0
 49
-5.0
  0
LTYPE
  2
RAND3
 70
    64
  3
ランダム線3
 72
    65
 73
     4
 40
18.0
 49
3.0
 49
-4.0
 49
5.0
 49
-6.0
  0
LTYPE
  2
RAND4
 70
    64
  3
ランダム線4
 72
    65
 73
     4
 40
22.0
 49
4.0
 49
-5.0
 49
6.0
 49
-7.0
  0
LTYPE
  2
RAND5
 70
    64
  3
ランダム線5
 72
    65
 73
     4
 40
26.0
 49
5.0
 49
-6.0
 49
7.0
 49
-8.0
  0
LTYPE
  2
LONG1
 70
    64
  3
----------  --  ----------  --  
 72
    65
 73
     4
 40
40.0
 49
32.5
 49
-2.5
 49
2.5
 49
-2.5
  0
LTYPE
  2
LONG2
 70
    64
  3
--------  -  -  --------  -  -  
 72
    65
 73
     6
 40
40.0
 49
30.0
 49
-2.5
 49
1.25
 49
-2.5
 49
1.25
 49
-2.5
  0
LTYPE
  2
LONG3
 70
    64
  3
+++++++++++++++..+++++++++++++++
 72
    65
 73
     2
 40
40.0
 49
37.5
 49
-2.5
  0
LTYPE
  2
LONG4
 70
    64
  3
+++++++++++++++..+++++++++++++++
 72
    65
 73
     2
 40
80.0
 49
75.0
 49
-5.0
  0
LTYPE
  2
LONG5
 70
    64
  3
----------  --  ----------  --  
 72
    65
 73
     4
 40
60.0
 49
37.5
 49
-7.5
 49
7.5
 49
-7.5
  0
LTYPE
  2
dashed
 70
   64
  3
-------   -------------   ------
 72
   65
 73
    2
 40
7.5
 49
6
 49
-1.5
  0
LTYPE
  2
dashed_spaced
 70
   64
  3
----        --------        ----
 72
   65
 73
    2
 40
12
 49
6
 49
-6
  0
LTYPE
  2
long_dashed_dotted
 70
   64
  3
------------- --- --------------
 72
   65
 73
    4
 40
15.25
 49
12
 49
-1.5
 49
0.25
 49
-1.5
  0
LTYPE
  2
long_dashed_double-dotted
 70
   64
  3
----------- --- --- ------------
 72
   65
 73
    6
 40
17
 49
12
 49
-1.5
 49
0.25
 49
-1.5
 49
0.25
 49
-1.5
  0
LTYPE
  2
long_dashed_triplicate-dotted
 70
   64
  3
--------- --- --- --- ----------
 72
   65
 73
    8
 40
18.75
 49
12
 49
-1.5
 49
0.25
 49
-1.5
 49
0.25
 49
-1.5
 49
0.25
 49
-1.5
  0
LTYPE
  2
dotted
 70
   64
  3
   -       -       -       -    
 72
   65
 73
    2
 40
1.75
 49
0.25
 49
-1.5
  0
LTYPE
  2
chain
 70
   64
  3
-------------- -- --------------
 72
   65
 73
    4
 40
18.5
 49
12
 49
-1.5
 49
3.5
 49
-1.5
  0
LTYPE
  2
chain_double_dash
 70
   64
  3
------------ -- -- -------------
 72
   65
 73
    6
 40
23.5
 49
12
 49
-1.5
 49
3.5
 49
-1.5
 49
3.5
 49
-1.5
  0
LTYPE
  2
dashed_dotted
 70
   64
  3
-----------     -     ----------
 72
   65
 73
    4
 40
9.25
 49
6
 49
-1.5
 49
0.25
 49
-1.5
  0
LTYPE
  2
double-dashed_dotted
 70
   64
  3
------   -----------   -   -----
 72
   65
 73
    6
 40
16.75
 49
6
 49
-1.5
 49
6
 49
-1.5
 49
0.25
 49
-1.5
  0
LTYPE
  2
dashed_double-dotted
 70
   64
  3
---------    -    -    ---------
 72
   65
 73
    6
 40
11
 49
6
 49
-1.5
 49
0.25
 49
-1.5
 49
0.25
 49
-1.5
  0
LTYPE
  2
double-dashed_double-dotted
 70
   64
  3
-----   ---------   -   -   ----
 72
   65
 73
    8
 40
18.5
 49
6
 49
-1.5
 49
6
 49
-1.5
 49
0.25
 49
-1.5
 49
0.25
 49
-1.5
  0
LTYPE
  2
dashed_triplicate-dotted
 70
   64
  3
-------    -    -    -    ------
 72
   65
 73
    8
 40
12.75
 49
6
 49
-1.5
 49
0.25
 49
-1.5
 49
0.25
 49
-1.5
 49
0.25
 49
-1.5
  0
LTYPE
  2
double-dashed_triplicate-dotted
 70
   64
  3
-----  ---------  -  -  -  -----
 72
   65
 73
   10
 40
20.25
 49
6
 49
-1.5
 49
6
 49
-1.5
 49
0.25
 49
-1.5
 49
0.25
 49
-1.5
 49
0.25
 49
-1.5
  0
LTYPE
  2
undefined
 70
   64
  3
--------------------------------
 72
   65
 73
    0
 40
0
  0
LTYPE
  2
HIDDEN
 70
   64
  3
------     -----------     -----
 72
   65
 73
    2
 40
0.375
 49
0.25
 49
-0.125
  0
LTYPE
  2
CENTER
 70
   64
  3
----------    ----    ----------
 72
   65
 73
    4
 40
2
 49
1.25
 49
-0.25
 49
0.25
 49
-0.25
  0
LTYPE
  2
_
 70
   64
  3
                                
 72
   65
 73
    0
 40
0
  0
LTYPE
  2
__20
 70
   64
  3
                                
 72
   65
 73
    0
 40
0
  0
LTYPE
  2
__21
 70
   64
  3
                                
 72
   65
 73
    0
 40
0
  0
LTYPE
  2
__22
 70
   64
  3
                                
 72
   65
 73
    0
 40
0
  0
LTYPE
  2
__23
 70
   64
  3
                                
 72
   65
 73
    0
 40
0
  0
LTYPE
  2
__24
 70
   64
  3
                                
 72
   65
 73
    0
 40
0
  0
LTYPE
  2
__25
 70
   64
  3
                                
 72
   65
 73
    0
 40
0
  0
LTYPE
  2
__26
 70
   64
  3
                                
 72
   65
 73
    0
 40
0
  0
LTYPE
  2
__27
 70
   64
  3
                                
 72
   65
 73
    0
 40
0
  0
LTYPE
  2
__28
 70
   64
  3
                                
 72
   65
 73
    0
 40
0
  0
LTYPE
  2
__29
 70
   64
  3
                                
 72
   65
 73
    0
 40
0
  0
LTYPE
  2
__30
 70
   64
  3
                                
 72
   65
 73
    0
 40
0
  0
LTYPE
  2
__31
 70
   64
  3
                                
 72
   65
 73
    0
 40
0
  0
LTYPE
  2
__32
 70
   64
  3
                                
 72
   65
 73
    0
 40
0
  0
ENDTAB
  0
TABLE
  2
STYLE
  5
3
100
AcDbSymbolTable
 70
     1
  0
STYLE
  5
10
100
AcDbSymbolTableRecord
100
AcDbTextStyleTableRecord
  2
STANDARD
 70
     0
 40
0.0
 41
1.0
 50
0.0
 71
     0
 42
0.2
  3
txt
  4
bigfont.shx
  0
STYLE
  5
26
100
AcDbSymbolTableRecord
100
AcDbTextStyleTableRecord
  2
TATEGAKI
 70
    68
 40
0.0
 41
1.0
 50
0.0
 71
     0
 42
1.0
  3
txt
  4
bigfont.shx
  0
ENDTAB
  0
TABLE
  2
LAYER
 70
    4
  0
LAYER
  2
_0-0_0
 70
   64
 62
    7
  6
CONTINUOUS
  0
LAYER
  2
_0-1_A0
 70
   64
 62
    7
  6
CONTINUOUS
  0
LAYER
  2
_0-3_H0
 70
   64
 62
    7
  6
CONTINUOUS
  0
LAYER
  2
ADD_LINE
 70
   64
 62
    7
  6
CONTINUOUS
  0
ENDTAB
  0
ENDSEC
  0
SECTION
  2
BLOCKS
  0
BLOCK
  2
-000-_OPEN
 70
   64
 10
0
 20
0
 30
0
  0
LINE
  8
_0-0_0
  6
CONTINUOUS
 62
    7
 10
-1
 20
0.166667
 11
0
 21
0
  0
LINE
  8
_0-0_0
  6
CONTINUOUS
 62
    7
 10
0
 20
0
 11
-1
 21
-0.166667
  0
LINE
  8
_0-0_0
  6
CONTINUOUS
 62
    7
 10
0
 20
0
 11
-1
 21
0
  0
ENDBLK
  0
BLOCK
  2
-001-_D13
 70
   64
 10
0
 20
0
 30
0
  0
LINE
  8
_0-1_A0
  6
CONTINUOUS
 62
    7
 10
252.24147653430298
 20
241.7084349491952
 11
269.13069381336987
 21
241.7084349491952
  0
LINE
  8
_0-1_A0
  6
CONTINUOUS
 62
    7
 10
256.30546879326027
 20
251.70843494919961
 11
269.13069381336987
 21
251.70843494919961
  0
LINE
  8
_0-1_A0
  6
CONTINUOUS
 62
    7
 10
268.13069381336987
 20
244.7084349491952
 11
268.13069381336987
 21
248.70843494919961
  0
INSERT
  2
-000-_OPEN
  8
_0-1_A0
 10
268.13069381336987
 20
241.7084349491952
 41
3
 42
3
 50
270
  0
INSERT
  2
-000-_OPEN
  8
_0-1_A0
 10
268.13069381336987
 20
251.70843494919961
 41
3
 42
3
 50
90
  0
TEXT
  8
_0-1_A0
 62
    7
 10
258.04099999999999
 20
239.62799999999998
 40
4
 41
1
 50
0
  1
20
  0
POINT
  8
_0-5_Defpoints
 62
    7
 10
251.941476534303
 20
241.7084349491952
  0
POINT
  8
_0-5_Defpoints
 62
    7
 10
256.00546879326032
 20
251.70843494919961
  0
POINT
  8
_0-5_Defpoints
 62
    7
 10
268.13069381336987
 20
251.70843494919961
  0
ENDBLK
  0
BLOCK
  2
-002-_D14
 70
   64
 10
0
 20
0
 30
0
  0
LINE
  8
_0-1_A0
  6
CONTINUOUS
 62
    7
 10
291.29273288948297
 20
218.4303312099382
 11
291.29273288948297
 21
180.57541384177889
  0
LINE
  8
_0-1_A0
  6
CONTINUOUS
 62
    7
 10
283.79273288892142
 20
174.57524212264519
 11
283.79273288892142
 21
182.57541384177889
  0
LINE
  8
_0-1_A0
  6
CONTINUOUS
 62
    7
 10
288.29273288948297
 20
181.57541384177901
 11
286.79273288892142
 21
181.57541384177901
  0
INSERT
  2
-000-_OPEN
  8
_0-1_A0
 10
291.29273288948297
 20
181.57541384177901
 41
3
 42
3
 50
0
  0
INSERT
  2
-000-_OPEN
  8
_0-1_A0
 10
283.79273288892142
 20
181.57541384177901
 41
3
 42
3
 50
180
  0
TEXT
  8
_0-1_A0
 62
    7
 10
279.543
 20
176.585
 40
4
 41
1
 50
0
  1
15
  0
POINT
  8
_0-5_Defpoints
 62
    7
 10
291.29273288948297
 20
218.73033120993821
  0
POINT
  8
_0-5_Defpoints
 62
    7
 10
283.79273288892142
 20
174.2752421226452
  0
POINT
  8
_0-5_Defpoints
 62
    7
 10
283.79273288892142
 20
181.57541384177901
  0
ENDBLK
  0
BLOCK
  2
-003-_U30
 70
   64
 10
0
 20
0
 30
0
  0
TEXT
  8
_0-1_A0
 62
    7
 10
179.57213545992689
 20
277.95516133761992
 40
4
 41
1
 50
0
  1
294
  0
ENDBLK
  0
BLOCK
  2
-004-_D15
 70
   64
 10
0
 20
0
 30
0
  0
LINE
  8
_0-1_A0
  6
CONTINUOUS
 62
    7
 10
111.40546879326019
 20
252.00843496114251
 11
111.40546879326019
 21
278.45516133761992
  0
LINE
  8
_0-1_A0
  6
CONTINUOUS
 62
    7
 10
114.40546879326029
 20
277.45516133761992
 11
255.40546879326029
 21
277.45516133761992
  0
INSERT
  2
-000-_OPEN
  8
_0-1_A0
 10
111.40546879326019
 20
277.45516133761992
 41
3
 42
3
 50
180
  0
INSERT
  2
-000-_OPEN
  8
_0-1_A0
 10
258.40546879326029
 20
277.45516133761992
 41
3
 42
3
 50
0
  0
LINE
  8
_0-1_A0
  6
CONTINUOUS
 62
    7
 10
258.40546879326029
 20
252.00843496112051
 11
258.40546879326029
 21
278.45516133761992
  0
INSERT
  2
-003-_U30
  8
_0-0_0
 10
0
 20
0
 41
1
 42
1
 50
0
  0
ENDBLK
  0
BLOCK
  2
-005-_U31
 70
   64
 10
0
 20
0
 30
0
  0
TEXT
  8
_0-1_A0
 62
    7
 10
247.90546879326029
 20
264.34800205795329
 40
4
 41
1
 50
0
  1
30
  0
ENDBLK
  0
BLOCK
  2
-006-_D16
 70
   64
 10
0
 20
0
 30
0
  0
LINE
  8
_0-1_A0
  6
CONTINUOUS
 62
    7
 10
243.40546879326029
 20
245.6180326969584
 11
243.40546879326029
 21
264.84800205795329
  0
LINE
  8
_0-1_A0
  6
CONTINUOUS
 62
    7
 10
246.40546879326029
 20
263.84800205795329
 11
255.40546879326029
 21
263.84800205795329
  0
INSERT
  2
-000-_OPEN
  8
_0-1_A0
 10
243.40546879326029
 20
263.84800205795329
 41
3
 42
3
 50
180
  0
INSERT
  2
-000-_OPEN
  8
_0-1_A0
 10
258.40546879326029
 20
263.84800205795329
 41
3
 42
3
 50
0
  0
INSERT
  2
-005-_U31
  8
_0-0_0
 10
0
 20
0
 41
1
 42
1
 50
0
  0
ENDBLK
  0
BLOCK
  2
-007-_U32
 70
   64
 10
0
 20
0
 30
0
  0
TEXT
  8
_0-1_A0
 62
    7
 10
180.82213545992689
 20
264.34800205795329
 40
4
 41
1
 50
0
  1
229
  0
ENDBLK
  0
BLOCK
  2
-008-_D17
 70
   64
 10
0
 20
0
 30
0
  0
LINE
  8
_0-1_A0
  6
CONTINUOUS
 62
    7
 10
240.40546879326029
 20
263.84800205795329
 11
131.90546879326029
 21
263.84800205795329
  0
INSERT
  2
-000-_OPEN
  8
_0-1_A0
 10
243.40546879326029
 20
263.84800205795329
 41
3
 42
3
 50
0
  0
INSERT
  2
-000-_OPEN
  8
_0-1_A0
 10
128.90546879326029
 20
263.84800205795329
 41
3
 42
3
 50
180
  0
LINE
  8
_0-1_A0
  6
CONTINUOUS
 62
    7
 10
128.90546879326029
 20
245.5309666823918
 11
128.90546879326029
 21
264.84800205795329
  0
INSERT
  2
-007-_U32
  8
_0-0_0
 10
0
 20
0
 41
1
 42
1
 50
0
  0
ENDBLK
  0
BLOCK
  2
-009-_U33
 70
   64
 10
0
 20
0
 30
0
  0
TEXT
  8
_0-1_A0
 62
    7
 10
187.07213545992689
 20
271.29191413722787
 40
4
 41
1
 50
0
  1
264
  0
ENDBLK
  0
BLOCK
  2
-010-_D18
 70
   64
 10
0
 20
0
 30
0
  0
LINE
  8
_0-1_A0
  6
CONTINUOUS
 62
    7
 10
255.40546879326029
 20
270.79191413722787
 11
129.40546879326029
 21
270.79191413722787
  0
INSERT
  2
-000-_OPEN
  8
_0-1_A0
 10
258.40546879326029
 20
270.79191413722787
 41
3
 42
3
 50
0
  0
INSERT
  2
-000-_OPEN
  8
_0-1_A0
 10
126.40546879326029
 20
270.79191413722787
 41
3
 42
3
 50
180
  0
LINE
  8
_0-1_A0
  6
CONTINUOUS
 62
    7
 10
126.40546879326029
 20
252.0084349609846
 11
126.40546879326029
 21
271.79191413722787
  0
INSERT
  2
-009-_U33
  8
_0-0_0
 10
0
 20
0
 41
1
 42
1
 50
0
  0
ENDBLK
  0
BLOCK
  2
-011-_U34
 70
   64
 10
0
 20
0
 30
0
  0
TEXT
  8
_0-1_A0
 62
    7
 10
313.04966731713938
 20
164.0636645430747
 40
4
 41
1
 50
90
  1
200
  0
ENDBLK
  0
BLOCK
  2
-012-_D19
 70
   64
 10
0
 20
0
 30
0
  0
LINE
  8
_0-1_A0
  6
CONTINUOUS
 62
    7
 10
291.5927329014039
 20
218.73033120993821
 11
314.54966731713938
 21
218.73033120993821
  0
LINE
  8
_0-1_A0
  6
CONTINUOUS
 62
    7
 10
313.54966731713938
 20
215.73033120993821
 11
313.54966731713938
 21
121.7303312095445
  0
INSERT
  2
-000-_OPEN
  8
_0-1_A0
 10
313.54966731713938
 20
218.73033120993821
 41
3
 42
3
 50
90
  0
INSERT
  2
-000-_OPEN
  8
_0-1_A0
 10
313.54966731713938
 20
118.7303312095445
 41
3
 42
3
 50
270
  0
LINE
  8
_0-1_A0
  6
CONTINUOUS
 62
    7
 10
291.59273290140379
 20
118.7303312095445
 11
314.54966731713938
 21
118.7303312095445
  0
INSERT
  2
-011-_U34
  8
_0-0_0
 10
0
 20
0
 41
1
 42
1
 50
0
  0
ENDBLK
  0
BLOCK
  2
-013-_U35
 70
   64
 10
0
 20
0
 30
0
  0
TEXT
  8
_0-1_A0
 62
    7
 10
280.79273288948297
 20
229.5636633362352
 40
4
 41
1
 50
0
  1
30
  0
ENDBLK
  0
BLOCK
  2
-014-_D20
 70
   64
 10
0
 20
0
 30
0
  0
LINE
  8
_0-1_A0
  6
CONTINUOUS
 62
    7
 10
276.29273288948297
 20
219.03033122185908
 11
276.29273288948297
 21
230.0636633362352
  0
LINE
  8
_0-1_A0
  6
CONTINUOUS
 62
    7
 10
279.29273288948297
 20
229.0636633362352
 11
288.29273288948297
 21
229.0636633362352
  0
INSERT
  2
-000-_OPEN
  8
_0-1_A0
 10
276.29273288948297
 20
229.0636633362352
 41
3
 42
3
 50
180
  0
INSERT
  2
-000-_OPEN
  8
_0-1_A0
 10
291.29273288948297
 20
229.0636633362352
 41
3
 42
3
 50
0
  0
LINE
  8
_0-1_A0
  6
CONTINUOUS
 62
    7
 10
291.29273288948297
 20
219.03033122185908
 11
291.29273288948297
 21
230.0636633362352
  0
INSERT
  2
-013-_U35
  8
_0-0_0
 10
0
 20
0
 41
1
 42
1
 50
0
  0
ENDBLK
  0
BLOCK
  2
-015-_U36
 70
   64
 10
0
 20
0
 30
0
  0
TEXT
  8
_0-1_A0
 62
    7
 10
103.35312260819719
 20
164.0636645430489
 40
4
 41
1
 50
90
  1
198
  0
ENDBLK
  0
BLOCK
  2
-016-_D21
 70
   64
 10
0
 20
0
 30
0
  0
LINE
  8
_0-1_A0
  6
CONTINUOUS
 62
    7
 10
113.60546878133919
 20
218.23033120971558
 11
102.85312260819719
 21
218.23033120971558
  0
LINE
  8
_0-1_A0
  6
CONTINUOUS
 62
    7
 10
103.85312260819719
 20
215.23033120971558
 11
103.85312260819719
 21
122.2303312097157
  0
INSERT
  2
-000-_OPEN
  8
_0-1_A0
 10
103.85312260819719
 20
218.23033120971558
 41
3
 42
3
 50
90
  0
INSERT
  2
-000-_OPEN
  8
_0-1_A0
 10
103.85312260819719
 20
119.2303312097157
 41
3
 42
3
 50
270
  0
LINE
  8
_0-1_A0
  6
CONTINUOUS
 62
    7
 10
113.60546878133899
 20
119.2303312097157
 11
102.85312260819719
 21
119.2303312097157
  0
INSERT
  2
-015-_U36
  8
_0-0_0
 10
0
 20
0
 41
1
 42
1
 50
0
  0
ENDBLK
  0
BLOCK
  2
-017-_U23
 70
   64
 10
0
 20
0
 30
0
  0
INSERT
  2
-000-_OPEN
  8
_0-1_A0
 10
282.7985986683667
 20
169.4880891869771
 41
3
 42
3
 50
320.57251988854517
  0
LINE
  8
_0-1_A0
  6
CONTINUOUS
 62
    7
 10
280.48131149981651
 20
171.39339235930239
 11
273.15379010593358
 21
177.41817424500288
  0
LINE
  8
_0-1_A0
  6
CONTINUOUS
 62
    7
 10
273.15379010593358
 20
177.41817424500288
 11
263.11379010593361
 21
177.41817424500288
  0
ENDBLK
  0
BLOCK
  2
-018-_U24
 70
   64
 10
0
 20
0
 30
0
  0
TEXT
  8
_0-1_A0
 62
    7
 10
262.14478987705172
 20
179.51817424500291
 40
2.399999999999999
 41
1
 50
0
  1
\U+22055穴
  0
ENDBLK
  0
BLOCK
  2
-019-_U25
 70
   64
 10
0
 20
0
 30
0
  0
INSERT
  2
-000-_OPEN
  8
_0-1_A0
 10
243.0161640724045
 20
241.0968249146704
 41
3
 42
3
 50
66.723237722414566
  0
LINE
  8
_0-1_A0
  6
CONTINUOUS
 62
    7
 10
241.83064515831119
 20
238.3410047274435
 11
234.9034830005429
 21
222.23834024218538
  0
LINE
  8
_0-1_A0
  6
CONTINUOUS
 62
    7
 10
234.9034830005429
 20
222.23834024218538
 11
216.61281633387631
 21
222.23834024218538
  0
ENDBLK
  0
BLOCK
  2
-020-_U26
 70
   64
 10
0
 20
0
 30
0
  0
TEXT
  8
_0-1_A0
 62
    7
 10
214.54948250463229
 20
224.29834024218538
 40
2.439999999999999
 41
1
 50
0
  1
4-\U+22052.9穴
  0
ENDBLK
  0
BLOCK
  2
-021-_U28
 70
   64
 10
0
 20
0
 30
0
  0
INSERT
  2
-000-_OPEN
  8
_0-1_A0
 10
237.81625281007521
 20
240.90045937705801
 41
3
 42
3
 50
60.08151923183221
  0
LINE
  8
_0-1_A0
  6
CONTINUOUS
 62
    7
 10
236.3199508153246
 20
238.30025162756851
 11
230.5292089328154
 21
228.2373552530274
  0
LINE
  8
_0-1_A0
  6
CONTINUOUS
 62
    7
 10
230.5292089328154
 20
228.2373552530274
 11
196.76654226614869
 21
228.2373552530274
  0
ENDBLK
  0
BLOCK
  2
-022-_U29
 70
   64
 10
0
 20
0
 30
0
  0
TEXT
  8
_0-1_A0
 62
    7
 10
195.19154135062129
 20
230.49735525302739
 40
2.2400000000000002
 41
1
 50
0
  1
６ー外径\U+2205４上向エンボス
  0
ENDBLK
  0
BLOCK
  2
-023-_U37
 70
   64
 10
0
 20
0
 30
0
  0
TEXT
  8
_0-1_A0
 62
    7
 10
311.93329242885931
 20
228.24218118495539
 40
2.8209999132156369
 41
1
 50
0
  1
外観面
  0
LINE
  8
_0-1_A0
  6
CONTINUOUS
 62
    3
 10
310.00729248464921
 20
227.46318119353858
 11
311.93329242885931
 21
227.46318119353858
  0
LINE
  8
_0-1_A0
  6
CONTINUOUS
 62
    3
 10
293.50042532558057
 20
212.2753538595123
 11
310.00729248464921
 21
227.46318119353858
  0
INSERT
  2
-000-_OPEN
  8
_0-1_A0
 10
291.29273288948297
 20
210.2440749255405
 41
3
 42
3
 50
222.61689362224839
  0
LINE
  8
_0-1_A0
  6
CONTINUOUS
 62
    3
 10
311.93329242885931
 20
227.46318119353858
 11
321.34662547291151
 21
227.46318119353858
  0
ENDBLK
  0
BLOCK
  2
-024-_U38
 70
   64
 10
0
 20
0
 30
0
  0
TEXT
  8
_0-3_H0
 62
    7
 10
57.205600116729726
 20
283.66300002574922
 40
1.673999948501587
 41
1
 50
0
  1
技連番号
  0
ENDBLK
  0
BLOCK
  2
-025-_U39
 70
   64
 10
0
 20
0
 30
0
  0
TEXT
  8
_0-3_H0
 62
    7
 10
68.976200123786924
 20
283.58550002813342
 40
1.8289999437332149
 41
1
 50
0
  1
年 月 日
  0
ENDBLK
  0
BLOCK
  2
-026-_U40
 70
   64
 10
0
 20
0
 30
0
  0
TEXT
  8
_0-3_H0
 62
    7
 10
80.602666740417475
 20
283.60100002765659
 40
1.797999944686889
 41
1
 50
0
  1
担 当
  0
ENDBLK
  0
BLOCK
  2
-027-_U41
 70
   64
 10
0
 20
0
 30
0
  0
TEXT
  8
_0-3_H0
 62
    7
 10
15.850666732788079
 20
283.4925000309945
 40
2.0149999380111691
 41
1
 50
0
  1
記号
  0
ENDBLK
  0
BLOCK
  2
-028-_U42
 70
   64
 10
0
 20
0
 30
0
  0
TEXT
  8
_0-3_H0
 62
    7
 10
29.805666918754578
 20
283.4925000309945
 40
2.0149999380111691
 41
1
 50
0
  1
変　更　履　歴
  0
ENDBLK
  0
BLOCK
  2
-029-_U43
 70
   64
 10
0
 20
0
 30
0
  0
TEXT
  8
_0-3_H0
 62
    7
 10
17.199999999999999
 20
273.93817062273467
 40
1.6639999389648429
 41
1
 50
0
  1
B
  0
ENDBLK
  0
BLOCK
  2
-030-_U44
 70
   64
 10
0
 20
0
 30
0
  0
TEXT
  8
_0-3_H0
 62
    7
 10
17.199999999999999
 20
278.43817062273467
 40
1.6639999389648429
 41
1
 50
0
  1
A
  0
ENDBLK
  0
BLOCK
  2
-031-_U45
 70
   64
 10
0
 20
0
 30
0
  0
TEXT
  8
_0-3_H0
 62
    7
 10
17.199999999999999
 20
269.43800003051762
 40
1.6639999389648429
 41
1
 50
0
  1
C
  0
ENDBLK
  0
BLOCK
  2
-032-_U46
 70
   64
 10
0
 20
0
 30
0
  0
TEXT
  8
_0-3_H0
 62
    7
 10
17.199999999999999
 20
264.93800003051762
 40
1.6639999389648429
 41
1
 50
0
  1
D
  0
ENDBLK
  0
BLOCK
  2
-033-_U47
 70
   64
 10
0
 20
0
 30
0
  0
TEXT
  8
_0-3_H0
 62
    7
 10
17.199999999999999
 20
260.43800003051762
 40
1.6639999389648429
 41
1
 50
0
  1
E
  0
ENDBLK
  0
BLOCK
  2
-034-_U48
 70
   64
 10
0
 20
0
 30
0
  0
TEXT
  8
_0-3_H0
 62
    7
 10
336.80999999046309
 20
32.409999895095801
 40
3.0999999046325679
 41
1
 50
0
  1
型名
  0
ENDBLK
  0
BLOCK
  2
-035-_U49
 70
   64
 10
0
 20
0
 30
0
  0
TEXT
  8
_0-3_H0
 62
    7
 10
336.80999999046309
 20
23.806666564941398
 40
3.0999999046325679
 41
1
 50
0
  1
図番
  0
ENDBLK
  0
BLOCK
  2
-036-_U50
 70
   64
 10
0
 20
0
 30
0
  0
TEXT
  8
_0-3_H0
 62
    7
 10
262.06666666666671
 20
34.499999999999971
 40
4
 41
1
 50
0
  1
型　　名
  0
ENDBLK
  0
BLOCK
  2
-037-_U51
 70
   64
 10
0
 20
0
 30
0
  0
TEXT
  8
_0-3_H0
 62
    7
 10
294.79999999999989
 20
34.499999999999971
 40
4
 41
1
 50
0
  1
製品コード
  0
ENDBLK
  0
BLOCK
  2
-038-_U52
 70
   64
 10
0
 20
0
 30
0
  0
TEXT
  8
_0-3_H0
 62
    7
 10
351.25
 20
17.71
 40
5.58
 41
1
 50
0
  1
１０９２２５８
  0
ENDBLK
  0
BLOCK
  2
-039-_U53
 70
   64
 10
0
 20
0
 30
0
  0
TEXT
  8
_0-3_H0
 62
    7
 10
351.01600000000001
 20
10.71
 40
5.58
 41
1
 50
0
  1
製 品 姿 図
  0
ENDBLK
  0
BLOCK
  2
-040-_U54
 70
   64
 10
0
 20
0
 30
0
  0
TEXT
  8
_0-3_H0
 62
    7
 10
336.80999999046309
 20
16.806666564941398
 40
3.0999999046325679
 41
1
 50
0
  1
図名
  0
ENDBLK
  0
BLOCK
  2
-041-_U55
 70
   64
 10
0
 20
0
 30
0
  0
TEXT
  8
_0-3_H0
 62
    7
 10
400.0200000047684
 20
17.240000081062309
 40
2.2000000476837149
 41
1
 50
0
  1
変更歴
  0
ENDBLK
  0
BLOCK
  2
-042-_U56
 70
   64
 10
0
 20
0
 30
0
  0
TEXT
  8
_0-3_H0
 62
    7
 10
308.0496000843749
 20
31.4080000186668
 40
2.183999962806701
 41
1
 50
0
  1
変更承認
  0
ENDBLK
  0
BLOCK
  2
-043-_U57
 70
   64
 10
0
 20
0
 30
0
  0
TEXT
  8
_0-3_H0
 62
    7
 10
280.7533334057237
 20
31.226000021766239
 40
2.5479999566078181
 41
1
 50
0
  1
設　計
  0
ENDBLK
  0
BLOCK
  2
-044-_U58
 70
   64
 10
0
 20
0
 30
0
  0
TEXT
  8
_0-3_H0
 62
    7
 10
266.7533334057237
 20
31.226000021766239
 40
2.5479999566078181
 41
1
 50
0
  1
照　査
  0
ENDBLK
  0
BLOCK
  2
-045-_U59
 70
   64
 10
0
 20
0
 30
0
  0
TEXT
  8
_0-3_H0
 62
    7
 10
252.7533334057237
 20
31.226000021766239
 40
2.5479999566078181
 41
1
 50
0
  1
承　認
  0
ENDBLK
  0
BLOCK
  2
-046-_U60
 70
   64
 10
0
 20
0
 30
0
  0
TEXT
  8
_0-3_H0
 62
    7
 10
322.0496000843749
 20
31.4080000186668
 40
2.183999962806701
 41
1
 50
0
  1
変更照査
  0
ENDBLK
  0
BLOCK
  2
-047-_U61
 70
   64
 10
0
 20
0
 30
0
  0
TEXT
  8
_0-3_H0
 62
    7
 10
307.3999999999998
 20
11.82
 40
3.3599999999999989
 41
1
 50
0
  1
三角法
  0
ENDBLK
  0
BLOCK
  2
-048-_U62
 70
   64
 10
0
 20
0
 30
0
  0
TEXT
  8
_0-3_H0
 62
    7
 10
329.73466667970012
 20
10.752000019550299
 40
2.295999960899353
 41
1
 50
0
  1
2
  0
ENDBLK
  0
BLOCK
  2
-049-_U63
 70
   64
 10
0
 20
0
 30
0
  0
TEXT
  8
_0-3_H0
 62
    7
 10
327.11733333985029
 20
13.9520000195473
 40
2.295999960899353
 41
1
 50
0
  1
1
  0
ENDBLK
  0
BLOCK
  2
-050-_U64
 70
   64
 10
0
 20
0
 30
0
  0
TEXT
  8
_0-3_H0
 62
    7
 10
322.30999999046321
 20
16.806666564941409
 40
3.0999999046325679
 41
1
 50
0
  1
尺度
  0
ENDBLK
  0
BLOCK
  2
-051-_U65
 70
   64
 10
0
 20
0
 30
0
  0
TEXT
  8
_0-3_H0
 62
    7
 10
331.93333333333328
 20
34.5
 40
4
 41
1
 50
0
  1
色　　調
  0
ENDBLK
  0
BLOCK
  2
-052-_U66
 70
   64
 10
0
 20
0
 30
0
  0
TEXT
  8
_0-3_H0
 62
    7
 10
392.58533333333332
 20
34.840000000000003
 40
3.3199999999999989
 41
1
 50
0
  1
区分No.
  0
ENDBLK
  0
BLOCK
  2
-053-_U67
 70
   64
 10
0
 20
0
 30
0
  0
TEXT
  8
_0-3_H0
 62
    7
 10
340.99999999989341
 20
28.29999999999999
 40
3.7000000000000001
 41
1
 50
0
  1
CTP-20-YMP
  0
ENDBLK
  0
BLOCK
  2
-054-_U68
 70
   64
 10
0
 20
0
 30
0
  0
TEXT
  8
_0-3_H0
 62
    7
 10
340.61146667850749
 20
24.4942666606903
 40
2.913999910354613
 41
1
 50
0
  1
ワンド株式会社殿向け 横幕板
  0
ENDBLK
  0
BLOCK
  2
-055-_U69
 70
   64
 10
0
 20
0
 30
0
  0
TEXT
  8
_0-3_H0
 62
    7
 10
89.866785640360831
 20
48.286565598275082
 40
4.5499999999999989
 41
1
 50
0
  1
付属品
  0
ENDBLK
  0
BLOCK
  2
-056-_U70
 70
   64
 10
0
 20
0
 30
0
  0
TEXT
  8
_0-3_H0
 62
    7
 10
45.534691482079367
 20
39.13826467359857
 40
4.6999999999999992
 41
1
 50
0
  1
＋トラスタッピンネジ(\U+22054×8)
  0
ENDBLK
  0
BLOCK
  2
-057-_U71
 70
   64
 10
0
 20
0
 30
0
  0
TEXT
  8
_0-3_H0
 62
    7
 10
46.161358148746039
 20
32.138264673598577
 40
4.5
 41
1
 50
0
  1
木ネジ(\U+22054.1×16)
  0
ENDBLK
  0
BLOCK
  2
-058-_U72
 70
   64
 10
0
 20
0
 30
0
  0
TEXT
  8
_0-3_H0
 62
    7
 10
136.759875750323
 20
32.138264673610208
 40
4.4500000000000001
 41
1
 50
0
  1
１本
  0
ENDBLK
  0
BLOCK
  2
-059-_U73
 70
   64
 10
0
 20
0
 30
0
  0
TEXT
  8
_0-3_H0
 62
    7
 10
137.6498757503229
 20
39.138264673610208
 40
4.4500000000000001
 41
1
 50
0
  1
２本
  0
ENDBLK
  0
BLOCK
  2
-060-_U74
 70
   64
 10
0
 20
0
 30
0
  0
TEXT
  8
_0-3_H0
 62
    7
 10
294.83826673761058
 20
31.226000021766239
 40
2.5479999566078181
 41
1
 50
0
  1
製　図
  0
ENDBLK
  0
BLOCK
  2
-061-_U75
 70
   64
 10
0
 20
0
 30
0
  0
TEXT
  8
_0-3_H0
 62
    7
 10
295.90390862944161
 20
25.859010152284259
 40
2.4300000000000001
 41
1
 50
0
  1
篠原
  0
ENDBLK
  0
BLOCK
  2
-062-_U76
 70
   64
 10
0
 20
0
 30
0
  0
TEXT
  8
_0-3_H0
 62
    7
 10
293.28267014812689
 20
19.68068021699862
 40
1.7639999699592578
 41
1
 50
0
  1
2023/03/29
  0
ENDBLK
  0
BLOCK
  2
-063-_U77
 70
   64
 10
0
 20
0
 30
0
  0
TEXT
  8
_0-3_H0
 62
    7
 10
281.90390862944161
 20
25.859010152284259
 40
2.4300000000000001
 41
1
 50
0
  1
篠原
  0
ENDBLK
  0
BLOCK
  2
-064-_U78
 70
   64
 10
0
 20
0
 30
0
  0
TEXT
  8
_0-3_H0
 62
    7
 10
279.28267014812701
 20
19.68068021699862
 40
1.7639999699592578
 41
1
 50
0
  1
2023/03/29
  0
ENDBLK
  0
BLOCK
  2
-065-_U79
 70
   64
 10
0
 20
0
 30
0
  0
TEXT
  8
_0-3_H0
 62
    7
 10
251
 20
40.039999999999999
 40
2.919999999999999
 41
1
 50
0
  1
CTP-20-YMP-BK
  0
ENDBLK
  0
BLOCK
  2
-066-_U80
 70
   64
 10
0
 20
0
 30
0
  0
TEXT
  8
_0-3_H0
 62
    7
 10
294.56333333333327
 20
40.039999999999999
 40
2.919999999999999
 41
1
 50
0
  1
109WL5SW
  0
ENDBLK
  0
BLOCK
  2
-067-_U81
 70
   64
 10
0
 20
0
 30
0
  0
TEXT
  8
_0-3_H0
 62
    7
 10
320.87733333333341
 20
40.579999999999991
 40
1.84
 41
1
 50
0
  1
ブラック（ブラックＦＪ）
  0
ENDBLK
  0
BLOCK
  2
-068-_U82
 70
   64
 10
0
 20
0
 30
0
  0
TEXT
  8
_0-3_H0
 62
    7
 10
251
 20
45.039999999999999
 40
2.919999999999999
 41
1
 50
0
  1
CTP-20-YMP-W
  0
ENDBLK
  0
BLOCK
  2
-069-_U83
 70
   64
 10
0
 20
0
 30
0
  0
TEXT
  8
_0-3_H0
 62
    7
 10
295.05000000000001
 20
45.039999999999999
 40
2.919999999999999
 41
1
 50
0
  1
109WL5XP
  0
ENDBLK
  0
BLOCK
  2
-070-_U84
 70
   64
 10
0
 20
0
 30
0
  0
TEXT
  8
_0-3_H0
 62
    7
 10
320.87733333333341
 20
45.579999999999991
 40
1.84
 41
1
 50
0
  1
ホワイト（Ｃ－２０２）
  0
ENDBLK
  0
BLOCK
  2
-071-_U85
 70
   64
 10
0
 20
0
 30
0
  0
TEXT
  8
_0-3_H0
 62
    7
 10
399.02666666666658
 20
40.039999999999999
 40
2.919999999999999
 41
1
 50
0
  1
-
  0
ENDBLK
  0
BLOCK
  2
-072-_U86
 70
   64
 10
0
 20
0
 30
0
  0
TEXT
  8
_0-3_H0
 62
    7
 10
399.02666666666658
 20
45.039999999999999
 40
2.919999999999999
 41
1
 50
0
  1
-
  0
ENDBLK
  0
ENDSEC
  0
SECTION
  2
ENTITIES
  0
LINE
  8
_0-1_A0
  6
CONTINUOUS
 62
    3
 10
123.9054687932504
 20
118.85033125024615
 11
255.40546879325978
 21
118.85033125020144
  0
LINE
  8
_0-1_A0
  6
CONTINUOUS
 62
    3
 10
123.9054687932506
 20
218.85033125024625
 11
255.40546879326012
 21
218.85033125020146
  0
LINE
  8
_0-1_A0
  6
CONTINUOUS
 62
    3
 10
255.90546879349312
 20
218.35033125020225
 11
255.90546879349312
 21
119.35033125020214
  0
LINE
  8
_0-1_A0
  6
CONTINUOUS
 62
    3
 10
124.90546879326029
 20
236.82843498958806
 11
255.90546879326018
 21
236.82843498973335
  0
LINE
  8
_0-1_A0
  6
CONTINUOUS
 62
    3
 10
108.90546879325999
 20
251.82843498957035
 11
255.90546879326001
 21
251.82843498973335
  0
LINE
  8
_0-1_A0
  6
CONTINUOUS
 62
    3
 10
255.90546879326029
 20
251.82843498973065
 11
255.90546879326029
 21
236.82843498973053
  0
LINE
  8
_0-1_A0
  6
CONTINUOUS
 62
    3
 10
273.79273288948297
 20
218.85033125046936
 11
288.79273288948297
 21
218.85033125046936
  0
LINE
  8
_0-1_A0
  6
CONTINUOUS
 62
    3
 10
273.79273288948292
 20
118.85033125008395
 11
288.79273288948292
 21
118.85033125007565
  0
LINE
  8
_0-1_A0
  6
CONTINUOUS
 62
    3
 10
288.79273288948297
 20
218.85033125046936
 11
288.79273288948297
 21
118.85033125007565
  0
LINE
  8
_0-1_A0
  6
CONTINUOUS
 62
    3
 10
123.9054687932504
 20
218.35033125024625
 11
255.40546879326041
 21
218.35033125020146
  0
LINE
  8
_0-1_A0
  6
CONTINUOUS
 62
    3
 10
123.905468793251
 20
119.35033125024615
 11
255.90546879349329
 21
119.35033125020125
  0
LINE
  8
_0-1_A0
  6
HIDDEN
 62
    3
 10
288.29273288948297
 20
218.35033125046936
 11
288.29273288948297
 21
119.35033125007585
  0
LINE
  8
_0-1_A0
  6
CENTER
 62
    3
 10
245.90546879326029
 20
245.43803272556604
 11
245.90546879326029
 21
237.97271897884004
  0
CIRCLE
  8
_0-1_A0
  6
CONTINUOUS
 62
    3
 10
245.90546879326029
 20
241.82843498971953
 40
1
  0
CIRCLE
  8
_0-1_A0
  6
HIDDEN
 62
    3
 10
245.90546879326029
 20
241.82843498971953
 40
0.75
  0
LINE
  8
_0-1_A0
  6
CENTER
 62
    3
 10
131.40546879326029
 20
245.43803272556604
 11
131.40546879326029
 21
237.97271897884004
  0
CIRCLE
  8
_0-1_A0
  6
HIDDEN
 62
    3
 10
131.40546879326029
 20
241.82843498959255
 40
0.75
  0
CIRCLE
  8
_0-1_A0
  6
CONTINUOUS
 62
    3
 10
131.40546879326029
 20
241.82843498959255
 40
1
  0
LINE
  8
_0-1_A0
  6
CONTINUOUS
 62
    3
 10
108.90546879326019
 20
251.82843498975276
 11
108.90546879326019
 21
251.32843498957814
  0
LINE
  8
_0-1_A0
  6
CONTINUOUS
 62
    3
 10
108.90546879326019
 20
251.32843498957805
 11
123.90546879326019
 21
251.32843498959465
  0
LINE
  8
_0-1_A0
  6
HIDDEN
 62
    3
 10
123.90546879326029
 20
251.32843498958695
 11
255.40546879325978
 21
251.32843498973275
  0
LINE
  8
_0-1_A0
  6
CONTINUOUS
 62
    3
 10
123.9054687932507
 20
218.85033125024384
 11
123.9054687932507
 21
218.35033125029426
  0
LINE
  8
_0-1_A0
  6
CONTINUOUS
 62
    3
 10
108.90546879326019
 20
217.35033125024114
 11
108.90546879326019
 21
120.35033125024135
  0
LINE
  8
_0-1_A0
  6
CONTINUOUS
 62
    3
 10
123.9054687932507
 20
119.35033125029434
 11
123.9054687932507
 21
118.85033125024385
  0
LINE
  8
_0-1_A0
  6
CONTINUOUS
 62
    3
 10
109.90546879326019
 20
119.35033125024355
 11
123.9054687932504
 21
119.35033125027455
  0
LINE
  8
_0-1_A0
  6
CONTINUOUS
 62
    3
 10
109.90546879326019
 20
218.35033125024344
 11
123.9054687932506
 21
218.35033125027445
  0
LINE
  8
_0-1_A0
  6
CONTINUOUS
 62
    3
 10
108.90546879326019
 20
217.35033125024114
 11
109.90546879326019
 21
218.35033125024344
  0
LINE
  8
_0-1_A0
  6
CONTINUOUS
 62
    3
 10
108.90546879326019
 20
120.35033125024135
 11
109.90546879326019
 21
119.35033125024355
  0
LINE
  8
_0-1_A0
  6
CONTINUOUS
 62
    3
 10
126.40546879325069
 20
119.35033125024385
 11
126.40546879325069
 21
118.85033125024385
  0
LINE
  8
_0-1_A0
  6
CONTINUOUS
 62
    3
 10
126.40546879325069
 20
218.85033125024384
 11
126.40546879325069
 21
218.35033125024384
  0
LINE
  8
_0-1_A0
  6
CONTINUOUS
 62
    3
 10
89.319438010294774
 20
170.04997898534114
 11
89.099693897101502
 21
169.75175491725804
  0
LINE
  8
_0-1_A0
  6
CONTINUOUS
 62
    3
 10
89.099693897101545
 20
169.75175491725804
 11
88.942733987321858
 21
169.31226728962585
  0
LINE
  8
_0-1_A0
  6
CONTINUOUS
 62
    3
 10
88.942733987321915
 20
169.31226728962596
 11
88.958429738798045
 21
168.60594769561745
  0
LINE
  8
_0-1_A0
  6
CONTINUOUS
 62
    3
 10
88.958429738797661
 20
168.60594769561734
 11
89.24095805540476
 21
168.00950015820544
  0
LINE
  8
_0-1_A0
  6
CONTINUOUS
 62
    3
 10
89.240958055405101
 20
168.00950015820563
 11
89.758926236681574
 21
167.72697244035316
  0
LINE
  8
_0-1_A0
  6
CONTINUOUS
 62
    3
 10
89.758926236681347
 20
167.72697244035336
 11
90.449548881704785
 21
167.69558033864646
  0
LINE
  8
_0-1_A0
  6
CONTINUOUS
 62
    3
 10
90.449548881704373
 20
167.69558033864646
 11
90.747772949787801
 21
167.82114814671936
  0
LINE
  8
_0-1_A0
  6
CONTINUOUS
 62
    3
 10
90.747772949787645
 20
167.82114814671913
 11
91.595356702099621
 21
168.02519590968185
  0
LINE
  8
_0-1_A0
  6
CONTINUOUS
 62
    3
 10
91.595356702099834
 20
168.02519590968194
 11
92.050540679962594
 21
168.04089225991253
  0
LINE
  8
_0-1_A0
  6
CONTINUOUS
 62
    3
 10
92.458636205887685
 20
167.86823599990233
 11
92.050540679962196
 21
168.04089225991276
  0
LINE
  8
_0-1_A0
  6
CONTINUOUS
 62
    3
 10
92.45863620588787
 20
167.86823599990194
 11
92.678380319081227
 21
167.64849248546306
  0
LINE
  8
_0-1_A0
  6
CONTINUOUS
 62
    3
 10
92.678380319081227
 20
167.64849248546326
 11
92.866732330567671
 21
167.27178846249046
  0
LINE
  8
_0-1_A0
  6
CONTINUOUS
 62
    3
 10
92.866732330567714
 20
167.27178846249046
 11
92.882428082043844
 21
166.83230083485824
  0
LINE
  8
_0-1_A0
  6
CONTINUOUS
 62
    3
 10
92.882428082043688
 20
166.83230083485824
 11
92.756860273970872
 21
166.48698891359234
  0
LINE
  8
_0-1_A0
  6
CONTINUOUS
 62
    3
 10
92.756860273970673
 20
166.48698891359214
 11
92.427244104180772
 21
166.33002900381254
  0
LINE
  8
_0-1_A0
  6
CONTINUOUS
 62
    3
 10
92.427244104180928
 20
166.33002900381254
 11
92.050540679962693
 21
166.33002900381254
  0
LINE
  8
_0-1_A0
  6
CONTINUOUS
 62
    3
 10
92.050540679962594
 20
166.33002900381265
 11
91.799404465062366
 21
166.45559681188544
  0
LINE
  8
_0-1_A0
  6
CONTINUOUS
 62
    3
 10
91.799404465062039
 20
166.45559681188515
 11
91.673836656989195
 21
166.80090873315145
  0
LINE
  8
_0-1_A0
  6
CONTINUOUS
 62
    3
 10
91.673836656989806
 20
166.80090873315154
 11
91.658140905513633
 21
167.30318056419736
  0
LINE
  8
_0-1_A0
  6
CONTINUOUS
 62
    3
 10
91.658140905513477
 20
167.30318056419744
 11
91.783708713586293
 21
167.72697244035344
  0
LINE
  8
_0-1_A0
  6
CONTINUOUS
 62
    3
 10
91.783708713586122
 20
167.72697244035356
 11
92.050540679962495
 21
168.04089225991285
  0
LINE
  8
_0-1_A0
  6
CONTINUOUS
 62
    3
 10
92.050540679962352
 20
168.04089225991245
 11
92.458636205887756
 21
168.48037988754464
  0
LINE
  8
_0-1_A0
  6
CONTINUOUS
 62
    3
 10
92.458636205887799
 20
168.48037988754464
 11
92.694076070557287
 21
168.82569180881074
  0
LINE
  8
_0-1_A0
  6
CONTINUOUS
 62
    3
 10
92.694076070557059
 20
168.82569180881074
 11
92.772556025446874
 21
169.09252377518714
  0
LINE
  8
_0-1_A0
  6
CONTINUOUS
 62
    3
 10
92.772556025447485
 20
169.09252377518706
 11
92.866732330567998
 21
169.54770715429535
  0
LINE
  8
_0-1_A0
  6
CONTINUOUS
 62
    3
 10
92.866732330567785
 20
169.54770715429535
 11
92.866732330567785
 21
170.09706683852414
  0
LINE
  8
_0-1_A0
  6
CONTINUOUS
 62
    3
 10
92.866732330567714
 20
170.09706683852454
 11
92.662683968850714
 21
170.48946661297335
  0
LINE
  8
_0-1_A0
  6
CONTINUOUS
 62
    3
 10
92.662683968850515
 20
170.48946661297324
 11
92.474332556118497
 21
170.69351437593596
  0
LINE
  8
_0-1_A0
  6
CONTINUOUS
 62
    3
 10
92.474332556118497
 20
170.69351437593584
 11
92.129020634852636
 21
170.81908278276304
  0
LINE
  8
_0-1_A0
  6
CONTINUOUS
 62
    3
 10
92.129020634852537
 20
170.81908278276324
 11
91.81510081529305
 21
170.83477853423946
  0
LINE
  8
_0-1_A0
  6
CONTINUOUS
 62
    3
 10
88.832862529479697
 20
170.64642712150754
 11
88.597422664810167
 21
170.25402674830385
  0
LINE
  8
_0-1_A0
  6
CONTINUOUS
 62
    3
 10
88.377678551616554
 20
169.79884336919556
 11
88.597422664809855
 21
170.25402674830385
  0
LINE
  8
_0-1_A0
  6
CONTINUOUS
 62
    3
 10
88.377678551616767
 20
169.79884336919545
 11
88.393374303092898
 21
169.17100373007684
  0
LINE
  8
_0-1_A0
  6
CONTINUOUS
 62
    3
 10
88.393374303093125
 20
169.17100373007696
 11
88.691598371176326
 21
168.41759568413075
  0
LINE
  8
_0-1_A0
  6
CONTINUOUS
 62
    3
 10
88.691598371175942
 20
168.41759568413104
 11
89.021213942211304
 21
168.18215581946165
  0
LINE
  8
_0-1_A0
  6
CONTINUOUS
 62
    3
 10
89.021213942211744
 20
168.18215581946145
 11
89.539182123488316
 21
168.15076431650905
  0
LINE
  8
_0-1_A0
  6
CONTINUOUS
 62
    3
 10
89.539182123488401
 20
168.15076431650913
 11
89.994366101351076
 21
168.38620418117855
  0
LINE
  8
_0-1_A0
  6
CONTINUOUS
 62
    3
 10
89.994366101351033
 20
168.38620418117875
 11
90.292588971925084
 21
168.90417176370064
  0
LINE
  8
_0-1_A0
  6
CONTINUOUS
 62
    3
 10
90.292588971924587
 20
168.90417176370075
 11
90.323981672385983
 21
169.46922719940565
  0
LINE
  8
_0-1_A0
  6
CONTINUOUS
 62
    3
 10
90.323981672386551
 20
169.46922719940565
 11
90.308285920910378
 21
170.11276318875493
  0
LINE
  8
_0-1_A0
  6
CONTINUOUS
 62
    3
 10
89.947277649413635
 20
170.67781862445974
 11
90.119933310669594
 21
170.48946661297316
  0
LINE
  8
_0-1_A0
  6
CONTINUOUS
 62
    3
 10
90.119933310669438
 20
170.48946661297375
 11
90.308285920910464
 21
170.11276318875525
  0
LINE
  8
_0-1_A0
  6
CENTER
 62
    3
 10
245.5054687932602
 20
224.77143403757006
 11
245.5054687932602
 21
213.06137048986016
  0
LINE
  8
_0-1_A0
  6
CENTER
 62
    3
 10
131.4054687933048
 20
224.77143403755906
 11
131.4054687933048
 21
213.06137048984905
  0
LINE
  8
_0-1_A0
  6
CENTER
 62
    3
 10
278.79273288948297
 20
225.02143403753504
 11
278.79273288948297
 21
213.31137048982506
  0
ARC
  8
_0-1_A0
  6
CONTINUOUS
 62
    3
 10
131.4054687933048
 20
217.33366458352455
 40
1.816666666666441
 50
56.601511532008039
 51
123.39848846799188
  0
ARC
  8
_0-1_A0
  6
CONTINUOUS
 62
    3
 10
245.5054687932602
 20
217.33366458353575
 40
1.816666666666441
 50
56.601511532008039
 51
123.39848846799188
  0
ARC
  8
_0-1_A0
  6
CONTINUOUS
 62
    3
 10
131.4054687932994
 20
120.36699791699385
 40
1.816666666666441
 50
236.60151153226217
 51
303.398488468246
  0
ARC
  8
_0-1_A0
  6
CONTINUOUS
 62
    3
 10
245.5054687934753
 20
120.36699791751274
 40
1.816666666666441
 50
236.60151153226217
 51
303.398488468246
  0
ARC
  8
_0-1_A0
  6
CONTINUOUS
 62
    3
 10
278.79273288948297
 20
217.33366458380294
 40
1.816666666666441
 50
56.601511532008039
 51
123.39848846799188
  0
ARC
  8
_0-1_A0
  6
CONTINUOUS
 62
    3
 10
278.79273288969807
 20
120.36699791744685
 40
1.816666666666441
 50
236.60151153226217
 51
303.398488468246
  0
LINE
  8
_0-1_A0
  6
CENTER
 62
    3
 10
245.5054687935092
 20
112.92922846347845
 11
245.50546879345719
 21
124.63929201118845
  0
LINE
  8
_0-1_A0
  6
CENTER
 62
    3
 10
131.40546879333331
 20
112.92922846295955
 11
131.4054687932813
 21
124.63929201066954
  0
LINE
  8
_0-1_A0
  6
CENTER
 62
    3
 10
278.79273288973212
 20
112.67922846371475
 11
278.79273288968011
 21
124.38929201142465
  0
LINE
  8
_0-1_A0
  6
CENTER
 62
    3
 10
124.9198044491811
 20
241.82843498958806
 11
249.4414765340347
 21
241.82843498972616
  0
LINE
  8
_0-1_A0
  6
CENTER
 62
    3
 10
311.7084505098872
 20
168.85033125069776
 11
322.12568635566788
 21
168.85033125072095
  0
LINE
  8
_0-1_A0
  6
CENTER
 62
    3
 10
91.693645159827369
 20
168.85033125018756
 11
96.235978445205986
 21
168.85033125019765
  0
LINE
  8
_0-1_A0
  6
CENTER
 62
    3
 10
101.79717384795959
 20
168.85033125020996
 11
313.46167627251617
 21
168.85033125067926
  0
LINE
  8
_0-1_A0
  6
CONTINUOUS
 62
    3
 10
123.90546879326029
 20
237.82843498958695
 11
123.90546879326029
 21
251.82843498959485
  0
LINE
  8
_0-1_A0
  6
CONTINUOUS
 62
    3
 10
123.90546879326019
 20
237.82843498958675
 11
124.90546879326019
 21
236.82843498958806
  0
CIRCLE
  8
_0-1_A0
  6
CONTINUOUS
 62
    3
 10
240.90546879326029
 20
241.82843498971664
 40
0.7249999999999999
  0
LINE
  8
_0-1_A0
  6
CENTER
 62
    3
 10
240.90546879326029
 20
245.43803272556866
 11
240.90546879326029
 21
237.97271897884274
  0
LINE
  8
_0-1_A0
  6
CENTER
 62
    3
 10
126.40546879326029
 20
245.35096671100205
 11
126.40546879326029
 21
237.88565296427606
  0
CIRCLE
  8
_0-1_A0
  6
CONTINUOUS
 62
    3
 10
126.40546879326029
 20
241.74136897502305
 40
0.7249999999999999
  0
LINE
  8
_0-1_A0
  6
CENTER
 62
    3
 10
126.40546879326029
 20
224.77143403757014
 11
126.40546879326029
 21
213.06137048986016
  0
LINE
  8
_0-1_A0
  6
CENTER
 62
    3
 10
126.40546879350918
 20
112.92922846299015
 11
126.40546879345728
 21
124.63929201070004
  0
LINE
  8
_0-1_A0
  6
CENTER
 62
    3
 10
240.90546879326029
 20
224.77143403757014
 11
240.90546879326029
 21
213.06137048986016
  0
LINE
  8
_0-1_A0
  6
CENTER
 62
    3
 10
240.90546879350918
 20
112.92922846346685
 11
240.90546879345728
 21
124.63929201117674
  0
INSERT
  2
-001-_D13
  8
_0-1_A0
 10
-2.5
 20
0.1200000405311527
 41
1
 42
1
 50
0
  0
LINE
  8
_0-1_A0
  6
CENTER
 62
    3
 10
235.90546879325978
 20
245.43803272556604
 11
235.90546879325978
 21
237.97271897884004
  0
CIRCLE
  8
_0-1_A0
  6
CONTINUOUS
 62
    3
 10
235.90546879325978
 20
241.82843498971953
 40
1
  0
CIRCLE
  8
_0-1_A0
  6
HIDDEN
 62
    3
 10
235.90546879325978
 20
241.82843498971953
 40
0.75
  0
LINE
  8
_0-1_A0
  6
CONTINUOUS
 62
    3
 10
255.40546879325978
 20
251.82843498973014
 11
255.40546879325978
 21
236.82843498973014
  0
LINE
  8
_0-1_A0
  6
CONTINUOUS
 62
    3
 10
255.40546879326029
 20
218.60033125020225
 11
255.40546879326029
 21
118.85033125020225
  0
LINE
  8
_0-1_A0
  6
CONTINUOUS
 62
    3
 10
255.40546879326029
 20
218.85033125020234
 11
255.40546879326029
 21
218.35033125020225
  0
LINE
  8
_0-1_A0
  6
CONTINUOUS
 62
    3
 10
255.40546879326029
 20
218.35033125020225
 11
255.90546879349312
 21
218.35033125020225
  0
LINE
  8
_0-1_A0
  6
CONTINUOUS
 62
    3
 10
273.79273288948309
 20
119.35033125008395
 11
288.79273288948309
 21
119.35033125007565
  0
LINE
  8
_0-1_A0
  6
CONTINUOUS
 62
    3
 10
273.79273288948297
 20
218.35033125046936
 11
288.79273288948297
 21
218.35033125046936
  0
LINE
  8
_0-1_A0
  6
CENTER
 62
    3
 10
281.29273288892142
 20
174.39524216317636
 11
281.29273288892142
 21
163.17851136237564
  0
CIRCLE
  8
_0-1_A0
  6
CONTINUOUS
 62
    3
 10
281.29273288892142
 20
168.85033125063046
 40
1.25
  0
INSERT
  2
-017-_U23
  8
_0-0_0
 10
-2.5
 20
0.1200000405311527
 41
1
 42
1
 50
0
  0
INSERT
  2
-018-_U24
  8
_0-0_0
 10
-2.5
 20
0.1200000405311527
 41
1
 42
1
 50
0
  0
INSERT
  2
-019-_U25
  8
_0-0_0
 10
-2.5
 20
0.1200000405311527
 41
1
 42
1
 50
0
  0
INSERT
  2
-020-_U26
  8
_0-0_0
 10
-2.5
 20
0.1200000405311527
 41
1
 42
1
 50
0
  0
LINE
  8
_0-1_A0
  6
CONTINUOUS
 62
    3
 10
273.79273288948297
 20
118.85033125008395
 11
273.79273288948297
 21
218.85033125046936
  0
INSERT
  2
-002-_D14
  8
_0-1_A0
 10
-2.5
 20
0.1200000405311527
 41
1
 42
1
 50
0
  0
INSERT
  2
-021-_U28
  8
_0-0_0
 10
-2.5
 20
0.1200000405311527
 41
1
 42
1
 50
0
  0
INSERT
  2
-022-_U29
  8
_0-0_0
 10
-2.5
 20
0.1200000405311527
 41
1
 42
1
 50
0
  0
LINE
  8
_0-1_A0
  6
CENTER
 62
    3
 10
236.30546879276189
 20
224.77143403752924
 11
236.30546879286569
 21
213.06137048981935
  0
ARC
  8
_0-1_A0
  6
CONTINUOUS
 62
    3
 10
236.30546879282789
 20
217.33366458349476
 40
1.816666666666441
 50
56.601511532516177
 51
123.39848846850011
  0
ARC
  8
_0-1_A0
  6
CONTINUOUS
 62
    3
 10
236.3054687934773
 20
120.36699791747204
 40
1.816666666666441
 50
236.60151153226217
 51
303.398488468246
  0
LINE
  8
_0-1_A0
  6
CENTER
 62
    3
 10
236.3054687935093
 20
112.92922846343755
 11
236.3054687934574
 21
124.63929201114754
  0
INSERT
  2
-004-_D15
  8
_0-1_A0
 10
-2.5
 20
0.1200000405311527
 41
1
 42
1
 50
0
  0
INSERT
  2
-006-_D16
  8
_0-1_A0
 10
-2.5
 20
0.1200000405311527
 41
1
 42
1
 50
0
  0
INSERT
  2
-008-_D17
  8
_0-1_A0
 10
-2.5
 20
0.1200000405311527
 41
1
 42
1
 50
0
  0
INSERT
  2
-010-_D18
  8
_0-1_A0
 10
-2.5
 20
0.1200000405311527
 41
1
 42
1
 50
0
  0
INSERT
  2
-012-_D19
  8
_0-1_A0
 10
-2.5
 20
0.1200000405311527
 41
1
 42
1
 50
0
  0
INSERT
  2
-014-_D20
  8
_0-1_A0
 10
-2.5
 20
0.1200000405311527
 41
1
 42
1
 50
0
  0
INSERT
  2
-016-_D21
  8
_0-1_A0
 10
-2.5
 20
0.1200000405311527
 41
1
 42
1
 50
0
  0
INSERT
  2
-023-_U37
  8
_0-0_0
 10
-2.5
 20
0.1200000405311527
 41
1
 42
1
 50
0
  0
LINE
  8
_0-3_H0
  6
CONTINUOUS
 62
    3
 10
407.5
 20
287.12000004053118
 11
12.5
 21
287.12000004053118
  0
LINE
  8
_0-3_H0
  6
CONTINUOUS
 62
    3
 10
12.5
 20
287.12000004053118
 11
12.5
 21
10.120000040531152
  0
LINE
  8
_0-3_H0
  6
CONTINUOUS
 62
    3
 10
84.5
 20
282.12000004053118
 11
12.5
 21
282.12000004053118
  0
LINE
  8
_0-3_H0
  6
CONTINUOUS
 62
    3
 10
53.5
 20
287.12000004053118
 11
53.5
 21
259.62000004053118
  0
LINE
  8
_0-3_H0
  6
CONTINUOUS
 62
    3
 10
84.5
 20
277.62000004053118
 11
12.5
 21
277.62000004053118
  0
LINE
  8
_0-3_H0
  6
CONTINUOUS
 62
    3
 10
84.5
 20
268.62000004053118
 11
12.5
 21
268.62000004053118
  0
LINE
  8
_0-3_H0
  6
CONTINUOUS
 62
    3
 10
84.5
 20
264.12000004053118
 11
12.5
 21
264.12000004053118
  0
LINE
  8
_0-3_H0
  6
CONTINUOUS
 62
    3
 10
84.5
 20
259.62000004053118
 11
12.5
 21
259.62000004053118
  0
INSERT
  2
-024-_U38
  8
_0-0_0
 10
-2.5
 20
0.1200000405311527
 41
1
 42
1
 50
0
  0
INSERT
  2
-025-_U39
  8
_0-0_0
 10
-2.5
 20
0.1200000405311527
 41
1
 42
1
 50
0
  0
INSERT
  2
-026-_U40
  8
_0-0_0
 10
-2.5
 20
0.1200000405311527
 41
1
 42
1
 50
0
  0
LINE
  8
_0-3_H0
  6
CONTINUOUS
 62
    3
 10
12.5
 20
273.12000004053118
 11
84.5
 21
273.12000004053118
  0
LINE
  8
_0-3_H0
  6
CONTINUOUS
 62
    3
 10
18.5
 20
287.12000004053118
 11
18.5
 21
259.62000004053118
  0
INSERT
  2
-027-_U41
  8
_0-0_0
 10
-2.5
 20
0.1200000405311527
 41
1
 42
1
 50
0
  0
INSERT
  2
-028-_U42
  8
_0-0_0
 10
-2.5
 20
0.1200000405311527
 41
1
 42
1
 50
0
  0
LINE
  8
_0-3_H0
  6
CONTINUOUS
 62
    3
 10
63.5
 20
287.12000004053118
 11
63.5
 21
259.62000004053118
  0
LINE
  8
_0-3_H0
  6
CONTINUOUS
 62
    3
 10
13.299999999999954
 20
264.52000004053115
 11
17.69999999999996
 21
264.52000004053115
  0
LINE
  8
_0-3_H0
  6
CONTINUOUS
 62
    3
 10
17.699999999999931
 20
264.52000004053115
 11
15.499999999999914
 21
268.33051181718246
  0
LINE
  8
_0-3_H0
  6
CONTINUOUS
 62
    3
 10
15.499999999999943
 20
268.33051181718258
 11
13.299999999999954
 21
264.52000004053104
  0
LINE
  8
_0-3_H0
  6
CONTINUOUS
 62
    3
 10
13.299999999999954
 20
269.02000004053115
 11
17.69999999999996
 21
269.02000004053115
  0
LINE
  8
_0-3_H0
  6
CONTINUOUS
 62
    3
 10
17.69999999999996
 20
269.02000004053127
 11
15.499999999999971
 21
272.83051181718258
  0
LINE
  8
_0-3_H0
  6
CONTINUOUS
 62
    3
 10
15.499999999999943
 20
272.83051181718246
 11
13.299999999999954
 21
269.02000004053115
  0
LINE
  8
_0-3_H0
  6
CONTINUOUS
 62
    3
 10
13.299999999999954
 20
273.52000004053115
 11
17.69999999999996
 21
273.52000004053115
  0
LINE
  8
_0-3_H0
  6
CONTINUOUS
 62
    3
 10
17.69999999999996
 20
273.52000004053115
 11
15.499999999999943
 21
277.33051181718258
  0
LINE
  8
_0-3_H0
  6
CONTINUOUS
 62
    3
 10
15.499999999999971
 20
277.33051181718258
 11
13.299999999999954
 21
273.52000004053115
  0
INSERT
  2
-029-_U43
  8
_0-0_0
 10
-2.5
 20
0.1200000405311527
 41
1
 42
1
 50
0
  0
LINE
  8
_0-3_H0
  6
CONTINUOUS
 62
    3
 10
13.299999999999954
 20
278.02000004053115
 11
17.69999999999996
 21
278.02000004053115
  0
LINE
  8
_0-3_H0
  6
CONTINUOUS
 62
    3
 10
17.69999999999996
 20
278.02000004053127
 11
15.499999999999943
 21
281.83051181718258
  0
LINE
  8
_0-3_H0
  6
CONTINUOUS
 62
    3
 10
15.499999999999943
 20
281.83051181718258
 11
13.299999999999926
 21
278.02000004053127
  0
INSERT
  2
-030-_U44
  8
_0-0_0
 10
-2.5
 20
0.1200000405311527
 41
1
 42
1
 50
0
  0
LINE
  8
_0-3_H0
  6
CONTINUOUS
 62
    3
 10
76.5
 20
287.12000004053118
 11
76.5
 21
259.62000004053118
  0
LINE
  8
_0-3_H0
  6
CONTINUOUS
 62
    3
 10
84.5
 20
287.12000004053118
 11
84.5
 21
259.62000004053118
  0
LINE
  8
_0-3_H0
  6
CONTINUOUS
 62
    3
 10
15.499999999999943
 20
263.83051181718246
 11
13.299999999999982
 21
260.02000004053115
  0
LINE
  8
_0-3_H0
  6
CONTINUOUS
 62
    3
 10
17.699999999999931
 20
260.02000004053115
 11
15.499999999999914
 21
263.83051181718246
  0
LINE
  8
_0-3_H0
  6
CONTINUOUS
 62
    3
 10
13.299999999999954
 20
260.02000004053115
 11
17.69999999999996
 21
260.02000004053115
  0
INSERT
  2
-031-_U45
  8
_0-0_0
 10
-2.5
 20
0.1200000405311527
 41
1
 42
1
 50
0
  0
INSERT
  2
-032-_U46
  8
_0-0_0
 10
-2.5
 20
0.1200000405311527
 41
1
 42
1
 50
0
  0
INSERT
  2
-033-_U47
  8
_0-0_0
 10
-2.5
 20
0.1200000405311527
 41
1
 42
1
 50
0
  0
LINE
  8
_0-3_H0
  6
CONTINUOUS
 62
    3
 10
247.5
 20
34.120000040531152
 11
407.49999999999977
 21
34.120000040531152
  0
LINE
  8
_0-3_H0
  6
CONTINUOUS
 62
    3
 10
336.49999999999988
 20
34.120000040531124
 11
336.49999999999988
 21
10.120000040531152
  0
LINE
  8
_0-3_H0
  6
CONTINUOUS
 62
    3
 10
331.49999999999988
 20
34.120000040531124
 11
331.49999999999988
 21
10.120000040531152
  0
LINE
  8
_0-3_H0
  6
CONTINUOUS
 62
    3
 10
247.5
 20
39.120000040531152
 11
407.49999999999977
 21
39.120000040531152
  0
LINE
  8
_0-3_H0
  6
CONTINUOUS
 62
    3
 10
289.49999999999988
 20
49.120000040531152
 11
289.49999999999988
 21
34.120000040531124
  0
INSERT
  2
-034-_U48
  8
_0-0_0
 10
-2.5
 20
0.1200000405311527
 41
1
 42
1
 50
0
  0
INSERT
  2
-035-_U49
  8
_0-0_0
 10
-2.5
 20
0.1200000405311527
 41
1
 42
1
 50
0
  0
INSERT
  2
-036-_U50
  8
_0-0_0
 10
-2.5
 20
0.1200000405311527
 41
1
 42
1
 50
0
  0
INSERT
  2
-037-_U51
  8
_0-0_0
 10
-2.5
 20
0.1200000405311527
 41
1
 42
1
 50
0
  0
INSERT
  2
-038-_U52
  8
_0-0_0
 10
-2.5
 20
0.1200000405311527
 41
1
 42
1
 50
0
  0
INSERT
  2
-039-_U53
  8
_0-0_0
 10
-2.5
 20
0.1200000405311527
 41
1
 42
1
 50
0
  0
INSERT
  2
-040-_U54
  8
_0-0_0
 10
-2.5
 20
0.1200000405311527
 41
1
 42
1
 50
0
  0
LINE
  8
_0-3_H0
  6
CONTINUOUS
 62
    3
 10
247.49999999999988
 20
17.120000040531152
 11
407.5
 21
17.120000040531152
  0
LINE
  8
_0-3_H0
  6
CONTINUOUS
 62
    3
 10
331.49999999999988
 20
24.120000040531152
 11
407.5
 21
24.120000040531152
  0
LINE
  8
_0-3_H0
  6
CONTINUOUS
 62
    3
 10
395.5
 20
10.120000040531152
 11
395.5
 21
17.120000040531152
  0
INSERT
  2
-041-_U55
  8
_0-0_0
 10
-2.5
 20
0.1200000405311527
 41
1
 42
1
 50
0
  0
LINE
  8
_0-3_H0
  6
CONTINUOUS
 62
    3
 10
399.5
 20
10.120000040531152
 11
399.5
 21
17.120000040531152
  0
LINE
  8
_0-3_H0
  6
CONTINUOUS
 62
    3
 10
338.49999999999988
 20
28.120000040531152
 11
405.5
 21
28.120000040531152
  0
LINE
  8
_0-3_H0
  6
CONTINUOUS
 62
    3
 10
317.49999999999988
 20
10.120000040531152
 11
317.49999999999988
 21
49.120000040531152
  0
LINE
  8
_0-3_H0
  6
CONTINUOUS
 62
    3
 10
303.49999999999988
 20
10.120000040531152
 11
303.49999999999988
 21
34.120000040531124
  0
LINE
  8
_0-3_H0
  6
CONTINUOUS
 62
    3
 10
289.49999999999988
 20
17.120000040531152
 11
289.49999999999988
 21
34.120000040531124
  0
LINE
  8
_0-3_H0
  6
CONTINUOUS
 62
    3
 10
275.49999999999988
 20
17.120000040531152
 11
275.49999999999988
 21
34.120000040531124
  0
LINE
  8
_0-3_H0
  6
CONTINUOUS
 62
    3
 10
261.5
 20
17.120000040531152
 11
261.5
 21
34.120000040531124
  0
INSERT
  2
-042-_U56
  8
_0-0_0
 10
-2.5
 20
0.1200000405311527
 41
1
 42
1
 50
0
  0
INSERT
  2
-043-_U57
  8
_0-0_0
 10
-2.5
 20
0.1200000405311527
 41
1
 42
1
 50
0
  0
INSERT
  2
-044-_U58
  8
_0-0_0
 10
-2.5
 20
0.1200000405311527
 41
1
 42
1
 50
0
  0
INSERT
  2
-045-_U59
  8
_0-0_0
 10
-2.5
 20
0.1200000405311527
 41
1
 42
1
 50
0
  0
INSERT
  2
-046-_U60
  8
_0-0_0
 10
-2.5
 20
0.1200000405311527
 41
1
 42
1
 50
0
  0
LINE
  8
_0-3_H0
  6
CONTINUOUS
 62
    3
 10
247.49999999999988
 20
10.120000040531152
 11
247.49999999999988
 21
34.120000040531152
  0
LINE
  8
_0-3_H0
  6
CONTINUOUS
 62
    3
 10
247.49999999999988
 20
34.120000040531152
 11
247.49999999999988
 21
49.120000040531152
  0
LINE
  8
_0-3_H0
  6
CONTINUOUS
 62
    3
 10
247.49999999999988
 20
31.120000040531152
 11
331.49999999999988
 21
31.120000040531152
  0
INSERT
  2
-047-_U61
  8
_0-0_0
 10
-2.5
 20
0.1200000405311527
 41
1
 42
1
 50
0
  0
LINE
  8
_0-3_H0
  6
CONTINUOUS
 62
    3
 10
324.50000000000011
 20
11.620000040531238
 11
328.49999999999988
 21
15.620000040528196
  0
INSERT
  2
-048-_U62
  8
_0-0_0
 10
-2.5
 20
0.1200000405311527
 41
1
 42
1
 50
0
  0
INSERT
  2
-049-_U63
  8
_0-0_0
 10
-2.5
 20
0.1200000405311527
 41
1
 42
1
 50
0
  0
LINE
  8
_0-3_H0
  6
CONTINUOUS
 62
    3
 10
321.49999999999988
 20
10.120000040531152
 11
321.49999999999988
 21
17.120000040531152
  0
INSERT
  2
-050-_U64
  8
_0-0_0
 10
-2.5
 20
0.1200000405311527
 41
1
 42
1
 50
0
  0
INSERT
  2
-051-_U65
  8
_0-0_0
 10
-2.5
 20
0.1200000405311527
 41
1
 42
1
 50
0
  0
LINE
  8
_0-3_H0
  6
CONTINUOUS
 62
    3
 10
387.5
 20
34.120000040531152
 11
387.5
 21
49.120000040531152
  0
INSERT
  2
-052-_U66
  8
_0-0_0
 10
-2.5
 20
0.1200000405311527
 41
1
 42
1
 50
0
  0
LINE
  8
_0-3_H0
  6
CONTINUOUS
 62
    3
 10
359.5
 20
34.120000040531152
 11
359.5
 21
49.120000040531152
  0
LINE
  8
_0-3_H0
  6
CONTINUOUS
 62
    3
 10
407.5
 20
10.120000040531152
 11
407.5
 21
287.12000004053118
  0
LINE
  8
_0-3_H0
  6
CONTINUOUS
 62
    3
 10
12.5
 20
10.120000040531152
 11
407.5
 21
10.120000040531152
  0
LINE
  8
_0-3_H0
  6
CONTINUOUS
 62
    3
 10
247.49999999999988
 20
39.120000040531152
 11
407.49999999999977
 21
39.120000040531152
  0
INSERT
  2
-053-_U67
  8
_0-0_0
 10
-2.5
 20
0.1200000405311527
 41
1
 42
1
 50
0
  0
INSERT
  2
-054-_U68
  8
_0-0_0
 10
-2.5
 20
0.1200000405311527
 41
1
 42
1
 50
0
  0
INSERT
  2
-055-_U69
  8
_0-0_0
 10
-2.5
 20
0.1200000405311527
 41
1
 42
1
 50
0
  0
INSERT
  2
-056-_U70
  8
_0-0_0
 10
-2.5
 20
0.1200000405311527
 41
1
 42
1
 50
0
  0
INSERT
  2
-057-_U71
  8
_0-0_0
 10
-2.5
 20
0.1200000405311527
 41
1
 42
1
 50
0
  0
LINE
  8
_0-3_H0
  6
HIDDEN
 62
    3
 10
128.04139510273549
 20
41.769897252280969
 11
133.7796645462692
 21
41.769897252282561
  0
LINE
  8
_0-3_H0
  6
HIDDEN
 62
    3
 10
101.8994713466633
 20
34.76989725227375
 11
133.7796645462692
 21
34.769897252282561
  0
INSERT
  2
-058-_U72
  8
_0-0_0
 10
-2.5
 20
0.1200000405311527
 41
1
 42
1
 50
0
  0
INSERT
  2
-059-_U73
  8
_0-0_0
 10
-2.5
 20
0.1200000405311527
 41
1
 42
1
 50
0
  0
LINE
  8
_0-3_H0
  6
CONTINUOUS
 62
    3
 10
40.009656179063426
 20
27.407216887113392
 11
149.89058176835629
 21
27.407216887128598
  0
LINE
  8
_0-3_H0
  6
CONTINUOUS
 62
    3
 10
149.89058176833839
 20
50.681565638806233
 11
149.89058176835609
 21
27.407216887128598
  0
LINE
  8
_0-3_H0
  6
CONTINUOUS
 62
    3
 10
40.009656179049784
 20
50.681565638806233
 11
40.009656179063483
 21
27.407216887113392
  0
LINE
  8
_0-3_H0
  6
CONTINUOUS
 62
    3
 10
40.009656179049784
 20
50.681565638806233
 11
85.350118592224433
 21
50.681565638806233
  0
LINE
  8
_0-3_H0
  6
CONTINUOUS
 62
    3
 10
104.5501193551639
 20
50.681565638806233
 11
149.8905817683385
 21
50.681565638806233
  0
INSERT
  2
-060-_U74
  8
_0-0_0
 10
-2.5
 20
0.1200000405311527
 41
1
 42
1
 50
0
  0
INSERT
  2
-061-_U75
  8
_0-0_0
 10
-2.5
 20
0.1200000405311527
 41
1
 42
1
 50
0
  0
INSERT
  2
-062-_U76
  8
_0-0_0
 10
-2.5
 20
0.1200000405311527
 41
1
 42
1
 50
0
  0
INSERT
  2
-063-_U77
  8
_0-0_0
 10
-2.5
 20
0.1200000405311527
 41
1
 42
1
 50
0
  0
INSERT
  2
-064-_U78
  8
_0-0_0
 10
-2.5
 20
0.1200000405311527
 41
1
 42
1
 50
0
  0
INSERT
  2
-065-_U79
  8
_0-0_0
 10
-2.5
 20
0.1200000405311527
 41
1
 42
1
 50
0
  0
INSERT
  2
-066-_U80
  8
_0-0_0
 10
-2.5
 20
0.1200000405311527
 41
1
 42
1
 50
0
  0
INSERT
  2
-067-_U81
  8
_0-0_0
 10
-2.5
 20
0.1200000405311527
 41
1
 42
1
 50
0
  0
INSERT
  2
-068-_U82
  8
_0-0_0
 10
-2.5
 20
0.1200000405311527
 41
1
 42
1
 50
0
  0
INSERT
  2
-069-_U83
  8
_0-0_0
 10
-2.5
 20
0.1200000405311527
 41
1
 42
1
 50
0
  0
INSERT
  2
-070-_U84
  8
_0-0_0
 10
-2.5
 20
0.1200000405311527
 41
1
 42
1
 50
0
  0
LINE
  8
_0-3_H0
  6
CONTINUOUS
 62
    3
 10
247.49999999999988
 20
44.120000040531152
 11
407.49999999999977
 21
44.120000040531152
  0
LINE
  8
_0-3_H0
  6
CONTINUOUS
 62
    3
 10
247.49999999999988
 20
49.120000040531152
 11
407.49999999999977
 21
49.120000040531152
  0
INSERT
  2
-071-_U85
  8
_0-0_0
 10
-2.5
 20
0.1200000405311527
 41
1
 42
1
 50
0
  0
INSERT
  2
-072-_U86
  8
_0-0_0
 10
-2.5
 20
0.1200000405311527
 41
1
 42
1
 50
0
  0
ENDSEC
  0
EOF
