  0
SECTION
  2
HEADER
  9
$ACADVER
  1
AC1009
  9
$INSBASE
 10
0
 20
0
 30
0
  9
$EXTMIN
 10
0
 20
0
  9
$EXTMAX
 10
420
 20
297
  9
$LIMMIN
 10
0
 20
0
  9
$LIMMAX
 10
420
 20
297
  9
$LTSCALE
 40
1
  0
ENDSEC
  0
SECTION
  2
TABLES
  0
TABLE
  2
LTYPE
 70
     9
  0
LTYPE
  2
CONTINUOUS
 70
    64
  3
実線
 72
    65
 73
     0
 40
0.0
  0
LTYPE
  2
DASHED1
 70
    64
  3
--  --  --  --  --  --  --  --  
 72
    65
 73
     2
 40
2.5
 49
1.25
 49
-1.25
  0
LTYPE
  2
DASHED2
 70
    64
  3
----    ----    ----    ----    
 72
    65
 73
     2
 40
5.0
 49
2.5
 49
-2.5
  0
LTYPE
  2
DASHED3
 70
    64
  3
------  ------  ------  ------  
 72
    65
 73
     2
 40
5.0
 49
3.75
 49
-1.25
  0
LTYPE
  2
CENTER1
 70
    64
  3
----- - ----- - ----- - ----- - 
 72
    65
 73
     4
 40
10.0
 49
6.25
 49
-1.25
 49
1.25
 49
-1.25
  0
LTYPE
  2
CENTER2
 70
    64
  3
----------  --  ----------  --  
 72
    65
 73
     4
 40
20.0
 49
12.5
 49
-2.5
 49
2.5
 49
-2.5
  0
LTYPE
  2
PHANTOM1
 70
    64
  3
--- - - --- - - --- - - --- - - 
 72
    65
 73
     6
 40
10.0
 49
3.25
 49
-1.25
 49
1.25
 49
-1.25
 49
1.25
 49
-1.25
  0
LTYPE
  2
PHANTOM2
 70
    64
  3
--------  -  -  --------  -  -  
 72
    65
 73
     6
 40
20.0
 49
10.0
 49
-2.5
 49
1.25
 49
-2.5
 49
1.25
 49
-2.5
  0
LTYPE
  2
DOT
 70
    64
  3
-   -   -   -   -   -   -   -   
 72
    65
 73
     2
 40
2.5
 49
0.625
 49
-1.875
  0
LTYPE
  2
DUMMY
 70
    64
  3
ダミー
 72
    65
 73
     0
 40
0.0
  0
LTYPE
  2
RAND1
 70
    64
  3
ランダム線1
 72
    65
 73
     4
 40
10.0
 49
1.0
 49
-2.0
 49
3.0
 49
-4.0
  0
LTYPE
  2
RAND2
 70
    64
  3
ランダム線2
 72
    65
 73
     4
 40
14.0
 49
2.0
 49
-3.0
 49
4.0
 49
-5.0
  0
LTYPE
  2
RAND3
 70
    64
  3
ランダム線3
 72
    65
 73
     4
 40
18.0
 49
3.0
 49
-4.0
 49
5.0
 49
-6.0
  0
LTYPE
  2
RAND4
 70
    64
  3
ランダム線4
 72
    65
 73
     4
 40
22.0
 49
4.0
 49
-5.0
 49
6.0
 49
-7.0
  0
LTYPE
  2
RAND5
 70
    64
  3
ランダム線5
 72
    65
 73
     4
 40
26.0
 49
5.0
 49
-6.0
 49
7.0
 49
-8.0
  0
LTYPE
  2
LONG1
 70
    64
  3
----------  --  ----------  --  
 72
    65
 73
     4
 40
40.0
 49
32.5
 49
-2.5
 49
2.5
 49
-2.5
  0
LTYPE
  2
LONG2
 70
    64
  3
--------  -  -  --------  -  -  
 72
    65
 73
     6
 40
40.0
 49
30.0
 49
-2.5
 49
1.25
 49
-2.5
 49
1.25
 49
-2.5
  0
LTYPE
  2
LONG3
 70
    64
  3
+++++++++++++++..+++++++++++++++
 72
    65
 73
     2
 40
40.0
 49
37.5
 49
-2.5
  0
LTYPE
  2
LONG4
 70
    64
  3
+++++++++++++++..+++++++++++++++
 72
    65
 73
     2
 40
80.0
 49
75.0
 49
-5.0
  0
LTYPE
  2
LONG5
 70
    64
  3
----------  --  ----------  --  
 72
    65
 73
     4
 40
60.0
 49
37.5
 49
-7.5
 49
7.5
 49
-7.5
  0
LTYPE
  2
dashed
 70
   64
  3
-------   -------------   ------
 72
   65
 73
    2
 40
7.5
 49
6
 49
-1.5
  0
LTYPE
  2
dashed_spaced
 70
   64
  3
----        --------        ----
 72
   65
 73
    2
 40
12
 49
6
 49
-6
  0
LTYPE
  2
long_dashed_dotted
 70
   64
  3
------------- --- --------------
 72
   65
 73
    4
 40
15.25
 49
12
 49
-1.5
 49
0.25
 49
-1.5
  0
LTYPE
  2
long_dashed_double-dotted
 70
   64
  3
----------- --- --- ------------
 72
   65
 73
    6
 40
17
 49
12
 49
-1.5
 49
0.25
 49
-1.5
 49
0.25
 49
-1.5
  0
LTYPE
  2
long_dashed_triplicate-dotted
 70
   64
  3
--------- --- --- --- ----------
 72
   65
 73
    8
 40
18.75
 49
12
 49
-1.5
 49
0.25
 49
-1.5
 49
0.25
 49
-1.5
 49
0.25
 49
-1.5
  0
LTYPE
  2
dotted
 70
   64
  3
   -       -       -       -    
 72
   65
 73
    2
 40
1.75
 49
0.25
 49
-1.5
  0
LTYPE
  2
chain
 70
   64
  3
-------------- -- --------------
 72
   65
 73
    4
 40
18.5
 49
12
 49
-1.5
 49
3.5
 49
-1.5
  0
LTYPE
  2
chain_double_dash
 70
   64
  3
------------ -- -- -------------
 72
   65
 73
    6
 40
23.5
 49
12
 49
-1.5
 49
3.5
 49
-1.5
 49
3.5
 49
-1.5
  0
LTYPE
  2
dashed_dotted
 70
   64
  3
-----------     -     ----------
 72
   65
 73
    4
 40
9.25
 49
6
 49
-1.5
 49
0.25
 49
-1.5
  0
LTYPE
  2
double-dashed_dotted
 70
   64
  3
------   -----------   -   -----
 72
   65
 73
    6
 40
16.75
 49
6
 49
-1.5
 49
6
 49
-1.5
 49
0.25
 49
-1.5
  0
LTYPE
  2
dashed_double-dotted
 70
   64
  3
---------    -    -    ---------
 72
   65
 73
    6
 40
11
 49
6
 49
-1.5
 49
0.25
 49
-1.5
 49
0.25
 49
-1.5
  0
LTYPE
  2
double-dashed_double-dotted
 70
   64
  3
-----   ---------   -   -   ----
 72
   65
 73
    8
 40
18.5
 49
6
 49
-1.5
 49
6
 49
-1.5
 49
0.25
 49
-1.5
 49
0.25
 49
-1.5
  0
LTYPE
  2
dashed_triplicate-dotted
 70
   64
  3
-------    -    -    -    ------
 72
   65
 73
    8
 40
12.75
 49
6
 49
-1.5
 49
0.25
 49
-1.5
 49
0.25
 49
-1.5
 49
0.25
 49
-1.5
  0
LTYPE
  2
double-dashed_triplicate-dotted
 70
   64
  3
-----  ---------  -  -  -  -----
 72
   65
 73
   10
 40
20.25
 49
6
 49
-1.5
 49
6
 49
-1.5
 49
0.25
 49
-1.5
 49
0.25
 49
-1.5
 49
0.25
 49
-1.5
  0
LTYPE
  2
undefined
 70
   64
  3
--------------------------------
 72
   65
 73
    0
 40
0
  0
LTYPE
  2
DASHED
 70
   64
  3
------     -----------     -----
 72
   65
 73
    2
 40
0.75
 49
0.5
 49
-0.25
  0
LTYPE
  2
HIDDEN
 70
   64
  3
------     -----------     -----
 72
   65
 73
    2
 40
0.375
 49
0.25
 49
-0.125
  0
LTYPE
  2
CENTER
 70
   64
  3
----------    ----    ----------
 72
   65
 73
    4
 40
2
 49
1.25
 49
-0.25
 49
0.25
 49
-0.25
  0
LTYPE
  2
PHANTOM
 70
   64
  3
---------   ---   ---   --------
 72
   65
 73
    6
 40
2.5
 49
1.25
 49
-0.25
 49
0.25
 49
-0.25
 49
0.25
 49
-0.25
  0
LTYPE
  2
_
 70
   64
  3
                                
 72
   65
 73
    0
 40
0
  0
LTYPE
  2
__22
 70
   64
  3
                                
 72
   65
 73
    0
 40
0
  0
LTYPE
  2
__23
 70
   64
  3
                                
 72
   65
 73
    0
 40
0
  0
LTYPE
  2
__24
 70
   64
  3
                                
 72
   65
 73
    0
 40
0
  0
LTYPE
  2
__25
 70
   64
  3
                                
 72
   65
 73
    0
 40
0
  0
LTYPE
  2
__26
 70
   64
  3
                                
 72
   65
 73
    0
 40
0
  0
LTYPE
  2
__27
 70
   64
  3
                                
 72
   65
 73
    0
 40
0
  0
LTYPE
  2
__28
 70
   64
  3
                                
 72
   65
 73
    0
 40
0
  0
LTYPE
  2
__29
 70
   64
  3
                                
 72
   65
 73
    0
 40
0
  0
LTYPE
  2
__30
 70
   64
  3
                                
 72
   65
 73
    0
 40
0
  0
LTYPE
  2
__31
 70
   64
  3
                                
 72
   65
 73
    0
 40
0
  0
LTYPE
  2
__32
 70
   64
  3
                                
 72
   65
 73
    0
 40
0
  0
ENDTAB
  0
TABLE
  2
STYLE
  5
3
100
AcDbSymbolTable
 70
     1
  0
STYLE
  5
10
100
AcDbSymbolTableRecord
100
AcDbTextStyleTableRecord
  2
STANDARD
 70
     0
 40
0.0
 41
1.0
 50
0.0
 71
     0
 42
0.2
  3
txt
  4
bigfont.shx
  0
STYLE
  5
26
100
AcDbSymbolTableRecord
100
AcDbTextStyleTableRecord
  2
TATEGAKI
 70
    68
 40
0.0
 41
1.0
 50
0.0
 71
     0
 42
1.0
  3
txt
  4
bigfont.shx
  0
ENDTAB
  0
TABLE
  2
LAYER
 70
    6
  0
LAYER
  2
_0-0_0
 70
   64
 62
    7
  6
CONTINUOUS
  0
LAYER
  2
_0-1_H0
 70
   64
 62
    7
  6
CONTINUOUS
  0
LAYER
  2
_0-3_A0
 70
   64
 62
    7
  6
CONTINUOUS
  0
LAYER
  2
_0-4_A15
 70
   64
 62
    7
  6
CONTINUOUS
  0
LAYER
  2
_0-6_B0
 70
   64
 62
    7
  6
CONTINUOUS
  0
LAYER
  2
ADD_LINE
 70
   64
 62
    7
  6
CONTINUOUS
  0
ENDTAB
  0
ENDSEC
  0
SECTION
  2
BLOCKS
  0
BLOCK
  2
-000-_OPEN
 70
   64
 10
0
 20
0
 30
0
  0
LINE
  8
_0-0_0
  6
CONTINUOUS
 62
    7
 10
-1
 20
0.166667
 11
0
 21
0
  0
LINE
  8
_0-0_0
  6
CONTINUOUS
 62
    7
 10
0
 20
0
 11
-1
 21
-0.166667
  0
LINE
  8
_0-0_0
  6
CONTINUOUS
 62
    7
 10
0
 20
0
 11
-1
 21
0
  0
ENDBLK
  0
BLOCK
  2
-001-_U84
 70
   64
 10
0
 20
0
 30
0
  0
TEXT
  8
_0-3_A0
 62
    7
 10
266.37456363347968
 20
204.34771052733569
 40
4
 41
1
 50
90
  1
60
  0
ENDBLK
  0
BLOCK
  2
-002-_D13
 70
   64
 10
0
 20
0
 30
0
  0
LINE
  8
_0-3_A0
  6
CONTINUOUS
 62
    7
 10
275.10789695489251
 20
217.3477105273356
 11
265.87456363347968
 21
217.34771052733569
  0
LINE
  8
_0-3_A0
  6
CONTINUOUS
 62
    7
 10
266.87456363347968
 20
214.34771052733569
 11
266.87456363347968
 21
200.3477105273356
  0
INSERT
  2
-000-_OPEN
  8
_0-3_A0
 10
266.87456363347968
 20
217.34771052733569
 41
3
 42
3
 50
90
  0
INSERT
  2
-000-_OPEN
  8
_0-3_A0
 10
266.87456363347968
 20
197.3477105273356
 41
3
 42
3
 50
270
  0
LINE
  8
_0-3_A0
  6
CONTINUOUS
 62
    7
 10
275.10789695486209
 20
197.3477105273356
 11
265.87456363347968
 21
197.3477105273356
  0
INSERT
  2
-001-_U84
  8
_0-0_0
 10
0
 20
0
 41
1
 42
1
 50
0
  0
ENDBLK
  0
BLOCK
  2
-003-_U85
 70
   64
 10
0
 20
0
 30
0
  0
TEXT
  8
_0-3_A0
 62
    7
 10
266.37456363347968
 20
91.014377193525874
 40
4
 41
1
 50
90
  1
60
  0
ENDBLK
  0
BLOCK
  2
-004-_D14
 70
   64
 10
0
 20
0
 30
0
  0
LINE
  8
_0-3_A0
  6
CONTINUOUS
 62
    7
 10
275.10789695486772
 20
84.014377193525845
 11
265.87456363347968
 21
84.014377193525845
  0
LINE
  8
_0-3_A0
  6
CONTINUOUS
 62
    7
 10
266.87456363347968
 20
87.014377193525845
 11
266.87456363347968
 21
101.0143771935259
  0
INSERT
  2
-000-_OPEN
  8
_0-3_A0
 10
266.87456363347968
 20
84.014377193525845
 41
3
 42
3
 50
270
  0
INSERT
  2
-000-_OPEN
  8
_0-3_A0
 10
266.87456363347968
 20
104.0143771935259
 41
3
 42
3
 50
90
  0
LINE
  8
_0-3_A0
  6
CONTINUOUS
 62
    7
 10
275.10789695483737
 20
104.0143771935259
 11
265.87456363347968
 21
104.0143771935259
  0
INSERT
  2
-003-_U85
  8
_0-0_0
 10
0
 20
0
 41
1
 42
1
 50
0
  0
ENDBLK
  0
BLOCK
  2
-005-_U86
 70
   64
 10
0
 20
0
 30
0
  0
TEXT
  8
_0-3_A0
 62
    7
 10
75.231335709703344
 20
145.3477105270974
 40
4
 41
1
 50
90
  1
397
  0
ENDBLK
  0
BLOCK
  2
-006-_D15
 70
   64
 10
0
 20
0
 30
0
  0
LINE
  8
_0-3_A0
  6
CONTINUOUS
 62
    7
 10
92.431335697789833
 20
216.84771052722169
 11
74.731335709703344
 21
216.84771052722169
  0
LINE
  8
_0-3_A0
  6
CONTINUOUS
 62
    7
 10
75.731335709703344
 20
213.84771052722169
 11
75.731335709703344
 21
87.514377193639774
  0
INSERT
  2
-000-_OPEN
  8
_0-3_A0
 10
75.731335709703344
 20
216.84771052722169
 41
3
 42
3
 50
90
  0
INSERT
  2
-000-_OPEN
  8
_0-3_A0
 10
75.731335709703344
 20
84.514377193639759
 41
3
 42
3
 50
270
  0
LINE
  8
_0-3_A0
  6
CONTINUOUS
 62
    7
 10
92.431335697765007
 20
84.514377193639759
 11
74.731335709703344
 21
84.514377193639759
  0
INSERT
  2
-005-_U86
  8
_0-0_0
 10
0
 20
0
 41
1
 42
1
 50
0
  0
ENDBLK
  0
BLOCK
  2
-007-_U87
 70
   64
 10
0
 20
0
 30
0
  0
TEXT
  8
_0-3_A0
 62
    7
 10
286.37875721256318
 20
187.40926685221799
 40
4
 41
1
 50
0
  1
4-\U+22055穴
  0
ENDBLK
  0
BLOCK
  2
-008-D3
 70
   64
 10
0
 20
0
 30
0
  0
LINE
  8
_0-3_A0
  6
CONTINUOUS
 62
    7
 10
282.49077568816949
 20
196.7867050477615
 11
288.57042368849482
 21
186.90926685221791
  0
LINE
  8
_0-3_A0
  6
CONTINUOUS
 62
    7
 10
284.57426441727869
 20
194.54637588795358
 11
282.49077568816949
 21
196.7867050477615
  0
LINE
  8
_0-3_A0
  6
CONTINUOUS
 62
    7
 10
282.49077568816949
 20
196.7867050477615
 11
283.55233094818368
 21
193.91736706513441
  0
LINE
  8
_0-3_A0
  6
CONTINUOUS
 62
    7
 10
288.57042368849499
 20
186.90926685221799
 11
303.92042406996472
 21
186.90926685221799
  0
INSERT
  2
-007-_U87
  8
_0-0_0
 10
0
 20
0
 41
1
 42
1
 50
0
  0
ENDBLK
  0
BLOCK
  2
-009-_U88
 70
   64
 10
0
 20
0
 30
0
  0
TEXT
  8
_0-3_A0
 62
    7
 10
266.37456363347968
 20
176.68104386035369
 40
4
 41
1
 50
90
  1
100
  0
ENDBLK
  0
BLOCK
  2
-010-_D17
 70
   64
 10
0
 20
0
 30
0
  0
LINE
  8
_0-3_A0
  6
CONTINUOUS
 62
    7
 10
275.10789695484982
 20
164.01437719337181
 11
265.87456363347968
 21
164.01437719337181
  0
LINE
  8
_0-3_A0
  6
CONTINUOUS
 62
    7
 10
266.87456363347968
 20
167.01437719337181
 11
266.87456363347968
 21
194.3477105273356
  0
INSERT
  2
-000-_OPEN
  8
_0-3_A0
 10
266.87456363347968
 20
164.01437719337181
 41
3
 42
3
 50
270
  0
INSERT
  2
-000-_OPEN
  8
_0-3_A0
 10
266.87456363347968
 20
197.3477105273356
 41
3
 42
3
 50
90
  0
LINE
  8
_0-3_A0
  6
CONTINUOUS
 62
    7
 10
275.10789695486209
 20
197.3477105273356
 11
265.87456363347968
 21
197.3477105273356
  0
INSERT
  2
-009-_U88
  8
_0-0_0
 10
0
 20
0
 41
1
 42
1
 50
0
  0
ENDBLK
  0
BLOCK
  2
-011-_U89
 70
   64
 10
0
 20
0
 30
0
  0
TEXT
  8
_0-3_A0
 62
    7
 10
266.37456363347968
 20
116.6810438600134
 40
4
 41
1
 50
90
  1
100
  0
ENDBLK
  0
BLOCK
  2
-012-_D18
 70
   64
 10
0
 20
0
 30
0
  0
LINE
  8
_0-3_A0
  6
CONTINUOUS
 62
    7
 10
275.10789695483737
 20
104.0143771935259
 11
265.87456363347968
 21
104.0143771935259
  0
LINE
  8
_0-3_A0
  6
CONTINUOUS
 62
    7
 10
266.87456363347968
 20
107.0143771935259
 11
266.87456363347968
 21
134.34771052650089
  0
INSERT
  2
-000-_OPEN
  8
_0-3_A0
 10
266.87456363347968
 20
104.0143771935259
 41
3
 42
3
 50
270
  0
INSERT
  2
-000-_OPEN
  8
_0-3_A0
 10
266.87456363347968
 20
137.34771052650089
 41
3
 42
3
 50
90
  0
LINE
  8
_0-3_A0
  6
CONTINUOUS
 62
    7
 10
275.1078969548497
 20
137.34771052650089
 11
265.87456363347968
 21
137.34771052650089
  0
INSERT
  2
-011-_U89
  8
_0-0_0
 10
0
 20
0
 41
1
 42
1
 50
0
  0
ENDBLK
  0
BLOCK
  2
-013-_U90
 70
   64
 10
0
 20
0
 30
0
  0
TEXT
  8
_0-3_A0
 62
    7
 10
240.23133570988059
 20
252.44482357419491
 40
4
 41
1
 50
90
  1
30
  0
ENDBLK
  0
BLOCK
  2
-014-_D19
 70
   64
 10
0
 20
0
 30
0
  0
LINE
  8
_0-3_A0
  6
CONTINUOUS
 62
    7
 10
224.16466905513519
 20
259.01437719429571
 11
241.73133570988059
 21
259.01437719429651
  0
LINE
  8
_0-3_A0
  6
CONTINUOUS
 62
    7
 10
240.73133570988059
 20
262.01437719429651
 11
240.73133570988059
 21
266.01437719429651
  0
INSERT
  2
-000-_OPEN
  8
_0-3_A0
 10
240.73133570988059
 20
259.01437719429651
 41
3
 42
3
 50
270
  0
INSERT
  2
-000-_OPEN
  8
_0-3_A0
 10
240.73133570988059
 20
269.01437719429651
 41
3
 42
3
 50
90
  0
LINE
  8
_0-3_A0
  6
CONTINUOUS
 62
    7
 10
240.73133570988059
 20
259.01437719429651
 11
240.73133570988059
 21
252.77482326592121
  0
LINE
  8
_0-3_A0
  6
CONTINUOUS
 62
    7
 10
143.73133316672681
 20
269.01437719429668
 11
241.73133570988059
 21
269.01437719429651
  0
INSERT
  2
-013-_U90
  8
_0-0_0
 10
0
 20
0
 41
1
 42
1
 50
0
  0
ENDBLK
  0
BLOCK
  2
-015-_U91
 70
   64
 10
0
 20
0
 30
0
  0
TEXT
  8
_0-3_A0
 62
    7
 10
232.47183264404429
 20
252.721776851415
 40
4
 41
1
 50
90
  1
20
  0
ENDBLK
  0
BLOCK
  2
-016-_D20
 70
   64
 10
0
 20
0
 30
0
  0
LINE
  8
_0-3_A0
  6
CONTINUOUS
 62
    7
 10
224.1646690551351
 20
259.01437719429577
 11
233.97183264404429
 21
259.01437719429577
  0
LINE
  8
_0-3_A0
  6
CONTINUOUS
 62
    7
 10
232.97183264404429
 20
262.01437719429577
 11
232.97183264404429
 21
262.68104386087321
  0
INSERT
  2
-000-_OPEN
  8
_0-3_A0
 10
232.97183264404429
 20
259.01437719429577
 41
3
 42
3
 50
270
  0
INSERT
  2
-000-_OPEN
  8
_0-3_A0
 10
232.97183264404429
 20
265.68104386087321
 41
3
 42
3
 50
90
  0
LINE
  8
_0-3_A0
  6
CONTINUOUS
 62
    7
 10
232.97183264404429
 20
259.01437719429577
 11
232.97183264404429
 21
253.0517769631252
  0
LINE
  8
_0-3_A0
  6
CONTINUOUS
 62
    7
 10
201.16768204197791
 20
265.68104386087321
 11
233.97183264404429
 21
265.68104386087321
  0
INSERT
  2
-015-_U91
  8
_0-0_0
 10
0
 20
0
 41
1
 42
1
 50
0
  0
ENDBLK
  0
BLOCK
  2
-017-_U92
 70
   64
 10
0
 20
0
 30
0
  0
TEXT
  8
_0-3_A0
 62
    7
 10
207.73133570985748
 20
242.8477105274797
 40
4
 41
1
 50
0
  1
80
  0
ENDBLK
  0
BLOCK
  2
-018-_D21
 70
   64
 10
0
 20
0
 30
0
  0
LINE
  8
_0-3_A0
  6
CONTINUOUS
 62
    7
 10
197.39800237650149
 20
262.73840403225949
 11
197.39800237650149
 21
241.3477105274797
  0
LINE
  8
_0-3_A0
  6
CONTINUOUS
 62
    7
 10
200.3980023765016
 20
242.3477105274797
 11
221.06466904321339
 21
242.3477105274797
  0
INSERT
  2
-000-_OPEN
  8
_0-3_A0
 10
197.39800237650149
 20
242.3477105274797
 41
3
 42
3
 50
180
  0
INSERT
  2
-000-_OPEN
  8
_0-3_A0
 10
224.06466904321339
 20
242.3477105274797
 41
3
 42
3
 50
0
  0
LINE
  8
_0-3_A0
  6
CONTINUOUS
 62
    7
 10
224.06466904321339
 20
258.91437718237511
 11
224.06466904321339
 21
241.3477105274797
  0
INSERT
  2
-017-_U92
  8
_0-0_0
 10
0
 20
0
 41
1
 42
1
 50
0
  0
ENDBLK
  0
BLOCK
  2
-019-_D22
 70
   64
 10
0
 20
0
 30
0
  0
LINE
  8
_0-3_A0
  6
CONTINUOUS
 62
    7
 10
223.5646690432143
 20
259.014377194296
 11
184.9065533128948
 21
259.014377194296
  0
LINE
  8
_0-3_A0
  6
CONTINUOUS
 62
    7
 10
192.76466904320238
 20
264.84771052749408
 11
184.9065533128948
 21
264.84771052749408
  0
LINE
  8
_0-3_A0
  6
CONTINUOUS
 62
    7
 10
185.9065533128948
 20
267.8477105274942
 11
185.9065533128948
 21
270.84771052749408
  0
LINE
  8
_0-3_A0
  6
CONTINUOUS
 62
    7
 10
185.9065533128948
 20
256.01437719429588
 11
185.9065533128948
 21
242.16771052762919
  0
LINE
  8
_0-3_A0
  6
CONTINUOUS
 62
    7
 10
185.9065533128948
 20
264.84771052749408
 11
185.9065533128948
 21
259.014377194296
  0
INSERT
  2
-000-_OPEN
  8
_0-3_A0
 10
185.9065533128948
 20
264.84771052749408
 41
3
 42
3
 50
270
  0
INSERT
  2
-000-_OPEN
  8
_0-3_A0
 10
185.9065533128948
 20
259.014377194296
 41
3
 42
3
 50
90
  0
TEXT
  8
_0-3_A0
 62
    7
 10
175.817
 20
240.51099999999999
 40
4
 41
1
 50
0
  1
17.5
  0
POINT
  8
_0-8_Defpoints
 62
    7
 10
223.86466904321429
 20
259.014377194296
  0
POINT
  8
_0-8_Defpoints
 62
    7
 10
193.0646690432024
 20
264.84771052749408
  0
POINT
  8
_0-8_Defpoints
 62
    7
 10
185.9065533128948
 20
264.84771052749408
  0
ENDBLK
  0
BLOCK
  2
-020-_U94
 70
   64
 10
0
 20
0
 30
0
  0
TEXT
  8
_0-3_A0
 62
    7
 10
155.73133570992578
 20
242.8477105274797
 40
4
 41
1
 50
0
  1
220
  0
ENDBLK
  0
BLOCK
  2
-021-_D23
 70
   64
 10
0
 20
0
 30
0
  0
LINE
  8
_0-3_A0
  6
CONTINUOUS
 62
    7
 10
124.06466904334999
 20
262.8471735162908
 11
124.06466904334999
 21
241.3477105274797
  0
LINE
  8
_0-3_A0
  6
CONTINUOUS
 62
    7
 10
127.06466904334999
 20
242.3477105274797
 11
194.3980023765016
 21
242.3477105274797
  0
INSERT
  2
-000-_OPEN
  8
_0-3_A0
 10
124.06466904334999
 20
242.3477105274797
 41
3
 42
3
 50
180
  0
INSERT
  2
-000-_OPEN
  8
_0-3_A0
 10
197.39800237650149
 20
242.3477105274797
 41
3
 42
3
 50
0
  0
LINE
  8
_0-3_A0
  6
CONTINUOUS
 62
    7
 10
197.39800237650149
 20
262.73840403225949
 11
197.39800237650149
 21
241.3477105274797
  0
INSERT
  2
-020-_U94
  8
_0-0_0
 10
0
 20
0
 41
1
 42
1
 50
0
  0
ENDBLK
  0
BLOCK
  2
-022-_U95
 70
   64
 10
0
 20
0
 30
0
  0
TEXT
  8
_0-3_A0
 62
    7
 10
167.06466904321371
 20
234.5143771941463
 40
4
 41
1
 50
0
  1
314
  0
ENDBLK
  0
BLOCK
  2
-023-_D24
 70
   64
 10
0
 20
0
 30
0
  0
LINE
  8
_0-3_A0
  6
CONTINUOUS
 62
    7
 10
224.06466904321351
 20
258.91437718237511
 11
224.06466904321351
 21
233.0143771941463
  0
LINE
  8
_0-3_A0
  6
CONTINUOUS
 62
    7
 10
221.06466904321351
 20
234.0143771941463
 11
122.39800237654729
 21
234.0143771941463
  0
INSERT
  2
-000-_OPEN
  8
_0-3_A0
 10
224.06466904321351
 20
234.0143771941463
 41
3
 42
3
 50
0
  0
INSERT
  2
-000-_OPEN
  8
_0-3_A0
 10
119.39800237654729
 20
234.0143771941463
 41
3
 42
3
 50
180
  0
LINE
  8
_0-3_A0
  6
CONTINUOUS
 62
    7
 10
119.39800237654729
 20
258.71437718237609
 11
119.39800237654729
 21
233.0143771941463
  0
INSERT
  2
-022-_U95
  8
_0-0_0
 10
0
 20
0
 41
1
 42
1
 50
0
  0
ENDBLK
  0
BLOCK
  2
-024-_D25
 70
   64
 10
0
 20
0
 30
0
  0
LINE
  8
_0-3_A0
  6
CONTINUOUS
 62
    7
 10
275.20789696681299
 20
217.4477105273356
 11
275.20789696681299
 21
243.347710527336
  0
LINE
  8
_0-3_A0
  6
CONTINUOUS
 62
    7
 10
285.20789696681299
 20
199.64771052731779
 11
285.20789696681299
 21
243.347710527336
  0
LINE
  8
_0-3_A0
  6
CONTINUOUS
 62
    7
 10
278.20789696681299
 20
242.347710527336
 11
282.20789696681299
 21
242.347710527336
  0
INSERT
  2
-000-_OPEN
  8
_0-3_A0
 10
275.20789696681299
 20
242.347710527336
 41
3
 42
3
 50
180
  0
INSERT
  2
-000-_OPEN
  8
_0-3_A0
 10
285.20789696681299
 20
242.347710527336
 41
3
 42
3
 50
0
  0
TEXT
  8
_0-3_A0
 62
    7
 10
272.20800000000002
 20
237.358
 40
4
 41
1
 50
0
  1
30
  0
POINT
  8
_0-8_Defpoints
 62
    7
 10
275.20789696681299
 20
217.14771052733559
  0
POINT
  8
_0-8_Defpoints
 62
    7
 10
285.20789696681299
 20
199.34771052731778
  0
POINT
  8
_0-8_Defpoints
 62
    7
 10
285.20789696681299
 20
242.347710527336
  0
ENDBLK
  0
BLOCK
  2
-025-_U97
 70
   64
 10
0
 20
0
 30
0
  0
TEXT
  8
_0-3_A0
 62
    7
 10
231.8980023765477
 20
146.0143771937642
 40
4
 41
1
 50
90
  1
400
  0
ENDBLK
  0
BLOCK
  2
-026-_D26
 70
   64
 10
0
 20
0
 30
0
  0
LINE
  8
_0-3_A0
  6
CONTINUOUS
 62
    7
 10
224.1980023882977
 20
217.3477105272218
 11
233.3980023765477
 21
217.3477105272218
  0
LINE
  8
_0-3_A0
  6
CONTINUOUS
 62
    7
 10
232.3980023765477
 20
214.3477105272218
 11
232.3980023765477
 21
87.014377193639916
  0
INSERT
  2
-000-_OPEN
  8
_0-3_A0
 10
232.3980023765477
 20
217.3477105272218
 41
3
 42
3
 50
90
  0
INSERT
  2
-000-_OPEN
  8
_0-3_A0
 10
232.3980023765477
 20
84.014377193639916
 41
3
 42
3
 50
270
  0
LINE
  8
_0-3_A0
  6
CONTINUOUS
 62
    7
 10
224.19800238827309
 20
84.014377193639916
 11
233.3980023765477
 21
84.014377193639916
  0
INSERT
  2
-025-_U97
  8
_0-0_0
 10
0
 20
0
 41
1
 42
1
 50
0
  0
ENDBLK
  0
BLOCK
  2
-027-_U98
 70
   64
 10
0
 20
0
 30
0
  0
TEXT
  8
_0-3_A0
 62
    7
 10
153.0646690430442
 20
226.1810438606694
 40
4
 41
1
 50
0
  1
394
  0
ENDBLK
  0
BLOCK
  2
-028-_D27
 70
   64
 10
0
 20
0
 30
0
  0
LINE
  8
_0-3_A0
  6
CONTINUOUS
 62
    7
 10
224.0646690430442
 20
217.48104387247619
 11
224.0646690430442
 21
226.6810438606694
  0
LINE
  8
_0-3_A0
  6
CONTINUOUS
 62
    7
 10
221.0646690430442
 20
225.6810438606694
 11
95.731335709710776
 21
225.6810438606694
  0
INSERT
  2
-000-_OPEN
  8
_0-3_A0
 10
224.0646690430442
 20
225.6810438606694
 41
3
 42
3
 50
0
  0
INSERT
  2
-000-_OPEN
  8
_0-3_A0
 10
92.731335709710791
 20
225.6810438606694
 41
3
 42
3
 50
180
  0
LINE
  8
_0-3_A0
  6
CONTINUOUS
 62
    7
 10
92.731335709710791
 20
217.1477105391427
 11
92.731335709710791
 21
226.6810438606694
  0
INSERT
  2
-027-_U98
  8
_0-0_0
 10
0
 20
0
 41
1
 42
1
 50
0
  0
ENDBLK
  0
BLOCK
  2
-029-_D28
 70
   64
 10
0
 20
0
 30
0
  0
LINE
  8
_0-3_A0
  6
CONTINUOUS
 62
    7
 10
57.471791183852609
 20
217.48104386104239
 11
57.471791183852609
 21
226.6810438606694
  0
LINE
  8
_0-3_A0
  6
CONTINUOUS
 62
    7
 10
55.471791183852609
 20
212.98104386081479
 11
55.471791183852609
 21
226.6810438606694
  0
LINE
  8
_0-3_A0
  6
CONTINUOUS
 62
    7
 10
60.471791183852623
 20
225.6810438606694
 11
63.471791183852623
 21
225.6810438606694
  0
LINE
  8
_0-3_A0
  6
CONTINUOUS
 62
    7
 10
52.471791183852609
 20
225.6810438606694
 11
46.625124517185938
 21
225.6810438606694
  0
LINE
  8
_0-3_A0
  6
CONTINUOUS
 62
    7
 10
57.471791183852609
 20
225.6810438606694
 11
55.471791183852609
 21
225.6810438606694
  0
INSERT
  2
-000-_OPEN
  8
_0-3_A0
 10
57.471791183852609
 20
225.6810438606694
 41
3
 42
3
 50
180
  0
INSERT
  2
-000-_OPEN
  8
_0-3_A0
 10
55.471791183852609
 20
225.6810438606694
 41
3
 42
3
 50
0
  0
TEXT
  8
_0-3_A0
 62
    7
 10
40.048499999999997
 20
220.691
 40
4
 41
1
 50
0
  1
6
  0
POINT
  8
_0-8_Defpoints
 62
    7
 10
57.471791183852609
 20
217.18104386104241
  0
POINT
  8
_0-8_Defpoints
 62
    7
 10
55.471791183852609
 20
212.68104386081481
  0
POINT
  8
_0-8_Defpoints
 62
    7
 10
55.471791183852609
 20
225.6810438606694
  0
ENDBLK
  0
BLOCK
  2
-030-_D29
 70
   64
 10
0
 20
0
 30
0
  0
LINE
  8
_0-6_B0
  6
CONTINUOUS
 62
    7
 10
343.54778932493297
 20
223.56245861172951
 11
338.47655553192811
 21
217.5187975200115
  0
LINE
  8
_0-6_B0
  6
CONTINUOUS
 62
    7
 10
348.91010042677277
 20
219.06294534393211
 11
343.83886663376802
 21
213.0192842522141
  0
LINE
  8
_0-6_B0
  6
CONTINUOUS
 62
    7
 10
341.41747647097338
 20
216.35647913407549
 11
342.18352091409337
 21
215.71369152439021
  0
INSERT
  2
-000-_OPEN
  8
_0-6_B0
 10
339.11934314161339
 20
218.28484196313149
 41
3
 42
3
 50
140.00000000008961
  0
INSERT
  2
-000-_OPEN
  8
_0-6_B0
 10
344.4816542434533
 20
213.78532869533418
 41
3
 42
3
 50
320.00000000008958
  0
TEXT
  8
_0-6_B0
 62
    7
 10
335.144
 20
210.55600000000001
 40
4
 41
1
 50
0
  1
7
  0
POINT
  8
_0-8_Defpoints
 62
    7
 10
343.74062560783858
 20
223.79227194466548
  0
POINT
  8
_0-8_Defpoints
 62
    7
 10
349.10293670967848
 20
219.29275867686808
  0
POINT
  8
_0-8_Defpoints
 62
    7
 10
344.4816542434533
 20
213.78532869533418
  0
ENDBLK
  0
BLOCK
  2
-031-_U107
 70
   64
 10
0
 20
0
 30
0
  0
TEXT
  8
_0-6_B0
 62
    7
 10
354.2362700429764
 20
236.2420367167422
 40
4
 41
1
 50
0
  1
15
  0
ENDBLK
  0
BLOCK
  2
-032-_D30
 70
   64
 10
0
 20
0
 30
0
  0
LINE
  8
_0-6_B0
  6
CONTINUOUS
 62
    7
 10
349.40293670964308
 20
230.69273638525518
 11
349.40293670964308
 21
236.7420367167422
  0
LINE
  8
_0-6_B0
  6
CONTINUOUS
 62
    7
 10
352.40293670964308
 20
235.7420367167422
 11
361.40293670964308
 21
235.7420367167422
  0
INSERT
  2
-000-_OPEN
  8
_0-6_B0
 10
349.40293670964308
 20
235.7420367167422
 41
3
 42
3
 50
180
  0
INSERT
  2
-000-_OPEN
  8
_0-6_B0
 10
364.40293670964308
 20
235.7420367167422
 41
3
 42
3
 50
0
  0
LINE
  8
_0-6_B0
  6
CONTINUOUS
 62
    7
 10
364.40293670964308
 20
230.69273638525518
 11
364.40293670964308
 21
236.7420367167422
  0
INSERT
  2
-031-_U107
  8
_0-0_0
 10
0
 20
0
 41
1
 42
1
 50
0
  0
ENDBLK
  0
BLOCK
  2
-033-_U108
 70
   64
 10
0
 20
0
 30
0
  0
TEXT
  8
_0-6_B0
 62
    7
 10
336.90293670963092
 20
193.28820005312729
 40
4
 41
1
 50
90
  1
9
  0
ENDBLK
  0
BLOCK
  2
-034-_D31
 70
   64
 10
0
 20
0
 30
0
  0
LINE
  8
_0-6_B0
  6
CONTINUOUS
 62
    7
 10
346.20486048643738
 20
190.12153338646101
 11
336.40293670963092
 21
190.12153338646101
  0
LINE
  8
_0-6_B0
  6
CONTINUOUS
 62
    7
 10
337.40293670963092
 20
193.12153338646101
 11
337.40293670963092
 21
196.12153338646029
  0
INSERT
  2
-000-_OPEN
  8
_0-6_B0
 10
337.40293670963092
 20
190.12153338646101
 41
3
 42
3
 50
270
  0
INSERT
  2
-000-_OPEN
  8
_0-6_B0
 10
337.40293670963092
 20
199.12153338646029
 41
3
 42
3
 50
90
  0
LINE
  8
_0-6_B0
  6
CONTINUOUS
 62
    7
 10
349.10293669771107
 20
199.12153338646029
 11
336.40293670963092
 21
199.12153338646029
  0
INSERT
  2
-033-_U108
  8
_0-0_0
 10
0
 20
0
 41
1
 42
1
 50
0
  0
ENDBLK
  0
BLOCK
  2
-035-_D32
 70
   64
 10
0
 20
0
 30
0
  0
LINE
  8
_0-6_B0
  6
CONTINUOUS
 62
    7
 10
391.71870342250878
 20
200.61832711238099
 11
391.71870342250878
 21
212.12153338644131
  0
LINE
  8
_0-6_B0
  6
CONTINUOUS
 62
    7
 10
381.12870342252119
 20
199.42153338644129
 11
381.12870342252119
 21
212.12153338644131
  0
LINE
  8
_0-6_B0
  6
CONTINUOUS
 62
    7
 10
388.71870342250889
 20
211.12153338644131
 11
384.12870342252108
 21
211.12153338644131
  0
INSERT
  2
-000-_OPEN
  8
_0-6_B0
 10
391.71870342250878
 20
211.12153338644131
 41
3
 42
3
 50
0
  0
INSERT
  2
-000-_OPEN
  8
_0-6_B0
 10
381.12870342252119
 20
211.12153338644131
 41
3
 42
3
 50
180
  0
TEXT
  8
_0-6_B0
 62
    7
 10
378.42399999999997
 20
206.132
 40
4
 41
1
 50
0
  1
10.6
  0
POINT
  8
_0-8_Defpoints
 62
    7
 10
391.71870342250878
 20
200.31832711238101
  0
POINT
  8
_0-8_Defpoints
 62
    7
 10
381.12870342252119
 20
199.12153338644131
  0
POINT
  8
_0-8_Defpoints
 62
    7
 10
381.12870342252119
 20
211.12153338644131
  0
ENDBLK
  0
BLOCK
  2
-036-_U33
 70
   64
 10
0
 20
0
 30
0
  0
TEXT
  8
_0-1_H0
 62
    7
 10
380.20560011672972
 20
283.66300002574922
 40
1.673999948501587
 41
1
 50
0
  1
技連番号
  0
ENDBLK
  0
BLOCK
  2
-037-_U34
 70
   64
 10
0
 20
0
 30
0
  0
TEXT
  8
_0-1_H0
 62
    7
 10
391.976200123787
 20
283.58550002813342
 40
1.8289999437332149
 41
1
 50
0
  1
年 月 日
  0
ENDBLK
  0
BLOCK
  2
-038-_U35
 70
   64
 10
0
 20
0
 30
0
  0
TEXT
  8
_0-1_H0
 62
    7
 10
403.60266674041747
 20
283.60100002765659
 40
1.797999944686889
 41
1
 50
0
  1
担 当
  0
ENDBLK
  0
BLOCK
  2
-039-_U36
 70
   64
 10
0
 20
0
 30
0
  0
TEXT
  8
_0-1_H0
 62
    7
 10
338.85066673278811
 20
283.4925000309945
 40
2.0149999380111691
 41
1
 50
0
  1
記号
  0
ENDBLK
  0
BLOCK
  2
-040-_U37
 70
   64
 10
0
 20
0
 30
0
  0
TEXT
  8
_0-1_H0
 62
    7
 10
352.80566691875458
 20
283.4925000309945
 40
2.0149999380111691
 41
1
 50
0
  1
変　更　履　歴
  0
ENDBLK
  0
BLOCK
  2
-041-_U38
 70
   64
 10
0
 20
0
 30
0
  0
TEXT
  8
_0-1_H0
 62
    7
 10
340.19999999999998
 20
273.93817062273467
 40
1.6639999389648429
 41
1
 50
0
  1
B
  0
ENDBLK
  0
BLOCK
  2
-042-_U39
 70
   64
 10
0
 20
0
 30
0
  0
TEXT
  8
_0-1_H0
 62
    7
 10
340.19999999999998
 20
278.43817062273467
 40
1.6639999389648429
 41
1
 50
0
  1
A
  0
ENDBLK
  0
BLOCK
  2
-043-_U40
 70
   64
 10
0
 20
0
 30
0
  0
TEXT
  8
_0-1_H0
 62
    7
 10
340.19999999999998
 20
269.43800003051762
 40
1.6639999389648429
 41
1
 50
0
  1
C
  0
ENDBLK
  0
BLOCK
  2
-044-_U41
 70
   64
 10
0
 20
0
 30
0
  0
TEXT
  8
_0-1_H0
 62
    7
 10
340.19999999999998
 20
264.93800003051762
 40
1.6639999389648429
 41
1
 50
0
  1
D
  0
ENDBLK
  0
BLOCK
  2
-045-_U42
 70
   64
 10
0
 20
0
 30
0
  0
TEXT
  8
_0-1_H0
 62
    7
 10
340.19999999999998
 20
260.43800003051762
 40
1.6639999389648429
 41
1
 50
0
  1
E
  0
ENDBLK
  0
BLOCK
  2
-046-_U43
 70
   64
 10
0
 20
0
 30
0
  0
TEXT
  8
_0-1_H0
 62
    7
 10
336.80999999046309
 20
32.409999895095801
 40
3.0999999046325679
 41
1
 50
0
  1
型名
  0
ENDBLK
  0
BLOCK
  2
-047-_U44
 70
   64
 10
0
 20
0
 30
0
  0
TEXT
  8
_0-1_H0
 62
    7
 10
336.80999999046309
 20
23.806666564941398
 40
3.0999999046325679
 41
1
 50
0
  1
図番
  0
ENDBLK
  0
BLOCK
  2
-048-_U45
 70
   64
 10
0
 20
0
 30
0
  0
TEXT
  8
_0-1_H0
 62
    7
 10
262.06666666666671
 20
34.499999999999971
 40
4
 41
1
 50
0
  1
型　　名
  0
ENDBLK
  0
BLOCK
  2
-049-_U46
 70
   64
 10
0
 20
0
 30
0
  0
TEXT
  8
_0-1_H0
 62
    7
 10
294.79999999999989
 20
34.499999999999971
 40
4
 41
1
 50
0
  1
製品コード
  0
ENDBLK
  0
BLOCK
  2
-050-_U47
 70
   64
 10
0
 20
0
 30
0
  0
TEXT
  8
_0-1_H0
 62
    7
 10
351.25
 20
17.71
 40
5.58
 41
1
 50
0
  1
１０９２２５９
  0
ENDBLK
  0
BLOCK
  2
-051-_U48
 70
   64
 10
0
 20
0
 30
0
  0
TEXT
  8
_0-1_H0
 62
    7
 10
351.01600000000001
 20
10.71
 40
5.58
 41
1
 50
0
  1
製 品 姿 図
  0
ENDBLK
  0
BLOCK
  2
-052-_U49
 70
   64
 10
0
 20
0
 30
0
  0
TEXT
  8
_0-1_H0
 62
    7
 10
336.80999999046309
 20
16.806666564941398
 40
3.0999999046325679
 41
1
 50
0
  1
図名
  0
ENDBLK
  0
BLOCK
  2
-053-_U50
 70
   64
 10
0
 20
0
 30
0
  0
TEXT
  8
_0-1_H0
 62
    7
 10
400.0200000047684
 20
17.240000081062309
 40
2.2000000476837149
 41
1
 50
0
  1
変更歴
  0
ENDBLK
  0
BLOCK
  2
-054-_U51
 70
   64
 10
0
 20
0
 30
0
  0
TEXT
  8
_0-1_H0
 62
    7
 10
340.99999999989341
 20
28.299999999999979
 40
4.0999999999999987
 41
1
 50
0
  1
CTP-40-YMPP
  0
ENDBLK
  0
BLOCK
  2
-055-_U52
 70
   64
 10
0
 20
0
 30
0
  0
TEXT
  8
_0-1_H0
 62
    7
 10
340.61146667850749
 20
24.494266660690289
 40
2.913999910354613
 41
1
 50
0
  1
ワンド株式会社殿向け 平型用横幕板
  0
ENDBLK
  0
BLOCK
  2
-056-_U53
 70
   64
 10
0
 20
0
 30
0
  0
TEXT
  8
_0-1_H0
 62
    7
 10
308.0496000843749
 20
31.4080000186668
 40
2.183999962806701
 41
1
 50
0
  1
変更承認
  0
ENDBLK
  0
BLOCK
  2
-057-_U54
 70
   64
 10
0
 20
0
 30
0
  0
TEXT
  8
_0-1_H0
 62
    7
 10
295.4328000608192
 20
31.40800001866679
 40
2.183999962806701
 41
1
 50
0
  1
製　図
  0
ENDBLK
  0
BLOCK
  2
-058-_U55
 70
   64
 10
0
 20
0
 30
0
  0
TEXT
  8
_0-1_H0
 62
    7
 10
280.7533334057237
 20
31.226000021766239
 40
2.5479999566078181
 41
1
 50
0
  1
設　計
  0
ENDBLK
  0
BLOCK
  2
-059-_U56
 70
   64
 10
0
 20
0
 30
0
  0
TEXT
  8
_0-1_H0
 62
    7
 10
266.7533334057237
 20
31.226000021766239
 40
2.5479999566078181
 41
1
 50
0
  1
照　査
  0
ENDBLK
  0
BLOCK
  2
-060-_U57
 70
   64
 10
0
 20
0
 30
0
  0
TEXT
  8
_0-1_H0
 62
    7
 10
252.7533334057237
 20
31.226000021766239
 40
2.5479999566078181
 41
1
 50
0
  1
承　認
  0
ENDBLK
  0
BLOCK
  2
-061-_U58
 70
   64
 10
0
 20
0
 30
0
  0
TEXT
  8
_0-1_H0
 62
    7
 10
322.0496000843749
 20
31.4080000186668
 40
2.183999962806701
 41
1
 50
0
  1
変更照査
  0
ENDBLK
  0
BLOCK
  2
-062-_U59
 70
   64
 10
0
 20
0
 30
0
  0
TEXT
  8
_0-1_H0
 62
    7
 10
307.3999999999998
 20
11.82
 40
3.3599999999999989
 41
1
 50
0
  1
三角法
  0
ENDBLK
  0
BLOCK
  2
-063-_U60
 70
   64
 10
0
 20
0
 30
0
  0
TEXT
  8
_0-1_H0
 62
    7
 10
327.11733333985029
 20
13.9520000195473
 40
2.295999960899353
 41
1
 50
0
  1
1
  0
ENDBLK
  0
BLOCK
  2
-064-_U61
 70
   64
 10
0
 20
0
 30
0
  0
TEXT
  8
_0-1_H0
 62
    7
 10
322.00999999046308
 20
16.906666564941378
 40
3.0999999046325679
 41
1
 50
0
  1
尺度
  0
ENDBLK
  0
BLOCK
  2
-065-_U62
 70
   64
 10
0
 20
0
 30
0
  0
TEXT
  8
_0-1_H0
 62
    7
 10
331.93333333333328
 20
34.5
 40
4
 41
1
 50
0
  1
色　　調
  0
ENDBLK
  0
BLOCK
  2
-066-_U63
 70
   64
 10
0
 20
0
 30
0
  0
TEXT
  8
_0-1_H0
 62
    7
 10
392.58533333333332
 20
34.840000000000003
 40
3.3199999999999989
 41
1
 50
0
  1
区分No.
  0
ENDBLK
  0
BLOCK
  2
-067-_U64
 70
   64
 10
0
 20
0
 30
0
  0
TEXT
  8
_0-1_H0
 62
    7
 10
71.055968578215541
 20
55.841363370912162
 40
4.5499999999999989
 41
1
 50
0
  1
付属品
  0
ENDBLK
  0
BLOCK
  2
-068-_U65
 70
   64
 10
0
 20
0
 30
0
  0
TEXT
  8
_0-1_H0
 62
    7
 10
26.723874419934169
 20
46.693062446235643
 40
4.6999999999999992
 41
1
 50
0
  1
＋トラスＴＰねじ(\U+22054×8)
  0
ENDBLK
  0
BLOCK
  2
-069-_U66
 70
   64
 10
0
 20
0
 30
0
  0
TEXT
  8
_0-1_H0
 62
    7
 10
27.350541086600831
 20
39.69306244623565
 40
4.5499999999999989
 41
1
 50
0
  1
丸木ネジ(\U+22054.1×16)
  0
ENDBLK
  0
BLOCK
  2
-070-_U67
 70
   64
 10
0
 20
0
 30
0
  0
TEXT
  8
_0-1_H0
 62
    7
 10
117.9490586881776
 20
39.693062446247303
 40
4.4500000000000001
 41
1
 50
0
  1
１本
  0
ENDBLK
  0
BLOCK
  2
-071-_U68
 70
   64
 10
0
 20
0
 30
0
  0
TEXT
  8
_0-1_H0
 62
    7
 10
118.8390586881777
 20
46.693062446247303
 40
4.4500000000000001
 41
1
 50
0
  1
２本
  0
ENDBLK
  0
BLOCK
  2
-072-_U69
 70
   64
 10
0
 20
0
 30
0
  0
TEXT
  8
_0-1_H0
 62
    7
 10
27.350541086606568
 20
32.516832371707288
 40
4.6500000000000003
 41
1
 50
0
  1
横幕板固定金具
  0
ENDBLK
  0
BLOCK
  2
-073-_U70
 70
   64
 10
0
 20
0
 30
0
  0
TEXT
  8
_0-1_H0
 62
    7
 10
117.94905868818329
 20
32.206832371718959
 40
4.4500000000000001
 41
1
 50
0
  1
１個
  0
ENDBLK
  0
BLOCK
  2
-074-_U71
 70
   64
 10
0
 20
0
 30
0
  0
TEXT
  8
_0-1_H0
 62
    7
 10
329.73466667970012
 20
10.752000019550299
 40
2.295999960899353
 41
1
 50
0
  1
3
  0
ENDBLK
  0
BLOCK
  2
-075-_U72
 70
   64
 10
0
 20
0
 30
0
  0
TEXT
  8
_0-1_H0
 62
    7
 10
295.90390862944161
 20
25.859010152284259
 40
2.4300000000000001
 41
1
 50
0
  1
篠原
  0
ENDBLK
  0
BLOCK
  2
-076-_U73
 70
   64
 10
0
 20
0
 30
0
  0
TEXT
  8
_0-1_H0
 62
    7
 10
293.28267014812689
 20
19.68068021699862
 40
1.7639999699592578
 41
1
 50
0
  1
2023/03/29
  0
ENDBLK
  0
BLOCK
  2
-077-_U74
 70
   64
 10
0
 20
0
 30
0
  0
TEXT
  8
_0-1_H0
 62
    7
 10
281.90390862944161
 20
25.859010152284259
 40
2.4300000000000001
 41
1
 50
0
  1
篠原
  0
ENDBLK
  0
BLOCK
  2
-078-_U75
 70
   64
 10
0
 20
0
 30
0
  0
TEXT
  8
_0-1_H0
 62
    7
 10
279.28267014812701
 20
19.68068021699862
 40
1.7639999699592578
 41
1
 50
0
  1
2023/03/29
  0
ENDBLK
  0
BLOCK
  2
-079-_U76
 70
   64
 10
0
 20
0
 30
0
  0
TEXT
  8
_0-1_H0
 62
    7
 10
251
 20
40.039999999999999
 40
2.919999999999999
 41
1
 50
0
  1
CTP-40-YMPP-BK
  0
ENDBLK
  0
BLOCK
  2
-080-_U77
 70
   64
 10
0
 20
0
 30
0
  0
TEXT
  8
_0-1_H0
 62
    7
 10
294.56333333333327
 20
40.039999999999999
 40
2.919999999999999
 41
1
 50
0
  1
109WL6SW
  0
ENDBLK
  0
BLOCK
  2
-081-_U78
 70
   64
 10
0
 20
0
 30
0
  0
TEXT
  8
_0-1_H0
 62
    7
 10
320.87733333333341
 20
40.579999999999991
 40
1.84
 41
1
 50
0
  1
ブラック（ブラックＦＪ）
  0
ENDBLK
  0
BLOCK
  2
-082-_U79
 70
   64
 10
0
 20
0
 30
0
  0
TEXT
  8
_0-1_H0
 62
    7
 10
251
 20
45.039999999999999
 40
2.919999999999999
 41
1
 50
0
  1
CTP-40-YMPP-W
  0
ENDBLK
  0
BLOCK
  2
-083-_U80
 70
   64
 10
0
 20
0
 30
0
  0
TEXT
  8
_0-1_H0
 62
    7
 10
295.05000000000001
 20
45.039999999999999
 40
2.919999999999999
 41
1
 50
0
  1
109WL6XP
  0
ENDBLK
  0
BLOCK
  2
-084-_U81
 70
   64
 10
0
 20
0
 30
0
  0
TEXT
  8
_0-1_H0
 62
    7
 10
320.87733333333341
 20
45.579999999999991
 40
1.84
 41
1
 50
0
  1
ホワイト（Ｃ－２０２）
  0
ENDBLK
  0
BLOCK
  2
-085-_U82
 70
   64
 10
0
 20
0
 30
0
  0
TEXT
  8
_0-1_H0
 62
    7
 10
399.02666666666658
 20
40.039999999999999
 40
2.919999999999999
 41
1
 50
0
  1
-
  0
ENDBLK
  0
BLOCK
  2
-086-_U83
 70
   64
 10
0
 20
0
 30
0
  0
TEXT
  8
_0-1_H0
 62
    7
 10
399.02666666666658
 20
45.039999999999999
 40
2.919999999999999
 41
1
 50
0
  1
-
  0
ENDBLK
  0
BLOCK
  2
-087-_U99
 70
   64
 10
0
 20
0
 30
0
  0
TEXT
  8
_0-3_A0
 62
    7
 10
131.66147725119151
 20
255.1020568093343
 40
2.439999999999999
 41
1
 50
0
  1
2-\U+22052.9穴
  0
LINE
  8
_0-3_A0
  6
CONTINUOUS
 62
    7
 10
129.4214772511915
 20
253.04205680933421
 11
131.66147725119151
 21
253.04205680933421
  0
LINE
  8
_0-3_A0
  6
CONTINUOUS
 62
    7
 10
125.4239689614898
 20
262.47387769074111
 11
129.4214772511915
 21
253.04205680933421
  0
INSERT
  2
-000-_OPEN
  8
_0-3_A0
 10
124.25328003677169
 20
265.23603037325921
 41
3
 42
3
 50
112.96878912306661
  0
LINE
  8
_0-3_A0
  6
CONTINUOUS
 62
    7
 10
131.66147725119151
 20
253.04205680933421
 11
146.96214391785821
 21
253.04205680933421
  0
ENDBLK
  0
BLOCK
  2
-088-_U100
 70
   64
 10
0
 20
0
 30
0
  0
INSERT
  2
-000-_OPEN
  8
_0-3_A0
 10
99.974212167533394
 20
259.01437719345159
 41
3
 42
3
 50
72.943219085689946
  0
LINE
  8
_0-3_A0
  6
CONTINUOUS
 62
    7
 10
99.094254350604174
 20
256.1463335674889
 11
95.512242647311367
 21
244.47149457395221
  0
LINE
  8
_0-3_A0
  6
CONTINUOUS
 62
    7
 10
95.512242647311367
 20
244.47149457395221
 11
80.378909313978056
 21
244.47149457395221
  0
ENDBLK
  0
BLOCK
  2
-089-_U101
 70
   64
 10
0
 20
0
 30
0
  0
TEXT
  8
_0-3_A0
 62
    7
 10
79.513243004939226
 20
245.33149457395219
 40
3.6400000000000001
 41
1
 50
0
  1
外観面
  0
ENDBLK
  0
BLOCK
  2
-090-_U103
 70
   64
 10
0
 20
0
 30
0
  0
INSERT
  2
-000-_OPEN
  8
_0-3_A0
 10
123.81325412494889
 20
268.11323657131299
 41
3
 42
3
 50
296.5556584091928
  0
LINE
  8
_0-3_A0
  6
CONTINUOUS
 62
    7
 10
122.47205323950309
 20
270.79673804976971
 11
119.1828318293507
 21
277.37787784239799
  0
LINE
  8
_0-3_A0
  6
CONTINUOUS
 62
    7
 10
119.1828318293507
 20
277.37787784239799
 11
68.516165162684018
 21
277.37787784239799
  0
ENDBLK
  0
BLOCK
  2
-091-_U104
 70
   64
 10
0
 20
0
 30
0
  0
TEXT
  8
_0-3_A0
 62
    7
 10
66.495497084579383
 20
279.677877842398
 40
2.2000000000000001
 41
1
 50
0
  1
２ー外径\U+2205４上向エンボス（Ｈ＝０．５）
  0
ENDBLK
  0
BLOCK
  2
-092-_U105
 70
   64
 10
0
 20
0
 30
0
  0
TEXT
  8
_0-6_B0
 62
    7
 10
323.85675654357777
 20
176.37303470749048
 40
4.6999999999999992
 41
1
 50
0
  1
横幕板固定金具詳細(S=1/1)
  0
ENDBLK
  0
ENDSEC
  0
SECTION
  2
ENTITIES
  0
LINE
  8
_0-1_H0
  6
CONTINUOUS
 62
    3
 10
407.5
 20
287.12000004053118
 11
12.5
 21
287.12000004053118
  0
LINE
  8
_0-1_H0
  6
CONTINUOUS
 62
    3
 10
12.5
 20
287.12000004053118
 11
12.5
 21
10.120000040531152
  0
LINE
  8
_0-1_H0
  6
CONTINUOUS
 62
    3
 10
407.5
 20
282.12000004053118
 11
335.5
 21
282.12000004053118
  0
LINE
  8
_0-1_H0
  6
CONTINUOUS
 62
    3
 10
376.5
 20
287.12000004053118
 11
376.5
 21
259.62000004053118
  0
LINE
  8
_0-1_H0
  6
CONTINUOUS
 62
    3
 10
407.5
 20
277.62000004053118
 11
335.5
 21
277.62000004053118
  0
LINE
  8
_0-1_H0
  6
CONTINUOUS
 62
    3
 10
407.5
 20
268.62000004053118
 11
335.5
 21
268.62000004053118
  0
LINE
  8
_0-1_H0
  6
CONTINUOUS
 62
    3
 10
407.5
 20
264.12000004053118
 11
335.5
 21
264.12000004053118
  0
LINE
  8
_0-1_H0
  6
CONTINUOUS
 62
    3
 10
407.5
 20
259.62000004053118
 11
335.5
 21
259.62000004053118
  0
INSERT
  2
-036-_U33
  8
_0-0_0
 10
-2.5
 20
0.1200000405311527
 41
1
 42
1
 50
0
  0
INSERT
  2
-037-_U34
  8
_0-0_0
 10
-2.5
 20
0.1200000405311527
 41
1
 42
1
 50
0
  0
INSERT
  2
-038-_U35
  8
_0-0_0
 10
-2.5
 20
0.1200000405311527
 41
1
 42
1
 50
0
  0
LINE
  8
_0-1_H0
  6
CONTINUOUS
 62
    3
 10
335.5
 20
273.12000004053118
 11
407.5
 21
273.12000004053118
  0
LINE
  8
_0-1_H0
  6
CONTINUOUS
 62
    3
 10
341.5
 20
287.12000004053118
 11
341.5
 21
259.62000004053118
  0
INSERT
  2
-039-_U36
  8
_0-0_0
 10
-2.5
 20
0.1200000405311527
 41
1
 42
1
 50
0
  0
INSERT
  2
-040-_U37
  8
_0-0_0
 10
-2.5
 20
0.1200000405311527
 41
1
 42
1
 50
0
  0
LINE
  8
_0-1_H0
  6
CONTINUOUS
 62
    3
 10
386.5
 20
287.12000004053118
 11
386.5
 21
259.62000004053118
  0
LINE
  8
_0-1_H0
  6
CONTINUOUS
 62
    3
 10
336.30000000000001
 20
264.52000004053115
 11
340.69999999999987
 21
264.52000004053115
  0
LINE
  8
_0-1_H0
  6
CONTINUOUS
 62
    3
 10
340.69999999999987
 20
264.52000004053115
 11
338.49999999999988
 21
268.33051181718258
  0
LINE
  8
_0-1_H0
  6
CONTINUOUS
 62
    3
 10
338.49999999999988
 20
268.33051181718246
 11
336.30000000000001
 21
264.52000004053115
  0
LINE
  8
_0-1_H0
  6
CONTINUOUS
 62
    3
 10
336.30000000000001
 20
269.02000004053115
 11
340.69999999999987
 21
269.02000004053115
  0
LINE
  8
_0-1_H0
  6
CONTINUOUS
 62
    3
 10
340.69999999999998
 20
269.02000004053127
 11
338.5
 21
272.83051181718269
  0
LINE
  8
_0-1_H0
  6
CONTINUOUS
 62
    3
 10
338.49999999999988
 20
272.83051181718258
 11
336.29999999999989
 21
269.02000004053115
  0
LINE
  8
_0-1_H0
  6
CONTINUOUS
 62
    3
 10
336.30000000000001
 20
273.52000004053115
 11
340.69999999999987
 21
273.52000004053115
  0
LINE
  8
_0-1_H0
  6
CONTINUOUS
 62
    3
 10
340.69999999999987
 20
273.52000004053115
 11
338.49999999999988
 21
277.33051181718258
  0
LINE
  8
_0-1_H0
  6
CONTINUOUS
 62
    3
 10
338.49999999999988
 20
277.33051181718258
 11
336.29999999999989
 21
273.52000004053115
  0
INSERT
  2
-041-_U38
  8
_0-0_0
 10
-2.5
 20
0.1200000405311527
 41
1
 42
1
 50
0
  0
LINE
  8
_0-1_H0
  6
CONTINUOUS
 62
    3
 10
336.30000000000001
 20
278.02000004053115
 11
340.69999999999987
 21
278.02000004053115
  0
LINE
  8
_0-1_H0
  6
CONTINUOUS
 62
    3
 10
340.69999999999998
 20
278.02000004053127
 11
338.5
 21
281.83051181718269
  0
LINE
  8
_0-1_H0
  6
CONTINUOUS
 62
    3
 10
338.5
 20
281.83051181718258
 11
336.30000000000001
 21
278.02000004053115
  0
INSERT
  2
-042-_U39
  8
_0-0_0
 10
-2.5
 20
0.1200000405311527
 41
1
 42
1
 50
0
  0
LINE
  8
_0-1_H0
  6
CONTINUOUS
 62
    3
 10
399.5
 20
287.12000004053118
 11
399.5
 21
259.62000004053118
  0
LINE
  8
_0-1_H0
  6
CONTINUOUS
 62
    3
 10
335.5
 20
287.12000004053118
 11
335.5
 21
259.62000004053118
  0
LINE
  8
_0-1_H0
  6
CONTINUOUS
 62
    3
 10
338.49999999999988
 20
263.83051181718258
 11
336.30000000000001
 21
260.02000004053115
  0
LINE
  8
_0-1_H0
  6
CONTINUOUS
 62
    3
 10
340.69999999999987
 20
260.02000004053115
 11
338.49999999999988
 21
263.83051181718258
  0
LINE
  8
_0-1_H0
  6
CONTINUOUS
 62
    3
 10
336.30000000000001
 20
260.02000004053115
 11
340.69999999999987
 21
260.02000004053115
  0
INSERT
  2
-043-_U40
  8
_0-0_0
 10
-2.5
 20
0.1200000405311527
 41
1
 42
1
 50
0
  0
INSERT
  2
-044-_U41
  8
_0-0_0
 10
-2.5
 20
0.1200000405311527
 41
1
 42
1
 50
0
  0
INSERT
  2
-045-_U42
  8
_0-0_0
 10
-2.5
 20
0.1200000405311527
 41
1
 42
1
 50
0
  0
LINE
  8
_0-1_H0
  6
CONTINUOUS
 62
    3
 10
247.5
 20
34.120000040531152
 11
407.49999999999977
 21
34.120000040531152
  0
LINE
  8
_0-1_H0
  6
CONTINUOUS
 62
    3
 10
336.49999999999988
 20
34.120000040531124
 11
336.49999999999988
 21
10.120000040531152
  0
LINE
  8
_0-1_H0
  6
CONTINUOUS
 62
    3
 10
331.49999999999988
 20
34.120000040531124
 11
331.49999999999988
 21
10.120000040531152
  0
LINE
  8
_0-1_H0
  6
CONTINUOUS
 62
    3
 10
247.49999999999988
 20
39.120000040531152
 11
407.49999999999977
 21
39.120000040531152
  0
LINE
  8
_0-1_H0
  6
CONTINUOUS
 62
    3
 10
289.49999999999988
 20
49.120000040531152
 11
289.49999999999988
 21
34.120000040531124
  0
INSERT
  2
-046-_U43
  8
_0-0_0
 10
-2.5
 20
0.1200000405311527
 41
1
 42
1
 50
0
  0
INSERT
  2
-047-_U44
  8
_0-0_0
 10
-2.5
 20
0.1200000405311527
 41
1
 42
1
 50
0
  0
INSERT
  2
-048-_U45
  8
_0-0_0
 10
-2.5
 20
0.1200000405311527
 41
1
 42
1
 50
0
  0
INSERT
  2
-049-_U46
  8
_0-0_0
 10
-2.5
 20
0.1200000405311527
 41
1
 42
1
 50
0
  0
INSERT
  2
-050-_U47
  8
_0-0_0
 10
-2.5
 20
0.1200000405311527
 41
1
 42
1
 50
0
  0
INSERT
  2
-051-_U48
  8
_0-0_0
 10
-2.5
 20
0.1200000405311527
 41
1
 42
1
 50
0
  0
INSERT
  2
-052-_U49
  8
_0-0_0
 10
-2.5
 20
0.1200000405311527
 41
1
 42
1
 50
0
  0
LINE
  8
_0-1_H0
  6
CONTINUOUS
 62
    3
 10
247.49999999999988
 20
17.120000040531152
 11
407.5
 21
17.120000040531152
  0
LINE
  8
_0-1_H0
  6
CONTINUOUS
 62
    3
 10
331.49999999999988
 20
24.120000040531152
 11
407.5
 21
24.120000040531152
  0
LINE
  8
_0-1_H0
  6
CONTINUOUS
 62
    3
 10
395.5
 20
10.120000040531152
 11
395.5
 21
17.120000040531152
  0
INSERT
  2
-053-_U50
  8
_0-0_0
 10
-2.5
 20
0.1200000405311527
 41
1
 42
1
 50
0
  0
LINE
  8
_0-1_H0
  6
CONTINUOUS
 62
    3
 10
399.5
 20
10.120000040531152
 11
399.5
 21
17.120000040531152
  0
INSERT
  2
-054-_U51
  8
_0-0_0
 10
-2.5
 20
0.1200000405311527
 41
1
 42
1
 50
0
  0
LINE
  8
_0-1_H0
  6
CONTINUOUS
 62
    3
 10
338.49999999999988
 20
28.120000040531152
 11
405.5
 21
28.120000040531152
  0
INSERT
  2
-055-_U52
  8
_0-0_0
 10
-2.5
 20
0.1200000405311527
 41
1
 42
1
 50
0
  0
LINE
  8
_0-1_H0
  6
CONTINUOUS
 62
    3
 10
317.49999999999988
 20
10.120000040531152
 11
317.49999999999988
 21
49.120000040531152
  0
LINE
  8
_0-1_H0
  6
CONTINUOUS
 62
    3
 10
303.49999999999988
 20
10.120000040531152
 11
303.49999999999988
 21
34.120000040531124
  0
LINE
  8
_0-1_H0
  6
CONTINUOUS
 62
    3
 10
289.49999999999988
 20
17.120000040531152
 11
289.49999999999988
 21
34.120000040531124
  0
LINE
  8
_0-1_H0
  6
CONTINUOUS
 62
    3
 10
275.49999999999988
 20
17.120000040531152
 11
275.49999999999988
 21
34.120000040531124
  0
LINE
  8
_0-1_H0
  6
CONTINUOUS
 62
    3
 10
261.5
 20
17.120000040531152
 11
261.5
 21
34.120000040531124
  0
INSERT
  2
-056-_U53
  8
_0-0_0
 10
-2.5
 20
0.1200000405311527
 41
1
 42
1
 50
0
  0
INSERT
  2
-057-_U54
  8
_0-0_0
 10
-2.5
 20
0.1200000405311527
 41
1
 42
1
 50
0
  0
INSERT
  2
-058-_U55
  8
_0-0_0
 10
-2.5
 20
0.1200000405311527
 41
1
 42
1
 50
0
  0
INSERT
  2
-059-_U56
  8
_0-0_0
 10
-2.5
 20
0.1200000405311527
 41
1
 42
1
 50
0
  0
INSERT
  2
-060-_U57
  8
_0-0_0
 10
-2.5
 20
0.1200000405311527
 41
1
 42
1
 50
0
  0
INSERT
  2
-061-_U58
  8
_0-0_0
 10
-2.5
 20
0.1200000405311527
 41
1
 42
1
 50
0
  0
LINE
  8
_0-1_H0
  6
CONTINUOUS
 62
    3
 10
247.49999999999988
 20
10.120000040531152
 11
247.49999999999988
 21
34.120000040531152
  0
LINE
  8
_0-1_H0
  6
CONTINUOUS
 62
    3
 10
247.49999999999988
 20
10.120000040531152
 11
247.49999999999988
 21
49.120000040531152
  0
LINE
  8
_0-1_H0
  6
CONTINUOUS
 62
    3
 10
247.49999999999988
 20
31.120000040531152
 11
331.49999999999988
 21
31.120000040531152
  0
INSERT
  2
-062-_U59
  8
_0-0_0
 10
-2.5
 20
0.1200000405311527
 41
1
 42
1
 50
0
  0
LINE
  8
_0-1_H0
  6
CONTINUOUS
 62
    3
 10
324.50000000000011
 20
11.620000040531238
 11
328.49999999999988
 21
15.620000040528196
  0
INSERT
  2
-063-_U60
  8
_0-0_0
 10
-2.5
 20
0.1200000405311527
 41
1
 42
1
 50
0
  0
LINE
  8
_0-1_H0
  6
CONTINUOUS
 62
    3
 10
321.49999999999988
 20
10.120000040531152
 11
321.49999999999988
 21
17.120000040531152
  0
INSERT
  2
-064-_U61
  8
_0-0_0
 10
-2.5
 20
0.1200000405311527
 41
1
 42
1
 50
0
  0
INSERT
  2
-065-_U62
  8
_0-0_0
 10
-2.5
 20
0.1200000405311527
 41
1
 42
1
 50
0
  0
LINE
  8
_0-1_H0
  6
CONTINUOUS
 62
    3
 10
387.5
 20
34.120000040531152
 11
387.5
 21
49.120000040531152
  0
INSERT
  2
-066-_U63
  8
_0-0_0
 10
-2.5
 20
0.1200000405311527
 41
1
 42
1
 50
0
  0
LINE
  8
_0-1_H0
  6
CONTINUOUS
 62
    3
 10
359.5
 20
34.120000040531152
 11
359.5
 21
49.120000040531152
  0
LINE
  8
_0-1_H0
  6
CONTINUOUS
 62
    3
 10
407.5
 20
10.120000040531152
 11
407.5
 21
287.12000004053118
  0
LINE
  8
_0-1_H0
  6
CONTINUOUS
 62
    3
 10
12.5
 20
10.120000040531152
 11
407.5
 21
10.120000040531152
  0
INSERT
  2
-067-_U64
  8
_0-0_0
 10
-2.5
 20
0.1200000405311527
 41
1
 42
1
 50
0
  0
INSERT
  2
-068-_U65
  8
_0-0_0
 10
-2.5
 20
0.1200000405311527
 41
1
 42
1
 50
0
  0
INSERT
  2
-069-_U66
  8
_0-0_0
 10
-2.5
 20
0.1200000405311527
 41
1
 42
1
 50
0
  0
LINE
  8
_0-1_H0
  6
DASHED
 62
    3
 10
98.454321172270496
 20
49.324695024915087
 11
114.96884748412399
 21
49.324695024919634
  0
LINE
  8
_0-1_H0
  6
DASHED
 62
    3
 10
88.37894414775252
 20
42.324695024912301
 11
114.96884748412399
 21
42.324695024919634
  0
INSERT
  2
-070-_U67
  8
_0-0_0
 10
-2.5
 20
0.1200000405311527
 41
1
 42
1
 50
0
  0
INSERT
  2
-071-_U68
  8
_0-0_0
 10
-2.5
 20
0.1200000405311527
 41
1
 42
1
 50
0
  0
LINE
  8
_0-1_H0
  6
CONTINUOUS
 62
    3
 10
131.0797647061932
 20
58.236363411443306
 11
131.07976470621679
 21
27.475784585237335
  0
LINE
  8
_0-1_H0
  6
CONTINUOUS
 62
    3
 10
21.198839116904537
 20
58.236363411443306
 11
21.198839116922641
 21
27.4360830931343
  0
LINE
  8
_0-1_H0
  6
CONTINUOUS
 62
    3
 10
21.198839116904537
 20
58.236363411443306
 11
66.539301530079114
 21
58.236363411443306
  0
LINE
  8
_0-1_H0
  6
CONTINUOUS
 62
    3
 10
85.739302293018582
 20
58.236363411443306
 11
131.0797647061932
 21
58.236363411443306
  0
INSERT
  2
-072-_U69
  8
_0-0_0
 10
-2.5
 20
0.1200000405311527
 41
1
 42
1
 50
0
  0
LINE
  8
_0-1_H0
  6
DASHED
 62
    3
 10
65.48413561382398
 20
34.838464950377613
 11
114.96884748412969
 21
34.838464950391312
  0
INSERT
  2
-073-_U70
  8
_0-0_0
 10
-2.5
 20
0.1200000405311527
 41
1
 42
1
 50
0
  0
LINE
  8
_0-1_H0
  6
CONTINUOUS
 62
    3
 10
21.19883911692392
 20
27.475784585222129
 11
131.07976470621679
 21
27.475784585237349
  0
INSERT
  2
-074-_U71
  8
_0-0_0
 10
-2.5
 20
0.1200000405311527
 41
1
 42
1
 50
0
  0
INSERT
  2
-075-_U72
  8
_0-0_0
 10
-2.5
 20
0.1200000405311527
 41
1
 42
1
 50
0
  0
INSERT
  2
-076-_U73
  8
_0-0_0
 10
-2.5
 20
0.1200000405311527
 41
1
 42
1
 50
0
  0
INSERT
  2
-077-_U74
  8
_0-0_0
 10
-2.5
 20
0.1200000405311527
 41
1
 42
1
 50
0
  0
INSERT
  2
-078-_U75
  8
_0-0_0
 10
-2.5
 20
0.1200000405311527
 41
1
 42
1
 50
0
  0
INSERT
  2
-079-_U76
  8
_0-0_0
 10
-2.5
 20
0.1200000405311527
 41
1
 42
1
 50
0
  0
INSERT
  2
-080-_U77
  8
_0-0_0
 10
-2.5
 20
0.1200000405311527
 41
1
 42
1
 50
0
  0
INSERT
  2
-081-_U78
  8
_0-0_0
 10
-2.5
 20
0.1200000405311527
 41
1
 42
1
 50
0
  0
INSERT
  2
-082-_U79
  8
_0-0_0
 10
-2.5
 20
0.1200000405311527
 41
1
 42
1
 50
0
  0
INSERT
  2
-083-_U80
  8
_0-0_0
 10
-2.5
 20
0.1200000405311527
 41
1
 42
1
 50
0
  0
INSERT
  2
-084-_U81
  8
_0-0_0
 10
-2.5
 20
0.1200000405311527
 41
1
 42
1
 50
0
  0
LINE
  8
_0-1_H0
  6
CONTINUOUS
 62
    3
 10
247.49999999999988
 20
44.120000040531152
 11
407.49999999999977
 21
44.120000040531152
  0
LINE
  8
_0-1_H0
  6
CONTINUOUS
 62
    3
 10
247.49999999999988
 20
49.120000040531152
 11
407.49999999999977
 21
49.120000040531152
  0
INSERT
  2
-085-_U82
  8
_0-0_0
 10
-2.5
 20
0.1200000405311527
 41
1
 42
1
 50
0
  0
INSERT
  2
-086-_U83
  8
_0-0_0
 10
-2.5
 20
0.1200000405311527
 41
1
 42
1
 50
0
  0
LINE
  8
_0-3_A0
  6
CONTINUOUS
 62
    3
 10
116.8980023761772
 20
217.46771056775364
 11
221.3980023763768
 21
217.46771056775295
  0
LINE
  8
_0-3_A0
  6
CONTINUOUS
 62
    3
 10
221.56466904304409
 20
217.30104390108644
 11
221.3980023763774
 21
217.30104390108644
  0
LINE
  8
_0-3_A0
  6
CONTINUOUS
 62
    3
 10
221.3980023763768
 20
217.46771056775304
 11
221.3980023763774
 21
217.30104390108635
  0
LINE
  8
_0-3_A0
  6
HIDDEN
 62
    3
 10
221.3980023763774
 20
217.30104390108624
 11
116.8980023761772
 21
217.30104390108695
  0
LINE
  8
_0-3_A0
  6
CONTINUOUS
 62
    3
 10
116.8980023762236
 20
216.96771056775446
 11
90.898002376377434
 21
216.96771056775295
  0
LINE
  8
_0-3_A0
  6
CONTINUOUS
 62
    3
 10
116.89800237622199
 20
217.46771056775355
 11
116.8980023762236
 21
216.96771056775355
  0
LINE
  8
_0-3_A0
  6
CENTER
 62
    3
 10
194.89800237643729
 20
218.99223368681384
 11
194.89800237643478
 21
215.62032989861006
  0
LINE
  8
_0-3_A0
  6
CENTER
 62
    3
 10
121.564669043391
 20
219.10100731986804
 11
121.5646690433886
 21
215.83787301542926
  0
LINE
  8
_0-3_A0
  6
CONTINUOUS
 62
    3
 10
272.90789696681338
 20
217.46771056786676
 11
282.7078969668131
 21
217.46771056784893
  0
LINE
  8
_0-3_A0
  6
CONTINUOUS
 62
    3
 10
272.7078969668131
 20
217.30104390120055
 11
282.70789696681299
 21
217.30104390118233
  0
ARC
  8
_0-3_A0
  6
CONTINUOUS
 62
    3
 10
272.90789696681298
 20
217.26771056786685
 40
0.2
 50
90
 51
180
  0
CIRCLE
  8
_0-3_A0
  6
CONTINUOUS
 62
    3
 10
279.37456363347951
 20
197.46771056785505
 40
0.8333333333333331
  0
LINE
  8
_0-3_A0
  6
CONTINUOUS
 62
    3
 10
116.89800237626779
 20
84.134377234171793
 11
221.39800237635211
 21
84.134377234171068
  0
LINE
  8
_0-3_A0
  6
CONTINUOUS
 62
    3
 10
221.56466904301939
 20
84.301043900837697
 11
221.39800237635259
 21
84.301043900837697
  0
LINE
  8
_0-3_A0
  6
CONTINUOUS
 62
    3
 10
221.39800237635211
 20
84.134377234171054
 11
221.3980023763527
 21
84.301043900837697
  0
LINE
  8
_0-3_A0
  6
HIDDEN
 62
    3
 10
221.3980023763527
 20
84.301043900837697
 11
116.89800237626829
 21
84.30104390083845
  0
LINE
  8
_0-3_A0
  6
CONTINUOUS
 62
    3
 10
116.89800237626849
 20
84.634377234171708
 11
90.898002376352565
 21
84.634377234170926
  0
LINE
  8
_0-3_A0
  6
CONTINUOUS
 62
    3
 10
116.89800237626779
 20
84.134377234171722
 11
116.8980023762695
 21
84.634377234171765
  0
LINE
  8
_0-3_A0
  6
CENTER
 62
    3
 10
194.89800237641259
 20
82.609854115110351
 11
194.89800237641009
 21
85.981757903314203
  0
LINE
  8
_0-3_A0
  6
CENTER
 62
    3
 10
121.56466904342589
 20
82.501080482055115
 11
121.56466904342339
 21
85.764214786493866
  0
LINE
  8
_0-3_A0
  6
CONTINUOUS
 62
    3
 10
272.90789696678859
 20
84.134377234057026
 11
282.70789696678832
 21
84.134377234074776
  0
LINE
  8
_0-3_A0
  6
CONTINUOUS
 62
    3
 10
272.70789696678832
 20
84.301043900723342
 11
282.70789696678832
 21
84.301043900741476
  0
ARC
  8
_0-3_A0
  6
CONTINUOUS
 62
    3
 10
272.9078969667882
 20
84.334377234057043
 40
0.2
 50
179.9999999999996
 51
269.9999999999996
  0
LINE
  8
_0-3_A0
  6
CONTINUOUS
 62
    3
 10
90.231335709686049
 20
85.301043900837584
 11
90.231335709710634
 21
216.30104390108616
  0
LINE
  8
_0-3_A0
  6
CONTINUOUS
 62
    3
 10
221.56466904301939
 20
84.301043900837697
 11
221.5646690430442
 21
217.30104390108644
  0
LINE
  8
_0-3_A0
  6
HIDDEN
 62
    3
 10
221.3980023763527
 20
84.301043900837669
 11
221.39800237637749
 21
217.30104390108635
  0
LINE
  8
_0-3_A0
  6
HIDDEN
 62
    3
 10
272.87456363345501
 20
84.301043900723627
 11
272.87456363347968
 21
217.30104390120015
  0
LINE
  8
_0-3_A0
  6
CONTINUOUS
 62
    3
 10
272.70789696678832
 20
84.334377234057029
 11
272.70789696681299
 21
217.26771056786674
  0
LINE
  8
_0-3_A0
  6
CENTER
 62
    3
 10
272.90789696678302
 20
197.46771056786676
 11
282.70789696678281
 21
197.46771056784885
  0
LINE
  8
_0-3_A0
  6
CENTER
 62
    3
 10
272.90789696675841
 20
104.13437723405705
 11
282.70789696675802
 21
104.13437723407474
  0
CIRCLE
  8
_0-3_A0
  6
CONTINUOUS
 62
    3
 10
279.37456363345478
 20
104.13437723406875
 40
0.8333333333333331
  0
LINE
  8
_0-3_A0
  6
CONTINUOUS
 62
    3
 10
277.04123030014642
 20
200.13437723452585
 11
282.04123030014631
 21
200.13437723451676
  0
LINE
  8
_0-3_A0
  6
CONTINUOUS
 62
    3
 10
277.04123030012158
 20
101.46771056739785
 11
282.04123030012158
 21
101.46771056740695
  0
LINE
  8
_0-3_A0
  6
CONTINUOUS
 62
    3
 10
277.04123030012152
 20
84.967710567397858
 11
277.04123030012158
 21
101.46771056739775
  0
LINE
  8
_0-3_A0
  6
CONTINUOUS
 62
    3
 10
277.04123030014619
 20
200.13437723452594
 11
277.04123030014631
 21
216.63437723452594
  0
LINE
  8
_0-3_A0
  6
CONTINUOUS
 62
    3
 10
282.70789696681299
 20
217.30104390118233
 11
282.70789696681299
 21
217.46771056784893
  0
LINE
  8
_0-3_A0
  6
CONTINUOUS
 62
    3
 10
282.70789696678832
 20
84.13437723407479
 11
282.70789696678832
 21
84.301043900741461
  0
LINE
  8
_0-3_A0
  6
CONTINUOUS
 62
    3
 10
282.70789696678832
 20
102.13437723407484
 11
282.70789696681288
 21
199.46771056784893
  0
LINE
  8
_0-3_A0
  6
CONTINUOUS
 62
    3
 10
282.04123030012158
 20
101.46771056740695
 11
282.70789696678832
 21
102.13437723407474
  0
LINE
  8
_0-3_A0
  6
CONTINUOUS
 62
    3
 10
282.7078969668131
 20
199.46771056784893
 11
282.04123030014631
 21
200.13437723451676
  0
LINE
  8
_0-3_A0
  6
CENTER
 62
    3
 10
272.90789696677057
 20
164.13437723390296
 11
282.70789696677042
 21
164.13437723388514
  0
CIRCLE
  8
_0-3_A0
  6
CONTINUOUS
 62
    3
 10
279.37456363346711
 20
164.13437723389125
 40
0.8333333333333331
  0
LINE
  8
_0-3_A0
  6
CENTER
 62
    3
 10
272.90789696677057
 20
137.46771056703204
 11
282.7078969667703
 21
137.46771056701416
  0
CIRCLE
  8
_0-3_A0
  6
CONTINUOUS
 62
    3
 10
279.374563633467
 20
137.46771056702036
 40
0.8333333333333331
  0
INSERT
  2
-002-_D13
  8
_0-3_A0
 10
-2.5
 20
0.1200000405311527
 41
1
 42
1
 50
0
  0
INSERT
  2
-004-_D14
  8
_0-3_A0
 10
-2.5
 20
0.1200000405311527
 41
1
 42
1
 50
0
  0
INSERT
  2
-006-_D15
  8
_0-3_A0
 10
-2.5
 20
0.1200000405311527
 41
1
 42
1
 50
0
  0
INSERT
  2
-008-D3
  8
_0-3_A0
 10
-2.5
 20
0.1200000405311527
 41
1
 42
1
 50
0
  0
INSERT
  2
-010-_D17
  8
_0-3_A0
 10
-2.5
 20
0.1200000405311527
 41
1
 42
1
 50
0
  0
INSERT
  2
-012-_D18
  8
_0-3_A0
 10
-2.5
 20
0.1200000405311527
 41
1
 42
1
 50
0
  0
LINE
  8
_0-4_A15
  6
CONTINUOUS
 62
    3
 10
90.398002376141704
 20
259.13437723392144
 11
221.3646690432142
 21
259.13437723482695
  0
LINE
  8
_0-4_A15
  6
CONTINUOUS
 62
    3
 10
221.56466904319179
 20
269.13437723482775
 11
221.56466904321351
 21
259.33437723482722
  0
ARC
  8
_0-4_A15
  6
CONTINUOUS
 62
    3
 10
221.36466904321329
 20
259.33437723482688
 40
0.2
 50
270.00000000016939
 51
0.000000000169409
  0
LINE
  8
_0-4_A15
  6
CONTINUOUS
 62
    3
 10
221.39800237652488
 20
269.13437723482695
 11
221.39800237654699
 21
259.13437723482695
  0
LINE
  8
_0-4_A15
  6
CONTINUOUS
 62
    3
 10
90.2313357094704
 20
261.1343772339211
 11
90.231335709474379
 21
259.30104390058772
  0
LINE
  8
_0-4_A15
  6
CONTINUOUS
 62
    3
 10
117.5646690431509
 20
269.13437723483139
 11
116.8980023764885
 21
268.46771056816169
  0
LINE
  8
_0-4_A15
  6
CONTINUOUS
 62
    3
 10
116.89800237648829
 20
268.46771056816169
 11
116.89800237654729
 21
259.1343772348282
  0
LINE
  8
_0-4_A15
  6
CONTINUOUS
 62
    3
 10
90.398002376141135
 20
259.30104390059545
 11
116.8980023765462
 21
259.30104390062126
  0
LINE
  8
_0-4_A15
  6
HIDDEN
 62
    3
 10
116.8980023765462
 20
259.30104390046699
 11
221.39800237654679
 21
259.30104390149369
  0
CIRCLE
  8
_0-4_A15
  6
CONTINUOUS
 62
    3
 10
194.89800237653309
 20
265.80104390138819
 40
0.4833333333333332
  0
CIRCLE
  8
_0-4_A15
  6
CONTINUOUS
 62
    3
 10
121.5646690433449
 20
265.80104390152939
 40
0.4833333333333332
  0
LINE
  8
_0-4_A15
  6
CENTER
 62
    3
 10
121.5646690433379
 20
268.73437723508459
 11
121.56466904334999
 21
263.26717356874303
  0
LINE
  8
_0-4_A15
  6
CENTER
 62
    3
 10
194.89800237648549
 20
268.59951290194976
 11
194.89800237650149
 21
263.1584040847116
  0
LINE
  8
_0-4_A15
  6
CONTINUOUS
 62
    3
 10
197.2313357098597
 20
268.46771056805846
 11
197.23133570987059
 21
263.46771056805721
  0
LINE
  8
_0-4_A15
  6
CONTINUOUS
 62
    3
 10
190.5646690431931
 20
268.46771056802992
 11
190.5646690432008
 21
264.96771056802538
  0
LINE
  8
_0-4_A15
  6
CONTINUOUS
 62
    3
 10
141.2313357098597
 20
268.46771056792306
 11
141.2313357098674
 21
264.9677105679184
  0
LINE
  8
_0-4_A15
  6
CONTINUOUS
 62
    3
 10
117.56466904196949
 20
269.13437723365018
 11
140.5646690436915
 21
269.13437723408696
  0
LINE
  8
_0-4_A15
  6
CONTINUOUS
 62
    3
 10
191.23133570985831
 20
269.13437723469689
 11
196.56466904319441
 21
269.13437723471997
  0
LINE
  8
_0-4_A15
  6
CONTINUOUS
 62
    3
 10
221.39800237652499
 20
269.13437723482718
 11
221.56466904319159
 21
269.13437723482775
  0
LINE
  8
_0-4_A15
  6
CONTINUOUS
 62
    3
 10
141.2313357098674
 20
264.9677105678088
 11
190.56466904320228
 21
264.96771056802515
  0
LINE
  8
_0-4_A15
  6
CONTINUOUS
 62
    3
 10
197.23133570987059
 20
263.46771056805425
 11
220.7313357098707
 21
263.46771056815737
  0
LINE
  8
_0-4_A15
  6
CONTINUOUS
 62
    3
 10
140.56466904319148
 20
269.13437723458685
 11
141.2313357098597
 21
268.46771056792306
  0
LINE
  8
_0-4_A15
  6
CONTINUOUS
 62
    3
 10
191.23133570985831
 20
269.1343772346994
 11
190.5646690431931
 21
268.46771056802981
  0
LINE
  8
_0-4_A15
  6
CONTINUOUS
 62
    3
 10
196.56466904319191
 20
269.13437723472236
 11
197.23133570985999
 21
268.46771056805857
  0
LINE
  8
_0-4_A15
  6
CONTINUOUS
 62
    3
 10
90.231335709465852
 20
261.13437723392064
 11
90.398002376137128
 21
261.13437723392144
  0
LINE
  8
_0-4_A15
  6
CONTINUOUS
 62
    3
 10
90.398002376137085
 20
261.13437723392144
 11
90.39800237614105
 21
259.30104390059545
  0
ARC
  8
_0-4_A15
  6
CONTINUOUS
 62
    3
 10
90.398002376141064
 20
259.30104390058806
 40
0.1666666666666667
 50
180.00000000016939
 51
270.00000000016939
  0
LINE
  8
_0-4_A15
  6
CONTINUOUS
 62
    3
 10
90.231335709468865
 20
260.4677105672539
 11
90.398002376140155
 21
260.46771056725469
  0
LINE
  8
_0-4_A15
  6
CONTINUOUS
 62
    3
 10
221.39800237653881
 20
262.80104390149358
 11
220.7313357098707
 21
263.46771056815737
  0
CIRCLE
  8
_0-4_A15
  6
CONTINUOUS
 62
    3
 10
194.8980023764596
 20
267.80104390138956
 40
0.6666666666666666
  0
CIRCLE
  8
_0-4_A15
  6
HIDDEN
 62
    3
 10
194.8980023764596
 20
267.80104390138956
 40
0.5
  0
CIRCLE
  8
_0-4_A15
  6
HIDDEN
 62
    3
 10
121.5646690433102
 20
267.8010439015569
 40
0.5
  0
CIRCLE
  8
_0-4_A15
  6
CONTINUOUS
 62
    3
 10
121.5646690433102
 20
267.8010439015569
 40
0.6666666666666666
  0
LINE
  8
_0-4_A15
  6
CENTER
 62
    3
 10
119.9370060770879
 20
265.8010439004679
 11
198.36768203005701
 21
265.80104390140434
  0
LINE
  8
_0-4_A15
  6
PHANTOM
 62
    3
 10
119.93700607706449
 20
267.80104390049609
 11
196.15067544614458
 21
267.8010439013891
  0
LINE
  8
_0-3_A0
  6
HIDDEN
 62
    3
 10
90.398002376353218
 20
88.134377232878662
 11
90.398002376376794
 21
213.46771056803245
  0
LINE
  8
_0-3_A0
  6
CONTINUOUS
 62
    3
 10
54.971791183852616
 20
217.30104390157345
 11
54.971791183852928
 21
84.301043900757278
  0
LINE
  8
_0-3_A0
  6
CONTINUOUS
 62
    3
 10
54.80512451718593
 20
216.96771056824016
 11
54.971791183852616
 21
216.96771056824044
  0
LINE
  8
_0-3_A0
  6
CONTINUOUS
 62
    3
 10
44.971791183852559
 20
217.46771056822564
 11
54.805124517185674
 21
217.46771056824016
  0
LINE
  8
_0-3_A0
  6
CONTINUOUS
 62
    3
 10
44.971791183852644
 20
217.30104390155884
 11
54.971791183852559
 21
217.30104390157364
  0
ARC
  8
_0-3_A0
  6
CONTINUOUS
 62
    3
 10
54.80512451718593
 20
217.30104390157345
 40
0.1666666666666667
 50
0
 51
90
  0
LINE
  8
_0-3_A0
  6
CONTINUOUS
 62
    3
 10
54.80512451718593
 20
213.46771056801085
 11
54.80512451718593
 21
217.30104390157336
  0
LINE
  8
_0-3_A0
  6
CONTINUOUS
 62
    3
 10
52.971791183852616
 20
212.80104390134596
 11
52.9717911838529
 21
88.801043899616558
  0
LINE
  8
_0-3_A0
  6
CONTINUOUS
 62
    3
 10
53.638457850514583
 20
213.46771056800884
 11
54.971791183852616
 21
213.46771056801085
  0
LINE
  8
_0-3_A0
  6
CONTINUOUS
 62
    3
 10
53.63845785051464
 20
213.46771056800884
 11
52.971791183847955
 21
212.80104390134124
  0
CIRCLE
  8
_0-3_A0
  6
CONTINUOUS
 62
    3
 10
48.305124517192837
 20
197.46771056802955
 40
0.8333333333333331
  0
CIRCLE
  8
_0-3_A0
  6
CONTINUOUS
 62
    3
 10
48.305124517186698
 20
104.13437723424165
 40
0.8333333333333331
  0
LINE
  8
_0-3_A0
  6
CONTINUOUS
 62
    3
 10
50.638457850525952
 20
200.13437723470065
 11
45.638457850525952
 21
200.13437723469155
  0
LINE
  8
_0-3_A0
  6
CONTINUOUS
 62
    3
 10
50.638457850520012
 20
101.46771056757074
 11
45.638457850519927
 21
101.46771056757975
  0
LINE
  8
_0-3_A0
  6
CONTINUOUS
 62
    3
 10
44.971791183853213
 20
102.13437723424765
 11
44.971791183859323
 21
199.46771056802356
  0
LINE
  8
_0-3_A0
  6
CONTINUOUS
 62
    3
 10
45.638457850519841
 20
101.46771056757975
 11
44.971791183853213
 21
102.13437723424755
  0
LINE
  8
_0-3_A0
  6
CONTINUOUS
 62
    3
 10
44.971791183859181
 20
199.46771056802356
 11
45.638457850525895
 21
200.13437723469155
  0
CIRCLE
  8
_0-3_A0
  6
CONTINUOUS
 62
    3
 10
48.305124517219752
 20
164.13437723405655
 40
0.8333333333333331
  0
CIRCLE
  8
_0-3_A0
  6
CONTINUOUS
 62
    3
 10
48.305124517219752
 20
137.46771056734985
 40
0.8333333333333331
  0
LINE
  8
_0-3_A0
  6
CONTINUOUS
 62
    3
 10
44.971791183852644
 20
217.30104390155884
 11
44.971791183852587
 21
217.46771056822555
  0
LINE
  8
_0-3_A0
  6
CONTINUOUS
 62
    3
 10
50.638457850526009
 20
200.13437723470065
 11
50.638457850519557
 21
216.63437723490054
  0
LINE
  8
_0-3_A0
  6
CENTER
 62
    3
 10
46.691598760711997
 20
197.46771056802955
 11
49.918650273673591
 21
197.46771056802955
  0
LINE
  8
_0-3_A0
  6
CENTER
 62
    3
 10
48.305124517192837
 20
195.85418481154886
 11
48.305124517192837
 21
199.08123632451045
  0
LINE
  8
_0-3_A0
  6
CENTER
 62
    3
 10
46.691598760738941
 20
164.13437723405655
 11
49.918650273700507
 21
164.13437723405655
  0
LINE
  8
_0-3_A0
  6
CENTER
 62
    3
 10
48.305124517219752
 20
162.52085147757574
 11
48.305124517219752
 21
165.74790299053734
  0
LINE
  8
_0-3_A0
  6
CENTER
 62
    3
 10
46.691598760738941
 20
137.46771056734985
 11
49.918650273700592
 21
137.46771056734985
  0
LINE
  8
_0-3_A0
  6
CENTER
 62
    3
 10
48.305124517219752
 20
135.85418481086915
 11
48.305124517219752
 21
139.08123632383066
  0
LINE
  8
_0-3_A0
  6
CENTER
 62
    3
 10
46.691598760705858
 20
104.13437723424165
 11
49.918650273667537
 21
104.13437723424165
  0
LINE
  8
_0-3_A0
  6
CENTER
 62
    3
 10
48.305124517186698
 20
102.52085147776085
 11
48.305124517186698
 21
105.74790299072245
  0
LINE
  8
_0-3_A0
  6
CONTINUOUS
 62
    3
 10
53.638457850519586
 20
88.134377232949063
 11
54.971791183852928
 21
88.134377232947571
  0
LINE
  8
_0-3_A0
  6
CONTINUOUS
 62
    3
 10
52.971791183852985
 20
88.801043899616459
 11
53.638457850519671
 21
88.134377232949063
  0
LINE
  8
_0-3_A0
  6
CONTINUOUS
 62
    3
 10
54.805124517186243
 20
84.301043900757292
 11
54.805124517186243
 21
88.134377232947628
  0
LINE
  8
_0-3_A0
  6
HIDDEN
 62
    3
 10
54.805124517186243
 20
88.134377232947642
 11
54.805124517185959
 21
213.46771056801085
  0
LINE
  8
_0-3_A0
  6
CONTINUOUS
 62
    3
 10
44.971791183852928
 20
84.134377234083359
 11
54.805124517186413
 21
84.134377234090635
  0
LINE
  8
_0-3_A0
  6
CONTINUOUS
 62
    3
 10
44.9717911838529
 20
84.301043900750045
 11
54.971791183852985
 21
84.301043900757434
  0
ARC
  8
_0-3_A0
  6
CONTINUOUS
 62
    3
 10
54.805124517186243
 20
84.301043900757292
 40
0.1666666666666667
 50
270
 51
0
  0
LINE
  8
_0-3_A0
  6
CONTINUOUS
 62
    3
 10
44.9717911838529
 20
84.301043900750016
 11
44.9717911838529
 21
84.134377234083359
  0
LINE
  8
_0-3_A0
  6
CONTINUOUS
 62
    3
 10
50.638457850519955
 20
84.967710567420908
 11
50.638457850519927
 21
101.46771056757064
  0
INSERT
  2
-014-_D19
  8
_0-3_A0
 10
-2.5
 20
0.1200000405311527
 41
1
 42
1
 50
0
  0
INSERT
  2
-016-_D20
  8
_0-3_A0
 10
-2.5
 20
0.1200000405311527
 41
1
 42
1
 50
0
  0
INSERT
  2
-018-_D21
  8
_0-3_A0
 10
-2.5
 20
0.1200000405311527
 41
1
 42
1
 50
0
  0
INSERT
  2
-019-_D22
  8
_0-3_A0
 10
-2.5
 20
0.1200000405311527
 41
1
 42
1
 50
0
  0
INSERT
  2
-021-_D23
  8
_0-3_A0
 10
-2.5
 20
0.1200000405311527
 41
1
 42
1
 50
0
  0
INSERT
  2
-023-_D24
  8
_0-3_A0
 10
-2.5
 20
0.1200000405311527
 41
1
 42
1
 50
0
  0
INSERT
  2
-024-_D25
  8
_0-3_A0
 10
-2.5
 20
0.1200000405311527
 41
1
 42
1
 50
0
  0
LINE
  8
_0-3_A0
  6
CENTER
 62
    3
 10
279.37456363345478
 20
100.15905652775735
 11
279.37456363347951
 21
201.44303127416645
  0
INSERT
  2
-026-_D26
  8
_0-3_A0
 10
-2.5
 20
0.1200000405311527
 41
1
 42
1
 50
0
  0
LINE
  8
_0-3_A0
  6
HIDDEN
 62
    3
 10
90.231335709710165
 20
213.46771056803254
 11
90.398002376376823
 21
213.46771056803245
  0
LINE
  8
_0-3_A0
  6
HIDDEN
 62
    3
 10
90.231335709710094
 20
212.80104390171885
 11
90.398002376376723
 21
212.80104390171925
  0
LINE
  8
_0-3_A0
  6
HIDDEN
 62
    3
 10
90.231335709709284
 20
88.134377232878563
 11
90.398002376375941
 21
88.134377232878662
  0
LINE
  8
_0-3_A0
  6
HIDDEN
 62
    3
 10
90.231335709709185
 20
88.801043899192208
 11
90.398002376375828
 21
88.80104389919181
  0
LINE
  8
_0-3_A0
  6
CONTINUOUS
 62
    3
 10
54.805124517184964
 20
84.634377232674239
 11
54.971791183851649
 21
84.634377232673969
  0
INSERT
  2
-028-_D27
  8
_0-3_A0
 10
-2.5
 20
0.1200000405311527
 41
1
 42
1
 50
0
  0
INSERT
  2
-087-_U99
  8
_0-0_0
 10
-2.5
 20
0.1200000405311527
 41
1
 42
1
 50
0
  0
INSERT
  2
-088-_U100
  8
_0-0_0
 10
-2.5
 20
0.1200000405311527
 41
1
 42
1
 50
0
  0
INSERT
  2
-089-_U101
  8
_0-0_0
 10
-2.5
 20
0.1200000405311527
 41
1
 42
1
 50
0
  0
LINE
  8
_0-3_A0
  6
CONTINUOUS
 62
    3
 10
277.04123030014619
 20
216.63437723452594
 11
276.37456363347951
 21
217.30104390119376
  0
LINE
  8
_0-3_A0
  6
CONTINUOUS
 62
    3
 10
277.04123030012152
 20
84.967710567397858
 11
276.37456363345489
 21
84.301043900729979
  0
INSERT
  2
-029-_D28
  8
_0-3_A0
 10
-2.5
 20
0.1200000405311527
 41
1
 42
1
 50
0
  0
LINE
  8
_0-3_A0
  6
CENTER
 62
    3
 10
230.8980023765477
 20
150.80104390045624
 11
303.93502644246882
 21
150.80104390045565
  0
LINE
  8
_0-3_A0
  6
CENTER
 62
    3
 10
74.564669043044091
 20
150.80104390045565
 11
223.8980023765477
 21
150.80104390045624
  0
LINE
  8
_0-3_A0
  6
CENTER
 62
    3
 10
30.906518752478319
 20
150.80104390046074
 11
67.564669043044091
 21
150.80104390045576
  0
LINE
  8
_0-3_A0
  6
CENTER
 62
    3
 10
20.355042946639514
 20
150.80104390045755
 11
24.451527081182973
 21
150.80104390045755
  0
LINE
  8
_0-3_A0
  6
CENTER
 62
    3
 10
27.557635043638072
 20
150.80104390045755
 11
28.072410862113144
 21
150.80104390045755
  0
LINE
  8
_0-3_A0
  6
CONTINUOUS
 62
    3
 10
50.638457850519557
 20
216.63437723490054
 11
51.305124517185959
 21
217.30104390156816
  0
LINE
  8
_0-3_A0
  6
CONTINUOUS
 62
    3
 10
51.305124517186641
 20
84.301043900754777
 11
50.638457850519955
 21
84.967710567420937
  0
INSERT
  2
-090-_U103
  8
_0-0_0
 10
-2.5
 20
0.1200000405311527
 41
1
 42
1
 50
0
  0
INSERT
  2
-091-_U104
  8
_0-0_0
 10
-2.5
 20
0.1200000405311527
 41
1
 42
1
 50
0
  0
LINE
  8
_0-3_A0
  6
CENTER
 62
    3
 10
217.97121769893431
 20
197.46771056784785
 11
224.636289598214
 21
197.46771056784294
  0
LINE
  8
_0-3_A0
  6
CENTER
 62
    3
 10
217.97121769889949
 20
164.13437723389364
 11
224.63628959824879
 21
164.13437723388875
  0
LINE
  8
_0-3_A0
  6
CENTER
 62
    3
 10
217.97121769887161
 20
137.46771056693194
 11
224.6362895982767
 21
137.46771056693694
  0
LINE
  8
_0-3_A0
  6
CENTER
 62
    3
 10
217.97121769883679
 20
104.13437723405655
 11
224.63628959831149
 21
104.13437723405655
  0
LINE
  8
_0-3_A0
  6
CONTINUOUS
 62
    3
 10
90.898002376377434
 20
216.96771056775295
 11
90.23133570971062
 21
216.30104390108616
  0
LINE
  8
_0-3_A0
  6
CONTINUOUS
 62
    3
 10
90.898002376334005
 20
259.30104390059591
 11
90.898002376334133
 21
259.13437723392485
  0
LINE
  8
_0-3_A0
  6
CONTINUOUS
 62
    3
 10
54.80512451718593
 20
216.30104390134414
 11
54.971791183852616
 21
216.30104390134414
  0
LINE
  8
_0-3_A0
  6
CONTINUOUS
 62
    3
 10
54.805124517186499
 20
85.301043899566977
 11
54.971791183853156
 21
85.301043899566977
  0
LINE
  8
_0-3_A0
  6
CONTINUOUS
 62
    3
 10
90.898002376352593
 20
84.634377234170926
 11
90.231335709686064
 21
85.301043900837584
  0
LINE
  8
_0-3_A0
  6
CONTINUOUS
 62
    3
 10
26.312535352679731
 20
152.19364954324205
 11
26.092791239486416
 21
151.89542547515884
  0
LINE
  8
_0-3_A0
  6
CONTINUOUS
 62
    3
 10
26.092791239486473
 20
151.89542547515884
 11
25.935831329706786
 21
151.45593784752674
  0
LINE
  8
_0-3_A0
  6
CONTINUOUS
 62
    3
 10
25.935831329706843
 20
151.45593784752674
 11
25.951527081182973
 21
150.74961825351826
  0
LINE
  8
_0-3_A0
  6
CONTINUOUS
 62
    3
 10
25.951527081182945
 20
150.74961825351826
 11
26.234055397789944
 21
150.15317071610655
  0
LINE
  8
_0-3_A0
  6
CONTINUOUS
 62
    3
 10
26.234055397789973
 20
150.15317071610655
 11
26.752023579066474
 21
149.87064299825405
  0
LINE
  8
_0-3_A0
  6
CONTINUOUS
 62
    3
 10
26.752023579066502
 20
149.87064299825405
 11
27.442646224089713
 21
149.83925089654724
  0
LINE
  8
_0-3_A0
  6
CONTINUOUS
 62
    3
 10
27.442646224089685
 20
149.83925089654724
 11
27.740870292172843
 21
149.96481870462005
  0
LINE
  8
_0-3_A0
  6
CONTINUOUS
 62
    3
 10
27.740870292172871
 20
149.96481870462005
 11
28.588454044484763
 21
150.16886646758266
  0
LINE
  8
_0-3_A0
  6
CONTINUOUS
 62
    3
 10
28.588454044484819
 20
150.16886646758266
 11
29.043638022347636
 21
150.18456281781334
  0
LINE
  8
_0-3_A0
  6
CONTINUOUS
 62
    3
 10
29.451733548272898
 20
150.01190655780294
 11
29.043638022347636
 21
150.18456281781334
  0
LINE
  8
_0-3_A0
  6
CONTINUOUS
 62
    3
 10
29.451733548272983
 20
150.01190655780305
 11
29.671477661466326
 21
149.79216304336415
  0
LINE
  8
_0-3_A0
  6
CONTINUOUS
 62
    3
 10
29.671477661466241
 20
149.79216304336415
 11
29.85982967295277
 21
149.41545902039123
  0
LINE
  8
_0-3_A0
  6
CONTINUOUS
 62
    3
 10
29.859829672952685
 20
149.41545902039115
 11
29.875525424428815
 21
148.97597139275904
  0
LINE
  8
_0-3_A0
  6
CONTINUOUS
 62
    3
 10
29.8755254244289
 20
148.97597139275916
 11
29.749957616356084
 21
148.63065947149306
  0
LINE
  8
_0-3_A0
  6
CONTINUOUS
 62
    3
 10
29.749957616356027
 20
148.63065947149294
 11
29.42034144656597
 21
148.47369956171326
  0
LINE
  8
_0-3_A0
  6
CONTINUOUS
 62
    3
 10
29.420341446566055
 20
148.47369956171334
 11
29.043638022347607
 21
148.47369956171334
  0
LINE
  8
_0-3_A0
  6
CONTINUOUS
 62
    3
 10
29.043638022347607
 20
148.47369956171326
 11
28.792501807447422
 21
148.59926736978616
  0
LINE
  8
_0-3_A0
  6
CONTINUOUS
 62
    3
 10
28.792501807447507
 20
148.59926736978616
 11
28.666933999374663
 21
148.94457929105226
  0
LINE
  8
_0-3_A0
  6
CONTINUOUS
 62
    3
 10
28.666933999374634
 20
148.94457929105226
 11
28.651238247898476
 21
149.44685112209805
  0
LINE
  8
_0-3_A0
  6
CONTINUOUS
 62
    3
 10
28.651238247898447
 20
149.44685112209805
 11
28.776806055971292
 21
149.87064299825405
  0
LINE
  8
_0-3_A0
  6
CONTINUOUS
 62
    3
 10
28.77680605597132
 20
149.87064299825405
 11
29.043638022347607
 21
150.18456281781334
  0
LINE
  8
_0-3_A0
  6
CONTINUOUS
 62
    3
 10
29.043638022347579
 20
150.18456281781334
 11
29.451733548272898
 21
150.62405044544544
  0
LINE
  8
_0-3_A0
  6
CONTINUOUS
 62
    3
 10
29.451733548272926
 20
150.62405044544544
 11
29.687173412942343
 21
150.96936236671166
  0
LINE
  8
_0-3_A0
  6
CONTINUOUS
 62
    3
 10
29.687173412942343
 20
150.96936236671155
 11
29.765653367832214
 21
151.23619433308786
  0
LINE
  8
_0-3_A0
  6
CONTINUOUS
 62
    3
 10
29.765653367832243
 20
151.23619433308795
 11
29.85982967295277
 21
151.69137771219624
  0
LINE
  8
_0-3_A0
  6
CONTINUOUS
 62
    3
 10
29.859829672952685
 20
151.69137771219624
 11
29.859829672952685
 21
152.24073739642506
  0
LINE
  8
_0-3_A0
  6
CONTINUOUS
 62
    3
 10
29.859829672952741
 20
152.24073739642494
 11
29.655781311235557
 21
152.63313717087416
  0
LINE
  8
_0-3_A0
  6
CONTINUOUS
 62
    3
 10
29.655781311235614
 20
152.63313717087416
 11
29.467429898503638
 21
152.83718493383685
  0
LINE
  8
_0-3_A0
  6
CONTINUOUS
 62
    3
 10
29.467429898503581
 20
152.83718493383676
 11
29.122117977237422
 21
152.96275334066416
  0
LINE
  8
_0-3_A0
  6
CONTINUOUS
 62
    3
 10
29.122117977237479
 20
152.96275334066405
 11
28.808198157678134
 21
152.97844909214026
  0
LINE
  8
_0-3_A0
  6
CONTINUOUS
 62
    3
 10
25.825959871864739
 20
152.79009767940834
 11
25.590520007195294
 21
152.39769730620466
  0
LINE
  8
_0-3_A0
  6
CONTINUOUS
 62
    3
 10
25.37077589400198
 20
151.94251392709645
 11
25.590520007195294
 21
152.39769730620466
  0
LINE
  8
_0-3_A0
  6
CONTINUOUS
 62
    3
 10
25.370775894001894
 20
151.94251392709645
 11
25.386471645478081
 21
151.31467428797776
  0
LINE
  8
_0-3_A0
  6
CONTINUOUS
 62
    3
 10
25.386471645478081
 20
151.31467428797785
 11
25.684695713561211
 21
150.56126624203184
  0
LINE
  8
_0-3_A0
  6
CONTINUOUS
 62
    3
 10
25.684695713561239
 20
150.56126624203164
 11
26.014311284596715
 21
150.32582637736234
  0
LINE
  8
_0-3_A0
  6
CONTINUOUS
 62
    3
 10
26.014311284596658
 20
150.32582637736234
 11
26.532279465873102
 21
150.29443487441005
  0
LINE
  8
_0-3_A0
  6
CONTINUOUS
 62
    3
 10
26.532279465873187
 20
150.29443487441005
 11
26.987463443735947
 21
150.52987473907955
  0
LINE
  8
_0-3_A0
  6
CONTINUOUS
 62
    3
 10
26.987463443735975
 20
150.52987473907955
 11
27.285686314310055
 21
151.04784232160145
  0
LINE
  8
_0-3_A0
  6
CONTINUOUS
 62
    3
 10
27.285686314309998
 20
151.04784232160145
 11
27.317079014771366
 21
151.61289775730634
  0
LINE
  8
_0-3_A0
  6
CONTINUOUS
 62
    3
 10
27.317079014771422
 20
151.61289775730645
 11
27.301383263295235
 21
152.25643374665574
  0
LINE
  8
_0-3_A0
  6
CONTINUOUS
 62
    3
 10
26.940374991798421
 20
152.82148918236055
 11
27.113030653054181
 21
152.63313717087416
  0
LINE
  8
_0-3_A0
  6
CONTINUOUS
 62
    3
 10
27.113030653054238
 20
152.63313717087416
 11
27.301383263295235
 21
152.25643374665574
  0
INSERT
  2
-092-_U105
  8
_0-0_0
 10
-2.5
 20
0.1200000405311527
 41
1
 42
1
 50
0
  0
LINE
  8
_0-6_B0
  6
CONTINUOUS
 62
    3
 10
346.60293670965012
 20
219.41275871741166
 11
362.20293670963098
 21
219.41275871741166
  0
LINE
  8
_0-6_B0
  6
CONTINUOUS
 62
    3
 10
378.1287309195178
 20
196.59400271375685
 11
378.12885960229959
 21
190.24153342695396
  0
LINE
  8
_0-6_B0
  6
CENTER
 62
    3
 10
354.40293670964672
 20
219.81275871739785
 11
354.40293670964172
 21
226.21275871742116
  0
LINE
  8
_0-6_B0
  6
CONTINUOUS
 62
    3
 10
378.12885840820979
 20
190.24153342695686
 11
381.57254018852842
 21
190.24160318605854
  0
LINE
  8
_0-6_B0
  6
CONTINUOUS
 62
    3
 10
378.62870342254058
 20
198.94153342697245
 11
389.21870342250878
 21
198.94153342697245
  0
LINE
  8
_0-6_B0
  6
CONTINUOUS
 62
    3
 10
378.62870342251488
 20
199.24153342697246
 11
389.21870342250878
 21
199.24153342697246
  0
LINE
  8
_0-6_B0
  6
CONTINUOUS
 62
    3
 10
378.62870342252119
 20
199.24153342697246
 11
378.62870342252119
 21
198.94153342697245
  0
LINE
  8
_0-6_B0
  6
CONTINUOUS
 62
    3
 10
346.90293670963211
 20
198.94153342696776
 11
361.90293670969447
 21
198.94153342697194
  0
LINE
  8
_0-6_B0
  6
CONTINUOUS
 62
    3
 10
359.90293670966718
 20
199.24153342698775
 11
359.90293670966741
 21
198.94153342697134
  0
LINE
  8
_0-6_B0
  6
CONTINUOUS
 62
    3
 10
348.90293670961858
 20
199.24153342699085
 11
348.90293670961858
 21
198.94153342696824
  0
LINE
  8
_0-6_B0
  6
CONTINUOUS
 62
    3
 10
359.90293670966718
 20
199.24153342698775
 11
359.90293670966741
 21
198.94153342697134
  0
LINE
  8
_0-6_B0
  6
CONTINUOUS
 62
    3
 10
348.90293670961858
 20
199.24153342699085
 11
348.90293670961858
 21
198.94153342696824
  0
LINE
  8
_0-6_B0
  6
CONTINUOUS
 62
    3
 10
361.9029367096943
 20
199.24153342698724
 11
361.90293670969538
 21
196.28356522020214
  0
LINE
  8
_0-6_B0
  6
CONTINUOUS
 62
    3
 10
346.90293670963211
 20
199.24153342699156
 11
346.90293670963092
 21
196.28356522020624
  0
LINE
  8
_0-6_B0
  6
HIDDEN
 62
    3
 10
346.90293670963859
 20
230.21287416228716
 11
361.90293670963848
 21
230.21287416228716
  0
LINE
  8
_0-6_B0
  6
CONTINUOUS
 62
    3
 10
348.90293670960738
 20
219.91289139956646
 11
359.9029367096881
 21
219.91289139956646
  0
LINE
  8
_0-6_B0
  6
CONTINUOUS
 62
    3
 10
359.9029367096881
 20
219.91289139956646
 11
361.90293670964092
 21
221.91289139956646
  0
LINE
  8
_0-6_B0
  6
CONTINUOUS
 62
    3
 10
348.9029367096075
 20
219.91289139956654
 11
346.90293670964121
 21
221.91289139956654
  0
LINE
  8
_0-6_B0
  6
CONTINUOUS
 62
    3
 10
361.90293670964092
 20
219.71275871741164
 11
362.09374563935108
 21
219.71275871741164
  0
LINE
  8
_0-6_B0
  6
CONTINUOUS
 62
    3
 10
346.68332146737429
 20
219.71275871741445
 11
346.90293670964098
 21
219.71275871741445
  0
LINE
  8
_0-6_B0
  6
CONTINUOUS
 62
    3
 10
346.90293670963211
 20
199.24153342699145
 11
361.90293670969418
 21
199.24153342698724
  0
LINE
  8
_0-6_B0
  6
CONTINUOUS
 62
    3
 10
346.90293670963211
 20
198.94153342696506
 11
361.90293670969441
 21
198.94153342696904
  0
LINE
  8
_0-6_B0
  6
CONTINUOUS
 62
    3
 10
346.90293670963171
 20
198.54153342697046
 11
361.90293670969447
 21
198.54153342696625
  0
LINE
  8
_0-6_B0
  6
CONTINUOUS
 62
    3
 10
346.90293670963859
 20
230.51273641386543
 11
361.90293670963859
 21
230.51273641386543
  0
LINE
  8
_0-6_B0
  6
CONTINUOUS
 62
    3
 10
382.85818500895578
 20
194.30054187499095
 11
382.85818500895419
 21
192.24159523399595
  0
LINE
  8
_0-6_B0
  6
CONTINUOUS
 62
    3
 10
378.12885840821002
 20
190.24153342695385
 11
379.8886660293727
 21
190.24153342695294
  0
LINE
  8
_0-6_B0
  6
CONTINUOUS
 62
    3
 10
378.12873720808977
 20
196.28356522021636
 11
381.57254018852859
 21
196.28356522021636
  0
LINE
  8
_0-6_B0
  6
CONTINUOUS
 62
    3
 10
382.62837167597848
 20
192.24159523399595
 11
382.85818500895419
 21
192.24159523399595
  0
LINE
  8
_0-6_B0
  6
CONTINUOUS
 62
    3
 10
361.90293670969538
 20
196.28356522020214
 11
366.03315892521658
 21
196.28356522020095
  0
LINE
  8
_0-6_B0
  6
CONTINUOUS
 62
    3
 10
362.20293670963798
 20
196.28356522020206
 11
362.20293670963798
 21
190.30048006791363
  0
LINE
  8
_0-6_B0
  6
CONTINUOUS
 62
    3
 10
346.60293670965131
 20
196.28356522020624
 11
346.60293670965239
 21
190.30048006791795
  0
LINE
  8
_0-6_B0
  6
CONTINUOUS
 62
    3
 10
382.6283716759778
 20
194.30054187499104
 11
382.85818500895578
 21
194.30054187499104
  0
ARC
  8
_0-6_B0
  6
CONTINUOUS
 62
    3
 10
382.08883587433479
 20
193.54153342696054
 40
5
 50
90
 51
142.37477936115578
  0
ARC
  8
_0-6_B0
  6
CONTINUOUS
 62
    3
 10
382.08883587433479
 20
193.54153342696054
 40
4.7000000000000001
 50
90
 51
141.14583818286391
  0
LINE
  8
_0-6_B0
  6
HIDDEN
 62
    3
 10
378.42885960217637
 20
190.24153950411945
 11
378.42873720808967
 21
196.28356522021644
  0
LINE
  8
_0-6_B0
  6
CONTINUOUS
 62
    3
 10
378.42873720808989
 20
196.28356522021644
 11
378.42873302565459
 21
196.49003255992346
  0
LINE
  8
_0-6_B0
  6
CONTINUOUS
 62
    3
 10
346.90293670963097
 20
196.49003255991274
 11
361.90293670969538
 21
196.49003255991695
  0
LINE
  8
_0-6_B0
  6
HIDDEN
 62
    3
 10
384.12870342254058
 20
199.24153342697246
 11
384.12870342254058
 21
198.94153342697245
  0
LINE
  8
_0-6_B0
  6
CONTINUOUS
 62
    3
 10
352.30293670965011
 20
225.41275871741166
 11
356.50293670965021
 21
225.41275871741166
  0
ARC
  8
_0-6_B0
  6
HIDDEN
 62
    3
 10
354.40293670965007
 20
225.73775871741165
 40
2.1250000000000031
 50
188.79741070999131
 51
351.2025892900088
  0
ARC
  8
_0-6_B0
  6
CONTINUOUS
 62
    3
 10
354.40293670965007
 20
226.45891256356546
 40
2.346153846153852
 50
206.48103983037464
 51
333.5189601696253
  0
LINE
  8
_0-6_B0
  6
CONTINUOUS
 62
    3
 10
362.20293670963098
 20
219.41275871741166
 11
367.56524781146379
 21
223.91227198521744
  0
LINE
  8
_0-6_B0
  6
CONTINUOUS
 62
    3
 10
367.37241152856501
 20
224.14208531815904
 11
367.56524781147112
 21
223.91227198522355
  0
LINE
  8
_0-6_B0
  6
CONTINUOUS
 62
    3
 10
362.09374563935108
 20
219.71275871741164
 11
367.3724115285579
 21
224.14208531815316
  0
LINE
  8
_0-6_B0
  6
CONTINUOUS
 62
    3
 10
367.56524781146458
 20
194.28356522020055
 11
367.56524781146458
 21
192.24153342697266
  0
LINE
  8
_0-6_B0
  6
CONTINUOUS
 62
    3
 10
365.8403226423199
 20
222.85651009877994
 11
366.0331589252259
 21
222.62669676584434
  0
LINE
  8
_0-6_B0
  6
CONTINUOUS
 62
    3
 10
346.90293670963859
 20
196.28356522019035
 11
342.77271449411517
 21
196.28356522018276
  0
LINE
  8
_0-6_B0
  6
CONTINUOUS
 62
    3
 10
346.90293670966832
 20
219.71275871739985
 11
346.7121277799581
 21
219.71275871739956
  0
LINE
  8
_0-6_B0
  6
CONTINUOUS
 62
    3
 10
346.6029367096786
 20
219.41275871739935
 11
341.2406256078388
 21
223.91227198519675
  0
LINE
  8
_0-6_B0
  6
CONTINUOUS
 62
    3
 10
341.4334618907373
 20
224.14208531813883
 11
341.24062560783158
 21
223.91227198520294
  0
LINE
  8
_0-6_B0
  6
CONTINUOUS
 62
    3
 10
346.71212777995788
 20
219.71275871739945
 11
341.43346189074429
 21
224.14208531813264
  0
LINE
  8
_0-6_B0
  6
CONTINUOUS
 62
    3
 10
382.6283716759778
 20
194.30054187499095
 11
382.62837167597848
 21
192.24159523399595
  0
LINE
  8
_0-6_B0
  6
CONTINUOUS
 62
    3
 10
342.96555077696791
 20
222.85651009877986
 11
342.77271449406168
 21
222.62669676584425
  0
LINE
  8
_0-6_B0
  6
CONTINUOUS
 62
    3
 10
366.03315892521652
 20
190.24153342699764
 11
367.56524781146441
 21
192.24153342697266
  0
LINE
  8
_0-6_B0
  6
CONTINUOUS
 62
    3
 10
367.56524781146447
 20
194.28356522020055
 11
366.03315892521652
 21
196.28356522020095
  0
LINE
  8
_0-6_B0
  6
CONTINUOUS
 62
    3
 10
341.24062560787069
 20
194.28356522017736
 11
341.24062560787427
 21
192.24153342694006
  0
LINE
  8
_0-6_B0
  6
CONTINUOUS
 62
    3
 10
342.7727144941428
 20
190.24153342696774
 11
341.24062560789138
 21
192.24153342693995
  0
LINE
  8
_0-6_B0
  6
CONTINUOUS
 62
    3
 10
341.24062560787069
 20
194.28356522017716
 11
342.77271449411512
 21
196.28356522018015
  0
LINE
  8
_0-6_B0
  6
CONTINUOUS
 62
    3
 10
382.85818500895419
 20
192.24159523399595
 11
381.57254018852847
 21
190.24160318605845
  0
LINE
  8
_0-6_B0
  6
CONTINUOUS
 62
    3
 10
382.85818500895567
 20
194.30054187499104
 11
381.57254018852847
 21
196.28356522021636
  0
LINE
  8
_0-6_B0
  6
CONTINUOUS
 62
    3
 10
381.34272685558488
 20
196.28356522021636
 11
382.6283716759778
 21
194.30054187499095
  0
LINE
  8
_0-6_B0
  6
CONTINUOUS
 62
    3
 10
382.62837167597871
 20
192.24159523399626
 11
381.34272685558272
 21
190.24159853070054
  0
LINE
  8
_0-6_B0
  6
CONTINUOUS
 62
    3
 10
361.90293670964109
 20
220.36275871741165
 11
361.90293670964092
 21
219.41275871741154
  0
LINE
  8
_0-6_B0
  6
CONTINUOUS
 62
    3
 10
361.90293670964308
 20
230.51273641386543
 11
361.90293670964132
 21
220.86275871741156
  0
LINE
  8
_0-6_B0
  6
CONTINUOUS
 62
    3
 10
361.80293670966409
 20
220.76275871739386
 11
361.80293670966432
 21
220.46275871745206
  0
ARC
  8
_0-6_B0
  6
CONTINUOUS
 62
    3
 10
361.90293670966417
 20
220.76275871739386
 40
0.1
 50
90
 51
180
  0
ARC
  8
_0-6_B0
  6
CONTINUOUS
 62
    3
 10
361.9029367096644
 20
220.46275871745206
 40
0.1
 50
180
 51
270
  0
LINE
  8
_0-6_B0
  6
CONTINUOUS
 62
    3
 10
347.00293670963839
 20
220.76275871738064
 11
347.0029367096389
 21
220.46275871743875
  0
ARC
  8
_0-6_B0
  6
CONTINUOUS
 62
    3
 10
346.90293670963887
 20
220.46275871743875
 40
0.1
 50
270.00000000010169
 51
0.0000000001016759
  0
ARC
  8
_0-6_B0
  6
CONTINUOUS
 62
    3
 10
346.90293670963842
 20
220.76275871738056
 40
0.1
 50
0.000000000101676
 51
90.000000000101664
  0
LINE
  8
_0-6_B0
  6
CONTINUOUS
 62
    3
 10
346.90293670964121
 20
220.36275871743876
 11
346.90293670964098
 21
219.41275871741166
  0
LINE
  8
_0-6_B0
  6
CONTINUOUS
 62
    3
 10
346.90293670964308
 20
230.51273641386543
 11
346.90293670964132
 21
220.86275871738055
  0
LINE
  8
_0-6_B0
  6
CONTINUOUS
 62
    3
 10
360.55293670967631
 20
190.34153342697436
 11
360.85293670965501
 21
190.34153342697425
  0
ARC
  8
_0-6_B0
  6
CONTINUOUS
 62
    3
 10
360.85293670965478
 20
190.24153342697425
 40
0.1
 50
0
 51
90
  0
ARC
  8
_0-6_B0
  6
CONTINUOUS
 62
    3
 10
360.5529367096762
 20
190.24153342697434
 40
0.1
 50
90
 51
180
  0
LINE
  8
_0-6_B0
  6
CONTINUOUS
 62
    3
 10
366.03315892521652
 20
190.24153342699776
 11
360.95293670967112
 21
190.24153342698843
  0
ARC
  8
_0-6_B0
  6
CONTINUOUS
 62
    3
 10
347.95293670968749
 20
190.24153342697564
 40
0.1
 50
90.000000000101735
 51
180.00000000010169
  0
LINE
  8
_0-6_B0
  6
CONTINUOUS
 62
    3
 10
348.25293670966601
 20
190.34153342697624
 11
347.95293670968732
 21
190.34153342697564
  0
ARC
  8
_0-6_B0
  6
CONTINUOUS
 62
    3
 10
348.25293670966618
 20
190.24153342697624
 40
0.1
 50
0.0000000001017269
 51
90.000000000101749
  0
LINE
  8
_0-6_B0
  6
CONTINUOUS
 62
    3
 10
344.00486049835831
 20
190.24153342699204
 11
347.85293670968752
 21
190.24153342699094
  0
LINE
  8
_0-6_B0
  6
CONTINUOUS
 62
    3
 10
348.3529367096662
 20
190.24153342699094
 11
360.45293670967117
 21
190.24153342698755
  0
LINE
  8
_0-6_B0
  6
CONTINUOUS
 62
    3
 10
347.85293670968752
 20
190.24153342697715
 11
342.77271449414297
 21
190.24153342696774
  0
ARC
  8
_0-6_B0
  6
HIDDEN
 62
    3
 10
384.07325655688021
 20
202.84105205610416
 40
4
 50
244.14225323009793
 51
257.13043813203137
  0
ARC
  8
_0-6_B0
  6
CONTINUOUS
 62
    3
 10
384.07325655688021
 20
202.84105205610416
 40
4
 50
257.13043813203137
 51
270.79424328404701
  0
LINE
  8
_0-6_B0
  6
CONTINUOUS
 62
    3
 10
382.08883587433632
 20
198.54153342696756
 11
389.21870342250878
 21
198.54153342696955
  0
LINE
  8
_0-6_B0
  6
CONTINUOUS
 62
    3
 10
382.08883587433638
 20
198.24153342696766
 11
389.21870342250878
 21
198.24153342696953
  0
ARC
  8
_0-6_B0
  6
CONTINUOUS
 62
    3
 10
389.21870342250878
 20
198.74153342697215
 40
0.2000000000000027
 50
270
 51
90
  0
ARC
  8
_0-6_B0
  6
CONTINUOUS
 62
    3
 10
384.08984993117871
 20
202.54151130774195
 40
4
 50
244.14225323009793
 51
270.55652084388441
  0
LINE
  8
_0-6_B0
  6
CONTINUOUS
 62
    3
 10
384.12870342254058
 20
198.54153342696815
 11
384.12870342254058
 21
198.94153342697245
  0
ARC
  8
_0-6_B0
  6
HIDDEN
 62
    3
 10
354.40293670965718
 20
206.44153342654226
 40
7.4999999995723509
 50
253.73979529067281
 51
286.26020470929512
  0
ARC
  8
_0-6_B0
  6
HIDDEN
 62
    3
 10
354.40293670965598
 20
202.04153342690165
 40
3.4999999999333009
 50
297.66044989963938
 51
306.86989764676582
  0
ARC
  8
_0-6_B0
  6
HIDDEN
 62
    3
 10
354.40293670965598
 20
202.04153342690165
 40
3.4999999999333009
 50
233.13010235320192
 51
242.33955010039241
  0
ARC
  8
_0-6_B0
  6
CONTINUOUS
 62
    3
 10
354.40293670965598
 20
202.04153342690165
 40
3.4999999999333009
 50
242.33955010039238
 51
297.66044989963938
  0
ARC
  8
_0-6_B0
  6
CONTINUOUS
 62
    3
 10
389.21870342250878
 20
198.74153342697215
 40
0.5000000000000028
 50
270
 51
90
  0
LINE
  8
_0-6_B0
  6
CONTINUOUS
 62
    3
 10
321.35675654357777
 20
175.19303474802165
 11
401.2744296606786
 21
175.19303474802165
  0
LINE
  8
_0-6_B0
  6
CENTER
 62
    3
 10
387.52190969656891
 20
198.74153342697215
 11
390.91549714844882
 21
198.74153342697215
  0
LINE
  8
_0-6_B0
  6
CENTER
 62
    3
 10
389.21870342250878
 20
197.04473970103214
 11
389.21870342250878
 21
200.43832715291216
  0
INSERT
  2
-030-_D29
  8
_0-6_B0
 10
-2.5
 20
0.1200000405311527
 41
1
 42
1
 50
0
  0
INSERT
  2
-032-_D30
  8
_0-6_B0
 10
-2.5
 20
0.1200000405311527
 41
1
 42
1
 50
0
  0
INSERT
  2
-034-_D31
  8
_0-6_B0
 10
-2.5
 20
0.1200000405311527
 41
1
 42
1
 50
0
  0
INSERT
  2
-035-_D32
  8
_0-6_B0
 10
-2.5
 20
0.1200000405311527
 41
1
 42
1
 50
0
  0
LINE
  8
_0-6_B0
  6
CENTER
 62
    3
 10
354.40293670963279
 20
241.86203675727335
 11
354.40293670963092
 21
244.26120989557526
  0
LINE
  8
_0-6_B0
  6
CENTER
 62
    3
 10
354.40293670968128
 20
185.95389995095266
 11
354.40293670966468
 21
205.06506088056815
  0
LINE
  8
_0-6_B0
  6
CENTER
 62
    3
 10
354.40293670965837
 20
212.36869291161934
 11
354.40293670963887
 21
234.86203675727335
  0
ENDSEC
  0
EOF
