  0
SECTION
  2
HEADER
  9
$ACADVER
  1
AC1009
  9
$INSBASE
 10
0
 20
0
 30
0
  9
$EXTMIN
 10
0
 20
0
  9
$EXTMAX
 10
420
 20
297
  9
$LIMMIN
 10
0
 20
0
  9
$LIMMAX
 10
420
 20
297
  9
$LTSCALE
 40
1
  0
ENDSEC
  0
SECTION
  2
TABLES
  0
TABLE
  2
LTYPE
 70
     9
  0
LTYPE
  2
CONTINUOUS
 70
    64
  3
実線
 72
    65
 73
     0
 40
0.0
  0
LTYPE
  2
DASHED1
 70
    64
  3
--  --  --  --  --  --  --  --  
 72
    65
 73
     2
 40
2.5
 49
1.25
 49
-1.25
  0
LTYPE
  2
DASHED2
 70
    64
  3
----    ----    ----    ----    
 72
    65
 73
     2
 40
5.0
 49
2.5
 49
-2.5
  0
LTYPE
  2
DASHED3
 70
    64
  3
------  ------  ------  ------  
 72
    65
 73
     2
 40
5.0
 49
3.75
 49
-1.25
  0
LTYPE
  2
CENTER1
 70
    64
  3
----- - ----- - ----- - ----- - 
 72
    65
 73
     4
 40
10.0
 49
6.25
 49
-1.25
 49
1.25
 49
-1.25
  0
LTYPE
  2
CENTER2
 70
    64
  3
----------  --  ----------  --  
 72
    65
 73
     4
 40
20.0
 49
12.5
 49
-2.5
 49
2.5
 49
-2.5
  0
LTYPE
  2
PHANTOM1
 70
    64
  3
--- - - --- - - --- - - --- - - 
 72
    65
 73
     6
 40
10.0
 49
3.25
 49
-1.25
 49
1.25
 49
-1.25
 49
1.25
 49
-1.25
  0
LTYPE
  2
PHANTOM2
 70
    64
  3
--------  -  -  --------  -  -  
 72
    65
 73
     6
 40
20.0
 49
10.0
 49
-2.5
 49
1.25
 49
-2.5
 49
1.25
 49
-2.5
  0
LTYPE
  2
DOT
 70
    64
  3
-   -   -   -   -   -   -   -   
 72
    65
 73
     2
 40
2.5
 49
0.625
 49
-1.875
  0
LTYPE
  2
DUMMY
 70
    64
  3
ダミー
 72
    65
 73
     0
 40
0.0
  0
LTYPE
  2
RAND1
 70
    64
  3
ランダム線1
 72
    65
 73
     4
 40
10.0
 49
1.0
 49
-2.0
 49
3.0
 49
-4.0
  0
LTYPE
  2
RAND2
 70
    64
  3
ランダム線2
 72
    65
 73
     4
 40
14.0
 49
2.0
 49
-3.0
 49
4.0
 49
-5.0
  0
LTYPE
  2
RAND3
 70
    64
  3
ランダム線3
 72
    65
 73
     4
 40
18.0
 49
3.0
 49
-4.0
 49
5.0
 49
-6.0
  0
LTYPE
  2
RAND4
 70
    64
  3
ランダム線4
 72
    65
 73
     4
 40
22.0
 49
4.0
 49
-5.0
 49
6.0
 49
-7.0
  0
LTYPE
  2
RAND5
 70
    64
  3
ランダム線5
 72
    65
 73
     4
 40
26.0
 49
5.0
 49
-6.0
 49
7.0
 49
-8.0
  0
LTYPE
  2
LONG1
 70
    64
  3
----------  --  ----------  --  
 72
    65
 73
     4
 40
40.0
 49
32.5
 49
-2.5
 49
2.5
 49
-2.5
  0
LTYPE
  2
LONG2
 70
    64
  3
--------  -  -  --------  -  -  
 72
    65
 73
     6
 40
40.0
 49
30.0
 49
-2.5
 49
1.25
 49
-2.5
 49
1.25
 49
-2.5
  0
LTYPE
  2
LONG3
 70
    64
  3
+++++++++++++++..+++++++++++++++
 72
    65
 73
     2
 40
40.0
 49
37.5
 49
-2.5
  0
LTYPE
  2
LONG4
 70
    64
  3
+++++++++++++++..+++++++++++++++
 72
    65
 73
     2
 40
80.0
 49
75.0
 49
-5.0
  0
LTYPE
  2
LONG5
 70
    64
  3
----------  --  ----------  --  
 72
    65
 73
     4
 40
60.0
 49
37.5
 49
-7.5
 49
7.5
 49
-7.5
  0
LTYPE
  2
dashed
 70
   64
  3
-------   -------------   ------
 72
   65
 73
    2
 40
7.5
 49
6
 49
-1.5
  0
LTYPE
  2
dashed_spaced
 70
   64
  3
----        --------        ----
 72
   65
 73
    2
 40
12
 49
6
 49
-6
  0
LTYPE
  2
long_dashed_dotted
 70
   64
  3
------------- --- --------------
 72
   65
 73
    4
 40
15.25
 49
12
 49
-1.5
 49
0.25
 49
-1.5
  0
LTYPE
  2
long_dashed_double-dotted
 70
   64
  3
----------- --- --- ------------
 72
   65
 73
    6
 40
17
 49
12
 49
-1.5
 49
0.25
 49
-1.5
 49
0.25
 49
-1.5
  0
LTYPE
  2
long_dashed_triplicate-dotted
 70
   64
  3
--------- --- --- --- ----------
 72
   65
 73
    8
 40
18.75
 49
12
 49
-1.5
 49
0.25
 49
-1.5
 49
0.25
 49
-1.5
 49
0.25
 49
-1.5
  0
LTYPE
  2
dotted
 70
   64
  3
   -       -       -       -    
 72
   65
 73
    2
 40
1.75
 49
0.25
 49
-1.5
  0
LTYPE
  2
chain
 70
   64
  3
-------------- -- --------------
 72
   65
 73
    4
 40
18.5
 49
12
 49
-1.5
 49
3.5
 49
-1.5
  0
LTYPE
  2
chain_double_dash
 70
   64
  3
------------ -- -- -------------
 72
   65
 73
    6
 40
23.5
 49
12
 49
-1.5
 49
3.5
 49
-1.5
 49
3.5
 49
-1.5
  0
LTYPE
  2
dashed_dotted
 70
   64
  3
-----------     -     ----------
 72
   65
 73
    4
 40
9.25
 49
6
 49
-1.5
 49
0.25
 49
-1.5
  0
LTYPE
  2
double-dashed_dotted
 70
   64
  3
------   -----------   -   -----
 72
   65
 73
    6
 40
16.75
 49
6
 49
-1.5
 49
6
 49
-1.5
 49
0.25
 49
-1.5
  0
LTYPE
  2
dashed_double-dotted
 70
   64
  3
---------    -    -    ---------
 72
   65
 73
    6
 40
11
 49
6
 49
-1.5
 49
0.25
 49
-1.5
 49
0.25
 49
-1.5
  0
LTYPE
  2
double-dashed_double-dotted
 70
   64
  3
-----   ---------   -   -   ----
 72
   65
 73
    8
 40
18.5
 49
6
 49
-1.5
 49
6
 49
-1.5
 49
0.25
 49
-1.5
 49
0.25
 49
-1.5
  0
LTYPE
  2
dashed_triplicate-dotted
 70
   64
  3
-------    -    -    -    ------
 72
   65
 73
    8
 40
12.75
 49
6
 49
-1.5
 49
0.25
 49
-1.5
 49
0.25
 49
-1.5
 49
0.25
 49
-1.5
  0
LTYPE
  2
double-dashed_triplicate-dotted
 70
   64
  3
-----  ---------  -  -  -  -----
 72
   65
 73
   10
 40
20.25
 49
6
 49
-1.5
 49
6
 49
-1.5
 49
0.25
 49
-1.5
 49
0.25
 49
-1.5
 49
0.25
 49
-1.5
  0
LTYPE
  2
undefined
 70
   64
  3
--------------------------------
 72
   65
 73
    0
 40
0
  0
LTYPE
  2
_
 70
   64
  3
                                
 72
   65
 73
    0
 40
0
  0
LTYPE
  2
__18
 70
   64
  3
                                
 72
   65
 73
    0
 40
0
  0
LTYPE
  2
__19
 70
   64
  3
                                
 72
   65
 73
    0
 40
0
  0
LTYPE
  2
__20
 70
   64
  3
                                
 72
   65
 73
    0
 40
0
  0
LTYPE
  2
__21
 70
   64
  3
                                
 72
   65
 73
    0
 40
0
  0
LTYPE
  2
__22
 70
   64
  3
                                
 72
   65
 73
    0
 40
0
  0
LTYPE
  2
__23
 70
   64
  3
                                
 72
   65
 73
    0
 40
0
  0
LTYPE
  2
__24
 70
   64
  3
                                
 72
   65
 73
    0
 40
0
  0
LTYPE
  2
__25
 70
   64
  3
                                
 72
   65
 73
    0
 40
0
  0
LTYPE
  2
__26
 70
   64
  3
                                
 72
   65
 73
    0
 40
0
  0
LTYPE
  2
__27
 70
   64
  3
                                
 72
   65
 73
    0
 40
0
  0
LTYPE
  2
__28
 70
   64
  3
                                
 72
   65
 73
    0
 40
0
  0
LTYPE
  2
__29
 70
   64
  3
                                
 72
   65
 73
    0
 40
0
  0
LTYPE
  2
__30
 70
   64
  3
                                
 72
   65
 73
    0
 40
0
  0
LTYPE
  2
__31
 70
   64
  3
                                
 72
   65
 73
    0
 40
0
  0
LTYPE
  2
__32
 70
   64
  3
                                
 72
   65
 73
    0
 40
0
  0
ENDTAB
  0
TABLE
  2
STYLE
  5
3
100
AcDbSymbolTable
 70
     1
  0
STYLE
  5
10
100
AcDbSymbolTableRecord
100
AcDbTextStyleTableRecord
  2
STANDARD
 70
     0
 40
0.0
 41
1.0
 50
0.0
 71
     0
 42
0.2
  3
txt
  4
bigfont.shx
  0
STYLE
  5
26
100
AcDbSymbolTableRecord
100
AcDbTextStyleTableRecord
  2
TATEGAKI
 70
    68
 40
0.0
 41
1.0
 50
0.0
 71
     0
 42
1.0
  3
txt
  4
bigfont.shx
  0
ENDTAB
  0
TABLE
  2
LAYER
 70
    4
  0
LAYER
  2
_0-1_1
 70
   64
 62
    7
  6
CONTINUOUS
  0
LAYER
  2
_0-2_3
 70
   64
 62
    7
  6
CONTINUOUS
  0
LAYER
  2
_0-3__J_POINT
 70
   64
 62
    7
  6
CONTINUOUS
  0
LAYER
  2
ADD_LINE
 70
   64
 62
    7
  6
CONTINUOUS
  0
ENDTAB
  0
ENDSEC
  0
SECTION
  2
BLOCKS
  0
ENDSEC
  0
SECTION
  2
ENTITIES
  0
LINE
  8
_0-1_1
  6
CONTINUOUS
 62
  250
 10
17.998999999999995
 20
10.249799999999993
 11
402.00099999999997
 21
10.249799999999993
  0
LINE
  8
_0-2_3
  6
CONTINUOUS
 62
  250
 10
319.73189999999999
 20
148.19509999999999
 11
331.7323
 21
148.19509999999999
  0
LINE
  8
_0-2_3
  6
CONTINUOUS
 62
  250
 10
324.45699999999999
 20
149.13269999999999
 11
325.63830000000001
 21
149.13269999999999
  0
LINE
  8
_0-2_3
  6
CONTINUOUS
 62
  250
 10
324.45699999999999
 20
149.44759999999999
 11
325.8571
 21
149.2509
  0
LINE
  8
_0-2_3
  6
CONTINUOUS
 62
  250
 10
325.66880000000003
 20
149.7192
 11
324.45699999999999
 21
149.88949999999999
  0
LINE
  8
_0-2_3
  6
CONTINUOUS
 62
  250
 10
324.45699999999999
 20
150.00769999999999
 11
325.8571
 21
150.00769999999999
  0
LINE
  8
_0-2_3
  6
CONTINUOUS
 62
  250
 10
326.2946
 20
150.44519999999999
 11
326.2946
 21
150.00769999999999
  0
LINE
  8
_0-2_3
  6
CONTINUOUS
 62
  250
 10
326.2946
 20
150.00769999999999
 11
326.90710000000001
 21
150.00769999999999
  0
LINE
  8
_0-2_3
  6
CONTINUOUS
 62
  250
 10
327.34460000000001
 20
150.22640000000001
 11
327.34460000000001
 21
149.6577
  0
LINE
  8
_0-2_3
  6
CONTINUOUS
 62
  250
 10
326.90710000000001
 20
150.00769999999999
 11
326.90710000000001
 21
149.6577
  0
LINE
  8
_0-2_3
  6
CONTINUOUS
 62
  250
 10
326.07580000000001
 20
149.13269999999999
 11
326.38209999999997
 21
149.13269999999999
  0
LINE
  8
_0-2_3
  6
CONTINUOUS
 62
  250
 10
327.85919999999998
 20
149.74520000000001
 11
328.36439999999998
 21
149.74520000000001
  0
LINE
  8
_0-2_3
  6
CONTINUOUS
 62
  250
 10
328.26339999999999
 20
150.44519999999999
 11
327.85919999999998
 21
149.74520000000001
  0
LINE
  8
_0-2_3
  6
CONTINUOUS
 62
  250
 10
328.51600000000001
 20
150.00769999999999
 11
328.36439999999998
 21
149.74520000000001
  0
LINE
  8
_0-2_3
  6
CONTINUOUS
 62
  250
 10
328.51600000000001
 20
150.00769999999999
 11
328.8759
 21
150.00769999999999
  0
LINE
  8
_0-2_3
  6
CONTINUOUS
 62
  250
 10
328.26339999999999
 20
149.13269999999999
 11
328.35090000000002
 21
149.13269999999999
  0
LINE
  8
_0-2_3
  6
CONTINUOUS
 62
  250
 10
328.61340000000001
 20
149.39519999999998
 11
328.80560000000002
 21
149.39519999999998
  0
LINE
  8
_0-2_3
  6
CONTINUOUS
 62
  250
 10
328.61340000000001
 20
149.83269999999998
 11
328.8759
 21
149.83269999999998
  0
LINE
  8
_0-2_3
  6
CONTINUOUS
 62
  250
 10
328.61340000000001
 20
149.39519999999998
 11
328.61340000000001
 21
149.83269999999998
  0
LINE
  8
_0-2_3
  6
CONTINUOUS
 62
  250
 10
328.8759
 20
150.00769999999999
 11
328.8759
 21
149.83269999999998
  0
LINE
  8
_0-2_3
  6
CONTINUOUS
 62
  250
 10
329.53219999999998
 20
150.00769999999999
 11
330.5822
 21
150.00769999999999
  0
LINE
  8
_0-2_3
  6
CONTINUOUS
 62
  250
 10
329.53219999999998
 20
149.13269999999999
 11
330.36349999999998
 21
149.13269999999999
  0
LINE
  8
_0-2_3
  6
CONTINUOUS
 62
  250
 10
326.07580000000001
 20
149.13269999999999
 11
326.07580000000001
 21
148.69509999999999
  0
LINE
  8
_0-2_3
  6
CONTINUOUS
 62
  250
 10
328.0446
 20
149.13269999999999
 11
328.0446
 21
148.69509999999999
  0
LINE
  8
_0-2_3
  6
CONTINUOUS
 62
  250
 10
328.26339999999999
 20
149.13269999999999
 11
328.26339999999999
 21
148.69509999999999
  0
LINE
  8
_0-2_3
  6
CONTINUOUS
 62
  250
 10
329.3134
 20
150.22640000000001
 11
329.3134
 21
149.6577
  0
LINE
  8
_0-2_3
  6
CONTINUOUS
 62
  250
 10
324.45699999999999
 20
150.44519999999999
 11
325.63830000000001
 21
150.44519999999999
  0
LINE
  8
_0-2_3
  6
CONTINUOUS
 62
  250
 10
326.2946
 20
150.44519999999999
 11
327.1259
 21
150.44519999999999
  0
LINE
  8
_0-2_3
  6
CONTINUOUS
 62
  250
 10
328.26339999999999
 20
150.44519999999999
 11
329.09469999999998
 21
150.44519999999999
  0
LINE
  8
_0-2_3
  6
CONTINUOUS
 62
  250
 10
329.53219999999998
 20
150.44519999999999
 11
330.36349999999998
 21
150.44519999999999
  0
LINE
  8
_0-2_3
  6
CONTINUOUS
 62
  250
 10
329.53219999999998
 20
148.69509999999999
 11
330.5822
 21
148.69509999999999
  0
LINE
  8
_0-2_3
  6
CONTINUOUS
 62
  250
 10
328.26339999999999
 20
148.69509999999999
 11
328.35090000000002
 21
148.69509999999999
  0
LINE
  8
_0-2_3
  6
CONTINUOUS
 62
  250
 10
324.45699999999999
 20
148.69509999999999
 11
325.8571
 21
148.69509999999999
  0
LINE
  8
_0-2_3
  6
CONTINUOUS
 62
  250
 10
325.8571
 20
150.00769999999999
 11
325.8571
 21
150.22640000000001
  0
LINE
  8
_0-2_3
  6
CONTINUOUS
 62
  250
 10
325.8571
 20
148.69509999999999
 11
325.8571
 21
148.91390000000001
  0
LINE
  8
_0-2_3
  6
CONTINUOUS
 62
  250
 10
325.8571
 20
149.2509
 11
325.8571
 21
149.50249999999999
  0
LINE
  8
_0-2_3
  6
CONTINUOUS
 62
  250
 10
324.45699999999999
 20
148.69509999999999
 11
324.45699999999999
 21
149.13269999999999
  0
LINE
  8
_0-2_3
  6
CONTINUOUS
 62
  250
 10
324.45699999999999
 20
149.44759999999999
 11
324.45699999999999
 21
149.88949999999999
  0
LINE
  8
_0-2_3
  6
CONTINUOUS
 62
  250
 10
324.45699999999999
 20
150.00769999999999
 11
324.45699999999999
 21
150.44519999999999
  0
LINE
  8
_0-2_3
  6
CONTINUOUS
 62
  250
 10
330.5822
 20
150.00769999999999
 11
330.5822
 21
150.22640000000001
  0
LINE
  8
_0-2_3
  6
CONTINUOUS
 62
  250
 10
329.53219999999998
 20
148.69509999999999
 11
329.53219999999998
 21
149.13269999999999
  0
LINE
  8
_0-2_3
  6
CONTINUOUS
 62
  250
 10
329.53219999999998
 20
150.00769999999999
 11
329.53219999999998
 21
150.44519999999999
  0
LINE
  8
_0-2_3
  6
CONTINUOUS
 62
  250
 10
326.07580000000001
 20
148.69509999999999
 11
326.38209999999997
 21
148.69509999999999
  0
LINE
  8
_0-2_3
  6
CONTINUOUS
 62
  250
 10
327.9547
 20
148.69509999999999
 11
328.0446
 21
148.69509999999999
  0
LINE
  8
_0-2_3
  6
CONTINUOUS
 62
  250
 10
320.51949999999999
 20
149.1764
 11
320.51949999999999
 21
149.96389999999999
  0
LINE
  8
_0-2_3
  6
CONTINUOUS
 62
  250
 10
320.6945
 20
149.96389999999999
 11
320.6945
 21
149.1764
  0
LINE
  8
_0-2_3
  6
CONTINUOUS
 62
  250
 10
320.6945
 20
149.96389999999999
 11
320.51949999999999
 21
149.96389999999999
  0
LINE
  8
_0-2_3
  6
CONTINUOUS
 62
  250
 10
320.6945
 20
149.1764
 11
320.51949999999999
 21
149.1764
  0
LINE
  8
_0-2_3
  6
CONTINUOUS
 62
  250
 10
320.07479999999998
 20
149.03809999999998
 11
319.9882
 21
148.9514
  0
LINE
  8
_0-2_3
  6
CONTINUOUS
 62
  250
 10
321.04449999999997
 20
149.96389999999999
 11
321.14949999999998
 21
149.96389999999999
  0
LINE
  8
_0-2_3
  6
CONTINUOUS
 62
  250
 10
320.82569999999998
 20
149.1764
 11
320.96569999999996
 21
149.1764
  0
LINE
  8
_0-2_3
  6
CONTINUOUS
 62
  250
 10
320.82569999999998
 20
149.1764
 11
320.82569999999998
 21
149.31639999999998
  0
LINE
  8
_0-2_3
  6
CONTINUOUS
 62
  250
 10
321.14949999999998
 20
149.8239
 11
321.14949999999998
 21
149.96389999999999
  0
LINE
  8
_0-2_3
  6
CONTINUOUS
 62
  250
 10
321.07069999999998
 20
149.8239
 11
321.14949999999998
 21
149.8239
  0
LINE
  8
_0-2_3
  6
CONTINUOUS
 62
  250
 10
320.89549999999996
 20
149.585
 11
321.00499999999999
 21
149.4831
  0
LINE
  8
_0-2_3
  6
CONTINUOUS
 62
  250
 10
321.01109999999999
 20
149.6723
 11
321.12059999999996
 21
149.5705
  0
LINE
  8
_0-2_3
  6
CONTINUOUS
 62
  250
 10
320.9395
 20
149.31639999999998
 11
320.82569999999998
 21
149.31639999999998
  0
LINE
  8
_0-2_3
  6
CONTINUOUS
 62
  250
 10
320.20440000000002
 20
149.48789999999999
 11
320.20440000000002
 21
149.96389999999999
  0
LINE
  8
_0-2_3
  6
CONTINUOUS
 62
  250
 10
320.36199999999996
 20
149.48789999999999
 11
320.36199999999996
 21
149.96389999999999
  0
LINE
  8
_0-2_3
  6
CONTINUOUS
 62
  250
 10
320.36199999999996
 20
149.96389999999999
 11
320.20440000000002
 21
149.96389999999999
  0
LINE
  8
_0-2_3
  6
CONTINUOUS
 62
  250
 10
331.80729999999999
 20
148.69509999999999
 11
331.80729999999999
 21
149.86179999999998
  0
LINE
  8
_0-2_3
  6
CONTINUOUS
 62
  250
 10
331.1073
 20
148.69509999999999
 11
331.1073
 21
149.86179999999998
  0
LINE
  8
_0-2_3
  6
CONTINUOUS
 62
  250
 10
330.93229999999999
 20
148.69509999999999
 11
331.28230000000002
 21
148.69509999999999
  0
LINE
  8
_0-2_3
  6
CONTINUOUS
 62
  250
 10
331.63229999999998
 20
148.69509999999999
 11
331.9823
 21
148.69509999999999
  0
LINE
  8
_0-2_3
  6
CONTINUOUS
 62
  250
 10
319.86310000000003
 20
149.45609999999999
 11
319.86430000000001
 21
149.4564
  0
LINE
  8
_0-2_3
  6
CONTINUOUS
 62
  250
 10
321.04899999999997
 20
149.19220000000001
 11
321.1775
 21
149.32069999999998
  0
LINE
  8
_0-2_3
  6
CONTINUOUS
 62
  250
 10
320.82569999999998
 20
149.2518
 11
320.89030000000002
 21
149.31639999999998
  0
LINE
  8
_0-2_3
  6
CONTINUOUS
 62
  250
 10
321.02690000000001
 20
149.453
 11
321.13249999999999
 21
149.55860000000001
  0
LINE
  8
_0-2_3
  6
CONTINUOUS
 62
  250
 10
321.14949999999998
 20
149.85839999999998
 11
321.115
 21
149.8239
  0
LINE
  8
_0-2_3
  6
CONTINUOUS
 62
  250
 10
320.99110000000001
 20
149.69999999999998
 11
320.88569999999998
 21
149.59460000000001
  0
LINE
  8
_0-2_3
  6
CONTINUOUS
 62
  250
 10
320.84649999999999
 20
149.8383
 11
320.95140000000003
 21
149.94309999999998
  0
LINE
  8
_0-2_3
  6
CONTINUOUS
 62
  250
 10
320.20929999999998
 20
148.79069999999998
 11
320.30049999999999
 21
148.882
  0
LINE
  8
_0-2_3
  6
CONTINUOUS
 62
  250
 10
321.29509999999999
 20
149.87659999999999
 11
321.38639999999998
 21
149.96789999999998
  0
LINE
  8
_0-2_3
  6
CONTINUOUS
 62
  250
 10
320.41730000000001
 20
148.7159
 11
320.5224
 21
148.8211
  0
LINE
  8
_0-2_3
  6
CONTINUOUS
 62
  250
 10
321.35599999999999
 20
149.65469999999999
 11
321.46120000000001
 21
149.75980000000001
  0
LINE
  8
_0-2_3
  6
CONTINUOUS
 62
  250
 10
320.68259999999997
 20
148.69839999999999
 11
320.83539999999999
 21
148.8512
  0
LINE
  8
_0-2_3
  6
CONTINUOUS
 62
  250
 10
321.32600000000002
 20
149.3418
 11
321.4787
 21
149.49449999999998
  0
LINE
  8
_0-2_3
  6
CONTINUOUS
 62
  250
 10
321.15530000000001
 20
148.88820000000001
 11
321.28890000000001
 21
149.02180000000001
  0
LINE
  8
_0-2_3
  6
CONTINUOUS
 62
  250
 10
320.0396
 20
148.90399999999999
 11
320.12639999999998
 21
148.9908
  0
LINE
  8
_0-2_3
  6
CONTINUOUS
 62
  250
 10
321.18630000000001
 20
150.0507
 11
321.27319999999997
 21
150.13749999999998
  0
LINE
  8
_0-2_3
  6
CONTINUOUS
 62
  250
 10
320.02359999999998
 20
149.17080000000001
 11
320.36199999999996
 21
149.50909999999998
  0
LINE
  8
_0-2_3
  6
CONTINUOUS
 62
  250
 10
321.03879999999998
 20
150.186
 11
321.1268
 21
150.274
  0
LINE
  8
_0-2_3
  6
CONTINUOUS
 62
  250
 10
319.8306
 20
149.26060000000001
 11
319.9248
 21
149.35480000000001
  0
LINE
  8
_0-2_3
  6
CONTINUOUS
 62
  250
 10
320.20440000000002
 20
149.6345
 11
320.36199999999996
 21
149.792
  0
LINE
  8
_0-2_3
  6
CONTINUOUS
 62
  250
 10
320.85099999999999
 20
150.281
 11
320.94659999999998
 21
150.37659999999999
  0
LINE
  8
_0-2_3
  6
CONTINUOUS
 62
  250
 10
319.73990000000003
 20
149.45269999999999
 11
319.85590000000001
 21
149.56880000000001
  0
LINE
  8
_0-2_3
  6
CONTINUOUS
 62
  250
 10
320.20440000000002
 20
149.91730000000001
 11
320.2511
 21
149.96389999999999
  0
LINE
  8
_0-2_3
  6
CONTINUOUS
 62
  250
 10
320.60829999999998
 20
150.3212
 11
320.7244
 21
150.43729999999999
  0
LINE
  8
_0-2_3
  6
CONTINUOUS
 62
  250
 10
319.74959999999998
 20
149.74539999999998
 11
319.96789999999998
 21
149.96360000000001
  0
LINE
  8
_0-2_3
  6
CONTINUOUS
 62
  250
 10
320.21350000000001
 20
150.2092
 11
320.4318
 21
150.4275
  0
LINE
  8
_0-2_3
  6
CONTINUOUS
 62
  250
 10
330.5822
 20
148.91390000000001
 11
330.5822
 21
148.69509999999999
  0
LINE
  8
_0-2_3
  6
CONTINUOUS
 62
  250
 10
322.53199999999998
 20
149.86179999999998
 11
322.18200000000001
 21
149.86179999999998
  0
LINE
  8
_0-2_3
  6
CONTINUOUS
 62
  250
 10
331.80729999999999
 20
149.86179999999998
 11
331.45730000000003
 21
149.25559999999998
  0
LINE
  8
_0-2_3
  6
CONTINUOUS
 62
  250
 10
331.1073
 20
149.86179999999998
 11
331.45730000000003
 21
149.25559999999998
  0
LINE
  8
_0-2_3
  6
CONTINUOUS
 62
  250
 10
322.35699999999997
 20
149.86179999999998
 11
322.35699999999997
 21
149.04509999999999
  0
LINE
  8
_0-2_3
  6
CONTINUOUS
 62
  250
 10
323.75709999999997
 20
149.86179999999998
 11
324.1071
 21
149.86179999999998
  0
LINE
  8
_0-2_3
  6
CONTINUOUS
 62
  250
 10
323.05700000000001
 20
149.86179999999998
 11
322.70699999999999
 21
149.86179999999998
  0
LINE
  8
_0-2_3
  6
CONTINUOUS
 62
  250
 10
322.882
 20
149.86179999999998
 11
323.08780000000001
 21
148.69509999999999
  0
LINE
  8
_0-2_3
  6
CONTINUOUS
 62
  250
 10
323.08780000000001
 20
148.69509999999999
 11
323.40710000000001
 21
149.57239999999998
  0
LINE
  8
_0-2_3
  6
CONTINUOUS
 62
  250
 10
323.72629999999998
 20
148.69509999999999
 11
323.40710000000001
 21
149.57239999999998
  0
LINE
  8
_0-2_3
  6
CONTINUOUS
 62
  250
 10
323.93209999999999
 20
149.86179999999998
 11
323.72629999999998
 21
148.69509999999999
  0
LINE
  8
_0-2_3
  6
CONTINUOUS
 62
  250
 10
319.73189999999999
 20
150.94519999999999
 11
331.7323
 21
150.94519999999999
  0
LINE
  8
_0-2_3
  6
CONTINUOUS
 62
  250
 10
319.23189999999999
 20
148.69509999999999
 11
319.23189999999999
 21
150.44519999999999
  0
LINE
  8
_0-2_3
  6
CONTINUOUS
 62
  250
 10
326.90710000000001
 20
150.00769999999999
 11
327.28050000000001
 21
150.3811
  0
LINE
  8
_0-2_3
  6
CONTINUOUS
 62
  250
 10
326.07580000000001
 20
148.89359999999999
 11
326.31489999999996
 21
149.13269999999999
  0
LINE
  8
_0-2_3
  6
CONTINUOUS
 62
  250
 10
326.90710000000001
 20
149.72479999999998
 11
327.34460000000001
 21
150.16239999999999
  0
LINE
  8
_0-2_3
  6
CONTINUOUS
 62
  250
 10
326.16020000000003
 20
148.69509999999999
 11
326.72660000000001
 21
149.26150000000001
  0
LINE
  8
_0-2_3
  6
CONTINUOUS
 62
  250
 10
326.77819999999996
 20
149.31309999999999
 11
327.34460000000001
 21
149.8795
  0
LINE
  8
_0-2_3
  6
CONTINUOUS
 62
  250
 10
326.44519999999999
 20
148.6972
 11
327.34249999999997
 21
149.59460000000001
  0
LINE
  8
_0-2_3
  6
CONTINUOUS
 62
  250
 10
326.84399999999999
 20
148.81319999999999
 11
327.37299999999999
 21
149.34219999999999
  0
LINE
  8
_0-2_3
  6
CONTINUOUS
 62
  250
 10
327.2269
 20
148.91319999999998
 11
327.54899999999997
 21
149.23529999999999
  0
LINE
  8
_0-2_3
  6
CONTINUOUS
 62
  250
 10
327.41309999999998
 20
148.81659999999999
 11
327.75760000000002
 21
149.1611
  0
LINE
  8
_0-2_3
  6
CONTINUOUS
 62
  250
 10
327.62319999999999
 20
148.74389999999999
 11
328.01120000000003
 21
149.1319
  0
LINE
  8
_0-2_3
  6
CONTINUOUS
 62
  250
 10
327.86329999999998
 20
148.7012
 11
328.0446
 21
148.88249999999999
  0
LINE
  8
_0-2_3
  6
CONTINUOUS
 62
  250
 10
327.0618
 20
150.44519999999999
 11
326.6243
 21
150.00769999999999
  0
LINE
  8
_0-2_3
  6
CONTINUOUS
 62
  250
 10
326.77890000000002
 20
150.44519999999999
 11
326.34140000000002
 21
150.00769999999999
  0
LINE
  8
_0-2_3
  6
CONTINUOUS
 62
  250
 10
326.49610000000001
 20
150.44519999999999
 11
326.2946
 21
150.24369999999998
  0
LINE
  8
_0-2_3
  6
CONTINUOUS
 62
  250
 10
330.1447
 20
150.00769999999999
 11
330.5181
 21
150.3811
  0
LINE
  8
_0-2_3
  6
CONTINUOUS
 62
  250
 10
330.4275
 20
150.00769999999999
 11
330.5822
 21
150.16239999999999
  0
LINE
  8
_0-2_3
  6
CONTINUOUS
 62
  250
 10
330.29939999999999
 20
150.44519999999999
 11
329.86189999999999
 21
150.00769999999999
  0
LINE
  8
_0-2_3
  6
CONTINUOUS
 62
  250
 10
330.0165
 20
150.44519999999999
 11
329.579
 21
150.00769999999999
  0
LINE
  8
_0-2_3
  6
CONTINUOUS
 62
  250
 10
329.73369999999999
 20
150.44519999999999
 11
329.53219999999998
 21
150.24369999999998
  0
LINE
  8
_0-2_3
  6
CONTINUOUS
 62
  250
 10
328.61340000000001
 20
149.74520000000001
 11
328.70089999999999
 21
149.83269999999998
  0
LINE
  8
_0-2_3
  6
CONTINUOUS
 62
  250
 10
328.8759
 20
150.00769999999999
 11
329.24939999999998
 21
150.3811
  0
LINE
  8
_0-2_3
  6
CONTINUOUS
 62
  250
 10
328.26339999999999
 20
149.1123
 11
328.28370000000001
 21
149.13269999999999
  0
LINE
  8
_0-2_3
  6
CONTINUOUS
 62
  250
 10
328.61340000000001
 20
149.46229999999999
 11
329.3134
 21
150.16239999999999
  0
LINE
  8
_0-2_3
  6
CONTINUOUS
 62
  250
 10
328.26339999999999
 20
148.82949999999999
 11
328.6954
 21
149.26150000000001
  0
LINE
  8
_0-2_3
  6
CONTINUOUS
 62
  250
 10
328.74700000000001
 20
149.31309999999999
 11
329.3134
 21
149.8795
  0
LINE
  8
_0-2_3
  6
CONTINUOUS
 62
  250
 10
328.41399999999998
 20
148.6972
 11
329.31139999999999
 21
149.59460000000001
  0
LINE
  8
_0-2_3
  6
CONTINUOUS
 62
  250
 10
328.81279999999998
 20
148.81319999999999
 11
329.19529999999997
 21
149.19569999999998
  0
LINE
  8
_0-2_3
  6
CONTINUOUS
 62
  250
 10
328.3306
 20
149.74520000000001
 11
328.41070000000001
 21
149.82529999999999
  0
LINE
  8
_0-2_3
  6
CONTINUOUS
 62
  250
 10
328.59309999999999
 20
150.00769999999999
 11
329.03059999999999
 21
150.44519999999999
  0
LINE
  8
_0-2_3
  6
CONTINUOUS
 62
  250
 10
328.04770000000002
 20
149.74520000000001
 11
328.7477
 21
150.44519999999999
  0
LINE
  8
_0-2_3
  6
CONTINUOUS
 62
  250
 10
327.98810000000003
 20
149.9684
 11
328.4649
 21
150.44519999999999
  0
LINE
  8
_0-2_3
  6
CONTINUOUS
 62
  250
 10
324.45699999999999
 20
149.13269999999999
 11
325.63830000000001
 21
149.13269999999999
  0
LINE
  8
_0-2_3
  6
CONTINUOUS
 62
  250
 10
324.45699999999999
 20
149.44759999999999
 11
325.8571
 21
149.2509
  0
LINE
  8
_0-2_3
  6
CONTINUOUS
 62
  250
 10
325.66880000000003
 20
149.7192
 11
324.45699999999999
 21
149.88949999999999
  0
LINE
  8
_0-2_3
  6
CONTINUOUS
 62
  250
 10
324.45699999999999
 20
150.00769999999999
 11
325.8571
 21
150.00769999999999
  0
LINE
  8
_0-2_3
  6
CONTINUOUS
 62
  250
 10
326.2946
 20
150.44519999999999
 11
326.2946
 21
150.00769999999999
  0
LINE
  8
_0-2_3
  6
CONTINUOUS
 62
  250
 10
326.2946
 20
150.00769999999999
 11
326.90710000000001
 21
150.00769999999999
  0
LINE
  8
_0-2_3
  6
CONTINUOUS
 62
  250
 10
327.34460000000001
 20
150.22640000000001
 11
327.34460000000001
 21
149.6577
  0
LINE
  8
_0-2_3
  6
CONTINUOUS
 62
  250
 10
326.90710000000001
 20
150.00769999999999
 11
326.90710000000001
 21
149.6577
  0
LINE
  8
_0-2_3
  6
CONTINUOUS
 62
  250
 10
326.07580000000001
 20
149.13269999999999
 11
326.38209999999997
 21
149.13269999999999
  0
LINE
  8
_0-2_3
  6
CONTINUOUS
 62
  250
 10
327.85919999999998
 20
149.74520000000001
 11
328.36439999999998
 21
149.74520000000001
  0
LINE
  8
_0-2_3
  6
CONTINUOUS
 62
  250
 10
328.26339999999999
 20
150.44519999999999
 11
327.85919999999998
 21
149.74520000000001
  0
LINE
  8
_0-2_3
  6
CONTINUOUS
 62
  250
 10
328.51600000000001
 20
150.00769999999999
 11
328.36439999999998
 21
149.74520000000001
  0
LINE
  8
_0-2_3
  6
CONTINUOUS
 62
  250
 10
328.51600000000001
 20
150.00769999999999
 11
328.8759
 21
150.00769999999999
  0
LINE
  8
_0-2_3
  6
CONTINUOUS
 62
  250
 10
328.26339999999999
 20
149.13269999999999
 11
328.35090000000002
 21
149.13269999999999
  0
LINE
  8
_0-2_3
  6
CONTINUOUS
 62
  250
 10
328.61340000000001
 20
149.39519999999998
 11
328.80560000000002
 21
149.39519999999998
  0
LINE
  8
_0-2_3
  6
CONTINUOUS
 62
  250
 10
328.61340000000001
 20
149.83269999999998
 11
328.8759
 21
149.83269999999998
  0
LINE
  8
_0-2_3
  6
CONTINUOUS
 62
  250
 10
328.61340000000001
 20
149.39519999999998
 11
328.61340000000001
 21
149.83269999999998
  0
LINE
  8
_0-2_3
  6
CONTINUOUS
 62
  250
 10
328.8759
 20
150.00769999999999
 11
328.8759
 21
149.83269999999998
  0
LINE
  8
_0-2_3
  6
CONTINUOUS
 62
  250
 10
329.53219999999998
 20
150.00769999999999
 11
330.5822
 21
150.00769999999999
  0
LINE
  8
_0-2_3
  6
CONTINUOUS
 62
  250
 10
329.53219999999998
 20
149.13269999999999
 11
330.36349999999998
 21
149.13269999999999
  0
LINE
  8
_0-2_3
  6
CONTINUOUS
 62
  250
 10
326.07580000000001
 20
149.13269999999999
 11
326.07580000000001
 21
148.69509999999999
  0
LINE
  8
_0-2_3
  6
CONTINUOUS
 62
  250
 10
328.0446
 20
149.13269999999999
 11
328.0446
 21
148.69509999999999
  0
LINE
  8
_0-2_3
  6
CONTINUOUS
 62
  250
 10
328.26339999999999
 20
149.13269999999999
 11
328.26339999999999
 21
148.69509999999999
  0
LINE
  8
_0-2_3
  6
CONTINUOUS
 62
  250
 10
329.3134
 20
150.22640000000001
 11
329.3134
 21
149.6577
  0
LINE
  8
_0-2_3
  6
CONTINUOUS
 62
  250
 10
324.45699999999999
 20
150.44519999999999
 11
325.63830000000001
 21
150.44519999999999
  0
LINE
  8
_0-2_3
  6
CONTINUOUS
 62
  250
 10
326.2946
 20
150.44519999999999
 11
327.1259
 21
150.44519999999999
  0
LINE
  8
_0-2_3
  6
CONTINUOUS
 62
  250
 10
328.26339999999999
 20
150.44519999999999
 11
329.09469999999998
 21
150.44519999999999
  0
LINE
  8
_0-2_3
  6
CONTINUOUS
 62
  250
 10
329.53219999999998
 20
150.44519999999999
 11
330.36349999999998
 21
150.44519999999999
  0
LINE
  8
_0-2_3
  6
CONTINUOUS
 62
  250
 10
329.53219999999998
 20
148.69509999999999
 11
330.5822
 21
148.69509999999999
  0
LINE
  8
_0-2_3
  6
CONTINUOUS
 62
  250
 10
328.26339999999999
 20
148.69509999999999
 11
328.35090000000002
 21
148.69509999999999
  0
LINE
  8
_0-2_3
  6
CONTINUOUS
 62
  250
 10
324.45699999999999
 20
148.69509999999999
 11
325.8571
 21
148.69509999999999
  0
LINE
  8
_0-2_3
  6
CONTINUOUS
 62
  250
 10
325.8571
 20
150.00769999999999
 11
325.8571
 21
150.22640000000001
  0
LINE
  8
_0-2_3
  6
CONTINUOUS
 62
  250
 10
325.8571
 20
148.69509999999999
 11
325.8571
 21
148.91390000000001
  0
LINE
  8
_0-2_3
  6
CONTINUOUS
 62
  250
 10
325.8571
 20
149.2509
 11
325.8571
 21
149.50249999999999
  0
LINE
  8
_0-2_3
  6
CONTINUOUS
 62
  250
 10
324.45699999999999
 20
148.69509999999999
 11
324.45699999999999
 21
149.13269999999999
  0
LINE
  8
_0-2_3
  6
CONTINUOUS
 62
  250
 10
324.45699999999999
 20
149.44759999999999
 11
324.45699999999999
 21
149.88949999999999
  0
LINE
  8
_0-2_3
  6
CONTINUOUS
 62
  250
 10
324.45699999999999
 20
150.00769999999999
 11
324.45699999999999
 21
150.44519999999999
  0
LINE
  8
_0-2_3
  6
CONTINUOUS
 62
  250
 10
330.5822
 20
150.00769999999999
 11
330.5822
 21
150.22640000000001
  0
LINE
  8
_0-2_3
  6
CONTINUOUS
 62
  250
 10
329.53219999999998
 20
148.69509999999999
 11
329.53219999999998
 21
149.13269999999999
  0
LINE
  8
_0-2_3
  6
CONTINUOUS
 62
  250
 10
329.53219999999998
 20
150.00769999999999
 11
329.53219999999998
 21
150.44519999999999
  0
LINE
  8
_0-2_3
  6
CONTINUOUS
 62
  250
 10
326.07580000000001
 20
148.69509999999999
 11
326.38209999999997
 21
148.69509999999999
  0
LINE
  8
_0-2_3
  6
CONTINUOUS
 62
  250
 10
327.9547
 20
148.69509999999999
 11
328.0446
 21
148.69509999999999
  0
LINE
  8
_0-2_3
  6
CONTINUOUS
 62
  250
 10
320.51949999999999
 20
149.1764
 11
320.51949999999999
 21
149.96389999999999
  0
LINE
  8
_0-2_3
  6
CONTINUOUS
 62
  250
 10
320.6945
 20
149.96389999999999
 11
320.6945
 21
149.1764
  0
LINE
  8
_0-2_3
  6
CONTINUOUS
 62
  250
 10
320.6945
 20
149.96389999999999
 11
320.51949999999999
 21
149.96389999999999
  0
LINE
  8
_0-2_3
  6
CONTINUOUS
 62
  250
 10
320.6945
 20
149.1764
 11
320.51949999999999
 21
149.1764
  0
LINE
  8
_0-2_3
  6
CONTINUOUS
 62
  250
 10
320.07479999999998
 20
149.03809999999998
 11
319.9882
 21
148.9514
  0
LINE
  8
_0-2_3
  6
CONTINUOUS
 62
  250
 10
321.04449999999997
 20
149.96389999999999
 11
321.14949999999998
 21
149.96389999999999
  0
LINE
  8
_0-2_3
  6
CONTINUOUS
 62
  250
 10
320.82569999999998
 20
149.1764
 11
320.96569999999996
 21
149.1764
  0
LINE
  8
_0-2_3
  6
CONTINUOUS
 62
  250
 10
320.82569999999998
 20
149.1764
 11
320.82569999999998
 21
149.31639999999998
  0
LINE
  8
_0-2_3
  6
CONTINUOUS
 62
  250
 10
321.14949999999998
 20
149.8239
 11
321.14949999999998
 21
149.96389999999999
  0
LINE
  8
_0-2_3
  6
CONTINUOUS
 62
  250
 10
321.07069999999998
 20
149.8239
 11
321.14949999999998
 21
149.8239
  0
LINE
  8
_0-2_3
  6
CONTINUOUS
 62
  250
 10
320.89549999999996
 20
149.585
 11
321.00499999999999
 21
149.4831
  0
LINE
  8
_0-2_3
  6
CONTINUOUS
 62
  250
 10
321.01109999999999
 20
149.6723
 11
321.12059999999996
 21
149.5705
  0
LINE
  8
_0-2_3
  6
CONTINUOUS
 62
  250
 10
320.9395
 20
149.31639999999998
 11
320.82569999999998
 21
149.31639999999998
  0
LINE
  8
_0-2_3
  6
CONTINUOUS
 62
  250
 10
320.20440000000002
 20
149.48789999999999
 11
320.20440000000002
 21
149.96389999999999
  0
LINE
  8
_0-2_3
  6
CONTINUOUS
 62
  250
 10
320.36199999999996
 20
149.48789999999999
 11
320.36199999999996
 21
149.96389999999999
  0
LINE
  8
_0-2_3
  6
CONTINUOUS
 62
  250
 10
320.36199999999996
 20
149.96389999999999
 11
320.20440000000002
 21
149.96389999999999
  0
LINE
  8
_0-2_3
  6
CONTINUOUS
 62
  250
 10
331.80729999999999
 20
148.69509999999999
 11
331.80729999999999
 21
149.86179999999998
  0
LINE
  8
_0-2_3
  6
CONTINUOUS
 62
  250
 10
331.1073
 20
148.69509999999999
 11
331.1073
 21
149.86179999999998
  0
LINE
  8
_0-2_3
  6
CONTINUOUS
 62
  250
 10
330.93229999999999
 20
148.69509999999999
 11
331.28230000000002
 21
148.69509999999999
  0
LINE
  8
_0-2_3
  6
CONTINUOUS
 62
  250
 10
331.63229999999998
 20
148.69509999999999
 11
331.9823
 21
148.69509999999999
  0
LINE
  8
_0-2_3
  6
CONTINUOUS
 62
  250
 10
319.86310000000003
 20
149.45609999999999
 11
319.86430000000001
 21
149.4564
  0
LINE
  8
_0-2_3
  6
CONTINUOUS
 62
  250
 10
321.04899999999997
 20
149.19220000000001
 11
321.1775
 21
149.32069999999998
  0
LINE
  8
_0-2_3
  6
CONTINUOUS
 62
  250
 10
320.82569999999998
 20
149.2518
 11
320.89030000000002
 21
149.31639999999998
  0
LINE
  8
_0-2_3
  6
CONTINUOUS
 62
  250
 10
321.02690000000001
 20
149.453
 11
321.13249999999999
 21
149.55860000000001
  0
LINE
  8
_0-2_3
  6
CONTINUOUS
 62
  250
 10
321.14949999999998
 20
149.85839999999998
 11
321.115
 21
149.8239
  0
LINE
  8
_0-2_3
  6
CONTINUOUS
 62
  250
 10
320.99110000000001
 20
149.69999999999998
 11
320.88569999999998
 21
149.59460000000001
  0
LINE
  8
_0-2_3
  6
CONTINUOUS
 62
  250
 10
320.84649999999999
 20
149.8383
 11
320.95140000000003
 21
149.94309999999998
  0
LINE
  8
_0-2_3
  6
CONTINUOUS
 62
  250
 10
320.20929999999998
 20
148.79069999999998
 11
320.30049999999999
 21
148.882
  0
LINE
  8
_0-2_3
  6
CONTINUOUS
 62
  250
 10
321.29509999999999
 20
149.87659999999999
 11
321.38639999999998
 21
149.96789999999998
  0
LINE
  8
_0-2_3
  6
CONTINUOUS
 62
  250
 10
320.41730000000001
 20
148.7159
 11
320.5224
 21
148.8211
  0
LINE
  8
_0-2_3
  6
CONTINUOUS
 62
  250
 10
321.35599999999999
 20
149.65469999999999
 11
321.46120000000001
 21
149.75980000000001
  0
LINE
  8
_0-2_3
  6
CONTINUOUS
 62
  250
 10
320.68259999999997
 20
148.69839999999999
 11
320.83539999999999
 21
148.8512
  0
LINE
  8
_0-2_3
  6
CONTINUOUS
 62
  250
 10
321.32600000000002
 20
149.3418
 11
321.4787
 21
149.49449999999998
  0
LINE
  8
_0-2_3
  6
CONTINUOUS
 62
  250
 10
321.15530000000001
 20
148.88820000000001
 11
321.28890000000001
 21
149.02180000000001
  0
LINE
  8
_0-2_3
  6
CONTINUOUS
 62
  250
 10
320.0396
 20
148.90399999999999
 11
320.12639999999998
 21
148.9908
  0
LINE
  8
_0-2_3
  6
CONTINUOUS
 62
  250
 10
321.18630000000001
 20
150.0507
 11
321.27319999999997
 21
150.13749999999998
  0
LINE
  8
_0-2_3
  6
CONTINUOUS
 62
  250
 10
320.02359999999998
 20
149.17080000000001
 11
320.36199999999996
 21
149.50909999999998
  0
LINE
  8
_0-2_3
  6
CONTINUOUS
 62
  250
 10
321.03879999999998
 20
150.186
 11
321.1268
 21
150.274
  0
LINE
  8
_0-2_3
  6
CONTINUOUS
 62
  250
 10
319.8306
 20
149.26060000000001
 11
319.9248
 21
149.35480000000001
  0
LINE
  8
_0-2_3
  6
CONTINUOUS
 62
  250
 10
320.20440000000002
 20
149.6345
 11
320.36199999999996
 21
149.792
  0
LINE
  8
_0-2_3
  6
CONTINUOUS
 62
  250
 10
320.85099999999999
 20
150.281
 11
320.94659999999998
 21
150.37659999999999
  0
LINE
  8
_0-2_3
  6
CONTINUOUS
 62
  250
 10
319.73990000000003
 20
149.45269999999999
 11
319.85590000000001
 21
149.56880000000001
  0
LINE
  8
_0-2_3
  6
CONTINUOUS
 62
  250
 10
320.20440000000002
 20
149.91730000000001
 11
320.2511
 21
149.96389999999999
  0
LINE
  8
_0-2_3
  6
CONTINUOUS
 62
  250
 10
320.60829999999998
 20
150.3212
 11
320.7244
 21
150.43729999999999
  0
LINE
  8
_0-2_3
  6
CONTINUOUS
 62
  250
 10
319.74959999999998
 20
149.74539999999998
 11
319.96789999999998
 21
149.96360000000001
  0
LINE
  8
_0-2_3
  6
CONTINUOUS
 62
  250
 10
320.21350000000001
 20
150.2092
 11
320.4318
 21
150.4275
  0
LINE
  8
_0-2_3
  6
CONTINUOUS
 62
  250
 10
330.5822
 20
148.91390000000001
 11
330.5822
 21
148.69509999999999
  0
LINE
  8
_0-2_3
  6
CONTINUOUS
 62
  250
 10
322.53199999999998
 20
149.86179999999998
 11
322.18200000000001
 21
149.86179999999998
  0
LINE
  8
_0-2_3
  6
CONTINUOUS
 62
  250
 10
331.80729999999999
 20
149.86179999999998
 11
331.45730000000003
 21
149.25559999999998
  0
LINE
  8
_0-2_3
  6
CONTINUOUS
 62
  250
 10
331.1073
 20
149.86179999999998
 11
331.45730000000003
 21
149.25559999999998
  0
LINE
  8
_0-2_3
  6
CONTINUOUS
 62
  250
 10
322.35699999999997
 20
149.86179999999998
 11
322.35699999999997
 21
149.04509999999999
  0
LINE
  8
_0-2_3
  6
CONTINUOUS
 62
  250
 10
323.75709999999997
 20
149.86179999999998
 11
324.1071
 21
149.86179999999998
  0
LINE
  8
_0-2_3
  6
CONTINUOUS
 62
  250
 10
323.05700000000001
 20
149.86179999999998
 11
322.70699999999999
 21
149.86179999999998
  0
LINE
  8
_0-2_3
  6
CONTINUOUS
 62
  250
 10
322.882
 20
149.86179999999998
 11
323.08780000000001
 21
148.69509999999999
  0
LINE
  8
_0-2_3
  6
CONTINUOUS
 62
  250
 10
323.08780000000001
 20
148.69509999999999
 11
323.40710000000001
 21
149.57239999999998
  0
LINE
  8
_0-2_3
  6
CONTINUOUS
 62
  250
 10
323.72629999999998
 20
148.69509999999999
 11
323.40710000000001
 21
149.57239999999998
  0
LINE
  8
_0-2_3
  6
CONTINUOUS
 62
  250
 10
323.93209999999999
 20
149.86179999999998
 11
323.72629999999998
 21
148.69509999999999
  0
LINE
  8
_0-2_3
  6
CONTINUOUS
 62
  250
 10
319.73189999999999
 20
150.94519999999999
 11
331.7323
 21
150.94519999999999
  0
LINE
  8
_0-2_3
  6
CONTINUOUS
 62
  250
 10
319.23189999999999
 20
148.69509999999999
 11
319.23189999999999
 21
150.44519999999999
  0
LINE
  8
_0-2_3
  6
CONTINUOUS
 62
  250
 10
332.2323
 20
148.69509999999999
 11
332.2323
 21
150.44519999999999
  0
LINE
  8
_0-2_3
  6
CONTINUOUS
 62
  250
 10
326.90710000000001
 20
150.00769999999999
 11
327.28050000000001
 21
150.3811
  0
LINE
  8
_0-2_3
  6
CONTINUOUS
 62
  250
 10
326.07580000000001
 20
148.89359999999999
 11
326.31489999999996
 21
149.13269999999999
  0
LINE
  8
_0-2_3
  6
CONTINUOUS
 62
  250
 10
326.90710000000001
 20
149.72479999999998
 11
327.34460000000001
 21
150.16239999999999
  0
LINE
  8
_0-2_3
  6
CONTINUOUS
 62
  250
 10
326.16020000000003
 20
148.69509999999999
 11
326.72660000000001
 21
149.26150000000001
  0
LINE
  8
_0-2_3
  6
CONTINUOUS
 62
  250
 10
326.77819999999996
 20
149.31309999999999
 11
327.34460000000001
 21
149.8795
  0
LINE
  8
_0-2_3
  6
CONTINUOUS
 62
  250
 10
326.44519999999999
 20
148.6972
 11
327.34249999999997
 21
149.59460000000001
  0
LINE
  8
_0-2_3
  6
CONTINUOUS
 62
  250
 10
326.84399999999999
 20
148.81319999999999
 11
327.37299999999999
 21
149.34219999999999
  0
LINE
  8
_0-2_3
  6
CONTINUOUS
 62
  250
 10
327.2269
 20
148.91319999999998
 11
327.54899999999997
 21
149.23529999999999
  0
LINE
  8
_0-2_3
  6
CONTINUOUS
 62
  250
 10
327.41309999999998
 20
148.81659999999999
 11
327.75760000000002
 21
149.1611
  0
LINE
  8
_0-2_3
  6
CONTINUOUS
 62
  250
 10
327.62319999999999
 20
148.74389999999999
 11
328.01120000000003
 21
149.1319
  0
LINE
  8
_0-2_3
  6
CONTINUOUS
 62
  250
 10
327.86329999999998
 20
148.7012
 11
328.0446
 21
148.88249999999999
  0
LINE
  8
_0-2_3
  6
CONTINUOUS
 62
  250
 10
327.0618
 20
150.44519999999999
 11
326.6243
 21
150.00769999999999
  0
LINE
  8
_0-2_3
  6
CONTINUOUS
 62
  250
 10
326.77890000000002
 20
150.44519999999999
 11
326.34140000000002
 21
150.00769999999999
  0
LINE
  8
_0-2_3
  6
CONTINUOUS
 62
  250
 10
326.49610000000001
 20
150.44519999999999
 11
326.2946
 21
150.24369999999998
  0
LINE
  8
_0-2_3
  6
CONTINUOUS
 62
  250
 10
330.1447
 20
150.00769999999999
 11
330.5181
 21
150.3811
  0
LINE
  8
_0-2_3
  6
CONTINUOUS
 62
  250
 10
330.4275
 20
150.00769999999999
 11
330.5822
 21
150.16239999999999
  0
LINE
  8
_0-2_3
  6
CONTINUOUS
 62
  250
 10
330.29939999999999
 20
150.44519999999999
 11
329.86189999999999
 21
150.00769999999999
  0
LINE
  8
_0-2_3
  6
CONTINUOUS
 62
  250
 10
330.0165
 20
150.44519999999999
 11
329.579
 21
150.00769999999999
  0
LINE
  8
_0-2_3
  6
CONTINUOUS
 62
  250
 10
329.73369999999999
 20
150.44519999999999
 11
329.53219999999998
 21
150.24369999999998
  0
LINE
  8
_0-2_3
  6
CONTINUOUS
 62
  250
 10
328.61340000000001
 20
149.74520000000001
 11
328.70089999999999
 21
149.83269999999998
  0
LINE
  8
_0-2_3
  6
CONTINUOUS
 62
  250
 10
328.8759
 20
150.00769999999999
 11
329.24939999999998
 21
150.3811
  0
LINE
  8
_0-2_3
  6
CONTINUOUS
 62
  250
 10
328.26339999999999
 20
149.1123
 11
328.28370000000001
 21
149.13269999999999
  0
LINE
  8
_0-2_3
  6
CONTINUOUS
 62
  250
 10
328.61340000000001
 20
149.46229999999999
 11
329.3134
 21
150.16239999999999
  0
LINE
  8
_0-2_3
  6
CONTINUOUS
 62
  250
 10
328.26339999999999
 20
148.82949999999999
 11
328.6954
 21
149.26150000000001
  0
LINE
  8
_0-2_3
  6
CONTINUOUS
 62
  250
 10
328.74700000000001
 20
149.31309999999999
 11
329.3134
 21
149.8795
  0
LINE
  8
_0-2_3
  6
CONTINUOUS
 62
  250
 10
328.41399999999998
 20
148.6972
 11
329.31139999999999
 21
149.59460000000001
  0
LINE
  8
_0-2_3
  6
CONTINUOUS
 62
  250
 10
328.81279999999998
 20
148.81319999999999
 11
329.19529999999997
 21
149.19569999999998
  0
LINE
  8
_0-2_3
  6
CONTINUOUS
 62
  250
 10
328.3306
 20
149.74520000000001
 11
328.41070000000001
 21
149.82529999999999
  0
LINE
  8
_0-2_3
  6
CONTINUOUS
 62
  250
 10
328.59309999999999
 20
150.00769999999999
 11
329.03059999999999
 21
150.44519999999999
  0
LINE
  8
_0-2_3
  6
CONTINUOUS
 62
  250
 10
328.04770000000002
 20
149.74520000000001
 11
328.7477
 21
150.44519999999999
  0
LINE
  8
_0-2_3
  6
CONTINUOUS
 62
  250
 10
327.98810000000003
 20
149.9684
 11
328.4649
 21
150.44519999999999
  0
ARC
  8
_0-2_3
  6
CONTINUOUS
 62
  250
 10
325.63830000000001
 20
150.22640000000001
 40
0.2187999999999999
 50
0
 51
90.000000000000028
  0
ARC
  8
_0-2_3
  6
CONTINUOUS
 62
  250
 10
325.63830000000001
 20
149.50249999999999
 40
0.2187999999999999
 50
0.0000000000001017
 51
82.000000000000113
  0
ARC
  8
_0-2_3
  6
CONTINUOUS
 62
  250
 10
325.63830000000001
 20
148.91390000000001
 40
0.2187999999999999
 50
0
 51
90.000000000000028
  0
ARC
  8
_0-2_3
  6
CONTINUOUS
 62
  250
 10
326.38209999999997
 20
149.6577
 40
0.525
 50
270.00000000000005
 51
0.0000000000000763
  0
ARC
  8
_0-2_3
  6
CONTINUOUS
 62
  250
 10
328.0036
 20
150.18190000000001
 40
1.05
 50
228.52400000000005
 51
272.24200000000007
  0
ARC
  8
_0-2_3
  6
CONTINUOUS
 62
  250
 10
328.0036
 20
150.18190000000001
 40
1.4875
 50
232.17300000000005
 51
271.5820000000001
  0
ARC
  8
_0-2_3
  6
CONTINUOUS
 62
  250
 10
329.09469999999998
 20
150.22640000000001
 40
0.2187999999999999
 50
0
 51
90.000000000000028
  0
ARC
  8
_0-2_3
  6
CONTINUOUS
 62
  250
 10
328.35090000000002
 20
149.6577
 40
0.9625
 50
270.00000000000005
 51
0.0000000000000763
  0
ARC
  8
_0-2_3
  6
CONTINUOUS
 62
  250
 10
328.35090000000002
 20
149.6577
 40
0.525
 50
270.00000000000005
 51
330.00000000000005
  0
ARC
  8
_0-2_3
  6
CONTINUOUS
 62
  250
 10
330.36349999999998
 20
150.22640000000001
 40
0.2187999999999999
 50
0
 51
90.000000000000028
  0
ARC
  8
_0-2_3
  6
CONTINUOUS
 62
  250
 10
330.36349999999998
 20
148.91390000000001
 40
0.2187999999999999
 50
0
 51
90.000000000000028
  0
ARC
  8
_0-2_3
  6
CONTINUOUS
 62
  250
 10
326.38209999999997
 20
149.6577
 40
0.9625
 50
270.00000000000005
 51
317.46100000000006
  0
ARC
  8
_0-2_3
  6
CONTINUOUS
 62
  250
 10
326.38209999999997
 20
149.6577
 40
0.9625
 50
344.17300000000005
 51
0.0000000000000763
  0
CIRCLE
  8
_0-2_3
  6
CONTINUOUS
 62
  250
 10
327.73840000000001
 20
150.31389999999998
 40
0.1313
  0
CIRCLE
  8
_0-2_3
  6
CONTINUOUS
 62
  250
 10
327.47590000000002
 20
150.31389999999998
 40
0.1313
  0
ARC
  8
_0-2_3
  6
CONTINUOUS
 62
  250
 10
327.1259
 20
150.22640000000001
 40
0.2187999999999999
 50
0
 51
90.000000000000028
  0
ARC
  8
_0-2_3
  6
CONTINUOUS
 62
  250
 10
321.07069999999998
 20
149.7364
 40
0.0874999999999999
 50
90.000000000000028
 51
227.08200000000005
  0
ARC
  8
_0-2_3
  6
CONTINUOUS
 62
  250
 10
320.96569999999996
 20
149.40389999999999
 40
0.2275
 50
270.00000000000005
 51
47.082000000000071
  0
ARC
  8
_0-2_3
  6
CONTINUOUS
 62
  250
 10
320.9395
 20
149.4127
 40
0.0962999999999999
 50
270.00000000000005
 51
47.082000000000071
  0
ARC
  8
_0-2_3
  6
CONTINUOUS
 62
  250
 10
321.04449999999997
 20
149.74520000000001
 40
0.2187999999999999
 50
90.000000000000028
 51
227.08200000000005
  0
ARC
  8
_0-2_3
  6
CONTINUOUS
 62
  250
 10
320.05039999999996
 20
149.48789999999999
 40
0.3114999999999999
 50
190.22700000000006
 51
0.0000000000000763
  0
ARC
  8
_0-2_3
  6
CONTINUOUS
 62
  250
 10
320.03289999999998
 20
149.48789999999999
 40
0.1715
 50
190.57400000000004
 51
0.0000000000000763
  0
ARC
  8
_0-2_3
  6
CONTINUOUS
 62
  250
 10
320.60699999999997
 20
149.57019999999999
 40
0.7524999999999999
 50
225.00000000000005
 51
188.72000000000016
  0
ARC
  8
_0-2_3
  6
CONTINUOUS
 62
  250
 10
320.60699999999997
 20
149.57019999999999
 40
0.875
 50
225.00000000000005
 51
189.06700000000014
  0
ARC
  8
_0-2_3
  6
CONTINUOUS
 62
  250
 10
322.007
 20
149.04509999999999
 40
0.3499999999999999
 50
180.00000000000005
 51
0.0000000000001017
  0
ARC
  8
_0-2_3
  6
CONTINUOUS
 62
  250
 10
319.73189999999999
 20
150.44519999999999
 40
0.5
 50
90.000000000000028
 51
180.00000000000005
  0
ARC
  8
_0-2_3
  6
CONTINUOUS
 62
  250
 10
319.73189999999999
 20
148.69509999999999
 40
0.5
 50
180.00000000000005
 51
270.00000000000005
  0
ARC
  8
_0-2_3
  6
CONTINUOUS
 62
  250
 10
331.7323
 20
150.44519999999999
 40
0.5
 50
0
 51
90.000000000000028
  0
ARC
  8
_0-2_3
  6
CONTINUOUS
 62
  250
 10
331.7323
 20
148.69509999999999
 40
0.5
 50
270.00000000000005
 51
0.0000000000000763
  0
ARC
  8
_0-2_3
  6
CONTINUOUS
 62
  250
 10
325.63830000000001
 20
150.22640000000001
 40
0.2187999999999999
 50
0
 51
90.000000000000028
  0
ARC
  8
_0-2_3
  6
CONTINUOUS
 62
  250
 10
325.63830000000001
 20
149.50249999999999
 40
0.2187999999999999
 50
0.0000000000001017
 51
82.000000000000113
  0
ARC
  8
_0-2_3
  6
CONTINUOUS
 62
  250
 10
325.63830000000001
 20
148.91390000000001
 40
0.2187999999999999
 50
0
 51
90.000000000000028
  0
ARC
  8
_0-2_3
  6
CONTINUOUS
 62
  250
 10
326.38209999999997
 20
149.6577
 40
0.525
 50
270.00000000000005
 51
0.0000000000000763
  0
ARC
  8
_0-2_3
  6
CONTINUOUS
 62
  250
 10
328.0036
 20
150.18190000000001
 40
1.05
 50
228.52400000000005
 51
272.24200000000007
  0
ARC
  8
_0-2_3
  6
CONTINUOUS
 62
  250
 10
328.0036
 20
150.18190000000001
 40
1.4875
 50
232.17300000000005
 51
271.5820000000001
  0
ARC
  8
_0-2_3
  6
CONTINUOUS
 62
  250
 10
329.09469999999998
 20
150.22640000000001
 40
0.2187999999999999
 50
0
 51
90.000000000000028
  0
ARC
  8
_0-2_3
  6
CONTINUOUS
 62
  250
 10
328.35090000000002
 20
149.6577
 40
0.9625
 50
270.00000000000005
 51
0.0000000000000763
  0
ARC
  8
_0-2_3
  6
CONTINUOUS
 62
  250
 10
328.35090000000002
 20
149.6577
 40
0.525
 50
270.00000000000005
 51
330.00000000000005
  0
ARC
  8
_0-2_3
  6
CONTINUOUS
 62
  250
 10
330.36349999999998
 20
150.22640000000001
 40
0.2187999999999999
 50
0
 51
90.000000000000028
  0
ARC
  8
_0-2_3
  6
CONTINUOUS
 62
  250
 10
330.36349999999998
 20
148.91390000000001
 40
0.2187999999999999
 50
0
 51
90.000000000000028
  0
ARC
  8
_0-2_3
  6
CONTINUOUS
 62
  250
 10
326.38209999999997
 20
149.6577
 40
0.9625
 50
270.00000000000005
 51
317.46100000000006
  0
ARC
  8
_0-2_3
  6
CONTINUOUS
 62
  250
 10
326.38209999999997
 20
149.6577
 40
0.9625
 50
344.17300000000005
 51
0.0000000000000763
  0
CIRCLE
  8
_0-2_3
  6
CONTINUOUS
 62
  250
 10
327.73840000000001
 20
150.31389999999998
 40
0.1313
  0
CIRCLE
  8
_0-2_3
  6
CONTINUOUS
 62
  250
 10
327.47590000000002
 20
150.31389999999998
 40
0.1313
  0
ARC
  8
_0-2_3
  6
CONTINUOUS
 62
  250
 10
327.1259
 20
150.22640000000001
 40
0.2187999999999999
 50
0
 51
90.000000000000028
  0
ARC
  8
_0-2_3
  6
CONTINUOUS
 62
  250
 10
321.07069999999998
 20
149.7364
 40
0.0874999999999999
 50
90.000000000000028
 51
227.08200000000005
  0
ARC
  8
_0-2_3
  6
CONTINUOUS
 62
  250
 10
320.96569999999996
 20
149.40389999999999
 40
0.2275
 50
270.00000000000005
 51
47.082000000000071
  0
ARC
  8
_0-2_3
  6
CONTINUOUS
 62
  250
 10
320.9395
 20
149.4127
 40
0.0962999999999999
 50
270.00000000000005
 51
47.082000000000071
  0
ARC
  8
_0-2_3
  6
CONTINUOUS
 62
  250
 10
321.04449999999997
 20
149.74520000000001
 40
0.2187999999999999
 50
90.000000000000028
 51
227.08200000000005
  0
ARC
  8
_0-2_3
  6
CONTINUOUS
 62
  250
 10
320.05039999999996
 20
149.48789999999999
 40
0.3114999999999999
 50
190.22700000000006
 51
0.0000000000000763
  0
ARC
  8
_0-2_3
  6
CONTINUOUS
 62
  250
 10
320.03289999999998
 20
149.48789999999999
 40
0.1715
 50
190.57400000000004
 51
0.0000000000000763
  0
ARC
  8
_0-2_3
  6
CONTINUOUS
 62
  250
 10
320.60699999999997
 20
149.57019999999999
 40
0.7524999999999999
 50
225.00000000000005
 51
188.72000000000016
  0
ARC
  8
_0-2_3
  6
CONTINUOUS
 62
  250
 10
320.60699999999997
 20
149.57019999999999
 40
0.875
 50
225.00000000000005
 51
189.06700000000014
  0
ARC
  8
_0-2_3
  6
CONTINUOUS
 62
  250
 10
322.007
 20
149.04509999999999
 40
0.3499999999999999
 50
180.00000000000005
 51
0.0000000000001017
  0
ARC
  8
_0-2_3
  6
CONTINUOUS
 62
  250
 10
319.73189999999999
 20
150.44519999999999
 40
0.5
 50
90.000000000000028
 51
180.00000000000005
  0
ARC
  8
_0-2_3
  6
CONTINUOUS
 62
  250
 10
319.73189999999999
 20
148.69509999999999
 40
0.5
 50
180.00000000000005
 51
270.00000000000005
  0
ARC
  8
_0-2_3
  6
CONTINUOUS
 62
  250
 10
331.7323
 20
150.44519999999999
 40
0.5
 50
0
 51
90.000000000000028
  0
ARC
  8
_0-2_3
  6
CONTINUOUS
 62
  250
 10
331.7323
 20
148.69509999999999
 40
0.5
 50
270.00000000000005
 51
0.0000000000000763
  0
TEXT
  8
_0-2_3
 62
  250
 10
317.07080000000001
 20
149.93889999999998
 40
7.6799999999999997
 41
1
 50
0
  1
△
  0
TEXT
  8
_0-2_3
 62
  250
 10
319.0679
 20
151.6929
 40
2.56
 41
1
 50
0
  1
１
  0
TEXT
  8
_0-2_3
 62
  250
 10
317.07080000000001
 20
149.93889999999998
 40
7.6799999999999997
 41
1
 50
0
  1
△
  0
TEXT
  8
_0-2_3
 62
  250
 10
319.0679
 20
151.6929
 40
2.56
 41
1
 50
0
  1
１
  0
LINE
  8
_0-1_1
  6
CONTINUOUS
 62
  250
 10
17.998999999999995
 20
286.7502
 11
402.00099999999997
 21
286.7502
  0
TEXT
  8
_0-1_1
 62
  250
 10
384.32400000000001
 20
35.725399999999993
 40
3.8399999999999998
 41
1
 50
0
  1
設計
  0
ARC
  8
_0-2_3
  6
CONTINUOUS
 62
  250
 10
279.7357
 20
149.57339999999999
 40
3
 50
138.94300000000004
 51
163.99500000000003
  0
ARC
  8
_0-2_3
  6
CONTINUOUS
 62
  250
 10
279.7357
 20
149.57339999999999
 40
3
 50
138.94300000000004
 51
163.99500000000003
  0
POINT
  8
_0-3__J_POINT
 62
  250
 10
301.68420000000003
 20
157.52469999999999
  0
POINT
  8
_0-3__J_POINT
 62
  250
 10
301.68420000000003
 20
157.52469999999999
  0
LINE
  8
_0-1_1
  6
CONTINUOUS
 62
  250
 10
17.998999999999995
 20
286.7502
 11
17.998999999999995
 21
10.249799999999993
  0
LINE
  8
_0-1_1
  6
CONTINUOUS
 62
  250
 10
402.00099999999997
 20
10.249799999999993
 11
402.00099999999997
 21
286.7502
  0
LINE
  8
_0-1_1
  6
CONTINUOUS
 62
  250
 10
347.00099999999997
 20
35.249799999999993
 11
402.00099999999997
 21
35.249799999999993
  0
LINE
  8
_0-1_1
  6
CONTINUOUS
 62
  250
 10
375.75099999999997
 20
26.249799999999993
 11
375.75099999999997
 21
19.249799999999993
  0
LINE
  8
_0-1_1
  6
CONTINUOUS
 62
  250
 10
225.001
 20
19.249799999999993
 11
402.00099999999997
 21
19.249799999999993
  0
LINE
  8
_0-1_1
  6
CONTINUOUS
 62
  250
 10
225.001
 20
40.249799999999993
 11
402.00099999999997
 21
40.249799999999993
  0
LINE
  8
_0-1_1
  6
CONTINUOUS
 62
  250
 10
310.50099999999997
 20
40.249799999999993
 11
310.50099999999997
 21
10.249799999999993
  0
LINE
  8
_0-1_1
  6
CONTINUOUS
 62
  250
 10
392.00099999999997
 20
26.249799999999993
 11
392.00099999999997
 21
40.249799999999993
  0
LINE
  8
_0-1_1
  6
CONTINUOUS
 62
  250
 10
382.00099999999997
 20
26.249799999999993
 11
382.00099999999997
 21
40.249799999999993
  0
LINE
  8
_0-1_1
  6
CONTINUOUS
 62
  250
 10
372.00099999999997
 20
26.249799999999993
 11
372.00099999999997
 21
40.249799999999993
  0
LINE
  8
_0-1_1
  6
CONTINUOUS
 62
  250
 10
347.00099999999997
 20
10.249799999999993
 11
347.00099999999997
 21
40.249799999999993
  0
LINE
  8
_0-1_1
  6
CONTINUOUS
 62
  250
 10
299.50099999999997
 20
40.249799999999993
 11
299.50099999999997
 21
10.249799999999993
  0
LINE
  8
_0-1_1
  6
CONTINUOUS
 62
  250
 10
236.001
 20
40.249799999999993
 11
236.001
 21
19.249799999999993
  0
LINE
  8
_0-1_1
  6
CONTINUOUS
 62
  250
 10
347.00099999999997
 20
26.249799999999993
 11
402.00099999999997
 21
26.249799999999993
  0
LINE
  8
_0-1_1
  6
CONTINUOUS
 62
  250
 10
225.001
 20
29.749799999999993
 11
347.00099999999997
 21
29.749799999999993
  0
LINE
  8
_0-1_1
  6
CONTINUOUS
 62
  250
 10
262.25099999999997
 20
29.749799999999993
 11
262.25099999999997
 21
19.249799999999993
  0
LINE
  8
_0-1_1
  6
CONTINUOUS
 62
  250
 10
273.25099999999997
 20
29.749799999999993
 11
273.25099999999997
 21
19.249799999999993
  0
LINE
  8
_0-1_1
  6
CONTINUOUS
 62
  250
 10
362.00099999999997
 20
10.249799999999993
 11
362.00099999999997
 21
40.249799999999993
  0
LINE
  8
_0-1_1
  6
CONTINUOUS
 62
  250
 10
285.25099999999997
 20
258.2502
 11
402.00099999999997
 21
258.2502
  0
LINE
  8
_0-1_1
  6
CONTINUOUS
 62
  250
 10
285.25099999999997
 20
265.7502
 11
402.00099999999997
 21
265.7502
  0
LINE
  8
_0-1_1
  6
CONTINUOUS
 62
  250
 10
285.25099999999997
 20
273.2502
 11
402.00099999999997
 21
273.2502
  0
LINE
  8
_0-1_1
  6
CONTINUOUS
 62
  250
 10
285.25099999999997
 20
280.7502
 11
402.00099999999997
 21
280.7502
  0
LINE
  8
_0-1_1
  6
CONTINUOUS
 62
  250
 10
285.25099999999997
 20
258.2502
 11
285.25099999999997
 21
286.7502
  0
LINE
  8
_0-1_1
  6
CONTINUOUS
 62
  250
 10
294.75099999999997
 20
258.2502
 11
294.75099999999997
 21
286.7502
  0
LINE
  8
_0-1_1
  6
CONTINUOUS
 62
  250
 10
391.00099999999997
 20
258.2502
 11
391.00099999999997
 21
286.7502
  0
LINE
  8
_0-1_1
  6
CONTINUOUS
 62
  250
 10
356.00099999999997
 20
258.2502
 11
356.00099999999997
 21
286.7502
  0
LINE
  8
_0-1_1
  6
CONTINUOUS
 62
  250
 10
321.00099999999997
 20
258.2502
 11
321.00099999999997
 21
286.7502
  0
LINE
  8
_0-1_1
  6
CONTINUOUS
 62
  250
 10
225.001
 20
40.249799999999993
 11
225.001
 21
10.249799999999993
  0
LINE
  8
_0-2_3
  6
CONTINUOUS
 62
  250
 10
276.85199999999997
 20
150.40059999999999
 11
301.84239999999999
 21
150.40059999999999
  0
LINE
  8
_0-2_3
  6
CONTINUOUS
 62
  250
 10
247.09239999999999
 20
109.40059999999999
 11
247.09239999999999
 21
110.15059999999999
  0
LINE
  8
_0-2_3
  6
CONTINUOUS
 62
  250
 10
238.34239999999999
 20
110.15059999999999
 11
247.09239999999999
 21
110.15059999999999
  0
LINE
  8
_0-2_3
  6
CONTINUOUS
 62
  250
 10
238.34239999999999
 20
109.40059999999999
 11
247.09239999999999
 21
109.40059999999999
  0
LINE
  8
_0-2_3
  6
CONTINUOUS
 62
  250
 10
242.96739999999999
 20
96.150599999999997
 11
242.96739999999999
 21
105.0506
  0
LINE
  8
_0-2_3
  6
CONTINUOUS
 62
  250
 10
242.96739999999999
 20
110.15059999999999
 11
242.96739999999999
 21
117.65059999999999
  0
LINE
  8
_0-2_3
  6
CONTINUOUS
 62
  250
 10
243.46739999999999
 20
110.15059999999999
 11
243.46739999999999
 21
117.65059999999999
  0
LINE
  8
_0-2_3
  6
CONTINUOUS
 62
  250
 10
244.34239999999999
 20
105.0506
 11
238.34239999999999
 21
105.0506
  0
LINE
  8
_0-2_3
  6
CONTINUOUS
 62
  250
 10
245.21739999999999
 20
105.5557
 11
245.21739999999999
 21
108.3006
  0
LINE
  8
_0-2_3
  6
CONTINUOUS
 62
  250
 10
244.34239999999999
 20
105.0506
 11
245.21739999999999
 21
105.5557
  0
LINE
  8
_0-2_3
  6
CONTINUOUS
 62
  250
 10
248.34239999999999
 20
108.5506
 11
248.34239999999999
 21
109.15059999999999
  0
LINE
  8
_0-2_3
  6
CONTINUOUS
 62
  250
 10
238.34239999999999
 20
108.3006
 11
245.5027
 21
108.3006
  0
LINE
  8
_0-2_3
  6
CONTINUOUS
 62
  250
 10
248.34239999999999
 20
109.15059999999999
 11
238.34239999999999
 21
109.15059999999999
  0
LINE
  8
_0-2_3
  6
CONTINUOUS
 62
  250
 10
248.34239999999999
 20
108.5506
 11
238.34239999999999
 21
108.5506
  0
LINE
  8
_0-2_3
  6
CONTINUOUS
 62
  250
 10
241.84239999999999
 20
105.5557
 11
241.84239999999999
 21
108.3006
  0
LINE
  8
_0-2_3
  6
CONTINUOUS
 62
  250
 10
301.0174
 20
150.15059999999999
 11
301.0174
 21
150.40059999999999
  0
LINE
  8
_0-2_3
  6
CONTINUOUS
 62
  250
 10
277.66739999999998
 20
150.15059999999999
 11
277.66739999999998
 21
150.40059999999999
  0
LINE
  8
_0-2_3
  6
CONTINUOUS
 62
  250
 10
242.96739999999999
 20
81.900599999999997
 11
242.96739999999999
 21
83.650599999999997
  0
LINE
  8
_0-2_3
  6
CONTINUOUS
 62
  250
 10
243.46739999999999
 20
81.900599999999997
 11
243.46739999999999
 21
90.400599999999997
  0
LINE
  8
_0-2_3
  6
CONTINUOUS
 62
  250
 10
242.96739999999999
 20
83.650599999999997
 11
243.46739999999999
 21
84.150599999999997
  0
LINE
  8
_0-2_3
  6
CONTINUOUS
 62
  250
 10
238.34239999999999
 20
90.400599999999997
 11
244.21739999999999
 21
90.400599999999997
  0
LINE
  8
_0-2_3
  6
CONTINUOUS
 62
  250
 10
244.09239999999999
 20
75.900599999999997
 11
238.34239999999999
 21
75.900599999999997
  0
LINE
  8
_0-2_3
  6
CONTINUOUS
 62
  250
 10
244.09239999999999
 20
81.900599999999997
 11
238.34239999999999
 21
81.900599999999997
  0
LINE
  8
_0-2_3
  6
CONTINUOUS
 62
  250
 10
244.21739999999999
 20
96.150599999999997
 11
238.34239999999999
 21
96.150599999999997
  0
LINE
  8
_0-2_3
  6
CONTINUOUS
 62
  250
 10
243.46739999999999
 20
83.650599999999997
 11
238.34239999999999
 21
83.650599999999997
  0
LINE
  8
_0-2_3
  6
CONTINUOUS
 62
  250
 10
243.46739999999999
 20
96.150599999999997
 11
243.46739999999999
 21
105.0506
  0
LINE
  8
_0-2_3
  6
CONTINUOUS
 62
  250
 10
229.59239999999999
 20
109.40059999999999
 11
229.59239999999999
 21
110.15059999999999
  0
LINE
  8
_0-2_3
  6
CONTINUOUS
 62
  250
 10
238.34239999999999
 20
110.15059999999999
 11
229.59239999999999
 21
110.15059999999999
  0
LINE
  8
_0-2_3
  6
CONTINUOUS
 62
  250
 10
238.34239999999999
 20
109.40059999999999
 11
229.59239999999999
 21
109.40059999999999
  0
LINE
  8
_0-2_3
  6
CONTINUOUS
 62
  250
 10
233.71739999999999
 20
96.150599999999997
 11
233.71739999999999
 21
105.0506
  0
LINE
  8
_0-2_3
  6
CONTINUOUS
 62
  250
 10
233.71739999999999
 20
110.15059999999999
 11
233.71739999999999
 21
117.65059999999999
  0
LINE
  8
_0-2_3
  6
CONTINUOUS
 62
  250
 10
233.21739999999999
 20
110.15059999999999
 11
233.21739999999999
 21
117.65059999999999
  0
LINE
  8
_0-2_3
  6
CONTINUOUS
 62
  250
 10
232.34239999999999
 20
105.0506
 11
238.34239999999999
 21
105.0506
  0
LINE
  8
_0-2_3
  6
CONTINUOUS
 62
  250
 10
231.46739999999999
 20
105.5557
 11
231.46739999999999
 21
108.3006
  0
LINE
  8
_0-2_3
  6
CONTINUOUS
 62
  250
 10
232.34239999999999
 20
105.0506
 11
231.46739999999999
 21
105.5557
  0
LINE
  8
_0-2_3
  6
CONTINUOUS
 62
  250
 10
228.34239999999999
 20
108.5506
 11
228.34239999999999
 21
109.15059999999999
  0
LINE
  8
_0-2_3
  6
CONTINUOUS
 62
  250
 10
238.34239999999999
 20
108.3006
 11
231.18219999999999
 21
108.3006
  0
LINE
  8
_0-2_3
  6
CONTINUOUS
 62
  250
 10
228.34239999999999
 20
109.15059999999999
 11
238.34239999999999
 21
109.15059999999999
  0
LINE
  8
_0-2_3
  6
CONTINUOUS
 62
  250
 10
228.34239999999999
 20
108.5506
 11
238.34239999999999
 21
108.5506
  0
LINE
  8
_0-2_3
  6
CONTINUOUS
 62
  250
 10
234.84239999999999
 20
105.5557
 11
234.84239999999999
 21
108.3006
  0
LINE
  8
_0-2_3
  6
CONTINUOUS
 62
  250
 10
233.71739999999999
 20
81.900599999999997
 11
233.71739999999999
 21
83.650599999999997
  0
LINE
  8
_0-2_3
  6
CONTINUOUS
 62
  250
 10
233.21739999999999
 20
81.900599999999997
 11
233.21739999999999
 21
90.400599999999997
  0
LINE
  8
_0-2_3
  6
CONTINUOUS
 62
  250
 10
233.71739999999999
 20
83.650599999999997
 11
233.21739999999999
 21
84.150599999999997
  0
LINE
  8
_0-2_3
  6
CONTINUOUS
 62
  250
 10
238.34239999999999
 20
90.400599999999997
 11
232.46739999999999
 21
90.400599999999997
  0
LINE
  8
_0-2_3
  6
CONTINUOUS
 62
  250
 10
232.59239999999999
 20
75.900599999999997
 11
238.34239999999999
 21
75.900599999999997
  0
LINE
  8
_0-2_3
  6
CONTINUOUS
 62
  250
 10
232.59239999999999
 20
81.900599999999997
 11
238.34239999999999
 21
81.900599999999997
  0
LINE
  8
_0-2_3
  6
CONTINUOUS
 62
  250
 10
232.46739999999999
 20
96.150599999999997
 11
238.34239999999999
 21
96.150599999999997
  0
LINE
  8
_0-2_3
  6
CONTINUOUS
 62
  250
 10
233.21739999999999
 20
83.650599999999997
 11
238.34239999999999
 21
83.650599999999997
  0
LINE
  8
_0-2_3
  6
CONTINUOUS
 62
  250
 10
233.21739999999999
 20
96.150599999999997
 11
233.21739999999999
 21
105.0506
  0
LINE
  8
_0-2_3
  6
CONTINUOUS
 62
  250
 10
298.09239999999999
 20
109.40059999999999
 11
298.09239999999999
 21
110.15059999999999
  0
LINE
  8
_0-2_3
  6
CONTINUOUS
 62
  250
 10
289.34239999999999
 20
110.15059999999999
 11
298.09239999999999
 21
110.15059999999999
  0
LINE
  8
_0-2_3
  6
CONTINUOUS
 62
  250
 10
289.34239999999999
 20
109.40059999999999
 11
298.09239999999999
 21
109.40059999999999
  0
LINE
  8
_0-2_3
  6
CONTINUOUS
 62
  250
 10
293.96739999999999
 20
96.150599999999997
 11
293.96739999999999
 21
105.0506
  0
LINE
  8
_0-2_3
  6
CONTINUOUS
 62
  250
 10
293.96739999999999
 20
110.15059999999999
 11
293.96739999999999
 21
117.65059999999999
  0
LINE
  8
_0-2_3
  6
CONTINUOUS
 62
  250
 10
294.46739999999999
 20
110.15059999999999
 11
294.46739999999999
 21
117.65059999999999
  0
LINE
  8
_0-2_3
  6
CONTINUOUS
 62
  250
 10
295.34239999999999
 20
105.0506
 11
289.34239999999999
 21
105.0506
  0
LINE
  8
_0-2_3
  6
CONTINUOUS
 62
  250
 10
296.21739999999999
 20
105.5557
 11
296.21739999999999
 21
108.3006
  0
LINE
  8
_0-2_3
  6
CONTINUOUS
 62
  250
 10
295.34239999999999
 20
105.0506
 11
296.21739999999999
 21
105.5557
  0
LINE
  8
_0-2_3
  6
CONTINUOUS
 62
  250
 10
299.34239999999999
 20
108.5506
 11
299.34239999999999
 21
109.15059999999999
  0
LINE
  8
_0-2_3
  6
CONTINUOUS
 62
  250
 10
289.34239999999999
 20
108.3006
 11
296.5027
 21
108.3006
  0
LINE
  8
_0-2_3
  6
CONTINUOUS
 62
  250
 10
299.34239999999999
 20
109.15059999999999
 11
289.34239999999999
 21
109.15059999999999
  0
LINE
  8
_0-2_3
  6
CONTINUOUS
 62
  250
 10
299.34239999999999
 20
108.5506
 11
289.34239999999999
 21
108.5506
  0
LINE
  8
_0-2_3
  6
CONTINUOUS
 62
  250
 10
292.84239999999999
 20
105.5557
 11
292.84239999999999
 21
108.3006
  0
LINE
  8
_0-2_3
  6
CONTINUOUS
 62
  250
 10
293.96739999999999
 20
81.900599999999997
 11
293.96739999999999
 21
83.650599999999997
  0
LINE
  8
_0-2_3
  6
CONTINUOUS
 62
  250
 10
294.46739999999999
 20
81.900599999999997
 11
294.46739999999999
 21
90.400599999999997
  0
LINE
  8
_0-2_3
  6
CONTINUOUS
 62
  250
 10
293.96739999999999
 20
83.650599999999997
 11
294.46739999999999
 21
84.150599999999997
  0
LINE
  8
_0-2_3
  6
CONTINUOUS
 62
  250
 10
289.34239999999999
 20
90.400599999999997
 11
295.21739999999999
 21
90.400599999999997
  0
LINE
  8
_0-2_3
  6
CONTINUOUS
 62
  250
 10
295.09239999999999
 20
75.900599999999997
 11
289.34239999999999
 21
75.900599999999997
  0
LINE
  8
_0-2_3
  6
CONTINUOUS
 62
  250
 10
295.09239999999999
 20
81.900599999999997
 11
289.34239999999999
 21
81.900599999999997
  0
LINE
  8
_0-2_3
  6
CONTINUOUS
 62
  250
 10
295.21739999999999
 20
96.150599999999997
 11
289.34239999999999
 21
96.150599999999997
  0
LINE
  8
_0-2_3
  6
CONTINUOUS
 62
  250
 10
294.46739999999999
 20
83.650599999999997
 11
289.34239999999999
 21
83.650599999999997
  0
LINE
  8
_0-2_3
  6
CONTINUOUS
 62
  250
 10
294.46739999999999
 20
96.150599999999997
 11
294.46739999999999
 21
105.0506
  0
LINE
  8
_0-2_3
  6
CONTINUOUS
 62
  250
 10
280.59239999999999
 20
109.40059999999999
 11
280.59239999999999
 21
110.15059999999999
  0
LINE
  8
_0-2_3
  6
CONTINUOUS
 62
  250
 10
289.34239999999999
 20
110.15059999999999
 11
280.59239999999999
 21
110.15059999999999
  0
LINE
  8
_0-2_3
  6
CONTINUOUS
 62
  250
 10
289.34239999999999
 20
109.40059999999999
 11
280.59239999999999
 21
109.40059999999999
  0
LINE
  8
_0-2_3
  6
CONTINUOUS
 62
  250
 10
284.71739999999999
 20
96.150599999999997
 11
284.71739999999999
 21
105.0506
  0
LINE
  8
_0-2_3
  6
CONTINUOUS
 62
  250
 10
284.71739999999999
 20
110.15059999999999
 11
284.71739999999999
 21
117.65059999999999
  0
LINE
  8
_0-2_3
  6
CONTINUOUS
 62
  250
 10
284.21739999999999
 20
110.15059999999999
 11
284.21739999999999
 21
117.65059999999999
  0
LINE
  8
_0-2_3
  6
CONTINUOUS
 62
  250
 10
283.34239999999999
 20
105.0506
 11
289.34239999999999
 21
105.0506
  0
LINE
  8
_0-2_3
  6
CONTINUOUS
 62
  250
 10
282.46739999999999
 20
105.5557
 11
282.46739999999999
 21
108.3006
  0
LINE
  8
_0-2_3
  6
CONTINUOUS
 62
  250
 10
283.34239999999999
 20
105.0506
 11
282.46739999999999
 21
105.5557
  0
LINE
  8
_0-2_3
  6
CONTINUOUS
 62
  250
 10
279.34239999999999
 20
108.5506
 11
279.34239999999999
 21
109.15059999999999
  0
LINE
  8
_0-2_3
  6
CONTINUOUS
 62
  250
 10
289.34239999999999
 20
108.3006
 11
282.18219999999996
 21
108.3006
  0
LINE
  8
_0-2_3
  6
CONTINUOUS
 62
  250
 10
279.34239999999999
 20
109.15059999999999
 11
289.34239999999999
 21
109.15059999999999
  0
LINE
  8
_0-2_3
  6
CONTINUOUS
 62
  250
 10
279.34239999999999
 20
108.5506
 11
289.34239999999999
 21
108.5506
  0
LINE
  8
_0-2_3
  6
CONTINUOUS
 62
  250
 10
285.84239999999999
 20
105.5557
 11
285.84239999999999
 21
108.3006
  0
LINE
  8
_0-2_3
  6
CONTINUOUS
 62
  250
 10
284.71739999999999
 20
81.900599999999997
 11
284.71739999999999
 21
83.650599999999997
  0
LINE
  8
_0-2_3
  6
CONTINUOUS
 62
  250
 10
284.21739999999999
 20
81.900599999999997
 11
284.21739999999999
 21
90.400599999999997
  0
LINE
  8
_0-2_3
  6
CONTINUOUS
 62
  250
 10
284.71739999999999
 20
83.650599999999997
 11
284.21739999999999
 21
84.150599999999997
  0
LINE
  8
_0-2_3
  6
CONTINUOUS
 62
  250
 10
289.34239999999999
 20
90.400599999999997
 11
283.46739999999999
 21
90.400599999999997
  0
LINE
  8
_0-2_3
  6
CONTINUOUS
 62
  250
 10
283.59239999999999
 20
75.900599999999997
 11
289.34239999999999
 21
75.900599999999997
  0
LINE
  8
_0-2_3
  6
CONTINUOUS
 62
  250
 10
283.59239999999999
 20
81.900599999999997
 11
289.34239999999999
 21
81.900599999999997
  0
LINE
  8
_0-2_3
  6
CONTINUOUS
 62
  250
 10
283.46739999999999
 20
96.150599999999997
 11
289.34239999999999
 21
96.150599999999997
  0
LINE
  8
_0-2_3
  6
CONTINUOUS
 62
  250
 10
284.21739999999999
 20
83.650599999999997
 11
289.34239999999999
 21
83.650599999999997
  0
LINE
  8
_0-2_3
  6
CONTINUOUS
 62
  250
 10
284.21739999999999
 20
96.150599999999997
 11
284.21739999999999
 21
105.0506
  0
LINE
  8
_0-2_3
  6
CONTINUOUS
 62
  250
 10
238.34239999999999
 20
75.082599999999999
 11
238.34239999999999
 21
52.519199999999997
  0
LINE
  8
_0-2_3
  6
CONTINUOUS
 62
  250
 10
238.34239999999999
 20
53.519199999999997
 11
240.27430000000001
 21
53.001599999999996
  0
LINE
  8
_0-2_3
  6
CONTINUOUS
 62
  250
 10
238.34239999999999
 20
53.519199999999997
 11
240.27430000000001
 21
54.036900000000002
  0
LINE
  8
_0-2_3
  6
CONTINUOUS
 62
  250
 10
240.27430000000001
 20
53.001599999999996
 11
240.27430000000001
 21
54.036900000000002
  0
LINE
  8
_0-2_3
  6
CONTINUOUS
 62
  250
 10
238.34239999999999
 20
53.519199999999997
 11
289.34239999999999
 21
53.519199999999997
  0
LINE
  8
_0-2_3
  6
CONTINUOUS
 62
  250
 10
289.34239999999999
 20
53.519199999999997
 11
287.41059999999998
 21
54.036900000000002
  0
LINE
  8
_0-2_3
  6
CONTINUOUS
 62
  250
 10
289.34239999999999
 20
53.519199999999997
 11
287.41059999999998
 21
53.001599999999996
  0
LINE
  8
_0-2_3
  6
CONTINUOUS
 62
  250
 10
287.41059999999998
 20
54.036900000000002
 11
287.41059999999998
 21
53.001599999999996
  0
LINE
  8
_0-2_3
  6
CONTINUOUS
 62
  250
 10
289.34239999999999
 20
74.657799999999994
 11
289.34239999999999
 21
52.519199999999997
  0
LINE
  8
_0-2_3
  6
CONTINUOUS
 62
  250
 10
233.21739999999999
 20
101.58559999999999
 11
213.45939999999998
 21
80.789900000000002
  0
LINE
  8
_0-2_3
  6
CONTINUOUS
 62
  250
 10
213.45939999999998
 20
80.789900000000002
 11
184.66179999999999
 21
80.789900000000002
  0
LINE
  8
_0-2_3
  6
CONTINUOUS
 62
  250
 10
233.21739999999999
 20
101.58559999999999
 11
231.51150000000001
 21
100.5416
  0
LINE
  8
_0-2_3
  6
CONTINUOUS
 62
  250
 10
233.21739999999999
 20
101.58559999999999
 11
232.2621
 21
99.828599999999994
  0
LINE
  8
_0-2_3
  6
CONTINUOUS
 62
  250
 10
218.2099
 20
85.789900000000002
 11
186.877
 21
85.789900000000002
  0
LINE
  8
_0-2_3
  6
CONTINUOUS
 62
  250
 10
233.21739999999999
 20
82.936499999999995
 11
213.65629999999998
 21
61.718500000000005
  0
LINE
  8
_0-2_3
  6
CONTINUOUS
 62
  250
 10
213.65629999999998
 20
61.718500000000005
 11
195.02119999999999
 21
61.718500000000005
  0
LINE
  8
_0-2_3
  6
CONTINUOUS
 62
  250
 10
231.90800000000001
 20
81.516099999999994
 11
232.2886
 21
81.165199999999998
  0
LINE
  8
_0-2_3
  6
CONTINUOUS
 62
  250
 10
232.2886
 20
81.165199999999998
 11
233.21739999999999
 21
82.936499999999995
  0
LINE
  8
_0-2_3
  6
CONTINUOUS
 62
  250
 10
233.21739999999999
 20
82.936499999999995
 11
231.5274
 21
81.867000000000004
  0
LINE
  8
_0-2_3
  6
CONTINUOUS
 62
  250
 10
231.5274
 20
81.867000000000004
 11
231.90800000000001
 21
81.516099999999994
  0
LINE
  8
_0-2_3
  6
CONTINUOUS
 62
  250
 10
282.46739999999999
 20
107.31309999999999
 11
273.55360000000001
 21
99.770600000000001
  0
LINE
  8
_0-2_3
  6
CONTINUOUS
 62
  250
 10
273.55360000000001
 20
99.770600000000001
 11
259.67709999999999
 21
99.770600000000001
  0
LINE
  8
_0-2_3
  6
CONTINUOUS
 62
  250
 10
280.99270000000001
 20
106.0653
 11
281.32709999999997
 21
105.67009999999999
  0
LINE
  8
_0-2_3
  6
CONTINUOUS
 62
  250
 10
281.32709999999997
 20
105.67009999999999
 11
282.46739999999999
 21
107.31309999999999
  0
LINE
  8
_0-2_3
  6
CONTINUOUS
 62
  250
 10
282.46739999999999
 20
107.31309999999999
 11
280.65829999999999
 21
106.46039999999999
  0
LINE
  8
_0-2_3
  6
CONTINUOUS
 62
  250
 10
280.65829999999999
 20
106.46039999999999
 11
280.99270000000001
 21
106.0653
  0
LINE
  8
_0-2_3
  6
CONTINUOUS
 62
  250
 10
282.45629999999999
 20
92.782800000000008
 11
273.68830000000002
 21
86.436300000000002
  0
LINE
  8
_0-2_3
  6
CONTINUOUS
 62
  250
 10
273.68830000000002
 20
86.436300000000002
 11
259.8118
 21
86.436300000000002
  0
LINE
  8
_0-2_3
  6
CONTINUOUS
 62
  250
 10
280.89139999999997
 20
91.650100000000009
 11
281.19490000000001
 21
91.230800000000002
  0
LINE
  8
_0-2_3
  6
CONTINUOUS
 62
  250
 10
281.19490000000001
 20
91.230800000000002
 11
282.45629999999999
 21
92.782800000000008
  0
LINE
  8
_0-2_3
  6
CONTINUOUS
 62
  250
 10
282.45629999999999
 20
92.782800000000008
 11
280.58789999999999
 21
92.069400000000001
  0
LINE
  8
_0-2_3
  6
CONTINUOUS
 62
  250
 10
280.58789999999999
 20
92.069400000000001
 11
280.89139999999997
 21
91.650100000000009
  0
LINE
  8
_0-2_3
  6
CONTINUOUS
 62
  250
 10
282.99709999999998
 20
78.233500000000006
 11
273.41879999999997
 21
69.330799999999996
  0
LINE
  8
_0-2_3
  6
CONTINUOUS
 62
  250
 10
273.41879999999997
 20
69.330799999999996
 11
260.08120000000002
 21
69.330799999999996
  0
LINE
  8
_0-2_3
  6
CONTINUOUS
 62
  250
 10
281.58209999999996
 20
76.918300000000002
 11
281.93450000000001
 21
76.539100000000004
  0
LINE
  8
_0-2_3
  6
CONTINUOUS
 62
  250
 10
281.93450000000001
 20
76.539100000000004
 11
282.99709999999998
 21
78.233500000000006
  0
LINE
  8
_0-2_3
  6
CONTINUOUS
 62
  250
 10
282.99709999999998
 20
78.233500000000006
 11
281.22969999999997
 21
77.297399999999996
  0
LINE
  8
_0-2_3
  6
CONTINUOUS
 62
  250
 10
281.22969999999997
 20
77.297399999999996
 11
281.58209999999996
 21
76.918300000000002
  0
LINE
  8
_0-2_3
  6
CENTER2
 62
  250
 10
289.34239999999999
 20
71.926400000000001
 11
289.34239999999999
 21
204.79599999999999
  0
LINE
  8
_0-2_3
  6
CONTINUOUS
 62
  250
 10
296.33730000000002
 20
194.096
 11
297.74239999999997
 21
172.32060000000001
  0
LINE
  8
_0-2_3
  6
CONTINUOUS
 62
  250
 10
296.3367
 20
192.8983
 11
297.72159999999996
 21
172.626
  0
LINE
  8
_0-2_3
  6
CONTINUOUS
 62
  250
 10
282.34820000000001
 20
192.8983
 11
280.9633
 21
172.626
  0
LINE
  8
_0-2_3
  6
CONTINUOUS
 62
  250
 10
282.34759999999999
 20
194.096
 11
280.94240000000002
 21
172.32060000000001
  0
LINE
  8
_0-2_3
  6
CONTINUOUS
 62
  250
 10
300.84239999999999
 20
152.53319999999999
 11
300.84239999999999
 21
154.73840000000001
  0
LINE
  8
_0-2_3
  6
CONTINUOUS
 62
  250
 10
277.84239999999999
 20
152.52909999999999
 11
277.84239999999999
 21
154.73840000000001
  0
LINE
  8
_0-2_3
  6
CONTINUOUS
 62
  250
 10
276.09239999999999
 20
152.68190000000001
 11
276.09239999999999
 21
152.36850000000001
  0
LINE
  8
_0-2_3
  6
CONTINUOUS
 62
  250
 10
302.59239999999999
 20
162.15059999999999
 11
302.59239999999999
 21
152.36850000000001
  0
LINE
  8
_0-2_3
  6
CONTINUOUS
 62
  250
 10
276.09239999999999
 20
162.15059999999999
 11
276.09239999999999
 21
152.36850000000001
  0
LINE
  8
_0-2_3
  6
CONTINUOUS
 62
  250
 10
278.46289999999999
 20
151.90059999999999
 11
300.17610000000001
 21
151.90059999999999
  0
LINE
  8
_0-2_3
  6
CENTER2
 62
  250
 10
238.34239999999999
 20
260.86979999999999
 11
238.34239999999999
 21
76.019199999999997
  0
LINE
  8
_0-2_3
  6
CONTINUOUS
 62
  250
 10
243.34239999999999
 20
206.7107
 11
243.5627
 21
207.9557
  0
LINE
  8
_0-2_3
  6
CONTINUOUS
 62
  250
 10
233.34239999999999
 20
206.7107
 11
233.12219999999999
 21
207.9557
  0
LINE
  8
_0-2_3
  6
CONTINUOUS
 62
  250
 10
224.84239999999999
 20
209.94810000000001
 11
224.84239999999999
 21
227.58080000000001
  0
LINE
  8
_0-2_3
  6
CONTINUOUS
 62
  250
 10
251.84239999999999
 20
227.58080000000001
 11
251.84239999999999
 21
209.94810000000001
  0
LINE
  8
_0-2_3
  6
CONTINUOUS
 62
  250
 10
244.34239999999999
 20
228.65649999999999
 11
232.3298
 21
228.65649999999999
  0
LINE
  8
_0-2_3
  6
CONTINUOUS
 62
  250
 10
244.35509999999999
 20
222.68189999999998
 11
232.3298
 21
222.68189999999998
  0
LINE
  8
_0-2_3
  6
CONTINUOUS
 62
  250
 10
244.35419999999999
 20
222.58100000000001
 11
232.3306
 21
222.58100000000001
  0
LINE
  8
_0-2_3
  6
CENTER2
 62
  250
 10
238.34239999999999
 20
139.27119999999999
 11
238.34239999999999
 21
130.34329999999999
  0
LINE
  8
_0-2_3
  6
CONTINUOUS
 62
  250
 10
120.7462
 20
218.91410000000001
 11
124.89759999999999
 21
221.0293
  0
LINE
  8
_0-2_3
  6
CONTINUOUS
 62
  250
 10
120.7462
 20
218.91410000000001
 11
127.783
 21
205.10349999999999
  0
LINE
  8
_0-2_3
  6
CONTINUOUS
 62
  250
 10
114.7446
 20
214.17259999999998
 11
121.42709999999999
 21
217.57760000000001
  0
LINE
  8
_0-2_3
  6
CONTINUOUS
 62
  250
 10
114.52609999999999
 20
213.5001
 11
121.65409999999999
 21
217.13209999999997
  0
LINE
  8
_0-2_3
  6
CONTINUOUS
 62
  250
 10
131.93439999999998
 20
207.21870000000001
 11
127.783
 21
205.10349999999999
  0
LINE
  8
_0-2_3
  6
CONTINUOUS
 62
  250
 10
114.7446
 20
214.17259999999998
 11
121.42709999999999
 21
217.57760000000001
  0
LINE
  8
_0-2_3
  6
CONTINUOUS
 62
  250
 10
114.52609999999999
 20
213.5001
 11
115.20709999999999
 21
212.1636
  0
LINE
  8
_0-2_3
  6
CONTINUOUS
 62
  250
 10
114.52609999999999
 20
213.5001
 11
121.65409999999999
 21
217.13209999999997
  0
LINE
  8
_0-2_3
  6
CONTINUOUS
 62
  250
 10
114.52609999999999
 20
213.5001
 11
114.7446
 21
214.17259999999998
  0
LINE
  8
_0-2_3
  6
CONTINUOUS
 62
  250
 10
94.306799999999995
 20
203.1252
 11
82.565399999999996
 21
199.97910000000001
  0
LINE
  8
_0-2_3
  6
CONTINUOUS
 62
  250
 10
87.394000000000005
 20
194.02600000000001
 11
84.377200000000001
 21
193.2176
  0
LINE
  8
_0-2_3
  6
CONTINUOUS
 62
  250
 10
95.843199999999995
 20
96.15039999999999
 11
95.843199999999995
 21
105.05039999999999
  0
LINE
  8
_0-2_3
  6
CONTINUOUS
 62
  250
 10
96.343199999999995
 20
96.15039999999999
 11
96.343199999999995
 21
105.05039999999999
  0
LINE
  8
_0-2_3
  6
CONTINUOUS
 62
  250
 10
96.343199999999995
 20
110.15039999999999
 11
96.343199999999995
 21
117.6504
  0
LINE
  8
_0-2_3
  6
CONTINUOUS
 62
  250
 10
86.593199999999995
 20
96.15039999999999
 11
86.593199999999995
 21
105.05039999999999
  0
LINE
  8
_0-2_3
  6
CONTINUOUS
 62
  250
 10
86.093199999999995
 20
96.15039999999999
 11
86.093199999999995
 21
105.05039999999999
  0
LINE
  8
_0-2_3
  6
CONTINUOUS
 62
  250
 10
86.093199999999995
 20
110.15039999999999
 11
86.093199999999995
 21
117.6504
  0
LINE
  8
_0-2_3
  6
CONTINUOUS
 62
  250
 10
99.968199999999995
 20
109.40039999999999
 11
99.968199999999995
 21
110.15039999999999
  0
LINE
  8
_0-2_3
  6
CONTINUOUS
 62
  250
 10
91.218199999999995
 20
110.15039999999999
 11
99.968199999999995
 21
110.15039999999999
  0
LINE
  8
_0-2_3
  6
CONTINUOUS
 62
  250
 10
91.218199999999995
 20
109.40039999999999
 11
99.968199999999995
 21
109.40039999999999
  0
LINE
  8
_0-2_3
  6
CONTINUOUS
 62
  250
 10
97.218199999999995
 20
105.05039999999999
 11
91.218199999999995
 21
105.05039999999999
  0
LINE
  8
_0-2_3
  6
CONTINUOUS
 62
  250
 10
101.21819999999999
 20
108.55039999999999
 11
101.21819999999999
 21
109.15039999999999
  0
LINE
  8
_0-2_3
  6
CONTINUOUS
 62
  250
 10
98.378500000000002
 20
108.30039999999999
 11
84.057900000000003
 21
108.30039999999999
  0
LINE
  8
_0-2_3
  6
CONTINUOUS
 62
  250
 10
101.21819999999999
 20
109.15039999999999
 11
91.218199999999995
 21
109.15039999999999
  0
LINE
  8
_0-2_3
  6
CONTINUOUS
 62
  250
 10
101.21819999999999
 20
108.55039999999999
 11
91.218199999999995
 21
108.55039999999999
  0
LINE
  8
_0-2_3
  6
CONTINUOUS
 62
  250
 10
86.093199999999995
 20
110.15039999999999
 11
86.093199999999995
 21
117.6504
  0
LINE
  8
_0-2_3
  6
CONTINUOUS
 62
  250
 10
82.468199999999995
 20
109.40039999999999
 11
82.468199999999995
 21
110.15039999999999
  0
LINE
  8
_0-2_3
  6
CONTINUOUS
 62
  250
 10
91.218199999999995
 20
110.15039999999999
 11
82.468199999999995
 21
110.15039999999999
  0
LINE
  8
_0-2_3
  6
CONTINUOUS
 62
  250
 10
91.218199999999995
 20
109.40039999999999
 11
82.468199999999995
 21
109.40039999999999
  0
LINE
  8
_0-2_3
  6
CONTINUOUS
 62
  250
 10
85.218199999999995
 20
105.05039999999999
 11
91.218199999999995
 21
105.05039999999999
  0
LINE
  8
_0-2_3
  6
CONTINUOUS
 62
  250
 10
81.218199999999995
 20
108.55039999999999
 11
81.218199999999995
 21
109.15039999999999
  0
LINE
  8
_0-2_3
  6
CONTINUOUS
 62
  250
 10
81.218199999999995
 20
109.15039999999999
 11
91.218199999999995
 21
109.15039999999999
  0
LINE
  8
_0-2_3
  6
CONTINUOUS
 62
  250
 10
81.218199999999995
 20
108.55039999999999
 11
91.218199999999995
 21
108.55039999999999
  0
LINE
  8
_0-2_3
  6
CONTINUOUS
 62
  250
 10
91.218199999999995
 20
105.55539999999999
 11
91.218199999999995
 21
108.30039999999999
  0
LINE
  8
_0-2_3
  6
CONTINUOUS
 62
  250
 10
85.218199999999995
 20
105.05039999999999
 11
85.218199999999995
 21
108.30039999999999
  0
LINE
  8
_0-2_3
  6
CONTINUOUS
 62
  250
 10
97.218199999999995
 20
105.05039999999999
 11
97.218199999999995
 21
108.30129999999999
  0
LINE
  8
_0-2_3
  6
CONTINUOUS
 62
  250
 10
86.593199999999995
 20
81.900400000000004
 11
86.593199999999995
 21
83.650400000000004
  0
LINE
  8
_0-2_3
  6
CONTINUOUS
 62
  250
 10
96.343199999999995
 20
81.900400000000004
 11
96.343199999999995
 21
90.40039999999999
  0
LINE
  8
_0-2_3
  6
CONTINUOUS
 62
  250
 10
86.093199999999995
 20
81.900400000000004
 11
86.093199999999995
 21
90.40039999999999
  0
LINE
  8
_0-2_3
  6
CONTINUOUS
 62
  250
 10
95.843199999999995
 20
83.650400000000004
 11
96.343199999999995
 21
84.150400000000004
  0
LINE
  8
_0-2_3
  6
CONTINUOUS
 62
  250
 10
86.593199999999995
 20
83.650400000000004
 11
86.093199999999995
 21
84.150400000000004
  0
LINE
  8
_0-2_3
  6
CONTINUOUS
 62
  250
 10
97.093199999999995
 20
90.40039999999999
 11
85.343199999999995
 21
90.40039999999999
  0
LINE
  8
_0-2_3
  6
CONTINUOUS
 62
  250
 10
96.968199999999995
 20
75.900400000000004
 11
85.468199999999995
 21
75.900400000000004
  0
LINE
  8
_0-2_3
  6
CONTINUOUS
 62
  250
 10
96.968199999999995
 20
81.900400000000004
 11
85.468199999999995
 21
81.900400000000004
  0
LINE
  8
_0-2_3
  6
CONTINUOUS
 62
  250
 10
97.093199999999995
 20
96.15039999999999
 11
85.343199999999995
 21
96.15039999999999
  0
LINE
  8
_0-2_3
  6
CONTINUOUS
 62
  250
 10
96.343199999999995
 20
83.650400000000004
 11
86.093199999999995
 21
83.650400000000004
  0
LINE
  8
_0-2_3
  6
CONTINUOUS
 62
  250
 10
95.843199999999995
 20
83.650400000000004
 11
95.843199999999995
 21
81.900400000000004
  0
LINE
  8
_0-2_3
  6
CONTINUOUS
 62
  250
 10
97.468199999999995
 20
90.95150000000001
 11
97.468199999999995
 21
95.599199999999996
  0
LINE
  8
_0-2_3
  6
CONTINUOUS
 62
  250
 10
84.968199999999995
 20
90.95150000000001
 11
84.968199999999995
 21
95.599199999999996
  0
LINE
  8
_0-2_3
  6
CONTINUOUS
 62
  250
 10
96.968199999999995
 20
75.900400000000004
 11
96.968199999999995
 21
81.900400000000004
  0
LINE
  8
_0-2_3
  6
CONTINUOUS
 62
  250
 10
85.468199999999995
 20
75.900400000000004
 11
85.468199999999995
 21
81.900400000000004
  0
LINE
  8
_0-2_3
  6
CONTINUOUS
 62
  250
 10
76.218199999999995
 20
174.8332
 11
76.218199999999995
 21
181.73959999999999
  0
LINE
  8
_0-2_3
  6
CONTINUOUS
 62
  250
 10
69.218199999999995
 20
174.8332
 11
69.218199999999995
 21
181.73959999999999
  0
LINE
  8
_0-2_3
  6
CONTINUOUS
 62
  250
 10
77.418200000000013
 20
173.00079999999999
 11
78.375499999999988
 21
172.76150000000001
  0
LINE
  8
_0-2_3
  6
CONTINUOUS
 62
  250
 10
68.018200000000007
 20
173.00079999999999
 11
67.060900000000003
 21
172.76150000000001
  0
LINE
  8
_0-2_3
  6
CONTINUOUS
 62
  250
 10
68.018200000000007
 20
173.00079999999999
 11
72.718199999999995
 21
173.00079999999999
  0
LINE
  8
_0-2_3
  6
CONTINUOUS
 62
  250
 10
72.718199999999995
 20
173.00079999999999
 11
77.418200000000013
 21
173.00079999999999
  0
LINE
  8
_0-2_3
  6
CONTINUOUS
 62
  250
 10
78.439300000000002
 20
172.71190000000001
 11
66.997099999999988
 21
172.71190000000001
  0
LINE
  8
_0-2_3
  6
CENTER2
 62
  250
 10
72.718199999999995
 20
187.0985
 11
72.718199999999995
 21
175.1937
  0
LINE
  8
_0-2_3
  6
CONTINUOUS
 62
  250
 10
79.718199999999995
 20
163.81989999999998
 11
79.718199999999995
 21
166.7818
  0
LINE
  8
_0-2_3
  6
CONTINUOUS
 62
  250
 10
65.718199999999995
 20
163.81989999999998
 11
65.718199999999995
 21
166.5318
  0
LINE
  8
_0-2_3
  6
CONTINUOUS
 62
  250
 10
69.921600000000012
 20
167.50079999999999
 11
75.53739999999999
 21
167.50079999999999
  0
LINE
  8
_0-2_3
  6
CONTINUOUS
 62
  250
 10
67.31819999999999
 20
159.9008
 11
66.968199999999995
 21
159.5508
  0
LINE
  8
_0-2_3
  6
CONTINUOUS
 62
  250
 10
78.118200000000001
 20
159.91079999999999
 11
78.468199999999995
 21
159.5608
  0
LINE
  8
_0-2_3
  6
CONTINUOUS
 62
  250
 10
66.335900000000009
 20
161.00079999999999
 11
72.718199999999995
 21
161.00079999999999
  0
LINE
  8
_0-2_3
  6
CONTINUOUS
 62
  250
 10
72.718199999999995
 20
161.00079999999999
 11
79.10050000000001
 21
161.00079999999999
  0
LINE
  8
_0-2_3
  6
CONTINUOUS
 62
  250
 10
67.31819999999999
 20
159.9008
 11
67.31819999999999
 21
161.00079999999999
  0
LINE
  8
_0-2_3
  6
CONTINUOUS
 62
  250
 10
66.968199999999995
 20
156.38779999999999
 11
66.968199999999995
 21
161.00079999999999
  0
LINE
  8
_0-2_3
  6
CONTINUOUS
 62
  250
 10
78.468199999999995
 20
154.62979999999998
 11
78.468199999999995
 21
161.00079999999999
  0
LINE
  8
_0-2_3
  6
CONTINUOUS
 62
  250
 10
78.118200000000001
 20
159.91079999999999
 11
78.118200000000001
 21
161.01079999999998
  0
LINE
  8
_0-2_3
  6
CONTINUOUS
 62
  250
 10
66.968199999999995
 20
159.9008
 11
78.468199999999995
 21
159.9008
  0
LINE
  8
_0-2_3
  6
CONTINUOUS
 62
  250
 10
66.968199999999995
 20
156.38779999999999
 11
66.968199999999995
 21
161.00079999999999
  0
LINE
  8
_0-2_3
  6
CONTINUOUS
 62
  250
 10
66.968199999999995
 20
156.38779999999999
 11
66.968199999999995
 21
161.00079999999999
  0
LINE
  8
_0-2_3
  6
CONTINUOUS
 62
  250
 10
66.968199999999995
 20
156.38779999999999
 11
66.968199999999995
 21
161.00079999999999
  0
LINE
  8
_0-2_3
  6
CONTINUOUS
 62
  250
 10
69.920299999999997
 20
141.26259999999999
 11
68.160799999999994
 21
147.82910000000001
  0
LINE
  8
_0-2_3
  6
CONTINUOUS
 62
  250
 10
79.718199999999995
 20
140.1508
 11
71.369200000000006
 21
140.1508
  0
LINE
  8
_0-2_3
  6
CONTINUOUS
 62
  250
 10
79.968199999999995
 20
140.4008
 11
79.718199999999995
 21
140.1508
  0
LINE
  8
_0-2_3
  6
CONTINUOUS
 62
  250
 10
79.968199999999995
 20
141.6508
 11
79.968199999999995
 21
142.22579999999999
  0
LINE
  8
_0-2_3
  6
CONTINUOUS
 62
  250
 10
79.968199999999995
 20
152.9008
 11
79.968199999999995
 21
140.4008
  0
LINE
  8
_0-2_3
  6
CONTINUOUS
 62
  250
 10
79.718199999999995
 20
140.1508
 11
79.718199999999995
 21
153.1508
  0
LINE
  8
_0-2_3
  6
CONTINUOUS
 62
  250
 10
79.718199999999995
 20
153.1508
 11
79.968199999999995
 21
152.9008
  0
LINE
  8
_0-2_3
  6
CONTINUOUS
 62
  250
 10
78.468199999999995
 20
154.62979999999998
 11
78.468199999999995
 21
161.00079999999999
  0
LINE
  8
_0-2_3
  6
CONTINUOUS
 62
  250
 10
86.593199999999995
 20
110.15039999999999
 11
86.593199999999995
 21
117.6504
  0
LINE
  8
_0-2_3
  6
CONTINUOUS
 62
  250
 10
95.843199999999995
 20
110.15039999999999
 11
95.843199999999995
 21
117.6504
  0
LINE
  8
_0-2_3
  6
CONTINUOUS
 62
  250
 10
129.08940000000001
 20
221.81310000000001
 11
135.03239999999999
 21
210.14929999999998
  0
LINE
  8
_0-2_3
  6
CONTINUOUS
 62
  250
 10
163.80789999999998
 20
216.01749999999998
 11
136.68229999999999
 21
213.16649999999998
  0
LINE
  8
_0-2_3
  6
CONTINUOUS
 62
  250
 10
160.2991
 20
228.67000000000001
 11
161.72259999999999
 21
228.81959999999997
  0
LINE
  8
_0-2_3
  6
CONTINUOUS
 62
  250
 10
163.10230000000001
 20
222.7305
 11
160.9472
 21
222.50400000000001
  0
LINE
  8
_0-2_3
  6
CONTINUOUS
 62
  250
 10
163.834
 20
215.7689
 11
136.98199999999999
 21
212.94659999999998
  0
LINE
  8
_0-2_3
  6
CONTINUOUS
 62
  250
 10
137.1311
 20
212.96229999999999
 11
137.10500000000001
 21
213.21089999999998
  0
LINE
  8
_0-2_3
  6
CONTINUOUS
 62
  250
 10
137.45229999999997
 20
208.47120000000001
 11
136.98199999999999
 21
212.94659999999998
  0
LINE
  8
_0-2_3
  6
CONTINUOUS
 62
  250
 10
163.65870000000001
 20
216.0018
 11
163.68489999999999
 21
215.75319999999999
  0
LINE
  8
_0-2_3
  6
CONTINUOUS
 62
  250
 10
164.30439999999998
 20
211.29349999999999
 11
163.834
 21
215.7689
  0
LINE
  8
_0-2_3
  6
CONTINUOUS
 62
  250
 10
163.80789999999998
 20
216.01749999999998
 11
163.0919
 21
222.82999999999998
  0
LINE
  8
_0-2_3
  6
CONTINUOUS
 62
  250
 10
159.73369999999999
 20
228.50999999999999
 11
163.4478
 21
228.90039999999999
  0
LINE
  8
_0-2_3
  6
CONTINUOUS
 62
  250
 10
164.07499999999998
 20
222.9333
 11
160.36079999999998
 21
222.5429
  0
LINE
  8
_0-2_3
  6
CONTINUOUS
 62
  250
 10
136.82689999999999
 20
210.83389999999999
 11
135.12529999999998
 21
209.9669
  0
LINE
  8
_0-2_3
  6
CONTINUOUS
 62
  250
 10
136.11869999999998
 20
225.62450000000001
 11
128.9574
 21
221.97559999999998
  0
LINE
  8
_0-2_3
  6
CONTINUOUS
 62
  250
 10
136.82689999999999
 20
210.83389999999999
 11
136.59329999999999
 21
213.0566
  0
LINE
  8
_0-2_3
  6
CONTINUOUS
 62
  250
 10
163.99729999999999
 20
228.45539999999999
 11
164.52000000000001
 21
223.48279999999999
  0
LINE
  8
_0-2_3
  6
CONTINUOUS
 62
  250
 10
155.9821
 20
207.15109999999998
 11
146.45409999999998
 21
206.14969999999999
  0
LINE
  8
_0-2_3
  6
CONTINUOUS
 62
  250
 10
146.1876
 20
206.32939999999999
 11
145.95350000000001
 21
207.14600000000001
  0
LINE
  8
_0-2_3
  6
CONTINUOUS
 62
  250
 10
156.20529999999999
 20
207.38229999999998
 11
156.2646
 21
208.2297
  0
LINE
  8
_0-2_3
  6
CONTINUOUS
 62
  250
 10
162.02519999999998
 20
228.24809999999999
 11
162.54779999999999
 21
223.27549999999999
  0
LINE
  8
_0-2_3
  6
CONTINUOUS
 62
  250
 10
162.52440000000001
 20
209.09539999999998
 11
156.48779999999999
 21
208.4609
  0
LINE
  8
_0-2_3
  6
CONTINUOUS
 62
  250
 10
155.77429999999998
 20
208.38589999999999
 11
146.40059999999999
 21
207.4007
  0
LINE
  8
_0-2_3
  6
CONTINUOUS
 62
  250
 10
145.68700000000001
 20
207.32569999999998
 11
139.65039999999999
 21
206.69130000000001
  0
LINE
  8
_0-2_3
  6
CONTINUOUS
 62
  250
 10
82.565399999999996
 20
199.97910000000001
 11
82.560400000000001
 21
199.6758
  0
LINE
  8
_0-2_3
  6
CONTINUOUS
 62
  250
 10
82.560400000000001
 20
199.6758
 11
82.558599999999998
 21
199.54859999999999
  0
LINE
  8
_0-2_3
  6
CONTINUOUS
 62
  250
 10
82.558599999999998
 20
199.54859999999999
 11
82.558300000000002
 21
199.39690000000001
  0
LINE
  8
_0-2_3
  6
CONTINUOUS
 62
  250
 10
82.558300000000002
 20
199.39690000000001
 11
82.561400000000006
 21
199.22489999999999
  0
LINE
  8
_0-2_3
  6
CONTINUOUS
 62
  250
 10
82.561400000000006
 20
199.22489999999999
 11
82.569900000000004
 21
199.03669999999999
  0
LINE
  8
_0-2_3
  6
CONTINUOUS
 62
  250
 10
82.569900000000004
 20
199.03669999999999
 11
82.585700000000002
 21
198.83629999999999
  0
LINE
  8
_0-2_3
  6
CONTINUOUS
 62
  250
 10
82.585700000000002
 20
198.83629999999999
 11
82.610799999999997
 21
198.6277
  0
LINE
  8
_0-2_3
  6
CONTINUOUS
 62
  250
 10
82.610799999999997
 20
198.6277
 11
82.647000000000005
 21
198.41509999999999
  0
LINE
  8
_0-2_3
  6
CONTINUOUS
 62
  250
 10
82.647000000000005
 20
198.41509999999999
 11
82.696399999999997
 21
198.20249999999998
  0
LINE
  8
_0-2_3
  6
CONTINUOUS
 62
  250
 10
82.696399999999997
 20
198.20249999999998
 11
82.760199999999997
 21
197.99309999999999
  0
LINE
  8
_0-2_3
  6
CONTINUOUS
 62
  250
 10
82.760199999999997
 20
197.99309999999999
 11
82.837299999999999
 21
197.78730000000001
  0
LINE
  8
_0-2_3
  6
CONTINUOUS
 62
  250
 10
82.837299999999999
 20
197.78730000000001
 11
82.925700000000006
 21
197.58449999999999
  0
LINE
  8
_0-2_3
  6
CONTINUOUS
 62
  250
 10
82.925700000000006
 20
197.58449999999999
 11
83.023499999999998
 21
197.38429999999999
  0
LINE
  8
_0-2_3
  6
CONTINUOUS
 62
  250
 10
83.023499999999998
 20
197.38429999999999
 11
83.128799999999998
 21
197.186
  0
LINE
  8
_0-2_3
  6
CONTINUOUS
 62
  250
 10
83.128799999999998
 20
197.186
 11
83.239800000000002
 21
196.98930000000001
  0
LINE
  8
_0-2_3
  6
CONTINUOUS
 62
  250
 10
83.239800000000002
 20
196.98930000000001
 11
83.354600000000004
 21
196.79359999999999
  0
LINE
  8
_0-2_3
  6
CONTINUOUS
 62
  250
 10
83.354600000000004
 20
196.79359999999999
 11
83.471299999999999
 21
196.59839999999999
  0
LINE
  8
_0-2_3
  6
CONTINUOUS
 62
  250
 10
83.471299999999999
 20
196.59839999999999
 11
83.587999999999993
 21
196.40319999999999
  0
LINE
  8
_0-2_3
  6
CONTINUOUS
 62
  250
 10
83.587999999999993
 20
196.40319999999999
 11
83.702799999999996
 21
196.20750000000001
  0
LINE
  8
_0-2_3
  6
CONTINUOUS
 62
  250
 10
83.702799999999996
 20
196.20750000000001
 11
83.8138
 21
196.01069999999998
  0
LINE
  8
_0-2_3
  6
CONTINUOUS
 62
  250
 10
83.8138
 20
196.01069999999998
 11
83.9191
 21
195.8125
  0
LINE
  8
_0-2_3
  6
CONTINUOUS
 62
  250
 10
83.9191
 20
195.8125
 11
84.016900000000006
 21
195.6123
  0
LINE
  8
_0-2_3
  6
CONTINUOUS
 62
  250
 10
84.016900000000006
 20
195.6123
 11
84.105299999999999
 21
195.4095
  0
LINE
  8
_0-2_3
  6
CONTINUOUS
 62
  250
 10
84.105299999999999
 20
195.4095
 11
84.182400000000001
 21
195.20359999999999
  0
LINE
  8
_0-2_3
  6
CONTINUOUS
 62
  250
 10
84.182400000000001
 20
195.20359999999999
 11
84.246200000000001
 21
194.9943
  0
LINE
  8
_0-2_3
  6
CONTINUOUS
 62
  250
 10
84.246200000000001
 20
194.9943
 11
84.295299999999997
 21
194.78219999999998
  0
LINE
  8
_0-2_3
  6
CONTINUOUS
 62
  250
 10
84.295299999999997
 20
194.78219999999998
 11
84.329400000000006
 21
194.57310000000001
  0
LINE
  8
_0-2_3
  6
CONTINUOUS
 62
  250
 10
84.329400000000006
 20
194.57310000000001
 11
84.348699999999993
 21
194.3742
  0
LINE
  8
_0-2_3
  6
CONTINUOUS
 62
  250
 10
84.348699999999993
 20
194.3742
 11
84.353200000000001
 21
194.19259999999999
  0
LINE
  8
_0-2_3
  6
CONTINUOUS
 62
  250
 10
84.353200000000001
 20
194.19259999999999
 11
84.343100000000006
 21
194.0353
  0
LINE
  8
_0-2_3
  6
CONTINUOUS
 62
  250
 10
84.343100000000006
 20
194.0353
 11
84.3185
 21
193.90960000000001
  0
LINE
  8
_0-2_3
  6
CONTINUOUS
 62
  250
 10
84.3185
 20
193.90960000000001
 11
84.279499999999998
 21
193.82249999999999
  0
LINE
  8
_0-2_3
  6
CONTINUOUS
 62
  250
 10
84.279499999999998
 20
193.82249999999999
 11
84.226200000000005
 21
193.7811
  0
LINE
  8
_0-2_3
  6
CONTINUOUS
 62
  250
 10
84.226200000000005
 20
193.7811
 11
84.159400000000005
 21
193.7903
  0
LINE
  8
_0-2_3
  6
CONTINUOUS
 62
  250
 10
84.159400000000005
 20
193.7903
 11
84.081999999999993
 21
193.84629999999998
  0
LINE
  8
_0-2_3
  6
CONTINUOUS
 62
  250
 10
84.081999999999993
 20
193.84629999999998
 11
83.997799999999998
 21
193.9428
  0
LINE
  8
_0-2_3
  6
CONTINUOUS
 62
  250
 10
83.997799999999998
 20
193.9428
 11
83.910499999999998
 21
194.0739
  0
LINE
  8
_0-2_3
  6
CONTINUOUS
 62
  250
 10
83.910499999999998
 20
194.0739
 11
83.823599999999998
 21
194.23349999999999
  0
LINE
  8
_0-2_3
  6
CONTINUOUS
 62
  250
 10
83.823599999999998
 20
194.23349999999999
 11
83.740799999999993
 21
194.4154
  0
LINE
  8
_0-2_3
  6
CONTINUOUS
 62
  250
 10
83.740799999999993
 20
194.4154
 11
83.665800000000004
 21
194.61349999999998
  0
LINE
  8
_0-2_3
  6
CONTINUOUS
 62
  250
 10
83.665800000000004
 20
194.61349999999998
 11
83.602299999999999
 21
194.82169999999999
  0
LINE
  8
_0-2_3
  6
CONTINUOUS
 62
  250
 10
83.602299999999999
 20
194.82169999999999
 11
83.552899999999993
 21
195.0344
  0
LINE
  8
_0-2_3
  6
CONTINUOUS
 62
  250
 10
83.552899999999993
 20
195.0344
 11
83.516599999999996
 21
195.24700000000001
  0
LINE
  8
_0-2_3
  6
CONTINUOUS
 62
  250
 10
83.516599999999996
 20
195.24700000000001
 11
83.491600000000005
 21
195.4556
  0
LINE
  8
_0-2_3
  6
CONTINUOUS
 62
  250
 10
83.491600000000005
 20
195.4556
 11
83.475800000000006
 21
195.656
  0
LINE
  8
_0-2_3
  6
CONTINUOUS
 62
  250
 10
83.475800000000006
 20
195.656
 11
83.467299999999994
 21
195.8442
  0
LINE
  8
_0-2_3
  6
CONTINUOUS
 62
  250
 10
83.467299999999994
 20
195.8442
 11
83.464200000000005
 21
196.01619999999999
  0
LINE
  8
_0-2_3
  6
CONTINUOUS
 62
  250
 10
83.464200000000005
 20
196.01619999999999
 11
83.464500000000001
 21
196.16779999999999
  0
LINE
  8
_0-2_3
  6
CONTINUOUS
 62
  250
 10
83.464500000000001
 20
196.16779999999999
 11
83.471299999999999
 21
196.59839999999999
  0
LINE
  8
_0-2_3
  6
CONTINUOUS
 62
  250
 10
118.7604
 20
198.10079999999999
 11
119.5823
 21
196.99
  0
LINE
  8
_0-2_3
  6
CONTINUOUS
 62
  250
 10
117.39029999999999
 20
193.6105
 11
101.96089999999999
 21
178.0557
  0
LINE
  8
_0-2_3
  6
CONTINUOUS
 62
  250
 10
99.843199999999995
 20
156.71569999999999
 11
104.01439999999999
 21
158.81819999999999
  0
LINE
  8
_0-2_3
  6
CONTINUOUS
 62
  250
 10
104.1902
 20
162.51920000000001
 11
104.28919999999999
 21
159.27989999999999
  0
LINE
  8
_0-2_3
  6
CONTINUOUS
 62
  250
 10
102.71819999999999
 20
152.53299999999998
 11
102.71819999999999
 21
154.9915
  0
LINE
  8
_0-2_3
  6
CONTINUOUS
 62
  250
 10
103.71819999999999
 20
150.40039999999999
 11
99.843199999999995
 21
150.40039999999999
  0
LINE
  8
_0-2_3
  6
CONTINUOUS
 62
  250
 10
102.89319999999999
 20
150.15039999999999
 11
102.89319999999999
 21
150.40039999999999
  0
LINE
  8
_0-2_3
  6
CONTINUOUS
 62
  250
 10
103.74099999999999
 20
150.15039999999999
 11
99.860600000000005
 21
150.15039999999999
  0
LINE
  8
_0-2_3
  6
CENTER2
 62
  250
 10
78.144100000000008
 20
195.17099999999999
 11
89.246200000000001
 21
198.1457
  0
LINE
  8
_0-2_3
  6
DASHED1
 62
  250
 10
243.34239999999999
 20
234.2107
 11
243.5627
 21
235.45569999999997
  0
LINE
  8
_0-2_3
  6
DASHED1
 62
  250
 10
233.34239999999999
 20
234.2107
 11
233.12219999999999
 21
235.45569999999997
  0
LINE
  8
_0-2_3
  6
DASHED1
 62
  250
 10
224.84239999999999
 20
237.44810000000001
 11
224.84239999999999
 21
255.08080000000001
  0
LINE
  8
_0-2_3
  6
DASHED1
 62
  250
 10
251.84239999999999
 20
255.08080000000001
 11
251.84239999999999
 21
237.44810000000001
  0
LINE
  8
_0-2_3
  6
DASHED1
 62
  250
 10
244.34239999999999
 20
256.15649999999999
 11
232.3298
 21
256.15649999999999
  0
LINE
  8
_0-2_3
  6
DASHED1
 62
  250
 10
244.35509999999999
 20
250.18189999999998
 11
232.3298
 21
250.18189999999998
  0
LINE
  8
_0-2_3
  6
DASHED1
 62
  250
 10
244.35419999999999
 20
250.08100000000001
 11
232.3306
 21
250.08100000000001
  0
LINE
  8
_0-2_3
  6
DASHED1
 62
  250
 10
246.09239999999999
 20
234.71530000000001
 11
246.09239999999999
 21
230.25579999999999
  0
LINE
  8
_0-2_3
  6
DASHED1
 62
  250
 10
230.59239999999999
 20
234.71530000000001
 11
230.59239999999999
 21
230.25579999999999
  0
LINE
  8
_0-2_3
  6
CONTINUOUS
 62
  250
 10
227.84239999999999
 20
119.15059999999999
 11
204.46379999999999
 21
119.15059999999999
  0
LINE
  8
_0-2_3
  6
CONTINUOUS
 62
  250
 10
205.46379999999999
 20
119.15059999999999
 11
205.9814
 21
121.0824
  0
LINE
  8
_0-2_3
  6
CONTINUOUS
 62
  250
 10
205.46379999999999
 20
119.15059999999999
 11
204.9461
 21
121.0824
  0
LINE
  8
_0-2_3
  6
CONTINUOUS
 62
  250
 10
205.9814
 20
121.0824
 11
204.9461
 21
121.0824
  0
LINE
  8
_0-2_3
  6
CONTINUOUS
 62
  250
 10
205.46379999999999
 20
119.15059999999999
 11
205.46379999999999
 21
206.7107
  0
LINE
  8
_0-2_3
  6
CONTINUOUS
 62
  250
 10
205.46379999999999
 20
206.7107
 11
204.9461
 21
204.77889999999999
  0
LINE
  8
_0-2_3
  6
CONTINUOUS
 62
  250
 10
205.46379999999999
 20
206.7107
 11
205.9814
 21
204.77889999999999
  0
LINE
  8
_0-2_3
  6
CONTINUOUS
 62
  250
 10
204.9461
 20
204.77889999999999
 11
205.9814
 21
204.77889999999999
  0
LINE
  8
_0-2_3
  6
CONTINUOUS
 62
  250
 10
237.34239999999999
 20
206.7107
 11
204.46379999999999
 21
206.7107
  0
LINE
  8
_0-2_3
  6
CONTINUOUS
 62
  250
 10
227.84239999999999
 20
119.15059999999999
 11
193.2296
 21
119.15059999999999
  0
LINE
  8
_0-2_3
  6
CONTINUOUS
 62
  250
 10
194.2296
 20
119.15059999999999
 11
194.74729999999999
 21
121.0824
  0
LINE
  8
_0-2_3
  6
CONTINUOUS
 62
  250
 10
194.2296
 20
119.15059999999999
 11
193.71199999999998
 21
121.0824
  0
LINE
  8
_0-2_3
  6
CONTINUOUS
 62
  250
 10
194.74729999999999
 20
121.0824
 11
193.71199999999998
 21
121.0824
  0
LINE
  8
_0-2_3
  6
CONTINUOUS
 62
  250
 10
194.2296
 20
119.15059999999999
 11
194.2296
 21
234.2107
  0
LINE
  8
_0-2_3
  6
CONTINUOUS
 62
  250
 10
194.2296
 20
234.2107
 11
193.71199999999998
 21
232.27889999999999
  0
LINE
  8
_0-2_3
  6
CONTINUOUS
 62
  250
 10
194.2296
 20
234.2107
 11
194.74729999999999
 21
232.27889999999999
  0
LINE
  8
_0-2_3
  6
CONTINUOUS
 62
  250
 10
193.71199999999998
 20
232.27889999999999
 11
194.74729999999999
 21
232.27889999999999
  0
LINE
  8
_0-2_3
  6
CONTINUOUS
 62
  250
 10
237.34239999999999
 20
234.2107
 11
193.2296
 21
234.2107
  0
LINE
  8
_0-2_3
  6
CONTINUOUS
 62
  250
 10
91.218199999999995
 20
100.94639999999999
 11
93.150099999999994
 21
100.42869999999999
  0
LINE
  8
_0-2_3
  6
CONTINUOUS
 62
  250
 10
91.218199999999995
 20
100.94639999999999
 11
93.150099999999994
 21
101.46399999999999
  0
LINE
  8
_0-2_3
  6
CONTINUOUS
 62
  250
 10
93.150099999999994
 20
100.42869999999999
 11
93.150099999999994
 21
101.46399999999999
  0
LINE
  8
_0-2_3
  6
CONTINUOUS
 62
  250
 10
91.218199999999995
 20
100.94639999999999
 11
151.21809999999999
 21
100.94639999999999
  0
LINE
  8
_0-2_3
  6
CONTINUOUS
 62
  250
 10
151.21809999999999
 20
100.94639999999999
 11
149.2862
 21
101.46399999999999
  0
LINE
  8
_0-2_3
  6
CONTINUOUS
 62
  250
 10
151.21809999999999
 20
100.94639999999999
 11
149.2862
 21
100.42869999999999
  0
LINE
  8
_0-2_3
  6
CONTINUOUS
 62
  250
 10
149.2862
 20
101.46399999999999
 11
149.2862
 21
100.42869999999999
  0
LINE
  8
_0-2_3
  6
CONTINUOUS
 62
  250
 10
151.21809999999999
 20
205.65039999999999
 11
151.21809999999999
 21
99.946399999999997
  0
LINE
  8
_0-2_3
  6
CONTINUOUS
 62
  250
 10
114.7531
 20
213.05459999999999
 11
121.8811
 21
216.68659999999999
  0
LINE
  8
_0-2_3
  6
CONTINUOUS
 62
  250
 10
114.98009999999999
 20
212.60910000000001
 11
122.10809999999999
 21
216.24110000000001
  0
LINE
  8
_0-2_3
  6
CENTER2
 62
  250
 10
148.5789
 20
231.76069999999998
 11
151.50819999999998
 21
203.8898
  0
LINE
  8
_0-2_3
  6
CONTINUOUS
 62
  250
 10
151.21809999999999
 20
205.65039999999999
 11
151.21809999999999
 21
163.29169999999999
  0
LINE
  8
_0-2_3
  6
CONTINUOUS
 62
  250
 10
151.61279999999999
 20
202.89529999999999
 11
155.7503
 21
163.5292
  0
LINE
  8
_0-2_3
  6
CONTINUOUS
 62
  250
 10
151.21809999999999
 20
164.29169999999999
 11
149.29849999999998
 21
164.85329999999999
  0
LINE
  8
_0-2_3
  6
CONTINUOUS
 62
  250
 10
151.21809999999999
 20
164.29169999999999
 11
149.2749
 21
163.81819999999999
  0
LINE
  8
_0-2_3
  6
CONTINUOUS
 62
  250
 10
149.29849999999998
 20
164.85329999999999
 11
149.2749
 21
163.81819999999999
  0
LINE
  8
_0-2_3
  6
CONTINUOUS
 62
  250
 10
155.6458
 20
164.52369999999999
 11
157.6278
 21
164.256
  0
LINE
  8
_0-2_3
  6
CONTINUOUS
 62
  250
 10
155.6458
 20
164.52369999999999
 11
157.49610000000001
 21
165.28290000000001
  0
LINE
  8
_0-2_3
  6
CONTINUOUS
 62
  250
 10
157.6278
 20
164.256
 11
157.49610000000001
 21
165.28290000000001
  0
LINE
  8
_0-2_3
  6
CONTINUOUS
 62
  250
 10
77.468199999999995
 20
119.1504
 11
45.485600000000005
 21
119.1504
  0
LINE
  8
_0-2_3
  6
CONTINUOUS
 62
  250
 10
46.485600000000005
 20
119.1504
 11
47.003299999999995
 21
121.0822
  0
LINE
  8
_0-2_3
  6
CONTINUOUS
 62
  250
 10
46.485600000000005
 20
119.1504
 11
45.967999999999989
 21
121.0822
  0
LINE
  8
_0-2_3
  6
CONTINUOUS
 62
  250
 10
47.003299999999995
 20
121.0822
 11
45.967999999999989
 21
121.0822
  0
LINE
  8
_0-2_3
  6
CONTINUOUS
 62
  250
 10
46.485600000000005
 20
119.1504
 11
46.485600000000005
 21
230.84749999999999
  0
LINE
  8
_0-2_3
  6
CONTINUOUS
 62
  250
 10
46.485600000000005
 20
230.84749999999999
 11
45.967999999999989
 21
228.91570000000001
  0
LINE
  8
_0-2_3
  6
CONTINUOUS
 62
  250
 10
46.485600000000005
 20
230.84749999999999
 11
47.003299999999995
 21
228.91570000000001
  0
LINE
  8
_0-2_3
  6
CONTINUOUS
 62
  250
 10
45.967999999999989
 20
228.91570000000001
 11
47.003299999999995
 21
228.91570000000001
  0
LINE
  8
_0-2_3
  6
CONTINUOUS
 62
  250
 10
153.98109999999999
 20
230.84749999999999
 11
45.485600000000005
 21
230.84749999999999
  0
LINE
  8
_0-2_3
  6
CONTINUOUS
 62
  250
 10
72.718199999999995
 20
188.0985
 11
72.718199999999995
 21
216.80129999999999
  0
LINE
  8
_0-2_3
  6
CONTINUOUS
 62
  250
 10
72.718199999999995
 20
215.80129999999999
 11
74.650100000000009
 21
215.28370000000001
  0
LINE
  8
_0-2_3
  6
CONTINUOUS
 62
  250
 10
72.718199999999995
 20
215.80129999999999
 11
74.650100000000009
 21
216.31900000000001
  0
LINE
  8
_0-2_3
  6
CONTINUOUS
 62
  250
 10
74.650100000000009
 20
215.28370000000001
 11
74.650100000000009
 21
216.31900000000001
  0
LINE
  8
_0-2_3
  6
CONTINUOUS
 62
  250
 10
72.718199999999995
 20
215.80129999999999
 11
91.218199999999995
 21
215.80129999999999
  0
LINE
  8
_0-2_3
  6
CONTINUOUS
 62
  250
 10
91.218199999999995
 20
215.80129999999999
 11
89.2864
 21
216.31900000000001
  0
LINE
  8
_0-2_3
  6
CONTINUOUS
 62
  250
 10
91.218199999999995
 20
215.80129999999999
 11
89.2864
 21
215.28370000000001
  0
LINE
  8
_0-2_3
  6
CONTINUOUS
 62
  250
 10
89.2864
 20
216.31900000000001
 11
89.2864
 21
215.28370000000001
  0
LINE
  8
_0-2_3
  6
CONTINUOUS
 62
  250
 10
91.218199999999995
 20
202.39289999999999
 11
91.218199999999995
 21
216.80129999999999
  0
LINE
  8
_0-2_3
  6
CONTINUOUS
 62
  250
 10
303.09239999999999
 20
119.15059999999999
 11
359.17250000000001
 21
119.15059999999999
  0
LINE
  8
_0-2_3
  6
CONTINUOUS
 62
  250
 10
358.17250000000001
 20
119.15059999999999
 11
358.69010000000002
 21
121.0824
  0
LINE
  8
_0-2_3
  6
CONTINUOUS
 62
  250
 10
358.17250000000001
 20
119.15059999999999
 11
357.65480000000002
 21
121.0824
  0
LINE
  8
_0-2_3
  6
CONTINUOUS
 62
  250
 10
358.69010000000002
 20
121.0824
 11
357.65480000000002
 21
121.0824
  0
LINE
  8
_0-2_3
  6
CONTINUOUS
 62
  250
 10
358.17250000000001
 20
119.15059999999999
 11
358.17250000000001
 21
198.08969999999999
  0
LINE
  8
_0-2_3
  6
CONTINUOUS
 62
  250
 10
358.17250000000001
 20
198.08969999999999
 11
357.65480000000002
 21
196.1578
  0
LINE
  8
_0-2_3
  6
CONTINUOUS
 62
  250
 10
358.17250000000001
 20
198.08969999999999
 11
358.69010000000002
 21
196.1578
  0
LINE
  8
_0-2_3
  6
CONTINUOUS
 62
  250
 10
357.65480000000002
 20
196.1578
 11
358.69010000000002
 21
196.1578
  0
LINE
  8
_0-2_3
  6
CONTINUOUS
 62
  250
 10
290.34239999999999
 20
198.08969999999999
 11
359.17250000000001
 21
198.08969999999999
  0
LINE
  8
_0-2_3
  6
CONTINUOUS
 62
  250
 10
296.09239999999999
 20
75.900599999999997
 11
359.17250000000001
 21
75.900599999999997
  0
LINE
  8
_0-2_3
  6
CONTINUOUS
 62
  250
 10
358.17250000000001
 20
75.900599999999997
 11
358.69010000000002
 21
77.832400000000006
  0
LINE
  8
_0-2_3
  6
CONTINUOUS
 62
  250
 10
358.17250000000001
 20
75.900599999999997
 11
357.65480000000002
 21
77.832400000000006
  0
LINE
  8
_0-2_3
  6
CONTINUOUS
 62
  250
 10
358.69010000000002
 20
77.832400000000006
 11
357.65480000000002
 21
77.832400000000006
  0
LINE
  8
_0-2_3
  6
CONTINUOUS
 62
  250
 10
358.17250000000001
 20
75.900599999999997
 11
358.17250000000001
 21
119.15059999999999
  0
LINE
  8
_0-2_3
  6
CONTINUOUS
 62
  250
 10
358.17250000000001
 20
119.15059999999999
 11
357.65480000000002
 21
117.21869999999999
  0
LINE
  8
_0-2_3
  6
CONTINUOUS
 62
  250
 10
358.17250000000001
 20
119.15059999999999
 11
358.69010000000002
 21
117.21869999999999
  0
LINE
  8
_0-2_3
  6
CONTINUOUS
 62
  250
 10
357.65480000000002
 20
117.21869999999999
 11
358.69010000000002
 21
117.21869999999999
  0
LINE
  8
_0-2_3
  6
CONTINUOUS
 62
  250
 10
303.09239999999999
 20
119.15059999999999
 11
359.17250000000001
 21
119.15059999999999
  0
LINE
  8
_0-2_3
  6
CONTINUOUS
 62
  250
 10
229.86770000000001
 20
153.15059999999999
 11
246.81720000000001
 21
153.15059999999999
  0
LINE
  8
_0-2_3
  6
CONTINUOUS
 62
  250
 10
65.718199999999995
 20
164.81989999999998
 11
65.718199999999995
 21
166.3914
  0
LINE
  8
_0-2_3
  6
CONTINUOUS
 62
  250
 10
65.718199999999995
 20
165.3914
 11
63.786399999999986
 21
165.90909999999999
  0
LINE
  8
_0-2_3
  6
CONTINUOUS
 62
  250
 10
65.718199999999995
 20
165.3914
 11
63.786399999999986
 21
164.87379999999998
  0
LINE
  8
_0-2_3
  6
CONTINUOUS
 62
  250
 10
63.786399999999986
 20
165.90909999999999
 11
63.786399999999986
 21
164.87379999999998
  0
LINE
  8
_0-2_3
  6
CONTINUOUS
 62
  250
 10
48.218199999999995
 20
165.3914
 11
84.718199999999995
 21
165.3914
  0
LINE
  8
_0-2_3
  6
CONTINUOUS
 62
  250
 10
79.718199999999995
 20
165.3914
 11
81.650100000000009
 21
164.87379999999998
  0
LINE
  8
_0-2_3
  6
CONTINUOUS
 62
  250
 10
79.718199999999995
 20
165.3914
 11
81.650100000000009
 21
165.90909999999999
  0
LINE
  8
_0-2_3
  6
CONTINUOUS
 62
  250
 10
81.650100000000009
 20
164.87379999999998
 11
81.650100000000009
 21
165.90909999999999
  0
LINE
  8
_0-2_3
  6
CONTINUOUS
 62
  250
 10
79.718199999999995
 20
164.81989999999998
 11
79.718199999999995
 21
166.3914
  0
LINE
  8
_0-2_3
  6
CONTINUOUS
 62
  250
 10
99.693200000000004
 20
153.15039999999999
 11
80.368200000000001
 21
153.15039999999999
  0
LINE
  8
_0-2_3
  6
CONTINUOUS
 62
  250
 10
246.96719999999999
 20
153.3006
 11
246.96719999999999
 21
190.26670000000001
  0
LINE
  8
_0-2_3
  6
CONTINUOUS
 62
  250
 10
246.28849999999999
 20
207.2312
 11
246.96719999999999
 21
190.26670000000001
  0
LINE
  8
_0-2_3
  6
CONTINUOUS
 62
  250
 10
229.7177
 20
153.3006
 11
229.7177
 21
190.26670000000001
  0
LINE
  8
_0-2_3
  6
CONTINUOUS
 62
  250
 10
230.39639999999999
 20
207.2312
 11
229.7177
 21
190.26670000000001
  0
LINE
  8
_0-2_3
  6
CONTINUOUS
 62
  250
 10
127.78199999999999
 20
205.10309999999998
 11
110.4538
 21
195.88949999999999
  0
LINE
  8
_0-2_3
  6
CONTINUOUS
 62
  250
 10
109.6209
 20
209.31749999999999
 11
122.3341
 21
215.79519999999999
  0
LINE
  8
_0-2_3
  6
CONTINUOUS
 62
  250
 10
108.8294
 20
208.2672
 11
108.8182
 21
208.20929999999998
  0
LINE
  8
_0-2_3
  6
CONTINUOUS
 62
  250
 10
99.843199999999995
 20
153.30039999999999
 11
99.843199999999995
 21
178.2306
  0
LINE
  8
_0-2_3
  6
CONTINUOUS
 62
  250
 10
82.593199999999995
 20
153.30039999999999
 11
82.593199999999995
 21
185.4839
  0
LINE
  8
_0-2_3
  6
CENTER2
 62
  250
 10
91.218199999999995
 20
175.1937
 11
91.218199999999995
 21
202.29759999999998
  0
LINE
  8
_0-2_3
  6
CONTINUOUS
 62
  250
 10
82.743200000000001
 20
153.15039999999999
 11
99.693200000000004
 21
153.15039999999999
  0
LINE
  8
_0-2_3
  6
CONTINUOUS
 62
  250
 10
88.053299999999993
 20
194.3939
 11
104.8609
 21
202.95779999999999
  0
LINE
  8
_0-2_3
  6
CONTINUOUS
 62
  250
 10
82.018199999999993
 20
134.90039999999999
 11
82.018199999999993
 21
134.65039999999999
  0
LINE
  8
_0-2_3
  6
CONTINUOUS
 62
  250
 10
100.41819999999999
 20
134.65029999999998
 11
100.41819999999999
 21
134.90039999999999
  0
LINE
  8
_0-2_3
  6
CONTINUOUS
 62
  250
 10
81.138200000000011
 20
134.90039999999999
 11
101.29819999999999
 21
134.90039999999999
  0
LINE
  8
_0-2_3
  6
CONTINUOUS
 62
  250
 10
79.968199999999995
 20
141.4754
 11
80.218199999999995
 21
141.4754
  0
LINE
  8
_0-2_3
  6
CONTINUOUS
 62
  250
 10
80.218199999999995
 20
153.00040000000001
 11
80.218199999999995
 21
151.8254
  0
LINE
  8
_0-2_3
  6
CONTINUOUS
 62
  250
 10
80.218199999999995
 20
141.4754
 11
80.218199999999995
 21
139.90039999999999
  0
LINE
  8
_0-2_3
  6
CONTINUOUS
 62
  250
 10
79.968199999999995
 20
151.8254
 11
80.118200000000001
 21
151.8254
  0
LINE
  8
_0-2_3
  6
CONTINUOUS
 62
  250
 10
80.368200000000001
 20
153.15039999999999
 11
99.693200000000004
 21
153.15039999999999
  0
LINE
  8
_0-2_3
  6
CONTINUOUS
 62
  250
 10
80.218199999999995
 20
151.8254
 11
80.218199999999995
 21
141.4754
  0
LINE
  8
_0-2_3
  6
CONTINUOUS
 62
  250
 10
80.118200000000001
 20
151.8254
 11
80.218199999999995
 21
151.92539999999999
  0
LINE
  8
_0-2_3
  6
CONTINUOUS
 62
  250
 10
101.44819999999999
 20
135.90039999999999
 11
101.44819999999999
 21
135.05039999999999
  0
LINE
  8
_0-2_3
  6
CONTINUOUS
 62
  250
 10
80.988200000000006
 20
135.90039999999999
 11
80.988200000000006
 21
135.05039999999999
  0
LINE
  8
_0-2_3
  6
CONTINUOUS
 62
  250
 10
81.218199999999995
 20
151.8254
 11
81.218199999999995
 21
139.90039999999999
  0
LINE
  8
_0-2_3
  6
CONTINUOUS
 62
  250
 10
80.218199999999995
 20
139.90039999999999
 11
81.218199999999995
 21
139.90039999999999
  0
LINE
  8
_0-2_3
  6
CONTINUOUS
 62
  250
 10
102.46819999999999
 20
136.40039999999999
 11
101.94819999999999
 21
136.40039999999999
  0
LINE
  8
_0-2_3
  6
CONTINUOUS
 62
  250
 10
102.46819999999999
 20
139.90039999999999
 11
101.8187
 21
139.90039999999999
  0
LINE
  8
_0-2_3
  6
CONTINUOUS
 62
  250
 10
99.843199999999995
 20
153.00040000000001
 11
99.843199999999995
 21
150.15629999999998
  0
LINE
  8
_0-2_3
  6
CONTINUOUS
 62
  250
 10
247.54239999999998
 20
134.90039999999999
 11
247.54239999999998
 21
134.65059999999999
  0
LINE
  8
_0-2_3
  6
CONTINUOUS
 62
  250
 10
246.81739999999999
 20
153.15039999999999
 11
238.34239999999999
 21
153.15039999999999
  0
LINE
  8
_0-2_3
  6
CONTINUOUS
 62
  250
 10
248.42240000000001
 20
134.90039999999999
 11
238.34239999999999
 21
134.90039999999999
  0
LINE
  8
_0-2_3
  6
CONTINUOUS
 62
  250
 10
248.57240000000001
 20
137.83359999999998
 11
248.57240000000001
 21
135.05039999999999
  0
LINE
  8
_0-2_3
  6
CONTINUOUS
 62
  250
 10
239.09239999999999
 20
139.90039999999999
 11
239.09239999999999
 21
136.40039999999999
  0
LINE
  8
_0-2_3
  6
CONTINUOUS
 62
  250
 10
239.09239999999999
 20
139.90039999999999
 11
238.34239999999999
 21
139.90039999999999
  0
LINE
  8
_0-2_3
  6
CONTINUOUS
 62
  250
 10
239.09239999999999
 20
136.40039999999999
 11
238.34239999999999
 21
136.40039999999999
  0
LINE
  8
_0-2_3
  6
CONTINUOUS
 62
  250
 10
246.96739999999999
 20
153.00040000000001
 11
246.96739999999999
 21
150.40039999999999
  0
LINE
  8
_0-2_3
  6
CONTINUOUS
 62
  250
 10
229.1424
 20
134.90039999999999
 11
229.1424
 21
134.65059999999999
  0
LINE
  8
_0-2_3
  6
CONTINUOUS
 62
  250
 10
229.8674
 20
153.15039999999999
 11
238.34239999999999
 21
153.15039999999999
  0
LINE
  8
_0-2_3
  6
CONTINUOUS
 62
  250
 10
228.26240000000001
 20
134.90039999999999
 11
238.34239999999999
 21
134.90039999999999
  0
LINE
  8
_0-2_3
  6
CONTINUOUS
 62
  250
 10
228.1124
 20
137.83359999999998
 11
228.1124
 21
135.05039999999999
  0
LINE
  8
_0-2_3
  6
CONTINUOUS
 62
  250
 10
237.59239999999999
 20
139.90039999999999
 11
237.59239999999999
 21
136.40039999999999
  0
LINE
  8
_0-2_3
  6
CONTINUOUS
 62
  250
 10
237.59239999999999
 20
139.90039999999999
 11
238.34239999999999
 21
139.90039999999999
  0
LINE
  8
_0-2_3
  6
CONTINUOUS
 62
  250
 10
237.59239999999999
 20
136.40039999999999
 11
238.34239999999999
 21
136.40039999999999
  0
LINE
  8
_0-2_3
  6
CONTINUOUS
 62
  250
 10
229.71739999999999
 20
153.00040000000001
 11
229.71739999999999
 21
150.40039999999999
  0
LINE
  8
_0-2_3
  6
CONTINUOUS
 62
  250
 10
241.81759999999999
 20
129.65059999999999
 11
284.76980000000003
 21
129.65059999999999
  0
LINE
  8
_0-2_3
  6
CONTINUOUS
 62
  250
 10
301.83359999999998
 20
150.15059999999999
 11
276.85129999999998
 21
150.15059999999999
  0
LINE
  8
_0-2_3
  6
CONTINUOUS
 62
  250
 10
303.09239999999999
 20
119.40059999999999
 11
227.84239999999999
 21
119.40059999999999
  0
LINE
  8
_0-2_3
  6
CONTINUOUS
 62
  250
 10
303.09239999999999
 20
119.40059999999999
 11
302.76690000000002
 21
138.05090000000001
  0
LINE
  8
_0-2_3
  6
CONTINUOUS
 62
  250
 10
227.84239999999999
 20
119.40059999999999
 11
228.10609999999999
 21
134.50319999999999
  0
LINE
  8
_0-2_3
  6
CONTINUOUS
 62
  250
 10
271.44049999999998
 20
134.65059999999999
 11
228.256
 21
134.65059999999999
  0
LINE
  8
_0-2_3
  6
CONTINUOUS
 62
  250
 10
246.34239999999999
 20
119.40059999999999
 11
246.34239999999999
 21
119.15059999999999
  0
LINE
  8
_0-2_3
  6
CONTINUOUS
 62
  250
 10
230.34239999999999
 20
119.40059999999999
 11
230.34239999999999
 21
119.15059999999999
  0
LINE
  8
_0-2_3
  6
CONTINUOUS
 62
  250
 10
230.34239999999999
 20
119.15059999999999
 11
246.34239999999999
 21
119.15059999999999
  0
LINE
  8
_0-2_3
  6
CONTINUOUS
 62
  250
 10
278.34239999999999
 20
119.15059999999999
 11
300.34239999999999
 21
119.15059999999999
  0
LINE
  8
_0-2_3
  6
CONTINUOUS
 62
  250
 10
278.34239999999999
 20
119.15059999999999
 11
278.34239999999999
 21
119.40059999999999
  0
LINE
  8
_0-2_3
  6
CONTINUOUS
 62
  250
 10
300.34239999999999
 20
119.15059999999999
 11
300.34239999999999
 21
119.40059999999999
  0
LINE
  8
_0-2_3
  6
CONTINUOUS
 62
  250
 10
299.09239999999999
 20
117.65059999999999
 11
299.09239999999999
 21
119.15059999999999
  0
LINE
  8
_0-2_3
  6
CONTINUOUS
 62
  250
 10
279.59239999999999
 20
117.65059999999999
 11
279.59239999999999
 21
119.15059999999999
  0
LINE
  8
_0-2_3
  6
CONTINUOUS
 62
  250
 10
248.09239999999999
 20
119.15059999999999
 11
248.09239999999999
 21
117.65059999999999
  0
LINE
  8
_0-2_3
  6
CONTINUOUS
 62
  250
 10
228.59239999999999
 20
119.15059999999999
 11
228.59239999999999
 21
117.65059999999999
  0
LINE
  8
_0-2_3
  6
CONTINUOUS
 62
  250
 10
228.59239999999999
 20
117.65059999999999
 11
248.09239999999999
 21
117.65059999999999
  0
LINE
  8
_0-2_3
  6
CONTINUOUS
 62
  250
 10
279.59239999999999
 20
117.65059999999999
 11
299.09239999999999
 21
117.65059999999999
  0
LINE
  8
_0-2_3
  6
CONTINUOUS
 62
  250
 10
248.09239999999999
 20
119.15059999999999
 11
228.59239999999999
 21
119.15059999999999
  0
LINE
  8
_0-2_3
  6
CONTINUOUS
 62
  250
 10
81.180900000000008
 20
134.65039999999999
 11
101.27049999999999
 21
134.65029999999998
  0
LINE
  8
_0-2_3
  6
CONTINUOUS
 62
  250
 10
80.718199999999995
 20
119.4004
 11
80.980999999999994
 21
134.4538
  0
LINE
  8
_0-2_3
  6
CONTINUOUS
 62
  250
 10
101.4555
 20
134.45359999999999
 11
101.71819999999999
 21
119.4004
  0
LINE
  8
_0-2_3
  6
CONTINUOUS
 62
  250
 10
104.96819999999999
 20
119.4004
 11
104.63689999999999
 21
138.38139999999998
  0
LINE
  8
_0-2_3
  6
CONTINUOUS
 62
  250
 10
104.96819999999999
 20
119.4004
 11
77.468199999999995
 21
119.4004
  0
LINE
  8
_0-2_3
  6
CONTINUOUS
 62
  250
 10
77.468199999999995
 20
119.4004
 11
77.799499999999994
 21
138.38139999999998
  0
LINE
  8
_0-2_3
  6
CONTINUOUS
 62
  250
 10
99.218199999999995
 20
119.4004
 11
99.218199999999995
 21
119.1504
  0
LINE
  8
_0-2_3
  6
CONTINUOUS
 62
  250
 10
83.218199999999995
 20
119.4004
 11
83.218199999999995
 21
119.1504
  0
LINE
  8
_0-2_3
  6
CONTINUOUS
 62
  250
 10
83.218199999999995
 20
119.1504
 11
99.218199999999995
 21
119.1504
  0
LINE
  8
_0-2_3
  6
CONTINUOUS
 62
  250
 10
100.96819999999999
 20
119.1504
 11
100.96819999999999
 21
117.6504
  0
LINE
  8
_0-2_3
  6
CONTINUOUS
 62
  250
 10
81.468199999999995
 20
119.1504
 11
81.468199999999995
 21
117.6504
  0
LINE
  8
_0-2_3
  6
CONTINUOUS
 62
  250
 10
81.468199999999995
 20
117.6504
 11
100.96819999999999
 21
117.6504
  0
LINE
  8
_0-2_3
  6
CONTINUOUS
 62
  250
 10
100.96819999999999
 20
119.1504
 11
81.468199999999995
 21
119.1504
  0
LINE
  8
_0-2_3
  6
CONTINUOUS
 62
  250
 10
85.593199999999995
 20
101.15059999999999
 11
64.333799999999996
 21
101.15059999999999
  0
LINE
  8
_0-2_3
  6
CONTINUOUS
 62
  250
 10
65.333799999999996
 20
101.15059999999999
 11
65.851400000000012
 21
103.0824
  0
LINE
  8
_0-2_3
  6
CONTINUOUS
 62
  250
 10
65.333799999999996
 20
101.15059999999999
 11
64.816100000000005
 21
103.0824
  0
LINE
  8
_0-2_3
  6
CONTINUOUS
 62
  250
 10
65.851400000000012
 20
103.0824
 11
64.816100000000005
 21
103.0824
  0
LINE
  8
_0-2_3
  6
CONTINUOUS
 62
  250
 10
65.333799999999996
 20
101.15059999999999
 11
65.333799999999996
 21
119.1504
  0
LINE
  8
_0-2_3
  6
CONTINUOUS
 62
  250
 10
65.333799999999996
 20
119.1504
 11
64.816100000000005
 21
117.2185
  0
LINE
  8
_0-2_3
  6
CONTINUOUS
 62
  250
 10
65.333799999999996
 20
119.1504
 11
65.851400000000012
 21
117.2185
  0
LINE
  8
_0-2_3
  6
CONTINUOUS
 62
  250
 10
64.816100000000005
 20
117.2185
 11
65.851400000000012
 21
117.2185
  0
LINE
  8
_0-2_3
  6
CONTINUOUS
 62
  250
 10
82.218199999999995
 20
119.1504
 11
64.333799999999996
 21
119.1504
  0
LINE
  8
_0-2_3
  6
CONTINUOUS
 62
  250
 10
324.21739999999999
 20
139.14869999999999
 11
324.21739999999999
 21
133.14869999999999
  0
LINE
  8
_0-2_3
  6
CONTINUOUS
 62
  250
 10
337.21739999999999
 20
139.14869999999999
 11
337.21739999999999
 21
133.14869999999999
  0
LINE
  8
_0-2_3
  6
CONTINUOUS
 62
  250
 10
324.21739999999999
 20
139.14869999999999
 11
337.21739999999999
 21
139.14869999999999
  0
LINE
  8
_0-2_3
  6
CONTINUOUS
 62
  250
 10
324.21739999999999
 20
133.14869999999999
 11
337.21739999999999
 21
133.14869999999999
  0
LINE
  8
_0-2_3
  6
CONTINUOUS
 62
  250
 10
301.87470000000001
 20
125.9629
 11
319.9968
 21
135.90620000000001
  0
LINE
  8
_0-2_3
  6
CONTINUOUS
 62
  250
 10
319.9968
 20
135.90620000000001
 11
324.12450000000001
 21
135.90620000000001
  0
LINE
  8
_0-2_3
  6
CONTINUOUS
 62
  250
 10
303.56839999999999
 20
126.89209999999999
 11
303.31939999999997
 21
127.346
  0
LINE
  8
_0-2_3
  6
CONTINUOUS
 62
  250
 10
303.31939999999997
 20
127.346
 11
301.87470000000001
 21
125.9629
  0
LINE
  8
_0-2_3
  6
CONTINUOUS
 62
  250
 10
301.87470000000001
 20
125.9629
 11
303.81740000000002
 21
126.43829999999999
  0
LINE
  8
_0-2_3
  6
CONTINUOUS
 62
  250
 10
303.81740000000002
 20
126.43829999999999
 11
303.56839999999999
 21
126.89209999999999
  0
LINE
  8
_0-2_3
  6
CONTINUOUS
 62
  250
 10
302.7647
 20
138.17109999999999
 11
314.51030000000002
 21
149.60249999999999
  0
LINE
  8
_0-2_3
  6
CONTINUOUS
 62
  250
 10
314.51030000000002
 20
149.60249999999999
 11
319.04529999999999
 21
149.60249999999999
  0
LINE
  8
_0-2_3
  6
CONTINUOUS
 62
  250
 10
304.1492
 20
139.51849999999998
 11
303.78809999999998
 21
139.88949999999999
  0
LINE
  8
_0-2_3
  6
CONTINUOUS
 62
  250
 10
303.78809999999998
 20
139.88949999999999
 11
302.7647
 21
138.17109999999999
  0
LINE
  8
_0-2_3
  6
CONTINUOUS
 62
  250
 10
302.7647
 20
138.17109999999999
 11
304.51019999999999
 21
139.14760000000001
  0
LINE
  8
_0-2_3
  6
CONTINUOUS
 62
  250
 10
304.51019999999999
 20
139.14760000000001
 11
304.1492
 21
139.51849999999998
  0
LINE
  8
_0-2_3
  6
DASHED1
 62
  250
 10
288.84239999999999
 20
121.41429999999999
 11
295.34210000000001
 21
121.41429999999999
  0
LINE
  8
_0-2_3
  6
DASHED1
 62
  250
 10
288.84239999999999
 20
127.41429999999999
 11
295.34210000000001
 21
127.41429999999999
  0
LINE
  8
_0-2_3
  6
DASHED1
 62
  250
 10
288.84239999999999
 20
127.41429999999999
 11
288.84239999999999
 21
121.41429999999999
  0
LINE
  8
_0-2_3
  6
DASHED1
 62
  250
 10
301.84239999999999
 20
121.41429999999999
 11
295.34280000000001
 21
121.41429999999999
  0
LINE
  8
_0-2_3
  6
DASHED1
 62
  250
 10
301.84239999999999
 20
127.41429999999999
 11
295.34280000000001
 21
127.41429999999999
  0
LINE
  8
_0-2_3
  6
DASHED1
 62
  250
 10
301.84239999999999
 20
127.41429999999999
 11
301.84239999999999
 21
121.41429999999999
  0
ARC
  8
_0-2_3
  6
CONTINUOUS
 62
  250
 10
298.96159999999997
 20
149.5634
 40
3
 50
16.205000000000001
 51
41.298000000000008
  0
ARC
  8
_0-2_3
  6
CONTINUOUS
 62
  250
 10
276.34239999999999
 20
152.52909999999999
 40
1.5
 50
318.94300000000009
 51
336.46000000000003
  0
ARC
  8
_0-2_3
  6
CONTINUOUS
 62
  250
 10
302.34239999999999
 20
152.53319999999999
 40
1.5
 50
203.69600000000002
 51
221.29800000000005
  0
ARC
  8
_0-2_3
  6
CONTINUOUS
 62
  250
 10
228.256
 20
134.50059999999999
 40
0.1499999999999999
 50
90.000000000000028
 51
179.00000000000005
  0
ARC
  8
_0-2_3
  6
CONTINUOUS
 62
  250
 10
245.5027
 20
110.8006
 40
2.5
 50
270.00000000000005
 51
293.55600000000004
  0
ARC
  8
_0-2_3
  6
CONTINUOUS
 62
  250
 10
245.5027
 20
106.90059999999999
 40
2.5
 50
66.444000000000016
 51
90.000000000000028
  0
ARC
  8
_0-2_3
  6
CONTINUOUS
 62
  250
 10
246.70170000000001
 20
108.0506
 40
0.5
 50
90.000000000000028
 51
113.55600000000002
  0
ARC
  8
_0-2_3
  6
CONTINUOUS
 62
  250
 10
246.70170000000001
 20
109.65059999999999
 40
0.5
 50
246.44400000000001
 51
270.00000000000005
  0
ARC
  8
_0-2_3
  6
CONTINUOUS
 62
  250
 10
238.34239999999999
 20
117.42749999999999
 40
12.376899999999999
 50
270.00000000000005
 51
286.42600000000004
  0
ARC
  8
_0-2_3
  6
CONTINUOUS
 62
  250
 10
243.52989999999999
 20
108.1216
 40
3.0710000000000001
 50
236.66800000000006
 51
303.33200000000005
  0
ARC
  8
_0-2_3
  6
CONTINUOUS
 62
  250
 10
238.34239999999999
 20
116.4256
 40
8.125
 50
270.00000000000005
 51
284.25000000000005
  0
ARC
  8
_0-2_3
  6
CONTINUOUS
 62
  250
 10
242.46739999999999
 20
116.4256
 40
8.125
 50
262.93000000000006
 51
284.25000000000011
  0
ARC
  8
_0-2_3
  6
CONTINUOUS
 62
  250
 10
240.46739999999999
 20
116.4256
 40
8.125
 50
262.4860000000001
 51
284.25000000000011
  0
ARC
  8
_0-2_3
  6
CONTINUOUS
 62
  250
 10
244.46739999999999
 20
116.4256
 40
8.125
 50
262.93000000000006
 51
270.00000000000005
  0
ARC
  8
_0-2_3
  6
CONTINUOUS
 62
  250
 10
238.34239999999999
 20
101.27559999999999
 40
8.125
 50
75.750000000000014
 51
90.000000000000028
  0
ARC
  8
_0-2_3
  6
CONTINUOUS
 62
  250
 10
240.46739999999999
 20
101.27559999999999
 40
8.125
 50
75.750000000000014
 51
97.514000000000024
  0
ARC
  8
_0-2_3
  6
CONTINUOUS
 62
  250
 10
242.46739999999999
 20
101.27559999999999
 40
8.125
 50
75.750000000000014
 51
97.070000000000021
  0
ARC
  8
_0-2_3
  6
CONTINUOUS
 62
  250
 10
244.46739999999999
 20
101.27559999999999
 40
8.125
 50
90.000000000000028
 51
97.070000000000021
  0
ARC
  8
_0-2_3
  6
CONTINUOUS
 62
  250
 10
240.75560000000001
 20
93.275599999999997
 40
4.5
 50
320.29100000000005
 51
39.709000000000088
  0
ARC
  8
_0-2_3
  6
CONTINUOUS
 62
  250
 10
237.2049
 20
78.900599999999997
 40
7.5125000000000001
 50
336.46300000000007
 51
23.537000000000062
  0
LINE
  8
_0-2_3
  6
CONTINUOUS
 62
  250
 10
243.75509999999999
 20
95.599599999999995
 11
243.75509999999999
 21
95.599599999999995
  0
LINE
  8
_0-2_3
  6
CONTINUOUS
 62
  250
 10
243.75509999999999
 20
95.599599999999995
 11
243.50643581027554
 21
95.564293218000372
  0
LINE
  8
_0-2_3
  6
CONTINUOUS
 62
  250
 10
243.50643581027554
 20
95.564293218000372
 11
243.26532715612572
 21
95.459445650706442
  0
LINE
  8
_0-2_3
  6
CONTINUOUS
 62
  250
 10
243.26532715612572
 20
95.459445650706442
 11
243.03910000199999
 21
95.288243038395037
  0
LINE
  8
_0-2_3
  6
CONTINUOUS
 62
  250
 10
243.03910000199999
 20
95.288243038395037
 11
242.83462814550003
 21
95.055887285808495
  0
LINE
  8
_0-2_3
  6
CONTINUOUS
 62
  250
 10
242.83462814550003
 20
95.055887285808495
 11
242.6581243605178
 21
94.769438404911511
  0
LINE
  8
_0-2_3
  6
CONTINUOUS
 62
  250
 10
242.6581243605178
 20
94.769438404911511
 11
242.51495162524477
 21
94.437600000000003
  0
LINE
  8
_0-2_3
  6
CONTINUOUS
 62
  250
 10
242.51495162524477
 20
94.437600000000003
 11
242.40946017079335
 21
94.070454813088844
  0
LINE
  8
_0-2_3
  6
CONTINUOUS
 62
  250
 10
242.40946017079335
 20
94.070454813088844
 11
242.34485530162575
 21
93.679158364897944
  0
LINE
  8
_0-2_3
  6
CONTINUOUS
 62
  250
 10
242.34485530162575
 20
93.679158364897944
 11
242.32310000399999
 21
93.275599999999997
  0
LINE
  8
_0-2_3
  6
CONTINUOUS
 62
  250
 10
242.32310000399999
 20
93.275599999999997
 11
242.34485530162575
 21
92.87204163510205
  0
LINE
  8
_0-2_3
  6
CONTINUOUS
 62
  250
 10
242.34485530162575
 20
92.87204163510205
 11
242.40946017079335
 21
92.480745186911136
  0
LINE
  8
_0-2_3
  6
CONTINUOUS
 62
  250
 10
242.40946017079335
 20
92.480745186911136
 11
242.51495162524477
 21
92.113599999999991
  0
LINE
  8
_0-2_3
  6
CONTINUOUS
 62
  250
 10
242.51495162524477
 20
92.113599999999991
 11
242.6581243605178
 21
91.781761595088482
  0
LINE
  8
_0-2_3
  6
CONTINUOUS
 62
  250
 10
242.6581243605178
 20
91.781761595088482
 11
242.83462814550003
 21
91.495312714191499
  0
LINE
  8
_0-2_3
  6
CONTINUOUS
 62
  250
 10
242.83462814550003
 20
91.495312714191499
 11
243.03910000199999
 21
91.262956961604956
  0
LINE
  8
_0-2_3
  6
CONTINUOUS
 62
  250
 10
243.03910000199999
 20
91.262956961604956
 11
243.26532715612572
 21
91.091754349293552
  0
LINE
  8
_0-2_3
  6
CONTINUOUS
 62
  250
 10
243.26532715612572
 20
91.091754349293552
 11
243.50643581027554
 21
90.986906781999621
  0
LINE
  8
_0-2_3
  6
CONTINUOUS
 62
  250
 10
243.50643581027554
 20
90.986906781999621
 11
243.75509999999999
 21
90.951599999999999
  0
LINE
  8
_0-2_3
  6
CONTINUOUS
 62
  250
 10
243.75509999999999
 20
90.951599999999999
 11
244.00376418972444
 21
90.986906781999621
  0
LINE
  8
_0-2_3
  6
CONTINUOUS
 62
  250
 10
244.00376418972444
 20
90.986906781999621
 11
244.24487284387427
 21
91.091754349293537
  0
LINE
  8
_0-2_3
  6
CONTINUOUS
 62
  250
 10
244.24487284387427
 20
91.091754349293537
 11
244.47109999799999
 21
91.262956961604956
  0
LINE
  8
_0-2_3
  6
CONTINUOUS
 62
  250
 10
244.47109999799999
 20
91.262956961604956
 11
244.67557185449996
 21
91.495312714191484
  0
LINE
  8
_0-2_3
  6
CONTINUOUS
 62
  250
 10
244.67557185449996
 20
91.495312714191484
 11
244.85207563948219
 21
91.781761595088482
  0
LINE
  8
_0-2_3
  6
CONTINUOUS
 62
  250
 10
244.85207563948219
 20
91.781761595088482
 11
244.99524837475522
 21
92.113599999999991
  0
LINE
  8
_0-2_3
  6
CONTINUOUS
 62
  250
 10
244.99524837475522
 20
92.113599999999991
 11
245.10073982920664
 21
92.480745186911136
  0
LINE
  8
_0-2_3
  6
CONTINUOUS
 62
  250
 10
245.10073982920664
 20
92.480745186911136
 11
245.16534469837424
 21
92.87204163510205
  0
LINE
  8
_0-2_3
  6
CONTINUOUS
 62
  250
 10
245.16534469837424
 20
92.87204163510205
 11
245.187099996
 21
93.275599999999997
  0
LINE
  8
_0-2_3
  6
CONTINUOUS
 62
  250
 10
245.187099996
 20
93.275599999999997
 11
245.16534469837424
 21
93.679158364897929
  0
LINE
  8
_0-2_3
  6
CONTINUOUS
 62
  250
 10
245.16534469837424
 20
93.679158364897929
 11
245.10073982920664
 21
94.070454813088844
  0
LINE
  8
_0-2_3
  6
CONTINUOUS
 62
  250
 10
245.10073982920664
 20
94.070454813088844
 11
244.99524837475522
 21
94.437599999999989
  0
LINE
  8
_0-2_3
  6
CONTINUOUS
 62
  250
 10
244.99524837475522
 20
94.437599999999989
 11
244.85207563948219
 21
94.769438404911511
  0
LINE
  8
_0-2_3
  6
CONTINUOUS
 62
  250
 10
244.85207563948219
 20
94.769438404911511
 11
244.67557185449996
 21
95.055887285808495
  0
LINE
  8
_0-2_3
  6
CONTINUOUS
 62
  250
 10
244.67557185449996
 20
95.055887285808495
 11
244.47109999799999
 21
95.288243038395023
  0
LINE
  8
_0-2_3
  6
CONTINUOUS
 62
  250
 10
244.47109999799999
 20
95.288243038395023
 11
244.24487284387427
 21
95.459445650706442
  0
LINE
  8
_0-2_3
  6
CONTINUOUS
 62
  250
 10
244.24487284387427
 20
95.459445650706442
 11
244.00376418972444
 21
95.564293218000372
  0
LINE
  8
_0-2_3
  6
CONTINUOUS
 62
  250
 10
244.00376418972444
 20
95.564293218000372
 11
243.75510043991039
 21
95.599599999999881
  0
LINE
  8
_0-2_3
  6
CONTINUOUS
 62
  250
 10
243.3221
 20
81.900599999999997
 11
243.3221
 21
81.900599999999997
  0
LINE
  8
_0-2_3
  6
CONTINUOUS
 62
  250
 10
243.3221
 20
81.900599999999997
 11
243.08307345708965
 21
81.855023259036627
  0
LINE
  8
_0-2_3
  6
CONTINUOUS
 62
  250
 10
243.08307345708965
 20
81.855023259036627
 11
242.85130961473237
 21
81.719677862357727
  0
LINE
  8
_0-2_3
  6
CONTINUOUS
 62
  250
 10
242.85130961473237
 20
81.719677862357727
 11
242.63385049999999
 21
81.498676211353313
  0
LINE
  8
_0-2_3
  6
CONTINUOUS
 62
  250
 10
242.63385049999999
 20
81.498676211353313
 11
242.43730349805409
 21
81.198733329356926
  0
LINE
  8
_0-2_3
  6
CONTINUOUS
 62
  250
 10
242.43730349805409
 20
81.198733329356926
 11
242.26764059009116
 21
80.828962829059619
  0
LINE
  8
_0-2_3
  6
CONTINUOUS
 62
  250
 10
242.26764059009116
 20
80.828962829059619
 11
242.13001689771613
 21
80.400599999999997
  0
LINE
  8
_0-2_3
  6
CONTINUOUS
 62
  250
 10
242.13001689771613
 20
80.400599999999997
 11
242.0286140471808
 21
79.926660429977005
  0
LINE
  8
_0-2_3
  6
CONTINUOUS
 62
  250
 10
242.0286140471808
 20
79.926660429977005
 11
241.96651311278645
 21
79.421544533000783
  0
LINE
  8
_0-2_3
  6
CONTINUOUS
 62
  250
 10
241.96651311278645
 20
79.421544533000783
 11
241.94560100000001
 21
78.900599999999997
  0
LINE
  8
_0-2_3
  6
CONTINUOUS
 62
  250
 10
241.94560100000001
 20
78.900599999999997
 11
241.96651311278645
 21
78.37965546699921
  0
LINE
  8
_0-2_3
  6
CONTINUOUS
 62
  250
 10
241.96651311278645
 20
78.37965546699921
 11
242.02861404718083
 21
77.874539570022989
  0
LINE
  8
_0-2_3
  6
CONTINUOUS
 62
  250
 10
242.02861404718083
 20
77.874539570022989
 11
242.13001689771613
 21
77.400599999999997
  0
LINE
  8
_0-2_3
  6
CONTINUOUS
 62
  250
 10
242.13001689771613
 20
77.400599999999997
 11
242.26764059009119
 21
76.972237170940374
  0
LINE
  8
_0-2_3
  6
CONTINUOUS
 62
  250
 10
242.26764059009119
 20
76.972237170940374
 11
242.43730349805409
 21
76.602466670643067
  0
LINE
  8
_0-2_3
  6
CONTINUOUS
 62
  250
 10
242.43730349805409
 20
76.602466670643067
 11
242.63385049999999
 21
76.302523788646681
  0
LINE
  8
_0-2_3
  6
CONTINUOUS
 62
  250
 10
242.63385049999999
 20
76.302523788646681
 11
242.85130961473237
 21
76.081522137642267
  0
LINE
  8
_0-2_3
  6
CONTINUOUS
 62
  250
 10
242.85130961473237
 20
76.081522137642267
 11
243.08307345708965
 21
75.94617674096338
  0
LINE
  8
_0-2_3
  6
CONTINUOUS
 62
  250
 10
243.08307345708965
 20
75.94617674096338
 11
243.3221
 21
75.900599999999997
  0
LINE
  8
_0-2_3
  6
CONTINUOUS
 62
  250
 10
243.3221
 20
75.900599999999997
 11
243.56112654291035
 21
75.946176740963366
  0
LINE
  8
_0-2_3
  6
CONTINUOUS
 62
  250
 10
243.56112654291035
 20
75.946176740963366
 11
243.79289038526763
 21
76.081522137642267
  0
LINE
  8
_0-2_3
  6
CONTINUOUS
 62
  250
 10
243.79289038526763
 20
76.081522137642267
 11
244.01034950000001
 21
76.302523788646681
  0
LINE
  8
_0-2_3
  6
CONTINUOUS
 62
  250
 10
244.01034950000001
 20
76.302523788646681
 11
244.20689650194591
 21
76.602466670643053
  0
LINE
  8
_0-2_3
  6
CONTINUOUS
 62
  250
 10
244.20689650194591
 20
76.602466670643053
 11
244.37655940990882
 21
76.972237170940374
  0
LINE
  8
_0-2_3
  6
CONTINUOUS
 62
  250
 10
244.37655940990882
 20
76.972237170940374
 11
244.51418310228388
 21
77.400599999999997
  0
LINE
  8
_0-2_3
  6
CONTINUOUS
 62
  250
 10
244.51418310228388
 20
77.400599999999997
 11
244.61558595281917
 21
77.874539570022989
  0
LINE
  8
_0-2_3
  6
CONTINUOUS
 62
  250
 10
244.61558595281917
 20
77.874539570022989
 11
244.67768688721355
 21
78.379655466999196
  0
LINE
  8
_0-2_3
  6
CONTINUOUS
 62
  250
 10
244.67768688721355
 20
78.379655466999196
 11
244.698599
 21
78.900599999999982
  0
LINE
  8
_0-2_3
  6
CONTINUOUS
 62
  250
 10
244.698599
 20
78.900599999999982
 11
244.67768688721355
 21
79.421544533000783
  0
LINE
  8
_0-2_3
  6
CONTINUOUS
 62
  250
 10
244.67768688721355
 20
79.421544533000783
 11
244.6155859528192
 21
79.92666042997699
  0
LINE
  8
_0-2_3
  6
CONTINUOUS
 62
  250
 10
244.6155859528192
 20
79.92666042997699
 11
244.51418310228388
 21
80.400599999999982
  0
LINE
  8
_0-2_3
  6
CONTINUOUS
 62
  250
 10
244.51418310228388
 20
80.400599999999982
 11
244.37655940990885
 21
80.828962829059605
  0
LINE
  8
_0-2_3
  6
CONTINUOUS
 62
  250
 10
244.37655940990885
 20
80.828962829059605
 11
244.20689650194591
 21
81.198733329356926
  0
LINE
  8
_0-2_3
  6
CONTINUOUS
 62
  250
 10
244.20689650194591
 20
81.198733329356926
 11
244.01034950000001
 21
81.498676211353313
  0
LINE
  8
_0-2_3
  6
CONTINUOUS
 62
  250
 10
244.01034950000001
 20
81.498676211353313
 11
243.79289038526763
 21
81.719677862357713
  0
LINE
  8
_0-2_3
  6
CONTINUOUS
 62
  250
 10
243.79289038526763
 20
81.719677862357713
 11
243.56112654291035
 21
81.855023259036613
  0
LINE
  8
_0-2_3
  6
CONTINUOUS
 62
  250
 10
243.56112654291035
 20
81.855023259036613
 11
243.3221004228605
 21
81.900599999999855
  0
LINE
  8
_0-2_3
  6
CONTINUOUS
 62
  250
 10
238.34239999999999
 20
81.900599999999997
 11
238.34239999999999
 21
81.900599999999997
  0
LINE
  8
_0-2_3
  6
CONTINUOUS
 62
  250
 10
238.34239999999999
 20
81.900599999999997
 11
237.85965789243775
 21
81.855023259036627
  0
LINE
  8
_0-2_3
  6
CONTINUOUS
 62
  250
 10
237.85965789243775
 20
81.855023259036627
 11
237.39158365953448
 21
81.719677862357727
  0
LINE
  8
_0-2_3
  6
CONTINUOUS
 62
  250
 10
237.39158365953448
 20
81.719677862357727
 11
236.95239949999998
 21
81.498676211353313
  0
LINE
  8
_0-2_3
  6
CONTINUOUS
 62
  250
 10
236.95239949999998
 20
81.498676211353313
 11
236.55544980228381
 21
81.198733329356926
  0
LINE
  8
_0-2_3
  6
CONTINUOUS
 62
  250
 10
236.55544980228381
 20
81.198733329356926
 11
236.21279568208478
 21
80.828962829059619
  0
LINE
  8
_0-2_3
  6
CONTINUOUS
 62
  250
 10
236.21279568208478
 20
80.828962829059619
 11
235.93484851145385
 21
80.400599999999997
  0
LINE
  8
_0-2_3
  6
CONTINUOUS
 62
  250
 10
235.93484851145385
 20
80.400599999999997
 11
235.73005357452254
 21
79.926660429977005
  0
LINE
  8
_0-2_3
  6
CONTINUOUS
 62
  250
 10
235.73005357452254
 20
79.926660429977005
 11
235.6046334618183
 21
79.421544533000783
  0
LINE
  8
_0-2_3
  6
CONTINUOUS
 62
  250
 10
235.6046334618183
 20
79.421544533000783
 11
235.56239899999999
 21
78.900599999999997
  0
LINE
  8
_0-2_3
  6
CONTINUOUS
 62
  250
 10
235.56239899999999
 20
78.900599999999997
 11
235.6046334618183
 21
78.37965546699921
  0
LINE
  8
_0-2_3
  6
CONTINUOUS
 62
  250
 10
235.6046334618183
 20
78.37965546699921
 11
235.73005357452254
 21
77.874539570022989
  0
LINE
  8
_0-2_3
  6
CONTINUOUS
 62
  250
 10
235.73005357452254
 20
77.874539570022989
 11
235.93484851145385
 21
77.400599999999997
  0
LINE
  8
_0-2_3
  6
CONTINUOUS
 62
  250
 10
235.93484851145385
 20
77.400599999999997
 11
236.21279568208478
 21
76.972237170940374
  0
LINE
  8
_0-2_3
  6
CONTINUOUS
 62
  250
 10
236.21279568208478
 20
76.972237170940374
 11
236.55544980228381
 21
76.602466670643067
  0
LINE
  8
_0-2_3
  6
CONTINUOUS
 62
  250
 10
236.55544980228381
 20
76.602466670643067
 11
236.95239949999998
 21
76.302523788646681
  0
LINE
  8
_0-2_3
  6
CONTINUOUS
 62
  250
 10
236.95239949999998
 20
76.302523788646681
 11
237.39158365953448
 21
76.081522137642267
  0
LINE
  8
_0-2_3
  6
CONTINUOUS
 62
  250
 10
237.39158365953448
 20
76.081522137642267
 11
237.85965789243775
 21
75.94617674096338
  0
LINE
  8
_0-2_3
  6
CONTINUOUS
 62
  250
 10
237.85965789243775
 20
75.94617674096338
 11
238.34239999999999
 21
75.900599999999997
  0
LINE
  8
_0-2_3
  6
CONTINUOUS
 62
  250
 10
238.34239999999999
 20
75.900599999999997
 11
238.82514210756224
 21
75.946176740963366
  0
LINE
  8
_0-2_3
  6
CONTINUOUS
 62
  250
 10
238.82514210756224
 20
75.946176740963366
 11
239.2932163404655
 21
76.081522137642267
  0
LINE
  8
_0-2_3
  6
CONTINUOUS
 62
  250
 10
239.2932163404655
 20
76.081522137642267
 11
239.73240049999998
 21
76.302523788646681
  0
LINE
  8
_0-2_3
  6
CONTINUOUS
 62
  250
 10
239.73240049999998
 20
76.302523788646681
 11
240.12935019771617
 21
76.602466670643053
  0
LINE
  8
_0-2_3
  6
CONTINUOUS
 62
  250
 10
240.12935019771617
 20
76.602466670643053
 11
240.4720043179152
 21
76.972237170940374
  0
LINE
  8
_0-2_3
  6
CONTINUOUS
 62
  250
 10
240.4720043179152
 20
76.972237170940374
 11
240.74995148854614
 21
77.400599999999997
  0
LINE
  8
_0-2_3
  6
CONTINUOUS
 62
  250
 10
240.74995148854614
 20
77.400599999999997
 11
240.95474642547745
 21
77.874539570022989
  0
LINE
  8
_0-2_3
  6
CONTINUOUS
 62
  250
 10
240.95474642547745
 20
77.874539570022989
 11
241.08016653818168
 21
78.379655466999196
  0
LINE
  8
_0-2_3
  6
CONTINUOUS
 62
  250
 10
241.08016653818168
 20
78.379655466999196
 11
241.12240099999999
 21
78.900599999999982
  0
LINE
  8
_0-2_3
  6
CONTINUOUS
 62
  250
 10
241.12240099999999
 20
78.900599999999982
 11
241.08016653818168
 21
79.421544533000783
  0
LINE
  8
_0-2_3
  6
CONTINUOUS
 62
  250
 10
241.08016653818168
 20
79.421544533000783
 11
240.95474642547745
 21
79.92666042997699
  0
LINE
  8
_0-2_3
  6
CONTINUOUS
 62
  250
 10
240.95474642547745
 20
79.92666042997699
 11
240.74995148854614
 21
80.400599999999982
  0
LINE
  8
_0-2_3
  6
CONTINUOUS
 62
  250
 10
240.74995148854614
 20
80.400599999999982
 11
240.4720043179152
 21
80.828962829059605
  0
LINE
  8
_0-2_3
  6
CONTINUOUS
 62
  250
 10
240.4720043179152
 20
80.828962829059605
 11
240.1293501977162
 21
81.198733329356926
  0
LINE
  8
_0-2_3
  6
CONTINUOUS
 62
  250
 10
240.1293501977162
 20
81.198733329356926
 11
239.73240050000001
 21
81.498676211353313
  0
LINE
  8
_0-2_3
  6
CONTINUOUS
 62
  250
 10
239.73240050000001
 20
81.498676211353313
 11
239.2932163404655
 21
81.719677862357713
  0
LINE
  8
_0-2_3
  6
CONTINUOUS
 62
  250
 10
239.2932163404655
 20
81.719677862357713
 11
238.82514210756224
 21
81.855023259036613
  0
LINE
  8
_0-2_3
  6
CONTINUOUS
 62
  250
 10
238.82514210756224
 20
81.855023259036613
 11
238.34240085401629
 21
81.900599999999855
  0
ARC
  8
_0-2_3
  6
CONTINUOUS
 62
  250
 10
231.18219999999999
 20
110.8006
 40
2.5
 50
246.44400000000001
 51
270.00000000000005
  0
ARC
  8
_0-2_3
  6
CONTINUOUS
 62
  250
 10
231.18219999999999
 20
106.90059999999999
 40
2.5
 50
90.000000000000028
 51
113.55600000000002
  0
ARC
  8
_0-2_3
  6
CONTINUOUS
 62
  250
 10
229.98320000000001
 20
108.0506
 40
0.5
 50
66.444000000000016
 51
90.000000000000028
  0
ARC
  8
_0-2_3
  6
CONTINUOUS
 62
  250
 10
229.98320000000001
 20
109.65059999999999
 40
0.5
 50
270.00000000000005
 51
293.55600000000004
  0
ARC
  8
_0-2_3
  6
CONTINUOUS
 62
  250
 10
238.34239999999999
 20
117.42749999999999
 40
12.376899999999999
 50
253.57400000000004
 51
270.00000000000005
  0
ARC
  8
_0-2_3
  6
CONTINUOUS
 62
  250
 10
233.15489999999999
 20
108.1216
 40
3.0710000000000001
 50
236.66800000000006
 51
303.33200000000005
  0
ARC
  8
_0-2_3
  6
CONTINUOUS
 62
  250
 10
238.34239999999999
 20
116.4256
 40
8.125
 50
255.75000000000005
 51
270.00000000000005
  0
ARC
  8
_0-2_3
  6
CONTINUOUS
 62
  250
 10
234.21739999999999
 20
116.4256
 40
8.125
 50
255.75000000000005
 51
277.07000000000005
  0
ARC
  8
_0-2_3
  6
CONTINUOUS
 62
  250
 10
236.21739999999999
 20
116.4256
 40
8.125
 50
255.75000000000005
 51
277.51400000000006
  0
ARC
  8
_0-2_3
  6
CONTINUOUS
 62
  250
 10
232.21739999999999
 20
116.4256
 40
8.125
 50
270.00000000000005
 51
277.07000000000005
  0
ARC
  8
_0-2_3
  6
CONTINUOUS
 62
  250
 10
238.34239999999999
 20
101.27559999999999
 40
8.125
 50
90.000000000000028
 51
104.25000000000002
  0
ARC
  8
_0-2_3
  6
CONTINUOUS
 62
  250
 10
236.21739999999999
 20
101.27559999999999
 40
8.125
 50
82.486000000000018
 51
104.25000000000001
  0
ARC
  8
_0-2_3
  6
CONTINUOUS
 62
  250
 10
234.21739999999999
 20
101.27559999999999
 40
8.125
 50
82.930000000000021
 51
104.25000000000001
  0
ARC
  8
_0-2_3
  6
CONTINUOUS
 62
  250
 10
232.21739999999999
 20
101.27559999999999
 40
8.125
 50
82.930000000000021
 51
90.000000000000014
  0
ARC
  8
_0-2_3
  6
CONTINUOUS
 62
  250
 10
235.92930000000001
 20
93.275599999999997
 40
4.5
 50
140.29100000000002
 51
219.70900000000006
  0
ARC
  8
_0-2_3
  6
CONTINUOUS
 62
  250
 10
239.47989999999998
 20
78.900599999999997
 40
7.5125000000000001
 50
156.46300000000002
 51
203.53700000000003
  0
LINE
  8
_0-2_3
  6
CONTINUOUS
 62
  250
 10
232.9298
 20
95.599599999999995
 11
232.9298
 21
95.599599999999995
  0
LINE
  8
_0-2_3
  6
CONTINUOUS
 62
  250
 10
232.9298
 20
95.599599999999995
 11
232.68113581027554
 21
95.564293218000372
  0
LINE
  8
_0-2_3
  6
CONTINUOUS
 62
  250
 10
232.68113581027554
 20
95.564293218000372
 11
232.44002715612572
 21
95.459445650706442
  0
LINE
  8
_0-2_3
  6
CONTINUOUS
 62
  250
 10
232.44002715612572
 20
95.459445650706442
 11
232.21380000199999
 21
95.288243038395037
  0
LINE
  8
_0-2_3
  6
CONTINUOUS
 62
  250
 10
232.21380000199999
 20
95.288243038395037
 11
232.00932814550003
 21
95.055887285808495
  0
LINE
  8
_0-2_3
  6
CONTINUOUS
 62
  250
 10
232.00932814550003
 20
95.055887285808495
 11
231.8328243605178
 21
94.769438404911511
  0
LINE
  8
_0-2_3
  6
CONTINUOUS
 62
  250
 10
231.8328243605178
 20
94.769438404911511
 11
231.68965162524477
 21
94.437600000000003
  0
LINE
  8
_0-2_3
  6
CONTINUOUS
 62
  250
 10
231.68965162524477
 20
94.437600000000003
 11
231.58416017079335
 21
94.070454813088844
  0
LINE
  8
_0-2_3
  6
CONTINUOUS
 62
  250
 10
231.58416017079335
 20
94.070454813088844
 11
231.51955530162575
 21
93.679158364897944
  0
LINE
  8
_0-2_3
  6
CONTINUOUS
 62
  250
 10
231.51955530162575
 20
93.679158364897944
 11
231.49780000399999
 21
93.275599999999997
  0
LINE
  8
_0-2_3
  6
CONTINUOUS
 62
  250
 10
231.49780000399999
 20
93.275599999999997
 11
231.51955530162575
 21
92.87204163510205
  0
LINE
  8
_0-2_3
  6
CONTINUOUS
 62
  250
 10
231.51955530162575
 20
92.87204163510205
 11
231.58416017079335
 21
92.480745186911136
  0
LINE
  8
_0-2_3
  6
CONTINUOUS
 62
  250
 10
231.58416017079335
 20
92.480745186911136
 11
231.68965162524477
 21
92.113599999999991
  0
LINE
  8
_0-2_3
  6
CONTINUOUS
 62
  250
 10
231.68965162524477
 20
92.113599999999991
 11
231.8328243605178
 21
91.781761595088482
  0
LINE
  8
_0-2_3
  6
CONTINUOUS
 62
  250
 10
231.8328243605178
 20
91.781761595088482
 11
232.00932814550003
 21
91.495312714191499
  0
LINE
  8
_0-2_3
  6
CONTINUOUS
 62
  250
 10
232.00932814550003
 20
91.495312714191499
 11
232.21380000199999
 21
91.262956961604956
  0
LINE
  8
_0-2_3
  6
CONTINUOUS
 62
  250
 10
232.21380000199999
 20
91.262956961604956
 11
232.44002715612572
 21
91.091754349293552
  0
LINE
  8
_0-2_3
  6
CONTINUOUS
 62
  250
 10
232.44002715612572
 20
91.091754349293552
 11
232.68113581027554
 21
90.986906781999621
  0
LINE
  8
_0-2_3
  6
CONTINUOUS
 62
  250
 10
232.68113581027554
 20
90.986906781999621
 11
232.9298
 21
90.951599999999999
  0
LINE
  8
_0-2_3
  6
CONTINUOUS
 62
  250
 10
232.9298
 20
90.951599999999999
 11
233.17846418972445
 21
90.986906781999621
  0
LINE
  8
_0-2_3
  6
CONTINUOUS
 62
  250
 10
233.17846418972445
 20
90.986906781999621
 11
233.41957284387427
 21
91.091754349293537
  0
LINE
  8
_0-2_3
  6
CONTINUOUS
 62
  250
 10
233.41957284387427
 20
91.091754349293537
 11
233.645799998
 21
91.262956961604956
  0
LINE
  8
_0-2_3
  6
CONTINUOUS
 62
  250
 10
233.645799998
 20
91.262956961604956
 11
233.85027185449996
 21
91.495312714191484
  0
LINE
  8
_0-2_3
  6
CONTINUOUS
 62
  250
 10
233.85027185449996
 20
91.495312714191484
 11
234.02677563948219
 21
91.781761595088482
  0
LINE
  8
_0-2_3
  6
CONTINUOUS
 62
  250
 10
234.02677563948219
 20
91.781761595088482
 11
234.16994837475522
 21
92.113599999999991
  0
LINE
  8
_0-2_3
  6
CONTINUOUS
 62
  250
 10
234.16994837475522
 20
92.113599999999991
 11
234.27543982920664
 21
92.480745186911136
  0
LINE
  8
_0-2_3
  6
CONTINUOUS
 62
  250
 10
234.27543982920664
 20
92.480745186911136
 11
234.34004469837424
 21
92.87204163510205
  0
LINE
  8
_0-2_3
  6
CONTINUOUS
 62
  250
 10
234.34004469837424
 20
92.87204163510205
 11
234.361799996
 21
93.275599999999997
  0
LINE
  8
_0-2_3
  6
CONTINUOUS
 62
  250
 10
234.361799996
 20
93.275599999999997
 11
234.34004469837424
 21
93.679158364897929
  0
LINE
  8
_0-2_3
  6
CONTINUOUS
 62
  250
 10
234.34004469837424
 20
93.679158364897929
 11
234.27543982920664
 21
94.070454813088844
  0
LINE
  8
_0-2_3
  6
CONTINUOUS
 62
  250
 10
234.27543982920664
 20
94.070454813088844
 11
234.16994837475522
 21
94.437599999999989
  0
LINE
  8
_0-2_3
  6
CONTINUOUS
 62
  250
 10
234.16994837475522
 20
94.437599999999989
 11
234.02677563948219
 21
94.769438404911511
  0
LINE
  8
_0-2_3
  6
CONTINUOUS
 62
  250
 10
234.02677563948219
 20
94.769438404911511
 11
233.85027185449996
 21
95.055887285808495
  0
LINE
  8
_0-2_3
  6
CONTINUOUS
 62
  250
 10
233.85027185449996
 20
95.055887285808495
 11
233.645799998
 21
95.288243038395023
  0
LINE
  8
_0-2_3
  6
CONTINUOUS
 62
  250
 10
233.645799998
 20
95.288243038395023
 11
233.41957284387427
 21
95.459445650706442
  0
LINE
  8
_0-2_3
  6
CONTINUOUS
 62
  250
 10
233.41957284387427
 20
95.459445650706442
 11
233.17846418972445
 21
95.564293218000372
  0
LINE
  8
_0-2_3
  6
CONTINUOUS
 62
  250
 10
233.17846418972445
 20
95.564293218000372
 11
232.92980043991039
 21
95.599599999999881
  0
LINE
  8
_0-2_3
  6
CONTINUOUS
 62
  250
 10
233.36279999999999
 20
81.900599999999997
 11
233.36279999999999
 21
81.900599999999997
  0
LINE
  8
_0-2_3
  6
CONTINUOUS
 62
  250
 10
233.36279999999999
 20
81.900599999999997
 11
233.12377345708964
 21
81.855023259036627
  0
LINE
  8
_0-2_3
  6
CONTINUOUS
 62
  250
 10
233.12377345708964
 20
81.855023259036627
 11
232.89200961473235
 21
81.719677862357727
  0
LINE
  8
_0-2_3
  6
CONTINUOUS
 62
  250
 10
232.89200961473235
 20
81.719677862357727
 11
232.67455049999998
 21
81.498676211353313
  0
LINE
  8
_0-2_3
  6
CONTINUOUS
 62
  250
 10
232.67455049999998
 20
81.498676211353313
 11
232.47800349805407
 21
81.198733329356926
  0
LINE
  8
_0-2_3
  6
CONTINUOUS
 62
  250
 10
232.47800349805407
 20
81.198733329356926
 11
232.30834059009114
 21
80.828962829059619
  0
LINE
  8
_0-2_3
  6
CONTINUOUS
 62
  250
 10
232.30834059009114
 20
80.828962829059619
 11
232.17071689771611
 21
80.400599999999997
  0
LINE
  8
_0-2_3
  6
CONTINUOUS
 62
  250
 10
232.17071689771611
 20
80.400599999999997
 11
232.06931404718079
 21
79.926660429977005
  0
LINE
  8
_0-2_3
  6
CONTINUOUS
 62
  250
 10
232.06931404718079
 20
79.926660429977005
 11
232.00721311278644
 21
79.421544533000783
  0
LINE
  8
_0-2_3
  6
CONTINUOUS
 62
  250
 10
232.00721311278644
 20
79.421544533000783
 11
231.98630099999999
 21
78.900599999999997
  0
LINE
  8
_0-2_3
  6
CONTINUOUS
 62
  250
 10
231.98630099999999
 20
78.900599999999997
 11
232.00721311278644
 21
78.37965546699921
  0
LINE
  8
_0-2_3
  6
CONTINUOUS
 62
  250
 10
232.00721311278644
 20
78.37965546699921
 11
232.06931404718082
 21
77.874539570022989
  0
LINE
  8
_0-2_3
  6
CONTINUOUS
 62
  250
 10
232.06931404718082
 20
77.874539570022989
 11
232.17071689771611
 21
77.400599999999997
  0
LINE
  8
_0-2_3
  6
CONTINUOUS
 62
  250
 10
232.17071689771611
 20
77.400599999999997
 11
232.30834059009117
 21
76.972237170940374
  0
LINE
  8
_0-2_3
  6
CONTINUOUS
 62
  250
 10
232.30834059009117
 20
76.972237170940374
 11
232.47800349805407
 21
76.602466670643067
  0
LINE
  8
_0-2_3
  6
CONTINUOUS
 62
  250
 10
232.47800349805407
 20
76.602466670643067
 11
232.67455049999998
 21
76.302523788646681
  0
LINE
  8
_0-2_3
  6
CONTINUOUS
 62
  250
 10
232.67455049999998
 20
76.302523788646681
 11
232.89200961473235
 21
76.081522137642267
  0
LINE
  8
_0-2_3
  6
CONTINUOUS
 62
  250
 10
232.89200961473235
 20
76.081522137642267
 11
233.12377345708964
 21
75.94617674096338
  0
LINE
  8
_0-2_3
  6
CONTINUOUS
 62
  250
 10
233.12377345708964
 20
75.94617674096338
 11
233.36279999999999
 21
75.900599999999997
  0
LINE
  8
_0-2_3
  6
CONTINUOUS
 62
  250
 10
233.36279999999999
 20
75.900599999999997
 11
233.60182654291034
 21
75.946176740963366
  0
LINE
  8
_0-2_3
  6
CONTINUOUS
 62
  250
 10
233.60182654291034
 20
75.946176740963366
 11
233.83359038526762
 21
76.081522137642267
  0
LINE
  8
_0-2_3
  6
CONTINUOUS
 62
  250
 10
233.83359038526762
 20
76.081522137642267
 11
234.0510495
 21
76.302523788646681
  0
LINE
  8
_0-2_3
  6
CONTINUOUS
 62
  250
 10
234.0510495
 20
76.302523788646681
 11
234.2475965019459
 21
76.602466670643053
  0
LINE
  8
_0-2_3
  6
CONTINUOUS
 62
  250
 10
234.2475965019459
 20
76.602466670643053
 11
234.4172594099088
 21
76.972237170940374
  0
LINE
  8
_0-2_3
  6
CONTINUOUS
 62
  250
 10
234.4172594099088
 20
76.972237170940374
 11
234.55488310228386
 21
77.400599999999997
  0
LINE
  8
_0-2_3
  6
CONTINUOUS
 62
  250
 10
234.55488310228386
 20
77.400599999999997
 11
234.65628595281916
 21
77.874539570022989
  0
LINE
  8
_0-2_3
  6
CONTINUOUS
 62
  250
 10
234.65628595281916
 20
77.874539570022989
 11
234.71838688721354
 21
78.379655466999196
  0
LINE
  8
_0-2_3
  6
CONTINUOUS
 62
  250
 10
234.71838688721354
 20
78.379655466999196
 11
234.73929899999998
 21
78.900599999999982
  0
LINE
  8
_0-2_3
  6
CONTINUOUS
 62
  250
 10
234.73929899999998
 20
78.900599999999982
 11
234.71838688721354
 21
79.421544533000783
  0
LINE
  8
_0-2_3
  6
CONTINUOUS
 62
  250
 10
234.71838688721354
 20
79.421544533000783
 11
234.65628595281918
 21
79.92666042997699
  0
LINE
  8
_0-2_3
  6
CONTINUOUS
 62
  250
 10
234.65628595281918
 20
79.92666042997699
 11
234.55488310228386
 21
80.400599999999982
  0
LINE
  8
_0-2_3
  6
CONTINUOUS
 62
  250
 10
234.55488310228386
 20
80.400599999999982
 11
234.41725940990883
 21
80.828962829059605
  0
LINE
  8
_0-2_3
  6
CONTINUOUS
 62
  250
 10
234.41725940990883
 20
80.828962829059605
 11
234.2475965019459
 21
81.198733329356926
  0
LINE
  8
_0-2_3
  6
CONTINUOUS
 62
  250
 10
234.2475965019459
 20
81.198733329356926
 11
234.0510495
 21
81.498676211353313
  0
LINE
  8
_0-2_3
  6
CONTINUOUS
 62
  250
 10
234.0510495
 20
81.498676211353313
 11
233.83359038526762
 21
81.719677862357713
  0
LINE
  8
_0-2_3
  6
CONTINUOUS
 62
  250
 10
233.83359038526762
 20
81.719677862357713
 11
233.60182654291034
 21
81.855023259036613
  0
LINE
  8
_0-2_3
  6
CONTINUOUS
 62
  250
 10
233.60182654291034
 20
81.855023259036613
 11
233.36280042286048
 21
81.900599999999855
  0
LINE
  8
_0-2_3
  6
CONTINUOUS
 62
  250
 10
238.36692418842449
 20
90.951683811534422
 11
238.36692418842449
 21
90.951683811534422
  0
LINE
  8
_0-2_3
  6
CONTINUOUS
 62
  250
 10
238.36692418842449
 20
90.951683811534422
 11
238.86386175846874
 21
90.990444958275404
  0
LINE
  8
_0-2_3
  6
CONTINUOUS
 62
  250
 10
238.86386175846874
 20
90.990444958275404
 11
239.34495497685432
 21
91.098639384614926
  0
LINE
  8
_0-2_3
  6
CONTINUOUS
 62
  250
 10
239.34495497685432
 20
91.098639384614926
 11
239.79558606958545
 21
91.272979657657714
  0
LINE
  8
_0-2_3
  6
CONTINUOUS
 62
  250
 10
239.79558606958545
 20
91.272979657657714
 11
240.20206283893989
 21
91.508168536427774
  0
LINE
  8
_0-2_3
  6
CONTINUOUS
 62
  250
 10
240.20206283893989
 20
91.508168536427774
 11
240.55203469396792
 21
91.797059925855009
  0
LINE
  8
_0-2_3
  6
CONTINUOUS
 62
  250
 10
240.55203469396792
 20
91.797059925855009
 11
240.83486791694886
 21
92.130876007257754
  0
LINE
  8
_0-2_3
  6
CONTINUOUS
 62
  250
 10
240.83486791694886
 20
92.130876007257754
 11
241.0419687635229
 21
92.499473947921686
  0
LINE
  8
_0-2_3
  6
CONTINUOUS
 62
  250
 10
241.0419687635229
 20
92.499473947921686
 11
241.16704457926505
 21
92.891654085939293
  0
LINE
  8
_0-2_3
  6
CONTINUOUS
 62
  250
 10
241.16704457926505
 20
92.891654085939293
 11
241.2062949988053
 21
93.295500226269624
  0
LINE
  8
_0-2_3
  6
CONTINUOUS
 62
  250
 10
241.2062949988053
 20
93.295500226269624
 11
241.15852741800767
 21
93.698741708294747
  0
LINE
  8
_0-2_3
  6
CONTINUOUS
 62
  250
 10
241.15852741800767
 20
93.698741708294747
 11
241.02519323064313
 21
94.089126243633373
  0
LINE
  8
_0-2_3
  6
CONTINUOUS
 62
  250
 10
241.02519323064313
 20
94.089126243633373
 11
240.81034372852437
 21
94.454792195723328
  0
LINE
  8
_0-2_3
  6
CONTINUOUS
 62
  250
 10
240.81034372852437
 20
94.454792195723328
 11
240.52050700505415
 21
94.784628989646293
  0
LINE
  8
_0-2_3
  6
CONTINUOUS
 62
  250
 10
240.52050700505415
 20
94.784628989646293
 11
240.16448960241072
 21
95.068614701324349
  0
LINE
  8
_0-2_3
  6
CONTINUOUS
 62
  250
 10
240.16448960241072
 20
95.068614701324349
 11
239.75310892921984
 21
95.298120568611892
  0
LINE
  8
_0-2_3
  6
CONTINUOUS
 62
  250
 10
239.75310892921984
 20
95.298120568611892
 11
239.29886457906781
 21
95.466173171866955
  0
LINE
  8
_0-2_3
  6
CONTINUOUS
 62
  250
 10
239.29886457906781
 20
95.466173171866955
 11
238.81555853667521
 21
95.567666317778346
  0
LINE
  8
_0-2_3
  6
CONTINUOUS
 62
  250
 10
238.81555853667521
 20
95.567666317778346
 11
238.3178758115755
 21
95.599516188465571
  0
LINE
  8
_0-2_3
  6
CONTINUOUS
 62
  250
 10
238.3178758115755
 20
95.599516188465571
 11
237.82093824153125
 21
95.56075504172459
  0
LINE
  8
_0-2_3
  6
CONTINUOUS
 62
  250
 10
237.82093824153125
 20
95.56075504172459
 11
237.33984502314567
 21
95.452560615385067
  0
LINE
  8
_0-2_3
  6
CONTINUOUS
 62
  250
 10
237.33984502314567
 20
95.452560615385067
 11
236.88921393041454
 21
95.278220342342279
  0
LINE
  8
_0-2_3
  6
CONTINUOUS
 62
  250
 10
236.88921393041454
 20
95.278220342342279
 11
236.4827371610601
 21
95.043031463572219
  0
LINE
  8
_0-2_3
  6
CONTINUOUS
 62
  250
 10
236.4827371610601
 20
95.043031463572219
 11
236.13276530603206
 21
94.754140074144984
  0
LINE
  8
_0-2_3
  6
CONTINUOUS
 62
  250
 10
236.13276530603206
 20
94.754140074144984
 11
235.84993208305112
 21
94.42032399274224
  0
LINE
  8
_0-2_3
  6
CONTINUOUS
 62
  250
 10
235.84993208305112
 20
94.42032399274224
 11
235.64283123647709
 21
94.051726052078308
  0
LINE
  8
_0-2_3
  6
CONTINUOUS
 62
  250
 10
235.64283123647709
 20
94.051726052078308
 11
235.51775542073497
 21
93.659545914060714
  0
LINE
  8
_0-2_3
  6
CONTINUOUS
 62
  250
 10
235.51775542073497
 20
93.659545914060714
 11
235.47850500119469
 21
93.255699773730384
  0
LINE
  8
_0-2_3
  6
CONTINUOUS
 62
  250
 10
235.47850500119469
 20
93.255699773730384
 11
235.52627258199231
 21
92.852458291705261
  0
LINE
  8
_0-2_3
  6
CONTINUOUS
 62
  250
 10
235.52627258199231
 20
92.852458291705261
 11
235.65960676935685
 21
92.462073756366635
  0
LINE
  8
_0-2_3
  6
CONTINUOUS
 62
  250
 10
235.65960676935685
 20
92.462073756366635
 11
235.87445627147562
 21
92.096407804276665
  0
LINE
  8
_0-2_3
  6
CONTINUOUS
 62
  250
 10
235.87445627147562
 20
92.096407804276665
 11
236.16429299494583
 21
91.766571010353715
  0
LINE
  8
_0-2_3
  6
CONTINUOUS
 62
  250
 10
236.16429299494583
 20
91.766571010353715
 11
236.52031039758927
 21
91.482585298675644
  0
LINE
  8
_0-2_3
  6
CONTINUOUS
 62
  250
 10
236.52031039758927
 20
91.482585298675644
 11
236.93169107078014
 21
91.253079431388101
  0
LINE
  8
_0-2_3
  6
CONTINUOUS
 62
  250
 10
236.93169107078014
 20
91.253079431388101
 11
237.38593542093218
 21
91.085026828133038
  0
LINE
  8
_0-2_3
  6
CONTINUOUS
 62
  250
 10
237.38593542093218
 20
91.085026828133038
 11
237.86924146332478
 21
90.983533682221647
  0
LINE
  8
_0-2_3
  6
CONTINUOUS
 62
  250
 10
237.86924146332478
 20
90.983533682221647
 11
238.36492518390352
 21
90.951670487288225
  0
ARC
  8
_0-2_3
  6
CONTINUOUS
 62
  250
 10
296.5027
 20
110.8006
 40
2.5
 50
270.00000000000005
 51
293.55600000000004
  0
ARC
  8
_0-2_3
  6
CONTINUOUS
 62
  250
 10
296.5027
 20
106.90059999999999
 40
2.5
 50
66.444000000000016
 51
90.000000000000028
  0
ARC
  8
_0-2_3
  6
CONTINUOUS
 62
  250
 10
297.70170000000001
 20
108.0506
 40
0.5
 50
90.000000000000028
 51
113.55600000000002
  0
ARC
  8
_0-2_3
  6
CONTINUOUS
 62
  250
 10
297.70170000000001
 20
109.65059999999999
 40
0.5
 50
246.44400000000001
 51
270.00000000000005
  0
ARC
  8
_0-2_3
  6
CONTINUOUS
 62
  250
 10
289.34239999999999
 20
117.42749999999999
 40
12.376899999999999
 50
270.00000000000005
 51
286.42600000000004
  0
ARC
  8
_0-2_3
  6
CONTINUOUS
 62
  250
 10
294.52989999999999
 20
108.1216
 40
3.0710000000000001
 50
236.66800000000006
 51
303.33200000000005
  0
ARC
  8
_0-2_3
  6
CONTINUOUS
 62
  250
 10
289.34239999999999
 20
116.4256
 40
8.125
 50
270.00000000000005
 51
284.25000000000005
  0
ARC
  8
_0-2_3
  6
CONTINUOUS
 62
  250
 10
293.46739999999999
 20
116.4256
 40
8.125
 50
262.93000000000006
 51
284.25000000000011
  0
ARC
  8
_0-2_3
  6
CONTINUOUS
 62
  250
 10
291.46739999999999
 20
116.4256
 40
8.125
 50
262.4860000000001
 51
284.25000000000011
  0
ARC
  8
_0-2_3
  6
CONTINUOUS
 62
  250
 10
295.46739999999999
 20
116.4256
 40
8.125
 50
262.93000000000006
 51
270.00000000000005
  0
ARC
  8
_0-2_3
  6
CONTINUOUS
 62
  250
 10
289.34239999999999
 20
101.27559999999999
 40
8.125
 50
75.750000000000014
 51
90.000000000000028
  0
ARC
  8
_0-2_3
  6
CONTINUOUS
 62
  250
 10
291.46739999999999
 20
101.27559999999999
 40
8.125
 50
75.750000000000014
 51
97.514000000000024
  0
ARC
  8
_0-2_3
  6
CONTINUOUS
 62
  250
 10
293.46739999999999
 20
101.27559999999999
 40
8.125
 50
75.750000000000014
 51
97.070000000000021
  0
ARC
  8
_0-2_3
  6
CONTINUOUS
 62
  250
 10
295.46739999999999
 20
101.27559999999999
 40
8.125
 50
90.000000000000028
 51
97.070000000000021
  0
ARC
  8
_0-2_3
  6
CONTINUOUS
 62
  250
 10
291.75560000000001
 20
93.275599999999997
 40
4.5
 50
320.29100000000005
 51
39.709000000000088
  0
ARC
  8
_0-2_3
  6
CONTINUOUS
 62
  250
 10
288.2049
 20
78.900599999999997
 40
7.5125000000000001
 50
336.46300000000007
 51
23.537000000000062
  0
LINE
  8
_0-2_3
  6
CONTINUOUS
 62
  250
 10
294.75509999999997
 20
95.599599999999995
 11
294.75509999999997
 21
95.599599999999995
  0
LINE
  8
_0-2_3
  6
CONTINUOUS
 62
  250
 10
294.75509999999997
 20
95.599599999999995
 11
294.50643581027549
 21
95.564293218000372
  0
LINE
  8
_0-2_3
  6
CONTINUOUS
 62
  250
 10
294.50643581027549
 20
95.564293218000372
 11
294.26532715612569
 21
95.459445650706442
  0
LINE
  8
_0-2_3
  6
CONTINUOUS
 62
  250
 10
294.26532715612569
 20
95.459445650706442
 11
294.03910000199999
 21
95.288243038395037
  0
LINE
  8
_0-2_3
  6
CONTINUOUS
 62
  250
 10
294.03910000199999
 20
95.288243038395037
 11
293.8346281455
 21
95.055887285808495
  0
LINE
  8
_0-2_3
  6
CONTINUOUS
 62
  250
 10
293.8346281455
 20
95.055887285808495
 11
293.65812436051777
 21
94.769438404911511
  0
LINE
  8
_0-2_3
  6
CONTINUOUS
 62
  250
 10
293.65812436051777
 20
94.769438404911511
 11
293.51495162524474
 21
94.437600000000003
  0
LINE
  8
_0-2_3
  6
CONTINUOUS
 62
  250
 10
293.51495162524474
 20
94.437600000000003
 11
293.40946017079329
 21
94.070454813088844
  0
LINE
  8
_0-2_3
  6
CONTINUOUS
 62
  250
 10
293.40946017079329
 20
94.070454813088844
 11
293.34485530162572
 21
93.679158364897944
  0
LINE
  8
_0-2_3
  6
CONTINUOUS
 62
  250
 10
293.34485530162572
 20
93.679158364897944
 11
293.32310000399996
 21
93.275599999999997
  0
LINE
  8
_0-2_3
  6
CONTINUOUS
 62
  250
 10
293.32310000399996
 20
93.275599999999997
 11
293.34485530162572
 21
92.87204163510205
  0
LINE
  8
_0-2_3
  6
CONTINUOUS
 62
  250
 10
293.34485530162572
 20
92.87204163510205
 11
293.40946017079329
 21
92.480745186911136
  0
LINE
  8
_0-2_3
  6
CONTINUOUS
 62
  250
 10
293.40946017079329
 20
92.480745186911136
 11
293.51495162524474
 21
92.113599999999991
  0
LINE
  8
_0-2_3
  6
CONTINUOUS
 62
  250
 10
293.51495162524474
 20
92.113599999999991
 11
293.65812436051777
 21
91.781761595088482
  0
LINE
  8
_0-2_3
  6
CONTINUOUS
 62
  250
 10
293.65812436051777
 20
91.781761595088482
 11
293.8346281455
 21
91.495312714191499
  0
LINE
  8
_0-2_3
  6
CONTINUOUS
 62
  250
 10
293.8346281455
 20
91.495312714191499
 11
294.03910000199999
 21
91.262956961604956
  0
LINE
  8
_0-2_3
  6
CONTINUOUS
 62
  250
 10
294.03910000199999
 20
91.262956961604956
 11
294.26532715612569
 21
91.091754349293552
  0
LINE
  8
_0-2_3
  6
CONTINUOUS
 62
  250
 10
294.26532715612569
 20
91.091754349293552
 11
294.50643581027549
 21
90.986906781999621
  0
LINE
  8
_0-2_3
  6
CONTINUOUS
 62
  250
 10
294.50643581027549
 20
90.986906781999621
 11
294.75509999999997
 21
90.951599999999999
  0
LINE
  8
_0-2_3
  6
CONTINUOUS
 62
  250
 10
294.75509999999997
 20
90.951599999999999
 11
295.00376418972439
 21
90.986906781999621
  0
LINE
  8
_0-2_3
  6
CONTINUOUS
 62
  250
 10
295.00376418972439
 20
90.986906781999621
 11
295.24487284387424
 21
91.091754349293537
  0
LINE
  8
_0-2_3
  6
CONTINUOUS
 62
  250
 10
295.24487284387424
 20
91.091754349293537
 11
295.47109999799994
 21
91.262956961604956
  0
LINE
  8
_0-2_3
  6
CONTINUOUS
 62
  250
 10
295.47109999799994
 20
91.262956961604956
 11
295.67557185449993
 21
91.495312714191484
  0
LINE
  8
_0-2_3
  6
CONTINUOUS
 62
  250
 10
295.67557185449993
 20
91.495312714191484
 11
295.85207563948216
 21
91.781761595088482
  0
LINE
  8
_0-2_3
  6
CONTINUOUS
 62
  250
 10
295.85207563948216
 20
91.781761595088482
 11
295.99524837475519
 21
92.113599999999991
  0
LINE
  8
_0-2_3
  6
CONTINUOUS
 62
  250
 10
295.99524837475519
 20
92.113599999999991
 11
296.10073982920664
 21
92.480745186911136
  0
LINE
  8
_0-2_3
  6
CONTINUOUS
 62
  250
 10
296.10073982920664
 20
92.480745186911136
 11
296.16534469837421
 21
92.87204163510205
  0
LINE
  8
_0-2_3
  6
CONTINUOUS
 62
  250
 10
296.16534469837421
 20
92.87204163510205
 11
296.18709999599997
 21
93.275599999999997
  0
LINE
  8
_0-2_3
  6
CONTINUOUS
 62
  250
 10
296.18709999599997
 20
93.275599999999997
 11
296.16534469837421
 21
93.679158364897929
  0
LINE
  8
_0-2_3
  6
CONTINUOUS
 62
  250
 10
296.16534469837421
 20
93.679158364897929
 11
296.10073982920664
 21
94.070454813088844
  0
LINE
  8
_0-2_3
  6
CONTINUOUS
 62
  250
 10
296.10073982920664
 20
94.070454813088844
 11
295.99524837475519
 21
94.437599999999989
  0
LINE
  8
_0-2_3
  6
CONTINUOUS
 62
  250
 10
295.99524837475519
 20
94.437599999999989
 11
295.85207563948216
 21
94.769438404911511
  0
LINE
  8
_0-2_3
  6
CONTINUOUS
 62
  250
 10
295.85207563948216
 20
94.769438404911511
 11
295.67557185449993
 21
95.055887285808495
  0
LINE
  8
_0-2_3
  6
CONTINUOUS
 62
  250
 10
295.67557185449993
 20
95.055887285808495
 11
295.47109999799999
 21
95.288243038395023
  0
LINE
  8
_0-2_3
  6
CONTINUOUS
 62
  250
 10
295.47109999799999
 20
95.288243038395023
 11
295.24487284387424
 21
95.459445650706442
  0
LINE
  8
_0-2_3
  6
CONTINUOUS
 62
  250
 10
295.24487284387424
 20
95.459445650706442
 11
295.00376418972444
 21
95.564293218000372
  0
LINE
  8
_0-2_3
  6
CONTINUOUS
 62
  250
 10
295.00376418972444
 20
95.564293218000372
 11
294.75510043991039
 21
95.599599999999881
  0
LINE
  8
_0-2_3
  6
CONTINUOUS
 62
  250
 10
294.32209999999997
 20
81.900599999999997
 11
294.32209999999997
 21
81.900599999999997
  0
LINE
  8
_0-2_3
  6
CONTINUOUS
 62
  250
 10
294.32209999999997
 20
81.900599999999997
 11
294.08307345708959
 21
81.855023259036627
  0
LINE
  8
_0-2_3
  6
CONTINUOUS
 62
  250
 10
294.08307345708959
 20
81.855023259036627
 11
293.85130961473231
 21
81.719677862357727
  0
LINE
  8
_0-2_3
  6
CONTINUOUS
 62
  250
 10
293.85130961473231
 20
81.719677862357727
 11
293.63385049999999
 21
81.498676211353313
  0
LINE
  8
_0-2_3
  6
CONTINUOUS
 62
  250
 10
293.63385049999999
 20
81.498676211353313
 11
293.43730349805406
 21
81.198733329356926
  0
LINE
  8
_0-2_3
  6
CONTINUOUS
 62
  250
 10
293.43730349805406
 20
81.198733329356926
 11
293.26764059009116
 21
80.828962829059619
  0
LINE
  8
_0-2_3
  6
CONTINUOUS
 62
  250
 10
293.26764059009116
 20
80.828962829059619
 11
293.13001689771607
 21
80.400599999999997
  0
LINE
  8
_0-2_3
  6
CONTINUOUS
 62
  250
 10
293.13001689771607
 20
80.400599999999997
 11
293.02861404718078
 21
79.926660429977005
  0
LINE
  8
_0-2_3
  6
CONTINUOUS
 62
  250
 10
293.02861404718078
 20
79.926660429977005
 11
292.9665131127864
 21
79.421544533000783
  0
LINE
  8
_0-2_3
  6
CONTINUOUS
 62
  250
 10
292.9665131127864
 20
79.421544533000783
 11
292.94560099999995
 21
78.900599999999997
  0
LINE
  8
_0-2_3
  6
CONTINUOUS
 62
  250
 10
292.94560099999995
 20
78.900599999999997
 11
292.9665131127864
 21
78.37965546699921
  0
LINE
  8
_0-2_3
  6
CONTINUOUS
 62
  250
 10
292.9665131127864
 20
78.37965546699921
 11
293.02861404718078
 21
77.874539570022989
  0
LINE
  8
_0-2_3
  6
CONTINUOUS
 62
  250
 10
293.02861404718078
 20
77.874539570022989
 11
293.13001689771607
 21
77.400599999999997
  0
LINE
  8
_0-2_3
  6
CONTINUOUS
 62
  250
 10
293.13001689771607
 20
77.400599999999997
 11
293.26764059009116
 21
76.972237170940374
  0
LINE
  8
_0-2_3
  6
CONTINUOUS
 62
  250
 10
293.26764059009116
 20
76.972237170940374
 11
293.43730349805406
 21
76.602466670643067
  0
LINE
  8
_0-2_3
  6
CONTINUOUS
 62
  250
 10
293.43730349805406
 20
76.602466670643067
 11
293.63385049999999
 21
76.302523788646681
  0
LINE
  8
_0-2_3
  6
CONTINUOUS
 62
  250
 10
293.63385049999999
 20
76.302523788646681
 11
293.85130961473231
 21
76.081522137642267
  0
LINE
  8
_0-2_3
  6
CONTINUOUS
 62
  250
 10
293.85130961473231
 20
76.081522137642267
 11
294.08307345708959
 21
75.94617674096338
  0
LINE
  8
_0-2_3
  6
CONTINUOUS
 62
  250
 10
294.08307345708959
 20
75.94617674096338
 11
294.32209999999997
 21
75.900599999999997
  0
LINE
  8
_0-2_3
  6
CONTINUOUS
 62
  250
 10
294.32209999999997
 20
75.900599999999997
 11
294.5611265429103
 21
75.946176740963366
  0
LINE
  8
_0-2_3
  6
CONTINUOUS
 62
  250
 10
294.5611265429103
 20
75.946176740963366
 11
294.79289038526763
 21
76.081522137642267
  0
LINE
  8
_0-2_3
  6
CONTINUOUS
 62
  250
 10
294.79289038526763
 20
76.081522137642267
 11
295.01034949999996
 21
76.302523788646681
  0
LINE
  8
_0-2_3
  6
CONTINUOUS
 62
  250
 10
295.01034949999996
 20
76.302523788646681
 11
295.20689650194589
 21
76.602466670643053
  0
LINE
  8
_0-2_3
  6
CONTINUOUS
 62
  250
 10
295.20689650194589
 20
76.602466670643053
 11
295.37655940990879
 21
76.972237170940374
  0
LINE
  8
_0-2_3
  6
CONTINUOUS
 62
  250
 10
295.37655940990879
 20
76.972237170940374
 11
295.51418310228388
 21
77.400599999999997
  0
LINE
  8
_0-2_3
  6
CONTINUOUS
 62
  250
 10
295.51418310228388
 20
77.400599999999997
 11
295.61558595281917
 21
77.874539570022989
  0
LINE
  8
_0-2_3
  6
CONTINUOUS
 62
  250
 10
295.61558595281917
 20
77.874539570022989
 11
295.67768688721355
 21
78.379655466999196
  0
LINE
  8
_0-2_3
  6
CONTINUOUS
 62
  250
 10
295.67768688721355
 20
78.379655466999196
 11
295.698599
 21
78.900599999999982
  0
LINE
  8
_0-2_3
  6
CONTINUOUS
 62
  250
 10
295.698599
 20
78.900599999999982
 11
295.67768688721355
 21
79.421544533000783
  0
LINE
  8
_0-2_3
  6
CONTINUOUS
 62
  250
 10
295.67768688721355
 20
79.421544533000783
 11
295.61558595281917
 21
79.92666042997699
  0
LINE
  8
_0-2_3
  6
CONTINUOUS
 62
  250
 10
295.61558595281917
 20
79.92666042997699
 11
295.51418310228388
 21
80.400599999999982
  0
LINE
  8
_0-2_3
  6
CONTINUOUS
 62
  250
 10
295.51418310228388
 20
80.400599999999982
 11
295.37655940990879
 21
80.828962829059605
  0
LINE
  8
_0-2_3
  6
CONTINUOUS
 62
  250
 10
295.37655940990879
 20
80.828962829059605
 11
295.20689650194589
 21
81.198733329356926
  0
LINE
  8
_0-2_3
  6
CONTINUOUS
 62
  250
 10
295.20689650194589
 20
81.198733329356926
 11
295.01034949999996
 21
81.498676211353313
  0
LINE
  8
_0-2_3
  6
CONTINUOUS
 62
  250
 10
295.01034949999996
 20
81.498676211353313
 11
294.79289038526763
 21
81.719677862357713
  0
LINE
  8
_0-2_3
  6
CONTINUOUS
 62
  250
 10
294.79289038526763
 20
81.719677862357713
 11
294.56112654291035
 21
81.855023259036613
  0
LINE
  8
_0-2_3
  6
CONTINUOUS
 62
  250
 10
294.56112654291035
 20
81.855023259036613
 11
294.32210042286044
 21
81.900599999999855
  0
LINE
  8
_0-2_3
  6
CONTINUOUS
 62
  250
 10
289.34239999999999
 20
81.900599999999997
 11
289.34239999999999
 21
81.900599999999997
  0
LINE
  8
_0-2_3
  6
CONTINUOUS
 62
  250
 10
289.34239999999999
 20
81.900599999999997
 11
288.85965789243778
 21
81.855023259036627
  0
LINE
  8
_0-2_3
  6
CONTINUOUS
 62
  250
 10
288.85965789243778
 20
81.855023259036627
 11
288.39158365953448
 21
81.719677862357727
  0
LINE
  8
_0-2_3
  6
CONTINUOUS
 62
  250
 10
288.39158365953448
 20
81.719677862357727
 11
287.95239950000001
 21
81.498676211353313
  0
LINE
  8
_0-2_3
  6
CONTINUOUS
 62
  250
 10
287.95239950000001
 20
81.498676211353313
 11
287.55544980228381
 21
81.198733329356926
  0
LINE
  8
_0-2_3
  6
CONTINUOUS
 62
  250
 10
287.55544980228381
 20
81.198733329356926
 11
287.21279568208478
 21
80.828962829059619
  0
LINE
  8
_0-2_3
  6
CONTINUOUS
 62
  250
 10
287.21279568208478
 20
80.828962829059619
 11
286.93484851145387
 21
80.400599999999997
  0
LINE
  8
_0-2_3
  6
CONTINUOUS
 62
  250
 10
286.93484851145387
 20
80.400599999999997
 11
286.73005357452257
 21
79.926660429977005
  0
LINE
  8
_0-2_3
  6
CONTINUOUS
 62
  250
 10
286.73005357452257
 20
79.926660429977005
 11
286.6046334618183
 21
79.421544533000783
  0
LINE
  8
_0-2_3
  6
CONTINUOUS
 62
  250
 10
286.6046334618183
 20
79.421544533000783
 11
286.56239899999997
 21
78.900599999999997
  0
LINE
  8
_0-2_3
  6
CONTINUOUS
 62
  250
 10
286.56239899999997
 20
78.900599999999997
 11
286.6046334618183
 21
78.37965546699921
  0
LINE
  8
_0-2_3
  6
CONTINUOUS
 62
  250
 10
286.6046334618183
 20
78.37965546699921
 11
286.73005357452257
 21
77.874539570022989
  0
LINE
  8
_0-2_3
  6
CONTINUOUS
 62
  250
 10
286.73005357452257
 20
77.874539570022989
 11
286.93484851145387
 21
77.400599999999997
  0
LINE
  8
_0-2_3
  6
CONTINUOUS
 62
  250
 10
286.93484851145387
 20
77.400599999999997
 11
287.21279568208478
 21
76.972237170940374
  0
LINE
  8
_0-2_3
  6
CONTINUOUS
 62
  250
 10
287.21279568208478
 20
76.972237170940374
 11
287.55544980228381
 21
76.602466670643067
  0
LINE
  8
_0-2_3
  6
CONTINUOUS
 62
  250
 10
287.55544980228381
 20
76.602466670643067
 11
287.95239950000001
 21
76.302523788646681
  0
LINE
  8
_0-2_3
  6
CONTINUOUS
 62
  250
 10
287.95239950000001
 20
76.302523788646681
 11
288.39158365953448
 21
76.081522137642267
  0
LINE
  8
_0-2_3
  6
CONTINUOUS
 62
  250
 10
288.39158365953448
 20
76.081522137642267
 11
288.85965789243772
 21
75.94617674096338
  0
LINE
  8
_0-2_3
  6
CONTINUOUS
 62
  250
 10
288.85965789243772
 20
75.94617674096338
 11
289.34239999999999
 21
75.900599999999997
  0
LINE
  8
_0-2_3
  6
CONTINUOUS
 62
  250
 10
289.34239999999999
 20
75.900599999999997
 11
289.82514210756221
 21
75.946176740963366
  0
LINE
  8
_0-2_3
  6
CONTINUOUS
 62
  250
 10
289.82514210756221
 20
75.946176740963366
 11
290.2932163404655
 21
76.081522137642267
  0
LINE
  8
_0-2_3
  6
CONTINUOUS
 62
  250
 10
290.2932163404655
 20
76.081522137642267
 11
290.73240049999998
 21
76.302523788646681
  0
LINE
  8
_0-2_3
  6
CONTINUOUS
 62
  250
 10
290.73240049999998
 20
76.302523788646681
 11
291.12935019771617
 21
76.602466670643053
  0
LINE
  8
_0-2_3
  6
CONTINUOUS
 62
  250
 10
291.12935019771617
 20
76.602466670643053
 11
291.4720043179152
 21
76.972237170940374
  0
LINE
  8
_0-2_3
  6
CONTINUOUS
 62
  250
 10
291.4720043179152
 20
76.972237170940374
 11
291.74995148854611
 21
77.400599999999997
  0
LINE
  8
_0-2_3
  6
CONTINUOUS
 62
  250
 10
291.74995148854611
 20
77.400599999999997
 11
291.95474642547742
 21
77.874539570022989
  0
LINE
  8
_0-2_3
  6
CONTINUOUS
 62
  250
 10
291.95474642547742
 20
77.874539570022989
 11
292.08016653818168
 21
78.379655466999196
  0
LINE
  8
_0-2_3
  6
CONTINUOUS
 62
  250
 10
292.08016653818168
 20
78.379655466999196
 11
292.12240100000002
 21
78.900599999999982
  0
LINE
  8
_0-2_3
  6
CONTINUOUS
 62
  250
 10
292.12240100000002
 20
78.900599999999982
 11
292.08016653818168
 21
79.421544533000783
  0
LINE
  8
_0-2_3
  6
CONTINUOUS
 62
  250
 10
292.08016653818168
 20
79.421544533000783
 11
291.95474642547742
 21
79.92666042997699
  0
LINE
  8
_0-2_3
  6
CONTINUOUS
 62
  250
 10
291.95474642547742
 20
79.92666042997699
 11
291.74995148854611
 21
80.400599999999982
  0
LINE
  8
_0-2_3
  6
CONTINUOUS
 62
  250
 10
291.74995148854611
 20
80.400599999999982
 11
291.4720043179152
 21
80.828962829059605
  0
LINE
  8
_0-2_3
  6
CONTINUOUS
 62
  250
 10
291.4720043179152
 20
80.828962829059605
 11
291.12935019771617
 21
81.198733329356926
  0
LINE
  8
_0-2_3
  6
CONTINUOUS
 62
  250
 10
291.12935019771617
 20
81.198733329356926
 11
290.73240049999998
 21
81.498676211353313
  0
LINE
  8
_0-2_3
  6
CONTINUOUS
 62
  250
 10
290.73240049999998
 20
81.498676211353313
 11
290.2932163404655
 21
81.719677862357713
  0
LINE
  8
_0-2_3
  6
CONTINUOUS
 62
  250
 10
290.2932163404655
 20
81.719677862357713
 11
289.82514210756227
 21
81.855023259036613
  0
LINE
  8
_0-2_3
  6
CONTINUOUS
 62
  250
 10
289.82514210756227
 20
81.855023259036613
 11
289.34240085401631
 21
81.900599999999855
  0
ARC
  8
_0-2_3
  6
CONTINUOUS
 62
  250
 10
282.18219999999996
 20
110.8006
 40
2.5
 50
246.44400000000001
 51
270.00000000000005
  0
ARC
  8
_0-2_3
  6
CONTINUOUS
 62
  250
 10
282.18219999999996
 20
106.90059999999999
 40
2.5
 50
90.000000000000028
 51
113.55600000000002
  0
ARC
  8
_0-2_3
  6
CONTINUOUS
 62
  250
 10
280.98320000000001
 20
108.0506
 40
0.5
 50
66.444000000000016
 51
90.000000000000028
  0
ARC
  8
_0-2_3
  6
CONTINUOUS
 62
  250
 10
280.98320000000001
 20
109.65059999999999
 40
0.5
 50
270.00000000000005
 51
293.55600000000004
  0
ARC
  8
_0-2_3
  6
CONTINUOUS
 62
  250
 10
289.34239999999999
 20
117.42749999999999
 40
12.376899999999999
 50
253.57400000000004
 51
270.00000000000005
  0
ARC
  8
_0-2_3
  6
CONTINUOUS
 62
  250
 10
284.15489999999999
 20
108.1216
 40
3.0710000000000001
 50
236.66800000000006
 51
303.33200000000005
  0
ARC
  8
_0-2_3
  6
CONTINUOUS
 62
  250
 10
289.34239999999999
 20
116.4256
 40
8.125
 50
255.75000000000005
 51
270.00000000000005
  0
ARC
  8
_0-2_3
  6
CONTINUOUS
 62
  250
 10
285.21739999999999
 20
116.4256
 40
8.125
 50
255.75000000000005
 51
277.07000000000005
  0
ARC
  8
_0-2_3
  6
CONTINUOUS
 62
  250
 10
287.21739999999999
 20
116.4256
 40
8.125
 50
255.75000000000005
 51
277.51400000000006
  0
ARC
  8
_0-2_3
  6
CONTINUOUS
 62
  250
 10
283.21739999999999
 20
116.4256
 40
8.125
 50
270.00000000000005
 51
277.07000000000005
  0
ARC
  8
_0-2_3
  6
CONTINUOUS
 62
  250
 10
289.34239999999999
 20
101.27559999999999
 40
8.125
 50
90.000000000000028
 51
104.25000000000002
  0
ARC
  8
_0-2_3
  6
CONTINUOUS
 62
  250
 10
287.21739999999999
 20
101.27559999999999
 40
8.125
 50
82.486000000000018
 51
104.25000000000001
  0
ARC
  8
_0-2_3
  6
CONTINUOUS
 62
  250
 10
285.21739999999999
 20
101.27559999999999
 40
8.125
 50
82.930000000000021
 51
104.25000000000001
  0
ARC
  8
_0-2_3
  6
CONTINUOUS
 62
  250
 10
283.21739999999999
 20
101.27559999999999
 40
8.125
 50
82.930000000000021
 51
90.000000000000014
  0
ARC
  8
_0-2_3
  6
CONTINUOUS
 62
  250
 10
286.92930000000001
 20
93.275599999999997
 40
4.5
 50
140.29100000000002
 51
219.70900000000006
  0
ARC
  8
_0-2_3
  6
CONTINUOUS
 62
  250
 10
290.47989999999998
 20
78.900599999999997
 40
7.5125000000000001
 50
156.46300000000002
 51
203.53700000000003
  0
LINE
  8
_0-2_3
  6
CONTINUOUS
 62
  250
 10
283.9298
 20
95.599599999999995
 11
283.9298
 21
95.599599999999995
  0
LINE
  8
_0-2_3
  6
CONTINUOUS
 62
  250
 10
283.9298
 20
95.599599999999995
 11
283.68113581027552
 21
95.564293218000372
  0
LINE
  8
_0-2_3
  6
CONTINUOUS
 62
  250
 10
283.68113581027552
 20
95.564293218000372
 11
283.44002715612572
 21
95.459445650706442
  0
LINE
  8
_0-2_3
  6
CONTINUOUS
 62
  250
 10
283.44002715612572
 20
95.459445650706442
 11
283.21380000200002
 21
95.288243038395037
  0
LINE
  8
_0-2_3
  6
CONTINUOUS
 62
  250
 10
283.21380000200002
 20
95.288243038395037
 11
283.00932814550003
 21
95.055887285808495
  0
LINE
  8
_0-2_3
  6
CONTINUOUS
 62
  250
 10
283.00932814550003
 20
95.055887285808495
 11
282.8328243605178
 21
94.769438404911511
  0
LINE
  8
_0-2_3
  6
CONTINUOUS
 62
  250
 10
282.8328243605178
 20
94.769438404911511
 11
282.68965162524477
 21
94.437600000000003
  0
LINE
  8
_0-2_3
  6
CONTINUOUS
 62
  250
 10
282.68965162524477
 20
94.437600000000003
 11
282.58416017079332
 21
94.070454813088844
  0
LINE
  8
_0-2_3
  6
CONTINUOUS
 62
  250
 10
282.58416017079332
 20
94.070454813088844
 11
282.51955530162575
 21
93.679158364897944
  0
LINE
  8
_0-2_3
  6
CONTINUOUS
 62
  250
 10
282.51955530162575
 20
93.679158364897944
 11
282.49780000399999
 21
93.275599999999997
  0
LINE
  8
_0-2_3
  6
CONTINUOUS
 62
  250
 10
282.49780000399999
 20
93.275599999999997
 11
282.51955530162575
 21
92.87204163510205
  0
LINE
  8
_0-2_3
  6
CONTINUOUS
 62
  250
 10
282.51955530162575
 20
92.87204163510205
 11
282.58416017079332
 21
92.480745186911136
  0
LINE
  8
_0-2_3
  6
CONTINUOUS
 62
  250
 10
282.58416017079332
 20
92.480745186911136
 11
282.68965162524477
 21
92.113599999999991
  0
LINE
  8
_0-2_3
  6
CONTINUOUS
 62
  250
 10
282.68965162524477
 20
92.113599999999991
 11
282.8328243605178
 21
91.781761595088482
  0
LINE
  8
_0-2_3
  6
CONTINUOUS
 62
  250
 10
282.8328243605178
 20
91.781761595088482
 11
283.00932814550003
 21
91.495312714191499
  0
LINE
  8
_0-2_3
  6
CONTINUOUS
 62
  250
 10
283.00932814550003
 20
91.495312714191499
 11
283.21380000200002
 21
91.262956961604956
  0
LINE
  8
_0-2_3
  6
CONTINUOUS
 62
  250
 10
283.21380000200002
 20
91.262956961604956
 11
283.44002715612572
 21
91.091754349293552
  0
LINE
  8
_0-2_3
  6
CONTINUOUS
 62
  250
 10
283.44002715612572
 20
91.091754349293552
 11
283.68113581027552
 21
90.986906781999621
  0
LINE
  8
_0-2_3
  6
CONTINUOUS
 62
  250
 10
283.68113581027552
 20
90.986906781999621
 11
283.9298
 21
90.951599999999999
  0
LINE
  8
_0-2_3
  6
CONTINUOUS
 62
  250
 10
283.9298
 20
90.951599999999999
 11
284.17846418972442
 21
90.986906781999621
  0
LINE
  8
_0-2_3
  6
CONTINUOUS
 62
  250
 10
284.17846418972442
 20
90.986906781999621
 11
284.41957284387427
 21
91.091754349293537
  0
LINE
  8
_0-2_3
  6
CONTINUOUS
 62
  250
 10
284.41957284387427
 20
91.091754349293537
 11
284.64579999799997
 21
91.262956961604956
  0
LINE
  8
_0-2_3
  6
CONTINUOUS
 62
  250
 10
284.64579999799997
 20
91.262956961604956
 11
284.85027185449996
 21
91.495312714191484
  0
LINE
  8
_0-2_3
  6
CONTINUOUS
 62
  250
 10
284.85027185449996
 20
91.495312714191484
 11
285.02677563948219
 21
91.781761595088482
  0
LINE
  8
_0-2_3
  6
CONTINUOUS
 62
  250
 10
285.02677563948219
 20
91.781761595088482
 11
285.16994837475522
 21
92.113599999999991
  0
LINE
  8
_0-2_3
  6
CONTINUOUS
 62
  250
 10
285.16994837475522
 20
92.113599999999991
 11
285.27543982920667
 21
92.480745186911136
  0
LINE
  8
_0-2_3
  6
CONTINUOUS
 62
  250
 10
285.27543982920667
 20
92.480745186911136
 11
285.34004469837424
 21
92.87204163510205
  0
LINE
  8
_0-2_3
  6
CONTINUOUS
 62
  250
 10
285.34004469837424
 20
92.87204163510205
 11
285.361799996
 21
93.275599999999997
  0
LINE
  8
_0-2_3
  6
CONTINUOUS
 62
  250
 10
285.361799996
 20
93.275599999999997
 11
285.34004469837424
 21
93.679158364897929
  0
LINE
  8
_0-2_3
  6
CONTINUOUS
 62
  250
 10
285.34004469837424
 20
93.679158364897929
 11
285.27543982920667
 21
94.070454813088844
  0
LINE
  8
_0-2_3
  6
CONTINUOUS
 62
  250
 10
285.27543982920667
 20
94.070454813088844
 11
285.16994837475522
 21
94.437599999999989
  0
LINE
  8
_0-2_3
  6
CONTINUOUS
 62
  250
 10
285.16994837475522
 20
94.437599999999989
 11
285.02677563948219
 21
94.769438404911511
  0
LINE
  8
_0-2_3
  6
CONTINUOUS
 62
  250
 10
285.02677563948219
 20
94.769438404911511
 11
284.85027185449996
 21
95.055887285808495
  0
LINE
  8
_0-2_3
  6
CONTINUOUS
 62
  250
 10
284.85027185449996
 20
95.055887285808495
 11
284.64579999800002
 21
95.288243038395023
  0
LINE
  8
_0-2_3
  6
CONTINUOUS
 62
  250
 10
284.64579999800002
 20
95.288243038395023
 11
284.41957284387427
 21
95.459445650706442
  0
LINE
  8
_0-2_3
  6
CONTINUOUS
 62
  250
 10
284.41957284387427
 20
95.459445650706442
 11
284.17846418972447
 21
95.564293218000372
  0
LINE
  8
_0-2_3
  6
CONTINUOUS
 62
  250
 10
284.17846418972447
 20
95.564293218000372
 11
283.92980043991042
 21
95.599599999999881
  0
LINE
  8
_0-2_3
  6
CONTINUOUS
 62
  250
 10
284.36279999999999
 20
81.900599999999997
 11
284.36279999999999
 21
81.900599999999997
  0
LINE
  8
_0-2_3
  6
CONTINUOUS
 62
  250
 10
284.36279999999999
 20
81.900599999999997
 11
284.12377345708961
 21
81.855023259036627
  0
LINE
  8
_0-2_3
  6
CONTINUOUS
 62
  250
 10
284.12377345708961
 20
81.855023259036627
 11
283.89200961473233
 21
81.719677862357727
  0
LINE
  8
_0-2_3
  6
CONTINUOUS
 62
  250
 10
283.89200961473233
 20
81.719677862357727
 11
283.6745505
 21
81.498676211353313
  0
LINE
  8
_0-2_3
  6
CONTINUOUS
 62
  250
 10
283.6745505
 20
81.498676211353313
 11
283.47800349805407
 21
81.198733329356926
  0
LINE
  8
_0-2_3
  6
CONTINUOUS
 62
  250
 10
283.47800349805407
 20
81.198733329356926
 11
283.30834059009117
 21
80.828962829059619
  0
LINE
  8
_0-2_3
  6
CONTINUOUS
 62
  250
 10
283.30834059009117
 20
80.828962829059619
 11
283.17071689771609
 21
80.400599999999997
  0
LINE
  8
_0-2_3
  6
CONTINUOUS
 62
  250
 10
283.17071689771609
 20
80.400599999999997
 11
283.06931404718079
 21
79.926660429977005
  0
LINE
  8
_0-2_3
  6
CONTINUOUS
 62
  250
 10
283.06931404718079
 20
79.926660429977005
 11
283.00721311278641
 21
79.421544533000783
  0
LINE
  8
_0-2_3
  6
CONTINUOUS
 62
  250
 10
283.00721311278641
 20
79.421544533000783
 11
282.98630099999996
 21
78.900599999999997
  0
LINE
  8
_0-2_3
  6
CONTINUOUS
 62
  250
 10
282.98630099999996
 20
78.900599999999997
 11
283.00721311278641
 21
78.37965546699921
  0
LINE
  8
_0-2_3
  6
CONTINUOUS
 62
  250
 10
283.00721311278641
 20
78.37965546699921
 11
283.06931404718079
 21
77.874539570022989
  0
LINE
  8
_0-2_3
  6
CONTINUOUS
 62
  250
 10
283.06931404718079
 20
77.874539570022989
 11
283.17071689771609
 21
77.400599999999997
  0
LINE
  8
_0-2_3
  6
CONTINUOUS
 62
  250
 10
283.17071689771609
 20
77.400599999999997
 11
283.30834059009117
 21
76.972237170940374
  0
LINE
  8
_0-2_3
  6
CONTINUOUS
 62
  250
 10
283.30834059009117
 20
76.972237170940374
 11
283.47800349805407
 21
76.602466670643067
  0
LINE
  8
_0-2_3
  6
CONTINUOUS
 62
  250
 10
283.47800349805407
 20
76.602466670643067
 11
283.6745505
 21
76.302523788646681
  0
LINE
  8
_0-2_3
  6
CONTINUOUS
 62
  250
 10
283.6745505
 20
76.302523788646681
 11
283.89200961473233
 21
76.081522137642267
  0
LINE
  8
_0-2_3
  6
CONTINUOUS
 62
  250
 10
283.89200961473233
 20
76.081522137642267
 11
284.12377345708961
 21
75.94617674096338
  0
LINE
  8
_0-2_3
  6
CONTINUOUS
 62
  250
 10
284.12377345708961
 20
75.94617674096338
 11
284.36279999999999
 21
75.900599999999997
  0
LINE
  8
_0-2_3
  6
CONTINUOUS
 62
  250
 10
284.36279999999999
 20
75.900599999999997
 11
284.60182654291031
 21
75.946176740963366
  0
LINE
  8
_0-2_3
  6
CONTINUOUS
 62
  250
 10
284.60182654291031
 20
75.946176740963366
 11
284.83359038526765
 21
76.081522137642267
  0
LINE
  8
_0-2_3
  6
CONTINUOUS
 62
  250
 10
284.83359038526765
 20
76.081522137642267
 11
285.05104949999997
 21
76.302523788646681
  0
LINE
  8
_0-2_3
  6
CONTINUOUS
 62
  250
 10
285.05104949999997
 20
76.302523788646681
 11
285.2475965019459
 21
76.602466670643053
  0
LINE
  8
_0-2_3
  6
CONTINUOUS
 62
  250
 10
285.2475965019459
 20
76.602466670643053
 11
285.4172594099088
 21
76.972237170940374
  0
LINE
  8
_0-2_3
  6
CONTINUOUS
 62
  250
 10
285.4172594099088
 20
76.972237170940374
 11
285.55488310228389
 21
77.400599999999997
  0
LINE
  8
_0-2_3
  6
CONTINUOUS
 62
  250
 10
285.55488310228389
 20
77.400599999999997
 11
285.65628595281918
 21
77.874539570022989
  0
LINE
  8
_0-2_3
  6
CONTINUOUS
 62
  250
 10
285.65628595281918
 20
77.874539570022989
 11
285.71838688721356
 21
78.379655466999196
  0
LINE
  8
_0-2_3
  6
CONTINUOUS
 62
  250
 10
285.71838688721356
 20
78.379655466999196
 11
285.73929900000001
 21
78.900599999999982
  0
LINE
  8
_0-2_3
  6
CONTINUOUS
 62
  250
 10
285.73929900000001
 20
78.900599999999982
 11
285.71838688721356
 21
79.421544533000783
  0
LINE
  8
_0-2_3
  6
CONTINUOUS
 62
  250
 10
285.71838688721356
 20
79.421544533000783
 11
285.65628595281918
 21
79.92666042997699
  0
LINE
  8
_0-2_3
  6
CONTINUOUS
 62
  250
 10
285.65628595281918
 20
79.92666042997699
 11
285.55488310228389
 21
80.400599999999982
  0
LINE
  8
_0-2_3
  6
CONTINUOUS
 62
  250
 10
285.55488310228389
 20
80.400599999999982
 11
285.4172594099088
 21
80.828962829059605
  0
LINE
  8
_0-2_3
  6
CONTINUOUS
 62
  250
 10
285.4172594099088
 20
80.828962829059605
 11
285.2475965019459
 21
81.198733329356926
  0
LINE
  8
_0-2_3
  6
CONTINUOUS
 62
  250
 10
285.2475965019459
 20
81.198733329356926
 11
285.05104949999997
 21
81.498676211353313
  0
LINE
  8
_0-2_3
  6
CONTINUOUS
 62
  250
 10
285.05104949999997
 20
81.498676211353313
 11
284.83359038526765
 21
81.719677862357713
  0
LINE
  8
_0-2_3
  6
CONTINUOUS
 62
  250
 10
284.83359038526765
 20
81.719677862357713
 11
284.60182654291037
 21
81.855023259036613
  0
LINE
  8
_0-2_3
  6
CONTINUOUS
 62
  250
 10
284.60182654291037
 20
81.855023259036613
 11
284.36280042286045
 21
81.900599999999855
  0
LINE
  8
_0-2_3
  6
CONTINUOUS
 62
  250
 10
289.36692418842449
 20
90.951683811534422
 11
289.36692418842449
 21
90.951683811534422
  0
LINE
  8
_0-2_3
  6
CONTINUOUS
 62
  250
 10
289.36692418842449
 20
90.951683811534422
 11
289.86386175846877
 21
90.990444958275404
  0
LINE
  8
_0-2_3
  6
CONTINUOUS
 62
  250
 10
289.86386175846877
 20
90.990444958275404
 11
290.34495497685429
 21
91.098639384614926
  0
LINE
  8
_0-2_3
  6
CONTINUOUS
 62
  250
 10
290.34495497685429
 20
91.098639384614926
 11
290.79558606958545
 21
91.272979657657714
  0
LINE
  8
_0-2_3
  6
CONTINUOUS
 62
  250
 10
290.79558606958545
 20
91.272979657657714
 11
291.20206283893986
 21
91.508168536427774
  0
LINE
  8
_0-2_3
  6
CONTINUOUS
 62
  250
 10
291.20206283893986
 20
91.508168536427774
 11
291.55203469396792
 21
91.797059925855009
  0
LINE
  8
_0-2_3
  6
CONTINUOUS
 62
  250
 10
291.55203469396792
 20
91.797059925855009
 11
291.83486791694883
 21
92.130876007257754
  0
LINE
  8
_0-2_3
  6
CONTINUOUS
 62
  250
 10
291.83486791694883
 20
92.130876007257754
 11
292.0419687635229
 21
92.499473947921686
  0
LINE
  8
_0-2_3
  6
CONTINUOUS
 62
  250
 10
292.0419687635229
 20
92.499473947921686
 11
292.16704457926505
 21
92.891654085939293
  0
LINE
  8
_0-2_3
  6
CONTINUOUS
 62
  250
 10
292.16704457926505
 20
92.891654085939293
 11
292.20629499880533
 21
93.295500226269624
  0
LINE
  8
_0-2_3
  6
CONTINUOUS
 62
  250
 10
292.20629499880533
 20
93.295500226269624
 11
292.15852741800767
 21
93.698741708294747
  0
LINE
  8
_0-2_3
  6
CONTINUOUS
 62
  250
 10
292.15852741800767
 20
93.698741708294747
 11
292.02519323064313
 21
94.089126243633373
  0
LINE
  8
_0-2_3
  6
CONTINUOUS
 62
  250
 10
292.02519323064313
 20
94.089126243633373
 11
291.81034372852434
 21
94.454792195723328
  0
LINE
  8
_0-2_3
  6
CONTINUOUS
 62
  250
 10
291.81034372852434
 20
94.454792195723328
 11
291.52050700505418
 21
94.784628989646293
  0
LINE
  8
_0-2_3
  6
CONTINUOUS
 62
  250
 10
291.52050700505418
 20
94.784628989646293
 11
291.16448960241069
 21
95.068614701324349
  0
LINE
  8
_0-2_3
  6
CONTINUOUS
 62
  250
 10
291.16448960241069
 20
95.068614701324349
 11
290.75310892921987
 21
95.298120568611892
  0
LINE
  8
_0-2_3
  6
CONTINUOUS
 62
  250
 10
290.75310892921987
 20
95.298120568611892
 11
290.29886457906781
 21
95.466173171866955
  0
LINE
  8
_0-2_3
  6
CONTINUOUS
 62
  250
 10
290.29886457906781
 20
95.466173171866955
 11
289.81555853667521
 21
95.567666317778346
  0
LINE
  8
_0-2_3
  6
CONTINUOUS
 62
  250
 10
289.81555853667521
 20
95.567666317778346
 11
289.3178758115755
 21
95.599516188465571
  0
LINE
  8
_0-2_3
  6
CONTINUOUS
 62
  250
 10
289.3178758115755
 20
95.599516188465571
 11
288.82093824153122
 21
95.56075504172459
  0
LINE
  8
_0-2_3
  6
CONTINUOUS
 62
  250
 10
288.82093824153122
 20
95.56075504172459
 11
288.33984502314569
 21
95.452560615385067
  0
LINE
  8
_0-2_3
  6
CONTINUOUS
 62
  250
 10
288.33984502314569
 20
95.452560615385067
 11
287.88921393041454
 21
95.278220342342279
  0
LINE
  8
_0-2_3
  6
CONTINUOUS
 62
  250
 10
287.88921393041454
 20
95.278220342342279
 11
287.48273716106012
 21
95.043031463572219
  0
LINE
  8
_0-2_3
  6
CONTINUOUS
 62
  250
 10
287.48273716106012
 20
95.043031463572219
 11
287.13276530603206
 21
94.754140074144984
  0
LINE
  8
_0-2_3
  6
CONTINUOUS
 62
  250
 10
287.13276530603206
 20
94.754140074144984
 11
286.84993208305115
 21
94.42032399274224
  0
LINE
  8
_0-2_3
  6
CONTINUOUS
 62
  250
 10
286.84993208305115
 20
94.42032399274224
 11
286.64283123647709
 21
94.051726052078308
  0
LINE
  8
_0-2_3
  6
CONTINUOUS
 62
  250
 10
286.64283123647709
 20
94.051726052078308
 11
286.51775542073494
 21
93.659545914060714
  0
LINE
  8
_0-2_3
  6
CONTINUOUS
 62
  250
 10
286.51775542073494
 20
93.659545914060714
 11
286.47850500119466
 21
93.255699773730384
  0
LINE
  8
_0-2_3
  6
CONTINUOUS
 62
  250
 10
286.47850500119466
 20
93.255699773730384
 11
286.52627258199231
 21
92.852458291705261
  0
LINE
  8
_0-2_3
  6
CONTINUOUS
 62
  250
 10
286.52627258199231
 20
92.852458291705261
 11
286.65960676935685
 21
92.462073756366635
  0
LINE
  8
_0-2_3
  6
CONTINUOUS
 62
  250
 10
286.65960676935685
 20
92.462073756366635
 11
286.87445627147565
 21
92.096407804276665
  0
LINE
  8
_0-2_3
  6
CONTINUOUS
 62
  250
 10
286.87445627147565
 20
92.096407804276665
 11
287.16429299494581
 21
91.766571010353715
  0
LINE
  8
_0-2_3
  6
CONTINUOUS
 62
  250
 10
287.16429299494581
 20
91.766571010353715
 11
287.52031039758924
 21
91.482585298675644
  0
LINE
  8
_0-2_3
  6
CONTINUOUS
 62
  250
 10
287.52031039758924
 20
91.482585298675644
 11
287.93169107078011
 21
91.253079431388101
  0
LINE
  8
_0-2_3
  6
CONTINUOUS
 62
  250
 10
287.93169107078011
 20
91.253079431388101
 11
288.38593542093218
 21
91.085026828133038
  0
LINE
  8
_0-2_3
  6
CONTINUOUS
 62
  250
 10
288.38593542093218
 20
91.085026828133038
 11
288.86924146332478
 21
90.983533682221647
  0
LINE
  8
_0-2_3
  6
CONTINUOUS
 62
  250
 10
288.86924146332478
 20
90.983533682221647
 11
289.36492518390349
 21
90.951670487288225
  0
LINE
  8
_0-2_3
  6
CONTINUOUS
 62
  250
 10
296.34239999999999
 20
193.93719999999999
 11
296.34239999999999
 21
193.93719999999999
  0
LINE
  8
_0-2_3
  6
CONTINUOUS
 62
  250
 10
296.34239999999999
 20
193.93719999999999
 11
296.23605427108543
 21
194.65827371046555
  0
LINE
  8
_0-2_3
  6
CONTINUOUS
 62
  250
 10
296.23605427108543
 20
194.65827371046555
 11
295.92024834550136
 21
195.35743796111952
  0
LINE
  8
_0-2_3
  6
CONTINUOUS
 62
  250
 10
295.92024834550136
 20
195.35743796111952
 11
295.40457782649104
 21
196.01344899999998
  0
LINE
  8
_0-2_3
  6
CONTINUOUS
 62
  250
 10
295.40457782649104
 20
196.01344899999998
 11
294.70471110183285
 21
196.60637426364812
  0
LINE
  8
_0-2_3
  6
CONTINUOUS
 62
  250
 10
294.70471110183285
 20
196.60637426364812
 11
293.84191326780575
 21
197.11819801796266
  0
LINE
  8
_0-2_3
  6
CONTINUOUS
 62
  250
 10
293.84191326780575
 20
197.11819801796266
 11
292.84239999999999
 21
197.53336875716405
  0
LINE
  8
_0-2_3
  6
CONTINUOUS
 62
  250
 10
292.84239999999999
 20
197.53336875716405
 11
291.73654100327968
 21
197.83927172842822
  0
LINE
  8
_0-2_3
  6
CONTINUOUS
 62
  250
 10
291.73654100327968
 20
197.83927172842822
 11
290.5579372436685
 21
198.02661222476768
  0
LINE
  8
_0-2_3
  6
CONTINUOUS
 62
  250
 10
290.5579372436685
 20
198.02661222476768
 11
289.34239999999999
 21
198.08969799999999
  0
LINE
  8
_0-2_3
  6
CONTINUOUS
 62
  250
 10
289.34239999999999
 20
198.08969799999999
 11
288.12686275633149
 21
198.02661222476768
  0
LINE
  8
_0-2_3
  6
CONTINUOUS
 62
  250
 10
288.12686275633149
 20
198.02661222476768
 11
286.94825899672031
 21
197.83927172842822
  0
LINE
  8
_0-2_3
  6
CONTINUOUS
 62
  250
 10
286.94825899672031
 20
197.83927172842822
 11
285.84239999999999
 21
197.53336875716405
  0
LINE
  8
_0-2_3
  6
CONTINUOUS
 62
  250
 10
285.84239999999999
 20
197.53336875716405
 11
284.84288673219424
 21
197.11819801796266
  0
LINE
  8
_0-2_3
  6
CONTINUOUS
 62
  250
 10
284.84288673219424
 20
197.11819801796266
 11
283.98008889816713
 21
196.60637426364812
  0
LINE
  8
_0-2_3
  6
CONTINUOUS
 62
  250
 10
283.98008889816713
 20
196.60637426364812
 11
283.28022217350894
 21
196.01344899999998
  0
LINE
  8
_0-2_3
  6
CONTINUOUS
 62
  250
 10
283.28022217350894
 20
196.01344899999998
 11
282.76455165449863
 21
195.35743796111955
  0
LINE
  8
_0-2_3
  6
CONTINUOUS
 62
  250
 10
282.76455165449863
 20
195.35743796111955
 11
282.44874572891455
 21
194.65827371046557
  0
LINE
  8
_0-2_3
  6
CONTINUOUS
 62
  250
 10
282.44874572891455
 20
194.65827371046557
 11
282.3475226788999
 21
194.09603437811276
  0
LINE
  8
_0-2_3
  6
CONTINUOUS
 62
  250
 10
296.34239999999999
 20
192.73019999999999
 11
296.34239999999999
 21
192.73019999999999
  0
LINE
  8
_0-2_3
  6
CONTINUOUS
 62
  250
 10
296.34239999999999
 20
192.73019999999999
 11
296.23605427108543
 21
193.45127371046555
  0
LINE
  8
_0-2_3
  6
CONTINUOUS
 62
  250
 10
296.23605427108543
 20
193.45127371046555
 11
295.92024834550136
 21
194.15043796111953
  0
LINE
  8
_0-2_3
  6
CONTINUOUS
 62
  250
 10
295.92024834550136
 20
194.15043796111953
 11
295.40457782649104
 21
194.80644899999998
  0
LINE
  8
_0-2_3
  6
CONTINUOUS
 62
  250
 10
295.40457782649104
 20
194.80644899999998
 11
294.70471110183285
 21
195.39937426364812
  0
LINE
  8
_0-2_3
  6
CONTINUOUS
 62
  250
 10
294.70471110183285
 20
195.39937426364812
 11
293.84191326780575
 21
195.91119801796267
  0
LINE
  8
_0-2_3
  6
CONTINUOUS
 62
  250
 10
293.84191326780575
 20
195.91119801796267
 11
292.84239999999999
 21
196.32636875716406
  0
LINE
  8
_0-2_3
  6
CONTINUOUS
 62
  250
 10
292.84239999999999
 20
196.32636875716406
 11
291.73654100327968
 21
196.63227172842823
  0
LINE
  8
_0-2_3
  6
CONTINUOUS
 62
  250
 10
291.73654100327968
 20
196.63227172842823
 11
290.5579372436685
 21
196.81961222476769
  0
LINE
  8
_0-2_3
  6
CONTINUOUS
 62
  250
 10
290.5579372436685
 20
196.81961222476769
 11
289.34239999999999
 21
196.882698
  0
LINE
  8
_0-2_3
  6
CONTINUOUS
 62
  250
 10
289.34239999999999
 20
196.882698
 11
288.12686275633149
 21
196.81961222476769
  0
LINE
  8
_0-2_3
  6
CONTINUOUS
 62
  250
 10
288.12686275633149
 20
196.81961222476769
 11
286.94825899672031
 21
196.63227172842823
  0
LINE
  8
_0-2_3
  6
CONTINUOUS
 62
  250
 10
286.94825899672031
 20
196.63227172842823
 11
285.84239999999999
 21
196.32636875716406
  0
LINE
  8
_0-2_3
  6
CONTINUOUS
 62
  250
 10
285.84239999999999
 20
196.32636875716406
 11
284.84288673219424
 21
195.91119801796267
  0
LINE
  8
_0-2_3
  6
CONTINUOUS
 62
  250
 10
284.84288673219424
 20
195.91119801796267
 11
283.98008889816713
 21
195.39937426364812
  0
LINE
  8
_0-2_3
  6
CONTINUOUS
 62
  250
 10
283.98008889816713
 20
195.39937426364812
 11
283.28022217350894
 21
194.80644899999998
  0
LINE
  8
_0-2_3
  6
CONTINUOUS
 62
  250
 10
283.28022217350894
 20
194.80644899999998
 11
282.76455165449863
 21
194.15043796111956
  0
LINE
  8
_0-2_3
  6
CONTINUOUS
 62
  250
 10
282.76455165449863
 20
194.15043796111956
 11
282.44874572891455
 21
193.45127371046558
  0
LINE
  8
_0-2_3
  6
CONTINUOUS
 62
  250
 10
282.44874572891455
 20
193.45127371046558
 11
282.34814084245158
 21
192.89834120764194
  0
ARC
  8
_0-2_3
  6
CONTINUOUS
 62
  250
 10
289.34239999999999
 20
162.15059999999999
 40
13.25
 50
0
 51
45.895000000000017
  0
ARC
  8
_0-2_3
  6
CONTINUOUS
 62
  250
 10
289.34239999999999
 20
162.15059999999999
 40
13.25
 50
134.10500000000001
 51
180.00000000000005
  0
ARC
  8
_0-2_3
  6
CONTINUOUS
 62
  250
 10
300.65199999999998
 20
173.81919999999999
 40
3
 50
183.69200000000003
 51
225.89500000000006
  0
ARC
  8
_0-2_3
  6
CONTINUOUS
 62
  250
 10
278.03289999999998
 20
173.81919999999999
 40
3
 50
314.10500000000007
 51
356.30800000000004
  0
ARC
  8
_0-2_3
  6
CONTINUOUS
 62
  250
 10
277.9703
 20
172.83039999999999
 40
3
 50
322.25300000000004
 51
356.09200000000004
  0
ARC
  8
_0-2_3
  6
CONTINUOUS
 62
  250
 10
300.71460000000001
 20
172.83039999999999
 40
3
 50
183.90800000000001
 51
217.74700000000004
  0
ARC
  8
_0-2_3
  6
CONTINUOUS
 62
  250
 10
289.34239999999999
 20
189.3331
 40
19.154299999999999
 50
254.86800000000005
 51
285.13200000000006
  0
ARC
  8
_0-2_3
  6
CONTINUOUS
 62
  250
 10
276.34239999999999
 20
152.52909999999999
 40
1.5
 50
318.94300000000009
 51
0.000000000000089
  0
ARC
  8
_0-2_3
  6
CONTINUOUS
 62
  250
 10
302.34239999999999
 20
152.53319999999999
 40
1.5
 50
180.00000000000005
 51
221.29800000000005
  0
LINE
  8
_0-2_3
  6
CONTINUOUS
 62
  250
 10
302.59239999999999
 20
152.36850000000001
 11
302.59239999999999
 21
152.36850000000001
  0
LINE
  8
_0-2_3
  6
CONTINUOUS
 62
  250
 10
302.59239999999999
 20
152.36850000000001
 11
302.39110272741174
 21
153.51336265241829
  0
LINE
  8
_0-2_3
  6
CONTINUOUS
 62
  250
 10
302.39110272741174
 20
153.51336265241829
 11
301.79332722541329
 21
154.62343923247132
  0
LINE
  8
_0-2_3
  6
CONTINUOUS
 62
  250
 10
301.79332722541329
 20
154.62343923247132
 11
300.81723660014381
 21
155.665000625
  0
LINE
  8
_0-2_3
  6
CONTINUOUS
 62
  250
 10
300.81723660014381
 20
155.665000625
 11
299.49248887132642
 21
156.60639951414788
  0
LINE
  8
_0-2_3
  6
CONTINUOUS
 62
  250
 10
299.49248887132642
 20
156.60639951414788
 11
297.85933582834661
 21
157.41903197103897
  0
LINE
  8
_0-2_3
  6
CONTINUOUS
 62
  250
 10
297.85933582834661
 20
157.41903197103897
 11
295.96739999999999
 21
158.07820656968257
  0
LINE
  8
_0-2_3
  6
CONTINUOUS
 62
  250
 10
295.96739999999999
 20
158.07820656968257
 11
293.87416689906513
 21
158.56389462345728
  0
LINE
  8
_0-2_3
  6
CONTINUOUS
 62
  250
 10
293.87416689906513
 20
158.56389462345728
 11
291.6432383540868
 21
158.86133874661919
  0
LINE
  8
_0-2_3
  6
CONTINUOUS
 62
  250
 10
291.6432383540868
 20
158.86133874661919
 11
289.34239999999999
 21
158.96150125000002
  0
LINE
  8
_0-2_3
  6
CONTINUOUS
 62
  250
 10
289.34239999999999
 20
158.96150125000002
 11
287.04156164591319
 21
158.86133874661919
  0
LINE
  8
_0-2_3
  6
CONTINUOUS
 62
  250
 10
287.04156164591319
 20
158.86133874661919
 11
284.81063310093486
 21
158.56389462345728
  0
LINE
  8
_0-2_3
  6
CONTINUOUS
 62
  250
 10
284.81063310093486
 20
158.56389462345728
 11
282.71739999999999
 21
158.07820656968257
  0
LINE
  8
_0-2_3
  6
CONTINUOUS
 62
  250
 10
282.71739999999999
 20
158.07820656968257
 11
280.82546417165337
 21
157.41903197103897
  0
LINE
  8
_0-2_3
  6
CONTINUOUS
 62
  250
 10
280.82546417165337
 20
157.41903197103897
 11
279.19231112867356
 21
156.60639951414788
  0
LINE
  8
_0-2_3
  6
CONTINUOUS
 62
  250
 10
279.19231112867356
 20
156.60639951414788
 11
277.86756339985618
 21
155.665000625
  0
LINE
  8
_0-2_3
  6
CONTINUOUS
 62
  250
 10
277.86756339985618
 20
155.665000625
 11
276.8914727745867
 21
154.62343923247132
  0
LINE
  8
_0-2_3
  6
CONTINUOUS
 62
  250
 10
276.8914727745867
 20
154.62343923247132
 11
276.29369727258824
 21
153.51336265241832
  0
LINE
  8
_0-2_3
  6
CONTINUOUS
 62
  250
 10
276.29369727258824
 20
153.51336265241832
 11
276.10737610129007
 21
152.68187680522777
  0
LINE
  8
_0-2_3
  6
CONTINUOUS
 62
  250
 10
301.84239999999999
 20
152.36850000000001
 11
301.84239999999999
 21
152.36850000000001
  0
LINE
  8
_0-2_3
  6
CONTINUOUS
 62
  250
 10
301.84239999999999
 20
152.36850000000001
 11
301.65249691265262
 21
153.41855053035195
  0
LINE
  8
_0-2_3
  6
CONTINUOUS
 62
  250
 10
301.65249691265262
 20
153.41855053035195
 11
301.08855775982385
 21
154.43669580669032
  0
LINE
  8
_0-2_3
  6
CONTINUOUS
 62
  250
 10
301.08855775982385
 20
154.43669580669032
 11
300.16771754730547
 21
155.39200000000002
  0
LINE
  8
_0-2_3
  6
CONTINUOUS
 62
  250
 10
300.16771754730547
 20
155.39200000000002
 11
298.9179555389872
 21
156.25543667577451
  0
LINE
  8
_0-2_3
  6
CONTINUOUS
 62
  250
 10
298.9179555389872
 20
156.25543667577451
 11
297.37724512108172
 21
157.00077074754048
  0
LINE
  8
_0-2_3
  6
CONTINUOUS
 62
  250
 10
297.37724512108172
 20
157.00077074754048
 11
295.59239999999999
 21
157.6053556166845
  0
LINE
  8
_0-2_3
  6
CONTINUOUS
 62
  250
 10
295.59239999999999
 20
157.6053556166845
 11
293.61765179157083
 21
158.05082127789239
  0
LINE
  8
_0-2_3
  6
CONTINUOUS
 62
  250
 10
293.61765179157083
 20
158.05082127789239
 11
291.51300222083665
 21
158.32363248246483
  0
LINE
  8
_0-2_3
  6
CONTINUOUS
 62
  250
 10
291.51300222083665
 20
158.32363248246483
 11
289.34239999999999
 21
158.4155
  0
LINE
  8
_0-2_3
  6
CONTINUOUS
 62
  250
 10
289.34239999999999
 20
158.4155
 11
287.17179777916334
 21
158.32363248246483
  0
LINE
  8
_0-2_3
  6
CONTINUOUS
 62
  250
 10
287.17179777916334
 20
158.32363248246483
 11
285.06714820842915
 21
158.05082127789239
  0
LINE
  8
_0-2_3
  6
CONTINUOUS
 62
  250
 10
285.06714820842915
 20
158.05082127789239
 11
283.09239999999999
 21
157.6053556166845
  0
LINE
  8
_0-2_3
  6
CONTINUOUS
 62
  250
 10
283.09239999999999
 20
157.6053556166845
 11
281.30755487891826
 21
157.00077074754048
  0
LINE
  8
_0-2_3
  6
CONTINUOUS
 62
  250
 10
281.30755487891826
 20
157.00077074754048
 11
279.76684446101279
 21
156.25543667577451
  0
LINE
  8
_0-2_3
  6
CONTINUOUS
 62
  250
 10
279.76684446101279
 20
156.25543667577451
 11
278.51708245269452
 21
155.39200000000002
  0
LINE
  8
_0-2_3
  6
CONTINUOUS
 62
  250
 10
278.51708245269452
 20
155.39200000000002
 11
277.59624224017613
 21
154.43669580669032
  0
LINE
  8
_0-2_3
  6
CONTINUOUS
 62
  250
 10
277.59624224017613
 20
154.43669580669032
 11
277.03230308734737
 21
153.41855053035195
  0
LINE
  8
_0-2_3
  6
CONTINUOUS
 62
  250
 10
277.03230308734737
 20
153.41855053035195
 11
276.84239999999999
 21
152.36850000000001
  0
LINE
  8
_0-2_3
  6
CONTINUOUS
 62
  250
 10
276.84239999999999
 20
152.36850000000001
 11
276.84240091367979
 21
152.36618795137553
  0
LINE
  8
_0-2_3
  6
CONTINUOUS
 62
  250
 10
276.84266093032533
 20
152.36588963421786
 11
276.84266093032533
 21
152.36588963421786
  0
LINE
  8
_0-2_3
  6
CONTINUOUS
 62
  250
 10
276.84266093032533
 20
152.36588963421786
 11
277.04658496881199
 21
152.29577689218376
  0
LINE
  8
_0-2_3
  6
CONTINUOUS
 62
  250
 10
277.04658496881199
 20
152.29577689218376
 11
277.62411112503872
 21
152.22787380498098
  0
LINE
  8
_0-2_3
  6
CONTINUOUS
 62
  250
 10
277.62411112503872
 20
152.22787380498098
 11
277.8087096421778
 21
152.21274580970046
  0
LINE
  8
_0-2_3
  6
CONTINUOUS
 62
  250
 10
300.87697707080172
 20
152.21281441642287
 11
300.87697707080172
 21
152.21281441642287
  0
LINE
  8
_0-2_3
  6
CONTINUOUS
 62
  250
 10
300.87697707080172
 20
152.21281441642287
 11
301.53820497027203
 21
152.27991524214544
  0
LINE
  8
_0-2_3
  6
CONTINUOUS
 62
  250
 10
301.53820497027203
 20
152.27991524214544
 11
301.82886950709576
 21
152.34970767090936
  0
LINE
  8
_0-2_3
  6
CONTINUOUS
 62
  250
 10
301.82886950709576
 20
152.34970767090936
 11
301.84239999999999
 21
152.36850000000001
  0
LINE
  8
_0-2_3
  6
CONTINUOUS
 62
  250
 10
276.09240000000079
 20
152.36849986005242
 11
276.09240000000079
 21
152.36849986005242
  0
LINE
  8
_0-2_3
  6
CONTINUOUS
 62
  250
 10
276.09240000000079
 20
152.36849986005242
 11
276.29369806959942
 21
152.29834499992406
  0
LINE
  8
_0-2_3
  6
CONTINUOUS
 62
  250
 10
276.29369806959942
 20
152.29834499992406
 11
276.89147434439149
 21
152.2303217639729
  0
LINE
  8
_0-2_3
  6
CONTINUOUS
 62
  250
 10
276.89147434439149
 20
152.2303217639729
 11
277.79885958322586
 21
152.17016975670645
  0
LINE
  8
_0-2_3
  6
CONTINUOUS
 62
  250
 10
300.88695524106327
 20
152.17022468087628
 11
300.88695524106327
 21
152.17022468087628
  0
LINE
  8
_0-2_3
  6
CONTINUOUS
 62
  250
 10
300.88695524106327
 20
152.17022468087628
 11
301.84075801653443
 21
152.23436196115454
  0
LINE
  8
_0-2_3
  6
CONTINUOUS
 62
  250
 10
301.84075801653443
 20
152.23436196115454
 11
302.41480450814748
 21
152.30257495786599
  0
LINE
  8
_0-2_3
  6
CONTINUOUS
 62
  250
 10
302.41480450814748
 20
152.30257495786599
 11
302.59239999999999
 21
152.36850000000001
  0
ARC
  8
_0-2_3
  6
CONTINUOUS
 62
  250
 10
289.34239999999999
 20
162.15059999999999
 40
13.25
 50
0
 51
45.895000000000017
  0
ARC
  8
_0-2_3
  6
CONTINUOUS
 62
  250
 10
289.34239999999999
 20
162.15059999999999
 40
13.25
 50
134.10500000000001
 51
180.00000000000005
  0
LINE
  8
_0-2_3
  6
CONTINUOUS
 62
  250
 10
243.5627
 20
207.9557
 11
243.5627
 21
207.9557
  0
LINE
  8
_0-2_3
  6
CONTINUOUS
 62
  250
 10
243.5627
 20
207.9557
 11
243.48339191304961
 21
208.03471106141179
  0
LINE
  8
_0-2_3
  6
CONTINUOUS
 62
  250
 10
243.48339191304961
 20
208.03471106141179
 11
243.24787738828868
 21
208.11132141170409
  0
LINE
  8
_0-2_3
  6
CONTINUOUS
 62
  250
 10
243.24787738828868
 20
208.11132141170409
 11
242.8633124153759
 21
208.18320328415001
  0
LINE
  8
_0-2_3
  6
CONTINUOUS
 62
  250
 10
242.8633124153759
 20
208.18320328415001
 11
242.341381806414
 21
208.24817258442922
  0
LINE
  8
_0-2_3
  6
CONTINUOUS
 62
  250
 10
242.341381806414
 20
208.24817258442922
 11
241.69794415884663
 21
208.30425525322885
  0
LINE
  8
_0-2_3
  6
CONTINUOUS
 62
  250
 10
241.69794415884663
 20
208.30425525322885
 11
240.95255
 21
208.34974724703658
  0
LINE
  8
_0-2_3
  6
CONTINUOUS
 62
  250
 10
240.95255
 20
208.34974724703658
 11
240.12784775420297
 21
208.38326631464065
  0
LINE
  8
_0-2_3
  6
CONTINUOUS
 62
  250
 10
240.12784775420297
 20
208.38326631464065
 11
239.24889558187467
 21
208.40379399613331
  0
LINE
  8
_0-2_3
  6
CONTINUOUS
 62
  250
 10
239.24889558187467
 20
208.40379399613331
 11
238.34239999999999
 21
208.41070656830001
  0
LINE
  8
_0-2_3
  6
CONTINUOUS
 62
  250
 10
238.34239999999999
 20
208.41070656830001
 11
237.43590441812531
 21
208.40379399613331
  0
LINE
  8
_0-2_3
  6
CONTINUOUS
 62
  250
 10
237.43590441812531
 20
208.40379399613331
 11
236.55695224579702
 21
208.38326631464065
  0
LINE
  8
_0-2_3
  6
CONTINUOUS
 62
  250
 10
236.55695224579702
 20
208.38326631464065
 11
235.73224999999999
 21
208.34974724703658
  0
LINE
  8
_0-2_3
  6
CONTINUOUS
 62
  250
 10
235.73224999999999
 20
208.34974724703658
 11
234.98685584115335
 21
208.30425525322885
  0
LINE
  8
_0-2_3
  6
CONTINUOUS
 62
  250
 10
234.98685584115335
 20
208.30425525322885
 11
234.34341819358598
 21
208.24817258442922
  0
LINE
  8
_0-2_3
  6
CONTINUOUS
 62
  250
 10
234.34341819358598
 20
208.24817258442922
 11
233.82148758462409
 21
208.18320328415001
  0
LINE
  8
_0-2_3
  6
CONTINUOUS
 62
  250
 10
233.82148758462409
 20
208.18320328415001
 11
233.43692261171131
 21
208.11132141170409
  0
LINE
  8
_0-2_3
  6
CONTINUOUS
 62
  250
 10
233.43692261171131
 20
208.11132141170409
 11
233.20140808695038
 21
208.03471106141179
  0
LINE
  8
_0-2_3
  6
CONTINUOUS
 62
  250
 10
233.20140808695038
 20
208.03471106141179
 11
233.12209999999998
 21
207.9557
  0
LINE
  8
_0-2_3
  6
CONTINUOUS
 62
  250
 10
233.12209999999998
 20
207.9557
 11
233.1221000000003
 21
207.95569984238574
  0
LINE
  8
_0-2_3
  6
CONTINUOUS
 62
  250
 10
243.34239999999999
 20
206.7107
 11
243.34239999999999
 21
206.7107
  0
LINE
  8
_0-2_3
  6
CONTINUOUS
 62
  250
 10
243.34239999999999
 20
206.7107
 11
243.26643876506102
 21
206.78636719341835
  0
LINE
  8
_0-2_3
  6
CONTINUOUS
 62
  250
 10
243.26643876506102
 20
206.78636719341835
 11
243.04086310392955
 21
206.85973527745414
  0
LINE
  8
_0-2_3
  6
CONTINUOUS
 62
  250
 10
243.04086310392955
 20
206.85973527745414
 11
242.67252701892218
 21
206.92857499999999
  0
LINE
  8
_0-2_3
  6
CONTINUOUS
 62
  250
 10
242.67252701892218
 20
206.92857499999999
 11
242.17262221559488
 21
206.9907947009209
  0
LINE
  8
_0-2_3
  6
CONTINUOUS
 62
  250
 10
242.17262221559488
 20
206.9907947009209
 11
241.5563380484327
 21
207.04450386608908
  0
LINE
  8
_0-2_3
  6
CONTINUOUS
 62
  250
 10
241.5563380484327
 20
207.04450386608908
 11
240.84239999999999
 21
207.08807056969908
  0
LINE
  8
_0-2_3
  6
CONTINUOUS
 62
  250
 10
240.84239999999999
 20
207.08807056969908
 11
240.05250071662834
 21
207.12017105950747
  0
LINE
  8
_0-2_3
  6
CONTINUOUS
 62
  250
 10
240.05250071662834
 20
207.12017105950747
 11
239.21064088833463
 21
207.13982997837507
  0
LINE
  8
_0-2_3
  6
CONTINUOUS
 62
  250
 10
239.21064088833463
 20
207.13982997837507
 11
238.34239999999999
 21
207.14645000000001
  0
LINE
  8
_0-2_3
  6
CONTINUOUS
 62
  250
 10
238.34239999999999
 20
207.14645000000001
 11
237.47415911166535
 21
207.13982997837507
  0
LINE
  8
_0-2_3
  6
CONTINUOUS
 62
  250
 10
237.47415911166535
 20
207.13982997837507
 11
236.63229928337165
 21
207.12017105950747
  0
LINE
  8
_0-2_3
  6
CONTINUOUS
 62
  250
 10
236.63229928337165
 20
207.12017105950747
 11
235.84239999999999
 21
207.08807056969908
  0
LINE
  8
_0-2_3
  6
CONTINUOUS
 62
  250
 10
235.84239999999999
 20
207.08807056969908
 11
235.12846195156731
 21
207.04450386608908
  0
LINE
  8
_0-2_3
  6
CONTINUOUS
 62
  250
 10
235.12846195156731
 20
207.04450386608908
 11
234.51217778440511
 21
206.9907947009209
  0
LINE
  8
_0-2_3
  6
CONTINUOUS
 62
  250
 10
234.51217778440511
 20
206.9907947009209
 11
234.01227298107781
 21
206.92857499999999
  0
LINE
  8
_0-2_3
  6
CONTINUOUS
 62
  250
 10
234.01227298107781
 20
206.92857499999999
 11
233.64393689607047
 21
206.85973527745417
  0
LINE
  8
_0-2_3
  6
CONTINUOUS
 62
  250
 10
233.64393689607047
 20
206.85973527745417
 11
233.41836123493897
 21
206.78636719341835
  0
LINE
  8
_0-2_3
  6
CONTINUOUS
 62
  250
 10
233.41836123493897
 20
206.78636719341835
 11
233.34239999999999
 21
206.7107
  0
LINE
  8
_0-2_3
  6
CONTINUOUS
 62
  250
 10
233.34239999999999
 20
206.7107
 11
233.41836123493897
 21
206.63503280658164
  0
LINE
  8
_0-2_3
  6
CONTINUOUS
 62
  250
 10
233.41836123493897
 20
206.63503280658164
 11
233.64393689607044
 21
206.56166472254585
  0
LINE
  8
_0-2_3
  6
CONTINUOUS
 62
  250
 10
233.64393689607044
 20
206.56166472254585
 11
234.01227298107778
 21
206.49282500000001
  0
LINE
  8
_0-2_3
  6
CONTINUOUS
 62
  250
 10
234.01227298107778
 20
206.49282500000001
 11
234.51217778440511
 21
206.4306052990791
  0
LINE
  8
_0-2_3
  6
CONTINUOUS
 62
  250
 10
234.51217778440511
 20
206.4306052990791
 11
235.12846195156728
 21
206.37689613391091
  0
LINE
  8
_0-2_3
  6
CONTINUOUS
 62
  250
 10
235.12846195156728
 20
206.37689613391091
 11
235.84239999999999
 21
206.33332943030092
  0
LINE
  8
_0-2_3
  6
CONTINUOUS
 62
  250
 10
235.84239999999999
 20
206.33332943030092
 11
236.63229928337165
 21
206.30122894049253
  0
LINE
  8
_0-2_3
  6
CONTINUOUS
 62
  250
 10
236.63229928337165
 20
206.30122894049253
 11
237.47415911166532
 21
206.28157002162492
  0
LINE
  8
_0-2_3
  6
CONTINUOUS
 62
  250
 10
237.47415911166532
 20
206.28157002162492
 11
238.34239999999996
 21
206.27494999999998
  0
LINE
  8
_0-2_3
  6
CONTINUOUS
 62
  250
 10
238.34239999999996
 20
206.27494999999998
 11
239.21064088833463
 21
206.28157002162492
  0
LINE
  8
_0-2_3
  6
CONTINUOUS
 62
  250
 10
239.21064088833463
 20
206.28157002162492
 11
240.05250071662831
 21
206.30122894049253
  0
LINE
  8
_0-2_3
  6
CONTINUOUS
 62
  250
 10
240.05250071662831
 20
206.30122894049253
 11
240.84239999999996
 21
206.33332943030092
  0
LINE
  8
_0-2_3
  6
CONTINUOUS
 62
  250
 10
240.84239999999996
 20
206.33332943030092
 11
241.55633804843267
 21
206.37689613391091
  0
LINE
  8
_0-2_3
  6
CONTINUOUS
 62
  250
 10
241.55633804843267
 20
206.37689613391091
 11
242.17262221559488
 21
206.4306052990791
  0
LINE
  8
_0-2_3
  6
CONTINUOUS
 62
  250
 10
242.17262221559488
 20
206.4306052990791
 11
242.67252701892218
 21
206.49282500000001
  0
LINE
  8
_0-2_3
  6
CONTINUOUS
 62
  250
 10
242.67252701892218
 20
206.49282500000001
 11
243.04086310392952
 21
206.56166472254582
  0
LINE
  8
_0-2_3
  6
CONTINUOUS
 62
  250
 10
243.04086310392952
 20
206.56166472254582
 11
243.26643876506102
 21
206.63503280658164
  0
LINE
  8
_0-2_3
  6
CONTINUOUS
 62
  250
 10
243.26643876506102
 20
206.63503280658164
 11
243.34239999999977
 21
206.71069986613761
  0
LINE
  8
_0-2_3
  6
CONTINUOUS
 62
  250
 10
242.21739999999999
 20
206.7107
 11
242.21739999999999
 21
206.7107
  0
LINE
  8
_0-2_3
  6
CONTINUOUS
 62
  250
 10
242.21739999999999
 20
206.7107
 11
242.1585300429223
 21
206.76934947665282
  0
LINE
  8
_0-2_3
  6
CONTINUOUS
 62
  250
 10
242.1585300429223
 20
206.76934947665282
 11
241.98370890554539
 21
206.82621691863559
  0
LINE
  8
_0-2_3
  6
CONTINUOUS
 62
  250
 10
241.98370890554539
 20
206.82621691863559
 11
241.69824843966469
 21
206.87957443749999
  0
LINE
  8
_0-2_3
  6
CONTINUOUS
 62
  250
 10
241.69824843966469
 20
206.87957443749999
 11
241.31082221708604
 21
206.92780079203558
  0
LINE
  8
_0-2_3
  6
CONTINUOUS
 62
  250
 10
241.31082221708604
 20
206.92780079203558
 11
240.83320198753534
 21
206.96943064886343
  0
LINE
  8
_0-2_3
  6
CONTINUOUS
 62
  250
 10
240.83320198753534
 20
206.96943064886343
 11
240.27989999999999
 21
207.00319910584963
  0
LINE
  8
_0-2_3
  6
CONTINUOUS
 62
  250
 10
240.27989999999999
 20
207.00319910584963
 11
239.66772805538695
 21
207.02808012551625
  0
LINE
  8
_0-2_3
  6
CONTINUOUS
 62
  250
 10
239.66772805538695
 20
207.02808012551625
 11
239.01528668845935
 21
207.04331771067114
  0
LINE
  8
_0-2_3
  6
CONTINUOUS
 62
  250
 10
239.01528668845935
 20
207.04331771067114
 11
238.34239999999999
 21
207.04844887499999
  0
LINE
  8
_0-2_3
  6
CONTINUOUS
 62
  250
 10
238.34239999999999
 20
207.04844887499999
 11
237.66951331154064
 21
207.04331771067114
  0
LINE
  8
_0-2_3
  6
CONTINUOUS
 62
  250
 10
237.66951331154064
 20
207.04331771067114
 11
237.01707194461303
 21
207.02808012551625
  0
LINE
  8
_0-2_3
  6
CONTINUOUS
 62
  250
 10
237.01707194461303
 20
207.02808012551625
 11
236.40489999999999
 21
207.00319910584963
  0
LINE
  8
_0-2_3
  6
CONTINUOUS
 62
  250
 10
236.40489999999999
 20
207.00319910584963
 11
235.85159801246464
 21
206.96943064886343
  0
LINE
  8
_0-2_3
  6
CONTINUOUS
 62
  250
 10
235.85159801246464
 20
206.96943064886343
 11
235.37397778291395
 21
206.92780079203558
  0
LINE
  8
_0-2_3
  6
CONTINUOUS
 62
  250
 10
235.37397778291395
 20
206.92780079203558
 11
234.9865515603353
 21
206.87957443749999
  0
LINE
  8
_0-2_3
  6
CONTINUOUS
 62
  250
 10
234.9865515603353
 20
206.87957443749999
 11
234.70109109445459
 21
206.82621691863559
  0
LINE
  8
_0-2_3
  6
CONTINUOUS
 62
  250
 10
234.70109109445459
 20
206.82621691863559
 11
234.52626995707768
 21
206.76934947665282
  0
LINE
  8
_0-2_3
  6
CONTINUOUS
 62
  250
 10
234.52626995707768
 20
206.76934947665282
 11
234.46739999999999
 21
206.7107
  0
LINE
  8
_0-2_3
  6
CONTINUOUS
 62
  250
 10
234.46739999999999
 20
206.7107
 11
234.52626995707768
 21
206.65205052334718
  0
LINE
  8
_0-2_3
  6
CONTINUOUS
 62
  250
 10
234.52626995707768
 20
206.65205052334718
 11
234.70109109445459
 21
206.59518308136441
  0
LINE
  8
_0-2_3
  6
CONTINUOUS
 62
  250
 10
234.70109109445459
 20
206.59518308136441
 11
234.9865515603353
 21
206.5418255625
  0
LINE
  8
_0-2_3
  6
CONTINUOUS
 62
  250
 10
234.9865515603353
 20
206.5418255625
 11
235.37397778291395
 21
206.49359920796442
  0
LINE
  8
_0-2_3
  6
CONTINUOUS
 62
  250
 10
235.37397778291395
 20
206.49359920796442
 11
235.85159801246464
 21
206.45196935113656
  0
LINE
  8
_0-2_3
  6
CONTINUOUS
 62
  250
 10
235.85159801246464
 20
206.45196935113656
 11
236.40489999999999
 21
206.4182008941504
  0
LINE
  8
_0-2_3
  6
CONTINUOUS
 62
  250
 10
236.40489999999999
 20
206.4182008941504
 11
237.01707194461303
 21
206.39331987448375
  0
LINE
  8
_0-2_3
  6
CONTINUOUS
 62
  250
 10
237.01707194461303
 20
206.39331987448375
 11
237.66951331154064
 21
206.37808228932885
  0
LINE
  8
_0-2_3
  6
CONTINUOUS
 62
  250
 10
237.66951331154064
 20
206.37808228932885
 11
238.34239999999999
 21
206.37295112500001
  0
LINE
  8
_0-2_3
  6
CONTINUOUS
 62
  250
 10
238.34239999999999
 20
206.37295112500001
 11
239.01528668845935
 21
206.37808228932885
  0
LINE
  8
_0-2_3
  6
CONTINUOUS
 62
  250
 10
239.01528668845935
 20
206.37808228932885
 11
239.66772805538695
 21
206.39331987448375
  0
LINE
  8
_0-2_3
  6
CONTINUOUS
 62
  250
 10
239.66772805538695
 20
206.39331987448375
 11
240.27989999999999
 21
206.41820089415037
  0
LINE
  8
_0-2_3
  6
CONTINUOUS
 62
  250
 10
240.27989999999999
 20
206.41820089415037
 11
240.83320198753531
 21
206.45196935113656
  0
LINE
  8
_0-2_3
  6
CONTINUOUS
 62
  250
 10
240.83320198753531
 20
206.45196935113656
 11
241.31082221708604
 21
206.49359920796442
  0
LINE
  8
_0-2_3
  6
CONTINUOUS
 62
  250
 10
241.31082221708604
 20
206.49359920796442
 11
241.69824843966469
 21
206.5418255625
  0
LINE
  8
_0-2_3
  6
CONTINUOUS
 62
  250
 10
241.69824843966469
 20
206.5418255625
 11
241.98370890554539
 21
206.59518308136441
  0
LINE
  8
_0-2_3
  6
CONTINUOUS
 62
  250
 10
241.98370890554539
 20
206.59518308136441
 11
242.1585300429223
 21
206.65205052334718
  0
LINE
  8
_0-2_3
  6
CONTINUOUS
 62
  250
 10
242.1585300429223
 20
206.65205052334718
 11
242.21739999999982
 21
206.71069989624353
  0
LINE
  8
_0-2_3
  6
CONTINUOUS
 62
  250
 10
251.84239999999999
 20
214.43099999999998
 11
251.84239999999999
 21
214.43099999999998
  0
LINE
  8
_0-2_3
  6
CONTINUOUS
 62
  250
 10
251.84239999999999
 20
214.43099999999998
 11
251.6373046656648
 21
214.63529673372877
  0
LINE
  8
_0-2_3
  6
CONTINUOUS
 62
  250
 10
251.6373046656648
 20
214.63529673372877
 11
251.02825038060976
 21
214.83338601458234
  0
LINE
  8
_0-2_3
  6
CONTINUOUS
 62
  250
 10
251.02825038060976
 20
214.83338601458234
 11
250.03374295108991
 21
215.01924899999997
  0
LINE
  8
_0-2_3
  6
CONTINUOUS
 62
  250
 10
250.03374295108991
 20
215.01924899999997
 11
248.6839999821062
 21
215.18723833722097
  0
LINE
  8
_0-2_3
  6
CONTINUOUS
 62
  250
 10
248.6839999821062
 20
215.18723833722097
 11
247.02003273076826
 21
215.33224975524058
  0
LINE
  8
_0-2_3
  6
CONTINUOUS
 62
  250
 10
247.02003273076826
 20
215.33224975524058
 11
245.09239999999999
 21
215.44987715550155
  0
LINE
  8
_0-2_3
  6
CONTINUOUS
 62
  250
 10
245.09239999999999
 20
215.44987715550155
 11
242.95967193489653
 21
215.53654648896934
  0
LINE
  8
_0-2_3
  6
CONTINUOUS
 62
  250
 10
242.95967193489653
 20
215.53654648896934
 11
240.68665039850355
 21
215.58962435180333
  0
LINE
  8
_0-2_3
  6
CONTINUOUS
 62
  250
 10
240.68665039850355
 20
215.58962435180333
 11
238.34239999999999
 21
215.60749799999999
  0
LINE
  8
_0-2_3
  6
CONTINUOUS
 62
  250
 10
238.34239999999999
 20
215.60749799999999
 11
235.99814960149643
 21
215.58962435180333
  0
LINE
  8
_0-2_3
  6
CONTINUOUS
 62
  250
 10
235.99814960149643
 20
215.58962435180333
 11
233.72512806510346
 21
215.53654648896934
  0
LINE
  8
_0-2_3
  6
CONTINUOUS
 62
  250
 10
233.72512806510346
 20
215.53654648896934
 11
231.59239999999999
 21
215.44987715550155
  0
LINE
  8
_0-2_3
  6
CONTINUOUS
 62
  250
 10
231.59239999999999
 20
215.44987715550155
 11
229.66476726923173
 21
215.33224975524058
  0
LINE
  8
_0-2_3
  6
CONTINUOUS
 62
  250
 10
229.66476726923173
 20
215.33224975524058
 11
228.00080001789379
 21
215.18723833722097
  0
LINE
  8
_0-2_3
  6
CONTINUOUS
 62
  250
 10
228.00080001789379
 20
215.18723833722097
 11
226.65105704891007
 21
215.01924899999997
  0
LINE
  8
_0-2_3
  6
CONTINUOUS
 62
  250
 10
226.65105704891007
 20
215.01924899999997
 11
225.65654961939023
 21
214.83338601458234
  0
LINE
  8
_0-2_3
  6
CONTINUOUS
 62
  250
 10
225.65654961939023
 20
214.83338601458234
 11
225.04749533433519
 21
214.63529673372877
  0
LINE
  8
_0-2_3
  6
CONTINUOUS
 62
  250
 10
225.04749533433519
 20
214.63529673372877
 11
224.84239999999999
 21
214.43099999999998
  0
LINE
  8
_0-2_3
  6
CONTINUOUS
 62
  250
 10
224.84239999999999
 20
214.43099999999998
 11
224.84240000000079
 21
214.43099959246106
  0
LINE
  8
_0-2_3
  6
CONTINUOUS
 62
  250
 10
243.40343624718789
 20
207.05572778429578
 11
243.40343624718789
 21
207.05572778429578
  0
LINE
  8
_0-2_3
  6
CONTINUOUS
 62
  250
 10
243.40343624718789
 20
207.05572778429578
 11
245.11971983850759
 21
207.14599302388103
  0
LINE
  8
_0-2_3
  6
CONTINUOUS
 62
  250
 10
245.11971983850759
 20
207.14599302388103
 11
246.63007799602354
 21
207.26086080020414
  0
LINE
  8
_0-2_3
  6
CONTINUOUS
 62
  250
 10
246.63007799602354
 20
207.26086080020414
 11
247.88861925139772
 21
207.39684091400744
  0
LINE
  8
_0-2_3
  6
CONTINUOUS
 62
  250
 10
247.88861925139772
 20
207.39684091400744
 11
248.85710346543822
 21
207.5498016783423
  0
LINE
  8
_0-2_3
  6
CONTINUOUS
 62
  250
 10
248.85710346543822
 20
207.5498016783423
 11
249.50610373537804
 21
207.71509545778624
  0
LINE
  8
_0-2_3
  6
CONTINUOUS
 62
  250
 10
249.50610373537804
 20
207.71509545778624
 11
249.81590051642507
 21
207.88769988449359
  0
LINE
  8
_0-2_3
  6
CONTINUOUS
 62
  250
 10
249.81590051642507
 20
207.88769988449359
 11
249.77708079015192
 21
208.06237046030091
  0
LINE
  8
_0-2_3
  6
CONTINUOUS
 62
  250
 10
249.77708079015192
 20
208.06237046030091
 11
249.39082407429771
 21
208.23379990814981
  0
LINE
  8
_0-2_3
  6
CONTINUOUS
 62
  250
 10
249.39082407429771
 20
208.23379990814981
 11
248.66886658371828
 21
208.39677943101492
  0
LINE
  8
_0-2_3
  6
CONTINUOUS
 62
  250
 10
248.66886658371828
 20
208.39677943101492
 11
247.63314463143677
 21
208.54635697856562
  0
LINE
  8
_0-2_3
  6
CONTINUOUS
 62
  250
 10
247.63314463143677
 20
208.54635697856562
 11
246.31512810487271
 21
208.67798771270943
  0
LINE
  8
_0-2_3
  6
CONTINUOUS
 62
  250
 10
246.31512810487271
 20
208.67798771270943
 11
244.75486426923717
 21
208.78767210019782
  0
LINE
  8
_0-2_3
  6
CONTINUOUS
 62
  250
 10
244.75486426923717
 20
208.78767210019782
 11
242.99976095164436
 21
208.87207743641988
  0
LINE
  8
_0-2_3
  6
CONTINUOUS
 62
  250
 10
242.99976095164436
 20
208.87207743641988
 11
241.10314607827416
 21
208.92863910794568
  0
LINE
  8
_0-2_3
  6
CONTINUOUS
 62
  250
 10
241.10314607827416
 20
208.92863910794568
 11
239.12264733232055
 21
208.95563851700748
  0
LINE
  8
_0-2_3
  6
CONTINUOUS
 62
  250
 10
239.12264733232055
 20
208.95563851700748
 11
237.11844116599857
 21
208.95225530022332
  0
LINE
  8
_0-2_3
  6
CONTINUOUS
 62
  250
 10
237.11844116599857
 20
208.95225530022332
 11
235.15142436949466
 21
208.91859225492319
  0
LINE
  8
_0-2_3
  6
CONTINUOUS
 62
  250
 10
235.15142436949466
 20
208.91859225492319
 11
233.28136375281209
 21
208.85567221570423
  0
LINE
  8
_0-2_3
  6
CONTINUOUS
 62
  250
 10
233.28136375281209
 20
208.85567221570423
 11
231.5650801614924
 21
208.76540697611898
  0
LINE
  8
_0-2_3
  6
CONTINUOUS
 62
  250
 10
231.5650801614924
 20
208.76540697611898
 11
230.05472200397647
 21
208.65053919979587
  0
LINE
  8
_0-2_3
  6
CONTINUOUS
 62
  250
 10
230.05472200397647
 20
208.65053919979587
 11
228.79618074860229
 21
208.51455908599257
  0
LINE
  8
_0-2_3
  6
CONTINUOUS
 62
  250
 10
228.79618074860229
 20
208.51455908599257
 11
227.82769653456179
 21
208.3615983216577
  0
LINE
  8
_0-2_3
  6
CONTINUOUS
 62
  250
 10
227.82769653456179
 20
208.3615983216577
 11
227.17869626462194
 21
208.19630454221376
  0
LINE
  8
_0-2_3
  6
CONTINUOUS
 62
  250
 10
227.17869626462194
 20
208.19630454221376
 11
226.86889948357492
 21
208.02370011550641
  0
LINE
  8
_0-2_3
  6
CONTINUOUS
 62
  250
 10
226.86889948357492
 20
208.02370011550641
 11
226.90771920984803
 21
207.8490295396991
  0
LINE
  8
_0-2_3
  6
CONTINUOUS
 62
  250
 10
226.90771920984803
 20
207.8490295396991
 11
227.29397592570228
 21
207.67760009185019
  0
LINE
  8
_0-2_3
  6
CONTINUOUS
 62
  250
 10
227.29397592570228
 20
207.67760009185019
 11
228.01593341628171
 21
207.51462056898509
  0
LINE
  8
_0-2_3
  6
CONTINUOUS
 62
  250
 10
228.01593341628171
 20
207.51462056898509
 11
229.05165536856318
 21
207.36504302143438
  0
LINE
  8
_0-2_3
  6
CONTINUOUS
 62
  250
 10
229.05165536856318
 20
207.36504302143438
 11
230.36967189512725
 21
207.23341228729057
  0
LINE
  8
_0-2_3
  6
CONTINUOUS
 62
  250
 10
230.36967189512725
 20
207.23341228729057
 11
231.92993573076279
 21
207.12372789980219
  0
LINE
  8
_0-2_3
  6
CONTINUOUS
 62
  250
 10
231.92993573076279
 20
207.12372789980219
 11
233.2813641576096
 21
207.05572776700546
  0
ARC
  8
_0-2_3
  6
CONTINUOUS
 62
  250
 10
226.8333
 20
209.94810000000001
 40
1.9908999999999998
 50
180.00000000000005
 51
270.00000000000005
  0
ARC
  8
_0-2_3
  6
CONTINUOUS
 62
  250
 10
249.85149999999998
 20
209.94810000000001
 40
1.9908999999999998
 50
270.00000000000005
 51
0.0000000000000763
  0
LINE
  8
_0-2_3
  6
CONTINUOUS
 62
  250
 10
251.84239999999999
 20
209.94810000000001
 11
251.84239999999999
 21
209.94810000000001
  0
LINE
  8
_0-2_3
  6
CONTINUOUS
 62
  250
 10
251.84239999999999
 20
209.94810000000001
 11
251.6373046656648
 21
210.1523967337288
  0
LINE
  8
_0-2_3
  6
CONTINUOUS
 62
  250
 10
251.6373046656648
 20
210.1523967337288
 11
251.02825038060976
 21
210.35048601458237
  0
LINE
  8
_0-2_3
  6
CONTINUOUS
 62
  250
 10
251.02825038060976
 20
210.35048601458237
 11
250.03374295108991
 21
210.536349
  0
LINE
  8
_0-2_3
  6
CONTINUOUS
 62
  250
 10
250.03374295108991
 20
210.536349
 11
248.6839999821062
 21
210.704338337221
  0
LINE
  8
_0-2_3
  6
CONTINUOUS
 62
  250
 10
248.6839999821062
 20
210.704338337221
 11
247.02003273076826
 21
210.8493497552406
  0
LINE
  8
_0-2_3
  6
CONTINUOUS
 62
  250
 10
247.02003273076826
 20
210.8493497552406
 11
245.09239999999999
 21
210.96697715550158
  0
LINE
  8
_0-2_3
  6
CONTINUOUS
 62
  250
 10
245.09239999999999
 20
210.96697715550158
 11
242.95967193489653
 21
211.05364648896937
  0
LINE
  8
_0-2_3
  6
CONTINUOUS
 62
  250
 10
242.95967193489653
 20
211.05364648896937
 11
240.68665039850355
 21
211.10672435180336
  0
LINE
  8
_0-2_3
  6
CONTINUOUS
 62
  250
 10
240.68665039850355
 20
211.10672435180336
 11
238.34239999999999
 21
211.12459800000002
  0
LINE
  8
_0-2_3
  6
CONTINUOUS
 62
  250
 10
238.34239999999999
 20
211.12459800000002
 11
235.99814960149643
 21
211.10672435180336
  0
LINE
  8
_0-2_3
  6
CONTINUOUS
 62
  250
 10
235.99814960149643
 20
211.10672435180336
 11
233.72512806510346
 21
211.05364648896937
  0
LINE
  8
_0-2_3
  6
CONTINUOUS
 62
  250
 10
233.72512806510346
 20
211.05364648896937
 11
231.59239999999999
 21
210.96697715550158
  0
LINE
  8
_0-2_3
  6
CONTINUOUS
 62
  250
 10
231.59239999999999
 20
210.96697715550158
 11
229.66476726923173
 21
210.8493497552406
  0
LINE
  8
_0-2_3
  6
CONTINUOUS
 62
  250
 10
229.66476726923173
 20
210.8493497552406
 11
228.00080001789379
 21
210.704338337221
  0
LINE
  8
_0-2_3
  6
CONTINUOUS
 62
  250
 10
228.00080001789379
 20
210.704338337221
 11
226.65105704891007
 21
210.536349
  0
LINE
  8
_0-2_3
  6
CONTINUOUS
 62
  250
 10
226.65105704891007
 20
210.536349
 11
225.65654961939023
 21
210.35048601458237
  0
LINE
  8
_0-2_3
  6
CONTINUOUS
 62
  250
 10
225.65654961939023
 20
210.35048601458237
 11
225.04749533433519
 21
210.1523967337288
  0
LINE
  8
_0-2_3
  6
CONTINUOUS
 62
  250
 10
225.04749533433519
 20
210.1523967337288
 11
224.84239999999999
 21
209.94810000000001
  0
LINE
  8
_0-2_3
  6
CONTINUOUS
 62
  250
 10
224.84239999999999
 20
209.94810000000001
 11
224.84240000000079
 21
209.94809959246109
  0
LINE
  8
_0-2_3
  6
CONTINUOUS
 62
  250
 10
251.84239999999999
 20
214.68
 11
251.84239999999999
 21
214.68
  0
LINE
  8
_0-2_3
  6
CONTINUOUS
 62
  250
 10
251.84239999999999
 20
214.68
 11
251.6373046656648
 21
214.8842967337288
  0
LINE
  8
_0-2_3
  6
CONTINUOUS
 62
  250
 10
251.6373046656648
 20
214.8842967337288
 11
251.02825038060976
 21
215.08238601458236
  0
LINE
  8
_0-2_3
  6
CONTINUOUS
 62
  250
 10
251.02825038060976
 20
215.08238601458236
 11
250.03374295108991
 21
215.26824899999999
  0
LINE
  8
_0-2_3
  6
CONTINUOUS
 62
  250
 10
250.03374295108991
 20
215.26824899999999
 11
248.6839999821062
 21
215.43623833722099
  0
LINE
  8
_0-2_3
  6
CONTINUOUS
 62
  250
 10
248.6839999821062
 20
215.43623833722099
 11
247.02003273076826
 21
215.5812497552406
  0
LINE
  8
_0-2_3
  6
CONTINUOUS
 62
  250
 10
247.02003273076826
 20
215.5812497552406
 11
245.09239999999999
 21
215.69887715550157
  0
LINE
  8
_0-2_3
  6
CONTINUOUS
 62
  250
 10
245.09239999999999
 20
215.69887715550157
 11
242.95967193489653
 21
215.78554648896937
  0
LINE
  8
_0-2_3
  6
CONTINUOUS
 62
  250
 10
242.95967193489653
 20
215.78554648896937
 11
240.68665039850355
 21
215.83862435180336
  0
LINE
  8
_0-2_3
  6
CONTINUOUS
 62
  250
 10
240.68665039850355
 20
215.83862435180336
 11
238.34239999999999
 21
215.85649800000001
  0
LINE
  8
_0-2_3
  6
CONTINUOUS
 62
  250
 10
238.34239999999999
 20
215.85649800000001
 11
235.99814960149643
 21
215.83862435180336
  0
LINE
  8
_0-2_3
  6
CONTINUOUS
 62
  250
 10
235.99814960149643
 20
215.83862435180336
 11
233.72512806510346
 21
215.78554648896937
  0
LINE
  8
_0-2_3
  6
CONTINUOUS
 62
  250
 10
233.72512806510346
 20
215.78554648896937
 11
231.59239999999999
 21
215.69887715550157
  0
LINE
  8
_0-2_3
  6
CONTINUOUS
 62
  250
 10
231.59239999999999
 20
215.69887715550157
 11
229.66476726923173
 21
215.5812497552406
  0
LINE
  8
_0-2_3
  6
CONTINUOUS
 62
  250
 10
229.66476726923173
 20
215.5812497552406
 11
228.00080001789379
 21
215.43623833722099
  0
LINE
  8
_0-2_3
  6
CONTINUOUS
 62
  250
 10
228.00080001789379
 20
215.43623833722099
 11
226.65105704891007
 21
215.26824899999999
  0
LINE
  8
_0-2_3
  6
CONTINUOUS
 62
  250
 10
226.65105704891007
 20
215.26824899999999
 11
225.65654961939023
 21
215.08238601458236
  0
LINE
  8
_0-2_3
  6
CONTINUOUS
 62
  250
 10
225.65654961939023
 20
215.08238601458236
 11
225.04749533433519
 21
214.8842967337288
  0
LINE
  8
_0-2_3
  6
CONTINUOUS
 62
  250
 10
225.04749533433519
 20
214.8842967337288
 11
224.84239999999999
 21
214.68
  0
LINE
  8
_0-2_3
  6
CONTINUOUS
 62
  250
 10
224.84239999999999
 20
214.68
 11
224.84240000000079
 21
214.67999959246108
  0
LINE
  8
_0-2_3
  6
CONTINUOUS
 62
  250
 10
251.84239999999999
 20
227.58080000000001
 11
251.84239999999999
 21
227.58080000000001
  0
LINE
  8
_0-2_3
  6
CONTINUOUS
 62
  250
 10
251.84239999999999
 20
227.58080000000001
 11
251.6373046656648
 21
228.14810859643787
  0
LINE
  8
_0-2_3
  6
CONTINUOUS
 62
  250
 10
251.6373046656648
 20
228.14810859643787
 11
251.02825038060976
 21
228.69817980824495
  0
LINE
  8
_0-2_3
  6
CONTINUOUS
 62
  250
 10
251.02825038060976
 20
228.69817980824495
 11
250.03374295108991
 21
229.2143
  0
LINE
  8
_0-2_3
  6
CONTINUOUS
 62
  250
 10
250.03374295108991
 20
229.2143
 11
248.6839999821062
 21
229.68078712084593
  0
LINE
  8
_0-2_3
  6
CONTINUOUS
 62
  250
 10
248.6839999821062
 20
229.68078712084593
 11
247.02003273076826
 21
230.08346719566969
  0
LINE
  8
_0-2_3
  6
CONTINUOUS
 62
  250
 10
247.02003273076826
 20
230.08346719566969
 11
245.09239999999999
 21
230.41010499416375
  0
LINE
  8
_0-2_3
  6
CONTINUOUS
 62
  250
 10
245.09239999999999
 20
230.41010499416375
 11
242.95967193489653
 21
230.65077579210756
  0
LINE
  8
_0-2_3
  6
CONTINUOUS
 62
  250
 10
242.95967193489653
 20
230.65077579210756
 11
240.68665039850355
 21
230.79816692909088
  0
LINE
  8
_0-2_3
  6
CONTINUOUS
 62
  250
 10
240.68665039850355
 20
230.79816692909088
 11
238.34239999999999
 21
230.8478
  0
LINE
  8
_0-2_3
  6
CONTINUOUS
 62
  250
 10
238.34239999999999
 20
230.8478
 11
235.99814960149643
 21
230.79816692909088
  0
LINE
  8
_0-2_3
  6
CONTINUOUS
 62
  250
 10
235.99814960149643
 20
230.79816692909088
 11
233.72512806510346
 21
230.65077579210756
  0
LINE
  8
_0-2_3
  6
CONTINUOUS
 62
  250
 10
233.72512806510346
 20
230.65077579210756
 11
231.59239999999999
 21
230.41010499416375
  0
LINE
  8
_0-2_3
  6
CONTINUOUS
 62
  250
 10
231.59239999999999
 20
230.41010499416375
 11
229.66476726923173
 21
230.08346719566972
  0
LINE
  8
_0-2_3
  6
CONTINUOUS
 62
  250
 10
229.66476726923173
 20
230.08346719566972
 11
228.00080001789379
 21
229.68078712084593
  0
LINE
  8
_0-2_3
  6
CONTINUOUS
 62
  250
 10
228.00080001789379
 20
229.68078712084593
 11
226.65105704891007
 21
229.2143
  0
LINE
  8
_0-2_3
  6
CONTINUOUS
 62
  250
 10
226.65105704891007
 20
229.2143
 11
225.65654961939023
 21
228.69817980824498
  0
LINE
  8
_0-2_3
  6
CONTINUOUS
 62
  250
 10
225.65654961939023
 20
228.69817980824498
 11
225.04749533433519
 21
228.14810859643787
  0
LINE
  8
_0-2_3
  6
CONTINUOUS
 62
  250
 10
225.04749533433519
 20
228.14810859643787
 11
224.84239999999999
 21
227.58080000000001
  0
LINE
  8
_0-2_3
  6
CONTINUOUS
 62
  250
 10
224.84239999999999
 20
227.58080000000001
 11
224.84240000000079
 21
227.5807988683112
  0
ARC
  8
_0-2_3
  6
CONTINUOUS
 62
  250
 10
232.3298
 20
225.66919999999998
 40
2.9872999999999998
 50
90.000000000000028
 51
270.00000000000011
  0
ARC
  8
_0-2_3
  6
CONTINUOUS
 62
  250
 10
244.35509999999999
 20
225.66919999999998
 40
2.9872999999999998
 50
270.00000000000005
 51
90.000000000000099
  0
ARC
  8
_0-2_3
  6
CONTINUOUS
 62
  250
 10
244.35419999999999
 20
225.66919999999998
 40
3.0882
 50
270.00000000000005
 51
0.0000000000000763
  0
ARC
  8
_0-2_3
  6
CONTINUOUS
 62
  250
 10
244.45349999999999
 20
225.66919999999998
 40
2.9889999999999998
 50
0.0000000000001017
 51
91.88600000000008
  0
ARC
  8
_0-2_3
  6
CONTINUOUS
 62
  250
 10
232.2314
 20
225.66919999999998
 40
2.9889999999999998
 50
88.114000000000018
 51
180.00000000000005
  0
ARC
  8
_0-2_3
  6
CONTINUOUS
 62
  250
 10
232.3306
 20
225.66919999999998
 40
3.0882
 50
180.00000000000005
 51
270.00000000000005
  0
ARC
  8
_0-2_3
  6
CONTINUOUS
 62
  250
 10
233.8298
 20
225.66919999999998
 40
2.9872999999999998
 50
90.000000000000028
 51
270.00000000000011
  0
ARC
  8
_0-2_3
  6
CONTINUOUS
 62
  250
 10
242.85509999999999
 20
225.66919999999998
 40
2.9872999999999998
 50
270.00000000000005
 51
90.000000000000099
  0
LINE
  8
_0-2_3
  6
CONTINUOUS
 62
  250
 10
232.92450822451883
 20
207.07164242792342
 11
232.92450822451883
 21
207.07164242792342
  0
LINE
  8
_0-2_3
  6
CONTINUOUS
 62
  250
 10
232.92450822451883
 20
207.07164242792342
 11
233.96910093314392
 21
206.30842302250493
  0
LINE
  8
_0-2_3
  6
CONTINUOUS
 62
  250
 10
233.96910093314392
 20
206.30842302250493
 11
235.14657412091932
 21
205.71841276391651
  0
LINE
  8
_0-2_3
  6
CONTINUOUS
 62
  250
 10
235.14657412091932
 20
205.71841276391651
 11
236.42115086086468
 21
205.31953881530577
  0
LINE
  8
_0-2_3
  6
CONTINUOUS
 62
  250
 10
236.42115086086468
 20
205.31953881530577
 11
237.75410378370366
 21
205.12392075976126
  0
LINE
  8
_0-2_3
  6
CONTINUOUS
 62
  250
 10
237.75410378370366
 20
205.12392075976126
 11
239.10493178938259
 21
205.1375023529132
  0
LINE
  8
_0-2_3
  6
CONTINUOUS
 62
  250
 10
239.10493178938259
 20
205.1375023529132
 11
240.4325906525008
 21
205.35987092492629
  0
LINE
  8
_0-2_3
  6
CONTINUOUS
 62
  250
 10
240.4325906525008
 20
205.35987092492629
 11
241.69674013033031
 21
205.78426991926383
  0
LINE
  8
_0-2_3
  6
CONTINUOUS
 62
  250
 10
241.69674013033031
 20
205.78426991926383
 11
242.85896968067771
 21
206.39780418723916
  0
LINE
  8
_0-2_3
  6
CONTINUOUS
 62
  250
 10
242.85896968067771
 20
206.39780418723916
 11
243.76029199271053
 21
207.07164261714842
  0
ARC
  8
_0-2_3
  6
CONTINUOUS
 62
  250
 10
238.34239999999999
 20
199.42840000000001
 40
12
 50
240.90900000000004
 51
302.21400000000005
  0
ARC
  8
_0-2_3
  6
CONTINUOUS
 62
  250
 10
129.4375
 20
212.1193
 40
10
 50
94.79200000000003
 51
117.00000000000002
  0
ARC
  8
_0-2_3
  6
CONTINUOUS
 62
  250
 10
127.39449999999999
 20
216.12880000000001
 40
10
 50
297.00000000000005
 51
319.20800000000008
  0
ARC
  8
_0-2_3
  6
CONTINUOUS
 62
  250
 10
134.58690000000001
 20
209.9223
 40
0.5
 50
319.20800000000008
 51
27.000000000000063
  0
ARC
  8
_0-2_3
  6
CONTINUOUS
 62
  250
 10
128.6439
 20
221.58609999999998
 40
0.5
 50
27.000000000000007
 51
94.79200000000003
  0
ARC
  8
_0-2_3
  6
CONTINUOUS
 62
  250
 10
68.424800000000004
 20
299.71780000000001
 40
100
 50
285.00000000000011
 51
293.80000000000006
  0
ARC
  8
_0-2_3
  6
CONTINUOUS
 62
  250
 10
98.378500000000002
 20
110.80039999999999
 40
2.5
 50
270.00000000000005
 51
293.55600000000004
  0
ARC
  8
_0-2_3
  6
CONTINUOUS
 62
  250
 10
98.378500000000002
 20
106.90039999999999
 40
2.5
 50
66.444000000000016
 51
90.000000000000028
  0
ARC
  8
_0-2_3
  6
CONTINUOUS
 62
  250
 10
99.577399999999997
 20
108.05039999999999
 40
0.5
 50
90.000000000000028
 51
113.55600000000002
  0
ARC
  8
_0-2_3
  6
CONTINUOUS
 62
  250
 10
99.577399999999997
 20
109.65039999999999
 40
0.5
 50
246.44400000000001
 51
270.00000000000005
  0
ARC
  8
_0-2_3
  6
CONTINUOUS
 62
  250
 10
91.218199999999995
 20
116.42539999999999
 40
8.125
 50
270.00000000000005
 51
284.25000000000005
  0
ARC
  8
_0-2_3
  6
CONTINUOUS
 62
  250
 10
95.343199999999995
 20
116.42539999999999
 40
8.125
 50
262.93000000000006
 51
284.25000000000011
  0
ARC
  8
_0-2_3
  6
CONTINUOUS
 62
  250
 10
93.343199999999995
 20
116.42539999999999
 40
8.125
 50
262.4860000000001
 51
284.25000000000011
  0
ARC
  8
_0-2_3
  6
CONTINUOUS
 62
  250
 10
97.343199999999995
 20
116.42539999999999
 40
8.125
 50
262.93000000000006
 51
270.00000000000005
  0
ARC
  8
_0-2_3
  6
CONTINUOUS
 62
  250
 10
91.218199999999995
 20
101.27539999999999
 40
8.125
 50
75.750000000000014
 51
90.000000000000028
  0
ARC
  8
_0-2_3
  6
CONTINUOUS
 62
  250
 10
93.343199999999995
 20
101.27539999999999
 40
8.125
 50
75.750000000000014
 51
97.514000000000024
  0
ARC
  8
_0-2_3
  6
CONTINUOUS
 62
  250
 10
95.343199999999995
 20
101.27539999999999
 40
8.125
 50
75.750000000000014
 51
97.070000000000021
  0
ARC
  8
_0-2_3
  6
CONTINUOUS
 62
  250
 10
97.343199999999995
 20
101.27539999999999
 40
8.125
 50
90.000000000000028
 51
97.070000000000021
  0
ARC
  8
_0-2_3
  6
CONTINUOUS
 62
  250
 10
84.057900000000003
 20
110.80039999999999
 40
2.5
 50
246.44400000000001
 51
270.00000000000005
  0
ARC
  8
_0-2_3
  6
CONTINUOUS
 62
  250
 10
84.057900000000003
 20
106.90039999999999
 40
2.5
 50
90.000000000000028
 51
113.55600000000002
  0
ARC
  8
_0-2_3
  6
CONTINUOUS
 62
  250
 10
82.858999999999994
 20
108.05039999999999
 40
0.5
 50
66.444000000000016
 51
90.000000000000028
  0
ARC
  8
_0-2_3
  6
CONTINUOUS
 62
  250
 10
82.858999999999994
 20
109.65039999999999
 40
0.5
 50
270.00000000000005
 51
293.55600000000004
  0
ARC
  8
_0-2_3
  6
CONTINUOUS
 62
  250
 10
91.218199999999995
 20
116.42539999999999
 40
8.125
 50
255.75000000000005
 51
270.00000000000005
  0
ARC
  8
_0-2_3
  6
CONTINUOUS
 62
  250
 10
87.093199999999995
 20
116.42539999999999
 40
8.125
 50
255.75000000000005
 51
277.07000000000005
  0
ARC
  8
_0-2_3
  6
CONTINUOUS
 62
  250
 10
89.093199999999995
 20
116.42539999999999
 40
8.125
 50
255.75000000000005
 51
277.51400000000006
  0
ARC
  8
_0-2_3
  6
CONTINUOUS
 62
  250
 10
85.093199999999995
 20
116.42539999999999
 40
8.125
 50
270.00000000000005
 51
277.07000000000005
  0
ARC
  8
_0-2_3
  6
CONTINUOUS
 62
  250
 10
91.218199999999995
 20
101.27539999999999
 40
8.125
 50
90.000000000000028
 51
104.25000000000002
  0
ARC
  8
_0-2_3
  6
CONTINUOUS
 62
  250
 10
89.093199999999995
 20
101.27539999999999
 40
8.125
 50
82.486000000000018
 51
104.25000000000001
  0
ARC
  8
_0-2_3
  6
CONTINUOUS
 62
  250
 10
87.093199999999995
 20
101.27539999999999
 40
8.125
 50
82.930000000000021
 51
104.25000000000001
  0
ARC
  8
_0-2_3
  6
CONTINUOUS
 62
  250
 10
85.093199999999995
 20
101.27539999999999
 40
8.125
 50
82.930000000000021
 51
90.000000000000014
  0
ARC
  8
_0-2_3
  6
CONTINUOUS
 62
  250
 10
94.218199999999995
 20
114.21379999999999
 40
9.1633999999999993
 50
250.89000000000001
 51
289.11000000000007
  0
ARC
  8
_0-2_3
  6
CONTINUOUS
 62
  250
 10
88.218199999999995
 20
114.21379999999999
 40
9.1633999999999993
 50
250.89000000000001
 51
289.11000000000007
  0
ARC
  8
_0-2_3
  6
CONTINUOUS
 62
  250
 10
93.460400000000007
 20
93.27539999999999
 40
4.6327999999999995
 50
321.64200000000005
 51
329.89300000000002
  0
ARC
  8
_0-2_3
  6
CONTINUOUS
 62
  250
 10
93.460400000000007
 20
93.27539999999999
 40
4.6327999999999995
 50
30.107000000000006
 51
38.358000000000004
  0
ARC
  8
_0-2_3
  6
CONTINUOUS
 62
  250
 10
88.975999999999999
 20
93.27539999999999
 40
4.6327999999999995
 50
141.64200000000005
 51
149.89300000000005
  0
ARC
  8
_0-2_3
  6
CONTINUOUS
 62
  250
 10
88.975999999999999
 20
93.27539999999999
 40
4.6327999999999995
 50
210.10700000000005
 51
218.35800000000006
  0
LINE
  8
_0-2_3
  6
CONTINUOUS
 62
  250
 10
94.093199999999995
 20
81.900400000000004
 11
94.093199999999995
 21
81.900400000000004
  0
LINE
  8
_0-2_3
  6
CONTINUOUS
 62
  250
 10
94.093199999999995
 20
81.900400000000004
 11
93.679222570793854
 21
81.854823259036635
  0
LINE
  8
_0-2_3
  6
CONTINUOUS
 62
  250
 10
93.679222570793854
 20
81.854823259036635
 11
93.277823636291458
 21
81.719477862357734
  0
LINE
  8
_0-2_3
  6
CONTINUOUS
 62
  250
 10
93.277823636291458
 20
81.719477862357734
 11
92.901199499999989
 21
81.49847621135332
  0
LINE
  8
_0-2_3
  6
CONTINUOUS
 62
  250
 10
92.901199499999989
 20
81.49847621135332
 11
92.560793695719681
 21
81.198533329356934
  0
LINE
  8
_0-2_3
  6
CONTINUOUS
 62
  250
 10
92.560793695719681
 20
81.198533329356934
 11
92.266949281559902
 21
80.828762829059627
  0
LINE
  8
_0-2_3
  6
CONTINUOUS
 62
  250
 10
92.266949281559902
 20
80.828762829059627
 11
92.028594571352485
 21
80.400400000000004
  0
LINE
  8
_0-2_3
  6
CONTINUOUS
 62
  250
 10
92.028594571352485
 20
80.400400000000004
 11
91.852971852353775
 21
79.926460429977012
  0
LINE
  8
_0-2_3
  6
CONTINUOUS
 62
  250
 10
91.852971852353775
 20
79.926460429977012
 11
91.745417332011143
 21
79.421344533000791
  0
LINE
  8
_0-2_3
  6
CONTINUOUS
 62
  250
 10
91.745417332011143
 20
79.421344533000791
 11
91.709198999999998
 21
78.900400000000004
  0
LINE
  8
_0-2_3
  6
CONTINUOUS
 62
  250
 10
91.709198999999998
 20
78.900400000000004
 11
91.745417332011143
 21
78.379455466999218
  0
LINE
  8
_0-2_3
  6
CONTINUOUS
 62
  250
 10
91.745417332011143
 20
78.379455466999218
 11
91.852971852353775
 21
77.874339570022996
  0
LINE
  8
_0-2_3
  6
CONTINUOUS
 62
  250
 10
91.852971852353775
 20
77.874339570022996
 11
92.028594571352485
 21
77.400400000000004
  0
LINE
  8
_0-2_3
  6
CONTINUOUS
 62
  250
 10
92.028594571352485
 20
77.400400000000004
 11
92.266949281559902
 21
76.972037170940382
  0
LINE
  8
_0-2_3
  6
CONTINUOUS
 62
  250
 10
92.266949281559902
 20
76.972037170940382
 11
92.560793695719681
 21
76.602266670643075
  0
LINE
  8
_0-2_3
  6
CONTINUOUS
 62
  250
 10
92.560793695719681
 20
76.602266670643075
 11
92.901199499999989
 21
76.302323788646688
  0
LINE
  8
_0-2_3
  6
CONTINUOUS
 62
  250
 10
92.901199499999989
 20
76.302323788646688
 11
93.277823636291458
 21
76.081322137642274
  0
LINE
  8
_0-2_3
  6
CONTINUOUS
 62
  250
 10
93.277823636291458
 20
76.081322137642274
 11
93.679222570793854
 21
75.945976740963374
  0
LINE
  8
_0-2_3
  6
CONTINUOUS
 62
  250
 10
93.679222570793854
 20
75.945976740963374
 11
94.093199999999995
 21
75.900400000000004
  0
LINE
  8
_0-2_3
  6
CONTINUOUS
 62
  250
 10
94.093199999999995
 20
75.900400000000004
 11
94.507177429206137
 21
75.945976740963374
  0
LINE
  8
_0-2_3
  6
CONTINUOUS
 62
  250
 10
94.507177429206137
 20
75.945976740963374
 11
94.908576363708533
 21
76.081322137642274
  0
LINE
  8
_0-2_3
  6
CONTINUOUS
 62
  250
 10
94.908576363708533
 20
76.081322137642274
 11
95.285200499999987
 21
76.302323788646688
  0
LINE
  8
_0-2_3
  6
CONTINUOUS
 62
  250
 10
95.285200499999987
 20
76.302323788646688
 11
95.62560630428031
 21
76.602266670643061
  0
LINE
  8
_0-2_3
  6
CONTINUOUS
 62
  250
 10
95.62560630428031
 20
76.602266670643061
 11
95.919450718440074
 21
76.972037170940382
  0
LINE
  8
_0-2_3
  6
CONTINUOUS
 62
  250
 10
95.919450718440074
 20
76.972037170940382
 11
96.157805428647492
 21
77.400400000000004
  0
LINE
  8
_0-2_3
  6
CONTINUOUS
 62
  250
 10
96.157805428647492
 20
77.400400000000004
 11
96.333428147646216
 21
77.874339570022996
  0
LINE
  8
_0-2_3
  6
CONTINUOUS
 62
  250
 10
96.333428147646216
 20
77.874339570022996
 11
96.440982667988848
 21
78.379455466999203
  0
LINE
  8
_0-2_3
  6
CONTINUOUS
 62
  250
 10
96.440982667988848
 20
78.379455466999203
 11
96.477200999999993
 21
78.90039999999999
  0
LINE
  8
_0-2_3
  6
CONTINUOUS
 62
  250
 10
96.477200999999993
 20
78.90039999999999
 11
96.440982667988848
 21
79.421344533000791
  0
LINE
  8
_0-2_3
  6
CONTINUOUS
 62
  250
 10
96.440982667988848
 20
79.421344533000791
 11
96.33342814764623
 21
79.926460429976998
  0
LINE
  8
_0-2_3
  6
CONTINUOUS
 62
  250
 10
96.33342814764623
 20
79.926460429976998
 11
96.157805428647506
 21
80.40039999999999
  0
LINE
  8
_0-2_3
  6
CONTINUOUS
 62
  250
 10
96.157805428647506
 20
80.40039999999999
 11
95.919450718440089
 21
80.828762829059613
  0
LINE
  8
_0-2_3
  6
CONTINUOUS
 62
  250
 10
95.919450718440089
 20
80.828762829059613
 11
95.625606304280324
 21
81.198533329356934
  0
LINE
  8
_0-2_3
  6
CONTINUOUS
 62
  250
 10
95.625606304280324
 20
81.198533329356934
 11
95.285200500000001
 21
81.49847621135332
  0
LINE
  8
_0-2_3
  6
CONTINUOUS
 62
  250
 10
95.285200500000001
 20
81.49847621135332
 11
94.908576363708547
 21
81.71947786235772
  0
LINE
  8
_0-2_3
  6
CONTINUOUS
 62
  250
 10
94.908576363708547
 20
81.71947786235772
 11
94.507177429206151
 21
81.854823259036621
  0
LINE
  8
_0-2_3
  6
CONTINUOUS
 62
  250
 10
94.507177429206151
 20
81.854823259036621
 11
94.093200732365104
 21
81.900399999999862
  0
LINE
  8
_0-2_3
  6
CONTINUOUS
 62
  250
 10
88.343199999999995
 20
81.900400000000004
 11
88.343199999999995
 21
81.900400000000004
  0
LINE
  8
_0-2_3
  6
CONTINUOUS
 62
  250
 10
88.343199999999995
 20
81.900400000000004
 11
87.929222570793854
 21
81.854823259036635
  0
LINE
  8
_0-2_3
  6
CONTINUOUS
 62
  250
 10
87.929222570793854
 20
81.854823259036635
 11
87.527823636291458
 21
81.719477862357734
  0
LINE
  8
_0-2_3
  6
CONTINUOUS
 62
  250
 10
87.527823636291458
 20
81.719477862357734
 11
87.151199499999989
 21
81.49847621135332
  0
LINE
  8
_0-2_3
  6
CONTINUOUS
 62
  250
 10
87.151199499999989
 20
81.49847621135332
 11
86.810793695719681
 21
81.198533329356934
  0
LINE
  8
_0-2_3
  6
CONTINUOUS
 62
  250
 10
86.810793695719681
 20
81.198533329356934
 11
86.516949281559902
 21
80.828762829059627
  0
LINE
  8
_0-2_3
  6
CONTINUOUS
 62
  250
 10
86.516949281559902
 20
80.828762829059627
 11
86.278594571352485
 21
80.400400000000004
  0
LINE
  8
_0-2_3
  6
CONTINUOUS
 62
  250
 10
86.278594571352485
 20
80.400400000000004
 11
86.102971852353775
 21
79.926460429977012
  0
LINE
  8
_0-2_3
  6
CONTINUOUS
 62
  250
 10
86.102971852353775
 20
79.926460429977012
 11
85.995417332011143
 21
79.421344533000791
  0
LINE
  8
_0-2_3
  6
CONTINUOUS
 62
  250
 10
85.995417332011143
 20
79.421344533000791
 11
85.959198999999998
 21
78.900400000000004
  0
LINE
  8
_0-2_3
  6
CONTINUOUS
 62
  250
 10
85.959198999999998
 20
78.900400000000004
 11
85.995417332011143
 21
78.379455466999218
  0
LINE
  8
_0-2_3
  6
CONTINUOUS
 62
  250
 10
85.995417332011143
 20
78.379455466999218
 11
86.102971852353775
 21
77.874339570022996
  0
LINE
  8
_0-2_3
  6
CONTINUOUS
 62
  250
 10
86.102971852353775
 20
77.874339570022996
 11
86.278594571352485
 21
77.400400000000004
  0
LINE
  8
_0-2_3
  6
CONTINUOUS
 62
  250
 10
86.278594571352485
 20
77.400400000000004
 11
86.516949281559902
 21
76.972037170940382
  0
LINE
  8
_0-2_3
  6
CONTINUOUS
 62
  250
 10
86.516949281559902
 20
76.972037170940382
 11
86.810793695719681
 21
76.602266670643075
  0
LINE
  8
_0-2_3
  6
CONTINUOUS
 62
  250
 10
86.810793695719681
 20
76.602266670643075
 11
87.151199499999989
 21
76.302323788646688
  0
LINE
  8
_0-2_3
  6
CONTINUOUS
 62
  250
 10
87.151199499999989
 20
76.302323788646688
 11
87.527823636291458
 21
76.081322137642274
  0
LINE
  8
_0-2_3
  6
CONTINUOUS
 62
  250
 10
87.527823636291458
 20
76.081322137642274
 11
87.929222570793854
 21
75.945976740963374
  0
LINE
  8
_0-2_3
  6
CONTINUOUS
 62
  250
 10
87.929222570793854
 20
75.945976740963374
 11
88.343199999999995
 21
75.900400000000004
  0
LINE
  8
_0-2_3
  6
CONTINUOUS
 62
  250
 10
88.343199999999995
 20
75.900400000000004
 11
88.757177429206137
 21
75.945976740963374
  0
LINE
  8
_0-2_3
  6
CONTINUOUS
 62
  250
 10
88.757177429206137
 20
75.945976740963374
 11
89.158576363708533
 21
76.081322137642274
  0
LINE
  8
_0-2_3
  6
CONTINUOUS
 62
  250
 10
89.158576363708533
 20
76.081322137642274
 11
89.535200499999987
 21
76.302323788646688
  0
LINE
  8
_0-2_3
  6
CONTINUOUS
 62
  250
 10
89.535200499999987
 20
76.302323788646688
 11
89.87560630428031
 21
76.602266670643061
  0
LINE
  8
_0-2_3
  6
CONTINUOUS
 62
  250
 10
89.87560630428031
 20
76.602266670643061
 11
90.169450718440074
 21
76.972037170940382
  0
LINE
  8
_0-2_3
  6
CONTINUOUS
 62
  250
 10
90.169450718440074
 20
76.972037170940382
 11
90.407805428647492
 21
77.400400000000004
  0
LINE
  8
_0-2_3
  6
CONTINUOUS
 62
  250
 10
90.407805428647492
 20
77.400400000000004
 11
90.583428147646216
 21
77.874339570022996
  0
LINE
  8
_0-2_3
  6
CONTINUOUS
 62
  250
 10
90.583428147646216
 20
77.874339570022996
 11
90.690982667988848
 21
78.379455466999203
  0
LINE
  8
_0-2_3
  6
CONTINUOUS
 62
  250
 10
90.690982667988848
 20
78.379455466999203
 11
90.727200999999993
 21
78.90039999999999
  0
LINE
  8
_0-2_3
  6
CONTINUOUS
 62
  250
 10
90.727200999999993
 20
78.90039999999999
 11
90.690982667988848
 21
79.421344533000791
  0
LINE
  8
_0-2_3
  6
CONTINUOUS
 62
  250
 10
90.690982667988848
 20
79.421344533000791
 11
90.58342814764623
 21
79.926460429976998
  0
LINE
  8
_0-2_3
  6
CONTINUOUS
 62
  250
 10
90.58342814764623
 20
79.926460429976998
 11
90.407805428647506
 21
80.40039999999999
  0
LINE
  8
_0-2_3
  6
CONTINUOUS
 62
  250
 10
90.407805428647506
 20
80.40039999999999
 11
90.169450718440089
 21
80.828762829059613
  0
LINE
  8
_0-2_3
  6
CONTINUOUS
 62
  250
 10
90.169450718440089
 20
80.828762829059613
 11
89.875606304280324
 21
81.198533329356934
  0
LINE
  8
_0-2_3
  6
CONTINUOUS
 62
  250
 10
89.875606304280324
 20
81.198533329356934
 11
89.535200500000001
 21
81.49847621135332
  0
LINE
  8
_0-2_3
  6
CONTINUOUS
 62
  250
 10
89.535200500000001
 20
81.49847621135332
 11
89.158576363708547
 21
81.71947786235772
  0
LINE
  8
_0-2_3
  6
CONTINUOUS
 62
  250
 10
89.158576363708547
 20
81.71947786235772
 11
88.757177429206151
 21
81.854823259036621
  0
LINE
  8
_0-2_3
  6
CONTINUOUS
 62
  250
 10
88.757177429206151
 20
81.854823259036621
 11
88.343200732365104
 21
81.900399999999862
  0
LINE
  8
_0-2_3
  6
CONTINUOUS
 62
  250
 10
96.823700000000002
 20
93.27539999999999
 11
96.823700000000002
 21
93.27539999999999
  0
LINE
  8
_0-2_3
  6
CONTINUOUS
 62
  250
 10
96.823700000000002
 20
93.27539999999999
 11
96.786015631346771
 21
93.678914911785724
  0
LINE
  8
_0-2_3
  6
CONTINUOUS
 62
  250
 10
96.786015631346771
 20
93.678914911785724
 11
96.674107545859442
 21
94.070169227165251
  0
LINE
  8
_0-2_3
  6
CONTINUOUS
 62
  250
 10
96.674107545859442
 20
94.070169227165251
 11
96.491376014087293
 21
94.437274881749985
  0
LINE
  8
_0-2_3
  6
CONTINUOUS
 62
  250
 10
96.491376014087293
 20
94.437274881749985
 11
96.243373241156618
 21
94.769077555989809
  0
LINE
  8
_0-2_3
  6
CONTINUOUS
 62
  250
 10
96.243373241156618
 20
94.769077555989809
 11
95.937634665827459
 21
95.055495593528206
  0
LINE
  8
_0-2_3
  6
CONTINUOUS
 62
  250
 10
95.937634665827459
 20
95.055495593528206
 11
95.583449999999999
 21
95.287826327229069
  0
LINE
  8
_0-2_3
  6
CONTINUOUS
 62
  250
 10
95.583449999999999
 20
95.287826327229069
 11
95.191580965519321
 21
95.459010505313941
  0
LINE
  8
_0-2_3
  6
CONTINUOUS
 62
  250
 10
95.191580965519321
 20
95.459010505313941
 11
94.773934304702819
 21
95.563846783155071
  0
LINE
  8
_0-2_3
  6
CONTINUOUS
 62
  250
 10
94.773934304702819
 20
95.563846783155071
 11
94.343199999999995
 21
95.599149763499994
  0
LINE
  8
_0-2_3
  6
CONTINUOUS
 62
  250
 10
94.343199999999995
 20
95.599149763499994
 11
93.912465695297171
 21
95.563846783155071
  0
LINE
  8
_0-2_3
  6
CONTINUOUS
 62
  250
 10
93.912465695297171
 20
95.563846783155071
 11
93.49481903448067
 21
95.459010505313941
  0
LINE
  8
_0-2_3
  6
CONTINUOUS
 62
  250
 10
93.49481903448067
 20
95.459010505313941
 11
93.102949999999992
 21
95.287826327229069
  0
LINE
  8
_0-2_3
  6
CONTINUOUS
 62
  250
 10
93.102949999999992
 20
95.287826327229069
 11
92.748765334172531
 21
95.055495593528206
  0
LINE
  8
_0-2_3
  6
CONTINUOUS
 62
  250
 10
92.748765334172531
 20
95.055495593528206
 11
92.443026758843373
 21
94.769077555989824
  0
LINE
  8
_0-2_3
  6
CONTINUOUS
 62
  250
 10
92.443026758843373
 20
94.769077555989824
 11
92.195023985912698
 21
94.437274881749985
  0
LINE
  8
_0-2_3
  6
CONTINUOUS
 62
  250
 10
92.195023985912698
 20
94.437274881749985
 11
92.012292454140549
 21
94.070169227165251
  0
LINE
  8
_0-2_3
  6
CONTINUOUS
 62
  250
 10
92.012292454140549
 20
94.070169227165251
 11
91.90038436865322
 21
93.678914911785724
  0
LINE
  8
_0-2_3
  6
CONTINUOUS
 62
  250
 10
91.90038436865322
 20
93.678914911785724
 11
91.862699999999989
 21
93.27539999999999
  0
LINE
  8
_0-2_3
  6
CONTINUOUS
 62
  250
 10
91.862699999999989
 20
93.27539999999999
 11
91.900384368653206
 21
92.871885088214256
  0
LINE
  8
_0-2_3
  6
CONTINUOUS
 62
  250
 10
91.900384368653206
 20
92.871885088214256
 11
92.012292454140549
 21
92.480630772834729
  0
LINE
  8
_0-2_3
  6
CONTINUOUS
 62
  250
 10
92.012292454140549
 20
92.480630772834729
 11
92.195023985912698
 21
92.113525118249995
  0
LINE
  8
_0-2_3
  6
CONTINUOUS
 62
  250
 10
92.195023985912698
 20
92.113525118249995
 11
92.443026758843373
 21
91.781722444010171
  0
LINE
  8
_0-2_3
  6
CONTINUOUS
 62
  250
 10
92.443026758843373
 20
91.781722444010171
 11
92.748765334172531
 21
91.495304406471774
  0
LINE
  8
_0-2_3
  6
CONTINUOUS
 62
  250
 10
92.748765334172531
 20
91.495304406471774
 11
93.102949999999992
 21
91.262973672770911
  0
LINE
  8
_0-2_3
  6
CONTINUOUS
 62
  250
 10
93.102949999999992
 20
91.262973672770911
 11
93.49481903448067
 21
91.09178949468604
  0
LINE
  8
_0-2_3
  6
CONTINUOUS
 62
  250
 10
93.49481903448067
 20
91.09178949468604
 11
93.912465695297171
 21
90.986953216844909
  0
LINE
  8
_0-2_3
  6
CONTINUOUS
 62
  250
 10
93.912465695297171
 20
90.986953216844909
 11
94.343199999999995
 21
90.951650236499986
  0
LINE
  8
_0-2_3
  6
CONTINUOUS
 62
  250
 10
94.343199999999995
 20
90.951650236499986
 11
94.773934304702805
 21
90.986953216844909
  0
LINE
  8
_0-2_3
  6
CONTINUOUS
 62
  250
 10
94.773934304702805
 20
90.986953216844909
 11
95.191580965519307
 21
91.09178949468604
  0
LINE
  8
_0-2_3
  6
CONTINUOUS
 62
  250
 10
95.191580965519307
 20
91.09178949468604
 11
95.583449999999984
 21
91.262973672770911
  0
LINE
  8
_0-2_3
  6
CONTINUOUS
 62
  250
 10
95.583449999999984
 20
91.262973672770911
 11
95.937634665827445
 21
91.495304406471774
  0
LINE
  8
_0-2_3
  6
CONTINUOUS
 62
  250
 10
95.937634665827445
 20
91.495304406471774
 11
96.243373241156618
 21
91.781722444010156
  0
LINE
  8
_0-2_3
  6
CONTINUOUS
 62
  250
 10
96.243373241156618
 20
91.781722444010156
 11
96.491376014087293
 21
92.113525118249981
  0
LINE
  8
_0-2_3
  6
CONTINUOUS
 62
  250
 10
96.491376014087293
 20
92.113525118249981
 11
96.674107545859442
 21
92.480630772834729
  0
LINE
  8
_0-2_3
  6
CONTINUOUS
 62
  250
 10
96.674107545859442
 20
92.480630772834729
 11
96.786015631346771
 21
92.871885088214241
  0
LINE
  8
_0-2_3
  6
CONTINUOUS
 62
  250
 10
96.786015631346771
 20
92.871885088214241
 11
96.823699999999874
 21
93.275399286144065
  0
LINE
  8
_0-2_3
  6
CONTINUOUS
 62
  250
 10
90.573700000000002
 20
93.27539999999999
 11
90.573700000000002
 21
93.27539999999999
  0
LINE
  8
_0-2_3
  6
CONTINUOUS
 62
  250
 10
90.573700000000002
 20
93.27539999999999
 11
90.536015631346771
 21
93.678914911785724
  0
LINE
  8
_0-2_3
  6
CONTINUOUS
 62
  250
 10
90.536015631346771
 20
93.678914911785724
 11
90.424107545859442
 21
94.070169227165251
  0
LINE
  8
_0-2_3
  6
CONTINUOUS
 62
  250
 10
90.424107545859442
 20
94.070169227165251
 11
90.241376014087293
 21
94.437274881749985
  0
LINE
  8
_0-2_3
  6
CONTINUOUS
 62
  250
 10
90.241376014087293
 20
94.437274881749985
 11
89.993373241156618
 21
94.769077555989809
  0
LINE
  8
_0-2_3
  6
CONTINUOUS
 62
  250
 10
89.993373241156618
 20
94.769077555989809
 11
89.687634665827459
 21
95.055495593528206
  0
LINE
  8
_0-2_3
  6
CONTINUOUS
 62
  250
 10
89.687634665827459
 20
95.055495593528206
 11
89.333449999999999
 21
95.287826327229069
  0
LINE
  8
_0-2_3
  6
CONTINUOUS
 62
  250
 10
89.333449999999999
 20
95.287826327229069
 11
88.941580965519321
 21
95.459010505313941
  0
LINE
  8
_0-2_3
  6
CONTINUOUS
 62
  250
 10
88.941580965519321
 20
95.459010505313941
 11
88.523934304702819
 21
95.563846783155071
  0
LINE
  8
_0-2_3
  6
CONTINUOUS
 62
  250
 10
88.523934304702819
 20
95.563846783155071
 11
88.093199999999995
 21
95.599149763499994
  0
LINE
  8
_0-2_3
  6
CONTINUOUS
 62
  250
 10
88.093199999999995
 20
95.599149763499994
 11
87.662465695297171
 21
95.563846783155071
  0
LINE
  8
_0-2_3
  6
CONTINUOUS
 62
  250
 10
87.662465695297171
 20
95.563846783155071
 11
87.24481903448067
 21
95.459010505313941
  0
LINE
  8
_0-2_3
  6
CONTINUOUS
 62
  250
 10
87.24481903448067
 20
95.459010505313941
 11
86.852949999999992
 21
95.287826327229069
  0
LINE
  8
_0-2_3
  6
CONTINUOUS
 62
  250
 10
86.852949999999992
 20
95.287826327229069
 11
86.498765334172531
 21
95.055495593528206
  0
LINE
  8
_0-2_3
  6
CONTINUOUS
 62
  250
 10
86.498765334172531
 20
95.055495593528206
 11
86.193026758843373
 21
94.769077555989824
  0
LINE
  8
_0-2_3
  6
CONTINUOUS
 62
  250
 10
86.193026758843373
 20
94.769077555989824
 11
85.945023985912698
 21
94.437274881749985
  0
LINE
  8
_0-2_3
  6
CONTINUOUS
 62
  250
 10
85.945023985912698
 20
94.437274881749985
 11
85.762292454140549
 21
94.070169227165251
  0
LINE
  8
_0-2_3
  6
CONTINUOUS
 62
  250
 10
85.762292454140549
 20
94.070169227165251
 11
85.65038436865322
 21
93.678914911785724
  0
LINE
  8
_0-2_3
  6
CONTINUOUS
 62
  250
 10
85.65038436865322
 20
93.678914911785724
 11
85.612699999999989
 21
93.27539999999999
  0
LINE
  8
_0-2_3
  6
CONTINUOUS
 62
  250
 10
85.612699999999989
 20
93.27539999999999
 11
85.650384368653206
 21
92.871885088214256
  0
LINE
  8
_0-2_3
  6
CONTINUOUS
 62
  250
 10
85.650384368653206
 20
92.871885088214256
 11
85.762292454140549
 21
92.480630772834729
  0
LINE
  8
_0-2_3
  6
CONTINUOUS
 62
  250
 10
85.762292454140549
 20
92.480630772834729
 11
85.945023985912698
 21
92.113525118249995
  0
LINE
  8
_0-2_3
  6
CONTINUOUS
 62
  250
 10
85.945023985912698
 20
92.113525118249995
 11
86.193026758843373
 21
91.781722444010171
  0
LINE
  8
_0-2_3
  6
CONTINUOUS
 62
  250
 10
86.193026758843373
 20
91.781722444010171
 11
86.498765334172531
 21
91.495304406471774
  0
LINE
  8
_0-2_3
  6
CONTINUOUS
 62
  250
 10
86.498765334172531
 20
91.495304406471774
 11
86.852949999999992
 21
91.262973672770911
  0
LINE
  8
_0-2_3
  6
CONTINUOUS
 62
  250
 10
86.852949999999992
 20
91.262973672770911
 11
87.24481903448067
 21
91.09178949468604
  0
LINE
  8
_0-2_3
  6
CONTINUOUS
 62
  250
 10
87.24481903448067
 20
91.09178949468604
 11
87.662465695297171
 21
90.986953216844909
  0
LINE
  8
_0-2_3
  6
CONTINUOUS
 62
  250
 10
87.662465695297171
 20
90.986953216844909
 11
88.093199999999995
 21
90.951650236499986
  0
LINE
  8
_0-2_3
  6
CONTINUOUS
 62
  250
 10
88.093199999999995
 20
90.951650236499986
 11
88.523934304702805
 21
90.986953216844909
  0
LINE
  8
_0-2_3
  6
CONTINUOUS
 62
  250
 10
88.523934304702805
 20
90.986953216844909
 11
88.941580965519307
 21
91.09178949468604
  0
LINE
  8
_0-2_3
  6
CONTINUOUS
 62
  250
 10
88.941580965519307
 20
91.09178949468604
 11
89.333449999999984
 21
91.262973672770911
  0
LINE
  8
_0-2_3
  6
CONTINUOUS
 62
  250
 10
89.333449999999984
 20
91.262973672770911
 11
89.687634665827445
 21
91.495304406471774
  0
LINE
  8
_0-2_3
  6
CONTINUOUS
 62
  250
 10
89.687634665827445
 20
91.495304406471774
 11
89.993373241156618
 21
91.781722444010156
  0
LINE
  8
_0-2_3
  6
CONTINUOUS
 62
  250
 10
89.993373241156618
 20
91.781722444010156
 11
90.241376014087293
 21
92.113525118249981
  0
LINE
  8
_0-2_3
  6
CONTINUOUS
 62
  250
 10
90.241376014087293
 20
92.113525118249981
 11
90.424107545859442
 21
92.480630772834729
  0
LINE
  8
_0-2_3
  6
CONTINUOUS
 62
  250
 10
90.424107545859442
 20
92.480630772834729
 11
90.536015631346771
 21
92.871885088214241
  0
LINE
  8
_0-2_3
  6
CONTINUOUS
 62
  250
 10
90.536015631346771
 20
92.871885088214241
 11
90.573699999999874
 21
93.275399286144065
  0
ARC
  8
_0-2_3
  6
CONTINUOUS
 62
  250
 10
57.218199999999995
 20
166.78139999999999
 40
22.5
 50
0
 51
0.5580000000000001
  0
ARC
  8
_0-2_3
  6
CONTINUOUS
 62
  250
 10
54.218199999999995
 20
174.8332
 40
15
 50
352.98300000000006
 51
0.0000000000000826
  0
ARC
  8
_0-2_3
  6
CONTINUOUS
 62
  250
 10
91.218199999999995
 20
174.8332
 40
15
 50
180.00000000000005
 51
187.01700000000005
  0
ARC
  8
_0-2_3
  6
CONTINUOUS
 62
  250
 10
70.968199999999995
 20
183.9992
 40
2.9167
 50
233.13000000000005
 51
306.87000000000006
  0
ARC
  8
_0-2_3
  6
CONTINUOUS
 62
  250
 10
74.468199999999995
 20
179.33250000000001
 40
2.9167
 50
53.130000000000016
 51
126.87000000000004
  0
ARC
  8
_0-2_3
  6
CONTINUOUS
 62
  250
 10
70.968199999999995
 20
179.33250000000001
 40
2.9167
 50
53.130000000000016
 51
126.87000000000004
  0
ARC
  8
_0-2_3
  6
CONTINUOUS
 62
  250
 10
54.218199999999995
 20
174.8332
 40
15
 50
352.98300000000006
 51
0.0000000000000826
  0
ARC
  8
_0-2_3
  6
CONTINUOUS
 62
  250
 10
91.218199999999995
 20
174.8332
 40
15
 50
180.00000000000005
 51
187.01700000000005
  0
ARC
  8
_0-2_3
  6
CONTINUOUS
 62
  250
 10
78.351200000000005
 20
172.6644
 40
0.1
 50
28.309000000000008
 51
75.964000000000027
  0
ARC
  8
_0-2_3
  6
CONTINUOUS
 62
  250
 10
67.085199999999986
 20
172.6644
 40
0.1
 50
104.03600000000002
 51
151.69100000000003
  0
ARC
  8
_0-2_3
  6
CONTINUOUS
 62
  250
 10
72.218199999999995
 20
163.81989999999998
 40
7.5
 50
338.44200000000006
 51
0.0000000000000858
  0
ARC
  8
_0-2_3
  6
CONTINUOUS
 62
  250
 10
73.218199999999995
 20
163.81989999999998
 40
7.5
 50
180.00000000000005
 51
201.55800000000004
  0
ARC
  8
_0-2_3
  6
CONTINUOUS
 62
  250
 10
88.218199999999995
 20
166.5318
 40
22.5
 50
173.39500000000006
 51
180.00000000000005
  0
ARC
  8
_0-2_3
  6
CONTINUOUS
 62
  250
 10
69.635199999999997
 20
167.96960000000001
 40
10
 50
6.6050000000000022
 51
28.309000000000008
  0
ARC
  8
_0-2_3
  6
CONTINUOUS
 62
  250
 10
75.801199999999994
 20
167.96960000000001
 40
10
 50
151.69100000000003
 51
173.39500000000006
  0
ARC
  8
_0-2_3
  6
CONTINUOUS
 62
  250
 10
74.468199999999995
 20
167.46539999999998
 40
5
 50
134.42700000000002
 51
176.93900000000004
  0
ARC
  8
_0-2_3
  6
CONTINUOUS
 62
  250
 10
70.968199999999995
 20
167.46539999999998
 40
5
 50
3.0610000000000008
 51
45.573000000000007
  0
ARC
  8
_0-2_3
  6
CONTINUOUS
 62
  250
 10
72.718199999999995
 20
175.75079999999999
 40
9
 50
251.16900000000006
 51
288.83100000000007
  0
ARC
  8
_0-2_3
  6
CONTINUOUS
 62
  250
 10
69.974600000000009
 20
167.7057
 40
0.5
 50
176.93900000000002
 51
251.16900000000006
  0
ARC
  8
_0-2_3
  6
CONTINUOUS
 62
  250
 10
75.46180000000001
 20
167.7057
 40
0.5
 50
288.83100000000007
 51
3.0610000000000616
  0
ARC
  8
_0-2_3
  6
CONTINUOUS
 62
  250
 10
72.218199999999995
 20
163.81989999999998
 40
7.5
 50
338.44200000000006
 51
0.0000000000000858
  0
ARC
  8
_0-2_3
  6
CONTINUOUS
 62
  250
 10
79.10050000000001
 20
161.10079999999999
 40
0.1
 50
270.00000000000005
 51
338.44200000000006
  0
ARC
  8
_0-2_3
  6
CONTINUOUS
 62
  250
 10
79.968199999999995
 20
154.62979999999998
 40
1.5
 50
180.00000000000005
 51
260.40600000000006
  0
ARC
  8
_0-2_3
  6
CONTINUOUS
 62
  250
 10
101.96819999999999
 20
156.88779999999999
 40
35
 50
180.00000000000005
 51
195.00000000000005
  0
ARC
  8
_0-2_3
  6
CONTINUOUS
 62
  250
 10
72.718199999999995
 20
169.25079999999999
 40
2.5
 50
45.573000000000007
 51
134.42700000000002
  0
ARC
  8
_0-2_3
  6
CONTINUOUS
 62
  250
 10
101.96819999999999
 20
156.88779999999999
 40
35
 50
180.00000000000005
 51
195.00000000000005
  0
ARC
  8
_0-2_3
  6
CONTINUOUS
 62
  250
 10
101.96819999999999
 20
156.88779999999999
 40
35
 50
180.00000000000005
 51
195.00000000000005
  0
ARC
  8
_0-2_3
  6
CONTINUOUS
 62
  250
 10
71.369200000000006
 20
141.6508
 40
1.5
 50
195.00000000000002
 51
270.00000000000005
  0
ARC
  8
_0-2_3
  6
CONTINUOUS
 62
  250
 10
79.968199999999995
 20
154.62979999999998
 40
1.5
 50
180.00000000000005
 51
260.40600000000006
  0
ARC
  8
_0-2_3
  6
CONTINUOUS
 62
  250
 10
82.832300000000003
 20
137.90039999999999
 40
2.3140999999999998
 50
136.78900000000001
 51
220.54300000000003
  0
ARC
  8
_0-2_3
  6
CONTINUOUS
 62
  250
 10
129.4375
 20
212.1193
 40
10
 50
94.79200000000003
 51
117.00000000000002
  0
ARC
  8
_0-2_3
  6
CONTINUOUS
 62
  250
 10
127.39449999999999
 20
216.12880000000001
 40
10
 50
297.00000000000005
 51
319.20800000000008
  0
ARC
  8
_0-2_3
  6
CONTINUOUS
 62
  250
 10
134.58690000000001
 20
209.9223
 40
0.5
 50
319.20800000000008
 51
27.000000000000063
  0
ARC
  8
_0-2_3
  6
CONTINUOUS
 62
  250
 10
128.6439
 20
221.58609999999998
 40
0.5
 50
27.000000000000007
 51
94.79200000000003
  0
ARC
  8
_0-2_3
  6
CONTINUOUS
 62
  250
 10
154.98109999999999
 20
170.84749999999999
 40
60
 50
87.110000000000013
 51
104.89000000000001
  0
ARC
  8
_0-2_3
  6
CONTINUOUS
 62
  250
 10
136.6928
 20
213.067
 40
0.1
 50
96.000000000000014
 51
186.00000000000002
  0
ARC
  8
_0-2_3
  6
CONTINUOUS
 62
  250
 10
140.8477
 20
224.00060000000001
 40
5
 50
104.89000000000002
 51
161.04800000000003
  0
ARC
  8
_0-2_3
  6
CONTINUOUS
 62
  250
 10
157.7545
 20
225.7775
 40
5
 50
37.475000000000008
 51
87.110000000000027
  0
ARC
  8
_0-2_3
  6
CONTINUOUS
 62
  250
 10
163.5001
 20
228.40319999999999
 40
0.5
 50
6.0000000000000008
 51
96.000000000000014
  0
ARC
  8
_0-2_3
  6
CONTINUOUS
 62
  250
 10
164.02269999999998
 20
223.43049999999999
 40
0.5
 50
276.00000000000011
 51
6.0000000000001101
  0
ARC
  8
_0-2_3
  6
CONTINUOUS
 62
  250
 10
146.42799999999999
 20
206.3983
 40
0.25
 50
196.00000000000005
 51
276.00000000000005
  0
ARC
  8
_0-2_3
  6
CONTINUOUS
 62
  250
 10
155.95589999999998
 20
207.39979999999999
 40
0.25
 50
276.00000000000011
 51
356.00000000000011
  0
ARC
  8
_0-2_3
  6
CONTINUOUS
 62
  250
 10
145.7132
 20
207.0771
 40
0.25
 50
16.000000000000003
 51
96.000000000000014
  0
ARC
  8
_0-2_3
  6
CONTINUOUS
 62
  250
 10
156.51400000000001
 20
208.21229999999999
 40
0.25
 50
96.000000000000014
 51
176.00000000000005
  0
ARC
  8
_0-2_3
  6
CONTINUOUS
 62
  250
 10
162.31540000000001
 20
211.08449999999999
 40
2
 50
276.00000000000011
 51
6.0000000000001101
  0
ARC
  8
_0-2_3
  6
CONTINUOUS
 62
  250
 10
139.44139999999998
 20
208.68029999999998
 40
2
 50
186.00000000000002
 51
276.00000000000005
  0
LINE
  8
_0-2_3
  6
CONTINUOUS
 62
  250
 10
160.29916201033307
 20
228.67001790154591
 11
160.29916201033307
 21
228.67001790154591
  0
LINE
  8
_0-2_3
  6
CONTINUOUS
 62
  250
 10
160.29916201033307
 20
228.67001790154591
 11
159.90714080631087
 21
228.58145946136497
  0
LINE
  8
_0-2_3
  6
CONTINUOUS
 62
  250
 10
159.90714080631087
 20
228.58145946136497
 11
159.53687669854551
 21
228.40191588572005
  0
LINE
  8
_0-2_3
  6
CONTINUOUS
 62
  250
 10
159.53687669854551
 20
228.40191588572005
 11
159.19961997458869
 21
228.13684251530369
  0
LINE
  8
_0-2_3
  6
CONTINUOUS
 62
  250
 10
159.19961997458869
 20
228.13684251530369
 11
158.90561800933775
 21
227.79429347034241
  0
LINE
  8
_0-2_3
  6
CONTINUOUS
 62
  250
 10
158.90561800933775
 20
227.79429347034241
 11
158.66380390373467
 21
227.38467693022914
  0
LINE
  8
_0-2_3
  6
CONTINUOUS
 62
  250
 10
158.66380390373467
 20
227.38467693022914
 11
158.48152505701435
 21
226.92043888625929
  0
LINE
  8
_0-2_3
  6
CONTINUOUS
 62
  250
 10
158.48152505701435
 20
226.92043888625929
 11
158.36431991969681
 21
226.4156849764831
  0
LINE
  8
_0-2_3
  6
CONTINUOUS
 62
  250
 10
158.36431991969681
 20
226.4156849764831
 11
158.31574971057082
 21
225.88575189303128
  0
LINE
  8
_0-2_3
  6
CONTINUOUS
 62
  250
 10
158.31574971057082
 20
225.88575189303128
 11
158.33729021086296
 21
225.34674138448548
  0
LINE
  8
_0-2_3
  6
CONTINUOUS
 62
  250
 10
158.33729021086296
 20
225.34674138448548
 11
158.42828692337187
 21
224.81503101239533
  0
LINE
  8
_0-2_3
  6
CONTINUOUS
 62
  250
 10
158.42828692337187
 20
224.81503101239533
 11
158.5859749590345
 21
224.3067765273584
  0
LINE
  8
_0-2_3
  6
CONTINUOUS
 62
  250
 10
158.5859749590345
 20
224.3067765273584
 11
158.80556304668127
 21
223.83742098471338
  0
LINE
  8
_0-2_3
  6
CONTINUOUS
 62
  250
 10
158.80556304668127
 20
223.83742098471338
 11
159.08037911338593
 21
223.42122551511812
  0
LINE
  8
_0-2_3
  6
CONTINUOUS
 62
  250
 10
159.08037911338593
 20
223.42122551511812
 11
159.40207301202534
 21
223.07083600731124
  0
LINE
  8
_0-2_3
  6
CONTINUOUS
 62
  250
 10
159.40207301202534
 20
223.07083600731124
 11
159.76087023627425
 21
222.79689886918177
  0
LINE
  8
_0-2_3
  6
CONTINUOUS
 62
  250
 10
159.76087023627425
 20
222.79689886918177
 11
160.14586891403411
 21
222.60773754205291
  0
LINE
  8
_0-2_3
  6
CONTINUOUS
 62
  250
 10
160.14586891403411
 20
222.60773754205291
 11
160.54537105529982
 21
222.50909959712925
  0
LINE
  8
_0-2_3
  6
CONTINUOUS
 62
  250
 10
160.54537105529982
 20
222.50909959712925
 11
160.94723798966691
 21
222.50398209845405
  0
LINE
  8
_0-2_3
  6
CONTINUOUS
 62
  250
 10
160.94723798966691
 20
222.50398209845405
 11
160.94723878150605
 21
222.50398218167984
  0
ARC
  8
_0-2_3
  6
CONTINUOUS
 62
  250
 10
161.52789999999998
 20
228.19589999999999
 40
0.5
 50
6.0000000000000008
 51
96.000000000000014
  0
ARC
  8
_0-2_3
  6
CONTINUOUS
 62
  250
 10
162.0506
 20
223.22329999999999
 40
0.5
 50
276.00000000000011
 51
6.0000000000001101
  0
ARC
  8
_0-2_3
  6
CONTINUOUS
 62
  250
 10
124.98059999999999
 20
217.46859999999998
 40
13.804899999999999
 50
345.85600000000005
 51
28.021000000000103
  0
ARC
  8
_0-2_3
  6
CONTINUOUS
 62
  250
 10
122.82649999999999
 20
178.51849999999998
 40
20
 50
101.73000000000001
 51
126.6
  0
ARC
  8
_0-2_3
  6
CONTINUOUS
 62
  250
 10
109.40319999999999
 20
201.53319999999999
 40
11.25
 50
315.23200000000008
 51
335.04400000000009
  0
ARC
  8
_0-2_3
  6
CONTINUOUS
 62
  250
 10
119.42159999999999
 20
196.86099999999998
 40
0.2
 50
335.04400000000009
 51
36.500000000000099
  0
ARC
  8
_0-2_3
  6
CONTINUOUS
 62
  250
 10
91.218199999999995
 20
154.9915
 40
11.5
 50
0
 51
14.997000000000003
  0
ARC
  8
_0-2_3
  6
CONTINUOUS
 62
  250
 10
106.22069999999999
 20
173.83019999999999
 40
6
 50
135.23200000000002
 51
217.48900000000006
  0
ARC
  8
_0-2_3
  6
CONTINUOUS
 62
  250
 10
90.946399999999997
 20
162.11459999999999
 40
13.25
 50
1.7500000000000004
 51
37.489000000000004
  0
ARC
  8
_0-2_3
  6
CONTINUOUS
 62
  250
 10
103.7894
 20
159.2647
 40
0.5
 50
296.75000000000005
 51
1.7500000000000819
  0
ARC
  8
_0-2_3
  6
CONTINUOUS
 62
  250
 10
104.21819999999999
 20
152.53299999999998
 40
1.5
 50
180.00000000000005
 51
221.29800000000005
  0
ARC
  8
_0-2_3
  6
CONTINUOUS
 62
  250
 10
100.8374
 20
149.56319999999999
 40
3
 50
16.205000000000001
 51
41.298000000000008
  0
ARC
  8
_0-2_3
  6
CONTINUOUS
 62
  250
 10
103.74099999999999
 20
149.90039999999999
 40
0.25
 50
5.4170000000000007
 51
90.000000000000014
  0
ARC
  8
_0-2_3
  6
CONTINUOUS
 62
  250
 10
-45.340300000000013
 20
135.76349999999999
 40
150
 50
1.0000000000000002
 51
5.4170000000000015
  0
ARC
  8
_0-2_3
  6
CONTINUOUS
 62
  250
 10
227.7767
 20
135.76349999999999
 40
150
 50
178.32400000000004
 51
179.00000000000002
  0
ARC
  8
_0-2_3
  6
CONTINUOUS
 62
  250
 10
90.946399999999997
 20
162.11459999999999
 40
13.25
 50
129.08200000000002
 51
149.00500000000005
  0
ARC
  8
_0-2_3
  6
CONTINUOUS
 62
  250
 10
528.25819999999998
 20
-367.39840000000003
 40
700
 50
126.6
 51
127.457
  0
LINE
  8
_0-2_3
  6
DASHED1
 62
  250
 10
243.5627
 20
235.45569999999997
 11
243.5627
 21
235.45569999999997
  0
LINE
  8
_0-2_3
  6
DASHED1
 62
  250
 10
243.5627
 20
235.45569999999997
 11
243.48339191304961
 21
235.53471106141176
  0
LINE
  8
_0-2_3
  6
DASHED1
 62
  250
 10
243.48339191304961
 20
235.53471106141176
 11
243.24787738828868
 21
235.61132141170406
  0
LINE
  8
_0-2_3
  6
DASHED1
 62
  250
 10
243.24787738828868
 20
235.61132141170406
 11
242.8633124153759
 21
235.68320328414998
  0
LINE
  8
_0-2_3
  6
DASHED1
 62
  250
 10
242.8633124153759
 20
235.68320328414998
 11
242.341381806414
 21
235.74817258442919
  0
LINE
  8
_0-2_3
  6
DASHED1
 62
  250
 10
242.341381806414
 20
235.74817258442919
 11
241.69794415884663
 21
235.80425525322883
  0
LINE
  8
_0-2_3
  6
DASHED1
 62
  250
 10
241.69794415884663
 20
235.80425525322883
 11
240.95255
 21
235.84974724703656
  0
LINE
  8
_0-2_3
  6
DASHED1
 62
  250
 10
240.95255
 20
235.84974724703656
 11
240.12784775420297
 21
235.88326631464062
  0
LINE
  8
_0-2_3
  6
DASHED1
 62
  250
 10
240.12784775420297
 20
235.88326631464062
 11
239.24889558187467
 21
235.90379399613328
  0
LINE
  8
_0-2_3
  6
DASHED1
 62
  250
 10
239.24889558187467
 20
235.90379399613328
 11
238.34239999999999
 21
235.91070656829998
  0
LINE
  8
_0-2_3
  6
DASHED1
 62
  250
 10
238.34239999999999
 20
235.91070656829998
 11
237.43590441812531
 21
235.90379399613328
  0
LINE
  8
_0-2_3
  6
DASHED1
 62
  250
 10
237.43590441812531
 20
235.90379399613328
 11
236.55695224579702
 21
235.88326631464062
  0
LINE
  8
_0-2_3
  6
DASHED1
 62
  250
 10
236.55695224579702
 20
235.88326631464062
 11
235.73224999999999
 21
235.84974724703656
  0
LINE
  8
_0-2_3
  6
DASHED1
 62
  250
 10
235.73224999999999
 20
235.84974724703656
 11
234.98685584115335
 21
235.80425525322883
  0
LINE
  8
_0-2_3
  6
DASHED1
 62
  250
 10
234.98685584115335
 20
235.80425525322883
 11
234.34341819358598
 21
235.74817258442919
  0
LINE
  8
_0-2_3
  6
DASHED1
 62
  250
 10
234.34341819358598
 20
235.74817258442919
 11
233.82148758462409
 21
235.68320328414998
  0
LINE
  8
_0-2_3
  6
DASHED1
 62
  250
 10
233.82148758462409
 20
235.68320328414998
 11
233.43692261171131
 21
235.61132141170406
  0
LINE
  8
_0-2_3
  6
DASHED1
 62
  250
 10
233.43692261171131
 20
235.61132141170406
 11
233.20140808695038
 21
235.53471106141176
  0
LINE
  8
_0-2_3
  6
DASHED1
 62
  250
 10
233.20140808695038
 20
235.53471106141176
 11
233.12209999999998
 21
235.45569999999997
  0
LINE
  8
_0-2_3
  6
DASHED1
 62
  250
 10
233.12209999999998
 20
235.45569999999997
 11
233.1221000000003
 21
235.45569984238571
  0
LINE
  8
_0-2_3
  6
DASHED1
 62
  250
 10
243.34239999999999
 20
234.2107
 11
243.34239999999999
 21
234.2107
  0
LINE
  8
_0-2_3
  6
DASHED1
 62
  250
 10
243.34239999999999
 20
234.2107
 11
243.26643876506102
 21
234.28636719341835
  0
LINE
  8
_0-2_3
  6
DASHED1
 62
  250
 10
243.26643876506102
 20
234.28636719341835
 11
243.04086310392955
 21
234.35973527745414
  0
LINE
  8
_0-2_3
  6
DASHED1
 62
  250
 10
243.04086310392955
 20
234.35973527745414
 11
242.67252701892218
 21
234.42857499999999
  0
LINE
  8
_0-2_3
  6
DASHED1
 62
  250
 10
242.67252701892218
 20
234.42857499999999
 11
242.17262221559488
 21
234.4907947009209
  0
LINE
  8
_0-2_3
  6
DASHED1
 62
  250
 10
242.17262221559488
 20
234.4907947009209
 11
241.5563380484327
 21
234.54450386608908
  0
LINE
  8
_0-2_3
  6
DASHED1
 62
  250
 10
241.5563380484327
 20
234.54450386608908
 11
240.84239999999999
 21
234.58807056969908
  0
LINE
  8
_0-2_3
  6
DASHED1
 62
  250
 10
240.84239999999999
 20
234.58807056969908
 11
240.05250071662834
 21
234.62017105950747
  0
LINE
  8
_0-2_3
  6
DASHED1
 62
  250
 10
240.05250071662834
 20
234.62017105950747
 11
239.21064088833463
 21
234.63982997837507
  0
LINE
  8
_0-2_3
  6
DASHED1
 62
  250
 10
239.21064088833463
 20
234.63982997837507
 11
238.34239999999999
 21
234.64645000000001
  0
LINE
  8
_0-2_3
  6
DASHED1
 62
  250
 10
238.34239999999999
 20
234.64645000000001
 11
237.47415911166535
 21
234.63982997837507
  0
LINE
  8
_0-2_3
  6
DASHED1
 62
  250
 10
237.47415911166535
 20
234.63982997837507
 11
236.63229928337165
 21
234.62017105950747
  0
LINE
  8
_0-2_3
  6
DASHED1
 62
  250
 10
236.63229928337165
 20
234.62017105950747
 11
235.84239999999999
 21
234.58807056969908
  0
LINE
  8
_0-2_3
  6
DASHED1
 62
  250
 10
235.84239999999999
 20
234.58807056969908
 11
235.12846195156731
 21
234.54450386608908
  0
LINE
  8
_0-2_3
  6
DASHED1
 62
  250
 10
235.12846195156731
 20
234.54450386608908
 11
234.51217778440511
 21
234.4907947009209
  0
LINE
  8
_0-2_3
  6
DASHED1
 62
  250
 10
234.51217778440511
 20
234.4907947009209
 11
234.01227298107781
 21
234.42857499999999
  0
LINE
  8
_0-2_3
  6
DASHED1
 62
  250
 10
234.01227298107781
 20
234.42857499999999
 11
233.64393689607047
 21
234.35973527745417
  0
LINE
  8
_0-2_3
  6
DASHED1
 62
  250
 10
233.64393689607047
 20
234.35973527745417
 11
233.41836123493897
 21
234.28636719341835
  0
LINE
  8
_0-2_3
  6
DASHED1
 62
  250
 10
233.41836123493897
 20
234.28636719341835
 11
233.34239999999999
 21
234.2107
  0
LINE
  8
_0-2_3
  6
DASHED1
 62
  250
 10
233.34239999999999
 20
234.2107
 11
233.41836123493897
 21
234.13503280658164
  0
LINE
  8
_0-2_3
  6
DASHED1
 62
  250
 10
233.41836123493897
 20
234.13503280658164
 11
233.64393689607044
 21
234.06166472254585
  0
LINE
  8
_0-2_3
  6
DASHED1
 62
  250
 10
233.64393689607044
 20
234.06166472254585
 11
234.01227298107778
 21
233.99282500000001
  0
LINE
  8
_0-2_3
  6
DASHED1
 62
  250
 10
234.01227298107778
 20
233.99282500000001
 11
234.51217778440511
 21
233.9306052990791
  0
LINE
  8
_0-2_3
  6
DASHED1
 62
  250
 10
234.51217778440511
 20
233.9306052990791
 11
235.12846195156728
 21
233.87689613391091
  0
LINE
  8
_0-2_3
  6
DASHED1
 62
  250
 10
235.12846195156728
 20
233.87689613391091
 11
235.84239999999999
 21
233.83332943030092
  0
LINE
  8
_0-2_3
  6
DASHED1
 62
  250
 10
235.84239999999999
 20
233.83332943030092
 11
236.63229928337165
 21
233.80122894049253
  0
LINE
  8
_0-2_3
  6
DASHED1
 62
  250
 10
236.63229928337165
 20
233.80122894049253
 11
237.47415911166532
 21
233.78157002162492
  0
LINE
  8
_0-2_3
  6
DASHED1
 62
  250
 10
237.47415911166532
 20
233.78157002162492
 11
238.34239999999996
 21
233.77494999999998
  0
LINE
  8
_0-2_3
  6
DASHED1
 62
  250
 10
238.34239999999996
 20
233.77494999999998
 11
239.21064088833463
 21
233.78157002162492
  0
LINE
  8
_0-2_3
  6
DASHED1
 62
  250
 10
239.21064088833463
 20
233.78157002162492
 11
240.05250071662831
 21
233.80122894049253
  0
LINE
  8
_0-2_3
  6
DASHED1
 62
  250
 10
240.05250071662831
 20
233.80122894049253
 11
240.84239999999996
 21
233.83332943030092
  0
LINE
  8
_0-2_3
  6
DASHED1
 62
  250
 10
240.84239999999996
 20
233.83332943030092
 11
241.55633804843267
 21
233.87689613391091
  0
LINE
  8
_0-2_3
  6
DASHED1
 62
  250
 10
241.55633804843267
 20
233.87689613391091
 11
242.17262221559488
 21
233.9306052990791
  0
LINE
  8
_0-2_3
  6
DASHED1
 62
  250
 10
242.17262221559488
 20
233.9306052990791
 11
242.67252701892218
 21
233.99282500000001
  0
LINE
  8
_0-2_3
  6
DASHED1
 62
  250
 10
242.67252701892218
 20
233.99282500000001
 11
243.04086310392952
 21
234.06166472254582
  0
LINE
  8
_0-2_3
  6
DASHED1
 62
  250
 10
243.04086310392952
 20
234.06166472254582
 11
243.26643876506102
 21
234.13503280658164
  0
LINE
  8
_0-2_3
  6
DASHED1
 62
  250
 10
243.26643876506102
 20
234.13503280658164
 11
243.34239999999977
 21
234.21069986613761
  0
LINE
  8
_0-2_3
  6
DASHED1
 62
  250
 10
242.21739999999999
 20
234.2107
 11
242.21739999999999
 21
234.2107
  0
LINE
  8
_0-2_3
  6
DASHED1
 62
  250
 10
242.21739999999999
 20
234.2107
 11
242.1585300429223
 21
234.26934947665282
  0
LINE
  8
_0-2_3
  6
DASHED1
 62
  250
 10
242.1585300429223
 20
234.26934947665282
 11
241.98370890554539
 21
234.32621691863559
  0
LINE
  8
_0-2_3
  6
DASHED1
 62
  250
 10
241.98370890554539
 20
234.32621691863559
 11
241.69824843966469
 21
234.37957443749999
  0
LINE
  8
_0-2_3
  6
DASHED1
 62
  250
 10
241.69824843966469
 20
234.37957443749999
 11
241.31082221708604
 21
234.42780079203558
  0
LINE
  8
_0-2_3
  6
DASHED1
 62
  250
 10
241.31082221708604
 20
234.42780079203558
 11
240.83320198753534
 21
234.46943064886343
  0
LINE
  8
_0-2_3
  6
DASHED1
 62
  250
 10
240.83320198753534
 20
234.46943064886343
 11
240.27989999999999
 21
234.50319910584963
  0
LINE
  8
_0-2_3
  6
DASHED1
 62
  250
 10
240.27989999999999
 20
234.50319910584963
 11
239.66772805538695
 21
234.52808012551625
  0
LINE
  8
_0-2_3
  6
DASHED1
 62
  250
 10
239.66772805538695
 20
234.52808012551625
 11
239.01528668845935
 21
234.54331771067114
  0
LINE
  8
_0-2_3
  6
DASHED1
 62
  250
 10
239.01528668845935
 20
234.54331771067114
 11
238.34239999999999
 21
234.54844887499999
  0
LINE
  8
_0-2_3
  6
DASHED1
 62
  250
 10
238.34239999999999
 20
234.54844887499999
 11
237.66951331154064
 21
234.54331771067114
  0
LINE
  8
_0-2_3
  6
DASHED1
 62
  250
 10
237.66951331154064
 20
234.54331771067114
 11
237.01707194461303
 21
234.52808012551625
  0
LINE
  8
_0-2_3
  6
DASHED1
 62
  250
 10
237.01707194461303
 20
234.52808012551625
 11
236.40489999999999
 21
234.50319910584963
  0
LINE
  8
_0-2_3
  6
DASHED1
 62
  250
 10
236.40489999999999
 20
234.50319910584963
 11
235.85159801246464
 21
234.46943064886343
  0
LINE
  8
_0-2_3
  6
DASHED1
 62
  250
 10
235.85159801246464
 20
234.46943064886343
 11
235.37397778291395
 21
234.42780079203558
  0
LINE
  8
_0-2_3
  6
DASHED1
 62
  250
 10
235.37397778291395
 20
234.42780079203558
 11
234.9865515603353
 21
234.37957443749999
  0
LINE
  8
_0-2_3
  6
DASHED1
 62
  250
 10
234.9865515603353
 20
234.37957443749999
 11
234.70109109445459
 21
234.32621691863559
  0
LINE
  8
_0-2_3
  6
DASHED1
 62
  250
 10
234.70109109445459
 20
234.32621691863559
 11
234.52626995707768
 21
234.26934947665282
  0
LINE
  8
_0-2_3
  6
DASHED1
 62
  250
 10
234.52626995707768
 20
234.26934947665282
 11
234.46739999999999
 21
234.2107
  0
LINE
  8
_0-2_3
  6
DASHED1
 62
  250
 10
234.46739999999999
 20
234.2107
 11
234.52626995707768
 21
234.15205052334718
  0
LINE
  8
_0-2_3
  6
DASHED1
 62
  250
 10
234.52626995707768
 20
234.15205052334718
 11
234.70109109445459
 21
234.09518308136441
  0
LINE
  8
_0-2_3
  6
DASHED1
 62
  250
 10
234.70109109445459
 20
234.09518308136441
 11
234.9865515603353
 21
234.0418255625
  0
LINE
  8
_0-2_3
  6
DASHED1
 62
  250
 10
234.9865515603353
 20
234.0418255625
 11
235.37397778291395
 21
233.99359920796442
  0
LINE
  8
_0-2_3
  6
DASHED1
 62
  250
 10
235.37397778291395
 20
233.99359920796442
 11
235.85159801246464
 21
233.95196935113656
  0
LINE
  8
_0-2_3
  6
DASHED1
 62
  250
 10
235.85159801246464
 20
233.95196935113656
 11
236.40489999999999
 21
233.9182008941504
  0
LINE
  8
_0-2_3
  6
DASHED1
 62
  250
 10
236.40489999999999
 20
233.9182008941504
 11
237.01707194461303
 21
233.89331987448375
  0
LINE
  8
_0-2_3
  6
DASHED1
 62
  250
 10
237.01707194461303
 20
233.89331987448375
 11
237.66951331154064
 21
233.87808228932885
  0
LINE
  8
_0-2_3
  6
DASHED1
 62
  250
 10
237.66951331154064
 20
233.87808228932885
 11
238.34239999999999
 21
233.87295112500001
  0
LINE
  8
_0-2_3
  6
DASHED1
 62
  250
 10
238.34239999999999
 20
233.87295112500001
 11
239.01528668845935
 21
233.87808228932885
  0
LINE
  8
_0-2_3
  6
DASHED1
 62
  250
 10
239.01528668845935
 20
233.87808228932885
 11
239.66772805538695
 21
233.89331987448375
  0
LINE
  8
_0-2_3
  6
DASHED1
 62
  250
 10
239.66772805538695
 20
233.89331987448375
 11
240.27989999999999
 21
233.91820089415037
  0
LINE
  8
_0-2_3
  6
DASHED1
 62
  250
 10
240.27989999999999
 20
233.91820089415037
 11
240.83320198753531
 21
233.95196935113656
  0
LINE
  8
_0-2_3
  6
DASHED1
 62
  250
 10
240.83320198753531
 20
233.95196935113656
 11
241.31082221708604
 21
233.99359920796442
  0
LINE
  8
_0-2_3
  6
DASHED1
 62
  250
 10
241.31082221708604
 20
233.99359920796442
 11
241.69824843966469
 21
234.0418255625
  0
LINE
  8
_0-2_3
  6
DASHED1
 62
  250
 10
241.69824843966469
 20
234.0418255625
 11
241.98370890554539
 21
234.09518308136441
  0
LINE
  8
_0-2_3
  6
DASHED1
 62
  250
 10
241.98370890554539
 20
234.09518308136441
 11
242.1585300429223
 21
234.15205052334718
  0
LINE
  8
_0-2_3
  6
DASHED1
 62
  250
 10
242.1585300429223
 20
234.15205052334718
 11
242.21739999999982
 21
234.21069989624353
  0
LINE
  8
_0-2_3
  6
DASHED1
 62
  250
 10
251.84239999999999
 20
241.93099999999998
 11
251.84239999999999
 21
241.93099999999998
  0
LINE
  8
_0-2_3
  6
DASHED1
 62
  250
 10
251.84239999999999
 20
241.93099999999998
 11
251.6373046656648
 21
242.13529673372877
  0
LINE
  8
_0-2_3
  6
DASHED1
 62
  250
 10
251.6373046656648
 20
242.13529673372877
 11
251.02825038060976
 21
242.33338601458234
  0
LINE
  8
_0-2_3
  6
DASHED1
 62
  250
 10
251.02825038060976
 20
242.33338601458234
 11
250.03374295108991
 21
242.51924899999997
  0
LINE
  8
_0-2_3
  6
DASHED1
 62
  250
 10
250.03374295108991
 20
242.51924899999997
 11
248.6839999821062
 21
242.68723833722097
  0
LINE
  8
_0-2_3
  6
DASHED1
 62
  250
 10
248.6839999821062
 20
242.68723833722097
 11
247.02003273076826
 21
242.83224975524058
  0
LINE
  8
_0-2_3
  6
DASHED1
 62
  250
 10
247.02003273076826
 20
242.83224975524058
 11
245.09239999999999
 21
242.94987715550155
  0
LINE
  8
_0-2_3
  6
DASHED1
 62
  250
 10
245.09239999999999
 20
242.94987715550155
 11
242.95967193489653
 21
243.03654648896934
  0
LINE
  8
_0-2_3
  6
DASHED1
 62
  250
 10
242.95967193489653
 20
243.03654648896934
 11
240.68665039850355
 21
243.08962435180333
  0
LINE
  8
_0-2_3
  6
DASHED1
 62
  250
 10
240.68665039850355
 20
243.08962435180333
 11
238.34239999999999
 21
243.10749799999999
  0
LINE
  8
_0-2_3
  6
DASHED1
 62
  250
 10
238.34239999999999
 20
243.10749799999999
 11
235.99814960149643
 21
243.08962435180333
  0
LINE
  8
_0-2_3
  6
DASHED1
 62
  250
 10
235.99814960149643
 20
243.08962435180333
 11
233.72512806510346
 21
243.03654648896934
  0
LINE
  8
_0-2_3
  6
DASHED1
 62
  250
 10
233.72512806510346
 20
243.03654648896934
 11
231.59239999999999
 21
242.94987715550155
  0
LINE
  8
_0-2_3
  6
DASHED1
 62
  250
 10
231.59239999999999
 20
242.94987715550155
 11
229.66476726923173
 21
242.83224975524058
  0
LINE
  8
_0-2_3
  6
DASHED1
 62
  250
 10
229.66476726923173
 20
242.83224975524058
 11
228.00080001789379
 21
242.68723833722097
  0
LINE
  8
_0-2_3
  6
DASHED1
 62
  250
 10
228.00080001789379
 20
242.68723833722097
 11
226.65105704891007
 21
242.51924899999997
  0
LINE
  8
_0-2_3
  6
DASHED1
 62
  250
 10
226.65105704891007
 20
242.51924899999997
 11
225.65654961939023
 21
242.33338601458234
  0
LINE
  8
_0-2_3
  6
DASHED1
 62
  250
 10
225.65654961939023
 20
242.33338601458234
 11
225.04749533433519
 21
242.13529673372877
  0
LINE
  8
_0-2_3
  6
DASHED1
 62
  250
 10
225.04749533433519
 20
242.13529673372877
 11
224.84239999999999
 21
241.93099999999998
  0
LINE
  8
_0-2_3
  6
DASHED1
 62
  250
 10
224.84239999999999
 20
241.93099999999998
 11
224.84240000000079
 21
241.93099959246106
  0
LINE
  8
_0-2_3
  6
DASHED1
 62
  250
 10
243.40343624718789
 20
234.55572778429575
 11
243.40343624718789
 21
234.55572778429575
  0
LINE
  8
_0-2_3
  6
DASHED1
 62
  250
 10
243.40343624718789
 20
234.55572778429575
 11
245.11971983850759
 21
234.645993023881
  0
LINE
  8
_0-2_3
  6
DASHED1
 62
  250
 10
245.11971983850759
 20
234.645993023881
 11
246.63007799602354
 21
234.76086080020411
  0
LINE
  8
_0-2_3
  6
DASHED1
 62
  250
 10
246.63007799602354
 20
234.76086080020411
 11
247.88861925139772
 21
234.89684091400741
  0
LINE
  8
_0-2_3
  6
DASHED1
 62
  250
 10
247.88861925139772
 20
234.89684091400741
 11
248.85710346543822
 21
235.04980167834227
  0
LINE
  8
_0-2_3
  6
DASHED1
 62
  250
 10
248.85710346543822
 20
235.04980167834227
 11
249.50610373537804
 21
235.21509545778621
  0
LINE
  8
_0-2_3
  6
DASHED1
 62
  250
 10
249.50610373537804
 20
235.21509545778621
 11
249.81590051642507
 21
235.38769988449357
  0
LINE
  8
_0-2_3
  6
DASHED1
 62
  250
 10
249.81590051642507
 20
235.38769988449357
 11
249.77708079015192
 21
235.56237046030088
  0
LINE
  8
_0-2_3
  6
DASHED1
 62
  250
 10
249.77708079015192
 20
235.56237046030088
 11
249.39082407429771
 21
235.73379990814979
  0
LINE
  8
_0-2_3
  6
DASHED1
 62
  250
 10
249.39082407429771
 20
235.73379990814979
 11
248.66886658371828
 21
235.89677943101489
  0
LINE
  8
_0-2_3
  6
DASHED1
 62
  250
 10
248.66886658371828
 20
235.89677943101489
 11
247.63314463143677
 21
236.04635697856559
  0
LINE
  8
_0-2_3
  6
DASHED1
 62
  250
 10
247.63314463143677
 20
236.04635697856559
 11
246.31512810487271
 21
236.1779877127094
  0
LINE
  8
_0-2_3
  6
DASHED1
 62
  250
 10
246.31512810487271
 20
236.1779877127094
 11
244.75486426923717
 21
236.28767210019779
  0
LINE
  8
_0-2_3
  6
DASHED1
 62
  250
 10
244.75486426923717
 20
236.28767210019779
 11
242.99976095164436
 21
236.37207743641985
  0
LINE
  8
_0-2_3
  6
DASHED1
 62
  250
 10
242.99976095164436
 20
236.37207743641985
 11
241.10314607827416
 21
236.42863910794565
  0
LINE
  8
_0-2_3
  6
DASHED1
 62
  250
 10
241.10314607827416
 20
236.42863910794565
 11
239.12264733232055
 21
236.45563851700745
  0
LINE
  8
_0-2_3
  6
DASHED1
 62
  250
 10
239.12264733232055
 20
236.45563851700745
 11
237.11844116599857
 21
236.45225530022329
  0
LINE
  8
_0-2_3
  6
DASHED1
 62
  250
 10
237.11844116599857
 20
236.45225530022329
 11
235.15142436949466
 21
236.41859225492316
  0
LINE
  8
_0-2_3
  6
DASHED1
 62
  250
 10
235.15142436949466
 20
236.41859225492316
 11
233.28136375281209
 21
236.3556722157042
  0
LINE
  8
_0-2_3
  6
DASHED1
 62
  250
 10
233.28136375281209
 20
236.3556722157042
 11
231.5650801614924
 21
236.26540697611895
  0
LINE
  8
_0-2_3
  6
DASHED1
 62
  250
 10
231.5650801614924
 20
236.26540697611895
 11
230.05472200397647
 21
236.15053919979584
  0
LINE
  8
_0-2_3
  6
DASHED1
 62
  250
 10
230.05472200397647
 20
236.15053919979584
 11
228.79618074860229
 21
236.01455908599254
  0
LINE
  8
_0-2_3
  6
DASHED1
 62
  250
 10
228.79618074860229
 20
236.01455908599254
 11
227.82769653456179
 21
235.86159832165768
  0
LINE
  8
_0-2_3
  6
DASHED1
 62
  250
 10
227.82769653456179
 20
235.86159832165768
 11
227.17869626462194
 21
235.69630454221373
  0
LINE
  8
_0-2_3
  6
DASHED1
 62
  250
 10
227.17869626462194
 20
235.69630454221373
 11
226.86889948357492
 21
235.52370011550638
  0
LINE
  8
_0-2_3
  6
DASHED1
 62
  250
 10
226.86889948357492
 20
235.52370011550638
 11
226.90771920984803
 21
235.34902953969907
  0
LINE
  8
_0-2_3
  6
DASHED1
 62
  250
 10
226.90771920984803
 20
235.34902953969907
 11
227.29397592570228
 21
235.17760009185016
  0
LINE
  8
_0-2_3
  6
DASHED1
 62
  250
 10
227.29397592570228
 20
235.17760009185016
 11
228.01593341628171
 21
235.01462056898506
  0
LINE
  8
_0-2_3
  6
DASHED1
 62
  250
 10
228.01593341628171
 20
235.01462056898506
 11
229.05165536856318
 21
234.86504302143436
  0
LINE
  8
_0-2_3
  6
DASHED1
 62
  250
 10
229.05165536856318
 20
234.86504302143436
 11
230.36967189512725
 21
234.73341228729054
  0
LINE
  8
_0-2_3
  6
DASHED1
 62
  250
 10
230.36967189512725
 20
234.73341228729054
 11
231.92993573076279
 21
234.62372789980216
  0
LINE
  8
_0-2_3
  6
DASHED1
 62
  250
 10
231.92993573076279
 20
234.62372789980216
 11
233.2813641576096
 21
234.55572776700543
  0
ARC
  8
_0-2_3
  6
DASHED1
 62
  250
 10
226.8333
 20
237.44810000000001
 40
1.9908999999999998
 50
180.00000000000005
 51
270.00000000000005
  0
ARC
  8
_0-2_3
  6
DASHED1
 62
  250
 10
249.85149999999998
 20
237.44810000000001
 40
1.9908999999999998
 50
270.00000000000005
 51
0.0000000000000763
  0
LINE
  8
_0-2_3
  6
DASHED1
 62
  250
 10
251.84239999999999
 20
237.44810000000001
 11
251.84239999999999
 21
237.44810000000001
  0
LINE
  8
_0-2_3
  6
DASHED1
 62
  250
 10
251.84239999999999
 20
237.44810000000001
 11
251.6373046656648
 21
237.6523967337288
  0
LINE
  8
_0-2_3
  6
DASHED1
 62
  250
 10
251.6373046656648
 20
237.6523967337288
 11
251.02825038060976
 21
237.85048601458237
  0
LINE
  8
_0-2_3
  6
DASHED1
 62
  250
 10
251.02825038060976
 20
237.85048601458237
 11
250.03374295108991
 21
238.036349
  0
LINE
  8
_0-2_3
  6
DASHED1
 62
  250
 10
250.03374295108991
 20
238.036349
 11
248.6839999821062
 21
238.204338337221
  0
LINE
  8
_0-2_3
  6
DASHED1
 62
  250
 10
248.6839999821062
 20
238.204338337221
 11
247.02003273076826
 21
238.3493497552406
  0
LINE
  8
_0-2_3
  6
DASHED1
 62
  250
 10
247.02003273076826
 20
238.3493497552406
 11
245.09239999999999
 21
238.46697715550158
  0
LINE
  8
_0-2_3
  6
DASHED1
 62
  250
 10
245.09239999999999
 20
238.46697715550158
 11
242.95967193489653
 21
238.55364648896937
  0
LINE
  8
_0-2_3
  6
DASHED1
 62
  250
 10
242.95967193489653
 20
238.55364648896937
 11
240.68665039850355
 21
238.60672435180336
  0
LINE
  8
_0-2_3
  6
DASHED1
 62
  250
 10
240.68665039850355
 20
238.60672435180336
 11
238.34239999999999
 21
238.62459800000002
  0
LINE
  8
_0-2_3
  6
DASHED1
 62
  250
 10
238.34239999999999
 20
238.62459800000002
 11
235.99814960149643
 21
238.60672435180336
  0
LINE
  8
_0-2_3
  6
DASHED1
 62
  250
 10
235.99814960149643
 20
238.60672435180336
 11
233.72512806510346
 21
238.55364648896937
  0
LINE
  8
_0-2_3
  6
DASHED1
 62
  250
 10
233.72512806510346
 20
238.55364648896937
 11
231.59239999999999
 21
238.46697715550158
  0
LINE
  8
_0-2_3
  6
DASHED1
 62
  250
 10
231.59239999999999
 20
238.46697715550158
 11
229.66476726923173
 21
238.3493497552406
  0
LINE
  8
_0-2_3
  6
DASHED1
 62
  250
 10
229.66476726923173
 20
238.3493497552406
 11
228.00080001789379
 21
238.204338337221
  0
LINE
  8
_0-2_3
  6
DASHED1
 62
  250
 10
228.00080001789379
 20
238.204338337221
 11
226.65105704891007
 21
238.036349
  0
LINE
  8
_0-2_3
  6
DASHED1
 62
  250
 10
226.65105704891007
 20
238.036349
 11
225.65654961939023
 21
237.85048601458237
  0
LINE
  8
_0-2_3
  6
DASHED1
 62
  250
 10
225.65654961939023
 20
237.85048601458237
 11
225.04749533433519
 21
237.6523967337288
  0
LINE
  8
_0-2_3
  6
DASHED1
 62
  250
 10
225.04749533433519
 20
237.6523967337288
 11
224.84239999999999
 21
237.44810000000001
  0
LINE
  8
_0-2_3
  6
DASHED1
 62
  250
 10
224.84239999999999
 20
237.44810000000001
 11
224.84240000000079
 21
237.44809959246109
  0
LINE
  8
_0-2_3
  6
DASHED1
 62
  250
 10
251.84239999999999
 20
242.18
 11
251.84239999999999
 21
242.18
  0
LINE
  8
_0-2_3
  6
DASHED1
 62
  250
 10
251.84239999999999
 20
242.18
 11
251.6373046656648
 21
242.3842967337288
  0
LINE
  8
_0-2_3
  6
DASHED1
 62
  250
 10
251.6373046656648
 20
242.3842967337288
 11
251.02825038060976
 21
242.58238601458236
  0
LINE
  8
_0-2_3
  6
DASHED1
 62
  250
 10
251.02825038060976
 20
242.58238601458236
 11
250.03374295108991
 21
242.76824899999999
  0
LINE
  8
_0-2_3
  6
DASHED1
 62
  250
 10
250.03374295108991
 20
242.76824899999999
 11
248.6839999821062
 21
242.93623833722099
  0
LINE
  8
_0-2_3
  6
DASHED1
 62
  250
 10
248.6839999821062
 20
242.93623833722099
 11
247.02003273076826
 21
243.0812497552406
  0
LINE
  8
_0-2_3
  6
DASHED1
 62
  250
 10
247.02003273076826
 20
243.0812497552406
 11
245.09239999999999
 21
243.19887715550157
  0
LINE
  8
_0-2_3
  6
DASHED1
 62
  250
 10
245.09239999999999
 20
243.19887715550157
 11
242.95967193489653
 21
243.28554648896937
  0
LINE
  8
_0-2_3
  6
DASHED1
 62
  250
 10
242.95967193489653
 20
243.28554648896937
 11
240.68665039850355
 21
243.33862435180336
  0
LINE
  8
_0-2_3
  6
DASHED1
 62
  250
 10
240.68665039850355
 20
243.33862435180336
 11
238.34239999999999
 21
243.35649800000001
  0
LINE
  8
_0-2_3
  6
DASHED1
 62
  250
 10
238.34239999999999
 20
243.35649800000001
 11
235.99814960149643
 21
243.33862435180336
  0
LINE
  8
_0-2_3
  6
DASHED1
 62
  250
 10
235.99814960149643
 20
243.33862435180336
 11
233.72512806510346
 21
243.28554648896937
  0
LINE
  8
_0-2_3
  6
DASHED1
 62
  250
 10
233.72512806510346
 20
243.28554648896937
 11
231.59239999999999
 21
243.19887715550157
  0
LINE
  8
_0-2_3
  6
DASHED1
 62
  250
 10
231.59239999999999
 20
243.19887715550157
 11
229.66476726923173
 21
243.0812497552406
  0
LINE
  8
_0-2_3
  6
DASHED1
 62
  250
 10
229.66476726923173
 20
243.0812497552406
 11
228.00080001789379
 21
242.93623833722099
  0
LINE
  8
_0-2_3
  6
DASHED1
 62
  250
 10
228.00080001789379
 20
242.93623833722099
 11
226.65105704891007
 21
242.76824899999999
  0
LINE
  8
_0-2_3
  6
DASHED1
 62
  250
 10
226.65105704891007
 20
242.76824899999999
 11
225.65654961939023
 21
242.58238601458236
  0
LINE
  8
_0-2_3
  6
DASHED1
 62
  250
 10
225.65654961939023
 20
242.58238601458236
 11
225.04749533433519
 21
242.3842967337288
  0
LINE
  8
_0-2_3
  6
DASHED1
 62
  250
 10
225.04749533433519
 20
242.3842967337288
 11
224.84239999999999
 21
242.18
  0
LINE
  8
_0-2_3
  6
DASHED1
 62
  250
 10
224.84239999999999
 20
242.18
 11
224.84240000000079
 21
242.17999959246108
  0
LINE
  8
_0-2_3
  6
DASHED1
 62
  250
 10
251.84239999999999
 20
255.08080000000001
 11
251.84239999999999
 21
255.08080000000001
  0
LINE
  8
_0-2_3
  6
DASHED1
 62
  250
 10
251.84239999999999
 20
255.08080000000001
 11
251.6373046656648
 21
255.64810859643787
  0
LINE
  8
_0-2_3
  6
DASHED1
 62
  250
 10
251.6373046656648
 20
255.64810859643787
 11
251.02825038060976
 21
256.19817980824495
  0
LINE
  8
_0-2_3
  6
DASHED1
 62
  250
 10
251.02825038060976
 20
256.19817980824495
 11
250.03374295108991
 21
256.71430000000003
  0
LINE
  8
_0-2_3
  6
DASHED1
 62
  250
 10
250.03374295108991
 20
256.71430000000003
 11
248.6839999821062
 21
257.18078712084593
  0
LINE
  8
_0-2_3
  6
DASHED1
 62
  250
 10
248.6839999821062
 20
257.18078712084593
 11
247.02003273076826
 21
257.58346719566969
  0
LINE
  8
_0-2_3
  6
DASHED1
 62
  250
 10
247.02003273076826
 20
257.58346719566969
 11
245.09239999999999
 21
257.91010499416375
  0
LINE
  8
_0-2_3
  6
DASHED1
 62
  250
 10
245.09239999999999
 20
257.91010499416375
 11
242.95967193489653
 21
258.15077579210759
  0
LINE
  8
_0-2_3
  6
DASHED1
 62
  250
 10
242.95967193489653
 20
258.15077579210759
 11
240.68665039850355
 21
258.29816692909088
  0
LINE
  8
_0-2_3
  6
DASHED1
 62
  250
 10
240.68665039850355
 20
258.29816692909088
 11
238.34239999999999
 21
258.3478
  0
LINE
  8
_0-2_3
  6
DASHED1
 62
  250
 10
238.34239999999999
 20
258.3478
 11
235.99814960149643
 21
258.29816692909088
  0
LINE
  8
_0-2_3
  6
DASHED1
 62
  250
 10
235.99814960149643
 20
258.29816692909088
 11
233.72512806510346
 21
258.15077579210759
  0
LINE
  8
_0-2_3
  6
DASHED1
 62
  250
 10
233.72512806510346
 20
258.15077579210759
 11
231.59239999999999
 21
257.91010499416375
  0
LINE
  8
_0-2_3
  6
DASHED1
 62
  250
 10
231.59239999999999
 20
257.91010499416375
 11
229.66476726923173
 21
257.58346719566969
  0
LINE
  8
_0-2_3
  6
DASHED1
 62
  250
 10
229.66476726923173
 20
257.58346719566969
 11
228.00080001789379
 21
257.18078712084593
  0
LINE
  8
_0-2_3
  6
DASHED1
 62
  250
 10
228.00080001789379
 20
257.18078712084593
 11
226.65105704891007
 21
256.71430000000003
  0
LINE
  8
_0-2_3
  6
DASHED1
 62
  250
 10
226.65105704891007
 20
256.71430000000003
 11
225.65654961939023
 21
256.19817980824495
  0
LINE
  8
_0-2_3
  6
DASHED1
 62
  250
 10
225.65654961939023
 20
256.19817980824495
 11
225.04749533433519
 21
255.64810859643787
  0
LINE
  8
_0-2_3
  6
DASHED1
 62
  250
 10
225.04749533433519
 20
255.64810859643787
 11
224.84239999999999
 21
255.08080000000001
  0
LINE
  8
_0-2_3
  6
DASHED1
 62
  250
 10
224.84239999999999
 20
255.08080000000001
 11
224.84240000000079
 21
255.0807988683112
  0
ARC
  8
_0-2_3
  6
DASHED1
 62
  250
 10
232.3298
 20
253.16919999999998
 40
2.9872999999999998
 50
90.000000000000028
 51
270.00000000000011
  0
ARC
  8
_0-2_3
  6
DASHED1
 62
  250
 10
244.35509999999999
 20
253.16919999999998
 40
2.9872999999999998
 50
270.00000000000005
 51
90.000000000000099
  0
ARC
  8
_0-2_3
  6
DASHED1
 62
  250
 10
244.35419999999999
 20
253.16919999999998
 40
3.0882
 50
270.00000000000005
 51
0.0000000000000763
  0
ARC
  8
_0-2_3
  6
DASHED1
 62
  250
 10
244.45349999999999
 20
253.16919999999998
 40
2.9889999999999998
 50
0.0000000000001017
 51
91.88600000000008
  0
ARC
  8
_0-2_3
  6
DASHED1
 62
  250
 10
232.2314
 20
253.16919999999998
 40
2.9889999999999998
 50
88.114000000000018
 51
180.00000000000005
  0
ARC
  8
_0-2_3
  6
DASHED1
 62
  250
 10
232.3306
 20
253.16919999999998
 40
3.0882
 50
180.00000000000005
 51
270.00000000000005
  0
ARC
  8
_0-2_3
  6
DASHED1
 62
  250
 10
233.8298
 20
253.16919999999998
 40
2.9872999999999998
 50
90.000000000000028
 51
270.00000000000011
  0
ARC
  8
_0-2_3
  6
DASHED1
 62
  250
 10
242.85509999999999
 20
253.16919999999998
 40
2.9872999999999998
 50
270.00000000000005
 51
90.000000000000099
  0
LINE
  8
_0-2_3
  6
DASHED1
 62
  250
 10
232.92450822451883
 20
234.57164242792342
 11
232.92450822451883
 21
234.57164242792342
  0
LINE
  8
_0-2_3
  6
DASHED1
 62
  250
 10
232.92450822451883
 20
234.57164242792342
 11
233.96910093314392
 21
233.80842302250493
  0
LINE
  8
_0-2_3
  6
DASHED1
 62
  250
 10
233.96910093314392
 20
233.80842302250493
 11
235.14657412091932
 21
233.21841276391651
  0
LINE
  8
_0-2_3
  6
DASHED1
 62
  250
 10
235.14657412091932
 20
233.21841276391651
 11
236.42115086086468
 21
232.81953881530577
  0
LINE
  8
_0-2_3
  6
DASHED1
 62
  250
 10
236.42115086086468
 20
232.81953881530577
 11
237.75410378370366
 21
232.62392075976126
  0
LINE
  8
_0-2_3
  6
DASHED1
 62
  250
 10
237.75410378370366
 20
232.62392075976126
 11
239.10493178938259
 21
232.6375023529132
  0
LINE
  8
_0-2_3
  6
DASHED1
 62
  250
 10
239.10493178938259
 20
232.6375023529132
 11
240.4325906525008
 21
232.85987092492629
  0
LINE
  8
_0-2_3
  6
DASHED1
 62
  250
 10
240.4325906525008
 20
232.85987092492629
 11
241.69674013033031
 21
233.28426991926383
  0
LINE
  8
_0-2_3
  6
DASHED1
 62
  250
 10
241.69674013033031
 20
233.28426991926383
 11
242.85896968067771
 21
233.89780418723916
  0
LINE
  8
_0-2_3
  6
DASHED1
 62
  250
 10
242.85896968067771
 20
233.89780418723916
 11
243.76029199271053
 21
234.57164261714842
  0
ARC
  8
_0-2_3
  6
CONTINUOUS
 62
  250
 10
151.21809999999999
 20
206.65039999999999
 40
42.358699999999998
 50
263.26800000000002
 51
282.73200000000008
  0
ARC
  8
_0-2_3
  6
CONTINUOUS
 62
  250
 10
57.218199999999995
 20
166.5318
 40
22.5
 50
0
 51
6.6050000000000022
  0
ARC
  8
_0-2_3
  6
CONTINUOUS
 62
  250
 10
66.335900000000009
 20
161.10079999999999
 40
0.1
 50
201.55800000000004
 51
270.00000000000005
  0
ARC
  8
_0-2_3
  6
CONTINUOUS
 62
  250
 10
246.81720000000001
 20
153.00059999999999
 40
0.1499999999999999
 50
0
 51
90.000000000000028
  0
ARC
  8
_0-2_3
  6
CONTINUOUS
 62
  250
 10
229.86770000000001
 20
153.00059999999999
 40
0.1499999999999999
 50
90.000000000000028
 51
180.00000000000005
  0
ARC
  8
_0-2_3
  6
CONTINUOUS
 62
  250
 10
246.81720000000001
 20
153.3006
 40
0.1499999999999999
 50
270.00000000000005
 51
0.0000000000000763
  0
ARC
  8
_0-2_3
  6
CONTINUOUS
 62
  250
 10
229.86770000000001
 20
153.3006
 40
0.1499999999999999
 50
180.00000000000005
 51
270.00000000000005
  0
ARC
  8
_0-2_3
  6
CONTINUOUS
 62
  250
 10
110.3019
 20
207.98099999999999
 40
1.5
 50
117.00000000000002
 51
169.00000000000002
  0
ARC
  8
_0-2_3
  6
CONTINUOUS
 62
  250
 10
101.456
 20
209.64039999999999
 40
7.5
 50
297.00000000000005
 51
349.00000000000005
  0
ARC
  8
_0-2_3
  6
CONTINUOUS
 62
  250
 10
99.693200000000004
 20
153.30039999999999
 40
0.1499999999999999
 50
270.00000000000005
 51
0.0000000000000763
  0
ARC
  8
_0-2_3
  6
CONTINUOUS
 62
  250
 10
82.743200000000001
 20
153.30039999999999
 40
0.1499999999999999
 50
180.00000000000005
 51
270.00000000000005
  0
ARC
  8
_0-2_3
  6
CONTINUOUS
 62
  250
 10
92.593199999999995
 20
185.4839
 40
10
 50
117.00000000000002
 51
180.00000000000005
  0
ARC
  8
_0-2_3
  6
CONTINUOUS
 62
  250
 10
119.84319999999999
 20
178.2306
 40
20
 50
118.00000000000001
 51
180.00000000000002
  0
ARC
  8
_0-2_3
  6
CONTINUOUS
 62
  250
 10
80.368200000000001
 20
153.00040000000001
 40
0.1499999999999999
 50
90.000000000000028
 51
180.00000000000005
  0
ARC
  8
_0-2_3
  6
CONTINUOUS
 62
  250
 10
101.29819999999999
 20
135.05039999999999
 40
0.1499999999999999
 50
270.00000000000005
 51
0.0000000000000763
  0
ARC
  8
_0-2_3
  6
CONTINUOUS
 62
  250
 10
81.138200000000011
 20
135.05039999999999
 40
0.1499999999999999
 50
180.00000000000005
 51
270.00000000000005
  0
ARC
  8
_0-2_3
  6
CONTINUOUS
 62
  250
 10
69.011899999999997
 20
138.22229999999998
 40
12.199299999999999
 50
349.02800000000007
 51
7.9070000000000693
  0
ARC
  8
_0-2_3
  6
CONTINUOUS
 62
  250
 10
77.804100000000005
 20
147.0078
 40
8.1216000000000008
 50
0
 51
22.967000000000002
  0
ARC
  8
_0-2_3
  6
CONTINUOUS
 62
  250
 10
78.206500000000005
 20
147.0078
 40
7.7191999999999998
 50
304.39700000000004
 51
0.0000000000000636
  0
ARC
  8
_0-2_3
  6
CONTINUOUS
 62
  250
 10
102.46819999999999
 20
138.15039999999999
 40
1.75
 50
270.00000000000005
 51
90.000000000000099
  0
ARC
  8
_0-2_3
  6
CONTINUOUS
 62
  250
 10
101.94819999999999
 20
135.90039999999999
 40
0.5
 50
90.000000000000028
 51
180.00000000000005
  0
CIRCLE
  8
_0-2_3
  6
CONTINUOUS
 62
  250
 10
102.46819999999999
 20
138.15039999999999
 40
0.75
  0
ARC
  8
_0-2_3
  6
CONTINUOUS
 62
  250
 10
158.62119999999998
 20
139.90039999999999
 40
57.280000000000001
 50
180.00000000000005
 51
183.50300000000004
  0
ARC
  8
_0-2_3
  6
CONTINUOUS
 62
  250
 10
124.84319999999999
 20
150.40039999999999
 40
25
 50
180.00000000000005
 51
194.55700000000004
  0
ARC
  8
_0-2_3
  6
CONTINUOUS
 62
  250
 10
76.448200000000014
 20
137.83359999999998
 40
25
 50
5.777000000000001
 51
14.557000000000005
  0
ARC
  8
_0-2_3
  6
CONTINUOUS
 62
  250
 10
99.693200000000004
 20
153.00040000000001
 40
0.1499999999999999
 50
0.0000000000001017
 51
90.000000000000127
  0
ARC
  8
_0-2_3
  6
CONTINUOUS
 62
  250
 10
101.8187
 20
140.40039999999999
 40
0.5
 50
185.77700000000001
 51
270.00000000000005
  0
ARC
  8
_0-2_3
  6
CONTINUOUS
 62
  250
 10
248.42240000000001
 20
135.05039999999999
 40
0.1499999999999999
 50
270.00000000000005
 51
0.0000000000000763
  0
ARC
  8
_0-2_3
  6
CONTINUOUS
 62
  250
 10
246.81739999999999
 20
153.00040000000001
 40
0.1499999999999999
 50
0
 51
90.000000000000028
  0
ARC
  8
_0-2_3
  6
CONTINUOUS
 62
  250
 10
271.96739999999999
 20
150.40039999999999
 40
25
 50
180.00000000000005
 51
194.55700000000004
  0
ARC
  8
_0-2_3
  6
CONTINUOUS
 62
  250
 10
223.57239999999998
 20
137.83359999999998
 40
25
 50
0
 51
14.557000000000002
  0
ARC
  8
_0-2_3
  6
CONTINUOUS
 62
  250
 10
228.26240000000001
 20
135.05039999999999
 40
0.1499999999999999
 50
180.00000000000005
 51
270.00000000000005
  0
ARC
  8
_0-2_3
  6
CONTINUOUS
 62
  250
 10
229.8674
 20
153.00040000000001
 40
0.1499999999999999
 50
90.000000000000028
 51
180.00000000000005
  0
ARC
  8
_0-2_3
  6
CONTINUOUS
 62
  250
 10
204.71739999999999
 20
150.40039999999999
 40
25
 50
345.44300000000004
 51
0.0000000000000636
  0
ARC
  8
_0-2_3
  6
CONTINUOUS
 62
  250
 10
253.1124
 20
137.83359999999998
 40
25
 50
165.44300000000004
 51
180.00000000000002
  0
ARC
  8
_0-2_3
  6
CONTINUOUS
 62
  250
 10
228.256
 20
134.50059999999999
 40
0.1499999999999999
 50
90.000000000000028
 51
179.00000000000005
  0
ARC
  8
_0-2_3
  6
CONTINUOUS
 62
  250
 10
177.78589999999999
 20
135.8693
 40
125
 50
1.0000000000000002
 51
6.4990000000000005
  0
ARC
  8
_0-2_3
  6
CONTINUOUS
 62
  250
 10
400.89890000000002
 20
135.8693
 40
125
 50
173.50100000000003
 51
178.54800000000003
  0
ARC
  8
_0-2_3
  6
CONTINUOUS
 62
  250
 10
271.44049999999998
 20
139.15059999999999
 40
4.5
 50
270.00000000000005
 51
358.54800000000005
  0
ARC
  8
_0-2_3
  6
CONTINUOUS
 62
  250
 10
301.83359999999998
 20
150.00059999999999
 40
0.1499999999999999
 50
6.4990000000000014
 51
90.000000000000028
  0
ARC
  8
_0-2_3
  6
CONTINUOUS
 62
  250
 10
276.85129999999998
 20
150.00059999999999
 40
0.1499999999999999
 50
90.000000000000028
 51
173.50100000000003
  0
ARC
  8
_0-2_3
  6
CONTINUOUS
 62
  250
 10
239.91599999999999
 20
139.65059999999999
 40
10
 50
280.71200000000004
 51
325.60500000000013
  0
ARC
  8
_0-2_3
  6
CONTINUOUS
 62
  250
 10
287.08519999999998
 20
144.65059999999999
 40
15
 50
218.43900000000004
 51
261.12500000000005
  0
ARC
  8
_0-2_3
  6
CONTINUOUS
 62
  250
 10
81.180900000000008
 20
134.4504
 40
0.2
 50
90.000000000000028
 51
179.00000000000005
  0
ARC
  8
_0-2_3
  6
CONTINUOUS
 62
  250
 10
101.25549999999999
 20
134.45009999999999
 40
0.2
 50
1.0000000000000002
 51
89.982000000000027
  0
POINT
  8
_0-3__J_POINT
 62
  250
 10
238.34239999999999
 20
230.8478
  0
POINT
  8
_0-3__J_POINT
 62
  250
 10
238.34239999999999
 20
230.8478
  0
POINT
  8
_0-3__J_POINT
 62
  250
 10
238.34239999999999
 20
214.71969999999998
  0
POINT
  8
_0-3__J_POINT
 62
  250
 10
238.34239999999999
 20
212.00900000000001
  0
POINT
  8
_0-3__J_POINT
 62
  250
 10
246.09239999999999
 20
190.26670000000001
  0
POINT
  8
_0-3__J_POINT
 62
  250
 10
230.59239999999999
 20
190.26670000000001
  0
POINT
  8
_0-3__J_POINT
 62
  250
 10
151.21809999999999
 20
206.65039999999999
  0
POINT
  8
_0-3__J_POINT
 62
  250
 10
252.51670000000001
 20
229.89319999999997
  0
POINT
  8
_0-3__J_POINT
 62
  250
 10
252.51670000000001
 20
229.89319999999997
  0
POINT
  8
_0-3__J_POINT
 62
  250
 10
238.34239999999999
 20
258.3478
  0
POINT
  8
_0-3__J_POINT
 62
  250
 10
238.34239999999999
 20
258.3478
  0
POINT
  8
_0-3__J_POINT
 62
  250
 10
238.34239999999999
 20
242.21969999999998
  0
POINT
  8
_0-3__J_POINT
 62
  250
 10
238.34239999999999
 20
239.50900000000001
  0
POINT
  8
_0-3__J_POINT
 62
  250
 10
238.34239999999999
 20
206.7107
  0
POINT
  8
_0-3__J_POINT
 62
  250
 10
238.34239999999999
 20
234.2107
  0
POINT
  8
_0-3__J_POINT
 62
  250
 10
289.34239999999999
 20
198.08969999999999
  0
POINT
  8
_0-3__J_POINT
 62
  250
 10
97.177499999999994
 20
175.78300000000001
  0
POINT
  8
_0-3__J_POINT
 62
  250
 10
238.34239999999999
 20
134.90039999999999
  0
POINT
  8
_0-3__J_POINT
 62
  250
 10
97.177499999999994
 20
175.78300000000001
  0
POINT
  8
_0-3__J_POINT
 62
  250
 10
108.0236
 20
204.29230000000001
  0
POINT
  8
_0-3__J_POINT
 62
  250
 10
97.177499999999994
 20
175.78300000000001
  0
POINT
  8
_0-3__J_POINT
 62
  250
 10
91.218199999999995
 20
153.15039999999999
  0
POINT
  8
_0-3__J_POINT
 62
  250
 10
91.218199999999995
 20
153.15039999999999
  0
POINT
  8
_0-3__J_POINT
 62
  250
 10
91.218199999999995
 20
151.90039999999999
  0
POINT
  8
_0-3__J_POINT
 62
  250
 10
238.34239999999999
 20
134.90039999999999
  0
POINT
  8
_0-3__J_POINT
 62
  250
 10
303.09239999999999
 20
123.40059999999999
  0
POINT
  8
_0-3__J_POINT
 62
  250
 10
320.60699999999997
 20
149.57019999999999
  0
POINT
  8
_0-3__J_POINT
 62
  250
 10
320.60699999999997
 20
149.57019999999999
  0
POINT
  8
_0-3__J_POINT
 62
  250
 10
91.218199999999995
 20
110.15039999999999
  0
POINT
  8
_0-3__J_POINT
 62
  250
 10
295.84249999999997
 20
121.40059999999999
  0
POINT
  8
_0-3__J_POINT
 62
  250
 10
295.84249999999997
 20
121.40059999999999
  0
TEXT
  8
_0-1_1
 62
  250
 10
394.07349999999996
 20
35.801900000000003
 40
3.8399999999999998
 41
1
 50
0
  1
製図
  0
TEXT
  8
_0-1_1
 62
  250
 10
364.01269999999999
 20
35.725399999999993
 40
3.8399999999999998
 41
1
 50
0
  1
承認
  0
TEXT
  8
_0-1_1
 62
  250
 10
374.00459999999998
 20
35.752799999999993
 40
3.8399999999999998
 41
1
 50
0
  1
検図
  0
TEXT
  8
_0-1_1
 62
  250
 10
364.28559999999998
 20
20.845500000000001
 40
3.8399999999999998
 41
1
 50
0
  1
日　付
  0
TEXT
  8
_0-1_1
 62
  250
 10
348.39729999999997
 20
20.690600000000003
 40
3.8399999999999998
 41
1
 50
0
  1
第三角法
  0
TEXT
  8
_0-1_1
 62
  250
 10
350.05349999999998
 20
35.852800000000002
 40
3.8399999999999998
 41
1
 50
0
  1
尺　度
  0
TEXT
  8
_0-1_1
 62
  250
 10
287.03610000000003
 20
281.82709999999997
 40
3.8399999999999998
 41
1
 50
0
  1
記号
  0
TEXT
  8
_0-1_1
 62
  250
 10
362.93819999999999
 20
281.78139999999996
 40
3.8399999999999998
 41
1
 50
0
  1
訂 正 記 事
  0
TEXT
  8
_0-1_1
 62
  250
 10
394.95370000000002
 20
281.76949999999999
 40
3.8399999999999998
 41
1
 50
0
  1
印
  0
TEXT
  8
_0-1_1
 62
  250
 10
327.96859999999998
 20
281.81409999999999
 40
3.8399999999999998
 41
1
 50
0
  1
変　更　理　由
  0
TEXT
  8
_0-1_1
 62
  250
 10
301.9067
 20
282.05340000000001
 40
3.8399999999999998
 41
1
 50
0
  1
日　　付
  0
TEXT
  8
_0-1_1
 62
  250
 10
296.05889999999999
 20
275.05200000000002
 40
3.8399999999999998
 41
1
 50
0
  1
　　・　　・ 
  0
TEXT
  8
_0-1_1
 62
  250
 10
296.05889999999999
 20
267.55200000000002
 40
3.8399999999999998
 41
1
 50
0
  1
　　・　　・ 
  0
TEXT
  8
_0-1_1
 62
  250
 10
296.05889999999999
 20
260.05200000000002
 40
3.8399999999999998
 41
1
 50
0
  1
　　・　　・ 
  0
TEXT
  8
_0-1_1
 62
  250
 10
301.46190000000001
 20
12.839300000000008
 40
3.8399999999999998
 41
1
 50
0
  1
備 考 
  0
TEXT
  8
_0-1_1
 62
  250
 10
301.26609999999999
 20
33.405900000000002
 40
3.8399999999999998
 41
1
 50
0
  1
仕 上
  0
TEXT
  8
_0-1_1
 62
  250
 10
301.23340000000001
 20
24.405900000000002
 40
3.8399999999999998
 41
1
 50
0
  1
表 面
  0
TEXT
  8
_0-1_1
 62
  250
 10
301.23340000000001
 20
20.905900000000002
 40
3.8399999999999998
 41
1
 50
0
  1
処 理
  0
TEXT
  8
_0-1_1
 62
  250
 10
226.90649999999999
 20
33.005099999999998
 40
3.8399999999999998
 41
1
 50
0
  1
品 名
  0
TEXT
  8
_0-1_1
 62
  250
 10
226.70869999999999
 20
22.620500000000006
 40
3.8399999999999998
 41
1
 50
0
  1
材 質
  0
TEXT
  8
_0-1_1
 62
  250
 10
263.95870000000002
 20
22.620500000000006
 40
3.8399999999999998
 41
1
 50
0
  1
規 格
  0
TEXT
  8
_0-2_3
 62
  250
 10
258.20799999999996
 20
53.622200000000006
 40
3.8399999999999998
 41
1
 50
0
  1
１０２
  0
TEXT
  8
_0-2_3
 62
  250
 10
258.86880000000002
 20
99.790599999999997
 40
3.8399999999999998
 41
1
 50
0
  1
２４六角
  0
TEXT
  8
_0-2_3
 62
  250
 10
259.13819999999998
 20
86.725799999999992
 40
3.8399999999999998
 41
1
 50
0
  1
２５六角
  0
TEXT
  8
_0-2_3
 62
  250
 10
259.4076
 20
70.159099999999995
 40
3.8399999999999998
 41
1
 50
0
  1
２３六角
  0
TEXT
  8
_0-2_3
 62
  250
 10
196.05649999999999
 20
62.024500000000003
 40
3.8399999999999998
 41
1
 50
0
  1
Ｇ １／ ２
  0
TEXT
  8
_0-2_3
 62
  250
 10
319.89839999999998
 20
12.735000000000013
 40
3.8399999999999998
 41
1
 50
0
  1
外観寸法図
  0
TEXT
  8
_0-2_3
 62
  250
 10
204.82650000000001
 20
159.53079999999999
 40
3.8399999999999998
 41
1
 50
90.000000000000014
  1
１７５
  0
TEXT
  8
_0-2_3
 62
  250
 10
193.44640000000001
 20
182.57679999999999
 40
3.8399999999999998
 41
1
 50
90.000000000000014
  1
２３０
  0
TEXT
  8
_0-2_3
 62
  250
 10
115.9681
 20
101.06239999999999
 40
3.8399999999999998
 41
1
 50
0
  1
120
  0
TEXT
  8
_0-2_3
 62
  250
 10
151.8136
 20
164.56669999999999
 40
3.8399999999999998
 41
1
 50
2.9999999999999973
  1
6ﾟ
  0
TEXT
  8
_0-2_3
 62
  250
 10
44.465499999999991
 20
158.71789999999998
 40
3.8399999999999998
 41
1
 50
90.000000000000042
  1
２２４（ＭＡＸ２７９）
  0
TEXT
  8
_0-2_3
 62
  250
 10
78.468199999999995
 20
215.91730000000001
 40
3.8399999999999998
 41
1
 50
0
  1
37
  0
TEXT
  8
_0-2_3
 62
  250
 10
358.05650000000002
 20
91.525599999999997
 40
3.8399999999999998
 41
1
 50
90
  1
86.5
  0
TEXT
  8
_0-2_3
 62
  250
 10
51.718199999999995
 20
165.50739999999998
 40
3.8399999999999998
 41
1
 50
0
  1
φ２８
  0
TEXT
  8
_0-2_3
 62
  250
 10
236.71280000000001
 20
30.5394
 40
3.8399999999999998
 41
1
 50
0
  1
ＥＳ－６Ｕ
  0
TEXT
  8
_0-2_3
 62
  250
 10
189.36430000000001
 20
86.291899999999998
 40
3.8399999999999998
 41
1
 50
0
  1
ＰＪ１／２
  0
TEXT
  8
_0-2_3
 62
  250
 10
357.9273
 20
159.29689999999999
 40
3.8399999999999998
 41
1
 50
90
  1
１５７
  0
TEXT
  8
_0-2_3
 62
  250
 10
362.67590000000001
 20
150.0258
 40
3.8399999999999998
 41
1
 50
90
  1
（止水時　１２３）
  0
TEXT
  8
_0-2_3
 62
  250
 10
65.217800000000011
 20
106.65049999999999
 40
3.8399999999999998
 41
1
 50
90
  1
３６
  0
TEXT
  8
_0-2_3
 62
  250
 10
192.59469999999998
 20
80.969499999999996
 40
3.8399999999999998
 41
1
 50
0
  1
給水栓ネジ
  0
TEXT
  8
_0-2_3
 62
  250
 10
324.3143
 20
133.2646
 40
3.2000000000000001
 41
1
 50
0
  1
４Ｆ０１５
  0
TEXT
  8
_0-2_3
 62
  250
 10
320.59069999999996
 20
128.6568
 40
3.8399999999999998
 41
1
 50
0
  1
（製品コードＮＯ及び
  0
TEXT
  8
_0-2_3
 62
  250
 10
321.63099999999997
 20
125.19069999999999
 40
3.8399999999999998
 41
1
 50
0
  1
　ロットＮＯの表示）
  0
TEXT
  8
_0-2_3
 62
  250
 10
323.95429999999998
 20
136.20079999999998
 40
3.2000000000000001
 41
0.9
 50
0
  1
１０２５１０
  0
TEXT
  8
_0-2_3
 62
  250
 10
285.3091
 20
274.7706
 40
7.6799999999999997
 41
1
 50
0
  1
△
  0
TEXT
  8
_0-2_3
 62
  250
 10
295.53419999999999
 20
276.76710000000002
 40
3.8399999999999998
 41
1
 50
0
  1
０８　　６　２１
  0
TEXT
  8
_0-2_3
 62
  250
 10
322.13420000000002
 20
276.76710000000002
 40
3.8399999999999998
 41
1
 50
0
  1
新ＪＩＳへの移行の為
  0
TEXT
  8
_0-2_3
 62
  250
 10
357.13419999999996
 20
276.76710000000002
 40
3.8399999999999998
 41
0.75
 50
0
  1
新ＪＩＳミズタニシールへ変更
  0
TEXT
  8
_0-2_3
 62
  250
 10
287.30619999999998
 20
276.52459999999996
 40
2.56
 41
1
 50
0
  1
１
  0
TEXT
  8
_0-2_3
 62
    7
 10
237.07756776782093
 20
36.012251681089324
 40
2.5
 41
1
 50
0
  1
台付きシングルレバ－湯水混合水栓（シャワ）
  0
TEXT
  8
_0-2_3
 62
  250
 10
188.13420996887029
 20
76.256729033505862
 40
3.8399999999999998
 41
1
 50
0
  1
取付穴φ２３±１
  0
ENDSEC
  0
EOF
