  0
SECTION
  2
HEADER
  9
$ACADVER
  1
AC1009
  9
$INSBASE
 10
0
 20
0
 30
0
  9
$EXTMIN
 10
0
 20
0
  9
$EXTMAX
 10
420
 20
297
  9
$LIMMIN
 10
0
 20
0
  9
$LIMMAX
 10
420
 20
297
  9
$LTSCALE
 40
1
  0
ENDSEC
  0
SECTION
  2
TABLES
  0
TABLE
  2
LTYPE
 70
     9
  0
LTYPE
  2
CONTINUOUS
 70
    64
  3
実線
 72
    65
 73
     0
 40
0.0
  0
LTYPE
  2
DASHED1
 70
    64
  3
--  --  --  --  --  --  --  --  
 72
    65
 73
     2
 40
2.5
 49
1.25
 49
-1.25
  0
LTYPE
  2
DASHED2
 70
    64
  3
----    ----    ----    ----    
 72
    65
 73
     2
 40
5.0
 49
2.5
 49
-2.5
  0
LTYPE
  2
DASHED3
 70
    64
  3
------  ------  ------  ------  
 72
    65
 73
     2
 40
5.0
 49
3.75
 49
-1.25
  0
LTYPE
  2
CENTER1
 70
    64
  3
----- - ----- - ----- - ----- - 
 72
    65
 73
     4
 40
10.0
 49
6.25
 49
-1.25
 49
1.25
 49
-1.25
  0
LTYPE
  2
CENTER2
 70
    64
  3
----------  --  ----------  --  
 72
    65
 73
     4
 40
20.0
 49
12.5
 49
-2.5
 49
2.5
 49
-2.5
  0
LTYPE
  2
PHANTOM1
 70
    64
  3
--- - - --- - - --- - - --- - - 
 72
    65
 73
     6
 40
10.0
 49
3.25
 49
-1.25
 49
1.25
 49
-1.25
 49
1.25
 49
-1.25
  0
LTYPE
  2
PHANTOM2
 70
    64
  3
--------  -  -  --------  -  -  
 72
    65
 73
     6
 40
20.0
 49
10.0
 49
-2.5
 49
1.25
 49
-2.5
 49
1.25
 49
-2.5
  0
LTYPE
  2
DOT
 70
    64
  3
-   -   -   -   -   -   -   -   
 72
    65
 73
     2
 40
2.5
 49
0.625
 49
-1.875
  0
LTYPE
  2
DUMMY
 70
    64
  3
ダミー
 72
    65
 73
     0
 40
0.0
  0
LTYPE
  2
RAND1
 70
    64
  3
ランダム線1
 72
    65
 73
     4
 40
10.0
 49
1.0
 49
-2.0
 49
3.0
 49
-4.0
  0
LTYPE
  2
RAND2
 70
    64
  3
ランダム線2
 72
    65
 73
     4
 40
14.0
 49
2.0
 49
-3.0
 49
4.0
 49
-5.0
  0
LTYPE
  2
RAND3
 70
    64
  3
ランダム線3
 72
    65
 73
     4
 40
18.0
 49
3.0
 49
-4.0
 49
5.0
 49
-6.0
  0
LTYPE
  2
RAND4
 70
    64
  3
ランダム線4
 72
    65
 73
     4
 40
22.0
 49
4.0
 49
-5.0
 49
6.0
 49
-7.0
  0
LTYPE
  2
RAND5
 70
    64
  3
ランダム線5
 72
    65
 73
     4
 40
26.0
 49
5.0
 49
-6.0
 49
7.0
 49
-8.0
  0
LTYPE
  2
LONG1
 70
    64
  3
----------  --  ----------  --  
 72
    65
 73
     4
 40
40.0
 49
32.5
 49
-2.5
 49
2.5
 49
-2.5
  0
LTYPE
  2
LONG2
 70
    64
  3
--------  -  -  --------  -  -  
 72
    65
 73
     6
 40
40.0
 49
30.0
 49
-2.5
 49
1.25
 49
-2.5
 49
1.25
 49
-2.5
  0
LTYPE
  2
LONG3
 70
    64
  3
+++++++++++++++..+++++++++++++++
 72
    65
 73
     2
 40
40.0
 49
37.5
 49
-2.5
  0
LTYPE
  2
LONG4
 70
    64
  3
+++++++++++++++..+++++++++++++++
 72
    65
 73
     2
 40
80.0
 49
75.0
 49
-5.0
  0
LTYPE
  2
LONG5
 70
    64
  3
----------  --  ----------  --  
 72
    65
 73
     4
 40
60.0
 49
37.5
 49
-7.5
 49
7.5
 49
-7.5
  0
LTYPE
  2
dashed
 70
   64
  3
-------   -------------   ------
 72
   65
 73
    2
 40
7.5
 49
6
 49
-1.5
  0
LTYPE
  2
dashed_spaced
 70
   64
  3
----        --------        ----
 72
   65
 73
    2
 40
12
 49
6
 49
-6
  0
LTYPE
  2
long_dashed_dotted
 70
   64
  3
------------- --- --------------
 72
   65
 73
    4
 40
15.25
 49
12
 49
-1.5
 49
0.25
 49
-1.5
  0
LTYPE
  2
long_dashed_double-dotted
 70
   64
  3
----------- --- --- ------------
 72
   65
 73
    6
 40
17
 49
12
 49
-1.5
 49
0.25
 49
-1.5
 49
0.25
 49
-1.5
  0
LTYPE
  2
long_dashed_triplicate-dotted
 70
   64
  3
--------- --- --- --- ----------
 72
   65
 73
    8
 40
18.75
 49
12
 49
-1.5
 49
0.25
 49
-1.5
 49
0.25
 49
-1.5
 49
0.25
 49
-1.5
  0
LTYPE
  2
dotted
 70
   64
  3
   -       -       -       -    
 72
   65
 73
    2
 40
1.75
 49
0.25
 49
-1.5
  0
LTYPE
  2
chain
 70
   64
  3
-------------- -- --------------
 72
   65
 73
    4
 40
18.5
 49
12
 49
-1.5
 49
3.5
 49
-1.5
  0
LTYPE
  2
chain_double_dash
 70
   64
  3
------------ -- -- -------------
 72
   65
 73
    6
 40
23.5
 49
12
 49
-1.5
 49
3.5
 49
-1.5
 49
3.5
 49
-1.5
  0
LTYPE
  2
dashed_dotted
 70
   64
  3
-----------     -     ----------
 72
   65
 73
    4
 40
9.25
 49
6
 49
-1.5
 49
0.25
 49
-1.5
  0
LTYPE
  2
double-dashed_dotted
 70
   64
  3
------   -----------   -   -----
 72
   65
 73
    6
 40
16.75
 49
6
 49
-1.5
 49
6
 49
-1.5
 49
0.25
 49
-1.5
  0
LTYPE
  2
dashed_double-dotted
 70
   64
  3
---------    -    -    ---------
 72
   65
 73
    6
 40
11
 49
6
 49
-1.5
 49
0.25
 49
-1.5
 49
0.25
 49
-1.5
  0
LTYPE
  2
double-dashed_double-dotted
 70
   64
  3
-----   ---------   -   -   ----
 72
   65
 73
    8
 40
18.5
 49
6
 49
-1.5
 49
6
 49
-1.5
 49
0.25
 49
-1.5
 49
0.25
 49
-1.5
  0
LTYPE
  2
dashed_triplicate-dotted
 70
   64
  3
-------    -    -    -    ------
 72
   65
 73
    8
 40
12.75
 49
6
 49
-1.5
 49
0.25
 49
-1.5
 49
0.25
 49
-1.5
 49
0.25
 49
-1.5
  0
LTYPE
  2
double-dashed_triplicate-dotted
 70
   64
  3
-----  ---------  -  -  -  -----
 72
   65
 73
   10
 40
20.25
 49
6
 49
-1.5
 49
6
 49
-1.5
 49
0.25
 49
-1.5
 49
0.25
 49
-1.5
 49
0.25
 49
-1.5
  0
LTYPE
  2
undefined
 70
   64
  3
--------------------------------
 72
   65
 73
    0
 40
0
  0
LTYPE
  2
DASHED
 70
   64
  3
------     -----------     -----
 72
   65
 73
    2
 40
0.75
 49
0.5
 49
-0.25
  0
LTYPE
  2
HIDDEN
 70
   64
  3
------     -----------     -----
 72
   65
 73
    2
 40
0.375
 49
0.25
 49
-0.125
  0
LTYPE
  2
CENTER
 70
   64
  3
----------    ----    ----------
 72
   65
 73
    4
 40
2
 49
1.25
 49
-0.25
 49
0.25
 49
-0.25
  0
LTYPE
  2
PHANTOM
 70
   64
  3
---------   ---   ---   --------
 72
   65
 73
    6
 40
2.5
 49
1.25
 49
-0.25
 49
0.25
 49
-0.25
 49
0.25
 49
-0.25
  0
LTYPE
  2
_
 70
   64
  3
                                
 72
   65
 73
    0
 40
0
  0
LTYPE
  2
__22
 70
   64
  3
                                
 72
   65
 73
    0
 40
0
  0
LTYPE
  2
__23
 70
   64
  3
                                
 72
   65
 73
    0
 40
0
  0
LTYPE
  2
__24
 70
   64
  3
                                
 72
   65
 73
    0
 40
0
  0
LTYPE
  2
__25
 70
   64
  3
                                
 72
   65
 73
    0
 40
0
  0
LTYPE
  2
__26
 70
   64
  3
                                
 72
   65
 73
    0
 40
0
  0
LTYPE
  2
__27
 70
   64
  3
                                
 72
   65
 73
    0
 40
0
  0
LTYPE
  2
__28
 70
   64
  3
                                
 72
   65
 73
    0
 40
0
  0
LTYPE
  2
__29
 70
   64
  3
                                
 72
   65
 73
    0
 40
0
  0
LTYPE
  2
__30
 70
   64
  3
                                
 72
   65
 73
    0
 40
0
  0
LTYPE
  2
__31
 70
   64
  3
                                
 72
   65
 73
    0
 40
0
  0
LTYPE
  2
__32
 70
   64
  3
                                
 72
   65
 73
    0
 40
0
  0
ENDTAB
  0
TABLE
  2
STYLE
  5
3
100
AcDbSymbolTable
 70
     1
  0
STYLE
  5
10
100
AcDbSymbolTableRecord
100
AcDbTextStyleTableRecord
  2
STANDARD
 70
     0
 40
0.0
 41
1.0
 50
0.0
 71
     0
 42
0.2
  3
txt
  4
bigfont.shx
  0
STYLE
  5
26
100
AcDbSymbolTableRecord
100
AcDbTextStyleTableRecord
  2
TATEGAKI
 70
    68
 40
0.0
 41
1.0
 50
0.0
 71
     0
 42
1.0
  3
txt
  4
bigfont.shx
  0
ENDTAB
  0
TABLE
  2
LAYER
 70
    5
  0
LAYER
  2
_0-0_0
 70
   64
 62
    7
  6
CONTINUOUS
  0
LAYER
  2
_0-1_H0
 70
   64
 62
    7
  6
CONTINUOUS
  0
LAYER
  2
_0-2_H1
 70
   64
 62
    7
  6
CONTINUOUS
  0
LAYER
  2
_0-4_A0
 70
   64
 62
    7
  6
CONTINUOUS
  0
LAYER
  2
ADD_LINE
 70
   64
 62
    7
  6
CONTINUOUS
  0
ENDTAB
  0
ENDSEC
  0
SECTION
  2
BLOCKS
  0
BLOCK
  2
-000-_OPEN
 70
   64
 10
0
 20
0
 30
0
  0
LINE
  8
_0-0_0
  6
CONTINUOUS
 62
    7
 10
-1
 20
0.166667
 11
0
 21
0
  0
LINE
  8
_0-0_0
  6
CONTINUOUS
 62
    7
 10
0
 20
0
 11
-1
 21
-0.166667
  0
LINE
  8
_0-0_0
  6
CONTINUOUS
 62
    7
 10
0
 20
0
 11
-1
 21
0
  0
ENDBLK
  0
BLOCK
  2
-001-_U153
 70
   64
 10
0
 20
0
 30
0
  0
TEXT
  8
_0-4_A0
 62
    7
 10
151.8894679956488
 20
157.75488870125269
 40
4
 41
1
 50
90
  1
\U+2205148
  0
ENDBLK
  0
BLOCK
  2
-002-_D13
 70
   64
 10
0
 20
0
 30
0
  0
LINE
  8
_0-4_A0
  6
CONTINUOUS
 62
    7
 10
142.50745008381809
 20
189.08822203437691
 11
153.3894679956488
 21
189.08822203437691
  0
LINE
  8
_0-4_A0
  6
CONTINUOUS
 62
    7
 10
152.3894679956488
 20
186.08822203437691
 11
152.3894679956488
 21
142.75488870146199
  0
INSERT
  2
-000-_OPEN
  8
_0-4_A0
 10
152.3894679956488
 20
189.08822203437691
 41
3
 42
3
 50
90
  0
INSERT
  2
-000-_OPEN
  8
_0-4_A0
 10
152.3894679956488
 20
139.75488870146199
 41
3
 42
3
 50
270
  0
LINE
  8
_0-4_A0
  6
CONTINUOUS
 62
    7
 10
142.50745008389549
 20
139.75488870146199
 11
153.3894679956488
 21
139.75488870146199
  0
INSERT
  2
-001-_U153
  8
_0-0_0
 10
0
 20
0
 41
1
 42
1
 50
0
  0
ENDBLK
  0
BLOCK
  2
-003-_U154
 70
   64
 10
0
 20
0
 30
0
  0
TEXT
  8
_0-4_A0
 62
    7
 10
105.0407834051759
 20
219.2199569584057
 40
4
 41
1
 50
0
  1
136
  0
ENDBLK
  0
BLOCK
  2
-004-_D14
 70
   64
 10
0
 20
0
 30
0
  0
LINE
  8
_0-4_A0
  6
CONTINUOUS
 62
    7
 10
87.207450071842615
 20
195.3882220465025
 11
87.207450071842615
 21
219.7199569584057
  0
LINE
  8
_0-4_A0
  6
CONTINUOUS
 62
    7
 10
90.2074500718426
 20
218.7199569584057
 11
129.2074500718426
 21
218.7199569584057
  0
INSERT
  2
-000-_OPEN
  8
_0-4_A0
 10
87.207450071842615
 20
218.7199569584057
 41
3
 42
3
 50
180
  0
INSERT
  2
-000-_OPEN
  8
_0-4_A0
 10
132.2074500718426
 20
218.7199569584057
 41
3
 42
3
 50
0
  0
INSERT
  2
-003-_U154
  8
_0-0_0
 10
0
 20
0
 41
1
 42
1
 50
0
  0
ENDBLK
  0
BLOCK
  2
-005-_D15
 70
   64
 10
0
 20
0
 30
0
  0
LINE
  8
_0-4_A0
  6
CONTINUOUS
 62
    7
 10
86.907450071842632
 20
195.08822203458169
 11
68.901086440684863
 21
195.08822203458169
  0
LINE
  8
_0-4_A0
  6
CONTINUOUS
 62
    7
 10
131.6407834051929
 20
201.08822203425819
 11
68.901086440684863
 21
201.08822203425819
  0
LINE
  8
_0-4_A0
  6
CONTINUOUS
 62
    7
 10
69.901086440684878
 20
192.08822203458169
 11
69.901086440684878
 21
189.08822203458169
  0
LINE
  8
_0-4_A0
  6
CONTINUOUS
 62
    7
 10
69.901086440684878
 20
204.08822203425819
 11
69.901086440684878
 21
212.60155536759148
  0
LINE
  8
_0-4_A0
  6
CONTINUOUS
 62
    7
 10
69.901086440684878
 20
195.08822203458169
 11
69.901086440684878
 21
201.08822203425819
  0
INSERT
  2
-000-_OPEN
  8
_0-4_A0
 10
69.901086440684878
 20
195.08822203458169
 41
3
 42
3
 50
90
  0
INSERT
  2
-000-_OPEN
  8
_0-4_A0
 10
69.901086440684878
 20
201.08822203425819
 41
3
 42
3
 50
270
  0
TEXT
  8
_0-4_A0
 62
    7
 10
59.811100000000003
 20
202.76499999999998
 40
4
 41
1
 50
0
  1
18
  0
POINT
  8
_0-6__0-6_Defpoints
 62
    7
 10
87.207450071842615
 20
195.08822203458169
  0
POINT
  8
_0-6__0-6_Defpoints
 62
    7
 10
131.94078340519288
 20
201.08822203425819
  0
POINT
  8
_0-6__0-6_Defpoints
 62
    7
 10
69.901086440684878
 20
201.08822203425819
  0
ENDBLK
  0
BLOCK
  2
-006-_D16
 70
   64
 10
0
 20
0
 30
0
  0
LINE
  8
_0-4_A0
  6
CONTINUOUS
 62
    7
 10
126.94078340530788
 20
126.9215553679149
 11
126.94078340530788
 21
115.67796498125109
  0
LINE
  8
_0-4_A0
  6
CONTINUOUS
 62
    7
 10
132.20745007197459
 20
122.0548887012371
 11
132.20745007197459
 21
115.67796498125109
  0
LINE
  8
_0-4_A0
  6
CONTINUOUS
 62
    7
 10
123.94078340530788
 20
116.67796498125109
 11
120.94078340530788
 21
116.67796498125109
  0
LINE
  8
_0-4_A0
  6
CONTINUOUS
 62
    7
 10
135.20745007197459
 20
116.67796498125109
 11
143.72078340530791
 21
116.67796498125109
  0
LINE
  8
_0-4_A0
  6
CONTINUOUS
 62
    7
 10
126.94078340530788
 20
116.67796498125109
 11
132.20745007197459
 21
116.67796498125109
  0
INSERT
  2
-000-_OPEN
  8
_0-4_A0
 10
126.94078340530788
 20
116.67796498125109
 41
3
 42
3
 50
0
  0
INSERT
  2
-000-_OPEN
  8
_0-4_A0
 10
132.20745007197459
 20
116.67796498125109
 41
3
 42
3
 50
180
  0
TEXT
  8
_0-4_A0
 62
    7
 10
124.96399999999998
 20
109.808
 40
4
 41
1
 50
0
  1
16
  0
POINT
  8
_0-6__0-6_Defpoints
 62
    7
 10
126.94078340530788
 20
127.2215553679149
  0
POINT
  8
_0-6__0-6_Defpoints
 62
    7
 10
132.20745007197459
 20
122.3548887012371
  0
POINT
  8
_0-6__0-6_Defpoints
 62
    7
 10
132.20745007197459
 20
116.67796498125109
  0
ENDBLK
  0
BLOCK
  2
-007-_U157
 70
   64
 10
0
 20
0
 30
0
  0
TEXT
  8
_0-4_A0
 62
    7
 10
90.740783405307894
 20
111.50868759553958
 40
4
 41
1
 50
0
  1
221
  0
ENDBLK
  0
BLOCK
  2
-008-_D17
 70
   64
 10
0
 20
0
 30
0
  0
LINE
  8
_0-4_A0
  6
CONTINUOUS
 62
    7
 10
132.20745007197459
 20
122.0548886893162
 11
132.20745007197459
 21
110.00868759553958
  0
LINE
  8
_0-4_A0
  6
CONTINUOUS
 62
    7
 10
129.20745007197459
 20
111.00868759553958
 11
61.607450071974582
 21
111.00868759553958
  0
INSERT
  2
-000-_OPEN
  8
_0-4_A0
 10
132.20745007197459
 20
111.00868759553958
 41
3
 42
3
 50
0
  0
INSERT
  2
-000-_OPEN
  8
_0-4_A0
 10
58.607450071974582
 20
111.00868759553958
 41
3
 42
3
 50
180
  0
LINE
  8
_0-4_A0
  6
CONTINUOUS
 62
    7
 10
58.607450071974582
 20
137.4548886893273
 11
58.607450071974582
 21
110.00868759553958
  0
INSERT
  2
-007-_U157
  8
_0-0_0
 10
0
 20
0
 41
1
 42
1
 50
0
  0
ENDBLK
  0
BLOCK
  2
-009-_U158
 70
   64
 10
0
 20
0
 30
0
  0
TEXT
  8
_0-4_A0
 62
    7
 10
41.034195637796031
 20
129.7548887012482
 40
4
 41
1
 50
90
  1
30
  0
ENDBLK
  0
BLOCK
  2
-010-_D18
 70
   64
 10
0
 20
0
 30
0
  0
LINE
  8
_0-4_A0
  6
CONTINUOUS
 62
    7
 10
41.534195637796017
 20
130.7548887012482
 11
41.534195637796017
 21
134.7548887012482
  0
INSERT
  2
-000-_OPEN
  8
_0-4_A0
 10
41.534195637796017
 20
127.7548887012482
 41
3
 42
3
 50
270
  0
INSERT
  2
-000-_OPEN
  8
_0-4_A0
 10
41.534195637796017
 20
137.7548887012482
 41
3
 42
3
 50
90
  0
LINE
  8
_0-4_A0
  6
CONTINUOUS
 62
    7
 10
58.307450060053646
 20
137.7548887012482
 11
40.534195637796031
 21
137.7548887012482
  0
INSERT
  2
-009-_U158
  8
_0-0_0
 10
0
 20
0
 41
1
 42
1
 50
0
  0
ENDBLK
  0
BLOCK
  2
-011-_U159
 70
   64
 10
0
 20
0
 30
0
  0
TEXT
  8
_0-4_A0
 62
    7
 10
31.46723309853181
 20
159.42155536775308
 40
4
 41
1
 50
90
  1
220
  0
ENDBLK
  0
BLOCK
  2
-012-_D19
 70
   64
 10
0
 20
0
 30
0
  0
LINE
  8
_0-4_A0
  6
CONTINUOUS
 62
    7
 10
126.10745006005359
 20
127.7548887012482
 11
30.96723309853181
 21
127.7548887012482
  0
LINE
  8
_0-4_A0
  6
CONTINUOUS
 62
    7
 10
31.96723309853181
 20
130.7548887012482
 11
31.96723309853181
 21
198.0882220342581
  0
INSERT
  2
-000-_OPEN
  8
_0-4_A0
 10
31.96723309853181
 20
127.7548887012482
 41
3
 42
3
 50
270
  0
INSERT
  2
-000-_OPEN
  8
_0-4_A0
 10
31.96723309853181
 20
201.0882220342581
 41
3
 42
3
 50
90
  0
LINE
  8
_0-4_A0
  6
CONTINUOUS
 62
    7
 10
131.64078339327198
 20
201.0882220342581
 11
30.96723309853181
 21
201.0882220342581
  0
INSERT
  2
-011-_U159
  8
_0-0_0
 10
0
 20
0
 41
1
 42
1
 50
0
  0
ENDBLK
  0
BLOCK
  2
-013-_U160
 70
   64
 10
0
 20
0
 30
0
  0
INSERT
  2
-000-_OPEN
  8
_0-4_A0
 10
0.0000000000000189
 20
0
 41
3
 42
3
 50
235.55706138067043
  0
LINE
  8
_0-4_A0
  6
CONTINUOUS
 62
    7
 10
1.6967556045224869
 20
2.4740696066444027
 11
18.05042570703031
 21
26.319647632061251
  0
LINE
  8
_0-4_A0
  6
CONTINUOUS
 62
    7
 10
18.05042570703031
 20
26.319647632061251
 11
21.05042570703031
 21
26.319647632061251
  0
ENDBLK
  0
BLOCK
  2
-014-_U161
 70
   64
 10
0
 20
0
 30
0
  0
TEXT
  8
_0-4_A0
 62
    7
 10
21.795971708193569
 20
28.30934727894494
 40
4.6110001659393313
 41
1
 50
0
  1
10
  0
ENDBLK
  0
BLOCK
  2
-015-$$BALLOON$$0
 70
   64
 10
0
 20
0
 30
0
  0
INSERT
  2
-013-_U160
  8
_0-0_0
 10
0
 20
0
 41
1
 42
1
 50
0
  0
INSERT
  2
-014-_U161
  8
_0-0_0
 10
0
 20
0
 41
1
 42
1
 50
0
  0
CIRCLE
  8
_0-4_A0
  6
CONTINUOUS
 62
    7
 10
24.48572180499152
 20
30.614847361914598
 40
5.5
  0
ENDBLK
  0
BLOCK
  2
-016-_U162
 70
   64
 10
0
 20
0
 30
0
  0
INSERT
  2
-000-_OPEN
  8
_0-4_A0
 10
0.0000000000000189
 20
0.0000000000001137
 41
3
 42
3
 50
280.66513191657008
  0
LINE
  8
_0-4_A0
  6
CONTINUOUS
 62
    7
 10
-0.5552057981649862
 20
2.9481768131651509
 11
-5.361375574885673
 21
28.46923286606216
  0
LINE
  8
_0-4_A0
  6
CONTINUOUS
 62
    7
 10
-5.361375574885673
 20
28.46923286606216
 11
-8.3613755748856721
 21
28.46923286606216
  0
ENDBLK
  0
BLOCK
  2
-017-_U163
 70
   64
 10
0
 20
0
 30
0
  0
TEXT
  8
_0-4_A0
 62
    7
 10
-11.342255296292149
 20
31.59984118345692
 40
4.2930001544952389
 41
1
 50
0
  1
9
  0
ENDBLK
  0
BLOCK
  2
-018-$$BALLOON$$1
 70
   64
 10
0
 20
0
 30
0
  0
INSERT
  2
-016-_U162
  8
_0-0_0
 10
0
 20
0
 41
1
 42
1
 50
0
  0
INSERT
  2
-017-_U163
  8
_0-0_0
 10
0
 20
0
 41
1
 42
1
 50
0
  0
CIRCLE
  8
_0-4_A0
  6
CONTINUOUS
 62
    7
 10
-9.9112552447937396
 20
33.746341260704532
 40
5.5
  0
ENDBLK
  0
BLOCK
  2
-019-_U164
 70
   64
 10
0
 20
0
 30
0
  0
INSERT
  2
-000-_OPEN
  8
_0-4_A0
 10
-0.0000000000000379
 20
-0.0000000000000379
 41
3
 42
3
 50
310.74139425500271
  0
LINE
  8
_0-4_A0
  6
CONTINUOUS
 62
    7
 10
-1.957937879734855
 20
2.272989058288525
 11
-22.676476403880098
 21
26.325341207219061
  0
LINE
  8
_0-4_A0
  6
CONTINUOUS
 62
    7
 10
-22.676476403880098
 20
26.325341207219061
 11
-25.676476403880098
 21
26.325341207219061
  0
ENDBLK
  0
BLOCK
  2
-020-_U165
 70
   64
 10
0
 20
0
 30
0
  0
TEXT
  8
_0-4_A0
 62
    7
 10
-30.94773781757695
 20
28.116148924646111
 40
4.2930001544952389
 41
1
 50
0
  1
5
  0
ENDBLK
  0
BLOCK
  2
-021-$$BALLOON$$2
 70
   64
 10
0
 20
0
 30
0
  0
INSERT
  2
-019-_U164
  8
_0-0_0
 10
0
 20
0
 41
1
 42
1
 50
0
  0
INSERT
  2
-020-_U165
  8
_0-0_0
 10
0
 20
0
 41
1
 42
1
 50
0
  0
CIRCLE
  8
_0-4_A0
  6
CONTINUOUS
 62
    7
 10
-29.516737766078538
 20
30.262649001893731
 40
5.5
  0
ENDBLK
  0
BLOCK
  2
-022-_U166
 70
   64
 10
0
 20
0
 30
0
  0
INSERT
  2
-000-_OPEN
  8
_0-4_A0
 10
0.0000000000000189
 20
0.0000000000000758
 41
3
 42
3
 50
319.09580434010899
  0
LINE
  8
_0-4_A0
  6
CONTINUOUS
 62
    7
 10
-2.2674165651864348
 20
1.9643884849790669
 11
-34.928847298673311
 21
30.260793927586629
  0
LINE
  8
_0-4_A0
  6
CONTINUOUS
 62
    7
 10
-34.928847298673311
 20
30.260793927586629
 11
-37.928847298673311
 21
30.260793927586629
  0
ENDBLK
  0
BLOCK
  2
-023-_U167
 70
   64
 10
0
 20
0
 30
0
  0
TEXT
  8
_0-4_A0
 62
    7
 10
-43.659171829601511
 20
31.54442635806755
 40
4.2930001544952389
 41
1
 50
0
  1
6
  0
ENDBLK
  0
BLOCK
  2
-024-$$BALLOON$$3
 70
   64
 10
0
 20
0
 30
0
  0
INSERT
  2
-022-_U166
  8
_0-0_0
 10
0
 20
0
 41
1
 42
1
 50
0
  0
INSERT
  2
-023-_U167
  8
_0-0_0
 10
0
 20
0
 41
1
 42
1
 50
0
  0
CIRCLE
  8
_0-4_A0
  6
CONTINUOUS
 62
    7
 10
-42.228171778103089
 20
33.690926435315162
 40
5.5
  0
ENDBLK
  0
BLOCK
  2
-025-_U168
 70
   64
 10
0
 20
0
 30
0
  0
INSERT
  2
-000-_OPEN
  8
_0-4_A0
 10
0
 20
0.0000000000000379
 41
3
 42
3
 50
320.6650046925925
  0
LINE
  8
_0-4_A0
  6
CONTINUOUS
 62
    7
 10
-2.3203596207738179
 20
1.9015602094812888
 11
-45.934734781026342
 21
37.644019965984682
  0
LINE
  8
_0-4_A0
  6
CONTINUOUS
 62
    7
 10
-45.934734781026342
 20
37.644019965984682
 11
-48.934734781026342
 21
37.644019965984682
  0
ENDBLK
  0
BLOCK
  2
-026-_U169
 70
   64
 10
0
 20
0
 30
0
  0
TEXT
  8
_0-4_A0
 62
    7
 10
-54.72508427082306
 20
38.851036322990466
 40
4.2930001544952389
 41
1
 50
0
  1
8
  0
ENDBLK
  0
BLOCK
  2
-027-$$BALLOON$$4
 70
   64
 10
0
 20
0
 30
0
  0
INSERT
  2
-025-_U168
  8
_0-0_0
 10
0
 20
0
 41
1
 42
1
 50
0
  0
INSERT
  2
-026-_U169
  8
_0-0_0
 10
0
 20
0
 41
1
 42
1
 50
0
  0
CIRCLE
  8
_0-4_A0
  6
CONTINUOUS
 62
    7
 10
-53.294084219324638
 20
40.997536400238082
 40
5.5
  0
ENDBLK
  0
BLOCK
  2
-028-_U170
 70
   64
 10
0
 20
0
 30
0
  0
INSERT
  2
-000-_OPEN
  8
_0-4_A0
 10
-0.0000000000000189
 20
0
 41
3
 42
3
 50
337.95364325207651
  0
LINE
  8
_0-4_A0
  6
CONTINUOUS
 62
    7
 10
-2.780641395660734
 20
1.126069904019296
 11
-42.906843204024816
 21
17.375884888977818
  0
LINE
  8
_0-4_A0
  6
CONTINUOUS
 62
    7
 10
-42.906843204024816
 20
17.375884888977818
 11
-45.906843204024809
 21
17.375884888977818
  0
ENDBLK
  0
BLOCK
  2
-029-_U171
 70
   64
 10
0
 20
0
 30
0
  0
TEXT
  8
_0-4_A0
 62
    7
 10
-52.481705203788472
 20
17.1763527768464
 40
4.2930001544952389
 41
1
 50
0
  1
4
  0
ENDBLK
  0
BLOCK
  2
-030-$$BALLOON$$5
 70
   64
 10
0
 20
0
 30
0
  0
INSERT
  2
-028-_U170
  8
_0-0_0
 10
0
 20
0
 41
1
 42
1
 50
0
  0
INSERT
  2
-029-_U171
  8
_0-0_0
 10
0
 20
0
 41
1
 42
1
 50
0
  0
CIRCLE
  8
_0-4_A0
  6
CONTINUOUS
 62
    7
 10
-51.050705152290049
 20
19.322852854094019
 40
5.5
  0
ENDBLK
  0
BLOCK
  2
-031-_U172
 70
   64
 10
0
 20
0
 30
0
  0
INSERT
  2
-000-_OPEN
  8
_0-4_A0
 10
0
 20
0
 41
3
 42
3
 50
345.48615873350615
  0
LINE
  8
_0-4_A0
  6
CONTINUOUS
 62
    7
 10
-2.9042613792322518
 20
0.7518416329919307
 11
-43.836348480365899
 21
11.348149330345098
  0
ENDBLK
  0
BLOCK
  2
-032-_U173
 70
   64
 10
0
 20
0
 30
0
  0
TEXT
  8
_0-4_A0
 62
    7
 10
-50.591827727123479
 20
10.58002558024939
 40
4.2930001544952389
 41
1
 50
0
  1
7
  0
ENDBLK
  0
BLOCK
  2
-033-$$BALLOON$$6
 70
   64
 10
0
 20
0
 30
0
  0
INSERT
  2
-031-_U172
  8
_0-0_0
 10
0
 20
0
 41
1
 42
1
 50
0
  0
INSERT
  2
-032-_U173
  8
_0-0_0
 10
0
 20
0
 41
1
 42
1
 50
0
  0
CIRCLE
  8
_0-4_A0
  6
CONTINUOUS
 62
    7
 10
-49.160827675625071
 20
12.72652565749701
 40
5.5
  0
ENDBLK
  0
BLOCK
  2
-034-_U174
 70
   64
 10
0
 20
0
 30
0
  0
INSERT
  2
-000-_OPEN
  8
_0-4_A0
 10
-0.0000000000000189
 20
-0.0000000000000189
 41
3
 42
3
 50
359.42915748152307
  0
LINE
  8
_0-4_A0
  6
CONTINUOUS
 62
    7
 10
-2.999851106743455
 20
0.0298887498931919
 11
-18.846585136673589
 21
0.1877762760374424
  0
ENDBLK
  0
BLOCK
  2
-035-_U175
 70
   64
 10
0
 20
0
 30
0
  0
TEXT
  8
_0-4_A0
 62
    7
 10
-25.0618121914524
 20
-1.9039277597392529
 40
4.2930001544952389
 41
1
 50
0
  1
1
  0
ENDBLK
  0
BLOCK
  2
-036-$$BALLOON$$7
 70
   64
 10
0
 20
0
 30
0
  0
INSERT
  2
-034-_U174
  8
_0-0_0
 10
0
 20
0
 41
1
 42
1
 50
0
  0
INSERT
  2
-035-_U175
  8
_0-0_0
 10
0
 20
0
 41
1
 42
1
 50
0
  0
CIRCLE
  8
_0-4_A0
  6
CONTINUOUS
 62
    7
 10
-24.346312165703189
 20
0.2425723175083666
 40
5.5
  0
ENDBLK
  0
BLOCK
  2
-037-_U176
 70
   64
 10
0
 20
0
 30
0
  0
INSERT
  2
-000-_OPEN
  8
_0-4_A0
 10
-0.0000000000000095
 20
-0.0000000000000379
 41
3
 42
3
 50
6.0225605173602607
  0
LINE
  8
_0-4_A0
  6
CONTINUOUS
 62
    7
 10
-2.9834419789051471
 20
-0.3147601602913184
 11
-17.76463006987592
 21
-1.874210340890076
  0
ENDBLK
  0
BLOCK
  2
-038-_U177
 70
   64
 10
0
 20
0
 30
0
  0
TEXT
  8
_0-4_A0
 62
    7
 10
-24.665273749367088
 20
-4.5977707120049693
 40
4.2930001544952389
 41
1
 50
0
  1
2
  0
ENDBLK
  0
BLOCK
  2
-039-$$BALLOON$$8
 70
   64
 10
0
 20
0
 30
0
  0
INSERT
  2
-037-_U176
  8
_0-0_0
 10
0
 20
0
 41
1
 42
1
 50
0
  0
INSERT
  2
-038-_U177
  8
_0-0_0
 10
0
 20
0
 41
1
 42
1
 50
0
  0
CIRCLE
  8
_0-4_A0
  6
CONTINUOUS
 62
    7
 10
-23.23427369786868
 20
-2.4512706347573489
 40
5.5
  0
ENDBLK
  0
BLOCK
  2
-040-_U178
 70
   64
 10
0
 20
0
 30
0
  0
TEXT
  8
_0-4_A0
 62
    7
 10
31.46723309856603
 20
52.362295586136831
 40
4
 41
1
 50
90
  1
200
  0
ENDBLK
  0
BLOCK
  2
-041-_D29
 70
   64
 10
0
 20
0
 30
0
  0
LINE
  8
_0-4_A0
  6
CONTINUOUS
 62
    7
 10
58.307450060014538
 20
90.362295586136823
 11
30.96723309856603
 21
90.362295586136823
  0
LINE
  8
_0-4_A0
  6
CONTINUOUS
 62
    7
 10
31.96723309856603
 20
87.362295586136838
 11
31.96723309856603
 21
26.69562891947017
  0
INSERT
  2
-000-_OPEN
  8
_0-4_A0
 10
31.96723309856603
 20
90.362295586136823
 41
3
 42
3
 50
90
  0
INSERT
  2
-000-_OPEN
  8
_0-4_A0
 10
31.96723309856603
 20
23.69562891947017
 41
3
 42
3
 50
270
  0
LINE
  8
_0-4_A0
  6
CONTINUOUS
 62
    7
 10
58.307450059979679
 20
23.69562891947017
 11
30.96723309856603
 21
23.69562891947017
  0
INSERT
  2
-040-_U178
  8
_0-0_0
 10
0
 20
0
 41
1
 42
1
 50
0
  0
ENDBLK
  0
BLOCK
  2
-042-_U179
 70
   64
 10
0
 20
0
 30
0
  0
INSERT
  2
-000-_OPEN
  8
_0-4_A0
 10
0.0000000000000189
 20
0.0000000000000284
 41
3
 42
3
 50
239.71997152500944
  0
LINE
  8
_0-4_A0
  6
CONTINUOUS
 62
    7
 10
1.512679921083722
 20
2.5907140823237031
 11
9.74508886515917
 21
16.6900734283406
  0
LINE
  8
_0-4_A0
  6
CONTINUOUS
 62
    7
 10
9.74508886515917
 20
16.6900734283406
 11
12.74508886515917
 21
16.6900734283406
  0
ENDBLK
  0
BLOCK
  2
-043-_U180
 70
   64
 10
0
 20
0
 30
0
  0
TEXT
  8
_0-4_A0
 62
    7
 10
14.652104017675819
 20
18.914803669637588
 40
4.2930001544952389
 41
1
 50
0
  1
3
  0
ENDBLK
  0
BLOCK
  2
-044-$$BALLOON$$9
 70
   64
 10
0
 20
0
 30
0
  0
INSERT
  2
-042-_U179
  8
_0-0_0
 10
0
 20
0
 41
1
 42
1
 50
0
  0
INSERT
  2
-043-_U180
  8
_0-0_0
 10
0
 20
0
 41
1
 42
1
 50
0
  0
CIRCLE
  8
_0-4_A0
  6
CONTINUOUS
 62
    7
 10
16.08310406917424
 20
21.061303746885208
 40
5.5
  0
ENDBLK
  0
BLOCK
  2
-045-_U181
 70
   64
 10
0
 20
0
 30
0
  0
INSERT
  2
-000-_OPEN
  8
_0-4_A0
 10
0
 20
0
 41
3
 42
3
 50
231.88104105748419
  0
LINE
  8
_0-4_A0
  6
CONTINUOUS
 62
    7
 10
1.851888704948424
 20
2.360192412597847
 11
15.819591530495889
 21
20.161729914386739
  0
LINE
  8
_0-4_A0
  6
CONTINUOUS
 62
    7
 10
15.819591530495889
 20
20.161729914386739
 11
18.819591530495891
 21
20.161729914386739
  0
ENDBLK
  0
BLOCK
  2
-046-_U182
 70
   64
 10
0
 20
0
 30
0
  0
TEXT
  8
_0-4_A0
 62
    7
 10
21.141552547944378
 20
22.035837156309881
 40
4.2930001544952389
 41
1
 50
0
  1
9
  0
ENDBLK
  0
BLOCK
  2
-047-$$BALLOON$$10
 70
   64
 10
0
 20
0
 30
0
  0
INSERT
  2
-045-_U181
  8
_0-0_0
 10
0
 20
0
 41
1
 42
1
 50
0
  0
INSERT
  2
-046-_U182
  8
_0-0_0
 10
0
 20
0
 41
1
 42
1
 50
0
  0
CIRCLE
  8
_0-4_A0
  6
CONTINUOUS
 62
    7
 10
22.57255259944279
 20
24.1823372335575
 40
5.5
  0
ENDBLK
  0
BLOCK
  2
-048-_U184
 70
   64
 10
0
 20
0
 30
0
  0
TEXT
  8
_0-4_A0
 62
    7
 10
233.9053968051659
 20
211.23187017998938
 40
4
 41
1
 50
0
  1
120
  0
ENDBLK
  0
BLOCK
  2
-049-_D32
 70
   64
 10
0
 20
0
 30
0
  0
LINE
  8
_0-4_A0
  6
CONTINUOUS
 62
    7
 10
218.2387301384993
 20
209.5271158030992
 11
218.2387301384993
 21
211.73187017998938
  0
LINE
  8
_0-4_A0
  6
CONTINUOUS
 62
    7
 10
221.2387301384993
 20
210.73187017998938
 11
255.2387301384993
 21
210.73187017998938
  0
INSERT
  2
-000-_OPEN
  8
_0-4_A0
 10
218.2387301384993
 20
210.73187017998938
 41
3
 42
3
 50
180
  0
INSERT
  2
-000-_OPEN
  8
_0-4_A0
 10
258.2387301384993
 20
210.73187017998938
 41
3
 42
3
 50
0
  0
LINE
  8
_0-4_A0
  6
CONTINUOUS
 62
    7
 10
258.2387301384993
 20
209.5271158030155
 11
258.2387301384993
 21
211.73187017998938
  0
INSERT
  2
-048-_U184
  8
_0-0_0
 10
0
 20
0
 41
1
 42
1
 50
0
  0
ENDBLK
  0
BLOCK
  2
-050-_U185
 70
   64
 10
0
 20
0
 30
0
  0
TEXT
  8
_0-4_A0
 62
    7
 10
233.5720634718036
 20
217.70394840586328
 40
4
 41
1
 50
0
  1
215
  0
ENDBLK
  0
BLOCK
  2
-051-_D33
 70
   64
 10
0
 20
0
 30
0
  0
LINE
  8
_0-4_A0
  6
CONTINUOUS
 62
    7
 10
202.4053968051368
 20
195.59189259834741
 11
202.4053968051368
 21
218.20394840586328
  0
LINE
  8
_0-4_A0
  6
CONTINUOUS
 62
    7
 10
205.4053968051368
 20
217.20394840586328
 11
271.07206347180351
 21
217.20394840586328
  0
INSERT
  2
-000-_OPEN
  8
_0-4_A0
 10
202.4053968051368
 20
217.20394840586328
 41
3
 42
3
 50
180
  0
INSERT
  2
-000-_OPEN
  8
_0-4_A0
 10
274.07206347180351
 20
217.20394840586328
 41
3
 42
3
 50
0
  0
LINE
  8
_0-4_A0
  6
CONTINUOUS
 62
    7
 10
274.07206347180351
 20
195.5918925981976
 11
274.07206347180351
 21
218.20394840586328
  0
INSERT
  2
-050-_U185
  8
_0-0_0
 10
0
 20
0
 41
1
 42
1
 50
0
  0
ENDBLK
  0
BLOCK
  2
-052-_U186
 70
   64
 10
0
 20
0
 30
0
  0
TEXT
  8
_0-4_A0
 62
    7
 10
232.90539680515709
 20
223.79531700215389
 40
4
 41
1
 50
0
  1
234
  0
ENDBLK
  0
BLOCK
  2
-053-_D34
 70
   64
 10
0
 20
0
 30
0
  0
LINE
  8
_0-4_A0
  6
CONTINUOUS
 62
    7
 10
199.23873013849049
 20
205.3215553798395
 11
199.23873013849049
 21
224.29531700215389
  0
LINE
  8
_0-4_A0
  6
CONTINUOUS
 62
    7
 10
202.23873013849049
 20
223.29531700215389
 11
274.23873013849049
 21
223.29531700215389
  0
INSERT
  2
-000-_OPEN
  8
_0-4_A0
 10
199.23873013849049
 20
223.29531700215389
 41
3
 42
3
 50
180
  0
INSERT
  2
-000-_OPEN
  8
_0-4_A0
 10
277.23873013849049
 20
223.29531700215389
 41
3
 42
3
 50
0
  0
LINE
  8
_0-4_A0
  6
CONTINUOUS
 62
    7
 10
277.23873013849038
 20
205.32155537983209
 11
277.23873013849049
 21
224.29531700215389
  0
INSERT
  2
-052-_U186
  8
_0-0_0
 10
0
 20
0
 41
1
 42
1
 50
0
  0
ENDBLK
  0
BLOCK
  2
-054-_U187
 70
   64
 10
0
 20
0
 30
0
  0
TEXT
  8
_0-4_A0
 62
    7
 10
191.4592078080424
 20
174.7548887012426
 40
4
 41
1
 50
90
  1
80
  0
ENDBLK
  0
BLOCK
  2
-055-_D35
 70
   64
 10
0
 20
0
 30
0
  0
LINE
  8
_0-4_A0
  6
CONTINUOUS
 62
    7
 10
197.6478541619933
 20
191.0882220345816
 11
190.16845754292089
 21
191.0882220345816
  0
LINE
  8
_0-4_A0
  6
CONTINUOUS
 62
    7
 10
191.9592078080424
 20
188.0882220345816
 11
191.9592078080424
 21
167.4215553679038
  0
INSERT
  2
-000-_OPEN
  8
_0-4_A0
 10
191.9592078080424
 20
191.0882220345816
 41
3
 42
3
 50
90
  0
INSERT
  2
-000-_OPEN
  8
_0-4_A0
 10
191.9592078080424
 20
164.4215553679038
 41
3
 42
3
 50
270
  0
INSERT
  2
-054-_U187
  8
_0-0_0
 10
0
 20
0
 41
1
 42
1
 50
0
  0
ENDBLK
  0
BLOCK
  2
-056-_U188
 70
   64
 10
0
 20
0
 30
0
  0
TEXT
  8
_0-4_A0
 62
    7
 10
191.4592078080424
 20
149.75488870124269
 40
4
 41
1
 50
90
  1
70
  0
ENDBLK
  0
BLOCK
  2
-057-_D36
 70
   64
 10
0
 20
0
 30
0
  0
LINE
  8
_0-4_A0
  6
CONTINUOUS
 62
    7
 10
191.9592078080424
 20
161.4215553679038
 11
191.9592078080424
 21
144.0882220345816
  0
INSERT
  2
-000-_OPEN
  8
_0-4_A0
 10
191.9592078080424
 20
164.4215553679038
 41
3
 42
3
 50
90
  0
INSERT
  2
-000-_OPEN
  8
_0-4_A0
 10
191.9592078080424
 20
141.0882220345816
 41
3
 42
3
 50
270
  0
LINE
  8
_0-4_A0
  6
CONTINUOUS
 62
    7
 10
197.6478541619933
 20
141.0882220345816
 11
190.29125693943581
 21
141.0882220345816
  0
INSERT
  2
-056-_U188
  8
_0-0_0
 10
0
 20
0
 41
1
 42
1
 50
0
  0
ENDBLK
  0
BLOCK
  2
-058-_U189
 70
   64
 10
0
 20
0
 30
0
  0
TEXT
  8
_0-4_A0
 62
    7
 10
171.97037161447789
 20
159.08822203458149
 40
4
 41
1
 50
90
  1
254
  0
ENDBLK
  0
BLOCK
  2
-059-_D37
 70
   64
 10
0
 20
0
 30
0
  0
LINE
  8
_0-4_A0
  6
CONTINUOUS
 62
    7
 10
200.6720634597332
 20
122.0882220345816
 11
171.47037161447789
 21
122.0882220345816
  0
LINE
  8
_0-4_A0
  6
CONTINUOUS
 62
    7
 10
172.47037161447789
 20
125.0882220345816
 11
172.47037161447789
 21
203.7548887012482
  0
INSERT
  2
-000-_OPEN
  8
_0-4_A0
 10
172.47037161447789
 20
122.0882220345816
 41
3
 42
3
 50
270
  0
INSERT
  2
-000-_OPEN
  8
_0-4_A0
 10
172.47037161447789
 20
206.7548887012482
 41
3
 42
3
 50
90
  0
LINE
  8
_0-4_A0
  6
CONTINUOUS
 62
    7
 10
200.67206345990288
 20
206.7548887012482
 11
171.47037161447789
 21
206.7548887012482
  0
INSERT
  2
-058-_U189
  8
_0-0_0
 10
0
 20
0
 41
1
 42
1
 50
0
  0
ENDBLK
  0
BLOCK
  2
-060-_U190
 70
   64
 10
0
 20
0
 30
0
  0
TEXT
  8
_0-4_A0
 62
    7
 10
134.20745007186991
 20
219.2199569584057
 40
4
 41
1
 50
0
  1
30
  0
ENDBLK
  0
BLOCK
  2
-061-_D38
 70
   64
 10
0
 20
0
 30
0
  0
LINE
  8
_0-4_A0
  6
CONTINUOUS
 62
    7
 10
142.20745007189711
 20
189.38822204629781
 11
142.20745007189711
 21
219.7199569584057
  0
LINE
  8
_0-4_A0
  6
CONTINUOUS
 62
    7
 10
139.20745007189719
 20
218.7199569584057
 11
135.2074500718426
 21
218.7199569584057
  0
INSERT
  2
-000-_OPEN
  8
_0-4_A0
 10
142.20745007189711
 20
218.7199569584057
 41
3
 42
3
 50
0
  0
INSERT
  2
-000-_OPEN
  8
_0-4_A0
 10
132.2074500718426
 20
218.7199569584057
 41
3
 42
3
 50
180
  0
LINE
  8
_0-4_A0
  6
CONTINUOUS
 62
    7
 10
132.2074500718426
 20
206.7882220464923
 11
132.2074500718426
 21
219.7199569584057
  0
INSERT
  2
-060-_U190
  8
_0-0_0
 10
0
 20
0
 41
1
 42
1
 50
0
  0
ENDBLK
  0
BLOCK
  2
-062-_U191
 70
   64
 10
0
 20
0
 30
0
  0
TEXT
  8
_0-4_A0
 62
    7
 10
182.6949058398716
 20
159.08822203458149
 40
4
 41
1
 50
90
  1
235
  0
ENDBLK
  0
BLOCK
  2
-063-_D39
 70
   64
 10
0
 20
0
 30
0
  0
LINE
  8
_0-4_A0
  6
CONTINUOUS
 62
    7
 10
212.0596505951249
 20
125.2548887012482
 11
182.1949058398716
 21
125.2548887012482
  0
LINE
  8
_0-4_A0
  6
CONTINUOUS
 62
    7
 10
183.1949058398716
 20
128.2548887012482
 11
183.1949058398716
 21
200.5882220345816
  0
INSERT
  2
-000-_OPEN
  8
_0-4_A0
 10
183.1949058398716
 20
125.2548887012482
 41
3
 42
3
 50
270
  0
INSERT
  2
-000-_OPEN
  8
_0-4_A0
 10
183.1949058398716
 20
203.5882220345816
 41
3
 42
3
 50
90
  0
LINE
  8
_0-4_A0
  6
CONTINUOUS
 62
    7
 10
212.0596505951249
 20
203.5882220345816
 11
182.1949058398716
 21
203.5882220345816
  0
INSERT
  2
-062-_U191
  8
_0-0_0
 10
0
 20
0
 41
1
 42
1
 50
0
  0
ENDBLK
  0
BLOCK
  2
-064-_U40
 70
   64
 10
0
 20
0
 30
0
  0
TEXT
  8
_0-1_H0
 62
    7
 10
57.205600116729726
 20
283.66300002574922
 40
1.673999948501587
 41
1
 50
0
  1
技連番号
  0
ENDBLK
  0
BLOCK
  2
-065-_U41
 70
   64
 10
0
 20
0
 30
0
  0
TEXT
  8
_0-1_H0
 62
    7
 10
68.976200123786924
 20
283.58550002813342
 40
1.8289999437332149
 41
1
 50
0
  1
年 月 日
  0
ENDBLK
  0
BLOCK
  2
-066-_U42
 70
   64
 10
0
 20
0
 30
0
  0
TEXT
  8
_0-1_H0
 62
    7
 10
80.602666740417475
 20
283.60100002765659
 40
1.797999944686889
 41
1
 50
0
  1
担 当
  0
ENDBLK
  0
BLOCK
  2
-067-_U43
 70
   64
 10
0
 20
0
 30
0
  0
TEXT
  8
_0-1_H0
 62
    7
 10
15.850666732788079
 20
283.4925000309945
 40
2.0149999380111691
 41
1
 50
0
  1
記号
  0
ENDBLK
  0
BLOCK
  2
-068-_U44
 70
   64
 10
0
 20
0
 30
0
  0
TEXT
  8
_0-1_H0
 62
    7
 10
29.805666918754578
 20
283.4925000309945
 40
2.0149999380111691
 41
1
 50
0
  1
変　更　履　歴
  0
ENDBLK
  0
BLOCK
  2
-069-_U45
 70
   64
 10
0
 20
0
 30
0
  0
TEXT
  8
_0-1_H0
 62
    7
 10
17.199999999999999
 20
273.93817062273467
 40
1.6639999389648429
 41
1
 50
0
  1
B
  0
ENDBLK
  0
BLOCK
  2
-070-_U46
 70
   64
 10
0
 20
0
 30
0
  0
TEXT
  8
_0-1_H0
 62
    7
 10
17.199999999999999
 20
278.43817062273467
 40
1.6639999389648429
 41
1
 50
0
  1
A
  0
ENDBLK
  0
BLOCK
  2
-071-_U47
 70
   64
 10
0
 20
0
 30
0
  0
TEXT
  8
_0-1_H0
 62
    7
 10
17.199999999999999
 20
269.43800003051762
 40
1.6639999389648429
 41
1
 50
0
  1
C
  0
ENDBLK
  0
BLOCK
  2
-072-_U48
 70
   64
 10
0
 20
0
 30
0
  0
TEXT
  8
_0-1_H0
 62
    7
 10
17.199999999999999
 20
264.93800003051762
 40
1.6639999389648429
 41
1
 50
0
  1
D
  0
ENDBLK
  0
BLOCK
  2
-073-_U49
 70
   64
 10
0
 20
0
 30
0
  0
TEXT
  8
_0-1_H0
 62
    7
 10
17.199999999999999
 20
260.43800003051762
 40
1.6639999389648429
 41
1
 50
0
  1
E
  0
ENDBLK
  0
BLOCK
  2
-074-_U50
 70
   64
 10
0
 20
0
 30
0
  0
TEXT
  8
_0-1_H0
 62
    7
 10
324.4305129822062
 20
78.073998267009613
 40
3.7599999999999988
 41
1
 50
0
  1
建材試験センター成績番号
  0
ENDBLK
  0
BLOCK
  2
-075-_U51
 70
   64
 10
0
 20
0
 30
0
  0
TEXT
  8
_0-1_H0
 62
    7
 10
308.92798928694901
 20
67.870407072447832
 40
3.7599999999999988
 41
1
 50
0
  1
温度ヒューズ作動試験
  0
ENDBLK
  0
BLOCK
  2
-076-_U52
 70
   64
 10
0
 20
0
 30
0
  0
TEXT
  8
_0-1_H0
 62
    7
 10
308.69280073341292
 20
57.797339643032998
 40
3.7200000000000001
 41
1
 50
0
  1
漏 煙 試 験
  0
ENDBLK
  0
BLOCK
  2
-077-_U53
 70
   64
 10
0
 20
0
 30
0
  0
TEXT
  8
_0-1_H0
 62
    7
 10
357.72942349712411
 20
67.870407072447832
 40
3.7599999999999988
 41
1
 50
0
  1
第０６Ａ１９０３号
  0
ENDBLK
  0
BLOCK
  2
-078-_U54
 70
   64
 10
0
 20
0
 30
0
  0
TEXT
  8
_0-1_H0
 62
    7
 10
357.96461653650868
 20
57.992532682417632
 40
3.7599999999999988
 41
1
 50
0
  1
第０６Ａ１９０１号
  0
ENDBLK
  0
BLOCK
  2
-079-_U55
 70
   64
 10
0
 20
0
 30
0
  0
TEXT
  8
_0-1_H0
 62
    7
 10
328.60968500217927
 20
110.5464588692257
 40
3.2200000000000001
 41
1
 50
0
  1
ソフトテープ
  0
ENDBLK
  0
BLOCK
  2
-080-_U56
 70
   64
 10
0
 20
0
 30
0
  0
TEXT
  8
_0-1_H0
 62
    7
 10
378.46880044777481
 20
111.4388633906923
 40
3.08
 41
1
 50
0
  1
1本
  0
ENDBLK
  0
BLOCK
  2
-081-_U57
 70
   64
 10
0
 20
0
 30
0
  0
TEXT
  8
_0-1_H0
 62
    7
 10
163.09447868074539
 20
83.868840601094049
 40
3.7000000000000001
 41
1
 50
0
  1
注）１．
  0
ENDBLK
  0
BLOCK
  2
-082-_U58
 70
   64
 10
0
 20
0
 30
0
  0
TEXT
  8
_0-1_H0
 62
    7
 10
183.09447868074539
 20
83.368840601094035
 40
4.2000000000000001
 41
1
 50
0
  1
本体と接続板は取付工事の時付属のドリルねじ８本で
  0
ENDBLK
  0
BLOCK
  2
-083-_U59
 70
   64
 10
0
 20
0
 30
0
  0
TEXT
  8
_0-1_H0
 62
    7
 10
183.09447868074539
 20
75.368840601094049
 40
4.2000000000000001
 41
1
 50
0
  1
共締めとする。
  0
ENDBLK
  0
BLOCK
  2
-084-_U60
 70
   64
 10
0
 20
0
 30
0
  0
TEXT
  8
_0-2_H1
 62
    7
 10
342.61906623871988
 20
153.28531827433039
 40
2.5199999570846549
 41
1
 50
0
  1
200
  0
ENDBLK
  0
BLOCK
  2
-085-_U61
 70
   64
 10
0
 20
0
 30
0
  0
TEXT
  8
_0-2_H1
 62
    7
 10
361.5983135374189
 20
153.28531827433039
 40
2.5199999570846549
 41
1
 50
0
  1
400
  0
ENDBLK
  0
BLOCK
  2
-086-_U62
 70
   64
 10
0
 20
0
 30
0
  0
TEXT
  8
_0-2_H1
 62
    7
 10
380.57755033005912
 20
153.28531827433039
 40
2.5199999570846549
 41
1
 50
0
  1
600
  0
ENDBLK
  0
BLOCK
  2
-087-_U63
 70
   64
 10
0
 20
0
 30
0
  0
TEXT
  8
_0-2_H1
 62
    7
 10
317.33264703054948
 20
177.73113241731579
 40
3.3119999122619621
 41
1
 50
89.99999999942544
  1
圧力損失（Pa）
  0
ENDBLK
  0
BLOCK
  2
-088-_U64
 70
   64
 10
0
 20
0
 30
0
  0
TEXT
  8
_0-2_H1
 62
    7
 10
344.0159059644751
 20
146.69743417880809
 40
3.5999999046325679
 41
1
 50
0
  1
風量（ｍ
  0
ENDBLK
  0
BLOCK
  2
-089-_U65
 70
   64
 10
0
 20
0
 30
0
  0
TEXT
  8
_0-2_H1
 62
    7
 10
360.01590584526582
 20
148.4974341311244
 40
1.7999999523162839
 41
1
 50
0
  1
3
  0
ENDBLK
  0
BLOCK
  2
-090-_U66
 70
   64
 10
0
 20
0
 30
0
  0
TEXT
  8
_0-2_H1
 62
    7
 10
362.21590583334477
 20
146.69743417880809
 40
3.5999999046325679
 41
1
 50
0
  1
／ｈ）
  0
ENDBLK
  0
BLOCK
  2
-091-_U67
 70
   64
 10
0
 20
0
 30
0
  0
TEXT
  8
_0-2_H1
 62
    7
 10
341.05881578972758
 20
216.81425912583299
 40
3.863999919891357
 41
1
 50
0
  1
圧力損失曲線
  0
ENDBLK
  0
BLOCK
  2
-092-_U68
 70
   64
 10
0
 20
0
 30
0
  0
TEXT
  8
_0-2_H1
 62
    7
 10
324.56076173403909
 20
153.75648727795061
 40
2.295999960899353
 41
1
 50
0
  1
0
  0
ENDBLK
  0
BLOCK
  2
-093-_U69
 70
   64
 10
0
 20
0
 30
0
  0
TEXT
  8
_0-2_H1
 62
    7
 10
321.48474283957222
 20
174.93808075880968
 40
2.295999960899353
 41
1
 50
0
  1
20
  0
ENDBLK
  0
BLOCK
  2
-094-_U70
 70
   64
 10
0
 20
0
 30
0
  0
TEXT
  8
_0-2_H1
 62
    7
 10
321.48474283957222
 20
194.2167826727759
 40
2.295999960899353
 41
1
 50
0
  1
40
  0
ENDBLK
  0
BLOCK
  2
-095-_U71
 70
   64
 10
0
 20
0
 30
0
  0
TEXT
  8
_0-2_H1
 62
    7
 10
321.89785682997967
 20
203.85613362975911
 40
2.295999960899353
 41
1
 50
0
  1
50
  0
ENDBLK
  0
BLOCK
  2
-096-_U72
 70
   64
 10
0
 20
0
 30
0
  0
TEXT
  8
_0-2_H1
 62
    7
 10
321.48474283957222
 20
165.71184379223439
 40
2.295999960899353
 41
1
 50
0
  1
10
  0
ENDBLK
  0
BLOCK
  2
-097-_U73
 70
   64
 10
0
 20
0
 30
0
  0
TEXT
  8
_0-2_H1
 62
    7
 10
321.62244575203152
 20
184.3020206378446
 40
2.295999960899353
 41
1
 50
0
  1
30
  0
ENDBLK
  0
BLOCK
  2
-098-_U74
 70
   64
 10
0
 20
0
 30
0
  0
TEXT
  8
_0-1_H0
 62
    7
 10
271.20266666666668
 20
277.72000000000002
 40
3.56
 41
1
 50
0
  1
品番
  0
ENDBLK
  0
BLOCK
  2
-099-_U75
 70
   64
 10
0
 20
0
 30
0
  0
TEXT
  8
_0-1_H0
 62
    7
 10
289.2813333333334
 20
277.66000000000002
 40
3.6800000000000001
 41
1
 50
0
  1
部 品 名
  0
ENDBLK
  0
BLOCK
  2
-100-_U76
 70
   64
 10
0
 20
0
 30
0
  0
TEXT
  8
_0-1_H0
 62
    7
 10
325.2626666666668
 20
277.66000000000002
 40
3.6800000000000001
 41
1
 50
0
  1
材   質
  0
ENDBLK
  0
BLOCK
  2
-101-_U77
 70
   64
 10
0
 20
0
 30
0
  0
TEXT
  8
_0-1_H0
 62
    7
 10
353.22000000000019
 20
277.63999999999998
 40
3.7200000000000001
 41
1
 50
0
  1
表 面 処 理
  0
ENDBLK
  0
BLOCK
  2
-102-_U78
 70
   64
 10
0
 20
0
 30
0
  0
TEXT
  8
_0-1_H0
 62
    7
 10
387.76266666666691
 20
277.66000000000002
 40
3.6800000000000001
 41
1
 50
0
  1
色   調
  0
ENDBLK
  0
BLOCK
  2
-103-_U79
 70
   64
 10
0
 20
0
 30
0
  0
TEXT
  8
_0-1_H0
 62
    7
 10
274.02666666666669
 20
268.04000000000002
 40
2.919999999999999
 41
1
 50
0
  1
2
  0
ENDBLK
  0
BLOCK
  2
-104-_U80
 70
   64
 10
0
 20
0
 30
0
  0
TEXT
  8
_0-1_H0
 62
    7
 10
274.51333333333337
 20
273.0399999999999
 40
2.919999999999999
 41
1
 50
0
  1
1
  0
ENDBLK
  0
BLOCK
  2
-105-_U81
 70
   64
 10
0
 20
0
 30
0
  0
TEXT
  8
_0-1_H0
 62
    7
 10
274.02666666666669
 20
263.04000000000002
 40
2.919999999999999
 41
1
 50
0
  1
3
  0
ENDBLK
  0
BLOCK
  2
-106-_U82
 70
   64
 10
0
 20
0
 30
0
  0
TEXT
  8
_0-1_H0
 62
    7
 10
306.65066666666677
 20
283.02000000000009
 40
2.959999999999999
 41
1
 50
0
  1
主    要    部    品    一    覧    表
  0
ENDBLK
  0
BLOCK
  2
-107-_U83
 70
   64
 10
0
 20
0
 30
0
  0
TEXT
  8
_0-1_H0
 62
    7
 10
282.5347012888169
 20
273.10000000000002
 40
3.149999999999999
 41
1
 50
0
  1
本 体
  0
ENDBLK
  0
BLOCK
  2
-108-_U84
 70
   64
 10
0
 20
0
 30
0
  0
TEXT
  8
_0-1_H0
 62
    7
 10
318.92992909593738
 20
273.04500000000001
 40
3.2549999999999998
 41
1
 50
0
  1
亜鉛めっき鋼板
  0
ENDBLK
  0
BLOCK
  2
-109-_U85
 70
   64
 10
0
 20
0
 30
0
  0
TEXT
  8
_0-1_H0
 62
    7
 10
274.02666666666669
 20
258.04000000000002
 40
2.919999999999999
 41
1
 50
0
  1
4
  0
ENDBLK
  0
BLOCK
  2
-110-_U86
 70
   64
 10
0
 20
0
 30
0
  0
TEXT
  8
_0-1_H0
 62
    7
 10
274.02666666666669
 20
253.03999999999999
 40
2.919999999999999
 41
1
 50
0
  1
5
  0
ENDBLK
  0
BLOCK
  2
-111-_U87
 70
   64
 10
0
 20
0
 30
0
  0
TEXT
  8
_0-1_H0
 62
    7
 10
352.36571268505451
 20
274.19999999999998
 40
2.1
 41
1
 50
0
  1
ポリエステル塗装
  0
ENDBLK
  0
BLOCK
  2
-112-_U88
 70
   64
 10
0
 20
0
 30
0
  0
TEXT
  8
_0-1_H0
 62
    7
 10
383.92992909593749
 20
273.07999999999998
 40
3.2200000000000001
 41
1
 50
0
  1
表題欄による
  0
ENDBLK
  0
BLOCK
  2
-113-_U89
 70
   64
 10
0
 20
0
 30
0
  0
TEXT
  8
_0-1_H0
 62
    7
 10
274.02666666666669
 20
248.03999999999999
 40
2.919999999999999
 41
1
 50
0
  1
6
  0
ENDBLK
  0
BLOCK
  2
-114-_U90
 70
   64
 10
0
 20
0
 30
0
  0
TEXT
  8
_0-1_H0
 62
    7
 10
274.02666666666669
 20
243.03999999999999
 40
2.919999999999999
 41
1
 50
0
  1
7
  0
ENDBLK
  0
BLOCK
  2
-115-_U91
 70
   64
 10
0
 20
0
 30
0
  0
TEXT
  8
_0-1_H0
 62
    7
 10
274.02666666666669
 20
238.0400000000001
 40
2.919999999999999
 41
1
 50
0
  1
8
  0
ENDBLK
  0
BLOCK
  2
-116-_U92
 70
   64
 10
0
 20
0
 30
0
  0
TEXT
  8
_0-1_H0
 62
    7
 10
274.02666666666669
 20
233.0400000000001
 40
2.919999999999999
 41
1
 50
0
  1
9
  0
ENDBLK
  0
BLOCK
  2
-117-_U93
 70
   64
 10
0
 20
0
 30
0
  0
TEXT
  8
_0-1_H0
 62
    7
 10
273.29666666666668
 20
228.0400000000001
 40
2.919999999999999
 41
1
 50
0
  1
10
  0
ENDBLK
  0
BLOCK
  2
-118-_U94
 70
   64
 10
0
 20
0
 30
0
  0
TEXT
  8
_0-1_H0
 62
    7
 10
352.36571268505451
 20
269.19999999999998
 40
2.1
 41
1
 50
0
  1
ポリエステル塗装
  0
ENDBLK
  0
BLOCK
  2
-119-_U95
 70
   64
 10
0
 20
0
 30
0
  0
TEXT
  8
_0-1_H0
 62
    7
 10
383.92992909593749
 20
268.07999999999998
 40
3.2200000000000001
 41
1
 50
0
  1
表題欄による
  0
ENDBLK
  0
BLOCK
  2
-120-_U96
 70
   64
 10
0
 20
0
 30
0
  0
TEXT
  8
_0-1_H0
 62
    7
 10
318.92992909593738
 20
268.04500000000001
 40
3.2549999999999998
 41
1
 50
0
  1
亜鉛めっき鋼板
  0
ENDBLK
  0
BLOCK
  2
-121-_U97
 70
   64
 10
0
 20
0
 30
0
  0
TEXT
  8
_0-1_H0
 62
    7
 10
282.10536795548358
 20
268.02999999999997
 40
3.2200000000000001
 41
1
 50
0
  1
ダンパー
  0
ENDBLK
  0
BLOCK
  2
-122-_U98
 70
   64
 10
0
 20
0
 30
0
  0
TEXT
  8
_0-1_H0
 62
    7
 10
318.92992909593738
 20
263.115
 40
3.185
 41
1
 50
0
  1
SPCC t0.5
  0
ENDBLK
  0
BLOCK
  2
-123-_U99
 70
   64
 10
0
 20
0
 30
0
  0
TEXT
  8
_0-1_H0
 62
    7
 10
282.32236795548362
 20
263.06499999999999
 40
3.185
 41
1
 50
0
  1
防鳥網
  0
ENDBLK
  0
BLOCK
  2
-124-_U100
 70
   64
 10
0
 20
0
 30
0
  0
TEXT
  8
_0-1_H0
 62
    7
 10
352.5057126850545
 20
263.99
 40
2.31
 41
1
 50
0
  1
MFZn2C エキスパンドメタル
  0
ENDBLK
  0
BLOCK
  2
-125-_U101
 70
   64
 10
0
 20
0
 30
0
  0
TEXT
  8
_0-1_H0
 62
    7
 10
318.92992909593738
 20
258.43
 40
2.8699999999999992
 41
1
 50
0
  1
120℃　RoHS対応品
  0
ENDBLK
  0
BLOCK
  2
-126-_U102
 70
   64
 10
0
 20
0
 30
0
  0
TEXT
  8
_0-1_H0
 62
    7
 10
282.5347012888169
 20
258.02999999999997
 40
3.2200000000000001
 41
1
 50
0
  1
温度ヒューズ
  0
ENDBLK
  0
BLOCK
  2
-127-_U103
 70
   64
 10
0
 20
0
 30
0
  0
TEXT
  8
_0-1_H0
 62
    7
 10
352.5057126850545
 20
253.67500000000001
 40
2.625
 41
1
 50
0
  1
MFZn2C
  0
ENDBLK
  0
BLOCK
  2
-128-_U104
 70
   64
 10
0
 20
0
 30
0
  0
TEXT
  8
_0-1_H0
 62
    7
 10
318.92992909593738
 20
253.115
 40
3.185
 41
1
 50
0
  1
SPCC t1.0
  0
ENDBLK
  0
BLOCK
  2
-129-_U105
 70
   64
 10
0
 20
0
 30
0
  0
TEXT
  8
_0-1_H0
 62
    7
 10
282.10070128881687
 20
252.995
 40
3.2549999999999998
 41
1
 50
0
  1
ヒューズ取付金具
  0
ENDBLK
  0
BLOCK
  2
-130-_U106
 70
   64
 10
0
 20
0
 30
0
  0
TEXT
  8
_0-1_H0
 62
    7
 10
318.92992909593738
 20
248.08000000000009
 40
3.2200000000000001
 41
1
 50
0
  1
SUS304 \U+22051.0
  0
ENDBLK
  0
BLOCK
  2
-131-_U107
 70
   64
 10
0
 20
0
 30
0
  0
TEXT
  8
_0-1_H0
 62
    7
 10
282.5347012888169
 20
248.1000000000001
 40
3.149999999999999
 41
1
 50
0
  1
ば ね
  0
ENDBLK
  0
BLOCK
  2
-132-_U108
 70
   64
 10
0
 20
0
 30
0
  0
TEXT
  8
_0-1_H0
 62
    7
 10
282.32236795548362
 20
243.06500000000011
 40
3.185
 41
1
 50
0
  1
フック
  0
ENDBLK
  0
BLOCK
  2
-133-_U109
 70
   64
 10
0
 20
0
 30
0
  0
TEXT
  8
_0-1_H0
 62
    7
 10
282.10070128881687
 20
237.99500000000008
 40
3.2549999999999998
 41
1
 50
0
  1
ダンパー固定金具
  0
ENDBLK
  0
BLOCK
  2
-134-_U110
 70
   64
 10
0
 20
0
 30
0
  0
TEXT
  8
_0-1_H0
 62
    7
 10
318.92992909593738
 20
233.08000000000009
 40
3.2200000000000001
 41
1
 50
0
  1
SUS304 4×8
  0
ENDBLK
  0
BLOCK
  2
-135-_U111
 70
   64
 10
0
 20
0
 30
0
  0
TEXT
  8
_0-1_H0
 62
    7
 10
282.10536795548358
 20
233.03000000000008
 40
3.2200000000000001
 41
1
 50
0
  1
＋ナベFTネジ
  0
ENDBLK
  0
BLOCK
  2
-136-_U112
 70
   64
 10
0
 20
0
 30
0
  0
TEXT
  8
_0-1_H0
 62
    7
 10
352.36571268505451
 20
229.20000000000018
 40
2.1
 41
1
 50
0
  1
ポリエステル塗装
  0
ENDBLK
  0
BLOCK
  2
-137-_U113
 70
   64
 10
0
 20
0
 30
0
  0
TEXT
  8
_0-1_H0
 62
    7
 10
383.92992909593749
 20
228.08000000000021
 40
3.2200000000000001
 41
1
 50
0
  1
表題欄による
  0
ENDBLK
  0
BLOCK
  2
-138-_U114
 70
   64
 10
0
 20
0
 30
0
  0
TEXT
  8
_0-1_H0
 62
    7
 10
318.92992909593738
 20
228.04500000000018
 40
3.2549999999999998
 41
1
 50
0
  1
亜鉛めっき鋼板
  0
ENDBLK
  0
BLOCK
  2
-139-_U115
 70
   64
 10
0
 20
0
 30
0
  0
TEXT
  8
_0-1_H0
 62
    7
 10
282.10536795548358
 20
228.03000000000008
 40
3.2200000000000001
 41
1
 50
0
  1
ダクト接続板
  0
ENDBLK
  0
BLOCK
  2
-140-_U116
 70
   64
 10
0
 20
0
 30
0
  0
TEXT
  8
_0-1_H0
 62
    7
 10
318.92992909593738
 20
243.08000000000009
 40
3.2200000000000001
 41
1
 50
0
  1
SUS304 \U+22051.0
  0
ENDBLK
  0
BLOCK
  2
-141-_U117
 70
   64
 10
0
 20
0
 30
0
  0
TEXT
  8
_0-1_H0
 62
    7
 10
318.92992909593738
 20
238.08000000000009
 40
3.2200000000000001
 41
1
 50
0
  1
SUS304 \U+22052.0
  0
ENDBLK
  0
BLOCK
  2
-142-_U118
 70
   64
 10
0
 20
0
 30
0
  0
TEXT
  8
_0-1_H0
 62
    7
 10
294.83826673761052
 20
31.226000021766239
 40
2.5479999566078181
 41
1
 50
0
  1
製　図
  0
ENDBLK
  0
BLOCK
  2
-143-_U119
 70
   64
 10
0
 20
0
 30
0
  0
TEXT
  8
_0-1_H0
 62
    7
 10
295.90390862944161
 20
25.859010152284259
 40
2.4300000000000001
 41
1
 50
0
  1
篠原
  0
ENDBLK
  0
BLOCK
  2
-144-_U120
 70
   64
 10
0
 20
0
 30
0
  0
TEXT
  8
_0-1_H0
 62
    7
 10
293.27371583355858
 20
19.68068021699862
 40
1.7639999699592578
 41
1
 50
0
  1
2023/03/28
  0
ENDBLK
  0
BLOCK
  2
-145-_U121
 70
   64
 10
0
 20
0
 30
0
  0
TEXT
  8
_0-1_H0
 62
    7
 10
281.90390862944161
 20
25.859010152284259
 40
2.4300000000000001
 41
1
 50
0
  1
篠原
  0
ENDBLK
  0
BLOCK
  2
-146-_U122
 70
   64
 10
0
 20
0
 30
0
  0
TEXT
  8
_0-1_H0
 62
    7
 10
279.27371583355869
 20
19.68068021699862
 40
1.7639999699592578
 41
1
 50
0
  1
2023/03/28
  0
ENDBLK
  0
BLOCK
  2
-147-_U123
 70
   64
 10
0
 20
0
 30
0
  0
TEXT
  8
_0-1_H0
 62
    7
 10
251
 20
40.039999999999999
 40
2.919999999999999
 41
1
 50
0
  1
FAN-15WDK
  0
ENDBLK
  0
BLOCK
  2
-148-_U124
 70
   64
 10
0
 20
0
 30
0
  0
TEXT
  8
_0-1_H0
 62
    7
 10
295.53666666666669
 20
40.039999999999999
 40
2.919999999999999
 41
1
 50
0
  1
109WL200
  0
ENDBLK
  0
BLOCK
  2
-149-_U125
 70
   64
 10
0
 20
0
 30
0
  0
TEXT
  8
_0-1_H0
 62
    7
 10
321
 20
40.499999999999992
 40
2
 41
1
 50
0
  1
C2色(アイボリー)
  0
ENDBLK
  0
BLOCK
  2
-150-_U126
 70
   64
 10
0
 20
0
 30
0
  0
TEXT
  8
_0-1_H0
 62
    7
 10
399.02666666666658
 20
40.039999999999999
 40
2.919999999999999
 41
1
 50
0
  1
-
  0
ENDBLK
  0
BLOCK
  2
-151-_U127
 70
   64
 10
0
 20
0
 30
0
  0
TEXT
  8
_0-1_H0
 62
    7
 10
328.03101833551272
 20
119.5200041611249
 40
2.975
 41
1
 50
0
  1
ドリルねじ(3.5×25)
  0
ENDBLK
  0
BLOCK
  2
-152-_U128
 70
   64
 10
0
 20
0
 30
0
  0
TEXT
  8
_0-1_H0
 62
    7
 10
349.2193624061
 20
126.39750416112488
 40
3.2200000000000001
 41
1
 50
0
  1
付 属 品
  0
ENDBLK
  0
BLOCK
  2
-153-_U129
 70
   64
 10
0
 20
0
 30
0
  0
TEXT
  8
_0-1_H0
 62
    7
 10
378.46880044777481
 20
120.04392695721658
 40
3.08
 41
1
 50
0
  1
8本
  0
ENDBLK
  0
BLOCK
  2
-154-_U130
 70
   64
 10
0
 20
0
 30
0
  0
TEXT
  8
_0-1_H0
 62
    7
 10
336.80999999046321
 20
32.409999895095801
 40
3.0999999046325679
 41
1
 50
0
  1
型名
  0
ENDBLK
  0
BLOCK
  2
-155-_U131
 70
   64
 10
0
 20
0
 30
0
  0
TEXT
  8
_0-1_H0
 62
    7
 10
336.80999999046321
 20
23.806666564941398
 40
3.0999999046325679
 41
1
 50
0
  1
図番
  0
ENDBLK
  0
BLOCK
  2
-156-_U132
 70
   64
 10
0
 20
0
 30
0
  0
TEXT
  8
_0-1_H0
 62
    7
 10
262.06666666666671
 20
34.499999999999971
 40
4
 41
1
 50
0
  1
型　　名
  0
ENDBLK
  0
BLOCK
  2
-157-_U133
 70
   64
 10
0
 20
0
 30
0
  0
TEXT
  8
_0-1_H0
 62
    7
 10
294.80000000000001
 20
34.499999999999971
 40
4
 41
1
 50
0
  1
製品コード
  0
ENDBLK
  0
BLOCK
  2
-158-_U134
 70
   64
 10
0
 20
0
 30
0
  0
TEXT
  8
_0-1_H0
 62
    7
 10
351.25
 20
17.71
 40
5.58
 41
1
 50
0
  1
１０９２２５５
  0
ENDBLK
  0
BLOCK
  2
-159-_U135
 70
   64
 10
0
 20
0
 30
0
  0
TEXT
  8
_0-1_H0
 62
    7
 10
351.01600000000001
 20
10.71
 40
5.58
 41
1
 50
0
  1
製 品 姿 図
  0
ENDBLK
  0
BLOCK
  2
-160-_U136
 70
   64
 10
0
 20
0
 30
0
  0
TEXT
  8
_0-1_H0
 62
    7
 10
336.80999999046321
 20
16.806666564941398
 40
3.0999999046325679
 41
1
 50
0
  1
図名
  0
ENDBLK
  0
BLOCK
  2
-161-_U137
 70
   64
 10
0
 20
0
 30
0
  0
TEXT
  8
_0-1_H0
 62
    7
 10
400.0200000047684
 20
17.240000081062309
 40
2.2000000476837149
 41
1
 50
0
  1
変更歴
  0
ENDBLK
  0
BLOCK
  2
-162-_U138
 70
   64
 10
0
 20
0
 30
0
  0
TEXT
  8
_0-1_H0
 62
    7
 10
340.99999999989341
 20
28.299999999999979
 40
4.6500000000000003
 41
1
 50
0
  1
FAN-15WDK
  0
ENDBLK
  0
BLOCK
  2
-163-_U139
 70
   64
 10
0
 20
0
 30
0
  0
TEXT
  8
_0-1_H0
 62
    7
 10
340.72720000828047
 20
24.299999999999979
 40
2.0459999370574948
 41
1
 50
0
  1
ワンド株式会社殿向け 防火ダンパー付ウェザーカバー
  0
ENDBLK
  0
BLOCK
  2
-164-_U140
 70
   64
 10
0
 20
0
 30
0
  0
TEXT
  8
_0-1_H0
 62
    7
 10
308.04960008437478
 20
31.4080000186668
 40
2.183999962806701
 41
1
 50
0
  1
変更承認
  0
ENDBLK
  0
BLOCK
  2
-165-_U141
 70
   64
 10
0
 20
0
 30
0
  0
TEXT
  8
_0-1_H0
 62
    7
 10
280.75333340572359
 20
31.226000021766239
 40
2.5479999566078181
 41
1
 50
0
  1
設　計
  0
ENDBLK
  0
BLOCK
  2
-166-_U142
 70
   64
 10
0
 20
0
 30
0
  0
TEXT
  8
_0-1_H0
 62
    7
 10
266.75333340572359
 20
31.226000021766239
 40
2.5479999566078181
 41
1
 50
0
  1
照　査
  0
ENDBLK
  0
BLOCK
  2
-167-_U143
 70
   64
 10
0
 20
0
 30
0
  0
TEXT
  8
_0-1_H0
 62
    7
 10
252.75333340572359
 20
31.226000021766239
 40
2.5479999566078181
 41
1
 50
0
  1
承　認
  0
ENDBLK
  0
BLOCK
  2
-168-_U144
 70
   64
 10
0
 20
0
 30
0
  0
TEXT
  8
_0-1_H0
 62
    7
 10
322.04960008437478
 20
31.4080000186668
 40
2.183999962806701
 41
1
 50
0
  1
変更照査
  0
ENDBLK
  0
BLOCK
  2
-169-_U145
 70
   64
 10
0
 20
0
 30
0
  0
TEXT
  8
_0-1_H0
 62
    7
 10
307.39999999999997
 20
11.82
 40
3.3599999999999989
 41
1
 50
0
  1
三角法
  0
ENDBLK
  0
BLOCK
  2
-170-_U146
 70
   64
 10
0
 20
0
 30
0
  0
TEXT
  8
_0-1_H0
 62
    7
 10
329.73466667970029
 20
10.752000019550299
 40
2.295999960899353
 41
1
 50
0
  1
3
  0
ENDBLK
  0
BLOCK
  2
-171-_U147
 70
   64
 10
0
 20
0
 30
0
  0
TEXT
  8
_0-1_H0
 62
    7
 10
327.11733333985029
 20
13.9520000195473
 40
2.295999960899353
 41
1
 50
0
  1
1
  0
ENDBLK
  0
BLOCK
  2
-172-_U148
 70
   64
 10
0
 20
0
 30
0
  0
TEXT
  8
_0-1_H0
 62
    7
 10
322.30999999046321
 20
16.806666564941409
 40
3.0999999046325679
 41
1
 50
0
  1
尺度
  0
ENDBLK
  0
BLOCK
  2
-173-_U151
 70
   64
 10
0
 20
0
 30
0
  0
TEXT
  8
_0-1_H0
 62
    7
 10
331.93333333333328
 20
34.5
 40
4
 41
1
 50
0
  1
色　　調
  0
ENDBLK
  0
BLOCK
  2
-174-_U152
 70
   64
 10
0
 20
0
 30
0
  0
TEXT
  8
_0-1_H0
 62
    7
 10
392.58533333333332
 20
34.840000000000003
 40
3.3199999999999989
 41
1
 50
0
  1
区分No.
  0
ENDBLK
  0
BLOCK
  2
-175-_U183
 70
   64
 10
0
 20
0
 30
0
  0
TEXT
  8
_0-4_A0
 62
    7
 10
236.31551388968529
 20
232.73065529098471
 40
3.3599999999999989
 41
1
 50
0
  1
￡
  0
ENDBLK
  0
ENDSEC
  0
SECTION
  2
ENTITIES
  0
LINE
  8
_0-1_H0
  6
CONTINUOUS
 62
    3
 10
407.49999999999994
 20
10.241136363636371
 11
407.49999999999994
 21
287.24113636363637
  0
LINE
  8
_0-1_H0
  6
CONTINUOUS
 62
    3
 10
407.49999999999994
 20
287.24113636363637
 11
12.499999999999943
 21
287.24113636363637
  0
LINE
  8
_0-1_H0
  6
CONTINUOUS
 62
    3
 10
12.499999999999943
 20
287.24113636363637
 11
12.499999999999943
 21
10.241136363636371
  0
LINE
  8
_0-1_H0
  6
CONTINUOUS
 62
    3
 10
84.499999999999943
 20
282.24113636363637
 11
12.499999999999943
 21
282.24113636363637
  0
LINE
  8
_0-1_H0
  6
CONTINUOUS
 62
    3
 10
53.499999999999943
 20
287.24113636363637
 11
53.499999999999943
 21
259.74113636363637
  0
LINE
  8
_0-1_H0
  6
CONTINUOUS
 62
    3
 10
84.499999999999943
 20
277.74113636363637
 11
12.499999999999943
 21
277.74113636363637
  0
LINE
  8
_0-1_H0
  6
CONTINUOUS
 62
    3
 10
84.499999999999943
 20
268.74113636363637
 11
12.499999999999943
 21
268.74113636363637
  0
LINE
  8
_0-1_H0
  6
CONTINUOUS
 62
    3
 10
84.499999999999943
 20
264.24113636363637
 11
12.499999999999943
 21
264.24113636363637
  0
LINE
  8
_0-1_H0
  6
CONTINUOUS
 62
    3
 10
84.499999999999943
 20
259.74113636363637
 11
12.499999999999943
 21
259.74113636363637
  0
INSERT
  2
-064-_U40
  8
_0-0_0
 10
-2.5000000000000568
 20
0.2411363636363716
 41
1
 42
1
 50
0
  0
INSERT
  2
-065-_U41
  8
_0-0_0
 10
-2.5000000000000568
 20
0.2411363636363716
 41
1
 42
1
 50
0
  0
INSERT
  2
-066-_U42
  8
_0-0_0
 10
-2.5000000000000568
 20
0.2411363636363716
 41
1
 42
1
 50
0
  0
LINE
  8
_0-1_H0
  6
CONTINUOUS
 62
    3
 10
12.499999999999943
 20
273.24113636363637
 11
84.499999999999943
 21
273.24113636363637
  0
LINE
  8
_0-1_H0
  6
CONTINUOUS
 62
    3
 10
18.499999999999943
 20
287.24113636363637
 11
18.499999999999943
 21
259.74113636363637
  0
INSERT
  2
-067-_U43
  8
_0-0_0
 10
-2.5000000000000568
 20
0.2411363636363716
 41
1
 42
1
 50
0
  0
INSERT
  2
-068-_U44
  8
_0-0_0
 10
-2.5000000000000568
 20
0.2411363636363716
 41
1
 42
1
 50
0
  0
LINE
  8
_0-1_H0
  6
CONTINUOUS
 62
    3
 10
63.499999999999943
 20
287.24113636363637
 11
63.499999999999943
 21
259.74113636363637
  0
LINE
  8
_0-1_H0
  6
CONTINUOUS
 62
    3
 10
13.299999999999897
 20
264.64113636363634
 11
17.699999999999903
 21
264.64113636363634
  0
LINE
  8
_0-1_H0
  6
CONTINUOUS
 62
    3
 10
17.699999999999874
 20
264.64113636363634
 11
15.499999999999857
 21
268.45164814028765
  0
LINE
  8
_0-1_H0
  6
CONTINUOUS
 62
    3
 10
15.499999999999886
 20
268.45164814028777
 11
13.299999999999897
 21
264.64113636363629
  0
LINE
  8
_0-1_H0
  6
CONTINUOUS
 62
    3
 10
13.299999999999897
 20
269.14113636363634
 11
17.699999999999903
 21
269.14113636363634
  0
LINE
  8
_0-1_H0
  6
CONTINUOUS
 62
    3
 10
17.699999999999903
 20
269.14113636363646
 11
15.499999999999914
 21
272.95164814028777
  0
LINE
  8
_0-1_H0
  6
CONTINUOUS
 62
    3
 10
15.499999999999886
 20
272.95164814028765
 11
13.299999999999897
 21
269.14113636363634
  0
LINE
  8
_0-1_H0
  6
CONTINUOUS
 62
    3
 10
13.299999999999897
 20
273.64113636363634
 11
17.699999999999903
 21
273.64113636363634
  0
LINE
  8
_0-1_H0
  6
CONTINUOUS
 62
    3
 10
17.699999999999903
 20
273.64113636363634
 11
15.499999999999886
 21
277.45164814028777
  0
LINE
  8
_0-1_H0
  6
CONTINUOUS
 62
    3
 10
15.499999999999914
 20
277.45164814028777
 11
13.299999999999897
 21
273.64113636363634
  0
INSERT
  2
-069-_U45
  8
_0-0_0
 10
-2.5000000000000568
 20
0.2411363636363716
 41
1
 42
1
 50
0
  0
LINE
  8
_0-1_H0
  6
CONTINUOUS
 62
    3
 10
13.299999999999897
 20
278.14113636363634
 11
17.699999999999903
 21
278.14113636363634
  0
LINE
  8
_0-1_H0
  6
CONTINUOUS
 62
    3
 10
17.699999999999903
 20
278.14113636363646
 11
15.499999999999886
 21
281.95164814028777
  0
LINE
  8
_0-1_H0
  6
CONTINUOUS
 62
    3
 10
15.499999999999886
 20
281.95164814028777
 11
13.299999999999869
 21
278.14113636363646
  0
INSERT
  2
-070-_U46
  8
_0-0_0
 10
-2.5000000000000568
 20
0.2411363636363716
 41
1
 42
1
 50
0
  0
LINE
  8
_0-1_H0
  6
CONTINUOUS
 62
    3
 10
76.499999999999943
 20
287.24113636363637
 11
76.499999999999943
 21
259.74113636363637
  0
LINE
  8
_0-1_H0
  6
CONTINUOUS
 62
    3
 10
84.499999999999943
 20
287.24113636363637
 11
84.499999999999943
 21
259.74113636363637
  0
LINE
  8
_0-1_H0
  6
CONTINUOUS
 62
    3
 10
15.499999999999886
 20
263.95164814028765
 11
13.299999999999926
 21
260.14113636363634
  0
LINE
  8
_0-1_H0
  6
CONTINUOUS
 62
    3
 10
17.699999999999874
 20
260.14113636363634
 11
15.499999999999857
 21
263.95164814028765
  0
LINE
  8
_0-1_H0
  6
CONTINUOUS
 62
    3
 10
13.299999999999897
 20
260.14113636363634
 11
17.699999999999903
 21
260.14113636363634
  0
INSERT
  2
-071-_U47
  8
_0-0_0
 10
-2.5000000000000568
 20
0.2411363636363716
 41
1
 42
1
 50
0
  0
INSERT
  2
-072-_U48
  8
_0-0_0
 10
-2.5000000000000568
 20
0.2411363636363716
 41
1
 42
1
 50
0
  0
INSERT
  2
-073-_U49
  8
_0-0_0
 10
-2.5000000000000568
 20
0.2411363636363716
 41
1
 42
1
 50
0
  0
LINE
  8
_0-1_H0
  6
CONTINUOUS
 62
    3
 10
12.499999999999943
 20
10.241136363636371
 11
407.49999999999994
 21
10.241136363636371
  0
INSERT
  2
-074-_U50
  8
_0-0_0
 10
-2.5000000000000568
 20
0.2411363636363716
 41
1
 42
1
 50
0
  0
LINE
  8
_0-1_H0
  6
CONTINUOUS
 62
    3
 10
304.51027969981572
 20
74.587899981276905
 11
398.01012582767071
 21
74.587899981276905
  0
LINE
  8
_0-1_H0
  6
CONTINUOUS
 62
    3
 10
304.51027969981015
 20
55.17141537531809
 11
398.01012582766492
 21
55.171415375344011
  0
LINE
  8
_0-1_H0
  6
CONTINUOUS
 62
    3
 10
304.51027969981595
 20
74.587899981276905
 11
304.51027969981015
 21
55.171415375318076
  0
LINE
  8
_0-1_H0
  6
CONTINUOUS
 62
    3
 10
398.01012582767054
 20
74.587899981276891
 11
398.01012582766492
 21
55.17141537534124
  0
INSERT
  2
-075-_U51
  8
_0-0_0
 10
-2.5000000000000568
 20
0.2411363636363716
 41
1
 42
1
 50
0
  0
INSERT
  2
-076-_U52
  8
_0-0_0
 10
-2.5000000000000568
 20
0.2411363636363716
 41
1
 42
1
 50
0
  0
LINE
  8
_0-1_H0
  6
CONTINUOUS
 62
    3
 10
353.71601252004882
 20
74.587899981276933
 11
353.71601252007161
 21
55.171415375331719
  0
INSERT
  2
-077-_U53
  8
_0-0_0
 10
-2.5000000000000568
 20
0.2411363636363716
 41
1
 42
1
 50
0
  0
INSERT
  2
-078-_U54
  8
_0-0_0
 10
-2.5000000000000568
 20
0.2411363636363716
 41
1
 42
1
 50
0
  0
LINE
  8
_0-1_H0
  6
CONTINUOUS
 62
    3
 10
304.51027969981572
 20
64.879657678309072
 11
398.01012582766776
 21
64.879657678309072
  0
INSERT
  2
-079-_U55
  8
_0-0_0
 10
-2.5000000000000568
 20
0.2411363636363716
 41
1
 42
1
 50
0
  0
LINE
  8
_0-1_H0
  6
HIDDEN
 62
    3
 10
350.64618158830325
 20
112.39759523286207
 11
374.68821093040077
 21
112.39759523286207
  0
INSERT
  2
-080-_U56
  8
_0-0_0
 10
-2.5000000000000568
 20
0.2411363636363716
 41
1
 42
1
 50
0
  0
LINE
  8
_0-1_H0
  6
CONTINUOUS
 62
    3
 10
320.02593231786562
 20
106.34611634889127
 11
388.01012582766742
 21
106.34611634890066
  0
INSERT
  2
-081-_U57
  8
_0-0_0
 10
-2.5000000000000568
 20
0.2411363636363716
 41
1
 42
1
 50
0
  0
INSERT
  2
-082-_U58
  8
_0-0_0
 10
-2.5000000000000568
 20
0.2411363636363716
 41
1
 42
1
 50
0
  0
INSERT
  2
-083-_U59
  8
_0-0_0
 10
-2.5000000000000568
 20
0.2411363636363716
 41
1
 42
1
 50
0
  0
LINE
  8
_0-1_H0
  6
CONTINUOUS
 62
    3
 10
160.59447868074533
 20
81.809976964730424
 11
180.59447868074533
 21
81.809976964730424
  0
LINE
  8
_0-1_H0
  6
CONTINUOUS
 62
    3
 10
180.59447868074533
 20
81.809976964730424
 11
300.48357328144192
 21
81.809976964730424
  0
LINE
  8
_0-1_H0
  6
CONTINUOUS
 62
    3
 10
180.59447868074533
 20
73.809976964730424
 11
215.59447868074533
 21
73.809976964730424
  0
LINE
  8
_0-2_H1
  6
CONTINUOUS
 62
    3
 10
324.07982939601185
 20
214.18667934418266
 11
324.07982939601185
 21
157.18667934418266
  0
INSERT
  2
-084-_U60
  8
_0-0_0
 10
-2.5000000000000568
 20
0.2411363636363716
 41
1
 42
1
 50
0
  0
INSERT
  2
-085-_U61
  8
_0-0_0
 10
-2.5000000000000568
 20
0.2411363636363716
 41
1
 42
1
 50
0
  0
INSERT
  2
-086-_U62
  8
_0-0_0
 10
-2.5000000000000568
 20
0.2411363636363716
 41
1
 42
1
 50
0
  0
LINE
  8
_0-2_H1
  6
CONTINUOUS
 62
    3
 10
332.33225245520003
 20
148.91450601585788
 11
339.65442838934433
 21
148.91450601585788
  0
LINE
  8
_0-2_H1
  6
CONTINUOUS
 62
    3
 10
339.65442838934455
 20
148.91450601585788
 11
336.75665091047716
 21
148.13804888055037
  0
LINE
  8
_0-2_H1
  6
CONTINUOUS
 62
    3
 10
339.65442838934444
 20
148.91450601585808
 11
336.75665091047716
 21
149.69096315116567
  0
LINE
  8
_0-2_H1
  6
CONTINUOUS
 62
    3
 10
313.29297453233874
 20
176.96358851426597
 11
313.29297453233874
 21
168.61331719962777
  0
LINE
  8
_0-2_H1
  6
CONTINUOUS
 62
    3
 10
313.29297453233914
 20
176.96358851426606
 11
314.06943166764665
 21
174.06581103539886
  0
LINE
  8
_0-2_H1
  6
CONTINUOUS
 62
    3
 10
313.29297453233914
 20
176.96358851426597
 11
312.51651739703146
 21
174.06581103539878
  0
INSERT
  2
-087-_U63
  8
_0-0_0
 10
-2.5000000000000568
 20
0.2411363636363716
 41
1
 42
1
 50
0
  0
INSERT
  2
-088-_U64
  8
_0-0_0
 10
-2.5000000000000568
 20
0.2411363636363716
 41
1
 42
1
 50
0
  0
INSERT
  2
-089-_U65
  8
_0-0_0
 10
-2.5000000000000568
 20
0.2411363636363716
 41
1
 42
1
 50
0
  0
INSERT
  2
-090-_U66
  8
_0-0_0
 10
-2.5000000000000568
 20
0.2411363636363716
 41
1
 42
1
 50
0
  0
INSERT
  2
-091-_U67
  8
_0-0_0
 10
-2.5000000000000568
 20
0.2411363636363716
 41
1
 42
1
 50
0
  0
LINE
  8
_0-2_H1
  6
CONTINUOUS
 62
    3
 10
324.07982939601185
 20
157.18667934418266
 11
381.07982939601174
 21
157.18667934418266
  0
INSERT
  2
-092-_U68
  8
_0-0_0
 10
-2.5000000000000568
 20
0.2411363636363716
 41
1
 42
1
 50
0
  0
INSERT
  2
-093-_U69
  8
_0-0_0
 10
-2.5000000000000568
 20
0.2411363636363716
 41
1
 42
1
 50
0
  0
INSERT
  2
-094-_U70
  8
_0-0_0
 10
-2.5000000000000568
 20
0.2411363636363716
 41
1
 42
1
 50
0
  0
INSERT
  2
-095-_U71
  8
_0-0_0
 10
-2.5000000000000568
 20
0.2411363636363716
 41
1
 42
1
 50
0
  0
LINE
  8
_0-1_H0
  6
CONTINUOUS
 62
    3
 10
333.57982939601185
 20
214.18667934418266
 11
333.57982939601185
 21
157.18667934418266
  0
LINE
  8
_0-1_H0
  6
CONTINUOUS
 62
    3
 10
343.07982939601185
 20
214.18667934418266
 11
343.07982939601185
 21
157.18667934418266
  0
LINE
  8
_0-1_H0
  6
CONTINUOUS
 62
    3
 10
352.57982939601185
 20
214.18667934418266
 11
352.57982939601185
 21
157.18667934418266
  0
LINE
  8
_0-1_H0
  6
CONTINUOUS
 62
    3
 10
362.07982939601185
 20
214.18667934418266
 11
362.07982939601185
 21
157.18667934418266
  0
LINE
  8
_0-1_H0
  6
CONTINUOUS
 62
    3
 10
371.57982939601185
 20
214.18667934418266
 11
371.57982939601185
 21
157.18667934418266
  0
LINE
  8
_0-1_H0
  6
CONTINUOUS
 62
    3
 10
381.07982939601174
 20
214.18667934418266
 11
381.07982939601174
 21
157.18667934418266
  0
LINE
  8
_0-1_H0
  6
CONTINUOUS
 62
    3
 10
324.07982939601185
 20
166.68667934418266
 11
381.07982939601174
 21
166.68667934418266
  0
LINE
  8
_0-1_H0
  6
CONTINUOUS
 62
    3
 10
324.07982939601185
 20
176.18667934418266
 11
381.07982939601174
 21
176.18667934418266
  0
LINE
  8
_0-1_H0
  6
CONTINUOUS
 62
    3
 10
324.07982939601185
 20
185.68667934418266
 11
381.07982939601174
 21
185.68667934418266
  0
LINE
  8
_0-1_H0
  6
CONTINUOUS
 62
    3
 10
324.07982939601185
 20
195.18667934418266
 11
381.07982939601174
 21
195.18667934418266
  0
LINE
  8
_0-1_H0
  6
CONTINUOUS
 62
    3
 10
324.07982939601185
 20
204.68667934418266
 11
381.07982939601174
 21
204.68667934418266
  0
LINE
  8
_0-1_H0
  6
CONTINUOUS
 62
    3
 10
324.07982939601185
 20
214.18667934418266
 11
381.07982939601174
 21
214.18667934418266
  0
INSERT
  2
-096-_U72
  8
_0-0_0
 10
-2.5000000000000568
 20
0.2411363636363716
 41
1
 42
1
 50
0
  0
INSERT
  2
-097-_U73
  8
_0-0_0
 10
-2.5000000000000568
 20
0.2411363636363716
 41
1
 42
1
 50
0
  0
LINE
  8
_0-1_H0
  6
CONTINUOUS
 62
    3
 10
338.55881578972753
 20
216.05539548946936
 11
366.15881664803441
 21
216.05539548946936
  0
LINE
  8
_0-1_H0
  6
CONTINUOUS
 62
    3
 10
324.07999999999992
 20
157.18713636363636
 11
324.33199999999993
 21
157.27313636363638
  0
LINE
  8
_0-1_H0
  6
CONTINUOUS
 62
    3
 10
324.33199999999993
 20
157.27313636363638
 11
324.58399999999994
 21
157.35913636363636
  0
LINE
  8
_0-1_H0
  6
CONTINUOUS
 62
    3
 10
324.58399999999994
 20
157.35913636363636
 11
324.83599999999995
 21
157.44513636363637
  0
LINE
  8
_0-1_H0
  6
CONTINUOUS
 62
    3
 10
324.83599999999995
 20
157.44513636363637
 11
325.08899999999994
 21
157.53113636363636
  0
LINE
  8
_0-1_H0
  6
CONTINUOUS
 62
    3
 10
325.08899999999994
 20
157.53113636363636
 11
325.34099999999995
 21
157.61713636363637
  0
LINE
  8
_0-1_H0
  6
CONTINUOUS
 62
    3
 10
325.34099999999995
 20
157.61713636363637
 11
325.59299999999996
 21
157.70313636363636
  0
LINE
  8
_0-1_H0
  6
CONTINUOUS
 62
    3
 10
325.59299999999996
 20
157.70313636363636
 11
325.84499999999997
 21
157.78913636363637
  0
LINE
  8
_0-1_H0
  6
CONTINUOUS
 62
    3
 10
325.84499999999997
 20
157.78913636363637
 11
326.09699999999992
 21
157.87613636363636
  0
LINE
  8
_0-1_H0
  6
CONTINUOUS
 62
    3
 10
326.09699999999992
 20
157.87613636363636
 11
326.34899999999993
 21
157.96213636363637
  0
LINE
  8
_0-1_H0
  6
CONTINUOUS
 62
    3
 10
326.34899999999993
 20
157.96213636363637
 11
326.60099999999994
 21
158.04913636363636
  0
LINE
  8
_0-1_H0
  6
CONTINUOUS
 62
    3
 10
326.60099999999994
 20
158.04913636363636
 11
326.85299999999995
 21
158.13613636363638
  0
LINE
  8
_0-1_H0
  6
CONTINUOUS
 62
    3
 10
326.85299999999995
 20
158.13613636363638
 11
327.10499999999996
 21
158.22313636363637
  0
LINE
  8
_0-1_H0
  6
CONTINUOUS
 62
    3
 10
327.10499999999996
 20
158.22313636363637
 11
327.35599999999993
 21
158.31013636363636
  0
LINE
  8
_0-1_H0
  6
CONTINUOUS
 62
    3
 10
327.35599999999993
 20
158.31013636363636
 11
327.60799999999994
 21
158.39813636363638
  0
LINE
  8
_0-1_H0
  6
CONTINUOUS
 62
    3
 10
327.60799999999994
 20
158.39813636363638
 11
327.85999999999995
 21
158.48513636363637
  0
LINE
  8
_0-1_H0
  6
CONTINUOUS
 62
    3
 10
327.85999999999995
 20
158.48513636363637
 11
328.11099999999993
 21
158.57313636363636
  0
LINE
  8
_0-1_H0
  6
CONTINUOUS
 62
    3
 10
328.11099999999993
 20
158.57313636363636
 11
328.36199999999996
 21
158.66113636363635
  0
LINE
  8
_0-1_H0
  6
CONTINUOUS
 62
    3
 10
328.36199999999996
 20
158.66113636363635
 11
328.61399999999991
 21
158.75013636363635
  0
LINE
  8
_0-1_H0
  6
CONTINUOUS
 62
    3
 10
328.61399999999991
 20
158.75013636363635
 11
328.86499999999995
 21
158.83813636363638
  0
LINE
  8
_0-1_H0
  6
CONTINUOUS
 62
    3
 10
328.86499999999995
 20
158.83813636363638
 11
329.11599999999992
 21
158.92713636363637
  0
LINE
  8
_0-1_H0
  6
CONTINUOUS
 62
    3
 10
329.11599999999992
 20
158.92713636363637
 11
329.36699999999996
 21
159.01613636363637
  0
LINE
  8
_0-1_H0
  6
CONTINUOUS
 62
    3
 10
329.36699999999996
 20
159.01613636363637
 11
329.61699999999996
 21
159.10613636363638
  0
LINE
  8
_0-1_H0
  6
CONTINUOUS
 62
    3
 10
329.61699999999996
 20
159.10613636363638
 11
329.86799999999993
 21
159.19613636363638
  0
LINE
  8
_0-1_H0
  6
CONTINUOUS
 62
    3
 10
329.86799999999993
 20
159.19613636363638
 11
330.11899999999997
 21
159.28613636363635
  0
LINE
  8
_0-1_H0
  6
CONTINUOUS
 62
    3
 10
330.11899999999997
 20
159.28613636363635
 11
330.36899999999997
 21
159.37713636363636
  0
LINE
  8
_0-1_H0
  6
CONTINUOUS
 62
    3
 10
330.36899999999997
 20
159.37713636363636
 11
330.61899999999997
 21
159.46813636363637
  0
LINE
  8
_0-1_H0
  6
CONTINUOUS
 62
    3
 10
330.61899999999997
 20
159.46813636363637
 11
330.86899999999997
 21
159.56013636363636
  0
LINE
  8
_0-1_H0
  6
CONTINUOUS
 62
    3
 10
330.86899999999997
 20
159.56013636363636
 11
331.11899999999997
 21
159.65113636363636
  0
LINE
  8
_0-1_H0
  6
CONTINUOUS
 62
    3
 10
331.11899999999997
 20
159.65113636363636
 11
331.36899999999997
 21
159.74413636363635
  0
LINE
  8
_0-1_H0
  6
CONTINUOUS
 62
    3
 10
331.36899999999997
 20
159.74413636363635
 11
331.61799999999993
 21
159.83713636363637
  0
LINE
  8
_0-1_H0
  6
CONTINUOUS
 62
    3
 10
331.61799999999993
 20
159.83713636363637
 11
331.86699999999996
 21
159.93013636363636
  0
LINE
  8
_0-1_H0
  6
CONTINUOUS
 62
    3
 10
331.86699999999996
 20
159.93013636363636
 11
332.11599999999992
 21
160.02413636363635
  0
LINE
  8
_0-1_H0
  6
CONTINUOUS
 62
    3
 10
332.11599999999992
 20
160.02413636363635
 11
332.36499999999995
 21
160.11813636363638
  0
LINE
  8
_0-1_H0
  6
CONTINUOUS
 62
    3
 10
332.36499999999995
 20
160.11813636363638
 11
332.61399999999991
 21
160.21313636363638
  0
LINE
  8
_0-1_H0
  6
CONTINUOUS
 62
    3
 10
332.61399999999991
 20
160.21313636363638
 11
332.86299999999994
 21
160.30813636363637
  0
LINE
  8
_0-1_H0
  6
CONTINUOUS
 62
    3
 10
332.86299999999994
 20
160.30813636363637
 11
333.11099999999993
 21
160.40413636363638
  0
LINE
  8
_0-1_H0
  6
CONTINUOUS
 62
    3
 10
333.11099999999993
 20
160.40413636363638
 11
333.35899999999992
 21
160.50013636363635
  0
LINE
  8
_0-1_H0
  6
CONTINUOUS
 62
    3
 10
333.35899999999992
 20
160.50013636363635
 11
333.60699999999997
 21
160.59713636363636
  0
LINE
  8
_0-1_H0
  6
CONTINUOUS
 62
    3
 10
333.60699999999997
 20
160.59713636363636
 11
333.85399999999992
 21
160.69513636363637
  0
LINE
  8
_0-1_H0
  6
CONTINUOUS
 62
    3
 10
333.85399999999992
 20
160.69513636363637
 11
334.10099999999994
 21
160.79313636363636
  0
LINE
  8
_0-1_H0
  6
CONTINUOUS
 62
    3
 10
334.10099999999994
 20
160.79313636363636
 11
334.34899999999993
 21
160.89113636363637
  0
LINE
  8
_0-1_H0
  6
CONTINUOUS
 62
    3
 10
334.34899999999993
 20
160.89113636363637
 11
334.59499999999997
 21
160.99113636363637
  0
LINE
  8
_0-1_H0
  6
CONTINUOUS
 62
    3
 10
334.59499999999997
 20
160.99113636363637
 11
334.84199999999992
 21
161.09113636363636
  0
LINE
  8
_0-1_H0
  6
CONTINUOUS
 62
    3
 10
334.84199999999992
 20
161.09113636363636
 11
335.08899999999994
 21
161.19113636363636
  0
LINE
  8
_0-1_H0
  6
CONTINUOUS
 62
    3
 10
335.08899999999994
 20
161.19113636363636
 11
335.33499999999992
 21
161.29213636363635
  0
LINE
  8
_0-1_H0
  6
CONTINUOUS
 62
    3
 10
335.33499999999992
 20
161.29213636363635
 11
335.58099999999996
 21
161.39313636363635
  0
LINE
  8
_0-1_H0
  6
CONTINUOUS
 62
    3
 10
335.58099999999996
 20
161.39313636363635
 11
335.82699999999994
 21
161.49513636363636
  0
LINE
  8
_0-1_H0
  6
CONTINUOUS
 62
    3
 10
335.82699999999994
 20
161.49513636363636
 11
336.07199999999994
 21
161.59713636363636
  0
LINE
  8
_0-1_H0
  6
CONTINUOUS
 62
    3
 10
336.07199999999994
 20
161.59713636363636
 11
336.31799999999992
 21
161.70013636363637
  0
LINE
  8
_0-1_H0
  6
CONTINUOUS
 62
    3
 10
336.31799999999992
 20
161.70013636363637
 11
336.56299999999993
 21
161.80313636363638
  0
LINE
  8
_0-1_H0
  6
CONTINUOUS
 62
    3
 10
336.56299999999993
 20
161.80313636363638
 11
336.80799999999993
 21
161.90713636363636
  0
LINE
  8
_0-1_H0
  6
CONTINUOUS
 62
    3
 10
336.80799999999993
 20
161.90713636363636
 11
337.05299999999994
 21
162.01113636363638
  0
LINE
  8
_0-1_H0
  6
CONTINUOUS
 62
    3
 10
337.05299999999994
 20
162.01113636363638
 11
337.29799999999994
 21
162.11513636363636
  0
LINE
  8
_0-1_H0
  6
CONTINUOUS
 62
    3
 10
337.29799999999994
 20
162.11513636363636
 11
337.54299999999994
 21
162.22013636363638
  0
LINE
  8
_0-1_H0
  6
CONTINUOUS
 62
    3
 10
337.54299999999994
 20
162.22013636363638
 11
337.78699999999992
 21
162.32613636363637
  0
LINE
  8
_0-1_H0
  6
CONTINUOUS
 62
    3
 10
337.78699999999992
 20
162.32613636363637
 11
338.03199999999992
 21
162.43113636363636
  0
LINE
  8
_0-1_H0
  6
CONTINUOUS
 62
    3
 10
338.03199999999992
 20
162.43113636363636
 11
338.27599999999995
 21
162.53713636363636
  0
LINE
  8
_0-1_H0
  6
CONTINUOUS
 62
    3
 10
338.27599999999995
 20
162.53713636363636
 11
338.51999999999992
 21
162.64413636363636
  0
LINE
  8
_0-1_H0
  6
CONTINUOUS
 62
    3
 10
338.51999999999992
 20
162.64413636363636
 11
338.76399999999995
 21
162.75013636363635
  0
LINE
  8
_0-1_H0
  6
CONTINUOUS
 62
    3
 10
338.76399999999995
 20
162.75013636363635
 11
339.00799999999992
 21
162.85713636363638
  0
LINE
  8
_0-1_H0
  6
CONTINUOUS
 62
    3
 10
339.00799999999992
 20
162.85713636363638
 11
339.25199999999995
 21
162.96513636363636
  0
LINE
  8
_0-1_H0
  6
CONTINUOUS
 62
    3
 10
339.25199999999995
 20
162.96513636363636
 11
339.49499999999994
 21
163.07213636363636
  0
LINE
  8
_0-1_H0
  6
CONTINUOUS
 62
    3
 10
339.49499999999994
 20
163.07213636363636
 11
339.73899999999991
 21
163.18013636363636
  0
LINE
  8
_0-1_H0
  6
CONTINUOUS
 62
    3
 10
339.73899999999991
 20
163.18013636363636
 11
339.98199999999997
 21
163.28913636363637
  0
LINE
  8
_0-1_H0
  6
CONTINUOUS
 62
    3
 10
339.98199999999997
 20
163.28913636363637
 11
340.22599999999994
 21
163.39713636363637
  0
LINE
  8
_0-1_H0
  6
CONTINUOUS
 62
    3
 10
340.22599999999994
 20
163.39713636363637
 11
340.46899999999993
 21
163.50613636363635
  0
LINE
  8
_0-1_H0
  6
CONTINUOUS
 62
    3
 10
340.46899999999993
 20
163.50613636363635
 11
340.71199999999993
 21
163.61513636363636
  0
LINE
  8
_0-1_H0
  6
CONTINUOUS
 62
    3
 10
340.71199999999993
 20
163.61513636363636
 11
340.95499999999992
 21
163.72413636363637
  0
LINE
  8
_0-1_H0
  6
CONTINUOUS
 62
    3
 10
340.95499999999992
 20
163.72413636363637
 11
341.19799999999992
 21
163.83313636363638
  0
LINE
  8
_0-1_H0
  6
CONTINUOUS
 62
    3
 10
341.19799999999992
 20
163.83313636363638
 11
341.44099999999991
 21
163.94313636363636
  0
LINE
  8
_0-1_H0
  6
CONTINUOUS
 62
    3
 10
341.44099999999991
 20
163.94313636363636
 11
341.68399999999996
 21
164.05313636363638
  0
LINE
  8
_0-1_H0
  6
CONTINUOUS
 62
    3
 10
341.68399999999996
 20
164.05313636363638
 11
341.92699999999996
 21
164.16313636363636
  0
LINE
  8
_0-1_H0
  6
CONTINUOUS
 62
    3
 10
341.92699999999996
 20
164.16313636363636
 11
342.16999999999995
 21
164.27313636363638
  0
LINE
  8
_0-1_H0
  6
CONTINUOUS
 62
    3
 10
342.16999999999995
 20
164.27313636363638
 11
342.41299999999995
 21
164.38313636363636
  0
LINE
  8
_0-1_H0
  6
CONTINUOUS
 62
    3
 10
342.41299999999995
 20
164.38313636363636
 11
342.65499999999991
 21
164.49313636363638
  0
LINE
  8
_0-1_H0
  6
CONTINUOUS
 62
    3
 10
342.65499999999991
 20
164.49313636363638
 11
342.89799999999996
 21
164.60413636363637
  0
LINE
  8
_0-1_H0
  6
CONTINUOUS
 62
    3
 10
342.89799999999996
 20
164.60413636363637
 11
343.14099999999996
 21
164.71413636363638
  0
LINE
  8
_0-1_H0
  6
CONTINUOUS
 62
    3
 10
343.14099999999996
 20
164.71413636363638
 11
343.38399999999995
 21
164.82513636363637
  0
LINE
  8
_0-1_H0
  6
CONTINUOUS
 62
    3
 10
343.38399999999995
 20
164.82513636363637
 11
343.62599999999991
 21
164.93613636363636
  0
LINE
  8
_0-1_H0
  6
CONTINUOUS
 62
    3
 10
343.62599999999991
 20
164.93613636363636
 11
343.86899999999997
 21
165.04713636363638
  0
LINE
  8
_0-1_H0
  6
CONTINUOUS
 62
    3
 10
343.86899999999997
 20
165.04713636363638
 11
344.11099999999993
 21
165.15813636363637
  0
LINE
  8
_0-1_H0
  6
CONTINUOUS
 62
    3
 10
344.11099999999993
 20
165.15813636363637
 11
344.35399999999992
 21
165.27013636363636
  0
LINE
  8
_0-1_H0
  6
CONTINUOUS
 62
    3
 10
344.35399999999992
 20
165.27013636363636
 11
344.59599999999994
 21
165.38113636363635
  0
LINE
  8
_0-1_H0
  6
CONTINUOUS
 62
    3
 10
344.59599999999994
 20
165.38113636363635
 11
344.83799999999996
 21
165.49313636363638
  0
LINE
  8
_0-1_H0
  6
CONTINUOUS
 62
    3
 10
344.83799999999996
 20
165.49313636363638
 11
345.07999999999992
 21
165.60513636363637
  0
LINE
  8
_0-1_H0
  6
CONTINUOUS
 62
    3
 10
345.07999999999992
 20
165.60513636363637
 11
345.32199999999994
 21
165.71813636363637
  0
LINE
  8
_0-1_H0
  6
CONTINUOUS
 62
    3
 10
345.32199999999994
 20
165.71813636363637
 11
345.56299999999993
 21
165.83113636363637
  0
LINE
  8
_0-1_H0
  6
CONTINUOUS
 62
    3
 10
345.56299999999993
 20
165.83113636363637
 11
345.80499999999994
 21
165.94413636363637
  0
LINE
  8
_0-1_H0
  6
CONTINUOUS
 62
    3
 10
345.80499999999994
 20
165.94413636363637
 11
346.04599999999993
 21
166.05813636363637
  0
LINE
  8
_0-1_H0
  6
CONTINUOUS
 62
    3
 10
346.04599999999993
 20
166.05813636363637
 11
346.28699999999992
 21
166.17213636363638
  0
LINE
  8
_0-1_H0
  6
CONTINUOUS
 62
    3
 10
346.28699999999992
 20
166.17213636363638
 11
346.52799999999996
 21
166.28713636363636
  0
LINE
  8
_0-1_H0
  6
CONTINUOUS
 62
    3
 10
346.52799999999996
 20
166.28713636363636
 11
346.76799999999991
 21
166.40213636363637
  0
LINE
  8
_0-1_H0
  6
CONTINUOUS
 62
    3
 10
346.76799999999991
 20
166.40213636363637
 11
347.00899999999995
 21
166.51813636363635
  0
LINE
  8
_0-1_H0
  6
CONTINUOUS
 62
    3
 10
347.00899999999995
 20
166.51813636363635
 11
347.24899999999996
 21
166.63413636363637
  0
LINE
  8
_0-1_H0
  6
CONTINUOUS
 62
    3
 10
347.24899999999996
 20
166.63413636363637
 11
347.48799999999994
 21
166.75113636363636
  0
LINE
  8
_0-1_H0
  6
CONTINUOUS
 62
    3
 10
347.48799999999994
 20
166.75113636363636
 11
347.72699999999991
 21
166.86813636363638
  0
LINE
  8
_0-1_H0
  6
CONTINUOUS
 62
    3
 10
347.72699999999991
 20
166.86813636363638
 11
347.96599999999995
 21
166.98613636363637
  0
LINE
  8
_0-1_H0
  6
CONTINUOUS
 62
    3
 10
347.96599999999995
 20
166.98613636363637
 11
348.20499999999992
 21
167.10513636363637
  0
LINE
  8
_0-1_H0
  6
CONTINUOUS
 62
    3
 10
348.20499999999992
 20
167.10513636363637
 11
348.44299999999992
 21
167.22413636363637
  0
LINE
  8
_0-1_H0
  6
CONTINUOUS
 62
    3
 10
348.44299999999992
 20
167.22413636363637
 11
348.68099999999992
 21
167.34513636363638
  0
LINE
  8
_0-1_H0
  6
CONTINUOUS
 62
    3
 10
348.68099999999992
 20
167.34513636363638
 11
348.91799999999994
 21
167.46513636363636
  0
LINE
  8
_0-1_H0
  6
CONTINUOUS
 62
    3
 10
348.91799999999994
 20
167.46513636363636
 11
349.15499999999991
 21
167.58713636363637
  0
LINE
  8
_0-1_H0
  6
CONTINUOUS
 62
    3
 10
349.15499999999991
 20
167.58713636363637
 11
349.39099999999996
 21
167.71013636363636
  0
LINE
  8
_0-1_H0
  6
CONTINUOUS
 62
    3
 10
349.39099999999996
 20
167.71013636363636
 11
349.62699999999995
 21
167.83313636363638
  0
LINE
  8
_0-1_H0
  6
CONTINUOUS
 62
    3
 10
349.62699999999995
 20
167.83313636363638
 11
349.86299999999994
 21
167.95713636363637
  0
LINE
  8
_0-1_H0
  6
CONTINUOUS
 62
    3
 10
349.86299999999994
 20
167.95713636363637
 11
350.09799999999995
 21
168.08213636363637
  0
LINE
  8
_0-1_H0
  6
CONTINUOUS
 62
    3
 10
350.09799999999995
 20
168.08213636363637
 11
350.33199999999993
 21
168.20813636363638
  0
LINE
  8
_0-1_H0
  6
CONTINUOUS
 62
    3
 10
350.33199999999993
 20
168.20813636363638
 11
350.56599999999991
 21
168.33513636363636
  0
LINE
  8
_0-1_H0
  6
CONTINUOUS
 62
    3
 10
350.56599999999991
 20
168.33513636363636
 11
350.79899999999992
 21
168.46313636363638
  0
LINE
  8
_0-1_H0
  6
CONTINUOUS
 62
    3
 10
350.79899999999992
 20
168.46313636363638
 11
351.03199999999992
 21
168.59213636363637
  0
LINE
  8
_0-1_H0
  6
CONTINUOUS
 62
    3
 10
351.03199999999992
 20
168.59213636363637
 11
351.26399999999995
 21
168.72213636363636
  0
LINE
  8
_0-1_H0
  6
CONTINUOUS
 62
    3
 10
351.26399999999995
 20
168.72213636363636
 11
351.49599999999992
 21
168.85313636363636
  0
LINE
  8
_0-1_H0
  6
CONTINUOUS
 62
    3
 10
351.49599999999992
 20
168.85313636363636
 11
351.72699999999991
 21
168.98513636363637
  0
LINE
  8
_0-1_H0
  6
CONTINUOUS
 62
    3
 10
351.72699999999991
 20
168.98513636363637
 11
351.95699999999993
 21
169.11813636363638
  0
LINE
  8
_0-1_H0
  6
CONTINUOUS
 62
    3
 10
351.95699999999993
 20
169.11813636363638
 11
352.18699999999995
 21
169.25313636363637
  0
LINE
  8
_0-1_H0
  6
CONTINUOUS
 62
    3
 10
352.18699999999995
 20
169.25313636363637
 11
352.41499999999996
 21
169.38813636363636
  0
LINE
  8
_0-1_H0
  6
CONTINUOUS
 62
    3
 10
352.41499999999996
 20
169.38813636363636
 11
352.64399999999994
 21
169.52513636363636
  0
LINE
  8
_0-1_H0
  6
CONTINUOUS
 62
    3
 10
352.64399999999994
 20
169.52513636363636
 11
352.87099999999992
 21
169.66313636363636
  0
LINE
  8
_0-1_H0
  6
CONTINUOUS
 62
    3
 10
352.87099999999992
 20
169.66313636363636
 11
353.09799999999995
 21
169.80213636363637
  0
LINE
  8
_0-1_H0
  6
CONTINUOUS
 62
    3
 10
353.09799999999995
 20
169.80213636363637
 11
353.32399999999995
 21
169.94213636363636
  0
LINE
  8
_0-1_H0
  6
CONTINUOUS
 62
    3
 10
353.32399999999995
 20
169.94213636363636
 11
353.54999999999995
 21
170.08413636363636
  0
LINE
  8
_0-1_H0
  6
CONTINUOUS
 62
    3
 10
353.54999999999995
 20
170.08413636363636
 11
353.77399999999994
 21
170.22713636363636
  0
LINE
  8
_0-1_H0
  6
CONTINUOUS
 62
    3
 10
353.77399999999994
 20
170.22713636363636
 11
353.99799999999993
 21
170.37113636363636
  0
LINE
  8
_0-1_H0
  6
CONTINUOUS
 62
    3
 10
353.99799999999993
 20
170.37113636363636
 11
354.22099999999994
 21
170.51613636363637
  0
LINE
  8
_0-1_H0
  6
CONTINUOUS
 62
    3
 10
354.22099999999994
 20
170.51613636363637
 11
354.44399999999995
 21
170.66213636363636
  0
LINE
  8
_0-1_H0
  6
CONTINUOUS
 62
    3
 10
354.44399999999995
 20
170.66213636363636
 11
354.66599999999993
 21
170.80913636363638
  0
LINE
  8
_0-1_H0
  6
CONTINUOUS
 62
    3
 10
354.66599999999993
 20
170.80913636363638
 11
354.88699999999994
 21
170.95813636363638
  0
LINE
  8
_0-1_H0
  6
CONTINUOUS
 62
    3
 10
354.88699999999994
 20
170.95813636363638
 11
355.10699999999997
 21
171.10713636363638
  0
LINE
  8
_0-1_H0
  6
CONTINUOUS
 62
    3
 10
355.10699999999997
 20
171.10713636363638
 11
355.32699999999994
 21
171.25813636363636
  0
LINE
  8
_0-1_H0
  6
CONTINUOUS
 62
    3
 10
355.32699999999994
 20
171.25813636363636
 11
355.54599999999993
 21
171.41013636363638
  0
LINE
  8
_0-1_H0
  6
CONTINUOUS
 62
    3
 10
355.54599999999993
 20
171.41013636363638
 11
355.76399999999995
 21
171.56213636363636
  0
LINE
  8
_0-1_H0
  6
CONTINUOUS
 62
    3
 10
355.76399999999995
 20
171.56213636363636
 11
355.98199999999997
 21
171.71613636363636
  0
LINE
  8
_0-1_H0
  6
CONTINUOUS
 62
    3
 10
355.98199999999997
 20
171.71613636363636
 11
356.19899999999995
 21
171.87113636363636
  0
LINE
  8
_0-1_H0
  6
CONTINUOUS
 62
    3
 10
356.19899999999995
 20
171.87113636363636
 11
356.41499999999996
 21
172.02713636363637
  0
LINE
  8
_0-1_H0
  6
CONTINUOUS
 62
    3
 10
356.41499999999996
 20
172.02713636363637
 11
356.62999999999993
 21
172.18413636363638
  0
LINE
  8
_0-1_H0
  6
CONTINUOUS
 62
    3
 10
356.62999999999993
 20
172.18413636363638
 11
356.84499999999997
 21
172.34213636363637
  0
LINE
  8
_0-1_H0
  6
CONTINUOUS
 62
    3
 10
356.84499999999997
 20
172.34213636363637
 11
357.05899999999996
 21
172.50213636363636
  0
LINE
  8
_0-1_H0
  6
CONTINUOUS
 62
    3
 10
357.05899999999996
 20
172.50213636363636
 11
357.27299999999996
 21
172.66213636363636
  0
LINE
  8
_0-1_H0
  6
CONTINUOUS
 62
    3
 10
357.27299999999996
 20
172.66213636363636
 11
357.48499999999995
 21
172.82313636363636
  0
LINE
  8
_0-1_H0
  6
CONTINUOUS
 62
    3
 10
357.48499999999995
 20
172.82313636363636
 11
357.69699999999994
 21
172.98513636363637
  0
LINE
  8
_0-1_H0
  6
CONTINUOUS
 62
    3
 10
357.69699999999994
 20
172.98513636363637
 11
357.90799999999995
 21
173.14813636363638
  0
LINE
  8
_0-1_H0
  6
CONTINUOUS
 62
    3
 10
357.90799999999995
 20
173.14813636363638
 11
358.11899999999997
 21
173.31213636363636
  0
LINE
  8
_0-1_H0
  6
CONTINUOUS
 62
    3
 10
358.11899999999997
 20
173.31213636363636
 11
358.32899999999995
 21
173.47713636363636
  0
LINE
  8
_0-1_H0
  6
CONTINUOUS
 62
    3
 10
358.32899999999995
 20
173.47713636363636
 11
358.53799999999995
 21
173.64313636363635
  0
LINE
  8
_0-1_H0
  6
CONTINUOUS
 62
    3
 10
358.53799999999995
 20
173.64313636363635
 11
358.74599999999992
 21
173.81013636363636
  0
LINE
  8
_0-1_H0
  6
CONTINUOUS
 62
    3
 10
358.74599999999992
 20
173.81013636363636
 11
358.95399999999995
 21
173.97813636363636
  0
LINE
  8
_0-1_H0
  6
CONTINUOUS
 62
    3
 10
358.95399999999995
 20
173.97813636363636
 11
359.16099999999994
 21
174.14613636363637
  0
LINE
  8
_0-1_H0
  6
CONTINUOUS
 62
    3
 10
359.16099999999994
 20
174.14613636363637
 11
359.36699999999996
 21
174.31613636363636
  0
LINE
  8
_0-1_H0
  6
CONTINUOUS
 62
    3
 10
359.36699999999996
 20
174.31613636363636
 11
359.57299999999992
 21
174.48713636363638
  0
LINE
  8
_0-1_H0
  6
CONTINUOUS
 62
    3
 10
359.57299999999992
 20
174.48713636363638
 11
359.77799999999996
 21
174.65813636363637
  0
LINE
  8
_0-1_H0
  6
CONTINUOUS
 62
    3
 10
359.77799999999996
 20
174.65813636363637
 11
359.98199999999997
 21
174.83013636363637
  0
LINE
  8
_0-1_H0
  6
CONTINUOUS
 62
    3
 10
359.98199999999997
 20
174.83013636363637
 11
360.18499999999994
 21
175.00313636363637
  0
LINE
  8
_0-1_H0
  6
CONTINUOUS
 62
    3
 10
360.18499999999994
 20
175.00313636363637
 11
360.38799999999991
 21
175.17713636363637
  0
LINE
  8
_0-1_H0
  6
CONTINUOUS
 62
    3
 10
360.38799999999991
 20
175.17713636363637
 11
360.58999999999991
 21
175.35213636363636
  0
LINE
  8
_0-1_H0
  6
CONTINUOUS
 62
    3
 10
360.58999999999991
 20
175.35213636363636
 11
360.79099999999993
 21
175.52813636363637
  0
LINE
  8
_0-1_H0
  6
CONTINUOUS
 62
    3
 10
360.79099999999993
 20
175.52813636363637
 11
360.99199999999996
 21
175.70413636363636
  0
LINE
  8
_0-1_H0
  6
CONTINUOUS
 62
    3
 10
360.99199999999996
 20
175.70413636363636
 11
361.19199999999995
 21
175.88213636363636
  0
LINE
  8
_0-1_H0
  6
CONTINUOUS
 62
    3
 10
361.19199999999995
 20
175.88213636363636
 11
361.39099999999996
 21
176.06013636363636
  0
LINE
  8
_0-1_H0
  6
CONTINUOUS
 62
    3
 10
361.39099999999996
 20
176.06013636363636
 11
361.58999999999991
 21
176.23913636363636
  0
LINE
  8
_0-1_H0
  6
CONTINUOUS
 62
    3
 10
361.58999999999991
 20
176.23913636363636
 11
361.78799999999995
 21
176.41813636363636
  0
LINE
  8
_0-1_H0
  6
CONTINUOUS
 62
    3
 10
361.78799999999995
 20
176.41813636363636
 11
361.98499999999995
 21
176.59913636363637
  0
LINE
  8
_0-1_H0
  6
CONTINUOUS
 62
    3
 10
361.98499999999995
 20
176.59913636363637
 11
362.18099999999992
 21
176.78013636363635
  0
LINE
  8
_0-1_H0
  6
CONTINUOUS
 62
    3
 10
362.18099999999992
 20
176.78013636363635
 11
362.37699999999995
 21
176.96213636363637
  0
LINE
  8
_0-1_H0
  6
CONTINUOUS
 62
    3
 10
362.37699999999995
 20
176.96213636363637
 11
362.57199999999994
 21
177.14513636363636
  0
LINE
  8
_0-1_H0
  6
CONTINUOUS
 62
    3
 10
362.57199999999994
 20
177.14513636363636
 11
362.76599999999996
 21
177.32813636363636
  0
LINE
  8
_0-1_H0
  6
CONTINUOUS
 62
    3
 10
362.76599999999996
 20
177.32813636363636
 11
362.95999999999992
 21
177.51213636363635
  0
LINE
  8
_0-1_H0
  6
CONTINUOUS
 62
    3
 10
362.95999999999992
 20
177.51213636363635
 11
363.15199999999992
 21
177.69713636363636
  0
LINE
  8
_0-1_H0
  6
CONTINUOUS
 62
    3
 10
363.15199999999992
 20
177.69713636363636
 11
363.34499999999997
 21
177.88313636363636
  0
LINE
  8
_0-1_H0
  6
CONTINUOUS
 62
    3
 10
363.34499999999997
 20
177.88313636363636
 11
363.53599999999994
 21
178.06913636363637
  0
LINE
  8
_0-1_H0
  6
CONTINUOUS
 62
    3
 10
363.53599999999994
 20
178.06913636363637
 11
363.72699999999991
 21
178.25713636363636
  0
LINE
  8
_0-1_H0
  6
CONTINUOUS
 62
    3
 10
363.72699999999991
 20
178.25713636363636
 11
363.91699999999991
 21
178.44413636363637
  0
LINE
  8
_0-1_H0
  6
CONTINUOUS
 62
    3
 10
363.91699999999991
 20
178.44413636363637
 11
364.10599999999993
 21
178.63313636363636
  0
LINE
  8
_0-1_H0
  6
CONTINUOUS
 62
    3
 10
364.10599999999993
 20
178.63313636363636
 11
364.29399999999992
 21
178.82213636363636
  0
LINE
  8
_0-1_H0
  6
CONTINUOUS
 62
    3
 10
364.29399999999992
 20
178.82213636363636
 11
364.48199999999997
 21
179.01213636363635
  0
LINE
  8
_0-1_H0
  6
CONTINUOUS
 62
    3
 10
364.48199999999997
 20
179.01213636363635
 11
364.66899999999992
 21
179.20313636363636
  0
LINE
  8
_0-1_H0
  6
CONTINUOUS
 62
    3
 10
364.66899999999992
 20
179.20313636363636
 11
364.85499999999996
 21
179.39413636363636
  0
LINE
  8
_0-1_H0
  6
CONTINUOUS
 62
    3
 10
364.85499999999996
 20
179.39413636363636
 11
365.04099999999993
 21
179.58713636363637
  0
LINE
  8
_0-1_H0
  6
CONTINUOUS
 62
    3
 10
365.04099999999993
 20
179.58713636363637
 11
365.22599999999994
 21
179.77913636363638
  0
LINE
  8
_0-1_H0
  6
CONTINUOUS
 62
    3
 10
365.22599999999994
 20
179.77913636363638
 11
365.40999999999996
 21
179.97313636363637
  0
LINE
  8
_0-1_H0
  6
CONTINUOUS
 62
    3
 10
365.40999999999996
 20
179.97313636363637
 11
365.59299999999996
 21
180.16713636363635
  0
LINE
  8
_0-1_H0
  6
CONTINUOUS
 62
    3
 10
365.59299999999996
 20
180.16713636363635
 11
365.77499999999992
 21
180.36213636363638
  0
LINE
  8
_0-1_H0
  6
CONTINUOUS
 62
    3
 10
365.77499999999992
 20
180.36213636363638
 11
365.95699999999993
 21
180.55813636363637
  0
LINE
  8
_0-1_H0
  6
CONTINUOUS
 62
    3
 10
365.95699999999993
 20
180.55813636363637
 11
366.13799999999991
 21
180.75413636363637
  0
LINE
  8
_0-1_H0
  6
CONTINUOUS
 62
    3
 10
366.13799999999991
 20
180.75413636363637
 11
366.31799999999992
 21
180.95113636363637
  0
LINE
  8
_0-1_H0
  6
CONTINUOUS
 62
    3
 10
366.31799999999992
 20
180.95113636363637
 11
366.49799999999993
 21
181.14913636363635
  0
LINE
  8
_0-1_H0
  6
CONTINUOUS
 62
    3
 10
366.49799999999993
 20
181.14913636363635
 11
366.67599999999993
 21
181.34713636363636
  0
LINE
  8
_0-1_H0
  6
CONTINUOUS
 62
    3
 10
366.67599999999993
 20
181.34713636363636
 11
366.85399999999992
 21
181.54613636363637
  0
LINE
  8
_0-1_H0
  6
CONTINUOUS
 62
    3
 10
366.85399999999992
 20
181.54613636363637
 11
367.03099999999994
 21
181.74613636363636
  0
LINE
  8
_0-1_H0
  6
CONTINUOUS
 62
    3
 10
367.03099999999994
 20
181.74613636363636
 11
367.20699999999993
 21
181.94613636363638
  0
LINE
  8
_0-1_H0
  6
CONTINUOUS
 62
    3
 10
367.20699999999993
 20
181.94613636363638
 11
367.38299999999992
 21
182.14713636363637
  0
LINE
  8
_0-1_H0
  6
CONTINUOUS
 62
    3
 10
367.38299999999992
 20
182.14713636363637
 11
367.55699999999995
 21
182.34913636363637
  0
LINE
  8
_0-1_H0
  6
CONTINUOUS
 62
    3
 10
367.55699999999995
 20
182.34913636363637
 11
367.73099999999993
 21
182.55113636363637
  0
LINE
  8
_0-1_H0
  6
CONTINUOUS
 62
    3
 10
367.73099999999993
 20
182.55113636363637
 11
367.90399999999993
 21
182.75413636363637
  0
LINE
  8
_0-1_H0
  6
CONTINUOUS
 62
    3
 10
367.90399999999993
 20
182.75413636363637
 11
368.07699999999994
 21
182.95813636363638
  0
LINE
  8
_0-1_H0
  6
CONTINUOUS
 62
    3
 10
368.07699999999994
 20
182.95813636363638
 11
368.24799999999993
 21
183.16213636363636
  0
LINE
  8
_0-1_H0
  6
CONTINUOUS
 62
    3
 10
368.24799999999993
 20
183.16213636363636
 11
368.41899999999992
 21
183.36713636363637
  0
LINE
  8
_0-1_H0
  6
CONTINUOUS
 62
    3
 10
368.41899999999992
 20
183.36713636363637
 11
368.58899999999994
 21
183.57213636363636
  0
LINE
  8
_0-1_H0
  6
CONTINUOUS
 62
    3
 10
368.58899999999994
 20
183.57213636363636
 11
368.75799999999992
 21
183.77913636363638
  0
LINE
  8
_0-1_H0
  6
CONTINUOUS
 62
    3
 10
368.75799999999992
 20
183.77913636363638
 11
368.92599999999993
 21
183.98613636363637
  0
LINE
  8
_0-1_H0
  6
CONTINUOUS
 62
    3
 10
368.92599999999993
 20
183.98613636363637
 11
369.09299999999996
 21
184.19313636363636
  0
LINE
  8
_0-1_H0
  6
CONTINUOUS
 62
    3
 10
369.09299999999996
 20
184.19313636363636
 11
369.25999999999993
 21
184.40113636363636
  0
LINE
  8
_0-1_H0
  6
CONTINUOUS
 62
    3
 10
369.25999999999993
 20
184.40113636363636
 11
369.42499999999995
 21
184.61013636363637
  0
LINE
  8
_0-1_H0
  6
CONTINUOUS
 62
    3
 10
369.42499999999995
 20
184.61013636363637
 11
369.58999999999991
 21
184.81913636363637
  0
LINE
  8
_0-1_H0
  6
CONTINUOUS
 62
    3
 10
369.58999999999991
 20
184.81913636363637
 11
369.75399999999996
 21
185.02913636363638
  0
LINE
  8
_0-1_H0
  6
CONTINUOUS
 62
    3
 10
369.75399999999996
 20
185.02913636363638
 11
369.91799999999994
 21
185.24013636363636
  0
LINE
  8
_0-1_H0
  6
CONTINUOUS
 62
    3
 10
369.91799999999994
 20
185.24013636363636
 11
370.07999999999992
 21
185.45113636363637
  0
LINE
  8
_0-1_H0
  6
CONTINUOUS
 62
    3
 10
370.07999999999992
 20
185.45113636363637
 11
370.24199999999996
 21
185.66213636363636
  0
LINE
  8
_0-1_H0
  6
CONTINUOUS
 62
    3
 10
370.24199999999996
 20
185.66213636363636
 11
370.40199999999992
 21
185.87513636363635
  0
LINE
  8
_0-1_H0
  6
CONTINUOUS
 62
    3
 10
370.40199999999992
 20
185.87513636363635
 11
370.56199999999995
 21
186.08813636363638
  0
LINE
  8
_0-1_H0
  6
CONTINUOUS
 62
    3
 10
370.56199999999995
 20
186.08813636363638
 11
370.72099999999994
 21
186.30113636363637
  0
LINE
  8
_0-1_H0
  6
CONTINUOUS
 62
    3
 10
370.72099999999994
 20
186.30113636363637
 11
370.87899999999996
 21
186.51613636363637
  0
LINE
  8
_0-1_H0
  6
CONTINUOUS
 62
    3
 10
370.87899999999996
 20
186.51613636363637
 11
371.03599999999994
 21
186.73013636363637
  0
LINE
  8
_0-1_H0
  6
CONTINUOUS
 62
    3
 10
371.03599999999994
 20
186.73013636363637
 11
371.19299999999992
 21
186.94613636363638
  0
LINE
  8
_0-1_H0
  6
CONTINUOUS
 62
    3
 10
371.19299999999992
 20
186.94613636363638
 11
371.34799999999995
 21
187.16213636363636
  0
LINE
  8
_0-1_H0
  6
CONTINUOUS
 62
    3
 10
371.34799999999995
 20
187.16213636363636
 11
371.50299999999992
 21
187.37813636363637
  0
LINE
  8
_0-1_H0
  6
CONTINUOUS
 62
    3
 10
371.50299999999992
 20
187.37813636363637
 11
371.65699999999992
 21
187.59513636363638
  0
LINE
  8
_0-1_H0
  6
CONTINUOUS
 62
    3
 10
371.65699999999992
 20
187.59513636363638
 11
371.80899999999996
 21
187.81313636363637
  0
LINE
  8
_0-1_H0
  6
CONTINUOUS
 62
    3
 10
371.80899999999996
 20
187.81313636363637
 11
371.96199999999993
 21
188.03113636363636
  0
LINE
  8
_0-1_H0
  6
CONTINUOUS
 62
    3
 10
371.96199999999993
 20
188.03113636363636
 11
372.11299999999994
 21
188.25013636363635
  0
LINE
  8
_0-1_H0
  6
CONTINUOUS
 62
    3
 10
372.11299999999994
 20
188.25013636363635
 11
372.26299999999991
 21
188.46913636363638
  0
LINE
  8
_0-1_H0
  6
CONTINUOUS
 62
    3
 10
372.26299999999991
 20
188.46913636363638
 11
372.41299999999995
 21
188.68913636363637
  0
LINE
  8
_0-1_H0
  6
CONTINUOUS
 62
    3
 10
372.41299999999995
 20
188.68913636363637
 11
372.56099999999992
 21
188.90913636363637
  0
LINE
  8
_0-1_H0
  6
CONTINUOUS
 62
    3
 10
372.56099999999992
 20
188.90913636363637
 11
372.70899999999994
 21
189.13013636363638
  0
LINE
  8
_0-1_H0
  6
CONTINUOUS
 62
    3
 10
372.70899999999994
 20
189.13013636363638
 11
372.85599999999993
 21
189.35213636363636
  0
LINE
  8
_0-1_H0
  6
CONTINUOUS
 62
    3
 10
372.85599999999993
 20
189.35213636363636
 11
373.00299999999992
 21
189.57413636363637
  0
LINE
  8
_0-1_H0
  6
CONTINUOUS
 62
    3
 10
373.00299999999992
 20
189.57413636363637
 11
373.14799999999996
 21
189.79613636363637
  0
LINE
  8
_0-1_H0
  6
CONTINUOUS
 62
    3
 10
373.14799999999996
 20
189.79613636363637
 11
373.29299999999994
 21
190.01913636363636
  0
LINE
  8
_0-1_H0
  6
CONTINUOUS
 62
    3
 10
373.29299999999994
 20
190.01913636363636
 11
373.43699999999995
 21
190.24213636363637
  0
LINE
  8
_0-1_H0
  6
CONTINUOUS
 62
    3
 10
373.43699999999995
 20
190.24213636363637
 11
373.58099999999996
 21
190.46613636363636
  0
LINE
  8
_0-1_H0
  6
CONTINUOUS
 62
    3
 10
373.58099999999996
 20
190.46613636363636
 11
373.72299999999995
 21
190.69013636363638
  0
LINE
  8
_0-1_H0
  6
CONTINUOUS
 62
    3
 10
373.72299999999995
 20
190.69013636363638
 11
373.86499999999995
 21
190.91513636363637
  0
LINE
  8
_0-1_H0
  6
CONTINUOUS
 62
    3
 10
373.86499999999995
 20
190.91513636363637
 11
374.00699999999994
 21
191.14013636363637
  0
LINE
  8
_0-1_H0
  6
CONTINUOUS
 62
    3
 10
374.00699999999994
 20
191.14013636363637
 11
374.14699999999993
 21
191.36613636363637
  0
LINE
  8
_0-1_H0
  6
CONTINUOUS
 62
    3
 10
374.14699999999993
 20
191.36613636363637
 11
374.28699999999992
 21
191.59213636363637
  0
LINE
  8
_0-1_H0
  6
CONTINUOUS
 62
    3
 10
374.28699999999992
 20
191.59213636363637
 11
374.42699999999996
 21
191.81913636363637
  0
LINE
  8
_0-1_H0
  6
CONTINUOUS
 62
    3
 10
374.42699999999996
 20
191.81913636363637
 11
374.56499999999994
 21
192.04613636363637
  0
LINE
  8
_0-1_H0
  6
CONTINUOUS
 62
    3
 10
374.56499999999994
 20
192.04613636363637
 11
374.70299999999991
 21
192.27313636363638
  0
LINE
  8
_0-1_H0
  6
CONTINUOUS
 62
    3
 10
374.70299999999991
 20
192.27313636363638
 11
374.84099999999995
 21
192.50113636363636
  0
LINE
  8
_0-1_H0
  6
CONTINUOUS
 62
    3
 10
374.84099999999995
 20
192.50113636363636
 11
374.97799999999995
 21
192.72913636363637
  0
LINE
  8
_0-1_H0
  6
CONTINUOUS
 62
    3
 10
374.97799999999995
 20
192.72913636363637
 11
375.11399999999991
 21
192.95813636363638
  0
LINE
  8
_0-1_H0
  6
CONTINUOUS
 62
    3
 10
375.11399999999991
 20
192.95813636363638
 11
375.24999999999994
 21
193.18713636363636
  0
LINE
  8
_0-1_H0
  6
CONTINUOUS
 62
    3
 10
375.24999999999994
 20
193.18713636363636
 11
375.38499999999993
 21
193.41613636363638
  0
LINE
  8
_0-1_H0
  6
CONTINUOUS
 62
    3
 10
375.38499999999993
 20
193.41613636363638
 11
375.51899999999994
 21
193.64513636363636
  0
LINE
  8
_0-1_H0
  6
CONTINUOUS
 62
    3
 10
375.51899999999994
 20
193.64513636363636
 11
375.65299999999996
 21
193.87613636363636
  0
LINE
  8
_0-1_H0
  6
CONTINUOUS
 62
    3
 10
375.65299999999996
 20
193.87613636363636
 11
375.78699999999992
 21
194.10613636363638
  0
LINE
  8
_0-1_H0
  6
CONTINUOUS
 62
    3
 10
375.78699999999992
 20
194.10613636363638
 11
375.91999999999995
 21
194.33713636363637
  0
LINE
  8
_0-1_H0
  6
CONTINUOUS
 62
    3
 10
375.91999999999995
 20
194.33713636363637
 11
376.05199999999996
 21
194.56813636363636
  0
LINE
  8
_0-1_H0
  6
CONTINUOUS
 62
    3
 10
376.05199999999996
 20
194.56813636363636
 11
376.18399999999996
 21
194.79913636363636
  0
LINE
  8
_0-1_H0
  6
CONTINUOUS
 62
    3
 10
376.18399999999996
 20
194.79913636363636
 11
376.31599999999991
 21
195.03113636363636
  0
LINE
  8
_0-1_H0
  6
CONTINUOUS
 62
    3
 10
376.31599999999991
 20
195.03113636363636
 11
376.44699999999994
 21
195.26313636363636
  0
LINE
  8
_0-1_H0
  6
CONTINUOUS
 62
    3
 10
376.44699999999994
 20
195.26313636363636
 11
376.57699999999994
 21
195.49513636363636
  0
LINE
  8
_0-1_H0
  6
CONTINUOUS
 62
    3
 10
376.57699999999994
 20
195.49513636363636
 11
376.70699999999993
 21
195.72713636363636
  0
LINE
  8
_0-1_H0
  6
CONTINUOUS
 62
    3
 10
376.70699999999993
 20
195.72713636363636
 11
376.83699999999993
 21
195.96013636363636
  0
LINE
  8
_0-1_H0
  6
CONTINUOUS
 62
    3
 10
376.83699999999993
 20
195.96013636363636
 11
376.96599999999995
 21
196.19313636363636
  0
LINE
  8
_0-1_H0
  6
CONTINUOUS
 62
    3
 10
376.96599999999995
 20
196.19313636363636
 11
377.09499999999997
 21
196.42713636363637
  0
LINE
  8
_0-1_H0
  6
CONTINUOUS
 62
    3
 10
377.09499999999997
 20
196.42713636363637
 11
377.22399999999993
 21
196.66013636363638
  0
LINE
  8
_0-1_H0
  6
CONTINUOUS
 62
    3
 10
377.22399999999993
 20
196.66013636363638
 11
377.35199999999991
 21
196.89413636363636
  0
LINE
  8
_0-1_H0
  6
CONTINUOUS
 62
    3
 10
377.35199999999991
 20
196.89413636363636
 11
377.47999999999996
 21
197.12813636363637
  0
LINE
  8
_0-1_H0
  6
CONTINUOUS
 62
    3
 10
377.47999999999996
 20
197.12813636363637
 11
377.60699999999997
 21
197.36313636363638
  0
LINE
  8
_0-1_H0
  6
CONTINUOUS
 62
    3
 10
377.60699999999997
 20
197.36313636363638
 11
377.73399999999992
 21
197.59713636363636
  0
LINE
  8
_0-1_H0
  6
CONTINUOUS
 62
    3
 10
377.73399999999992
 20
197.59713636363636
 11
377.86099999999993
 21
197.83213636363637
  0
LINE
  8
_0-1_H0
  6
CONTINUOUS
 62
    3
 10
377.86099999999993
 20
197.83213636363637
 11
377.98699999999996
 21
198.06713636363636
  0
LINE
  8
_0-1_H0
  6
CONTINUOUS
 62
    3
 10
377.98699999999996
 20
198.06713636363636
 11
378.11299999999994
 21
198.30213636363637
  0
LINE
  8
_0-1_H0
  6
CONTINUOUS
 62
    3
 10
378.11299999999994
 20
198.30213636363637
 11
378.23899999999991
 21
198.53813636363636
  0
LINE
  8
_0-1_H0
  6
CONTINUOUS
 62
    3
 10
378.23899999999991
 20
198.53813636363636
 11
378.36499999999995
 21
198.77313636363638
  0
LINE
  8
_0-1_H0
  6
CONTINUOUS
 62
    3
 10
378.36499999999995
 20
198.77313636363638
 11
378.48999999999995
 21
199.00913636363637
  0
LINE
  8
_0-1_H0
  6
CONTINUOUS
 62
    3
 10
378.48999999999995
 20
199.00913636363637
 11
378.61499999999995
 21
199.24513636363636
  0
LINE
  8
_0-1_H0
  6
CONTINUOUS
 62
    3
 10
378.61499999999995
 20
199.24513636363636
 11
378.73999999999995
 21
199.48113636363638
  0
LINE
  8
_0-1_H0
  6
CONTINUOUS
 62
    3
 10
378.73999999999995
 20
199.48113636363638
 11
378.86399999999991
 21
199.71713636363637
  0
LINE
  8
_0-1_H0
  6
CONTINUOUS
 62
    3
 10
378.86399999999991
 20
199.71713636363637
 11
378.98899999999991
 21
199.95413636363636
  0
LINE
  8
_0-1_H0
  6
CONTINUOUS
 62
    3
 10
378.98899999999991
 20
199.95413636363636
 11
379.11299999999994
 21
200.19013636363638
  0
LINE
  8
_0-1_H0
  6
CONTINUOUS
 62
    3
 10
379.11299999999994
 20
200.19013636363638
 11
379.23699999999996
 21
200.42713636363637
  0
LINE
  8
_0-1_H0
  6
CONTINUOUS
 62
    3
 10
379.23699999999996
 20
200.42713636363637
 11
379.35999999999995
 21
200.66413636363637
  0
LINE
  8
_0-1_H0
  6
CONTINUOUS
 62
    3
 10
379.35999999999995
 20
200.66413636363637
 11
379.48399999999992
 21
200.90013636363636
  0
LINE
  8
_0-1_H0
  6
CONTINUOUS
 62
    3
 10
379.48399999999992
 20
200.90013636363636
 11
379.60699999999997
 21
201.13713636363635
  0
LINE
  8
_0-1_H0
  6
CONTINUOUS
 62
    3
 10
379.60699999999997
 20
201.13713636363635
 11
379.72999999999996
 21
201.37513636363635
  0
LINE
  8
_0-1_H0
  6
CONTINUOUS
 62
    3
 10
379.72999999999996
 20
201.37513636363635
 11
379.85399999999992
 21
201.61213636363638
  0
LINE
  8
_0-1_H0
  6
CONTINUOUS
 62
    3
 10
379.85399999999992
 20
201.61213636363638
 11
379.97699999999991
 21
201.84913636363637
  0
LINE
  8
_0-1_H0
  6
CONTINUOUS
 62
    3
 10
379.97699999999991
 20
201.84913636363637
 11
380.09899999999993
 21
202.08613636363637
  0
LINE
  8
_0-1_H0
  6
CONTINUOUS
 62
    3
 10
380.09899999999993
 20
202.08613636363637
 11
380.22199999999992
 21
202.32413636363637
  0
LINE
  8
_0-1_H0
  6
CONTINUOUS
 62
    3
 10
380.22199999999992
 20
202.32413636363637
 11
380.34499999999997
 21
202.56113636363636
  0
LINE
  8
_0-1_H0
  6
CONTINUOUS
 62
    3
 10
380.34499999999997
 20
202.56113636363636
 11
380.46699999999992
 21
202.79913636363636
  0
LINE
  8
_0-1_H0
  6
CONTINUOUS
 62
    3
 10
380.46699999999992
 20
202.79913636363636
 11
380.58999999999991
 21
203.03613636363635
  0
LINE
  8
_0-1_H0
  6
CONTINUOUS
 62
    3
 10
380.58999999999991
 20
203.03613636363635
 11
380.71299999999996
 21
203.27413636363635
  0
LINE
  8
_0-1_H0
  6
CONTINUOUS
 62
    3
 10
380.71299999999996
 20
203.27413636363635
 11
380.83499999999992
 21
203.51113636363638
  0
LINE
  8
_0-1_H0
  6
CONTINUOUS
 62
    3
 10
380.83499999999992
 20
203.51113636363638
 11
380.95699999999993
 21
203.74913636363638
  0
LINE
  8
_0-1_H0
  6
CONTINUOUS
 62
    3
 10
380.95699999999993
 20
203.74913636363638
 11
381.07999999999992
 21
203.98713636363638
  0
LINE
  8
_0-1_H0
  6
CONTINUOUS
 62
    3
 10
267.50000000000005
 20
262.24113636363637
 11
407.50000000000005
 21
262.24113636363637
  0
LINE
  8
_0-1_H0
  6
CONTINUOUS
 62
    3
 10
407.50000000000005
 20
277.24113636363637
 11
267.50000000000005
 21
277.24113636363637
  0
LINE
  8
_0-1_H0
  6
CONTINUOUS
 62
    3
 10
407.50000000000005
 20
277.24113636363637
 11
267.50000000000005
 21
277.24113636363637
  0
INSERT
  2
-098-_U74
  8
_0-0_0
 10
-2.5000000000000568
 20
0.2411363636363716
 41
1
 42
1
 50
0
  0
INSERT
  2
-099-_U75
  8
_0-0_0
 10
-2.5000000000000568
 20
0.2411363636363716
 41
1
 42
1
 50
0
  0
INSERT
  2
-100-_U76
  8
_0-0_0
 10
-2.5000000000000568
 20
0.2411363636363716
 41
1
 42
1
 50
0
  0
INSERT
  2
-101-_U77
  8
_0-0_0
 10
-2.5000000000000568
 20
0.2411363636363716
 41
1
 42
1
 50
0
  0
INSERT
  2
-102-_U78
  8
_0-0_0
 10
-2.5000000000000568
 20
0.2411363636363716
 41
1
 42
1
 50
0
  0
INSERT
  2
-103-_U79
  8
_0-0_0
 10
-2.5000000000000568
 20
0.2411363636363716
 41
1
 42
1
 50
0
  0
INSERT
  2
-104-_U80
  8
_0-0_0
 10
-2.5000000000000568
 20
0.2411363636363716
 41
1
 42
1
 50
0
  0
INSERT
  2
-105-_U81
  8
_0-0_0
 10
-2.5000000000000568
 20
0.2411363636363716
 41
1
 42
1
 50
0
  0
INSERT
  2
-106-_U82
  8
_0-0_0
 10
-2.5000000000000568
 20
0.2411363636363716
 41
1
 42
1
 50
0
  0
LINE
  8
_0-1_H0
  6
CONTINUOUS
 62
    3
 10
267.50000000000005
 20
277.24113636363637
 11
407.50000000000005
 21
277.24113636363637
  0
LINE
  8
_0-1_H0
  6
CONTINUOUS
 62
    3
 10
407.50000000000005
 20
272.24113636363637
 11
267.50000000000005
 21
272.24113636363637
  0
LINE
  8
_0-1_H0
  6
CONTINUOUS
 62
    3
 10
267.50000000000005
 20
267.24113636363637
 11
407.50000000000005
 21
267.24113636363637
  0
LINE
  8
_0-1_H0
  6
CONTINUOUS
 62
    3
 10
267.50000000000005
 20
282.24113636363637
 11
407.50000000000005
 21
282.24113636363637
  0
LINE
  8
_0-1_H0
  6
CONTINUOUS
 62
    3
 10
267.50000000000005
 20
227.24113636363648
 11
267.50000000000005
 21
287.24113636363637
  0
LINE
  8
_0-1_H0
  6
CONTINUOUS
 62
    3
 10
277.50000000000005
 20
227.24113636363648
 11
277.50000000000005
 21
282.24113636363637
  0
LINE
  8
_0-1_H0
  6
CONTINUOUS
 62
    3
 10
312.50000000000005
 20
227.24113636363648
 11
312.50000000000005
 21
282.24113636363637
  0
INSERT
  2
-107-_U83
  8
_0-0_0
 10
-2.5000000000000568
 20
0.2411363636363716
 41
1
 42
1
 50
0
  0
INSERT
  2
-108-_U84
  8
_0-0_0
 10
-2.5000000000000568
 20
0.2411363636363716
 41
1
 42
1
 50
0
  0
LINE
  8
_0-1_H0
  6
CONTINUOUS
 62
    3
 10
267.50000000000005
 20
252.24113636363637
 11
407.50000000000005
 21
252.24113636363637
  0
INSERT
  2
-109-_U85
  8
_0-0_0
 10
-2.5000000000000568
 20
0.2411363636363716
 41
1
 42
1
 50
0
  0
INSERT
  2
-110-_U86
  8
_0-0_0
 10
-2.5000000000000568
 20
0.2411363636363716
 41
1
 42
1
 50
0
  0
LINE
  8
_0-1_H0
  6
CONTINUOUS
 62
    3
 10
407.50000000000005
 20
262.24113636363637
 11
267.50000000000005
 21
262.24113636363637
  0
LINE
  8
_0-1_H0
  6
CONTINUOUS
 62
    3
 10
267.50000000000005
 20
257.24113636363637
 11
407.50000000000005
 21
257.24113636363637
  0
INSERT
  2
-111-_U87
  8
_0-0_0
 10
-2.5000000000000568
 20
0.2411363636363716
 41
1
 42
1
 50
0
  0
INSERT
  2
-112-_U88
  8
_0-0_0
 10
-2.5000000000000568
 20
0.2411363636363716
 41
1
 42
1
 50
0
  0
LINE
  8
_0-1_H0
  6
CONTINUOUS
 62
    3
 10
267.50000000000005
 20
247.24113636363648
 11
407.50000000000005
 21
247.24113636363648
  0
INSERT
  2
-113-_U89
  8
_0-0_0
 10
-2.5000000000000568
 20
0.2411363636363716
 41
1
 42
1
 50
0
  0
LINE
  8
_0-1_H0
  6
CONTINUOUS
 62
    3
 10
267.50000000000005
 20
252.24113636363648
 11
407.50000000000005
 21
252.24113636363648
  0
INSERT
  2
-114-_U90
  8
_0-0_0
 10
-2.5000000000000568
 20
0.2411363636363716
 41
1
 42
1
 50
0
  0
LINE
  8
_0-1_H0
  6
CONTINUOUS
 62
    3
 10
407.50000000000005
 20
247.24113636363648
 11
267.50000000000005
 21
247.24113636363648
  0
LINE
  8
_0-1_H0
  6
CONTINUOUS
 62
    3
 10
267.50000000000005
 20
242.24113636363648
 11
407.50000000000005
 21
242.24113636363648
  0
LINE
  8
_0-1_H0
  6
CONTINUOUS
 62
    3
 10
267.50000000000005
 20
237.24113636363648
 11
407.50000000000005
 21
237.24113636363648
  0
INSERT
  2
-115-_U91
  8
_0-0_0
 10
-2.5000000000000568
 20
0.2411363636363716
 41
1
 42
1
 50
0
  0
LINE
  8
_0-1_H0
  6
CONTINUOUS
 62
    3
 10
267.50000000000005
 20
242.24113636363648
 11
407.50000000000005
 21
242.24113636363648
  0
LINE
  8
_0-1_H0
  6
CONTINUOUS
 62
    3
 10
267.50000000000005
 20
232.24113636363648
 11
407.50000000000005
 21
232.24113636363648
  0
INSERT
  2
-116-_U92
  8
_0-0_0
 10
-2.5000000000000568
 20
0.2411363636363716
 41
1
 42
1
 50
0
  0
LINE
  8
_0-1_H0
  6
CONTINUOUS
 62
    3
 10
267.50000000000005
 20
237.24113636363648
 11
407.50000000000005
 21
237.24113636363648
  0
INSERT
  2
-117-_U93
  8
_0-0_0
 10
-2.5000000000000568
 20
0.2411363636363716
 41
1
 42
1
 50
0
  0
LINE
  8
_0-1_H0
  6
CONTINUOUS
 62
    3
 10
407.50000000000005
 20
232.24113636363648
 11
267.50000000000005
 21
232.24113636363648
  0
LINE
  8
_0-1_H0
  6
CONTINUOUS
 62
    3
 10
267.50000000000005
 20
227.24113636363648
 11
407.50000000000005
 21
227.24113636363648
  0
INSERT
  2
-118-_U94
  8
_0-0_0
 10
-2.5000000000000568
 20
0.2411363636363716
 41
1
 42
1
 50
0
  0
INSERT
  2
-119-_U95
  8
_0-0_0
 10
-2.5000000000000568
 20
0.2411363636363716
 41
1
 42
1
 50
0
  0
INSERT
  2
-120-_U96
  8
_0-0_0
 10
-2.5000000000000568
 20
0.2411363636363716
 41
1
 42
1
 50
0
  0
INSERT
  2
-121-_U97
  8
_0-0_0
 10
-2.5000000000000568
 20
0.2411363636363716
 41
1
 42
1
 50
0
  0
INSERT
  2
-122-_U98
  8
_0-0_0
 10
-2.5000000000000568
 20
0.2411363636363716
 41
1
 42
1
 50
0
  0
INSERT
  2
-123-_U99
  8
_0-0_0
 10
-2.5000000000000568
 20
0.2411363636363716
 41
1
 42
1
 50
0
  0
INSERT
  2
-124-_U100
  8
_0-0_0
 10
-2.5000000000000568
 20
0.2411363636363716
 41
1
 42
1
 50
0
  0
INSERT
  2
-125-_U101
  8
_0-0_0
 10
-2.5000000000000568
 20
0.2411363636363716
 41
1
 42
1
 50
0
  0
INSERT
  2
-126-_U102
  8
_0-0_0
 10
-2.5000000000000568
 20
0.2411363636363716
 41
1
 42
1
 50
0
  0
INSERT
  2
-127-_U103
  8
_0-0_0
 10
-2.5000000000000568
 20
0.2411363636363716
 41
1
 42
1
 50
0
  0
INSERT
  2
-128-_U104
  8
_0-0_0
 10
-2.5000000000000568
 20
0.2411363636363716
 41
1
 42
1
 50
0
  0
INSERT
  2
-129-_U105
  8
_0-0_0
 10
-2.5000000000000568
 20
0.2411363636363716
 41
1
 42
1
 50
0
  0
INSERT
  2
-130-_U106
  8
_0-0_0
 10
-2.5000000000000568
 20
0.2411363636363716
 41
1
 42
1
 50
0
  0
INSERT
  2
-131-_U107
  8
_0-0_0
 10
-2.5000000000000568
 20
0.2411363636363716
 41
1
 42
1
 50
0
  0
INSERT
  2
-132-_U108
  8
_0-0_0
 10
-2.5000000000000568
 20
0.2411363636363716
 41
1
 42
1
 50
0
  0
INSERT
  2
-133-_U109
  8
_0-0_0
 10
-2.5000000000000568
 20
0.2411363636363716
 41
1
 42
1
 50
0
  0
INSERT
  2
-134-_U110
  8
_0-0_0
 10
-2.5000000000000568
 20
0.2411363636363716
 41
1
 42
1
 50
0
  0
INSERT
  2
-135-_U111
  8
_0-0_0
 10
-2.5000000000000568
 20
0.2411363636363716
 41
1
 42
1
 50
0
  0
INSERT
  2
-136-_U112
  8
_0-0_0
 10
-2.5000000000000568
 20
0.2411363636363716
 41
1
 42
1
 50
0
  0
INSERT
  2
-137-_U113
  8
_0-0_0
 10
-2.5000000000000568
 20
0.2411363636363716
 41
1
 42
1
 50
0
  0
INSERT
  2
-138-_U114
  8
_0-0_0
 10
-2.5000000000000568
 20
0.2411363636363716
 41
1
 42
1
 50
0
  0
INSERT
  2
-139-_U115
  8
_0-0_0
 10
-2.5000000000000568
 20
0.2411363636363716
 41
1
 42
1
 50
0
  0
LINE
  8
_0-1_H0
  6
CONTINUOUS
 62
    3
 10
377.50000000000017
 20
257.24113636363637
 11
377.50000000000017
 21
227.24113636363648
  0
LINE
  8
_0-1_H0
  6
CONTINUOUS
 62
    3
 10
377.50000000000017
 20
282.24113636363637
 11
377.50000000000017
 21
267.24113636363637
  0
LINE
  8
_0-1_H0
  6
CONTINUOUS
 62
    3
 10
347.50000000000017
 20
232.24113636363648
 11
347.50000000000017
 21
227.24113636363648
  0
INSERT
  2
-140-_U116
  8
_0-0_0
 10
-2.5000000000000568
 20
0.2411363636363716
 41
1
 42
1
 50
0
  0
INSERT
  2
-141-_U117
  8
_0-0_0
 10
-2.5000000000000568
 20
0.2411363636363716
 41
1
 42
1
 50
0
  0
LINE
  8
_0-1_H0
  6
CONTINUOUS
 62
    3
 10
347.50000000000017
 20
257.24113636363637
 11
347.50000000000017
 21
252.24113636363648
  0
LINE
  8
_0-1_H0
  6
CONTINUOUS
 62
    3
 10
347.50000000000017
 20
282.24113636363637
 11
347.50000000000017
 21
262.24113636363637
  0
INSERT
  2
-142-_U118
  8
_0-0_0
 10
-2.5000000000000568
 20
0.2411363636363716
 41
1
 42
1
 50
0
  0
INSERT
  2
-143-_U119
  8
_0-0_0
 10
-2.5000000000000568
 20
0.2411363636363716
 41
1
 42
1
 50
0
  0
INSERT
  2
-144-_U120
  8
_0-0_0
 10
-2.5000000000000568
 20
0.2411363636363716
 41
1
 42
1
 50
0
  0
INSERT
  2
-145-_U121
  8
_0-0_0
 10
-2.5000000000000568
 20
0.2411363636363716
 41
1
 42
1
 50
0
  0
INSERT
  2
-146-_U122
  8
_0-0_0
 10
-2.5000000000000568
 20
0.2411363636363716
 41
1
 42
1
 50
0
  0
INSERT
  2
-147-_U123
  8
_0-0_0
 10
-2.5000000000000568
 20
0.2411363636363716
 41
1
 42
1
 50
0
  0
INSERT
  2
-148-_U124
  8
_0-0_0
 10
-2.5000000000000568
 20
0.2411363636363716
 41
1
 42
1
 50
0
  0
INSERT
  2
-149-_U125
  8
_0-0_0
 10
-2.5000000000000568
 20
0.2411363636363716
 41
1
 42
1
 50
0
  0
LINE
  8
_0-1_H0
  6
CONTINUOUS
 62
    3
 10
247.49999999999994
 20
44.241136363636371
 11
407.49999999999994
 21
44.241136363636371
  0
INSERT
  2
-150-_U126
  8
_0-0_0
 10
-2.5000000000000568
 20
0.2411363636363716
 41
1
 42
1
 50
0
  0
INSERT
  2
-151-_U127
  8
_0-0_0
 10
-2.5000000000000568
 20
0.2411363636363716
 41
1
 42
1
 50
0
  0
INSERT
  2
-152-_U128
  8
_0-0_0
 10
-2.5000000000000568
 20
0.2411363636363716
 41
1
 42
1
 50
0
  0
LINE
  8
_0-1_H0
  6
CONTINUOUS
 62
    3
 10
320.02593231786562
 20
128.24864052476127
 11
342.60787536468524
 21
128.24864052476127
  0
LINE
  8
_0-1_H0
  6
CONTINUOUS
 62
    3
 10
365.64643529617023
 20
128.24864052476127
 11
388.01012582766742
 21
128.24864052476127
  0
LINE
  8
_0-1_H0
  6
CONTINUOUS
 62
    3
 10
320.02593231786562
 20
128.24864052476127
 11
320.02593231786562
 21
106.34611634889127
  0
LINE
  8
_0-1_H0
  6
CONTINUOUS
 62
    3
 10
388.01012582766742
 20
128.24864052476127
 11
388.01012582766742
 21
106.34611634890066
  0
INSERT
  2
-153-_U129
  8
_0-0_0
 10
-2.5000000000000568
 20
0.2411363636363716
 41
1
 42
1
 50
0
  0
LINE
  8
_0-1_H0
  6
HIDDEN
 62
    3
 10
368.34735034363916
 20
121.24864052476127
 11
374.68821093040077
 21
121.24864052476127
  0
LINE
  8
_0-1_H0
  6
CONTINUOUS
 62
    3
 10
247.49999999999994
 20
34.241136363636371
 11
407.49999999999994
 21
34.241136363636371
  0
LINE
  8
_0-1_H0
  6
CONTINUOUS
 62
    3
 10
336.49999999999994
 20
34.241136363636343
 11
336.49999999999994
 21
10.241136363636371
  0
LINE
  8
_0-1_H0
  6
CONTINUOUS
 62
    3
 10
331.49999999999994
 20
34.241136363636343
 11
331.49999999999994
 21
10.241136363636371
  0
LINE
  8
_0-1_H0
  6
CONTINUOUS
 62
    3
 10
247.49999999999994
 20
39.241136363636371
 11
407.49999999999994
 21
39.241136363636371
  0
LINE
  8
_0-1_H0
  6
CONTINUOUS
 62
    3
 10
247.49999999999994
 20
44.241136363636371
 11
247.49999999999994
 21
39.241136363636371
  0
LINE
  8
_0-1_H0
  6
CONTINUOUS
 62
    3
 10
289.49999999999994
 20
44.241136363636371
 11
289.49999999999994
 21
34.241136363636343
  0
INSERT
  2
-154-_U130
  8
_0-0_0
 10
-2.5000000000000568
 20
0.2411363636363716
 41
1
 42
1
 50
0
  0
INSERT
  2
-155-_U131
  8
_0-0_0
 10
-2.5000000000000568
 20
0.2411363636363716
 41
1
 42
1
 50
0
  0
INSERT
  2
-156-_U132
  8
_0-0_0
 10
-2.5000000000000568
 20
0.2411363636363716
 41
1
 42
1
 50
0
  0
INSERT
  2
-157-_U133
  8
_0-0_0
 10
-2.5000000000000568
 20
0.2411363636363716
 41
1
 42
1
 50
0
  0
INSERT
  2
-158-_U134
  8
_0-0_0
 10
-2.5000000000000568
 20
0.2411363636363716
 41
1
 42
1
 50
0
  0
INSERT
  2
-159-_U135
  8
_0-0_0
 10
-2.5000000000000568
 20
0.2411363636363716
 41
1
 42
1
 50
0
  0
INSERT
  2
-160-_U136
  8
_0-0_0
 10
-2.5000000000000568
 20
0.2411363636363716
 41
1
 42
1
 50
0
  0
LINE
  8
_0-1_H0
  6
CONTINUOUS
 62
    3
 10
247.49999999999994
 20
17.241136363636371
 11
407.49999999999994
 21
17.241136363636371
  0
LINE
  8
_0-1_H0
  6
CONTINUOUS
 62
    3
 10
331.49999999999994
 20
24.241136363636371
 11
407.49999999999994
 21
24.241136363636371
  0
LINE
  8
_0-1_H0
  6
CONTINUOUS
 62
    3
 10
395.49999999999994
 20
10.241136363636371
 11
395.49999999999994
 21
17.241136363636371
  0
INSERT
  2
-161-_U137
  8
_0-0_0
 10
-2.5000000000000568
 20
0.2411363636363716
 41
1
 42
1
 50
0
  0
LINE
  8
_0-1_H0
  6
CONTINUOUS
 62
    3
 10
399.49999999999994
 20
10.241136363636371
 11
399.49999999999994
 21
17.241136363636371
  0
INSERT
  2
-162-_U138
  8
_0-0_0
 10
-2.5000000000000568
 20
0.2411363636363716
 41
1
 42
1
 50
0
  0
LINE
  8
_0-1_H0
  6
CONTINUOUS
 62
    3
 10
338.49999999999994
 20
28.241136363636371
 11
405.49999999999994
 21
28.241136363636371
  0
INSERT
  2
-163-_U139
  8
_0-0_0
 10
-2.5000000000000568
 20
0.2411363636363716
 41
1
 42
1
 50
0
  0
LINE
  8
_0-1_H0
  6
CONTINUOUS
 62
    3
 10
317.49999999999994
 20
10.241136363636371
 11
317.49999999999994
 21
44.241136363636371
  0
LINE
  8
_0-1_H0
  6
CONTINUOUS
 62
    3
 10
303.49999999999994
 20
10.241136363636371
 11
303.49999999999994
 21
34.241136363636343
  0
LINE
  8
_0-1_H0
  6
CONTINUOUS
 62
    3
 10
289.49999999999994
 20
17.241136363636371
 11
289.49999999999994
 21
34.241136363636343
  0
LINE
  8
_0-1_H0
  6
CONTINUOUS
 62
    3
 10
275.49999999999994
 20
17.241136363636371
 11
275.49999999999994
 21
34.241136363636343
  0
LINE
  8
_0-1_H0
  6
CONTINUOUS
 62
    3
 10
261.49999999999994
 20
17.241136363636371
 11
261.49999999999994
 21
34.241136363636343
  0
INSERT
  2
-164-_U140
  8
_0-0_0
 10
-2.5000000000000568
 20
0.2411363636363716
 41
1
 42
1
 50
0
  0
INSERT
  2
-165-_U141
  8
_0-0_0
 10
-2.5000000000000568
 20
0.2411363636363716
 41
1
 42
1
 50
0
  0
INSERT
  2
-166-_U142
  8
_0-0_0
 10
-2.5000000000000568
 20
0.2411363636363716
 41
1
 42
1
 50
0
  0
INSERT
  2
-167-_U143
  8
_0-0_0
 10
-2.5000000000000568
 20
0.2411363636363716
 41
1
 42
1
 50
0
  0
INSERT
  2
-168-_U144
  8
_0-0_0
 10
-2.5000000000000568
 20
0.2411363636363716
 41
1
 42
1
 50
0
  0
LINE
  8
_0-1_H0
  6
CONTINUOUS
 62
    3
 10
247.49999999999994
 20
10.241136363636371
 11
247.49999999999994
 21
34.241136363636371
  0
LINE
  8
_0-1_H0
  6
CONTINUOUS
 62
    3
 10
247.49999999999994
 20
34.241136363636371
 11
247.49999999999994
 21
44.241136363636371
  0
LINE
  8
_0-1_H0
  6
CONTINUOUS
 62
    3
 10
247.49999999999994
 20
31.241136363636371
 11
331.49999999999994
 21
31.241136363636371
  0
INSERT
  2
-169-_U145
  8
_0-0_0
 10
-2.5000000000000568
 20
0.2411363636363716
 41
1
 42
1
 50
0
  0
LINE
  8
_0-1_H0
  6
CONTINUOUS
 62
    3
 10
324.49999999999994
 20
11.74113636363657
 11
328.49999999999982
 21
15.741136363633472
  0
INSERT
  2
-170-_U146
  8
_0-0_0
 10
-2.5000000000000568
 20
0.2411363636363716
 41
1
 42
1
 50
0
  0
INSERT
  2
-171-_U147
  8
_0-0_0
 10
-2.5000000000000568
 20
0.2411363636363716
 41
1
 42
1
 50
0
  0
LINE
  8
_0-1_H0
  6
CONTINUOUS
 62
    3
 10
321.49999999999994
 20
10.241136363636371
 11
321.49999999999994
 21
17.241136363636371
  0
INSERT
  2
-172-_U148
  8
_0-0_0
 10
-2.5000000000000568
 20
0.2411363636363716
 41
1
 42
1
 50
0
  0
INSERT
  2
-173-_U151
  8
_0-0_0
 10
-2.5000000000000568
 20
0.2411363636363716
 41
1
 42
1
 50
0
  0
LINE
  8
_0-1_H0
  6
CONTINUOUS
 62
    3
 10
387.49999999999994
 20
34.241136363636371
 11
387.49999999999994
 21
44.241136363636371
  0
INSERT
  2
-174-_U152
  8
_0-0_0
 10
-2.5000000000000568
 20
0.2411363636363716
 41
1
 42
1
 50
0
  0
LINE
  8
_0-1_H0
  6
CONTINUOUS
 62
    3
 10
359.49999999999994
 20
34.241136363636371
 11
359.49999999999994
 21
44.241136363636371
  0
LINE
  8
_0-4_A0
  6
CENTER
 62
    3
 10
47.13162032674603
 20
57.270098616439867
 11
147.44534409698124
 21
57.270098616439867
  0
LINE
  8
_0-4_A0
  6
CONTINUOUS
 62
    3
 10
63.275551676295521
 20
137.43072085389917
 11
63.35680341044349
 21
137.95782862290135
  0
ARC
  8
_0-4_A0
  6
CONTINUOUS
 62
    3
 10
59.986179604426553
 20
140.09629523072396
 40
0.75
 50
25.013123576056198
 51
336.23367806721842
  0
ARC
  8
_0-4_A0
  6
CONTINUOUS
 62
    3
 10
59.986179604426553
 20
140.09629523072396
 40
1.2833333333333329
 50
25.01312357612884
 51
334.89991043348237
  0
LINE
  8
_0-4_A0
  6
CONTINUOUS
 62
    3
 10
60.599898606601669
 20
139.66519317045876
 11
90.921937810347827
 21
193.42093690303937
  0
LINE
  8
_0-4_A0
  6
CONTINUOUS
 62
    3
 10
60.665837826462421
 20
140.41341461079866
 11
61.149150339908146
 21
140.63892172551757
  0
LINE
  8
_0-4_A0
  6
CONTINUOUS
 62
    3
 10
91.386465996731018
 20
193.15891017062438
 11
90.921937810347728
 21
193.42093690303917
  0
LINE
  8
_0-4_A0
  6
CONTINUOUS
 62
    3
 10
63.956288178158814
 20
143.44438265413307
 11
89.634907954783102
 21
188.96814491970167
  0
ARC
  8
_0-4_A0
  6
CONTINUOUS
 62
    3
 10
63.229733259360898
 20
143.24188120016427
 40
0.5333333333333333
 50
60.573929222630212
 51
150.57392922266205
  0
ARC
  8
_0-4_A0
  6
CONTINUOUS
 62
    3
 10
63.491759991775467
 20
143.70640938654756
 40
0.5333333333333333
 50
240.57392922263016
 51
330.57392922266302
  0
LINE
  8
_0-4_A0
  6
CONTINUOUS
 62
    3
 10
61.053206738169706
 20
139.38327521676896
 11
63.229733259360898
 21
143.24188120016427
  0
ARC
  8
_0-4_A0
  6
CONTINUOUS
 62
    3
 10
89.17037976839974
 20
189.23017165211626
 40
0.5333333333333333
 50
330.57392922266302
 51
60.573929222631093
  0
ARC
  8
_0-4_A0
  6
CONTINUOUS
 62
    3
 10
89.432406500814337
 20
189.69469983849967
 40
0.5333333333333333
 50
150.57392922266205
 51
240.57392922263289
  0
LINE
  8
_0-4_A0
  6
CONTINUOUS
 62
    3
 10
63.491759991775438
 20
143.70640938654756
 11
89.170379768399797
 21
189.23017165211618
  0
LINE
  8
_0-4_A0
  6
CONTINUOUS
 62
    3
 10
89.432406500814309
 20
189.69469983849955
 11
91.386465996730947
 21
193.15891017062438
  0
LINE
  8
_0-4_A0
  6
PHANTOM
 62
    3
 10
90.401888214407179
 20
134.49005844605727
 11
120.74342783086864
 21
129.65142408711616
  0
LINE
  8
_0-4_A0
  6
PHANTOM
 62
    3
 10
116.73174363438194
 20
129.75110402937778
 11
120.65943724488754
 21
129.12474579260336
  0
LINE
  8
_0-4_A0
  6
PHANTOM
 62
    3
 10
120.65943724488754
 20
129.12474579260327
 11
120.74342783086844
 21
129.65142408711628
  0
LINE
  8
_0-4_A0
  6
PHANTOM
 62
    3
 10
90.441832132944739
 20
133.94361603411977
 11
116.20506533986892
 21
129.83509461535817
  0
LINE
  8
_0-4_A0
  6
PHANTOM
 62
    3
 10
90.233907042446119
 20
133.43670185703146
 11
116.12107475388843
 21
129.30841632084536
  0
ARC
  8
_0-4_A0
  6
PHANTOM
 62
    3
 10
116.20506533986892
 20
129.83509461535837
 40
0.5333333333333333
 50
260.93920717095681
 51
350.93920717092498
  0
ARC
  8
_0-4_A0
  6
PHANTOM
 62
    3
 10
116.73174363438194
 20
129.75110402937767
 40
0.5333333333333333
 50
80.939207170955938
 51
170.93920717092683
  0
ARC
  8
_0-4_A0
  6
PHANTOM
 62
    3
 10
59.986179604426553
 20
140.09629523072396
 40
61.64850805377263
 50
350.24554243913445
 51
59.384688056169956
  0
LINE
  8
_0-4_A0
  6
CENTER
 62
    3
 10
103.96246367329584
 20
203.22636924109215
 11
105.53979958939314
 21
191.46645368813886
  0
LINE
  8
_0-4_A0
  6
CONTINUOUS
 62
    3
 10
109.68919559112373
 20
198.14200475178316
 11
110.04369612022182
 21
195.49900636245706
  0
LINE
  8
_0-4_A0
  6
CONTINUOUS
 62
    3
 10
97.378672355582864
 20
194.64106584589455
 11
97.709047154246945
 21
194.68537841203186
  0
LINE
  8
_0-4_A0
  6
CONTINUOUS
 62
    3
 10
97.709047154246945
 20
194.68537841203178
 11
97.731203437315542
 21
194.52019101269897
  0
LINE
  8
_0-4_A0
  6
CONTINUOUS
 62
    3
 10
97.256812798704586
 20
195.54959654222525
 11
97.58718759736864
 21
195.59390910836248
  0
LINE
  8
_0-4_A0
  6
CONTINUOUS
 62
    3
 10
97.323281647910917
 20
195.05403434422666
 11
97.653656446574942
 21
195.09834691036397
  0
LINE
  8
_0-4_A0
  6
CONTINUOUS
 62
    3
 10
92.214301953024502
 20
154.36806599116627
 11
92.86342093087336
 21
154.52001663131147
  0
ARC
  8
_0-4_A0
  6
CONTINUOUS
 62
    3
 10
108.25888442848142
 20
196.26856792776646
 40
0.3333333333333333
 50
33.174995043301379
 51
123.17499504325208
  0
ARC
  8
_0-4_A0
  6
CONTINUOUS
 62
    3
 10
108.25888442848142
 20
196.26856792776646
 40
0.3333333333333333
 50
303.17499504325445
 51
33.174995043304555
  0
ARC
  8
_0-4_A0
  6
CONTINUOUS
 62
    3
 10
86.134157727459012
 20
181.80433886956626
 40
0.3333333333333333
 50
123.17499504325168
 51
193.17499504333201
  0
ARC
  8
_0-4_A0
  6
CONTINUOUS
 62
    3
 10
86.700794698595416
 20
181.57741334856157
 40
0.1666666666666667
 50
123.17499504325448
 51
193.17499504333369
  0
LINE
  8
_0-4_A0
  6
CONTINUOUS
 62
    3
 10
98.480578166921546
 20
193.94806654764238
 11
105.55080318089902
 21
194.89638286839277
  0
LINE
  8
_0-4_A0
  6
CONTINUOUS
 62
    3
 10
107.08360883160364
 20
195.10197528054766
 11
110.04369612022192
 21
195.49900636245706
  0
LINE
  8
_0-4_A0
  6
CONTINUOUS
 62
    3
 10
91.682474712516039
 20
156.63998241363816
 11
92.33159369036484
 21
156.79193305378336
  0
LINE
  8
_0-4_A0
  6
CONTINUOUS
 62
    3
 10
91.834425352661327
 20
155.99086343578906
 11
92.483544330510127
 21
156.14281407593426
  0
ARC
  8
_0-4_A0
  6
CONTINUOUS
 62
    3
 10
92.154697295396417
 20
156.37294790563677
 40
0.5
 50
172.37834519814398
 51
262.37834519806028
  0
ARC
  8
_0-4_A0
  6
CONTINUOUS
 62
    3
 10
92.154697295396417
 20
156.37294790563686
 40
0.5
 50
262.37834519806187
 51
352.37834519812719
  0
ARC
  8
_0-4_A0
  6
CONTINUOUS
 62
    3
 10
92.154697295396417
 20
156.37294790563677
 40
0.8333333333333331
 50
172.37834519814398
 51
262.37834519806028
  0
ARC
  8
_0-4_A0
  6
CONTINUOUS
 62
    3
 10
92.154697295396417
 20
156.37294790563686
 40
0.8333333333333331
 50
262.37834519806187
 51
352.37834519812719
  0
ARC
  8
_0-4_A0
  6
CONTINUOUS
 62
    3
 10
93.414702317529446
 20
165.78909804040375
 40
0.5
 50
82.378345198221055
 51
172.37834519814359
  0
ARC
  8
_0-4_A0
  6
CONTINUOUS
 62
    3
 10
93.414702317529545
 20
165.78909804040367
 40
0.5
 50
352.37834519814521
 51
82.378345198220984
  0
ARC
  8
_0-4_A0
  6
CONTINUOUS
 62
    3
 10
93.414702317529545
 20
165.78909804040367
 40
0.8333333333333331
 50
352.37834519814521
 51
82.378345198220984
  0
ARC
  8
_0-4_A0
  6
CONTINUOUS
 62
    3
 10
93.414702317529446
 20
165.78909804040375
 40
0.8333333333333331
 50
82.378345198221055
 51
172.37834519814359
  0
LINE
  8
_0-4_A0
  6
CONTINUOUS
 62
    3
 10
93.622917874555767
 20
163.57525732204737
 11
93.95330636904714
 21
163.53104698593847
  0
LINE
  8
_0-4_A0
  6
CONTINUOUS
 62
    3
 10
91.328726059168189
 20
156.48347374590986
 11
92.127135115591684
 21
162.45006865004316
  0
LINE
  8
_0-4_A0
  6
CONTINUOUS
 62
    3
 10
92.127135115591642
 20
162.45006865004307
 11
92.588731081301162
 21
165.89962388067706
  0
LINE
  8
_0-4_A0
  6
CONTINUOUS
 62
    3
 10
91.659114553659421
 20
156.43926340980075
 11
92.457523610082873
 21
162.40585831393377
  0
LINE
  8
_0-4_A0
  6
CONTINUOUS
 62
    3
 10
93.622917874555739
 20
163.57525732204737
 11
93.910285059266257
 21
165.72278253623957
  0
LINE
  8
_0-4_A0
  6
CONTINUOUS
 62
    3
 10
92.981929086592145
 20
156.27511620298906
 11
92.986564819802623
 21
156.31428210106327
  0
LINE
  8
_0-4_A0
  6
CONTINUOUS
 62
    3
 10
93.953306369047183
 20
163.53104698593855
 11
94.240673553757588
 21
165.67857220013027
  0
LINE
  8
_0-4_A0
  6
CONTINUOUS
 62
    3
 10
92.650280037133299
 20
156.30663240147268
 11
92.227793853950657
 21
160.41328873636007
  0
LINE
  8
_0-4_A0
  6
CONTINUOUS
 62
    3
 10
92.985899404422738
 20
156.30151292828747
 11
92.567396901621023
 21
160.36944703526876
  0
LINE
  8
_0-4_A0
  6
CONTINUOUS
 62
    3
 10
92.795757611998908
 20
161.16365911752646
 11
92.321592479739678
 21
160.68100284902436
  0
LINE
  8
_0-4_A0
  6
CONTINUOUS
 62
    3
 10
93.033542205926437
 20
160.93005775194416
 11
92.61429621451559
 21
160.50330409160088
  0
LINE
  8
_0-4_A0
  6
CONTINUOUS
 62
    3
 10
92.795757611998851
 20
161.16365911752626
 11
93.033542205926366
 21
160.93005775194427
  0
ARC
  8
_0-4_A0
  6
CONTINUOUS
 62
    3
 10
92.559377073667249
 20
160.44740148344217
 40
0.3333333333333333
 50
135.5084475523287
 51
185.87383278364924
  0
ARC
  8
_0-4_A0
  6
CONTINUOUS
 62
    3
 10
92.733188511479269
 20
160.38650340880985
 40
0.1666666666666667
 50
135.50844755232628
 51
185.87383278365558
  0
LINE
  8
_0-4_A0
  6
CONTINUOUS
 62
    3
 10
91.719753021498377
 20
159.40565938752777
 11
86.538514954133191
 21
181.53942568852517
  0
LINE
  8
_0-4_A0
  6
CONTINUOUS
 62
    3
 10
91.470717395276793
 20
157.54458994397967
 11
85.809598238534618
 21
181.72836354949316
  0
LINE
  8
_0-4_A0
  6
CONTINUOUS
 62
    3
 10
91.83501479028466
 20
155.98834541316796
 11
91.682474712512899
 21
156.63998241363748
  0
LINE
  8
_0-4_A0
  6
CONTINUOUS
 62
    3
 10
92.214301953024161
 20
154.36806599116627
 11
91.933021694467925
 21
155.56966904955146
  0
LINE
  8
_0-4_A0
  6
CONTINUOUS
 62
    3
 10
92.511550202796783
 20
156.02317559875226
 11
91.933736481893149
 21
158.49154198101626
  0
LINE
  8
_0-4_A0
  6
CONTINUOUS
 62
    3
 10
92.863420930873303
 20
154.52001663131127
 11
92.595190368875506
 21
155.66587260180597
  0
LINE
  8
_0-4_A0
  6
CONTINUOUS
 62
    3
 10
92.062351312879215
 20
155.01718496901537
 11
92.711470290728058
 21
155.16913560916057
  0
LINE
  8
_0-4_A0
  6
CONTINUOUS
 62
    3
 10
92.457523610082944
 20
162.40585831393397
 11
92.919119575792535
 21
165.85541354456788
  0
LINE
  8
_0-4_A0
  6
CONTINUOUS
 62
    3
 10
93.058106786876066
 20
164.65751109149357
 11
93.454572980265737
 21
164.60445868816168
  0
LINE
  8
_0-4_A0
  6
CONTINUOUS
 62
    3
 10
94.605468550702838
 20
176.22110839868827
 11
95.001934744092096
 21
176.16805599535646
  0
LINE
  8
_0-4_A0
  6
CONTINUOUS
 62
    3
 10
93.454572980265737
 20
164.60445868816196
 11
93.670575261849904
 21
166.21866647076697
  0
LINE
  8
_0-4_A0
  6
CONTINUOUS
 62
    3
 10
93.677051492414307
 20
169.28295001437038
 11
94.073517685804006
 21
169.22989761103858
  0
LINE
  8
_0-4_A0
  6
CONTINUOUS
 62
    3
 10
93.986523845164526
 20
171.59566947581146
 11
94.382990038553785
 21
171.54261707247965
  0
LINE
  8
_0-4_A0
  6
CONTINUOUS
 62
    3
 10
94.080182431689337
 20
177.63661628748488
 11
96.062513398636582
 21
177.37135427082557
  0
ARC
  8
_0-4_A0
  6
CONTINUOUS
 62
    3
 10
94.761875562397577
 20
175.19126581771627
 40
0.6666666666666666
 50
172.37834519814359
 51
262.37834519804931
  0
ARC
  8
_0-4_A0
  6
CONTINUOUS
 62
    3
 10
94.761875562397676
 20
175.19126581771627
 40
0.6666666666666666
 50
262.37834519804931
 51
352.37834519814339
  0
ARC
  8
_0-4_A0
  6
CONTINUOUS
 62
    3
 10
94.761875562397577
 20
175.19126581771627
 40
1
 50
172.37834519814359
 51
262.37834519804931
  0
ARC
  8
_0-4_A0
  6
CONTINUOUS
 62
    3
 10
94.761875562397676
 20
175.19126581771627
 40
1
 50
262.37834519804931
 51
352.37834519814339
  0
LINE
  8
_0-4_A0
  6
CONTINUOUS
 62
    3
 10
95.555283559707987
 20
176.09401062897038
 11
95.885672054196945
 21
176.04980029286076
  0
LINE
  8
_0-4_A0
  6
CONTINUOUS
 62
    3
 10
95.422652551380238
 20
175.10284514549766
 11
95.555283559708087
 21
176.09401062897038
  0
LINE
  8
_0-4_A0
  6
CONTINUOUS
 62
    3
 10
95.75304104587137
 20
175.05863480938828
 11
95.885672054199176
 21
176.04980029286048
  0
LINE
  8
_0-4_A0
  6
CONTINUOUS
 62
    3
 10
94.124392767799207
 20
177.96700478197607
 11
96.106723734746452
 21
177.70174276531676
  0
LINE
  8
_0-4_A0
  6
CONTINUOUS
 62
    3
 10
94.168603103909134
 20
178.29739327646737
 11
96.150934070856337
 21
178.03213125980798
  0
LINE
  8
_0-4_A0
  6
CONTINUOUS
 62
    3
 10
94.101098573415029
 20
175.27968648993496
 11
94.41057092618054
 21
177.59240595137507
  0
ARC
  8
_0-4_A0
  6
CONTINUOUS
 62
    3
 10
97.348959595971933
 20
194.52481706829428
 40
0.6666666666666666
 50
82.378345198046133
 51
172.37834519814359
  0
ARC
  8
_0-4_A0
  6
CONTINUOUS
 62
    3
 10
97.348959595972317
 20
194.52481706829428
 40
0.6666666666666666
 50
3.7347137839056427
 51
82.378345198042907
  0
ARC
  8
_0-4_A0
  6
CONTINUOUS
 62
    3
 10
97.348959595971933
 20
194.52481706829428
 40
1
 50
82.378345198046133
 51
172.37834519814359
  0
ARC
  8
_0-4_A0
  6
CONTINUOUS
 62
    3
 10
97.348959595972317
 20
194.52481706829428
 40
1
 50
3.734713783899128
 51
82.378345198042907
  0
LINE
  8
_0-4_A0
  6
CONTINUOUS
 62
    3
 10
97.957322031322945
 20
194.35923221614297
 11
96.443192676943013
 21
192.13014617330605
  0
LINE
  8
_0-4_A0
  6
CONTINUOUS
 62
    3
 10
96.41950634044474
 20
191.79636768049167
 11
96.862645898734783
 21
190.89054362863316
  0
LINE
  8
_0-4_A0
  6
CONTINUOUS
 62
    3
 10
98.233059021027045
 20
194.17193506288126
 11
96.773276046078379
 21
192.02285721453478
  0
LINE
  8
_0-4_A0
  6
CONTINUOUS
 62
    3
 10
96.761432877829207
 20
191.85596796812765
 11
97.162069224937127
 21
191.03702496818556
  0
LINE
  8
_0-4_A0
  6
CONTINUOUS
 62
    3
 10
97.162069224890728
 20
191.03702496828086
 11
96.862645898688199
 21
190.89054362872886
  0
LINE
  8
_0-4_A0
  6
CONTINUOUS
 62
    3
 10
95.783059743042159
 20
190.36239764797736
 11
97.765390709990143
 21
190.09713563132368
  0
LINE
  8
_0-4_A0
  6
CONTINUOUS
 62
    3
 10
95.738849406933212
 20
190.03200915348605
 11
97.721180373881239
 21
189.76674713683237
  0
LINE
  8
_0-4_A0
  6
CONTINUOUS
 62
    3
 10
95.694639070824237
 20
189.70162065899467
 11
97.676970037772349
 21
189.43635864234107
  0
LINE
  8
_0-4_A0
  6
CONTINUOUS
 62
    3
 10
96.113448237533646
 20
190.31818731186848
 11
96.688182606989443
 21
194.61323774051308
  0
LINE
  8
_0-4_A0
  6
CONTINUOUS
 62
    3
 10
95.694639070823626
 20
189.70162065899486
 11
96.357794112498169
 21
194.65744807662227
  0
LINE
  8
_0-4_A0
  6
CONTINUOUS
 62
    3
 10
97.67697003777144
 20
189.43635864234116
 11
97.765390709990143
 21
190.09713563132368
  0
LINE
  8
_0-4_A0
  6
CONTINUOUS
 62
    3
 10
93.77071007892367
 20
175.32389682604417
 11
94.168603103907926
 21
178.29739327646757
  0
LINE
  8
_0-4_A0
  6
CENTER
 62
    3
 10
94.168603103907869
 20
178.29739327646717
 11
95.694639070823541
 21
189.70162065899467
  0
LINE
  8
_0-4_A0
  6
CONTINUOUS
 62
    3
 10
96.062513398636511
 20
177.37135427082557
 11
96.150934070855186
 21
178.03213125980818
  0
LINE
  8
_0-4_A0
  6
CENTER
 62
    3
 10
96.150934070855058
 20
178.03213125980818
 11
97.67697003777144
 21
189.43635864234116
  0
LINE
  8
_0-4_A0
  6
CONTINUOUS
 62
    3
 10
93.058106786876223
 20
164.65751109149366
 11
93.273719876763948
 21
166.26881040359228
  0
LINE
  8
_0-4_A0
  6
CONTINUOUS
 62
    3
 10
93.320321532901303
 20
166.61706948431807
 11
94.345971209176298
 21
174.28185745566347
  0
LINE
  8
_0-4_A0
  6
CONTINUOUS
 62
    3
 10
94.393324666658074
 20
174.63573482695687
 11
94.60546855070288
 21
176.22110839868807
  0
LINE
  8
_0-4_A0
  6
CONTINUOUS
 62
    3
 10
93.717008184810893
 20
166.56566459070808
 11
94.737454067762257
 21
174.19156406689268
  0
LINE
  8
_0-4_A0
  6
CONTINUOUS
 62
    3
 10
94.782059447368084
 20
174.52490476300798
 11
95.00193474409248
 21
176.16805599535658
  0
ARC
  8
_0-4_A0
  6
CONTINUOUS
 62
    3
 10
97.681585041618845
 20
194.54652936940516
 40
0.3333333333333333
 50
325.81329402329788
 51
3.7347137839057023
  0
ARC
  8
_0-4_A0
  6
CONTINUOUS
 62
    3
 10
97.681585041618845
 20
194.54652936940516
 40
0.6666666666666666
 50
325.8132940232976
 51
3.7347137838993029
  0
ARC
  8
_0-4_A0
  6
CONTINUOUS
 62
    3
 10
96.718929666647085
 20
191.94284902004417
 40
0.3333333333333333
 50
145.81329402329794
 51
206.06841272414058
  0
ARC
  8
_0-4_A0
  6
CONTINUOUS
 62
    3
 10
96.911144540930422
 20
191.92920863790388
 40
0.1666666666666667
 50
145.81329402329794
 51
206.06841272413942
  0
LINE
  8
_0-4_A0
  6
CONTINUOUS
 62
    3
 10
97.134953241826281
 20
196.45812723855587
 11
97.260660329898669
 21
195.52091105964785
  0
LINE
  8
_0-4_A0
  6
CONTINUOUS
 62
    3
 10
97.305040066474006
 20
195.19003546804967
 11
97.378672355581258
 21
194.64106584589416
  0
LINE
  8
_0-4_A0
  6
DASHED
 62
    3
 10
97.465328040491925
 20
196.50243980469318
 11
97.600777101338437
 21
195.49259180654237
  0
LINE
  8
_0-4_A0
  6
DASHED
 62
    3
 10
97.650858267625437
 20
195.11920888898038
 11
97.709047154246945
 21
194.68537841203178
  0
LINE
  8
_0-4_A0
  6
CONTINUOUS
 62
    3
 10
97.731203437315542
 20
194.52019101269885
 11
97.951690486856136
 21
194.35185595910488
  0
LINE
  8
_0-4_A0
  6
CONTINUOUS
 62
    3
 10
98.216990678169139
 20
194.14930745561568
 11
98.480578166921546
 21
193.94806654764246
  0
LINE
  8
_0-4_A0
  6
CONTINUOUS
 62
    3
 10
95.511514598852286
 20
188.33311220772586
 11
85.951758396905248
 21
182.08333993645427
  0
LINE
  8
_0-4_A0
  6
CONTINUOUS
 62
    3
 10
108.07648509792784
 20
196.54756899465448
 11
97.722786531415749
 21
189.77875012112377
  0
LINE
  8
_0-4_A0
  6
CONTINUOUS
 62
    3
 10
95.394715672288938
 20
187.46026153746475
 11
86.609595033318527
 21
181.71691388200568
  0
LINE
  8
_0-4_A0
  6
CONTINUOUS
 62
    3
 10
108.44128375903524
 20
195.98956686087848
 11
97.605987604852145
 21
188.90589945086256
  0
ARC
  8
_0-4_A0
  6
CONTINUOUS
 62
    3
 10
235.73873013809995
 20
156.59259438668988
 40
0.5
 50
131.8103148957673
 51
48.189685104208081
  0
LINE
  8
_0-4_A0
  6
CONTINUOUS
 62
    3
 10
241.03413318984524
 20
188.75424940155778
 11
239.95703539123823
 21
183.04787762836278
  0
LINE
  8
_0-4_A0
  6
CONTINUOUS
 62
    3
 10
240.38104855077253
 20
188.88857302001306
 11
239.27859669542195
 21
183.04787762836377
  0
LINE
  8
_0-4_A0
  6
CONTINUOUS
 62
    3
 10
230.44330587091585
 20
188.75424473819086
 11
231.52043013810003
 21
183.04787762837207
  0
LINE
  8
_0-4_A0
  6
CONTINUOUS
 62
    3
 10
231.09639035173515
 20
188.88856892412246
 11
232.19886942654963
 21
183.04787762837128
  0
LINE
  8
_0-4_A0
  6
CONTINUOUS
 62
    3
 10
231.52043013809995
 20
183.04787762837216
 11
232.19886942654963
 21
183.04787762837148
  0
LINE
  8
_0-4_A0
  6
CONTINUOUS
 62
    3
 10
239.27859669542183
 20
183.04787762836346
 11
239.95703539123823
 21
183.04787762836278
  0
LINE
  8
_0-4_A0
  6
CONTINUOUS
 62
    3
 10
235.40539680476663
 20
162.19122549481957
 11
236.07206347143323
 21
162.19122549482025
  0
LINE
  8
_0-4_A0
  6
CONTINUOUS
 62
    3
 10
235.40539680476675
 20
164.50873763717177
 11
236.07206347143335
 21
164.50873763717177
  0
LINE
  8
_0-4_A0
  6
CONTINUOUS
 62
    3
 10
236.07206347143335
 20
167.28710854035585
 11
236.07206347143335
 21
156.93167145904865
  0
LINE
  8
_0-4_A0
  6
CONTINUOUS
 62
    3
 10
235.40539680476675
 20
167.28710854035585
 11
235.40539680476675
 21
156.93167145904865
  0
ARC
  8
_0-4_A0
  6
CONTINUOUS
 62
    3
 10
235.73873013810003
 20
167.28710854035585
 40
0.3333333333333333
 50
90
 51
180
  0
ARC
  8
_0-4_A0
  6
CONTINUOUS
 62
    3
 10
235.73873013810003
 20
167.28710854035585
 40
0.3333333333333333
 50
0
 51
90
  0
ARC
  8
_0-4_A0
  6
CONTINUOUS
 62
    3
 10
235.73873013809995
 20
156.93167145904865
 40
0.3333333333333333
 50
180
 51
270
  0
ARC
  8
_0-4_A0
  6
CONTINUOUS
 62
    3
 10
235.73873013809995
 20
156.93167145904865
 40
0.3333333333333333
 50
270
 51
0
  0
ARC
  8
_0-4_A0
  6
CONTINUOUS
 62
    3
 10
235.73873013809995
 20
156.59259438668988
 40
1.166666666666666
 50
58.460045285201843
 51
73.39845040097569
  0
ARC
  8
_0-4_A0
  6
CONTINUOUS
 62
    3
 10
235.73873013809995
 20
156.59259438668988
 40
1.166666666666666
 50
106.6015495990161
 51
0
  0
LINE
  8
_0-4_A0
  6
CONTINUOUS
 62
    3
 10
234.40539680476675
 20
165.65331318335697
 11
237.07206347143335
 21
165.65331318335697
  0
LINE
  8
_0-4_A0
  6
CONTINUOUS
 62
    3
 10
234.40539680476675
 20
172.54716072586145
 11
237.07206347143335
 21
172.54716072586145
  0
ARC
  8
_0-4_A0
  6
CONTINUOUS
 62
    3
 10
235.73873013810003
 20
174.76304029301937
 40
0.75
 50
102.83958840690407
 51
77.160411593095716
  0
ARC
  8
_0-4_A0
  6
CONTINUOUS
 62
    3
 10
235.73873013810003
 20
167.69767229702065
 40
0.75
 50
296.38779996124281
 51
243.61220003875729
  0
LINE
  8
_0-4_A0
  6
CONTINUOUS
 62
    3
 10
237.07206347143335
 20
177.21245569593676
 11
237.07206347143335
 21
165.65331318335697
  0
LINE
  8
_0-4_A0
  6
CONTINUOUS
 62
    3
 10
234.40539680476675
 20
177.21245569593676
 11
234.40539680476675
 21
165.65331318335697
  0
LINE
  8
_0-4_A0
  6
HIDDEN
 62
    3
 10
234.40539680476663
 20
170.24921154566257
 11
237.07206347143335
 21
170.24921154566555
  0
LINE
  8
_0-4_A0
  6
CONTINUOUS
 62
    3
 10
235.57206347143343
 20
176.94763807084308
 11
235.90539680476683
 21
176.94763807084277
  0
LINE
  8
_0-4_A0
  6
CONTINUOUS
 62
    3
 10
234.73873013810003
 20
178.17747270049616
 11
236.73873013809995
 21
178.17747270049616
  0
LINE
  8
_0-4_A0
  6
CONTINUOUS
 62
    3
 10
234.73873013810003
 20
179.20651181645166
 11
236.73873013810003
 21
179.20651181645166
  0
LINE
  8
_0-4_A0
  6
CONTINUOUS
 62
    3
 10
235.57206347143335
 20
178.17747270049616
 11
235.57206347143335
 21
175.22225136024556
  0
LINE
  8
_0-4_A0
  6
CONTINUOUS
 62
    3
 10
235.90539680476675
 20
178.17747270049616
 11
235.90539680476675
 21
175.22225136024556
  0
ARC
  8
_0-4_A0
  6
CONTINUOUS
 62
    3
 10
235.73873013809995
 20
175.22225136024556
 40
0.1666666666666667
 50
180
 51
270
  0
ARC
  8
_0-4_A0
  6
CONTINUOUS
 62
    3
 10
235.73873013810003
 20
175.22225136024556
 40
0.1666666666666667
 50
270
 51
0
  0
LINE
  8
_0-4_A0
  6
CONTINUOUS
 62
    3
 10
234.40539680476675
 20
177.21245569593676
 11
235.57206347143335
 21
177.21245569593676
  0
LINE
  8
_0-4_A0
  6
CONTINUOUS
 62
    3
 10
235.90539680476675
 20
177.21245569593676
 11
237.07206347143335
 21
177.21245569593676
  0
LINE
  8
_0-4_A0
  6
CONTINUOUS
 62
    3
 10
234.73873013810003
 20
178.17747270049616
 11
234.73873013810003
 21
179.20651181645166
  0
LINE
  8
_0-4_A0
  6
CENTER
 62
    3
 10
234.73873013810003
 20
179.20651181645166
 11
234.73873013810003
 21
189.30907979235706
  0
LINE
  8
_0-4_A0
  6
CONTINUOUS
 62
    3
 10
236.73873013810003
 20
178.17747270049616
 11
236.73873013810003
 21
179.20651181645166
  0
LINE
  8
_0-4_A0
  6
CENTER
 62
    3
 10
236.73873013810003
 20
179.20651181645166
 11
236.73873013810003
 21
189.30907979238187
  0
LINE
  8
_0-4_A0
  6
CONTINUOUS
 62
    3
 10
234.73873013810003
 20
178.69199225957046
 11
236.73873013809995
 21
178.69199225957936
  0
LINE
  8
_0-4_A0
  6
CONTINUOUS
 62
    3
 10
234.73873013810003
 20
178.94925203901496
 11
236.73873013809995
 21
178.94925203901496
  0
LINE
  8
_0-4_A0
  6
CONTINUOUS
 62
    3
 10
234.73873013810015
 20
178.43473247994066
 11
236.73873013809995
 21
178.43473247993188
  0
INSERT
  2
-002-_D13
  8
_0-4_A0
 10
-2.5000000000000568
 20
0.2411363636363716
 41
1
 42
1
 50
0
  0
LINE
  8
_0-4_A0
  6
CONTINUOUS
 62
    3
 10
128.37411673860304
 20
127.99602506488456
 11
128.37411673860304
 21
122.32935839820686
  0
LINE
  8
_0-4_A0
  6
CONTINUOUS
 62
    3
 10
128.37411673860304
 20
206.72935839820686
 11
128.37411673860304
 21
201.72439773229547
  0
INSERT
  2
-004-_D14
  8
_0-4_A0
 10
-2.5000000000000568
 20
0.2411363636363716
 41
1
 42
1
 50
0
  0
INSERT
  2
-005-_D15
  8
_0-4_A0
 10
-2.5000000000000568
 20
0.2411363636363716
 41
1
 42
1
 50
0
  0
INSERT
  2
-006-_D16
  8
_0-4_A0
 10
-2.5000000000000568
 20
0.2411363636363716
 41
1
 42
1
 50
0
  0
INSERT
  2
-008-_D17
  8
_0-4_A0
 10
-2.5000000000000568
 20
0.2411363636363716
 41
1
 42
1
 50
0
  0
INSERT
  2
-010-_D18
  8
_0-4_A0
 10
-2.5000000000000568
 20
0.2411363636363716
 41
1
 42
1
 50
0
  0
INSERT
  2
-012-_D19
  8
_0-4_A0
 10
-2.5000000000000568
 20
0.2411363636363716
 41
1
 42
1
 50
0
  0
INSERT
  2
-015-$$BALLOON$$0
  8
_0-4_A0
 10
135.07684900668053
 20
189.32935839799876
 41
1
 42
1
 50
0
  0
INSERT
  2
-018-$$BALLOON$$1
  8
_0-4_A0
 10
103.67815511878133
 20
199.17087450413228
 41
1
 42
1
 50
0
  0
INSERT
  2
-021-$$BALLOON$$2
  8
_0-4_A0
 10
99.627624624852046
 20
195.94136970549595
 41
1
 42
1
 50
0
  0
INSERT
  2
-024-$$BALLOON$$3
  8
_0-4_A0
 10
96.142145785146098
 20
193.04588543124407
 41
1
 42
1
 50
0
  0
INSERT
  2
-027-$$BALLOON$$4
  8
_0-4_A0
 10
91.543938533806709
 20
185.73927546632117
 41
1
 42
1
 50
0
  0
INSERT
  2
-030-$$BALLOON$$5
  8
_0-4_A0
 10
93.986523845164526
 20
171.59566947581146
 41
1
 42
1
 50
0
  0
INSERT
  2
-033-$$BALLOON$$6
  8
_0-4_A0
 10
92.30145840250023
 20
163.75280491909308
 41
1
 42
1
 50
0
  0
INSERT
  2
-036-$$BALLOON$$7
  8
_0-4_A0
 10
67.384534922345721
 20
161.79756259930147
 41
1
 42
1
 50
0
  0
INSERT
  2
-039-$$BALLOON$$8
  8
_0-4_A0
 10
66.17009239074315
 20
149.54018566648215
 41
1
 42
1
 50
0
  0
LINE
  8
_0-4_A0
  6
CENTER
 62
    3
 10
122.94099664978064
 20
129.20633324029125
 11
122.19506421445862
 21
124.36721459344227
  0
LINE
  8
_0-4_A0
  6
CENTER
 62
    3
 10
56.724753129012782
 20
77.270098616439867
 11
60.970123678453091
 21
77.270098616439867
  0
LINE
  8
_0-4_A0
  6
CENTER
 62
    3
 10
118.95662867746054
 20
77.270098616439867
 11
125.44774929363393
 21
77.270098616439867
  0
LINE
  8
_0-4_A0
  6
CENTER
 62
    3
 10
56.724753129012782
 20
37.270098616439867
 11
60.970123678453091
 21
37.270098616439867
  0
LINE
  8
_0-4_A0
  6
CENTER
 62
    3
 10
120.11412213733004
 20
37.270098616439867
 11
125.44774929363393
 21
37.270098616439867
  0
LINE
  8
_0-4_A0
  6
CENTER
 62
    3
 10
122.71326833932343
 20
39.606989240677449
 11
122.71326833932343
 21
34.510413084483644
  0
LINE
  8
_0-4_A0
  6
CENTER
 62
    3
 10
122.71326833932343
 20
79.668459054012885
 11
122.71326833932343
 21
75.283026855405807
  0
LINE
  8
_0-4_A0
  6
CONTINUOUS
 62
    3
 10
56.107450071933158
 20
86.270098616439867
 11
128.37411673854623
 21
86.270098616439867
  0
LINE
  8
_0-4_A0
  6
CONTINUOUS
 62
    3
 10
56.107450071902832
 20
28.270098616439867
 11
128.37411673863724
 21
28.270098616439867
  0
LINE
  8
_0-4_A0
  6
CENTER
 62
    3
 10
58.917865027052613
 20
39.606989240677449
 11
58.917865027052613
 21
34.510413084483644
  0
LINE
  8
_0-4_A0
  6
CENTER
 62
    3
 10
58.929935005990103
 20
79.668459054012885
 11
58.929935005990103
 21
75.283026855405807
  0
LINE
  8
_0-4_A0
  6
CONTINUOUS
 62
    3
 10
56.107450071935403
 20
90.603431949773195
 11
128.37411673853264
 21
90.603431949773195
  0
LINE
  8
_0-4_A0
  6
CONTINUOUS
 62
    3
 10
56.107450071900558
 20
23.936765283106538
 11
128.37411673863724
 21
23.936765283106538
  0
LINE
  8
_0-4_A0
  6
CONTINUOUS
 62
    3
 10
56.107450071935403
 20
90.603431949773195
 11
56.107450071900558
 21
23.936765283106538
  0
LINE
  8
_0-4_A0
  6
CENTER
 62
    3
 10
59.986179604481264
 20
25.933195991548473
 11
59.986179604483595
 21
21.482302698459548
  0
LINE
  8
_0-4_A0
  6
CENTER
 62
    3
 10
59.986179604446306
 20
92.802227801285368
 11
59.986179604448466
 21
88.643418878887487
  0
INSERT
  2
-041-_D29
  8
_0-4_A0
 10
-2.5000000000000568
 20
0.2411363636363716
 41
1
 42
1
 50
0
  0
LINE
  8
_0-4_A0
  6
CONTINUOUS
 62
    3
 10
69.913268339208656
 20
86.270098616439852
 11
117.60912953658643
 21
58.732880314924273
  0
LINE
  8
_0-4_A0
  6
CONTINUOUS
 62
    3
 10
73.246601672544102
 20
86.270098616439867
 11
117.60912953658643
 21
60.657381212222773
  0
LINE
  8
_0-4_A0
  6
CONTINUOUS
 62
    3
 10
76.579935005879292
 20
86.270098616439852
 11
117.60912953658643
 21
62.581882109521046
  0
LINE
  8
_0-4_A0
  6
CONTINUOUS
 62
    3
 10
79.913268339214369
 20
86.270098616439923
 11
117.60912953658643
 21
64.506383006819405
  0
LINE
  8
_0-4_A0
  6
CONTINUOUS
 62
    3
 10
83.246601672550141
 20
86.270098616439739
 11
117.60912953658643
 21
66.430883904117877
  0
LINE
  8
_0-4_A0
  6
CONTINUOUS
 62
    3
 10
86.57993500588509
 20
86.270098616439966
 11
117.60912953658643
 21
68.355384801416207
  0
LINE
  8
_0-4_A0
  6
CONTINUOUS
 62
    3
 10
89.913268339220479
 20
86.270098616439739
 11
117.60912953658643
 21
70.279885698714522
  0
LINE
  8
_0-4_A0
  6
CONTINUOUS
 62
    3
 10
93.246601672555797
 20
86.270098616439852
 11
117.60912953658643
 21
72.20438659601298
  0
LINE
  8
_0-4_A0
  6
CONTINUOUS
 62
    3
 10
96.579935005890718
 20
86.270098616439923
 11
117.60912953658643
 21
74.128887493311225
  0
LINE
  8
_0-4_A0
  6
CONTINUOUS
 62
    3
 10
99.913268339226348
 20
86.270098616439852
 11
117.60912953658643
 21
76.053388390609711
  0
LINE
  8
_0-4_A0
  6
CONTINUOUS
 62
    3
 10
103.24660167256162
 20
86.270098616439852
 11
117.60912953658643
 21
77.977889287908112
  0
LINE
  8
_0-4_A0
  6
CONTINUOUS
 62
    3
 10
106.57993500589674
 20
86.270098616439923
 11
117.60912953658643
 21
79.902390185206428
  0
LINE
  8
_0-4_A0
  6
CONTINUOUS
 62
    3
 10
109.91326833923224
 20
86.270098616439867
 11
117.60912953658643
 21
81.8268910825049
  0
LINE
  8
_0-4_A0
  6
CONTINUOUS
 62
    3
 10
113.24660167256743
 20
86.270098616439852
 11
117.60912953658643
 21
83.751391979803187
  0
LINE
  8
_0-4_A0
  6
CONTINUOUS
 62
    3
 10
116.57993500590264
 20
86.270098616439923
 11
117.60912953658643
 21
85.675892877101617
  0
LINE
  8
_0-4_A0
  6
CONTINUOUS
 62
    3
 10
102.30203973952413
 20
48.325423756777269
 11
117.60912953658643
 21
39.487871341940518
  0
LINE
  8
_0-4_A0
  6
CONTINUOUS
 62
    3
 10
102.82835552899433
 20
46.09705429674986
 11
117.60912953658643
 21
37.563370444642231
  0
LINE
  8
_0-4_A0
  6
CONTINUOUS
 62
    3
 10
103.35467131846444
 20
43.868684836722223
 11
117.60912953658643
 21
35.638869547343716
  0
LINE
  8
_0-4_A0
  6
CONTINUOUS
 62
    3
 10
103.88098710793474
 20
41.640315376694843
 11
117.60912953658643
 21
33.714368650045429
  0
LINE
  8
_0-4_A0
  6
CONTINUOUS
 62
    3
 10
104.40730289740494
 20
39.411945916667249
 11
117.60912953658643
 21
31.789867752747014
  0
LINE
  8
_0-4_A0
  6
CONTINUOUS
 62
    3
 10
104.93361868687513
 20
37.183576456639798
 11
117.60912953658643
 21
29.865366855448655
  0
LINE
  8
_0-4_A0
  6
CONTINUOUS
 62
    3
 10
105.45993447634522
 20
34.955206996612233
 11
117.03888184491724
 21
28.270098616439923
  0
LINE
  8
_0-4_A0
  6
CONTINUOUS
 62
    3
 10
105.98625026581544
 20
32.726837536584781
 11
113.70554851158243
 21
28.270098616439696
  0
LINE
  8
_0-4_A0
  6
CONTINUOUS
 62
    3
 10
106.51256605528564
 20
30.498468076557202
 11
110.37221517824683
 21
28.270098616439824
  0
LINE
  8
_0-4_A0
  6
CONTINUOUS
 62
    3
 10
113.70554851144352
 20
28.270098616439867
 11
117.60912953658643
 21
30.523832172109706
  0
LINE
  8
_0-4_A0
  6
CONTINUOUS
 62
    3
 10
110.37221517811032
 20
28.270098616439881
 11
117.60912953658643
 21
32.448333069408505
  0
LINE
  8
_0-4_A0
  6
CONTINUOUS
 62
    3
 10
107.03888184477713
 20
28.270098616439867
 11
117.60912953658643
 21
34.372833966707233
  0
LINE
  8
_0-4_A0
  6
CONTINUOUS
 62
    3
 10
106.63888184477903
 20
29.963659406063896
 11
117.60912953658643
 21
36.297334864005989
  0
LINE
  8
_0-4_A0
  6
CONTINUOUS
 62
    3
 10
106.23888184478083
 20
31.657220195687926
 11
117.60912953658643
 21
38.221835761304802
  0
LINE
  8
_0-4_A0
  6
CONTINUOUS
 62
    3
 10
105.83888184478284
 20
33.350780985311914
 11
117.60912953658643
 21
40.146336658603473
  0
LINE
  8
_0-4_A0
  6
CONTINUOUS
 62
    3
 10
105.43888184478474
 20
35.044341774935958
 11
117.60912953658643
 21
42.070837555902301
  0
LINE
  8
_0-4_A0
  6
CONTINUOUS
 62
    3
 10
105.03888184478664
 20
36.737902564559988
 11
117.60912953658643
 21
43.995338453201114
  0
LINE
  8
_0-4_A0
  6
CONTINUOUS
 62
    3
 10
104.63888184478854
 20
38.431463354184003
 11
117.60912953658643
 21
45.919839350499898
  0
LINE
  8
_0-4_A0
  6
CONTINUOUS
 62
    3
 10
104.23888184479044
 20
40.125024143808019
 11
117.60912953658643
 21
47.844340247798612
  0
LINE
  8
_0-4_A0
  6
CONTINUOUS
 62
    3
 10
103.83888184479242
 20
41.81858493343202
 11
117.60912953658643
 21
49.768841145097383
  0
LINE
  8
_0-4_A0
  6
CONTINUOUS
 62
    3
 10
103.43888184479432
 20
43.512145723056079
 11
117.60912953658643
 21
51.693342042396182
  0
LINE
  8
_0-4_A0
  6
CONTINUOUS
 62
    3
 10
103.03888184479623
 20
45.20570651268008
 11
117.60912953658643
 21
53.617842939694952
  0
LINE
  8
_0-4_A0
  6
CONTINUOUS
 62
    3
 10
102.63888184479823
 20
46.899267302304082
 11
117.60912953658643
 21
55.542343836993666
  0
LINE
  8
_0-4_A0
  6
CONTINUOUS
 62
    3
 10
102.23888184480024
 20
48.592828091928112
 11
117.60912953658643
 21
57.466844734292436
  0
LINE
  8
_0-4_A0
  6
CONTINUOUS
 62
    3
 10
101.83888184480214
 20
50.286388881552142
 11
117.60912953658643
 21
59.391345631591221
  0
LINE
  8
_0-4_A0
  6
CONTINUOUS
 62
    3
 10
101.43888184480394
 20
51.979949671176143
 11
117.60912953658643
 21
61.315846528889977
  0
LINE
  8
_0-4_A0
  6
CONTINUOUS
 62
    3
 10
101.03888184480594
 20
53.673510460800201
 11
117.60912953658643
 21
63.240347426188748
  0
LINE
  8
_0-4_A0
  6
CONTINUOUS
 62
    3
 10
100.63888184480784
 20
55.367071250424231
 11
117.60912953658643
 21
65.164848323487547
  0
LINE
  8
_0-4_A0
  6
CONTINUOUS
 62
    3
 10
100.23888184480972
 20
57.060632040048304
 11
117.60912953658643
 21
67.089349220786374
  0
LINE
  8
_0-4_A0
  6
CONTINUOUS
 62
    3
 10
99.838881844811737
 20
58.754192829672263
 11
117.60912953658643
 21
69.013850118085059
  0
LINE
  8
_0-4_A0
  6
CONTINUOUS
 62
    3
 10
99.438881844813636
 20
60.447753619296264
 11
117.60912953658643
 21
70.938351015383858
  0
LINE
  8
_0-4_A0
  6
CONTINUOUS
 62
    3
 10
99.038881844815549
 20
62.141314408920322
 11
117.60912953658643
 21
72.862851912682671
  0
LINE
  8
_0-4_A0
  6
CONTINUOUS
 62
    3
 10
98.638881844817447
 20
63.834875198544295
 11
117.60912953658643
 21
74.787352809981356
  0
LINE
  8
_0-4_A0
  6
CONTINUOUS
 62
    3
 10
98.238881844819445
 20
65.528435988168325
 11
117.60912953658643
 21
76.711853707280141
  0
LINE
  8
_0-4_A0
  6
CONTINUOUS
 62
    3
 10
97.838881844821344
 20
67.221996777792412
 11
117.60912953658643
 21
78.63635460457894
  0
LINE
  8
_0-4_A0
  6
CONTINUOUS
 62
    3
 10
97.438881844823228
 20
68.915557567416342
 11
117.60912953658643
 21
80.560855501877639
  0
LINE
  8
_0-4_A0
  6
CONTINUOUS
 62
    3
 10
97.038881844825212
 20
70.609118357040387
 11
117.60912953658643
 21
82.485356399176424
  0
LINE
  8
_0-4_A0
  6
CONTINUOUS
 62
    3
 10
93.705548511512361
 20
70.609118357052224
 11
117.60912953658643
 21
84.409857296475252
  0
LINE
  8
_0-4_A0
  6
CONTINUOUS
 62
    3
 10
90.372215178179075
 20
70.609118357052224
 11
117.49782868377104
 21
86.270098616440037
  0
LINE
  8
_0-4_A0
  6
CONTINUOUS
 62
    3
 10
87.03888184484586
 20
70.60911835705221
 11
114.16449535043753
 21
86.270098616439852
  0
LINE
  8
_0-4_A0
  6
CONTINUOUS
 62
    3
 10
83.705548511512645
 20
70.60911835705221
 11
110.83116201710464
 21
86.270098616440037
  0
LINE
  8
_0-4_A0
  6
CONTINUOUS
 62
    3
 10
80.372215178179487
 20
70.60911835705221
 11
107.49782868377093
 21
86.270098616439668
  0
LINE
  8
_0-4_A0
  6
CONTINUOUS
 62
    3
 10
77.038881844846116
 20
70.609118357052224
 11
104.16449535043794
 21
86.270098616439923
  0
LINE
  8
_0-4_A0
  6
CONTINUOUS
 62
    3
 10
73.705548511513029
 20
70.60911835705221
 11
100.83116201710494
 21
86.270098616439966
  0
LINE
  8
_0-4_A0
  6
CONTINUOUS
 62
    3
 10
70.372215178179885
 20
70.609118357052224
 11
97.497828683771459
 21
86.270098616439796
  0
LINE
  8
_0-4_A0
  6
CONTINUOUS
 62
    3
 10
67.038881844846542
 20
70.60911835705221
 11
94.16449535043813
 21
86.270098616439796
  0
LINE
  8
_0-4_A0
  6
CONTINUOUS
 62
    3
 10
63.778248627244977
 20
70.651091788440083
 11
90.831162017104887
 21
86.270098616439852
  0
LINE
  8
_0-4_A0
  6
CONTINUOUS
 62
    3
 10
63.778248627245972
 20
72.575592685739437
 11
87.497828683771459
 21
86.270098616439739
  0
LINE
  8
_0-4_A0
  6
CONTINUOUS
 62
    3
 10
63.778248627246995
 20
74.500093583038776
 11
84.164495350438826
 21
86.270098616440108
  0
LINE
  8
_0-4_A0
  6
CONTINUOUS
 62
    3
 10
63.778248627247961
 20
76.424594480338114
 11
80.831162017105185
 21
86.270098616439867
  0
LINE
  8
_0-4_A0
  6
CONTINUOUS
 62
    3
 10
63.778248627249013
 20
78.349095377637468
 11
77.497828683771928
 21
86.270098616439867
  0
LINE
  8
_0-4_A0
  6
CONTINUOUS
 62
    3
 10
63.778248627249979
 20
80.273596274936821
 11
74.164495350438357
 21
86.270098616439696
  0
LINE
  8
_0-4_A0
  6
CONTINUOUS
 62
    3
 10
63.778248627251002
 20
82.198097172236145
 11
70.831162017105611
 21
86.270098616439966
  0
LINE
  8
_0-4_A0
  6
CONTINUOUS
 62
    3
 10
63.778248627251969
 20
84.122598069535442
 11
67.497828683772354
 21
86.270098616439923
  0
LINE
  8
_0-4_A0
  6
CONTINUOUS
 62
    3
 10
63.778248627252963
 20
85.963152104021446
 11
90.372215178151606
 21
70.60911835705221
  0
LINE
  8
_0-4_A0
  6
CONTINUOUS
 62
    3
 10
98.091513423762847
 20
66.152379436997108
 11
117.60912953658643
 21
54.883878520327442
  0
LINE
  8
_0-4_A0
  6
CONTINUOUS
 62
    3
 10
66.579935005873551
 20
86.270098616439852
 11
93.705548511487293
 21
70.609118357052224
  0
LINE
  8
_0-4_A0
  6
CONTINUOUS
 62
    3
 10
97.565197634292644
 20
68.380748897024844
 11
117.60912953658643
 21
56.808379417625999
  0
LINE
  8
_0-4_A0
  6
CONTINUOUS
 62
    3
 10
63.77824862725194
 20
84.038651206723784
 11
87.038881844816557
 21
70.60911835705221
  0
LINE
  8
_0-4_A0
  6
CONTINUOUS
 62
    3
 10
98.617829213232937
 20
63.924009976969756
 11
117.60912953658643
 21
52.959377623029183
  0
LINE
  8
_0-4_A0
  6
CONTINUOUS
 62
    3
 10
63.778248627250974
 20
82.114150309426065
 11
83.705548511481339
 21
70.60911835705221
  0
LINE
  8
_0-4_A0
  6
CONTINUOUS
 62
    3
 10
99.144145002703041
 20
61.695640516942319
 11
117.60912953658643
 21
51.034876725730811
  0
LINE
  8
_0-4_A0
  6
CONTINUOUS
 62
    3
 10
63.778248627249951
 20
80.189649412128332
 11
80.372215178146234
 21
70.60911835705221
  0
LINE
  8
_0-4_A0
  6
CONTINUOUS
 62
    3
 10
99.670460792173244
 20
59.46727105691491
 11
117.60912953658643
 21
49.110375828432466
  0
LINE
  8
_0-4_A0
  6
CONTINUOUS
 62
    3
 10
63.778248627248956
 20
78.265148514830414
 11
77.038881844810646
 21
70.609118357052224
  0
LINE
  8
_0-4_A0
  6
CONTINUOUS
 62
    3
 10
100.19677658164353
 20
57.238901596887188
 11
117.60912953658643
 21
47.18587493113398
  0
LINE
  8
_0-4_A0
  6
CONTINUOUS
 62
    3
 10
63.77824862724691
 20
74.416146720234735
 11
70.372215178140038
 21
70.609118357052182
  0
LINE
  8
_0-4_A0
  6
CONTINUOUS
 62
    3
 10
101.24940816058384
 20
52.7821626768322
 11
117.60912953658643
 21
43.336873136537207
  0
LINE
  8
_0-4_A0
  6
CONTINUOUS
 62
    3
 10
63.778248627245943
 20
72.491645822936931
 11
67.038881844804677
 21
70.609118357052224
  0
LINE
  8
_0-4_A0
  6
CONTINUOUS
 62
    3
 10
101.77572395005404
 20
50.553793216804649
 11
117.60912953658643
 21
41.412372239238749
  0
LINE
  8
_0-4_A0
  6
CONTINUOUS
 62
    3
 10
63.778248627247933
 20
76.340647617532681
 11
73.705548511475484
 21
70.609118357052224
  0
LINE
  8
_0-4_A0
  6
CONTINUOUS
 62
    3
 10
100.72309237111373
 20
55.010532136859808
 11
117.60912953658643
 21
45.261374033835693
  0
LINE
  8
_0-4_A0
  6
CONTINUOUS
 62
    3
 10
63.77824862725194
 20
84.038651206723784
 11
87.038881844816557
 21
70.60911835705221
  0
LINE
  8
_0-4_A0
  6
CONTINUOUS
 62
    3
 10
98.617829213232937
 20
63.924009976969728
 11
117.71326833932343
 21
52.899253057235924
  0
INSERT
  2
-044-$$BALLOON$$9
  8
_0-4_A0
 10
90.37221517816387
 20
80.231622843537167
 41
1
 42
1
 50
0
  0
INSERT
  2
-047-$$BALLOON$$10
  8
_0-4_A0
 10
58.929935005990103
 20
77.436765283106538
 41
1
 42
1
 50
0
  0
LINE
  8
_0-4_A0
  6
CONTINUOUS
 62
    3
 10
124.36048011739895
 20
127.47507018958987
 11
124.27922838325004
 21
126.94796242058797
  0
LINE
  8
_0-4_A0
  6
CONTINUOUS
 62
    3
 10
57.351904983016879
 20
137.80419689323127
 11
57.270653248867972
 21
137.27708912422917
  0
LINE
  8
_0-4_A0
  6
CENTER
 62
    3
 10
59.223195938977511
 20
139.00396343461298
 11
58.525691663663309
 21
134.47901481312968
  0
LINE
  8
_0-4_A0
  6
CONTINUOUS
 62
    3
 10
63.859500361393259
 20
136.26144244737167
 11
63.778248627244352
 21
135.73433467836977
  0
LINE
  8
_0-4_A0
  6
CONTINUOUS
 62
    3
 10
120.96449189345024
 20
127.32400881676636
 11
120.94417895991294
 21
127.19223187451557
  0
LINE
  8
_0-4_A0
  6
CONTINUOUS
 62
    3
 10
117.69038127072474
 20
127.96360909744555
 11
117.60912953657583
 21
127.43650132844355
  0
LINE
  8
_0-4_A0
  6
CONTINUOUS
 62
    3
 10
60.747378955482872
 20
136.20153214972415
 11
63.778248627244352
 21
135.73433467836977
  0
LINE
  8
_0-4_A0
  6
CONTINUOUS
 62
    3
 10
117.60912953657583
 20
127.43650132844355
 11
120.63999920833764
 21
126.96930385708907
  0
LINE
  8
_0-4_A0
  6
CONTINUOUS
 62
    3
 10
61.132810441207112
 20
136.95156793615257
 11
61.1124975076699
 21
136.81979099390235
  0
ARC
  8
_0-4_A0
  6
CONTINUOUS
 62
    3
 10
60.869256556706147
 20
136.99219380322708
 40
0.2666666666666667
 50
351.23703668826141
 51
81.237036688293315
  0
ARC
  8
_0-4_A0
  6
CONTINUOUS
 62
    3
 10
60.788004822557184
 20
136.46508603422526
 40
0.2666666666666667
 50
171.23703668825768
 51
261.23703668829341
  0
ARC
  8
_0-4_A0
  6
CONTINUOUS
 62
    3
 10
61.244274449920396
 20
136.79947806036517
 40
0.1333333333333333
 50
171.237036688262
 51
261.23703668829131
  0
LINE
  8
_0-4_A0
  6
CONTINUOUS
 62
    3
 10
60.544763871593403
 20
136.63748884354995
 11
60.52445093805619
 21
136.50571190129966
  0
ARC
  8
_0-4_A0
  6
CONTINUOUS
 62
    3
 10
60.412986929342878
 20
136.65780177708717
 40
0.1333333333333333
 50
351.23703668826271
 51
81.237036688290146
  0
LINE
  8
_0-4_A0
  6
CONTINUOUS
 62
    3
 10
57.270653248868029
 20
137.27708912422937
 11
60.433299862880062
 21
136.78957871933766
  0
LINE
  8
_0-4_A0
  6
CONTINUOUS
 62
    3
 10
57.270653248813289
 20
86.270098616439895
 11
57.270653248782934
 21
28.270098616439867
  0
LINE
  8
_0-4_A0
  6
CONTINUOUS
 62
    3
 10
63.778248627253134
 20
86.270098616439895
 11
63.778248627222808
 21
28.270098616439867
  0
LINE
  8
_0-4_A0
  6
CONTINUOUS
 62
    3
 10
60.524450938062045
 20
86.270098616439895
 11
60.524450938062045
 21
28.270098616439867
  0
LINE
  8
_0-4_A0
  6
CONTINUOUS
 62
    3
 10
120.49832292505972
 20
127.80059137766646
 11
120.47800999152254
 21
127.66881443541565
  0
ARC
  8
_0-4_A0
  6
CONTINUOUS
 62
    3
 10
121.09626883570064
 20
127.30369588322915
 40
0.1333333333333333
 50
81.237036688294196
 51
171.23703668826081
  0
ARC
  8
_0-4_A0
  6
CONTINUOUS
 62
    3
 10
120.34623304927214
 20
127.68912736895296
 40
0.1333333333333333
 50
261.23703668829421
 51
351.23703668826198
  0
ARC
  8
_0-4_A0
  6
CONTINUOUS
 62
    3
 10
120.68062507541192
 20
127.23285774159006
 40
0.2666666666666667
 50
261.23703668829477
 51
351.23703668825862
  0
ARC
  8
_0-4_A0
  6
CONTINUOUS
 62
    3
 10
120.76187680956084
 20
127.75996551059195
 40
0.2666666666666667
 50
81.237036688294836
 51
171.23703668825859
  0
LINE
  8
_0-4_A0
  6
CONTINUOUS
 62
    3
 10
61.223961516383269
 20
136.66770111811476
 11
120.32592011573494
 21
127.55735042670247
  0
LINE
  8
_0-4_A0
  6
CONTINUOUS
 62
    3
 10
121.11658176923782
 20
127.43547282547966
 11
124.27922838324994
 21
126.94796242058797
  0
LINE
  8
_0-4_A0
  6
CONTINUOUS
 62
    3
 10
124.27922838336472
 20
86.270098616439895
 11
124.27922838336472
 21
28.270098616439867
  0
LINE
  8
_0-4_A0
  6
CONTINUOUS
 62
    3
 10
120.94417895987804
 20
86.270098616439895
 11
120.94417895993872
 21
28.270098616439867
  0
LINE
  8
_0-4_A0
  6
CONTINUOUS
 62
    3
 10
117.60912953658643
 20
86.270098616439895
 11
117.60912953658643
 21
28.270098616439867
  0
CIRCLE
  8
_0-4_A0
  6
CONTINUOUS
 62
    3
 10
215.73873013832374
 20
125.49602506488456
 40
0.8333333333333331
  0
CIRCLE
  8
_0-4_A0
  6
CONTINUOUS
 62
    3
 10
255.73873013832383
 20
125.49602506488456
 40
0.8333333333333331
  0
CIRCLE
  8
_0-4_A0
  6
CONTINUOUS
 62
    3
 10
199.90539680502354
 20
141.32935839821797
 40
0.8333333333333331
  0
CIRCLE
  8
_0-4_A0
  6
CONTINUOUS
 62
    3
 10
199.90539680512804
 20
191.32935839821797
 40
0.8333333333333331
  0
CIRCLE
  8
_0-4_A0
  6
CONTINUOUS
 62
    3
 10
215.73873013848745
 20
203.82935839821797
 40
0.8333333333333331
  0
CIRCLE
  8
_0-4_A0
  6
CONTINUOUS
 62
    3
 10
255.73873013848742
 20
203.82935839821797
 40
0.8333333333333331
  0
CIRCLE
  8
_0-4_A0
  6
CONTINUOUS
 62
    3
 10
271.57206347179476
 20
191.32935839821797
 40
0.8333333333333331
  0
CIRCLE
  8
_0-4_A0
  6
CONTINUOUS
 62
    3
 10
271.57206347169022
 20
141.32935839821797
 40
0.8333333333333331
  0
LINE
  8
_0-4_A0
  6
CONTINUOUS
 62
    3
 10
236.23524030471494
 20
156.52137715204676
 11
239.27859669542183
 21
183.04787762836366
  0
LINE
  8
_0-4_A0
  6
CONTINUOUS
 62
    3
 10
236.90539680476663
 20
156.59259438668988
 11
239.95703539123823
 21
183.04787762836278
  0
LINE
  8
_0-4_A0
  6
CONTINUOUS
 62
    3
 10
232.19886942654954
 20
183.04787762837128
 11
235.23958235015615
 21
156.56341415723818
  0
LINE
  8
_0-4_A0
  6
CONTINUOUS
 62
    3
 10
231.52043013809995
 20
183.04787762837207
 11
234.58934261393224
 21
156.39254581659056
  0
POINT
  8
_0-4_A0
 62
    7
 10
374.68821093040077
 20
112.39759523286207
  0
CIRCLE
  8
_0-4_A0
  6
CONTINUOUS
 62
    3
 10
235.73873013840554
 20
164.66269173155126
 40
24.66666666666666
  0
CIRCLE
  8
_0-4_A0
  6
CONTINUOUS
 62
    3
 10
235.73873013840554
 20
164.66269173155126
 40
24.93333333333333
  0
LINE
  8
_0-4_A0
  6
CONTINUOUS
 62
    3
 10
274.73873013849043
 20
205.26269173154756
 11
274.73873013832076
 21
124.06269173154767
  0
LINE
  8
_0-4_A0
  6
CONTINUOUS
 62
    3
 10
196.73873013849055
 20
205.26269173155486
 11
196.73873013832073
 21
124.06269173155486
  0
LINE
  8
_0-4_A0
  6
CONTINUOUS
 62
    3
 10
198.47206347182373
 20
206.99602506488457
 11
273.00539680515714
 21
206.99602506488457
  0
LINE
  8
_0-4_A0
  6
CONTINUOUS
 62
    3
 10
198.47206347165405
 20
122.32935839821797
 11
273.00539680498735
 21
122.32935839821797
  0
ARC
  8
_0-4_A0
  6
CONTINUOUS
 62
    3
 10
273.00539680515714
 20
205.26269173155128
 40
1.7333333333333329
 50
0
 51
90
  0
ARC
  8
_0-4_A0
  6
CONTINUOUS
 62
    3
 10
198.47206347182373
 20
205.26269173155128
 40
1.7333333333333329
 50
90
 51
180
  0
ARC
  8
_0-4_A0
  6
CONTINUOUS
 62
    3
 10
198.47206347165405
 20
124.06269173155125
 40
1.7333333333333329
 50
180
 51
270
  0
ARC
  8
_0-4_A0
  6
CONTINUOUS
 62
    3
 10
273.00539680498735
 20
124.06269173155125
 40
1.7333333333333329
 50
270
 51
0
  0
LINE
  8
_0-4_A0
  6
CENTER
 62
    3
 10
195.44785417391415
 20
141.32935839821797
 11
204.02338108901653
 21
141.32935839821797
  0
LINE
  8
_0-4_A0
  6
CENTER
 62
    3
 10
267.88040479352503
 20
141.32935839821797
 11
275.84338614393271
 21
141.32935839821797
  0
LINE
  8
_0-4_A0
  6
CENTER
 62
    3
 10
195.44785417391415
 20
191.32935839821797
 11
204.02338108901653
 21
191.32935839821797
  0
LINE
  8
_0-4_A0
  6
CENTER
 62
    3
 10
267.88040479352503
 20
191.32935839821797
 11
275.84338614393271
 21
191.32935839821797
  0
LINE
  8
_0-4_A0
  6
CENTER
 62
    3
 10
271.57206347169943
 20
145.76436046017528
 11
271.57206347168181
 21
137.34197139667128
  0
LINE
  8
_0-4_A0
  6
CENTER
 62
    3
 10
271.57206347180346
 20
195.53302894991307
 11
271.57206347178492
 21
186.65123217325037
  0
INSERT
  2
-175-_U183
  8
_0-0_0
 10
-2.5000000000000568
 20
0.2411363636363716
 41
1
 42
1
 50
0
  0
LINE
  8
_0-4_A0
  6
CENTER
 62
    3
 10
209.85965060704583
 20
203.82935839821797
 11
220.51574901063582
 21
203.82935839821797
  0
LINE
  8
_0-4_A0
  6
CENTER
 62
    3
 10
252.10344646478804
 20
203.82935839821797
 11
260.85664319188555
 21
203.82935839821797
  0
LINE
  8
_0-4_A0
  6
CONTINUOUS
 62
    3
 10
128.37411673864113
 20
122.32935839820686
 11
128.37411673864113
 21
122.59602506487347
  0
LINE
  8
_0-4_A0
  6
CONTINUOUS
 62
    3
 10
129.70745007197453
 20
122.59602506487347
 11
129.70745007197453
 21
138.32935839843167
  0
LINE
  8
_0-4_A0
  6
CONTINUOUS
 62
    3
 10
129.44078340530785
 20
122.59602506487347
 11
129.44078340530785
 21
164.66269173153978
  0
LINE
  8
_0-4_A0
  6
CONTINUOUS
 62
    3
 10
139.70745007197453
 20
140.26269173149367
 11
131.37411673863815
 21
140.26269173148065
  0
LINE
  8
_0-4_A0
  6
CONTINUOUS
 62
    3
 10
139.70745007197453
 20
139.99602506509836
 11
131.37411673864113
 21
139.99602506509836
  0
LINE
  8
_0-4_A0
  6
CONTINUOUS
 62
    3
 10
139.70745007197453
 20
139.99602506509836
 11
139.70745007197453
 21
164.66269173154017
  0
ARC
  8
_0-4_A0
  6
CONTINUOUS
 62
    3
 10
131.37411673864113
 20
138.32935839843167
 40
1.666666666666666
 50
90
 51
180
  0
ARC
  8
_0-4_A0
  6
CONTINUOUS
 62
    3
 10
131.37411673864113
 20
138.32935839814726
 40
1.9333333333333329
 50
90
 51
180
  0
LINE
  8
_0-4_A0
  6
CONTINUOUS
 62
    3
 10
139.70745007189793
 20
189.06269173161797
 11
131.37411673856163
 21
189.06269173160475
  0
LINE
  8
_0-4_A0
  6
CONTINUOUS
 62
    3
 10
139.70745007189705
 20
189.32935839801328
 11
131.37411673856374
 21
189.32935839798716
  0
LINE
  8
_0-4_A0
  6
CONTINUOUS
 62
    3
 10
139.70745007189705
 20
189.32935839801328
 11
139.70745007197444
 21
164.66269173157158
  0
ARC
  8
_0-4_A0
  6
CONTINUOUS
 62
    3
 10
131.37411673855865
 20
190.99602506465376
 40
1.666666666666666
 50
180.00000000017962
 51
270.00000000017962
  0
ARC
  8
_0-4_A0
  6
CONTINUOUS
 62
    3
 10
131.37411673855865
 20
190.99602506493818
 40
1.9333333333333329
 50
180.00000000017962
 51
270.00000000017962
  0
LINE
  8
_0-4_A0
  6
CONTINUOUS
 62
    3
 10
128.37411673850834
 20
206.99602506487346
 11
128.37411673850922
 21
206.72935839820686
  0
LINE
  8
_0-4_A0
  6
CONTINUOUS
 62
    3
 10
129.70745007184254
 20
206.72935839820777
 11
129.70745007189185
 21
190.99602506464856
  0
LINE
  8
_0-4_A0
  6
CONTINUOUS
 62
    3
 10
129.44078340517583
 20
206.72935839820686
 11
129.44078340530774
 21
164.66269173153978
  0
LINE
  8
_0-4_A0
  6
CONTINUOUS
 62
    3
 10
128.37411673850834
 20
206.99602506487357
 11
129.44078340517594
 21
206.99602506487357
  0
LINE
  8
_0-4_A0
  6
CONTINUOUS
 62
    3
 10
128.37411673864113
 20
122.32935839820686
 11
129.44078340530785
 21
122.32935839820686
  0
ARC
  8
_0-4_A0
  6
CONTINUOUS
 62
    3
 10
129.44078340530785
 20
122.59602506487347
 40
0.2666666666666667
 50
270
 51
0
  0
LINE
  8
_0-4_A0
  6
CONTINUOUS
 62
    3
 10
128.37411673864113
 20
122.59602506487347
 11
129.44078340530785
 21
122.59602506487347
  0
ARC
  8
_0-4_A0
  6
CONTINUOUS
 62
    3
 10
129.44078340517594
 20
206.72935839820686
 40
0.2666666666666667
 50
0
 51
90
  0
LINE
  8
_0-4_A0
  6
CONTINUOUS
 62
    3
 10
128.37411673850834
 20
206.72935839820686
 11
129.44078340517594
 21
206.72935839820686
  0
LINE
  8
_0-4_A0
  6
CONTINUOUS
 62
    3
 10
128.37411673863724
 20
14.936765283285893
 11
128.37411673863724
 21
57.27009861661709
  0
LINE
  8
_0-4_A0
  6
CONTINUOUS
 62
    3
 10
129.70745007197055
 20
15.203431949952545
 11
129.70745007197055
 21
57.270098616619193
  0
LINE
  8
_0-4_A0
  6
CONTINUOUS
 62
    3
 10
139.70745007197044
 20
32.603431950177423
 11
131.37411673863724
 21
32.603431950177423
  0
LINE
  8
_0-4_A0
  6
CONTINUOUS
 62
    3
 10
139.70745007197044
 20
32.603431950177423
 11
139.70745007197044
 21
57.270098616619193
  0
ARC
  8
_0-4_A0
  6
CONTINUOUS
 62
    3
 10
131.37411673863724
 20
30.936765283510752
 40
1.666666666666666
 50
90
 51
180
  0
LINE
  8
_0-4_A0
  6
CONTINUOUS
 62
    3
 10
139.70745007189324
 20
81.936765283092299
 11
131.37411673855984
 21
81.936765283066165
  0
LINE
  8
_0-4_A0
  6
CONTINUOUS
 62
    3
 10
139.70745007189324
 20
81.936765283092299
 11
139.70745007197044
 21
57.270098616650571
  0
ARC
  8
_0-4_A0
  6
CONTINUOUS
 62
    3
 10
131.37411673855464
 20
83.603431949732808
 40
1.666666666666666
 50
180.00000000017962
 51
270.00000000017962
  0
LINE
  8
_0-4_A0
  6
CONTINUOUS
 62
    3
 10
128.37411673850445
 20
99.603431949952579
 11
128.37411673863724
 21
57.270098616617062
  0
LINE
  8
_0-4_A0
  6
CONTINUOUS
 62
    3
 10
129.70745007183865
 20
99.336765283286752
 11
129.70745007197055
 21
57.270098616619208
  0
LINE
  8
_0-4_A0
  6
CONTINUOUS
 62
    3
 10
128.37411673850445
 20
99.60343194995255
 11
129.44078340517194
 21
99.60343194995255
  0
LINE
  8
_0-4_A0
  6
CONTINUOUS
 62
    3
 10
128.37411673863724
 20
14.936765283285893
 11
129.44078340530393
 21
14.936765283285893
  0
ARC
  8
_0-4_A0
  6
CONTINUOUS
 62
    3
 10
129.44078340530393
 20
15.203431949952545
 40
0.2666666666666667
 50
270
 51
0
  0
ARC
  8
_0-4_A0
  6
CONTINUOUS
 62
    3
 10
129.44078340517194
 20
99.336765283285885
 40
0.2666666666666667
 50
0
 51
90
  0
LINE
  8
_0-4_A0
  6
CENTER
 62
    3
 10
209.85965060704583
 20
125.49602506488456
 11
220.51574901063582
 21
125.49602506488456
  0
LINE
  8
_0-4_A0
  6
CENTER
 62
    3
 10
252.10344646478804
 20
125.49602506488456
 11
260.85664319188555
 21
125.49602506488456
  0
LINE
  8
_0-4_A0
  6
CENTER
 62
    3
 10
255.73873013833093
 20
128.90193069425257
 11
255.73873013831502
 21
121.33529270981937
  0
LINE
  8
_0-4_A0
  6
CENTER
 62
    3
 10
255.73873013849936
 20
209.46825215473097
 11
255.73873013847855
 21
199.51451962511038
  0
LINE
  8
_0-4_A0
  6
CENTER
 62
    3
 10
215.73873013833085
 20
128.90193069433615
 11
215.73873013831504
 21
121.33529270990297
  0
LINE
  8
_0-4_A0
  6
CENTER
 62
    3
 10
215.73873013849933
 20
209.46825215481467
 11
215.73873013847853
 21
199.51451962519388
  0
LINE
  8
_0-4_A0
  6
CONTINUOUS
 62
    3
 10
129.44078340517714
 20
206.32935839821797
 11
128.90745007184384
 21
206.32935839821797
  0
LINE
  8
_0-4_A0
  6
CONTINUOUS
 62
    3
 10
129.44078340530785
 20
122.99602506488456
 11
128.90745007197455
 21
122.99602506488456
  0
LINE
  8
_0-4_A0
  6
CONTINUOUS
 62
    3
 10
85.344485727013719
 20
195.41480282290098
 11
129.44078340519283
 21
201.32935839789448
  0
LINE
  8
_0-4_A0
  6
CONTINUOUS
 62
    3
 10
97.134953241826323
 20
196.45812723855607
 11
128.90745007186143
 21
200.71971399645155
  0
LINE
  8
_0-4_A0
  6
CONTINUOUS
 62
    3
 10
128.90745007197455
 20
122.99602506488456
 11
128.90745007197455
 21
127.99602506488456
  0
LINE
  8
_0-4_A0
  6
CONTINUOUS
 62
    3
 10
127.90745007197455
 20
127.46269173155127
 11
124.44078340530784
 21
127.46269173155127
  0
LINE
  8
_0-4_A0
  6
CONTINUOUS
 62
    3
 10
127.90745007197455
 20
127.46269173155127
 11
127.90745007197455
 21
127.99602506488456
  0
LINE
  8
_0-4_A0
  6
CONTINUOUS
 62
    3
 10
56.107450071974483
 20
137.99602506488457
 11
124.44078340530784
 21
127.46269173155127
  0
LINE
  8
_0-4_A0
  6
CONTINUOUS
 62
    3
 10
56.255321286808879
 20
138.51286368466875
 11
124.44173185136654
 21
128.00217795861996
  0
LINE
  8
_0-4_A0
  6
CONTINUOUS
 62
    3
 10
57.282852672030372
 20
139.15751598598447
 11
77.29835132412191
 21
179.28182563838117
  0
LINE
  8
_0-4_A0
  6
CENTER
 62
    3
 10
59.236276407797674
 20
138.59299278526037
 11
61.304073603581855
 21
142.73822725701478
  0
LINE
  8
_0-4_A0
  6
CENTER
 62
    3
 10
57.910739442792021
 20
140.41621673856607
 11
62.886714832356233
 21
139.64918833705277
  0
LINE
  8
_0-4_A0
  6
CONTINUOUS
 62
    3
 10
57.282852672030344
 20
139.15751598598455
 11
56.805603066855098
 21
139.39558584716925
  0
ARC
  8
_0-4_A0
  6
CONTINUOUS
 62
    3
 10
106.64920204238903
 20
164.64052917549918
 40
33.333333333333328
 50
97.639383840894183
 51
153.4882720086685
  0
ARC
  8
_0-4_A0
  6
CONTINUOUS
 62
    3
 10
106.64920204238903
 20
164.64052917549918
 40
32.799999999999997
 50
106.76142954888771
 51
153.48827200866853
  0
LINE
  8
_0-4_A0
  6
CONTINUOUS
 62
    3
 10
129.44078340530785
 20
128.52935839821796
 11
124.48164777591452
 21
128.52935839821796
  0
LINE
  8
_0-4_A0
  6
CONTINUOUS
 62
    3
 10
128.90745007197455
 20
127.99602506488456
 11
124.44078340530784
 21
127.99602506488456
  0
LINE
  8
_0-4_A0
  6
CONTINUOUS
 62
    3
 10
117.93413647317153
 20
129.54493240445106
 11
117.85288473902254
 21
129.01782463544907
  0
LINE
  8
_0-4_A0
  6
CONTINUOUS
 62
    3
 10
117.93413647317153
 20
129.54493240445137
 11
124.56289951006324
 21
128.52313283388667
  0
LINE
  8
_0-4_A0
  6
CONTINUOUS
 62
    3
 10
102.14704532281324
 20
198.20660871993646
 11
128.90745007185805
 21
201.79593275463577
  0
LINE
  8
_0-4_A0
  6
CONTINUOUS
 62
    3
 10
128.90745007185964
 20
201.25782337554366
 11
128.90745007186134
 21
200.71971399645147
  0
LINE
  8
_0-4_A0
  6
CONTINUOUS
 62
    3
 10
128.90745007184384
 20
206.32935839821797
 11
128.90745007185805
 21
201.79593275463588
  0
ARC
  8
_0-4_A0
  6
CONTINUOUS
 62
    3
 10
106.64920204238903
 20
164.64052917549918
 40
33.86666666666666
 50
97.639383840894211
 51
153.48827200866853
  0
LINE
  8
_0-4_A0
  6
CONTINUOUS
 62
    3
 10
56.007822617417389
 20
138.99109970353578
 11
76.343852113771731
 21
179.75796536075128
  0
LINE
  8
_0-4_A0
  6
CONTINUOUS
 62
    3
 10
56.107450071974483
 20
137.99602506488457
 11
56.357417804184194
 21
138.49712588003916
  0
LINE
  8
_0-4_A0
  6
CONTINUOUS
 62
    3
 10
56.70931329789505
 20
139.20255740589627
 11
84.707450071842487
 21
195.32935839821786
  0
LINE
  8
_0-4_A0
  6
CONTINUOUS
 62
    3
 10
56.833062632590838
 20
138.96343939646297
 11
63.356803410443433
 21
137.95782862290135
  0
ARC
  8
_0-4_A0
  6
CONTINUOUS
 62
    3
 10
56.306103620651782
 20
138.84230604029497
 40
0.3333333333333333
 50
153.4882720086689
 51
261.2370366882917
  0
ARC
  8
_0-4_A0
  6
CONTINUOUS
 62
    3
 10
56.858453799512233
 20
139.12816057427608
 40
0.1666666666666667
 50
153.4882720086675
 51
261.237036688295
  0
INSERT
  2
-049-_D32
  8
_0-4_A0
 10
-2.5000000000000568
 20
0.2411363636363716
 41
1
 42
1
 50
0
  0
INSERT
  2
-051-_D33
  8
_0-4_A0
 10
-2.5000000000000568
 20
0.2411363636363716
 41
1
 42
1
 50
0
  0
INSERT
  2
-053-_D34
  8
_0-4_A0
 10
-2.5000000000000568
 20
0.2411363636363716
 41
1
 42
1
 50
0
  0
INSERT
  2
-055-_D35
  8
_0-4_A0
 10
-2.5000000000000568
 20
0.2411363636363716
 41
1
 42
1
 50
0
  0
INSERT
  2
-057-_D36
  8
_0-4_A0
 10
-2.5000000000000568
 20
0.2411363636363716
 41
1
 42
1
 50
0
  0
INSERT
  2
-059-_D37
  8
_0-4_A0
 10
-2.5000000000000568
 20
0.2411363636363716
 41
1
 42
1
 50
0
  0
INSERT
  2
-061-_D38
  8
_0-4_A0
 10
-2.5000000000000568
 20
0.2411363636363716
 41
1
 42
1
 50
0
  0
INSERT
  2
-063-_D39
  8
_0-4_A0
 10
-2.5000000000000568
 20
0.2411363636363716
 41
1
 42
1
 50
0
  0
LINE
  8
_0-4_A0
  6
CENTER
 62
    3
 10
199.90539680503275
 20
145.76436046032517
 11
199.90539680501512
 21
137.34197139682106
  0
LINE
  8
_0-4_A0
  6
CENTER
 62
    3
 10
199.90539680513683
 20
195.53302895006277
 11
199.90539680511824
 21
186.65123217340007
  0
LINE
  8
_0-4_A0
  6
CENTER
 62
    3
 10
235.73873013854114
 20
229.53645336579026
 11
235.73873013854995
 21
233.71856354067378
  0
LINE
  8
_0-4_A0
  6
CENTER
 62
    3
 10
235.73873013829103
 20
109.85995386492477
 11
235.73873013850024
 21
209.97300654362567
  0
LINE
  8
_0-4_A0
  6
CENTER
 62
    3
 10
118.14110252260674
 20
164.66269173154017
 11
143.88946799564874
 21
164.66269173154017
  0
LINE
  8
_0-4_A0
  6
CENTER
 62
    3
 10
181.69490583987155
 20
164.66269173154017
 11
286.35466169414866
 21
164.66269173154017
  0
LINE
  8
_0-4_A0
  6
CENTER
 62
    3
 10
150.88946799564874
 20
164.66269173154017
 11
163.97037161447775
 21
164.66269173154017
  0
LINE
  8
_0-4_A0
  6
CENTER
 62
    3
 10
170.97037161447784
 20
164.66269173154017
 11
174.69490583987155
 21
164.66269173154017
  0
ARC
  8
_0-4_A0
  6
CONTINUOUS
 62
    3
 10
104.87537382277884
 20
196.42011690398967
 40
3
 50
81.758533832386788
 51
113.52023384928928
  0
LINE
  8
_0-4_A0
  6
CONTINUOUS
 62
    3
 10
105.66612540303124
 20
199.05509636324146
 11
105.74808519482853
 21
198.68960959693146
  0
LINE
  8
_0-4_A0
  6
CONTINUOUS
 62
    3
 10
103.43546160416852
 20
198.37942163396897
 11
103.41821307670204
 21
198.75358800355016
  0
ARC
  8
_0-4_A0
  6
CONTINUOUS
 62
    3
 10
105.24329321637245
 20
198.96027695751126
 40
0.4333333333333334
 50
12.63938384088588
 51
81.758533832461878
  0
ARC
  8
_0-4_A0
  6
CONTINUOUS
 62
    3
 10
103.85108670935923
 20
198.77354285077697
 40
0.4333333333333334
 50
113.52023384924839
 51
182.63938384088532
  0
LINE
  8
_0-4_A0
  6
CONTINUOUS
 62
    3
 10
105.74808519482853
 20
198.68960959693177
 11
103.43546160416852
 21
198.37942163396897
  0
CIRCLE
  8
_0-4_A0
  6
CONTINUOUS
 62
    3
 10
122.71326833932343
 20
77.270098616439867
 40
1.166666666666666
  0
LINE
  8
_0-4_A0
  6
CONTINUOUS
 62
    3
 10
122.54660167265673
 20
76.936765283106538
 11
122.37993500599013
 21
77.103431949773224
  0
LINE
  8
_0-4_A0
  6
CONTINUOUS
 62
    3
 10
122.37993500599013
 20
77.436765283106538
 11
122.54660167265673
 21
77.603431949773224
  0
LINE
  8
_0-4_A0
  6
CONTINUOUS
 62
    3
 10
123.39660167265674
 20
77.436765283106538
 11
123.39660167265674
 21
77.103431949773224
  0
LINE
  8
_0-4_A0
  6
CONTINUOUS
 62
    3
 10
122.87993500599013
 20
76.586765283106529
 11
122.54660167265673
 21
76.586765283106529
  0
LINE
  8
_0-4_A0
  6
CONTINUOUS
 62
    3
 10
122.02993500599012
 20
77.103431949773224
 11
122.02993500599012
 21
77.436765283106538
  0
LINE
  8
_0-4_A0
  6
CONTINUOUS
 62
    3
 10
122.54660167265673
 20
77.953431949773204
 11
122.87993500599013
 21
77.953431949773204
  0
LINE
  8
_0-4_A0
  6
CONTINUOUS
 62
    3
 10
123.39660167265674
 20
77.436765283106538
 11
123.04660167265673
 21
77.436765283106538
  0
LINE
  8
_0-4_A0
  6
CONTINUOUS
 62
    3
 10
123.39660167265674
 20
77.103431949773224
 11
123.04660167265673
 21
77.103431949773224
  0
LINE
  8
_0-4_A0
  6
CONTINUOUS
 62
    3
 10
122.87993500599013
 20
76.936765283106538
 11
122.87993500599013
 21
76.586765283106529
  0
LINE
  8
_0-4_A0
  6
CONTINUOUS
 62
    3
 10
122.54660167265673
 20
76.586765283106529
 11
122.54660167265673
 21
76.936765283106538
  0
LINE
  8
_0-4_A0
  6
CONTINUOUS
 62
    3
 10
122.02993500599012
 20
77.103431949773224
 11
122.37993500599013
 21
77.103431949773224
  0
LINE
  8
_0-4_A0
  6
CONTINUOUS
 62
    3
 10
122.37993500599013
 20
77.436765283106538
 11
122.02993500599012
 21
77.436765283106538
  0
LINE
  8
_0-4_A0
  6
CONTINUOUS
 62
    3
 10
122.54660167265673
 20
77.603431949773224
 11
122.54660167265673
 21
77.953431949773204
  0
LINE
  8
_0-4_A0
  6
CONTINUOUS
 62
    3
 10
122.87993500599013
 20
77.953431949773204
 11
122.87993500599013
 21
77.603431949773224
  0
LINE
  8
_0-4_A0
  6
CONTINUOUS
 62
    3
 10
123.04660167265673
 20
77.103431949773224
 11
122.87993500599013
 21
76.936765283106538
  0
LINE
  8
_0-4_A0
  6
CONTINUOUS
 62
    3
 10
122.87993500599013
 20
77.603431949773224
 11
123.04660167265673
 21
77.436765283106538
  0
CIRCLE
  8
_0-4_A0
  6
CONTINUOUS
 62
    3
 10
122.71326833932343
 20
37.270098616439867
 40
1.166666666666666
  0
LINE
  8
_0-4_A0
  6
CONTINUOUS
 62
    3
 10
122.54660167265673
 20
36.936765283106552
 11
122.37993500599013
 21
37.103431949773224
  0
LINE
  8
_0-4_A0
  6
CONTINUOUS
 62
    3
 10
122.37993500599013
 20
37.436765283106552
 11
122.54660167265673
 21
37.603431949773224
  0
LINE
  8
_0-4_A0
  6
CONTINUOUS
 62
    3
 10
123.39660167265674
 20
37.436765283106538
 11
123.39660167265674
 21
37.103431949773224
  0
LINE
  8
_0-4_A0
  6
CONTINUOUS
 62
    3
 10
122.87993500599013
 20
36.586765283106544
 11
122.54660167265673
 21
36.586765283106544
  0
LINE
  8
_0-4_A0
  6
CONTINUOUS
 62
    3
 10
122.02993500599012
 20
37.103431949773224
 11
122.02993500599012
 21
37.436765283106538
  0
LINE
  8
_0-4_A0
  6
CONTINUOUS
 62
    3
 10
122.54660167265673
 20
37.953431949773204
 11
122.87993500599013
 21
37.953431949773204
  0
LINE
  8
_0-4_A0
  6
CONTINUOUS
 62
    3
 10
123.39660167265674
 20
37.436765283106538
 11
123.04660167265673
 21
37.436765283106538
  0
LINE
  8
_0-4_A0
  6
CONTINUOUS
 62
    3
 10
123.39660167265674
 20
37.103431949773224
 11
123.04660167265673
 21
37.103431949773224
  0
LINE
  8
_0-4_A0
  6
CONTINUOUS
 62
    3
 10
122.87993500599013
 20
36.936765283106552
 11
122.87993500599013
 21
36.586765283106544
  0
LINE
  8
_0-4_A0
  6
CONTINUOUS
 62
    3
 10
122.54660167265673
 20
36.586765283106544
 11
122.54660167265673
 21
36.936765283106552
  0
LINE
  8
_0-4_A0
  6
CONTINUOUS
 62
    3
 10
122.02993500599012
 20
37.103431949773224
 11
122.37993500599013
 21
37.103431949773224
  0
LINE
  8
_0-4_A0
  6
CONTINUOUS
 62
    3
 10
122.37993500599013
 20
37.436765283106538
 11
122.02993500599012
 21
37.436765283106538
  0
LINE
  8
_0-4_A0
  6
CONTINUOUS
 62
    3
 10
122.54660167265673
 20
37.603431949773224
 11
122.54660167265673
 21
37.953431949773204
  0
LINE
  8
_0-4_A0
  6
CONTINUOUS
 62
    3
 10
122.87993500599013
 20
37.953431949773204
 11
122.87993500599013
 21
37.603431949773224
  0
LINE
  8
_0-4_A0
  6
CONTINUOUS
 62
    3
 10
123.04660167265673
 20
37.103431949773224
 11
122.87993500599013
 21
36.936765283106552
  0
LINE
  8
_0-4_A0
  6
CONTINUOUS
 62
    3
 10
122.87993500599013
 20
37.603431949773224
 11
123.04660167265673
 21
37.436765283106552
  0
CIRCLE
  8
_0-4_A0
  6
CONTINUOUS
 62
    3
 10
58.929935005990103
 20
77.270098616439867
 40
1.166666666666666
  0
LINE
  8
_0-4_A0
  6
CONTINUOUS
 62
    3
 10
58.763268339323445
 20
76.936765283106538
 11
58.596601672656788
 21
77.103431949773224
  0
LINE
  8
_0-4_A0
  6
CONTINUOUS
 62
    3
 10
58.59660167265676
 20
77.436765283106524
 11
58.763268339323445
 21
77.603431949773181
  0
LINE
  8
_0-4_A0
  6
CONTINUOUS
 62
    3
 10
59.61326833932344
 20
77.436765283106538
 11
59.61326833932344
 21
77.103431949773224
  0
LINE
  8
_0-4_A0
  6
CONTINUOUS
 62
    3
 10
59.096601672656788
 20
76.586765283106529
 11
58.763268339323445
 21
76.586765283106529
  0
LINE
  8
_0-4_A0
  6
CONTINUOUS
 62
    3
 10
58.246601672656765
 20
77.103431949773224
 11
58.246601672656765
 21
77.436765283106538
  0
LINE
  8
_0-4_A0
  6
CONTINUOUS
 62
    3
 10
58.763268339323445
 20
77.953431949773204
 11
59.096601672656788
 21
77.953431949773204
  0
LINE
  8
_0-4_A0
  6
CONTINUOUS
 62
    3
 10
59.61326833932344
 20
77.436765283106538
 11
59.263268339323445
 21
77.436765283106538
  0
LINE
  8
_0-4_A0
  6
CONTINUOUS
 62
    3
 10
59.61326833932344
 20
77.103431949773224
 11
59.263268339323445
 21
77.103431949773224
  0
LINE
  8
_0-4_A0
  6
CONTINUOUS
 62
    3
 10
59.096601672656788
 20
76.936765283106538
 11
59.096601672656788
 21
76.586765283106529
  0
LINE
  8
_0-4_A0
  6
CONTINUOUS
 62
    3
 10
58.763268339323445
 20
76.586765283106529
 11
58.763268339323445
 21
76.936765283106538
  0
LINE
  8
_0-4_A0
  6
CONTINUOUS
 62
    3
 10
58.246601672656765
 20
77.103431949773224
 11
58.596601672656788
 21
77.103431949773224
  0
LINE
  8
_0-4_A0
  6
CONTINUOUS
 62
    3
 10
58.596601672656788
 20
77.436765283106538
 11
58.246601672656765
 21
77.436765283106538
  0
LINE
  8
_0-4_A0
  6
CONTINUOUS
 62
    3
 10
58.763268339323445
 20
77.603431949773224
 11
58.763268339323445
 21
77.953431949773204
  0
LINE
  8
_0-4_A0
  6
CONTINUOUS
 62
    3
 10
59.096601672656788
 20
77.953431949773204
 11
59.096601672656788
 21
77.603431949773224
  0
LINE
  8
_0-4_A0
  6
CONTINUOUS
 62
    3
 10
59.263268339323445
 20
77.103431949773224
 11
59.096601672656788
 21
76.936765283106538
  0
LINE
  8
_0-4_A0
  6
CONTINUOUS
 62
    3
 10
59.096601672656788
 20
77.603431949773181
 11
59.263268339323445
 21
77.436765283106524
  0
CIRCLE
  8
_0-4_A0
  6
CONTINUOUS
 62
    3
 10
58.917865027052613
 20
37.270098616439867
 40
1.166666666666666
  0
LINE
  8
_0-4_A0
  6
CONTINUOUS
 62
    3
 10
58.751198360385927
 20
36.936765283106524
 11
58.58453169371927
 21
37.103431949773181
  0
LINE
  8
_0-4_A0
  6
CONTINUOUS
 62
    3
 10
58.58453169371927
 20
37.436765283106524
 11
58.751198360385927
 21
37.603431949773181
  0
LINE
  8
_0-4_A0
  6
CONTINUOUS
 62
    3
 10
59.601198360385922
 20
37.436765283106538
 11
59.601198360385922
 21
37.103431949773224
  0
LINE
  8
_0-4_A0
  6
CONTINUOUS
 62
    3
 10
59.08453169371927
 20
36.586765283106544
 11
58.751198360385927
 21
36.586765283106544
  0
LINE
  8
_0-4_A0
  6
CONTINUOUS
 62
    3
 10
58.234531693719247
 20
37.103431949773224
 11
58.234531693719247
 21
37.436765283106538
  0
LINE
  8
_0-4_A0
  6
CONTINUOUS
 62
    3
 10
58.751198360385927
 20
37.953431949773204
 11
59.08453169371927
 21
37.953431949773204
  0
LINE
  8
_0-4_A0
  6
CONTINUOUS
 62
    3
 10
59.601198360385922
 20
37.436765283106538
 11
59.251198360385927
 21
37.436765283106538
  0
LINE
  8
_0-4_A0
  6
CONTINUOUS
 62
    3
 10
59.601198360385922
 20
37.103431949773224
 11
59.251198360385927
 21
37.103431949773224
  0
LINE
  8
_0-4_A0
  6
CONTINUOUS
 62
    3
 10
59.08453169371927
 20
36.936765283106552
 11
59.08453169371927
 21
36.586765283106544
  0
LINE
  8
_0-4_A0
  6
CONTINUOUS
 62
    3
 10
58.751198360385927
 20
36.586765283106544
 11
58.751198360385927
 21
36.936765283106552
  0
LINE
  8
_0-4_A0
  6
CONTINUOUS
 62
    3
 10
58.234531693719247
 20
37.103431949773224
 11
58.58453169371927
 21
37.103431949773224
  0
LINE
  8
_0-4_A0
  6
CONTINUOUS
 62
    3
 10
58.58453169371927
 20
37.436765283106538
 11
58.234531693719247
 21
37.436765283106538
  0
LINE
  8
_0-4_A0
  6
CONTINUOUS
 62
    3
 10
58.751198360385927
 20
37.603431949773224
 11
58.751198360385927
 21
37.953431949773204
  0
LINE
  8
_0-4_A0
  6
CONTINUOUS
 62
    3
 10
59.08453169371927
 20
37.953431949773204
 11
59.08453169371927
 21
37.603431949773224
  0
LINE
  8
_0-4_A0
  6
CONTINUOUS
 62
    3
 10
59.251198360385927
 20
37.103431949773181
 11
59.08453169371927
 21
36.936765283106524
  0
LINE
  8
_0-4_A0
  6
CONTINUOUS
 62
    3
 10
59.08453169371927
 20
37.603431949773181
 11
59.251198360385927
 21
37.436765283106524
  0
ARC
  8
_0-4_A0
  6
CONTINUOUS
 62
    3
 10
59.986179604447443
 20
88.470098616439869
 40
3
 50
74.119149991494225
 51
105.88085000839679
  0
LINE
  8
_0-4_A0
  6
CONTINUOUS
 62
    3
 10
61.12020089148649
 20
90.97657034636083
 11
61.152846271114157
 21
90.603431949773167
  0
LINE
  8
_0-4_A0
  6
CONTINUOUS
 62
    3
 10
58.819512937780814
 20
90.603431949773266
 11
58.852158317409219
 21
90.976570346369314
  0
ARC
  8
_0-4_A0
  6
CONTINUOUS
 62
    3
 10
60.688516522313392
 20
90.938802857836876
 40
0.4333333333333334
 50
4.9999999999933386
 51
74.119149991569358
  0
ARC
  8
_0-4_A0
  6
CONTINUOUS
 62
    3
 10
59.283842686582289
 20
90.93880285784526
 40
0.4333333333333334
 50
105.88085000835579
 51
174.99999999999263
  0
LINE
  8
_0-4_A0
  6
CONTINUOUS
 62
    3
 10
61.152846271114128
 20
90.603431949773195
 11
58.819512937780785
 21
90.603431949773195
  0
ARC
  8
_0-4_A0
  6
CONTINUOUS
 62
    3
 10
59.986179604482288
 20
26.070098616439878
 40
3
 50
254.11914999149411
 51
285.8808500083968
  0
LINE
  8
_0-4_A0
  6
CONTINUOUS
 62
    3
 10
58.852158317443269
 20
23.563626886518889
 11
58.819512937815602
 21
23.936765283106552
  0
LINE
  8
_0-4_A0
  6
CONTINUOUS
 62
    3
 10
61.152846271148973
 20
23.936765283106495
 11
61.120200891520539
 21
23.563626886510448
  0
ARC
  8
_0-4_A0
  6
CONTINUOUS
 62
    3
 10
59.283842686616367
 20
23.601394375042843
 40
0.4333333333333334
 50
184.99999999999329
 51
254.11914999156942
  0
ARC
  8
_0-4_A0
  6
CONTINUOUS
 62
    3
 10
60.68851652234747
 20
23.601394375034459
 40
0.4333333333333334
 50
285.88085000835582
 51
354.99999999999261
  0
LINE
  8
_0-4_A0
  6
CONTINUOUS
 62
    3
 10
58.819512937815659
 20
23.936765283106538
 11
61.152846271148973
 21
23.936765283106538
  0
ARC
  8
_0-4_A0
  6
CONTINUOUS
 62
    3
 10
122.95702354171304
 20
129.31030516581037
 40
3
 50
245.35618667978837
 51
277.11788669669101
  0
LINE
  8
_0-4_A0
  6
CONTINUOUS
 62
    3
 10
121.45438615684594
 20
127.00585605551296
 11
121.47896836042673
 21
127.37961225825236
  0
LINE
  8
_0-4_A0
  6
CONTINUOUS
 62
    3
 10
123.78506484981062
 20
127.02413592135215
 11
123.69595402163874
 21
126.66032657000467
  0
ARC
  8
_0-4_A0
  6
CONTINUOUS
 62
    3
 10
121.88678526688012
 20
126.97741686741896
 40
0.4333333333333334
 50
176.2370366882875
 51
245.35618667986361
  0
ARC
  8
_0-4_A0
  6
CONTINUOUS
 62
    3
 10
123.27506243886834
 20
126.76341902041137
 40
0.4333333333333334
 50
277.11788669664997
 51
346.23703668828687
  0
ARC
  8
_0-4_A0
  6
CONTINUOUS
 62
    3
 10
59.2428719635937
 20
139.13160853102306
 40
3
 50
245.356186679789
 51
277.11788669669152
  0
LINE
  8
_0-4_A0
  6
CONTINUOUS
 62
    3
 10
57.740234578726642
 20
136.82715942072567
 11
57.764816782307377
 21
137.20091562346496
  0
LINE
  8
_0-4_A0
  6
CONTINUOUS
 62
    3
 10
60.070913271691267
 20
136.84543928656486
 11
59.98180244351937
 21
136.48162993521737
  0
ARC
  8
_0-4_A0
  6
CONTINUOUS
 62
    3
 10
58.172633688760811
 20
136.79872023263158
 40
0.4333333333333334
 50
176.2370366882881
 51
245.35618667986412
  0
ARC
  8
_0-4_A0
  6
CONTINUOUS
 62
    3
 10
59.560910860749032
 20
136.58472238562407
 40
0.4333333333333334
 50
277.1178866966506
 51
346.2370366882875
  0
ENDSEC
  0
EOF
