  0
SECTION
  2
HEADER
  9
$ACADVER
  1
AC1009
  9
$INSBASE
 10
0
 20
0
 30
0
  9
$EXTMIN
 10
0
 20
0
  9
$EXTMAX
 10
420
 20
297
  9
$LIMMIN
 10
0
 20
0
  9
$LIMMAX
 10
420
 20
297
  9
$LTSCALE
 40
1
  0
ENDSEC
  0
SECTION
  2
TABLES
  0
TABLE
  2
LTYPE
 70
     9
  0
LTYPE
  2
CONTINUOUS
 70
    64
  3
実線
 72
    65
 73
     0
 40
0.0
  0
LTYPE
  2
DASHED1
 70
    64
  3
--  --  --  --  --  --  --  --  
 72
    65
 73
     2
 40
2.5
 49
1.25
 49
-1.25
  0
LTYPE
  2
DASHED2
 70
    64
  3
----    ----    ----    ----    
 72
    65
 73
     2
 40
5.0
 49
2.5
 49
-2.5
  0
LTYPE
  2
DASHED3
 70
    64
  3
------  ------  ------  ------  
 72
    65
 73
     2
 40
5.0
 49
3.75
 49
-1.25
  0
LTYPE
  2
CENTER1
 70
    64
  3
----- - ----- - ----- - ----- - 
 72
    65
 73
     4
 40
10.0
 49
6.25
 49
-1.25
 49
1.25
 49
-1.25
  0
LTYPE
  2
CENTER2
 70
    64
  3
----------  --  ----------  --  
 72
    65
 73
     4
 40
20.0
 49
12.5
 49
-2.5
 49
2.5
 49
-2.5
  0
LTYPE
  2
PHANTOM1
 70
    64
  3
--- - - --- - - --- - - --- - - 
 72
    65
 73
     6
 40
10.0
 49
3.25
 49
-1.25
 49
1.25
 49
-1.25
 49
1.25
 49
-1.25
  0
LTYPE
  2
PHANTOM2
 70
    64
  3
--------  -  -  --------  -  -  
 72
    65
 73
     6
 40
20.0
 49
10.0
 49
-2.5
 49
1.25
 49
-2.5
 49
1.25
 49
-2.5
  0
LTYPE
  2
DOT
 70
    64
  3
-   -   -   -   -   -   -   -   
 72
    65
 73
     2
 40
2.5
 49
0.625
 49
-1.875
  0
LTYPE
  2
DUMMY
 70
    64
  3
ダミー
 72
    65
 73
     0
 40
0.0
  0
LTYPE
  2
RAND1
 70
    64
  3
ランダム線1
 72
    65
 73
     4
 40
10.0
 49
1.0
 49
-2.0
 49
3.0
 49
-4.0
  0
LTYPE
  2
RAND2
 70
    64
  3
ランダム線2
 72
    65
 73
     4
 40
14.0
 49
2.0
 49
-3.0
 49
4.0
 49
-5.0
  0
LTYPE
  2
RAND3
 70
    64
  3
ランダム線3
 72
    65
 73
     4
 40
18.0
 49
3.0
 49
-4.0
 49
5.0
 49
-6.0
  0
LTYPE
  2
RAND4
 70
    64
  3
ランダム線4
 72
    65
 73
     4
 40
22.0
 49
4.0
 49
-5.0
 49
6.0
 49
-7.0
  0
LTYPE
  2
RAND5
 70
    64
  3
ランダム線5
 72
    65
 73
     4
 40
26.0
 49
5.0
 49
-6.0
 49
7.0
 49
-8.0
  0
LTYPE
  2
LONG1
 70
    64
  3
----------  --  ----------  --  
 72
    65
 73
     4
 40
40.0
 49
32.5
 49
-2.5
 49
2.5
 49
-2.5
  0
LTYPE
  2
LONG2
 70
    64
  3
--------  -  -  --------  -  -  
 72
    65
 73
     6
 40
40.0
 49
30.0
 49
-2.5
 49
1.25
 49
-2.5
 49
1.25
 49
-2.5
  0
LTYPE
  2
LONG3
 70
    64
  3
+++++++++++++++..+++++++++++++++
 72
    65
 73
     2
 40
40.0
 49
37.5
 49
-2.5
  0
LTYPE
  2
LONG4
 70
    64
  3
+++++++++++++++..+++++++++++++++
 72
    65
 73
     2
 40
80.0
 49
75.0
 49
-5.0
  0
LTYPE
  2
LONG5
 70
    64
  3
----------  --  ----------  --  
 72
    65
 73
     4
 40
60.0
 49
37.5
 49
-7.5
 49
7.5
 49
-7.5
  0
LTYPE
  2
dashed
 70
   64
  3
-------   -------------   ------
 72
   65
 73
    2
 40
7.5
 49
6
 49
-1.5
  0
LTYPE
  2
dashed_spaced
 70
   64
  3
----        --------        ----
 72
   65
 73
    2
 40
12
 49
6
 49
-6
  0
LTYPE
  2
long_dashed_dotted
 70
   64
  3
------------- --- --------------
 72
   65
 73
    4
 40
15.25
 49
12
 49
-1.5
 49
0.25
 49
-1.5
  0
LTYPE
  2
long_dashed_double-dotted
 70
   64
  3
----------- --- --- ------------
 72
   65
 73
    6
 40
17
 49
12
 49
-1.5
 49
0.25
 49
-1.5
 49
0.25
 49
-1.5
  0
LTYPE
  2
long_dashed_triplicate-dotted
 70
   64
  3
--------- --- --- --- ----------
 72
   65
 73
    8
 40
18.75
 49
12
 49
-1.5
 49
0.25
 49
-1.5
 49
0.25
 49
-1.5
 49
0.25
 49
-1.5
  0
LTYPE
  2
dotted
 70
   64
  3
   -       -       -       -    
 72
   65
 73
    2
 40
1.75
 49
0.25
 49
-1.5
  0
LTYPE
  2
chain
 70
   64
  3
-------------- -- --------------
 72
   65
 73
    4
 40
18.5
 49
12
 49
-1.5
 49
3.5
 49
-1.5
  0
LTYPE
  2
chain_double_dash
 70
   64
  3
------------ -- -- -------------
 72
   65
 73
    6
 40
23.5
 49
12
 49
-1.5
 49
3.5
 49
-1.5
 49
3.5
 49
-1.5
  0
LTYPE
  2
dashed_dotted
 70
   64
  3
-----------     -     ----------
 72
   65
 73
    4
 40
9.25
 49
6
 49
-1.5
 49
0.25
 49
-1.5
  0
LTYPE
  2
double-dashed_dotted
 70
   64
  3
------   -----------   -   -----
 72
   65
 73
    6
 40
16.75
 49
6
 49
-1.5
 49
6
 49
-1.5
 49
0.25
 49
-1.5
  0
LTYPE
  2
dashed_double-dotted
 70
   64
  3
---------    -    -    ---------
 72
   65
 73
    6
 40
11
 49
6
 49
-1.5
 49
0.25
 49
-1.5
 49
0.25
 49
-1.5
  0
LTYPE
  2
double-dashed_double-dotted
 70
   64
  3
-----   ---------   -   -   ----
 72
   65
 73
    8
 40
18.5
 49
6
 49
-1.5
 49
6
 49
-1.5
 49
0.25
 49
-1.5
 49
0.25
 49
-1.5
  0
LTYPE
  2
dashed_triplicate-dotted
 70
   64
  3
-------    -    -    -    ------
 72
   65
 73
    8
 40
12.75
 49
6
 49
-1.5
 49
0.25
 49
-1.5
 49
0.25
 49
-1.5
 49
0.25
 49
-1.5
  0
LTYPE
  2
double-dashed_triplicate-dotted
 70
   64
  3
-----  ---------  -  -  -  -----
 72
   65
 73
   10
 40
20.25
 49
6
 49
-1.5
 49
6
 49
-1.5
 49
0.25
 49
-1.5
 49
0.25
 49
-1.5
 49
0.25
 49
-1.5
  0
LTYPE
  2
undefined
 70
   64
  3
--------------------------------
 72
   65
 73
    0
 40
0
  0
LTYPE
  2
DASHED
 70
   64
  3
------     -----------     -----
 72
   65
 73
    2
 40
0.75
 49
0.5
 49
-0.25
  0
LTYPE
  2
HIDDEN
 70
   64
  3
------     -----------     -----
 72
   65
 73
    2
 40
0.375
 49
0.25
 49
-0.125
  0
LTYPE
  2
CENTER
 70
   64
  3
----------    ----    ----------
 72
   65
 73
    4
 40
2
 49
1.25
 49
-0.25
 49
0.25
 49
-0.25
  0
LTYPE
  2
_
 70
   64
  3
                                
 72
   65
 73
    0
 40
0
  0
LTYPE
  2
__21
 70
   64
  3
                                
 72
   65
 73
    0
 40
0
  0
LTYPE
  2
__22
 70
   64
  3
                                
 72
   65
 73
    0
 40
0
  0
LTYPE
  2
__23
 70
   64
  3
                                
 72
   65
 73
    0
 40
0
  0
LTYPE
  2
__24
 70
   64
  3
                                
 72
   65
 73
    0
 40
0
  0
LTYPE
  2
__25
 70
   64
  3
                                
 72
   65
 73
    0
 40
0
  0
LTYPE
  2
__26
 70
   64
  3
                                
 72
   65
 73
    0
 40
0
  0
LTYPE
  2
__27
 70
   64
  3
                                
 72
   65
 73
    0
 40
0
  0
LTYPE
  2
__28
 70
   64
  3
                                
 72
   65
 73
    0
 40
0
  0
LTYPE
  2
__29
 70
   64
  3
                                
 72
   65
 73
    0
 40
0
  0
LTYPE
  2
__30
 70
   64
  3
                                
 72
   65
 73
    0
 40
0
  0
LTYPE
  2
__31
 70
   64
  3
                                
 72
   65
 73
    0
 40
0
  0
LTYPE
  2
__32
 70
   64
  3
                                
 72
   65
 73
    0
 40
0
  0
ENDTAB
  0
TABLE
  2
STYLE
  5
3
100
AcDbSymbolTable
 70
     1
  0
STYLE
  5
10
100
AcDbSymbolTableRecord
100
AcDbTextStyleTableRecord
  2
STANDARD
 70
     0
 40
0.0
 41
1.0
 50
0.0
 71
     0
 42
0.2
  3
txt
  4
bigfont.shx
  0
STYLE
  5
26
100
AcDbSymbolTableRecord
100
AcDbTextStyleTableRecord
  2
TATEGAKI
 70
    68
 40
0.0
 41
1.0
 50
0.0
 71
     0
 42
1.0
  3
txt
  4
bigfont.shx
  0
ENDTAB
  0
TABLE
  2
LAYER
 70
    5
  0
LAYER
  2
_0-0_0
 70
   64
 62
    7
  6
CONTINUOUS
  0
LAYER
  2
_0-1_H0
 70
   64
 62
    7
  6
CONTINUOUS
  0
LAYER
  2
_0-2_H1
 70
   64
 62
    7
  6
CONTINUOUS
  0
LAYER
  2
_0-4_A0
 70
   64
 62
    7
  6
CONTINUOUS
  0
LAYER
  2
ADD_LINE
 70
   64
 62
    7
  6
CONTINUOUS
  0
ENDTAB
  0
ENDSEC
  0
SECTION
  2
BLOCKS
  0
BLOCK
  2
-000-_DOT
 70
   64
 10
0
 20
0
 30
0
  0
CIRCLE
  8
_0-0_0
  6
CONTINUOUS
 62
    7
 10
0
 20
0
 40
0.25
  0
CIRCLE
  8
_0-0_0
  6
CONTINUOUS
 62
    7
 10
0
 20
-0
 40
0.25
  0
LINE
  8
_0-0_0
  6
CONTINUOUS
 62
    7
 10
-0.5
 20
0
 11
-1
 21
0
  0
ENDBLK
  0
BLOCK
  2
-001-_OPEN
 70
   64
 10
0
 20
0
 30
0
  0
LINE
  8
_0-0_0
  6
CONTINUOUS
 62
    7
 10
-1
 20
0.166667
 11
0
 21
0
  0
LINE
  8
_0-0_0
  6
CONTINUOUS
 62
    7
 10
0
 20
0
 11
-1
 21
-0.166667
  0
LINE
  8
_0-0_0
  6
CONTINUOUS
 62
    7
 10
0
 20
0
 11
-1
 21
0
  0
ENDBLK
  0
BLOCK
  2
-002-_U101
 70
   64
 10
0
 20
0
 30
0
  0
TEXT
  8
_0-4_A0
 62
    7
 10
311.16193052727777
 20
242.8154726082858
 40
4
 41
1
 50
0
  1
120
  0
ENDBLK
  0
BLOCK
  2
-003-_D13
 70
   64
 10
0
 20
0
 30
0
  0
LINE
  8
_0-4_A0
  6
CONTINUOUS
 62
    7
 10
295.49526386061108
 20
233.1226314529683
 11
295.49526386061108
 21
243.3154726082858
  0
LINE
  8
_0-4_A0
  6
CONTINUOUS
 62
    7
 10
298.49526386061108
 20
242.3154726082858
 11
332.49526386061108
 21
242.3154726082858
  0
INSERT
  2
-001-_OPEN
  8
_0-4_A0
 10
295.49526386061108
 20
242.3154726082858
 41
3
 42
3
 50
180
  0
INSERT
  2
-001-_OPEN
  8
_0-4_A0
 10
335.49526386061108
 20
242.3154726082858
 41
3
 42
3
 50
0
  0
LINE
  8
_0-4_A0
  6
CONTINUOUS
 62
    7
 10
335.49526386061108
 20
233.1226314528846
 11
335.49526386061108
 21
243.3154726082858
  0
INSERT
  2
-002-_U101
  8
_0-0_0
 10
0
 20
0
 41
1
 42
1
 50
0
  0
ENDBLK
  0
BLOCK
  2
-004-_U102
 70
   64
 10
0
 20
0
 30
0
  0
TEXT
  8
_0-4_A0
 62
    7
 10
310.8285971939153
 20
250.81877715113191
 40
4
 41
1
 50
0
  1
215
  0
ENDBLK
  0
BLOCK
  2
-005-_D14
 70
   64
 10
0
 20
0
 30
0
  0
LINE
  8
_0-4_A0
  6
CONTINUOUS
 62
    7
 10
279.66193052724861
 20
219.18740824821651
 11
279.66193052724861
 21
251.31877715113191
  0
LINE
  8
_0-4_A0
  6
CONTINUOUS
 62
    7
 10
282.66193052724861
 20
250.31877715113191
 11
348.32859719391541
 21
250.31877715113191
  0
INSERT
  2
-001-_OPEN
  8
_0-4_A0
 10
279.66193052724861
 20
250.31877715113191
 41
3
 42
3
 50
180
  0
INSERT
  2
-001-_OPEN
  8
_0-4_A0
 10
351.32859719391541
 20
250.31877715113191
 41
3
 42
3
 50
0
  0
LINE
  8
_0-4_A0
  6
CONTINUOUS
 62
    7
 10
351.32859719391541
 20
219.1874082480667
 11
351.32859719391541
 21
251.31877715113191
  0
INSERT
  2
-004-_U102
  8
_0-0_0
 10
0
 20
0
 41
1
 42
1
 50
0
  0
ENDBLK
  0
BLOCK
  2
-006-_U103
 70
   64
 10
0
 20
0
 30
0
  0
TEXT
  8
_0-4_A0
 62
    7
 10
310.16193052726902
 20
258.3604159900924
 40
4
 41
1
 50
0
  1
234
  0
ENDBLK
  0
BLOCK
  2
-007-_D15
 70
   64
 10
0
 20
0
 30
0
  0
LINE
  8
_0-4_A0
  6
CONTINUOUS
 62
    7
 10
276.49526386060227
 20
228.91707102970849
 11
276.49526386060227
 21
258.8604159900924
  0
LINE
  8
_0-4_A0
  6
CONTINUOUS
 62
    7
 10
279.49526386060227
 20
257.8604159900924
 11
351.49526386060227
 21
257.8604159900924
  0
INSERT
  2
-001-_OPEN
  8
_0-4_A0
 10
276.49526386060227
 20
257.8604159900924
 41
3
 42
3
 50
180
  0
INSERT
  2
-001-_OPEN
  8
_0-4_A0
 10
354.49526386060227
 20
257.8604159900924
 41
3
 42
3
 50
0
  0
LINE
  8
_0-4_A0
  6
CONTINUOUS
 62
    7
 10
354.49526386060227
 20
228.9170710297013
 11
354.49526386060227
 21
258.8604159900924
  0
INSERT
  2
-006-_U103
  8
_0-0_0
 10
0
 20
0
 41
1
 42
1
 50
0
  0
ENDBLK
  0
BLOCK
  2
-008-_U104
 70
   64
 10
0
 20
0
 30
0
  0
TEXT
  8
_0-4_A0
 62
    7
 10
268.7157415301541
 20
198.35040435111179
 40
4
 41
1
 50
90
  1
80
  0
ENDBLK
  0
BLOCK
  2
-009-_D16
 70
   64
 10
0
 20
0
 30
0
  0
LINE
  8
_0-4_A0
  6
CONTINUOUS
 62
    7
 10
274.90438788410511
 20
214.6837376844507
 11
267.4249912650327
 21
214.6837376844507
  0
LINE
  8
_0-4_A0
  6
CONTINUOUS
 62
    7
 10
269.2157415301541
 20
211.6837376844507
 11
269.2157415301541
 21
191.0170710177729
  0
INSERT
  2
-001-_OPEN
  8
_0-4_A0
 10
269.2157415301541
 20
214.6837376844507
 41
3
 42
3
 50
90
  0
INSERT
  2
-001-_OPEN
  8
_0-4_A0
 10
269.2157415301541
 20
188.0170710177729
 41
3
 42
3
 50
270
  0
INSERT
  2
-008-_U104
  8
_0-0_0
 10
0
 20
0
 41
1
 42
1
 50
0
  0
ENDBLK
  0
BLOCK
  2
-010-_U105
 70
   64
 10
0
 20
0
 30
0
  0
TEXT
  8
_0-4_A0
 62
    7
 10
268.7157415301541
 20
173.35040435111179
 40
4
 41
1
 50
90
  1
70
  0
ENDBLK
  0
BLOCK
  2
-011-_D17
 70
   64
 10
0
 20
0
 30
0
  0
LINE
  8
_0-4_A0
  6
CONTINUOUS
 62
    7
 10
269.2157415301541
 20
185.0170710177729
 11
269.2157415301541
 21
167.6837376844507
  0
INSERT
  2
-001-_OPEN
  8
_0-4_A0
 10
269.2157415301541
 20
188.0170710177729
 41
3
 42
3
 50
90
  0
INSERT
  2
-001-_OPEN
  8
_0-4_A0
 10
269.2157415301541
 20
164.6837376844507
 41
3
 42
3
 50
270
  0
LINE
  8
_0-4_A0
  6
CONTINUOUS
 62
    7
 10
274.90438788410511
 20
164.6837376844507
 11
267.54779066154748
 21
164.6837376844507
  0
INSERT
  2
-010-_U105
  8
_0-0_0
 10
0
 20
0
 41
1
 42
1
 50
0
  0
ENDBLK
  0
BLOCK
  2
-012-_U106
 70
   64
 10
0
 20
0
 30
0
  0
TEXT
  8
_0-4_A0
 62
    7
 10
249.2269053365897
 20
182.68373768445059
 40
4
 41
1
 50
90
  1
254
  0
ENDBLK
  0
BLOCK
  2
-013-_D18
 70
   64
 10
0
 20
0
 30
0
  0
LINE
  8
_0-4_A0
  6
CONTINUOUS
 62
    7
 10
277.92859718184502
 20
145.6837376844507
 11
248.7269053365897
 21
145.6837376844507
  0
LINE
  8
_0-4_A0
  6
CONTINUOUS
 62
    7
 10
249.7269053365897
 20
148.6837376844507
 11
249.7269053365897
 21
227.3504043511173
  0
INSERT
  2
-001-_OPEN
  8
_0-4_A0
 10
249.7269053365897
 20
145.6837376844507
 41
3
 42
3
 50
270
  0
INSERT
  2
-001-_OPEN
  8
_0-4_A0
 10
249.7269053365897
 20
230.3504043511173
 41
3
 42
3
 50
90
  0
LINE
  8
_0-4_A0
  6
CONTINUOUS
 62
    7
 10
277.92859718201458
 20
230.3504043511173
 11
248.7269053365897
 21
230.3504043511173
  0
INSERT
  2
-012-_U106
  8
_0-0_0
 10
0
 20
0
 41
1
 42
1
 50
0
  0
ENDBLK
  0
BLOCK
  2
-014-_U107
 70
   64
 10
0
 20
0
 30
0
  0
TEXT
  8
_0-4_A0
 62
    7
 10
224.35957252727141
 20
242.81547260827468
 40
4
 41
1
 50
0
  1
30
  0
ENDBLK
  0
BLOCK
  2
-015-_D19
 70
   64
 10
0
 20
0
 30
0
  0
LINE
  8
_0-4_A0
  6
CONTINUOUS
 62
    7
 10
232.35957252729869
 20
212.98373769616691
 11
232.35957252729869
 21
243.31547260827468
  0
LINE
  8
_0-4_A0
  6
CONTINUOUS
 62
    7
 10
229.35957252729869
 20
242.31547260827468
 11
225.35957252724421
 21
242.31547260827468
  0
INSERT
  2
-001-_OPEN
  8
_0-4_A0
 10
232.35957252729869
 20
242.31547260827468
 41
3
 42
3
 50
0
  0
INSERT
  2
-001-_OPEN
  8
_0-4_A0
 10
222.35957252724421
 20
242.31547260827468
 41
3
 42
3
 50
180
  0
LINE
  8
_0-4_A0
  6
CONTINUOUS
 62
    7
 10
222.35957252724421
 20
230.3837376963614
 11
222.35957252724421
 21
243.31547260827468
  0
INSERT
  2
-014-_U107
  8
_0-0_0
 10
0
 20
0
 41
1
 42
1
 50
0
  0
ENDBLK
  0
BLOCK
  2
-016-_U108
 70
   64
 10
0
 20
0
 30
0
  0
TEXT
  8
_0-4_A0
 62
    7
 10
77.583649703246351
 20
128.386283949376
 40
4
 41
1
 50
0
  1
203
  0
ENDBLK
  0
BLOCK
  2
-017-_D20
 70
   64
 10
0
 20
0
 30
0
  0
LINE
  8
_0-4_A0
  6
CONTINUOUS
 62
    7
 10
48.81698303659494
 20
116.38847939442119
 11
48.81698303659494
 21
128.886283949376
  0
LINE
  8
_0-4_A0
  6
CONTINUOUS
 62
    7
 10
51.816983036594926
 20
127.88628394937599
 11
113.35031636989768
 21
127.88628394937599
  0
INSERT
  2
-001-_OPEN
  8
_0-4_A0
 10
48.81698303659494
 20
127.88628394937599
 41
3
 42
3
 50
180
  0
INSERT
  2
-001-_OPEN
  8
_0-4_A0
 10
116.35031636989768
 20
127.88628394937599
 41
3
 42
3
 50
0
  0
LINE
  8
_0-4_A0
  6
CONTINUOUS
 62
    7
 10
116.35031636989768
 20
116.3884793943463
 11
116.35031636989768
 21
128.886283949376
  0
INSERT
  2
-016-_U108
  8
_0-0_0
 10
0
 20
0
 41
1
 42
1
 50
0
  0
ENDBLK
  0
BLOCK
  2
-018-_D21
 70
   64
 10
0
 20
0
 30
0
  0
LINE
  8
_0-4_A0
  6
CONTINUOUS
 62
    7
 10
298.15641011049768
 20
175.02443483108689
 11
332.83411761053719
 21
201.009707204481
  0
INSERT
  2
-001-_OPEN
  8
_0-4_A0
 10
295.75564574511031
 20
173.2254544360058
 41
3
 42
3
 50
216.84556024733939
  0
INSERT
  2
-001-_OPEN
  8
_0-4_A0
 10
335.2348819759245
 20
202.8086875995622
 41
3
 42
3
 50
36.84556024733942
  0
TEXT
  8
_0-4_A0
 62
    7
 10
306.24200000000001
 20
182.61000000000001
 40
4
 41
1
 50
0
  1
?148
  0
POINT
  8
_0-6__0-6_Defpoints
 62
    7
 10
335.2348819759245
 20
202.8086875995622
  0
POINT
  8
_0-6__0-6_Defpoints
 62
    7
 10
295.75564574511031
 20
173.2254544360058
  0
ENDBLK
  0
BLOCK
  2
-019-_U111
 70
   64
 10
0
 20
0
 30
0
  0
TEXT
  8
_0-4_A0
 62
    7
 10
259.87781291114362
 20
200.93373768444519
 40
4
 41
1
 50
90
  1
117.5
  0
ENDBLK
  0
BLOCK
  2
-020-_D22
 70
   64
 10
0
 20
0
 30
0
  0
LINE
  8
_0-4_A0
  6
CONTINUOUS
 62
    7
 10
260.37781291114362
 20
191.0170710177729
 11
260.37781291114362
 21
224.1837376844507
  0
INSERT
  2
-001-_OPEN
  8
_0-4_A0
 10
260.37781291114362
 20
188.0170710177729
 41
3
 42
3
 50
270
  0
INSERT
  2
-001-_OPEN
  8
_0-4_A0
 10
260.37781291114362
 20
227.1837376844507
 41
3
 42
3
 50
90
  0
LINE
  8
_0-4_A0
  6
CONTINUOUS
 62
    7
 10
289.31618431723671
 20
227.1837376844507
 11
259.37781291114362
 21
227.1837376844507
  0
INSERT
  2
-019-_U111
  8
_0-0_0
 10
0
 20
0
 41
1
 42
1
 50
0
  0
ENDBLK
  0
BLOCK
  2
-021-_U113
 70
   64
 10
0
 20
0
 30
0
  0
TEXT
  8
_0-4_A0
 62
    7
 10
181.55957252732449
 20
242.81547260827468
 40
4
 41
1
 50
0
  1
200.8
  0
ENDBLK
  0
BLOCK
  2
-022-_D23
 70
   64
 10
0
 20
0
 30
0
  0
LINE
  8
_0-4_A0
  6
CONTINUOUS
 62
    7
 10
155.42623919407159
 20
179.1014551972847
 11
155.42623919407159
 21
243.31547260827468
  0
LINE
  8
_0-4_A0
  6
CONTINUOUS
 62
    7
 10
158.42623919407159
 20
242.31547260827468
 11
219.35957252724421
 21
242.31547260827468
  0
INSERT
  2
-001-_OPEN
  8
_0-4_A0
 10
155.42623919407159
 20
242.31547260827468
 41
3
 42
3
 50
180
  0
INSERT
  2
-001-_OPEN
  8
_0-4_A0
 10
222.35957252724421
 20
242.31547260827468
 41
3
 42
3
 50
0
  0
INSERT
  2
-021-_U113
  8
_0-0_0
 10
0
 20
0
 41
1
 42
1
 50
0
  0
ENDBLK
  0
BLOCK
  2
-023-_D24
 70
   64
 10
0
 20
0
 30
0
  0
LINE
  8
_0-4_A0
  6
CONTINUOUS
 62
    7
 10
221.7929058605946
 20
224.68373768412729
 11
135.93724438324449
 21
224.68373768412729
  0
LINE
  8
_0-4_A0
  6
CONTINUOUS
 62
    7
 10
220.72623919391008
 20
230.35040435110639
 11
135.93724438324449
 21
230.35040435110639
  0
LINE
  8
_0-4_A0
  6
CONTINUOUS
 62
    7
 10
136.93724438324449
 20
221.68373768412729
 11
136.93724438324449
 21
218.68373768412729
  0
LINE
  8
_0-4_A0
  6
CONTINUOUS
 62
    7
 10
136.93724438324449
 20
233.35040435110639
 11
136.93724438324449
 21
241.86373768443971
  0
LINE
  8
_0-4_A0
  6
CONTINUOUS
 62
    7
 10
136.93724438324449
 20
224.68373768412729
 11
136.93724438324449
 21
230.35040435110639
  0
INSERT
  2
-001-_OPEN
  8
_0-4_A0
 10
136.93724438324449
 20
224.68373768412729
 41
3
 42
3
 50
90
  0
INSERT
  2
-001-_OPEN
  8
_0-4_A0
 10
136.93724438324449
 20
230.35040435110639
 41
3
 42
3
 50
270
  0
TEXT
  8
_0-4_A0
 62
    7
 10
126.84699999999999
 20
232.02699999999998
 40
4
 41
1
 50
0
  1
17
  0
POINT
  8
_0-6__0-6_Defpoints
 62
    7
 10
222.09290586059461
 20
224.68373768412729
  0
POINT
  8
_0-6__0-6_Defpoints
 62
    7
 10
221.0262391939101
 20
230.35040435110639
  0
POINT
  8
_0-6__0-6_Defpoints
 62
    7
 10
136.93724438324449
 20
230.35040435110639
  0
ENDBLK
  0
BLOCK
  2
-024-_U115
 70
   64
 10
0
 20
0
 30
0
  0
TEXT
  8
_0-4_A0
 62
    7
 10
136.43724438324449
 20
181.35040435074981
 40
4
 41
1
 50
90
  1
230
  0
ENDBLK
  0
BLOCK
  2
-025-_D25
 70
   64
 10
0
 20
0
 30
0
  0
LINE
  8
_0-4_A0
  6
CONTINUOUS
 62
    7
 10
212.85957251533059
 20
148.01707101737238
 11
135.93724438324449
 21
148.01707101737238
  0
LINE
  8
_0-4_A0
  6
CONTINUOUS
 62
    7
 10
136.93724438324449
 20
151.01707101737238
 11
136.93724438324449
 21
221.6837376841272
  0
INSERT
  2
-001-_OPEN
  8
_0-4_A0
 10
136.93724438324449
 20
148.01707101737238
 41
3
 42
3
 50
270
  0
INSERT
  2
-001-_OPEN
  8
_0-4_A0
 10
136.93724438324449
 20
224.6837376841272
 41
3
 42
3
 50
90
  0
INSERT
  2
-024-_U115
  8
_0-0_0
 10
0
 20
0
 41
1
 42
1
 50
0
  0
ENDBLK
  0
BLOCK
  2
-026-_D26
 70
   64
 10
0
 20
0
 30
0
  0
LINE
  8
_0-4_A0
  6
CONTINUOUS
 62
    7
 10
212.8595725272516
 20
148.01707101737238
 11
146.27210825281281
 21
148.01707101737238
  0
LINE
  8
_0-4_A0
  6
CONTINUOUS
 62
    7
 10
154.72623919404279
 20
150.35040435070578
 11
146.27210825281281
 21
150.35040435070578
  0
LINE
  8
_0-4_A0
  6
CONTINUOUS
 62
    7
 10
147.27210825281281
 20
153.3504043507059
 11
147.27210825281281
 21
156.3504043507059
  0
LINE
  8
_0-4_A0
  6
CONTINUOUS
 62
    7
 10
147.27210825281281
 20
145.01707101737238
 11
147.27210825281281
 21
139.17040435070569
  0
LINE
  8
_0-4_A0
  6
CONTINUOUS
 62
    7
 10
147.27210825281281
 20
150.35040435070578
 11
147.27210825281281
 21
148.01707101737238
  0
INSERT
  2
-001-_OPEN
  8
_0-4_A0
 10
147.27210825281281
 20
150.35040435070578
 41
3
 42
3
 50
270
  0
INSERT
  2
-001-_OPEN
  8
_0-4_A0
 10
147.27210825281281
 20
148.01707101737238
 41
3
 42
3
 50
90
  0
TEXT
  8
_0-4_A0
 62
    7
 10
137.18199999999998
 20
133.51400000000001
 40
4
 41
1
 50
0
  1
7
  0
POINT
  8
_0-6__0-6_Defpoints
 62
    7
 10
213.15957252725161
 20
148.01707101737238
  0
POINT
  8
_0-6__0-6_Defpoints
 62
    7
 10
155.02623919404288
 20
150.35040435070578
  0
POINT
  8
_0-6__0-6_Defpoints
 62
    7
 10
147.27210825281281
 20
150.35040435070578
  0
ENDBLK
  0
BLOCK
  2
-027-_U117
 70
   64
 10
0
 20
0
 30
0
  0
TEXT
  8
_0-4_A0
 62
    7
 10
183.6929058607094
 20
139.19627340987619
 40
4
 41
1
 50
0
  1
202
  0
ENDBLK
  0
BLOCK
  2
-028-_D27
 70
   64
 10
0
 20
0
 30
0
  0
LINE
  8
_0-4_A0
  6
CONTINUOUS
 62
    7
 10
155.0262391940428
 20
150.05040433878488
 11
155.0262391940428
 21
137.69627340987619
  0
LINE
  8
_0-4_A0
  6
CONTINUOUS
 62
    7
 10
158.0262391940428
 20
138.69627340987619
 11
219.35957252737608
 21
138.69627340987619
  0
INSERT
  2
-001-_OPEN
  8
_0-4_A0
 10
155.0262391940428
 20
138.69627340987619
 41
3
 42
3
 50
180
  0
INSERT
  2
-001-_OPEN
  8
_0-4_A0
 10
222.35957252737608
 20
138.69627340987619
 41
3
 42
3
 50
0
  0
LINE
  8
_0-4_A0
  6
CONTINUOUS
 62
    7
 10
222.35957252737608
 20
145.65040433918528
 11
222.35957252737608
 21
137.69627340987619
  0
INSERT
  2
-027-_U117
  8
_0-0_0
 10
0
 20
0
 41
1
 42
1
 50
0
  0
ENDBLK
  0
BLOCK
  2
-029-_U118
 70
   64
 10
0
 20
0
 30
0
  0
TEXT
  8
_0-4_A0
 62
    7
 10
78.250316370039058
 20
237.06350368286558
 40
4
 41
1
 50
0
  1
120
  0
ENDBLK
  0
BLOCK
  2
-030-_D28
 70
   64
 10
0
 20
0
 30
0
  0
LINE
  8
_0-4_A0
  6
CONTINUOUS
 62
    7
 10
62.583649703372401
 20
233.12263145296839
 11
62.583649703372401
 21
237.56350368286558
  0
LINE
  8
_0-4_A0
  6
CONTINUOUS
 62
    7
 10
65.583649703372387
 20
236.56350368286558
 11
99.583649703372415
 21
236.56350368286558
  0
INSERT
  2
-001-_OPEN
  8
_0-4_A0
 10
62.583649703372401
 20
236.56350368286558
 41
3
 42
3
 50
180
  0
INSERT
  2
-001-_OPEN
  8
_0-4_A0
 10
102.5836497033724
 20
236.56350368286558
 41
3
 42
3
 50
0
  0
LINE
  8
_0-4_A0
  6
CONTINUOUS
 62
    7
 10
102.5836497033724
 20
233.1226314528846
 11
102.5836497033724
 21
237.56350368286558
  0
INSERT
  2
-029-_U118
  8
_0-0_0
 10
0
 20
0
 41
1
 42
1
 50
0
  0
ENDBLK
  0
BLOCK
  2
-031-_U119
 70
   64
 10
0
 20
0
 30
0
  0
TEXT
  8
_0-4_A0
 62
    7
 10
77.916983036676569
 20
245.2799743206834
 40
4
 41
1
 50
0
  1
215
  0
ENDBLK
  0
BLOCK
  2
-032-_D29
 70
   64
 10
0
 20
0
 30
0
  0
LINE
  8
_0-4_A0
  6
CONTINUOUS
 62
    7
 10
46.750316370009898
 20
219.18740824821651
 11
46.750316370009898
 21
245.7799743206834
  0
LINE
  8
_0-4_A0
  6
CONTINUOUS
 62
    7
 10
49.750316370009912
 20
244.7799743206834
 11
115.41698303667658
 21
244.7799743206834
  0
INSERT
  2
-001-_OPEN
  8
_0-4_A0
 10
46.750316370009898
 20
244.7799743206834
 41
3
 42
3
 50
180
  0
INSERT
  2
-001-_OPEN
  8
_0-4_A0
 10
118.41698303667658
 20
244.7799743206834
 41
3
 42
3
 50
0
  0
LINE
  8
_0-4_A0
  6
CONTINUOUS
 62
    7
 10
118.41698303667658
 20
219.1874082480667
 11
118.41698303667658
 21
245.7799743206834
  0
INSERT
  2
-031-_U119
  8
_0-0_0
 10
0
 20
0
 41
1
 42
1
 50
0
  0
ENDBLK
  0
BLOCK
  2
-033-_U120
 70
   64
 10
0
 20
0
 30
0
  0
TEXT
  8
_0-4_A0
 62
    7
 10
77.583649703228715
 20
252.92184850170301
 40
4
 41
1
 50
0
  1
230
  0
ENDBLK
  0
BLOCK
  2
-034-_D30
 70
   64
 10
0
 20
0
 30
0
  0
LINE
  8
_0-4_A0
  6
CONTINUOUS
 62
    7
 10
44.250316369902073
 20
229.71707102970501
 11
44.250316369902073
 21
253.42184850170301
  0
LINE
  8
_0-4_A0
  6
CONTINUOUS
 62
    7
 10
47.250316369902073
 20
252.42184850170301
 11
117.91698303655539
 21
252.42184850170301
  0
INSERT
  2
-001-_OPEN
  8
_0-4_A0
 10
44.250316369902073
 20
252.42184850170301
 41
3
 42
3
 50
180
  0
INSERT
  2
-001-_OPEN
  8
_0-4_A0
 10
120.91698303655539
 20
252.42184850170301
 41
3
 42
3
 50
0
  0
LINE
  8
_0-4_A0
  6
CONTINUOUS
 62
    7
 10
120.91698303655539
 20
229.28163203066549
 11
120.91698303655539
 21
253.42184850170301
  0
INSERT
  2
-033-_U120
  8
_0-0_0
 10
0
 20
0
 41
1
 42
1
 50
0
  0
ENDBLK
  0
BLOCK
  2
-035-_U121
 70
   64
 10
0
 20
0
 30
0
  0
TEXT
  8
_0-4_A0
 62
    7
 10
31.610755815113009
 20
214.9337376844507
 40
4
 41
1
 50
90
  1
37.5
  0
ENDBLK
  0
BLOCK
  2
-036-_D31
 70
   64
 10
0
 20
0
 30
0
  0
LINE
  8
_0-4_A0
  6
CONTINUOUS
 62
    7
 10
56.40457015999798
 20
227.1837376844507
 11
31.110755815113009
 21
227.1837376844507
  0
LINE
  8
_0-4_A0
  6
CONTINUOUS
 62
    7
 10
32.110755815113009
 20
224.1837376844507
 11
32.110755815113009
 21
217.6837376844507
  0
INSERT
  2
-001-_OPEN
  8
_0-4_A0
 10
32.110755815113009
 20
227.1837376844507
 41
3
 42
3
 50
90
  0
INSERT
  2
-001-_OPEN
  8
_0-4_A0
 10
32.110755815113009
 20
214.6837376844507
 41
3
 42
3
 50
270
  0
LINE
  8
_0-4_A0
  6
CONTINUOUS
 62
    7
 10
41.992773726866289
 20
214.6837376844507
 11
31.110755815113009
 21
214.6837376844507
  0
INSERT
  2
-035-_U121
  8
_0-0_0
 10
0
 20
0
 41
1
 42
1
 50
0
  0
ENDBLK
  0
BLOCK
  2
-037-_U122
 70
   64
 10
0
 20
0
 30
0
  0
TEXT
  8
_0-4_A0
 62
    7
 10
31.610755815113009
 20
185.3504043511173
 40
4
 41
1
 50
90
  1
150
  0
ENDBLK
  0
BLOCK
  2
-038-_D32
 70
   64
 10
0
 20
0
 30
0
  0
LINE
  8
_0-4_A0
  6
CONTINUOUS
 62
    7
 10
32.110755815113009
 20
211.6837376844507
 11
32.110755815113009
 21
167.6837376844507
  0
INSERT
  2
-001-_OPEN
  8
_0-4_A0
 10
32.110755815113009
 20
214.6837376844507
 41
3
 42
3
 50
90
  0
INSERT
  2
-001-_OPEN
  8
_0-4_A0
 10
32.110755815113009
 20
164.6837376844507
 41
3
 42
3
 50
270
  0
LINE
  8
_0-4_A0
  6
CONTINUOUS
 62
    7
 10
41.992773726866289
 20
164.6837376844507
 11
31.110755815113009
 21
164.6837376844507
  0
INSERT
  2
-037-_U122
  8
_0-0_0
 10
0
 20
0
 41
1
 42
1
 50
0
  0
ENDBLK
  0
BLOCK
  2
-039-_U123
 70
   64
 10
0
 20
0
 30
0
  0
TEXT
  8
_0-4_A0
 62
    7
 10
31.610755815113009
 20
153.35040435091158
 40
4
 41
1
 50
90
  1
50
  0
ENDBLK
  0
BLOCK
  2
-040-_D33
 70
   64
 10
0
 20
0
 30
0
  0
LINE
  8
_0-4_A0
  6
CONTINUOUS
 62
    7
 10
32.110755815113009
 20
161.6837376844507
 11
32.110755815113009
 21
151.01707101737238
  0
INSERT
  2
-001-_OPEN
  8
_0-4_A0
 10
32.110755815113009
 20
164.6837376844507
 41
3
 42
3
 50
90
  0
INSERT
  2
-001-_OPEN
  8
_0-4_A0
 10
32.110755815113009
 20
148.01707101737238
 41
3
 42
3
 50
270
  0
LINE
  8
_0-4_A0
  6
CONTINUOUS
 62
    7
 10
49.950316358066217
 20
148.01707101737238
 11
31.110755815113009
 21
148.01707101737238
  0
INSERT
  2
-039-_U123
  8
_0-0_0
 10
0
 20
0
 41
1
 42
1
 50
0
  0
ENDBLK
  0
BLOCK
  2
-041-_U34
 70
   64
 10
0
 20
0
 30
0
  0
TEXT
  8
_0-1_H0
 62
    7
 10
336.80999999046309
 20
32.409999895095822
 40
3.0999999046325679
 41
1
 50
0
  1
型名
  0
ENDBLK
  0
BLOCK
  2
-042-_U35
 70
   64
 10
0
 20
0
 30
0
  0
TEXT
  8
_0-1_H0
 62
    7
 10
336.80999999046309
 20
23.806666564941398
 40
3.0999999046325679
 41
1
 50
0
  1
図番
  0
ENDBLK
  0
BLOCK
  2
-043-_U36
 70
   64
 10
0
 20
0
 30
0
  0
TEXT
  8
_0-1_H0
 62
    7
 10
351.25
 20
17.71
 40
5.58
 41
1
 50
0
  1
１０９２２５４
  0
ENDBLK
  0
BLOCK
  2
-044-_U37
 70
   64
 10
0
 20
0
 30
0
  0
TEXT
  8
_0-1_H0
 62
    7
 10
351.01600000000001
 20
10.71
 40
5.58
 41
1
 50
0
  1
製 品 姿 図
  0
ENDBLK
  0
BLOCK
  2
-045-_U38
 70
   64
 10
0
 20
0
 30
0
  0
TEXT
  8
_0-1_H0
 62
    7
 10
336.80999999046321
 20
16.806666564941398
 40
3.0999999046325679
 41
1
 50
0
  1
図名
  0
ENDBLK
  0
BLOCK
  2
-046-_U39
 70
   64
 10
0
 20
0
 30
0
  0
TEXT
  8
_0-1_H0
 62
    7
 10
57.205600116729726
 20
283.66300002574922
 40
1.673999948501587
 41
1
 50
0
  1
技連番号
  0
ENDBLK
  0
BLOCK
  2
-047-_U40
 70
   64
 10
0
 20
0
 30
0
  0
TEXT
  8
_0-1_H0
 62
    7
 10
68.976200123786924
 20
283.58550002813342
 40
1.8289999437332149
 41
1
 50
0
  1
年 月 日
  0
ENDBLK
  0
BLOCK
  2
-048-_U41
 70
   64
 10
0
 20
0
 30
0
  0
TEXT
  8
_0-1_H0
 62
    7
 10
80.602666740417475
 20
283.60100002765659
 40
1.797999944686889
 41
1
 50
0
  1
担 当
  0
ENDBLK
  0
BLOCK
  2
-049-_U42
 70
   64
 10
0
 20
0
 30
0
  0
TEXT
  8
_0-1_H0
 62
    7
 10
15.850666732788079
 20
283.4925000309945
 40
2.0149999380111691
 41
1
 50
0
  1
記号
  0
ENDBLK
  0
BLOCK
  2
-050-_U43
 70
   64
 10
0
 20
0
 30
0
  0
TEXT
  8
_0-1_H0
 62
    7
 10
29.805666918754578
 20
283.4925000309945
 40
2.0149999380111691
 41
1
 50
0
  1
変　更　履　歴
  0
ENDBLK
  0
BLOCK
  2
-051-_U44
 70
   64
 10
0
 20
0
 30
0
  0
TEXT
  8
_0-1_H0
 62
    7
 10
17.199999999999999
 20
273.93817062273467
 40
1.6639999389648429
 41
1
 50
0
  1
B
  0
ENDBLK
  0
BLOCK
  2
-052-_U45
 70
   64
 10
0
 20
0
 30
0
  0
TEXT
  8
_0-1_H0
 62
    7
 10
17.199999999999999
 20
278.43817062273467
 40
1.6639999389648429
 41
1
 50
0
  1
A
  0
ENDBLK
  0
BLOCK
  2
-053-_U46
 70
   64
 10
0
 20
0
 30
0
  0
TEXT
  8
_0-1_H0
 62
    7
 10
17.199999999999999
 20
269.43800003051762
 40
1.6639999389648429
 41
1
 50
0
  1
C
  0
ENDBLK
  0
BLOCK
  2
-054-_U47
 70
   64
 10
0
 20
0
 30
0
  0
TEXT
  8
_0-1_H0
 62
    7
 10
17.199999999999999
 20
264.93800003051762
 40
1.6639999389648429
 41
1
 50
0
  1
D
  0
ENDBLK
  0
BLOCK
  2
-055-_U48
 70
   64
 10
0
 20
0
 30
0
  0
TEXT
  8
_0-1_H0
 62
    7
 10
17.199999999999999
 20
260.43800003051762
 40
1.6639999389648429
 41
1
 50
0
  1
E
  0
ENDBLK
  0
BLOCK
  2
-056-_U49
 70
   64
 10
0
 20
0
 30
0
  0
TEXT
  8
_0-1_H0
 62
    7
 10
400.0200000047684
 20
17.240000081062309
 40
2.2000000476837149
 41
1
 50
0
  1
変更歴
  0
ENDBLK
  0
BLOCK
  2
-057-_U50
 70
   64
 10
0
 20
0
 30
0
  0
TEXT
  8
_0-1_H0
 62
    7
 10
340.99999999989341
 20
28.3
 40
4.6500000000000003
 41
1
 50
0
  1
FAN-15WK
  0
ENDBLK
  0
BLOCK
  2
-058-_U51
 70
   64
 10
0
 20
0
 30
0
  0
TEXT
  8
_0-1_H0
 62
    7
 10
340.61146667850749
 20
24.3
 40
2.913999910354613
 41
1
 50
0
  1
ワンド株式会社殿向け パイプフード
  0
ENDBLK
  0
BLOCK
  2
-059-_U52
 70
   64
 10
0
 20
0
 30
0
  0
TEXT
  8
_0-1_H0
 62
    7
 10
308.0496000843749
 20
31.408000018666811
 40
2.183999962806701
 41
1
 50
0
  1
変更承認
  0
ENDBLK
  0
BLOCK
  2
-060-_U53
 70
   64
 10
0
 20
0
 30
0
  0
TEXT
  8
_0-1_H0
 62
    7
 10
280.7533334057237
 20
31.22600002176625
 40
2.5479999566078181
 41
1
 50
0
  1
設　計
  0
ENDBLK
  0
BLOCK
  2
-061-_U54
 70
   64
 10
0
 20
0
 30
0
  0
TEXT
  8
_0-1_H0
 62
    7
 10
266.7533334057237
 20
31.22600002176625
 40
2.5479999566078181
 41
1
 50
0
  1
照　査
  0
ENDBLK
  0
BLOCK
  2
-062-_U55
 70
   64
 10
0
 20
0
 30
0
  0
TEXT
  8
_0-1_H0
 62
    7
 10
252.7533334057237
 20
31.22600002176625
 40
2.5479999566078181
 41
1
 50
0
  1
承　認
  0
ENDBLK
  0
BLOCK
  2
-063-_U56
 70
   64
 10
0
 20
0
 30
0
  0
TEXT
  8
_0-1_H0
 62
    7
 10
322.0496000843749
 20
31.408000018666811
 40
2.183999962806701
 41
1
 50
0
  1
変更照査
  0
ENDBLK
  0
BLOCK
  2
-064-_U57
 70
   64
 10
0
 20
0
 30
0
  0
TEXT
  8
_0-1_H0
 62
    7
 10
307.3999999999998
 20
11.82
 40
3.3599999999999989
 41
1
 50
0
  1
三角法
  0
ENDBLK
  0
BLOCK
  2
-065-_U58
 70
   64
 10
0
 20
0
 30
0
  0
TEXT
  8
_0-1_H0
 62
    7
 10
329.73466667970012
 20
10.75200001955033
 40
2.295999960899353
 41
1
 50
0
  1
3
  0
ENDBLK
  0
BLOCK
  2
-066-_U59
 70
   64
 10
0
 20
0
 30
0
  0
TEXT
  8
_0-1_H0
 62
    7
 10
327.11733333985029
 20
13.95200001954732
 40
2.295999960899353
 41
1
 50
0
  1
1
  0
ENDBLK
  0
BLOCK
  2
-067-_U60
 70
   64
 10
0
 20
0
 30
0
  0
TEXT
  8
_0-1_H0
 62
    7
 10
322.30999999046309
 20
16.806666564941409
 40
3.0999999046325679
 41
1
 50
0
  1
尺度
  0
ENDBLK
  0
BLOCK
  2
-068-_U63
 70
   64
 10
0
 20
0
 30
0
  0
TEXT
  8
_0-1_H0
 62
    7
 10
267.65240072438189
 20
73.3403544868153
 40
4.2000000000000001
 41
1
 50
0
  1
ウェザーカバーとダクト接続板は、取付工事の際
  0
ENDBLK
  0
BLOCK
  2
-069-_U64
 70
   64
 10
0
 20
0
 30
0
  0
TEXT
  8
_0-2_H1
 62
    7
 10
154.72820661834541
 20
43.220785789158547
 40
2.295999960899353
 41
1
 50
0
  1
10
  0
ENDBLK
  0
BLOCK
  2
-070-_U65
 70
   64
 10
0
 20
0
 30
0
  0
TEXT
  8
_0-2_H1
 62
    7
 10
154.86590953080479
 20
61.810962634768728
 40
2.295999960899353
 41
1
 50
0
  1
30
  0
ENDBLK
  0
BLOCK
  2
-071-_U66
 70
   64
 10
0
 20
0
 30
0
  0
TEXT
  8
_0-1_H0
 62
    7
 10
294.83826673761058
 20
31.22600002176625
 40
2.5479999566078181
 41
1
 50
0
  1
製　図
  0
ENDBLK
  0
BLOCK
  2
-072-_U67
 70
   64
 10
0
 20
0
 30
0
  0
TEXT
  8
_0-1_H0
 62
    7
 10
248.21240072438189
 20
73.8403544868153
 40
3.7000000000000001
 41
1
 50
0
  1
注）１．
  0
ENDBLK
  0
BLOCK
  2
-073-_U68
 70
   64
 10
0
 20
0
 30
0
  0
TEXT
  8
_0-1_H0
 62
    7
 10
268.212400724382
 20
65.340354486815314
 40
4.2000000000000001
 41
1
 50
0
  1
付属のドリルねじ６本で共締めとする。
  0
ENDBLK
  0
BLOCK
  2
-074-_U69
 70
   64
 10
0
 20
0
 30
0
  0
TEXT
  8
_0-1_H0
 62
    7
 10
295.90390862944161
 20
25.859010152284259
 40
2.4300000000000001
 41
1
 50
0
  1
篠原
  0
ENDBLK
  0
BLOCK
  2
-075-_U70
 70
   64
 10
0
 20
0
 30
0
  0
TEXT
  8
_0-1_H0
 62
    7
 10
293.27371583355858
 20
19.68068021699862
 40
1.7639999699592578
 41
1
 50
0
  1
2023/03/28
  0
ENDBLK
  0
BLOCK
  2
-076-_U71
 70
   64
 10
0
 20
0
 30
0
  0
TEXT
  8
_0-1_H0
 62
    7
 10
281.90390862944161
 20
25.859010152284259
 40
2.4300000000000001
 41
1
 50
0
  1
篠原
  0
ENDBLK
  0
BLOCK
  2
-077-_U72
 70
   64
 10
0
 20
0
 30
0
  0
TEXT
  8
_0-1_H0
 62
    7
 10
279.27371583355869
 20
19.68068021699862
 40
1.7639999699592578
 41
1
 50
0
  1
2023/03/28
  0
ENDBLK
  0
BLOCK
  2
-078-_U73
 70
   64
 10
0
 20
0
 30
0
  0
TEXT
  8
_0-1_H0
 62
    7
 10
262.06666666666671
 20
34.499999999999992
 40
4
 41
1
 50
0
  1
型　　名
  0
ENDBLK
  0
BLOCK
  2
-079-_U74
 70
   64
 10
0
 20
0
 30
0
  0
TEXT
  8
_0-1_H0
 62
    7
 10
294.79999999999989
 20
34.499999999999992
 40
4
 41
1
 50
0
  1
製品コード
  0
ENDBLK
  0
BLOCK
  2
-080-_U75
 70
   64
 10
0
 20
0
 30
0
  0
TEXT
  8
_0-1_H0
 62
    7
 10
331.93333333333328
 20
34.500000000000007
 40
4
 41
1
 50
0
  1
色　　調
  0
ENDBLK
  0
BLOCK
  2
-081-_U76
 70
   64
 10
0
 20
0
 30
0
  0
TEXT
  8
_0-1_H0
 62
    7
 10
392.58533333333332
 20
34.84000000000001
 40
3.3199999999999989
 41
1
 50
0
  1
区分No.
  0
ENDBLK
  0
BLOCK
  2
-082-_U77
 70
   64
 10
0
 20
0
 30
0
  0
TEXT
  8
_0-1_H0
 62
    7
 10
251
 20
40.039999999999999
 40
2.919999999999999
 41
1
 50
0
  1
FAN-15WK
  0
ENDBLK
  0
BLOCK
  2
-083-_U78
 70
   64
 10
0
 20
0
 30
0
  0
TEXT
  8
_0-1_H0
 62
    7
 10
296.02333333333331
 20
40.039999999999999
 40
2.919999999999999
 41
1
 50
0
  1
109WL100
  0
ENDBLK
  0
BLOCK
  2
-084-_U79
 70
   64
 10
0
 20
0
 30
0
  0
TEXT
  8
_0-1_H0
 62
    7
 10
321
 20
40.499999999999992
 40
2
 41
1
 50
0
  1
C2色(アイボリー)
  0
ENDBLK
  0
BLOCK
  2
-085-_U80
 70
   64
 10
0
 20
0
 30
0
  0
TEXT
  8
_0-1_H0
 62
    7
 10
399.02666666666658
 20
40.039999999999999
 40
2.919999999999999
 41
1
 50
0
  1
-
  0
ENDBLK
  0
BLOCK
  2
-086-_U81
 70
   64
 10
0
 20
0
 30
0
  0
TEXT
  8
_0-1_H0
 62
    7
 10
332.23508591288981
 20
91.878106774191337
 40
3.2200000000000001
 41
1
 50
0
  1
ソフトテープ
  0
ENDBLK
  0
BLOCK
  2
-087-_U82
 70
   64
 10
0
 20
0
 30
0
  0
TEXT
  8
_0-1_H0
 62
    7
 10
382.0942013584854
 20
92.770511295657996
 40
3.08
 41
1
 50
0
  1
1本
  0
ENDBLK
  0
BLOCK
  2
-088-_U83
 70
   64
 10
0
 20
0
 30
0
  0
TEXT
  8
_0-1_H0
 62
    7
 10
331.65641924622309
 20
99.000606774191325
 40
2.975
 41
1
 50
0
  1
ドリルねじ(3.5×25)
  0
ENDBLK
  0
BLOCK
  2
-089-_U84
 70
   64
 10
0
 20
0
 30
0
  0
TEXT
  8
_0-1_H0
 62
    7
 10
352.84476331681048
 20
105.87810677419129
 40
3.2200000000000001
 41
1
 50
0
  1
付 属 品
  0
ENDBLK
  0
BLOCK
  2
-090-_U85
 70
   64
 10
0
 20
0
 30
0
  0
TEXT
  8
_0-1_H0
 62
    7
 10
382.0942013584854
 20
99.524529570282993
 40
3.08
 41
1
 50
0
  1
6本
  0
ENDBLK
  0
BLOCK
  2
-091-_U86
 70
   64
 10
0
 20
0
 30
0
  0
TEXT
  8
_0-1_H0
 62
    7
 10
252.22821479808598
 20
98.843106774191284
 40
3.29
 41
1
 50
0
  1
塗装：ポリエステル塗装
  0
ENDBLK
  0
BLOCK
  2
-092-_U87
 70
   64
 10
0
 20
0
 30
0
  0
TEXT
  8
_0-1_H0
 62
    7
 10
252.3944362675071
 20
91.878106774191337
 40
3.2200000000000001
 41
1
 50
0
  1
材質：亜鉛めっき鋼板(板厚0.8mm)
  0
ENDBLK
  0
BLOCK
  2
-093-_U88
 70
   64
 10
0
 20
0
 30
0
  0
TEXT
  8
_0-1_H0
 62
    7
 10
277.53843062120267
 20
105.87810677419129
 40
3.2200000000000001
 41
1
 50
0
  1
仕　　様
  0
ENDBLK
  0
BLOCK
  2
-094-_U89
 70
   64
 10
0
 20
0
 30
0
  0
TEXT
  8
_0-2_H1
 62
    7
 10
175.86253001749321
 20
30.794260271254458
 40
2.5199999570846549
 41
1
 50
0
  1
200
  0
ENDBLK
  0
BLOCK
  2
-095-_U90
 70
   64
 10
0
 20
0
 30
0
  0
TEXT
  8
_0-2_H1
 62
    7
 10
194.8417773161922
 20
30.794260271254458
 40
2.5199999570846549
 41
1
 50
0
  1
400
  0
ENDBLK
  0
BLOCK
  2
-096-_U91
 70
   64
 10
0
 20
0
 30
0
  0
TEXT
  8
_0-2_H1
 62
    7
 10
213.8210141088324
 20
30.794260271254458
 40
2.5199999570846549
 41
1
 50
0
  1
600
  0
ENDBLK
  0
BLOCK
  2
-097-_U92
 70
   64
 10
0
 20
0
 30
0
  0
TEXT
  8
_0-2_H1
 62
    7
 10
150.57611080932261
 20
55.240074414239927
 40
3.3119999122619621
 41
1
 50
89.999999999425526
  1
圧力損失（Pa）
  0
ENDBLK
  0
BLOCK
  2
-098-_U93
 70
   64
 10
0
 20
0
 30
0
  0
TEXT
  8
_0-2_H1
 62
    7
 10
177.25936974324829
 20
24.206376175732248
 40
3.5999999046325679
 41
1
 50
0
  1
風量（ｍ
  0
ENDBLK
  0
BLOCK
  2
-099-_U94
 70
   64
 10
0
 20
0
 30
0
  0
TEXT
  8
_0-2_H1
 62
    7
 10
193.25936962403901
 20
26.00637612804854
 40
1.7999999523162839
 41
1
 50
0
  1
3
  0
ENDBLK
  0
BLOCK
  2
-100-_U95
 70
   64
 10
0
 20
0
 30
0
  0
TEXT
  8
_0-2_H1
 62
    7
 10
195.4593696121181
 20
24.206376175732248
 40
3.5999999046325679
 41
1
 50
0
  1
／ｈ）
  0
ENDBLK
  0
BLOCK
  2
-101-_U96
 70
   64
 10
0
 20
0
 30
0
  0
TEXT
  8
_0-2_H1
 62
    7
 10
174.30227956850089
 20
94.323201122757055
 40
3.863999919891357
 41
1
 50
0
  1
圧力損失曲線
  0
ENDBLK
  0
BLOCK
  2
-102-_U97
 70
   64
 10
0
 20
0
 30
0
  0
TEXT
  8
_0-2_H1
 62
    7
 10
157.8042255128123
 20
31.265429274874691
 40
2.295999960899353
 41
1
 50
0
  1
0
  0
ENDBLK
  0
BLOCK
  2
-103-_U98
 70
   64
 10
0
 20
0
 30
0
  0
TEXT
  8
_0-2_H1
 62
    7
 10
154.72820661834541
 20
52.447022755733932
 40
2.295999960899353
 41
1
 50
0
  1
20
  0
ENDBLK
  0
BLOCK
  2
-104-_U99
 70
   64
 10
0
 20
0
 30
0
  0
TEXT
  8
_0-2_H1
 62
    7
 10
154.72820661834541
 20
71.725724669700042
 40
2.295999960899353
 41
1
 50
0
  1
40
  0
ENDBLK
  0
BLOCK
  2
-105-_U100
 70
   64
 10
0
 20
0
 30
0
  0
TEXT
  8
_0-2_H1
 62
    7
 10
155.141320608753
 20
81.365075626683108
 40
2.295999960899353
 41
1
 50
0
  1
50
  0
ENDBLK
  0
BLOCK
  2
-106-_U109
 70
   64
 10
0
 20
0
 30
0
  0
TEXT
  8
_0-4_A0
 62
    7
 10
129.98845970311859
 20
113.41130281406499
 40
2.851999912261963
 41
1
 50
0
  1
ラスアミ(エキスパンドメタル t0.5)
  0
LINE
  8
_0-4_A0
  6
CONTINUOUS
 62
    7
 10
128.2525930863926
 20
112.6633028216944
 11
130.17859303060259
 21
112.6633028216944
  0
LINE
  8
_0-4_A0
  6
CONTINUOUS
 62
    7
 10
96.999908327574985
 20
82.154725380705173
 11
128.2525930863926
 21
112.6633028216944
  0
INSERT
  2
-000-_DOT
  8
_0-4_A0
 10
96.284334170037922
 20
81.456188606393951
 41
1
 42
1
 50
224.30972676741157
  0
LINE
  8
_0-4_A0
  6
CONTINUOUS
 62
    7
 10
130.17859303060271
 20
112.6633028216944
 11
188.08419124952058
 21
112.6633028216944
  0
ENDBLK
  0
BLOCK
  2
-107-_U112
 70
   64
 10
0
 20
0
 30
0
  0
TEXT
  8
_0-4_A0
 62
    7
 10
364.38004396187841
 20
227.70941632894368
 40
2.8829999113082878
 41
1
 50
0
  1
6H-\U+22054(取付穴)
  0
LINE
  8
_0-4_A0
  6
CONTINUOUS
 62
    7
 10
362.4540440176683
 20
226.99241633561939
 11
364.38004396187841
 21
226.99241633561939
  0
LINE
  8
_0-4_A0
  6
CONTINUOUS
 62
    7
 10
353.7872785245342
 20
217.4039087376876
 11
362.4540440176683
 21
226.99241633561939
  0
INSERT
  2
-001-_OPEN
  8
_0-4_A0
 10
351.77563016311171
 20
215.17831423958469
 41
3
 42
3
 50
227.8905139163285
  0
LINE
  8
_0-4_A0
  6
CONTINUOUS
 62
    7
 10
364.38004396187841
 20
226.99241633561939
 11
392.06684311043801
 21
226.99241633561939
  0
ENDBLK
  0
BLOCK
  2
-108-_U124
 70
   64
 10
0
 20
0
 30
0
  0
TEXT
  8
_0-4_A0
 62
    7
 10
161.73456279760549
 20
125.87499087230699
 40
2.79
 41
1
 50
0
  1
ウェザーカバー
  0
LINE
  8
_0-4_A0
  6
CONTINUOUS
 62
    7
 10
160.6014279827919
 20
125.164990872307
 11
162.46642798517609
 21
125.164990872307
  0
LINE
  8
_0-4_A0
  6
CONTINUOUS
 62
    7
 10
173.99360057250478
 20
166.4575348496406
 11
160.6014279827919
 21
125.164990872307
  0
INSERT
  2
-000-_DOT
  8
_0-4_A0
 10
174.30210519059889
 20
167.40875769451699
 41
1
 42
1
 50
72.03086507513467
  0
LINE
  8
_0-4_A0
  6
CONTINUOUS
 62
    7
 10
162.46642798517609
 20
125.164990872307
 11
184.6104279851761
 21
125.164990872307
  0
ENDBLK
  0
BLOCK
  2
-109-_U125
 70
   64
 10
0
 20
0
 30
0
  0
TEXT
  8
_0-4_A0
 62
    7
 10
247.72368231061881
 20
125.87499087230699
 40
2.79
 41
1
 50
0
  1
ダクト接続板
  0
LINE
  8
_0-4_A0
  6
CONTINUOUS
 62
    7
 10
246.23068230823469
 20
125.164990872307
 11
248.09568231061879
 21
125.164990872307
  0
LINE
  8
_0-4_A0
  6
CONTINUOUS
 62
    7
 10
227.58933431512369
 20
169.53143863371229
 11
246.23068230823469
 21
125.164990872307
  0
INSERT
  2
-000-_DOT
  8
_0-4_A0
 10
227.2019704163988
 20
170.45336553426611
 41
1
 42
1
 50
112.79057260717628
  0
LINE
  8
_0-4_A0
  6
CONTINUOUS
 62
    7
 10
248.09568231061891
 20
125.164990872307
 11
267.07768231061891
 21
125.164990872307
  0
ENDBLK
  0
ENDSEC
  0
SECTION
  2
ENTITIES
  0
LINE
  8
_0-1_H0
  6
CONTINUOUS
 62
    3
 10
407.5
 20
10.241136363636371
 11
407.5
 21
287.24113636363637
  0
LINE
  8
_0-1_H0
  6
CONTINUOUS
 62
    3
 10
407.5
 20
287.24113636363637
 11
12.5
 21
287.24113636363637
  0
LINE
  8
_0-1_H0
  6
CONTINUOUS
 62
    3
 10
12.5
 20
287.24113636363637
 11
12.5
 21
10.241136363636371
  0
LINE
  8
_0-1_H0
  6
CONTINUOUS
 62
    3
 10
247.5
 20
34.241136363636371
 11
407.49999999999977
 21
34.241136363636371
  0
LINE
  8
_0-1_H0
  6
CONTINUOUS
 62
    3
 10
336.49999999999988
 20
34.241136363636371
 11
336.49999999999988
 21
10.241136363636371
  0
LINE
  8
_0-1_H0
  6
CONTINUOUS
 62
    3
 10
331.49999999999988
 20
34.241136363636371
 11
331.49999999999988
 21
10.241136363636371
  0
LINE
  8
_0-1_H0
  6
CONTINUOUS
 62
    3
 10
247.5
 20
39.241136363636371
 11
407.49999999999977
 21
39.241136363636371
  0
LINE
  8
_0-1_H0
  6
CONTINUOUS
 62
    3
 10
247.5
 20
44.241136363636371
 11
247.5
 21
39.241136363636371
  0
INSERT
  2
-041-_U34
  8
_0-0_0
 10
-2.5
 20
0.2411363636363716
 41
1
 42
1
 50
0
  0
INSERT
  2
-042-_U35
  8
_0-0_0
 10
-2.5
 20
0.2411363636363716
 41
1
 42
1
 50
0
  0
INSERT
  2
-043-_U36
  8
_0-0_0
 10
-2.5
 20
0.2411363636363716
 41
1
 42
1
 50
0
  0
INSERT
  2
-044-_U37
  8
_0-0_0
 10
-2.5
 20
0.2411363636363716
 41
1
 42
1
 50
0
  0
INSERT
  2
-045-_U38
  8
_0-0_0
 10
-2.5
 20
0.2411363636363716
 41
1
 42
1
 50
0
  0
LINE
  8
_0-1_H0
  6
CONTINUOUS
 62
    3
 10
84.5
 20
282.24113636363637
 11
12.5
 21
282.24113636363637
  0
LINE
  8
_0-1_H0
  6
CONTINUOUS
 62
    3
 10
53.5
 20
287.24113636363637
 11
53.5
 21
259.74113636363637
  0
LINE
  8
_0-1_H0
  6
CONTINUOUS
 62
    3
 10
84.5
 20
277.74113636363637
 11
12.5
 21
277.74113636363637
  0
LINE
  8
_0-1_H0
  6
CONTINUOUS
 62
    3
 10
84.5
 20
268.74113636363637
 11
12.5
 21
268.74113636363637
  0
LINE
  8
_0-1_H0
  6
CONTINUOUS
 62
    3
 10
84.5
 20
264.24113636363637
 11
12.5
 21
264.24113636363637
  0
LINE
  8
_0-1_H0
  6
CONTINUOUS
 62
    3
 10
84.5
 20
259.74113636363637
 11
12.5
 21
259.74113636363637
  0
INSERT
  2
-046-_U39
  8
_0-0_0
 10
-2.5
 20
0.2411363636363716
 41
1
 42
1
 50
0
  0
INSERT
  2
-047-_U40
  8
_0-0_0
 10
-2.5
 20
0.2411363636363716
 41
1
 42
1
 50
0
  0
INSERT
  2
-048-_U41
  8
_0-0_0
 10
-2.5
 20
0.2411363636363716
 41
1
 42
1
 50
0
  0
LINE
  8
_0-1_H0
  6
CONTINUOUS
 62
    3
 10
12.5
 20
273.24113636363637
 11
84.5
 21
273.24113636363637
  0
LINE
  8
_0-1_H0
  6
CONTINUOUS
 62
    3
 10
18.5
 20
287.24113636363637
 11
18.5
 21
259.74113636363637
  0
INSERT
  2
-049-_U42
  8
_0-0_0
 10
-2.5
 20
0.2411363636363716
 41
1
 42
1
 50
0
  0
INSERT
  2
-050-_U43
  8
_0-0_0
 10
-2.5
 20
0.2411363636363716
 41
1
 42
1
 50
0
  0
LINE
  8
_0-1_H0
  6
CONTINUOUS
 62
    3
 10
63.5
 20
287.24113636363637
 11
63.5
 21
259.74113636363637
  0
LINE
  8
_0-1_H0
  6
CONTINUOUS
 62
    3
 10
13.299999999999954
 20
264.64113636363634
 11
17.69999999999996
 21
264.64113636363634
  0
LINE
  8
_0-1_H0
  6
CONTINUOUS
 62
    3
 10
17.699999999999931
 20
264.64113636363634
 11
15.499999999999914
 21
268.45164814028765
  0
LINE
  8
_0-1_H0
  6
CONTINUOUS
 62
    3
 10
15.499999999999943
 20
268.45164814028777
 11
13.299999999999954
 21
264.64113636363629
  0
LINE
  8
_0-1_H0
  6
CONTINUOUS
 62
    3
 10
13.299999999999954
 20
269.14113636363634
 11
17.69999999999996
 21
269.14113636363634
  0
LINE
  8
_0-1_H0
  6
CONTINUOUS
 62
    3
 10
17.69999999999996
 20
269.14113636363646
 11
15.499999999999971
 21
272.95164814028777
  0
LINE
  8
_0-1_H0
  6
CONTINUOUS
 62
    3
 10
15.499999999999943
 20
272.95164814028765
 11
13.299999999999954
 21
269.14113636363634
  0
LINE
  8
_0-1_H0
  6
CONTINUOUS
 62
    3
 10
13.299999999999954
 20
273.64113636363634
 11
17.69999999999996
 21
273.64113636363634
  0
LINE
  8
_0-1_H0
  6
CONTINUOUS
 62
    3
 10
17.69999999999996
 20
273.64113636363634
 11
15.499999999999943
 21
277.45164814028777
  0
LINE
  8
_0-1_H0
  6
CONTINUOUS
 62
    3
 10
15.499999999999971
 20
277.45164814028777
 11
13.299999999999954
 21
273.64113636363634
  0
INSERT
  2
-051-_U44
  8
_0-0_0
 10
-2.5
 20
0.2411363636363716
 41
1
 42
1
 50
0
  0
LINE
  8
_0-1_H0
  6
CONTINUOUS
 62
    3
 10
13.299999999999954
 20
278.14113636363634
 11
17.69999999999996
 21
278.14113636363634
  0
LINE
  8
_0-1_H0
  6
CONTINUOUS
 62
    3
 10
17.69999999999996
 20
278.14113636363646
 11
15.499999999999943
 21
281.95164814028777
  0
LINE
  8
_0-1_H0
  6
CONTINUOUS
 62
    3
 10
15.499999999999943
 20
281.95164814028777
 11
13.299999999999926
 21
278.14113636363646
  0
INSERT
  2
-052-_U45
  8
_0-0_0
 10
-2.5
 20
0.2411363636363716
 41
1
 42
1
 50
0
  0
LINE
  8
_0-1_H0
  6
CONTINUOUS
 62
    3
 10
76.5
 20
287.24113636363637
 11
76.5
 21
259.74113636363637
  0
LINE
  8
_0-1_H0
  6
CONTINUOUS
 62
    3
 10
84.5
 20
287.24113636363637
 11
84.5
 21
259.74113636363637
  0
LINE
  8
_0-1_H0
  6
CONTINUOUS
 62
    3
 10
15.499999999999943
 20
263.95164814028765
 11
13.299999999999982
 21
260.14113636363634
  0
LINE
  8
_0-1_H0
  6
CONTINUOUS
 62
    3
 10
17.699999999999931
 20
260.14113636363634
 11
15.499999999999914
 21
263.95164814028765
  0
LINE
  8
_0-1_H0
  6
CONTINUOUS
 62
    3
 10
13.299999999999954
 20
260.14113636363634
 11
17.69999999999996
 21
260.14113636363634
  0
INSERT
  2
-053-_U46
  8
_0-0_0
 10
-2.5
 20
0.2411363636363716
 41
1
 42
1
 50
0
  0
INSERT
  2
-054-_U47
  8
_0-0_0
 10
-2.5
 20
0.2411363636363716
 41
1
 42
1
 50
0
  0
INSERT
  2
-055-_U48
  8
_0-0_0
 10
-2.5
 20
0.2411363636363716
 41
1
 42
1
 50
0
  0
LINE
  8
_0-1_H0
  6
CONTINUOUS
 62
    3
 10
247.49999999999988
 20
17.241136363636371
 11
407.5
 21
17.241136363636371
  0
LINE
  8
_0-1_H0
  6
CONTINUOUS
 62
    3
 10
331.49999999999988
 20
24.241136363636371
 11
407.5
 21
24.241136363636371
  0
LINE
  8
_0-1_H0
  6
CONTINUOUS
 62
    3
 10
395.5
 20
10.241136363636371
 11
395.5
 21
17.241136363636371
  0
INSERT
  2
-056-_U49
  8
_0-0_0
 10
-2.5
 20
0.2411363636363716
 41
1
 42
1
 50
0
  0
LINE
  8
_0-1_H0
  6
CONTINUOUS
 62
    3
 10
399.5
 20
10.241136363636371
 11
399.5
 21
17.241136363636371
  0
LINE
  8
_0-1_H0
  6
CONTINUOUS
 62
    3
 10
12.5
 20
10.241136363636371
 11
407.5
 21
10.241136363636371
  0
INSERT
  2
-057-_U50
  8
_0-0_0
 10
-2.5
 20
0.2411363636363716
 41
1
 42
1
 50
0
  0
LINE
  8
_0-1_H0
  6
CONTINUOUS
 62
    3
 10
338.49999999999988
 20
28.241136363636371
 11
405.5
 21
28.241136363636371
  0
INSERT
  2
-058-_U51
  8
_0-0_0
 10
-2.5
 20
0.2411363636363716
 41
1
 42
1
 50
0
  0
LINE
  8
_0-1_H0
  6
CONTINUOUS
 62
    3
 10
317.49999999999988
 20
10.241136363636371
 11
317.49999999999988
 21
34.241136363636371
  0
LINE
  8
_0-1_H0
  6
CONTINUOUS
 62
    3
 10
303.49999999999988
 20
10.241136363636371
 11
303.49999999999988
 21
34.241136363636371
  0
LINE
  8
_0-1_H0
  6
CONTINUOUS
 62
    3
 10
289.49999999999988
 20
17.241136363636371
 11
289.49999999999988
 21
34.241136363636371
  0
LINE
  8
_0-1_H0
  6
CONTINUOUS
 62
    3
 10
275.49999999999988
 20
17.241136363636371
 11
275.49999999999988
 21
34.241136363636371
  0
LINE
  8
_0-1_H0
  6
CONTINUOUS
 62
    3
 10
261.5
 20
17.241136363636371
 11
261.5
 21
34.241136363636371
  0
INSERT
  2
-059-_U52
  8
_0-0_0
 10
-2.5
 20
0.2411363636363716
 41
1
 42
1
 50
0
  0
INSERT
  2
-060-_U53
  8
_0-0_0
 10
-2.5
 20
0.2411363636363716
 41
1
 42
1
 50
0
  0
INSERT
  2
-061-_U54
  8
_0-0_0
 10
-2.5
 20
0.2411363636363716
 41
1
 42
1
 50
0
  0
INSERT
  2
-062-_U55
  8
_0-0_0
 10
-2.5
 20
0.2411363636363716
 41
1
 42
1
 50
0
  0
INSERT
  2
-063-_U56
  8
_0-0_0
 10
-2.5
 20
0.2411363636363716
 41
1
 42
1
 50
0
  0
LINE
  8
_0-1_H0
  6
CONTINUOUS
 62
    3
 10
247.49999999999988
 20
10.241136363636371
 11
247.49999999999988
 21
34.241136363636371
  0
LINE
  8
_0-1_H0
  6
CONTINUOUS
 62
    3
 10
247.49999999999988
 20
34.241136363636371
 11
247.49999999999988
 21
44.241136363636371
  0
LINE
  8
_0-1_H0
  6
CONTINUOUS
 62
    3
 10
247.49999999999988
 20
31.241136363636371
 11
331.49999999999988
 21
31.241136363636371
  0
INSERT
  2
-064-_U57
  8
_0-0_0
 10
-2.5
 20
0.2411363636363716
 41
1
 42
1
 50
0
  0
LINE
  8
_0-1_H0
  6
CONTINUOUS
 62
    3
 10
324.50000000000011
 20
11.741136363636428
 11
328.5
 21
15.741136363633387
  0
INSERT
  2
-065-_U58
  8
_0-0_0
 10
-2.5
 20
0.2411363636363716
 41
1
 42
1
 50
0
  0
INSERT
  2
-066-_U59
  8
_0-0_0
 10
-2.5
 20
0.2411363636363716
 41
1
 42
1
 50
0
  0
LINE
  8
_0-1_H0
  6
CONTINUOUS
 62
    3
 10
321.49999999999988
 20
10.241136363636371
 11
321.49999999999988
 21
17.241136363636371
  0
INSERT
  2
-067-_U60
  8
_0-0_0
 10
-2.5
 20
0.2411363636363716
 41
1
 42
1
 50
0
  0
INSERT
  2
-068-_U63
  8
_0-0_0
 10
-2.5
 20
0.2411363636363716
 41
1
 42
1
 50
0
  0
TEXT
  8
_0-1_H0
 62
    7
 10
372.76799999999997
 20
28.533036363636369
 40
3.1
 41
1
 50
0
  1
 
  0
LINE
  8
_0-1_H0
  6
CONTINUOUS
 62
    3
 10
166.8232931747851
 20
91.695621341106814
 11
166.8232931747851
 21
34.6956213411068
  0
LINE
  8
_0-1_H0
  6
CONTINUOUS
 62
    3
 10
176.3232931747851
 20
91.695621341106814
 11
176.3232931747851
 21
34.6956213411068
  0
LINE
  8
_0-1_H0
  6
CONTINUOUS
 62
    3
 10
185.8232931747851
 20
91.695621341106814
 11
185.8232931747851
 21
34.6956213411068
  0
LINE
  8
_0-1_H0
  6
CONTINUOUS
 62
    3
 10
195.32329317478499
 20
91.695621341106814
 11
195.32329317478499
 21
34.6956213411068
  0
LINE
  8
_0-1_H0
  6
CONTINUOUS
 62
    3
 10
204.8232931747851
 20
91.695621341106814
 11
204.8232931747851
 21
34.6956213411068
  0
LINE
  8
_0-1_H0
  6
CONTINUOUS
 62
    3
 10
214.3232931747851
 20
91.695621341106814
 11
214.3232931747851
 21
34.6956213411068
  0
LINE
  8
_0-1_H0
  6
CONTINUOUS
 62
    3
 10
157.3232931747851
 20
44.1956213411068
 11
214.3232931747851
 21
44.1956213411068
  0
LINE
  8
_0-1_H0
  6
CONTINUOUS
 62
    3
 10
157.3232931747851
 20
53.6956213411068
 11
214.3232931747851
 21
53.6956213411068
  0
LINE
  8
_0-1_H0
  6
CONTINUOUS
 62
    3
 10
157.3232931747851
 20
63.1956213411068
 11
214.3232931747851
 21
63.1956213411068
  0
LINE
  8
_0-1_H0
  6
CONTINUOUS
 62
    3
 10
157.3232931747851
 20
72.695621341106814
 11
214.3232931747851
 21
72.695621341106814
  0
LINE
  8
_0-1_H0
  6
CONTINUOUS
 62
    3
 10
157.3232931747851
 20
82.195621341106814
 11
214.3232931747851
 21
82.195621341106814
  0
LINE
  8
_0-1_H0
  6
CONTINUOUS
 62
    3
 10
157.3232931747851
 20
91.695621341106814
 11
214.3232931747851
 21
91.695621341106814
  0
INSERT
  2
-069-_U64
  8
_0-0_0
 10
-2.5
 20
0.2411363636363716
 41
1
 42
1
 50
0
  0
INSERT
  2
-070-_U65
  8
_0-0_0
 10
-2.5
 20
0.2411363636363716
 41
1
 42
1
 50
0
  0
LINE
  8
_0-1_H0
  6
CONTINUOUS
 62
    3
 10
157.323
 20
34.695636363636367
 11
157.60599999999999
 21
34.71143636363638
  0
LINE
  8
_0-1_H0
  6
CONTINUOUS
 62
    3
 10
157.60599999999999
 20
34.71143636363638
 11
157.88900000000001
 21
34.727236363636365
  0
LINE
  8
_0-1_H0
  6
CONTINUOUS
 62
    3
 10
157.88900000000001
 20
34.727236363636365
 11
158.173
 21
34.74323636363637
  0
LINE
  8
_0-1_H0
  6
CONTINUOUS
 62
    3
 10
158.173
 20
34.74323636363637
 11
158.45599999999998
 21
34.759536363636371
  0
LINE
  8
_0-1_H0
  6
CONTINUOUS
 62
    3
 10
158.45599999999998
 20
34.759536363636371
 11
158.739
 21
34.776036363636364
  0
LINE
  8
_0-1_H0
  6
CONTINUOUS
 62
    3
 10
158.739
 20
34.776036363636364
 11
159.02099999999998
 21
34.792836363636368
  0
LINE
  8
_0-1_H0
  6
CONTINUOUS
 62
    3
 10
159.02099999999998
 20
34.792836363636368
 11
159.304
 21
34.810236363636363
  0
LINE
  8
_0-1_H0
  6
CONTINUOUS
 62
    3
 10
159.304
 20
34.810236363636363
 11
159.58699999999998
 21
34.828036363636371
  0
LINE
  8
_0-1_H0
  6
CONTINUOUS
 62
    3
 10
159.58699999999998
 20
34.828036363636371
 11
159.87
 21
34.846436363636371
  0
LINE
  8
_0-1_H0
  6
CONTINUOUS
 62
    3
 10
159.87
 20
34.846436363636371
 11
160.15299999999999
 21
34.865436363636376
  0
LINE
  8
_0-1_H0
  6
CONTINUOUS
 62
    3
 10
160.15299999999999
 20
34.865436363636376
 11
160.435
 21
34.88523636363638
  0
LINE
  8
_0-1_H0
  6
CONTINUOUS
 62
    3
 10
160.435
 20
34.88523636363638
 11
160.71700000000001
 21
34.905836363636382
  0
LINE
  8
_0-1_H0
  6
CONTINUOUS
 62
    3
 10
160.71700000000001
 20
34.905836363636382
 11
161
 21
34.927236363636382
  0
LINE
  8
_0-1_H0
  6
CONTINUOUS
 62
    3
 10
161
 20
34.927236363636382
 11
161.28200000000001
 21
34.949636363636372
  0
LINE
  8
_0-1_H0
  6
CONTINUOUS
 62
    3
 10
161.28200000000001
 20
34.949636363636372
 11
161.56399999999999
 21
34.973036363636367
  0
LINE
  8
_0-1_H0
  6
CONTINUOUS
 62
    3
 10
161.56399999999999
 20
34.973036363636367
 11
161.846
 21
34.99753636363637
  0
LINE
  8
_0-1_H0
  6
CONTINUOUS
 62
    3
 10
161.846
 20
34.99753636363637
 11
162.127
 21
35.023236363636371
  0
LINE
  8
_0-1_H0
  6
CONTINUOUS
 62
    3
 10
162.127
 20
35.023236363636371
 11
162.40899999999999
 21
35.050136363636369
  0
LINE
  8
_0-1_H0
  6
CONTINUOUS
 62
    3
 10
162.40899999999999
 20
35.050136363636369
 11
162.68999999999999
 21
35.078336363636367
  0
LINE
  8
_0-1_H0
  6
CONTINUOUS
 62
    3
 10
162.68999999999999
 20
35.078336363636367
 11
162.971
 21
35.107936363636369
  0
LINE
  8
_0-1_H0
  6
CONTINUOUS
 62
    3
 10
162.971
 20
35.107936363636369
 11
163.252
 21
35.138936363636361
  0
LINE
  8
_0-1_H0
  6
CONTINUOUS
 62
    3
 10
163.252
 20
35.138936363636361
 11
163.53299999999998
 21
35.171536363636363
  0
LINE
  8
_0-1_H0
  6
CONTINUOUS
 62
    3
 10
163.53299999999998
 20
35.171536363636363
 11
163.81399999999999
 21
35.205636363636372
  0
LINE
  8
_0-1_H0
  6
CONTINUOUS
 62
    3
 10
163.81399999999999
 20
35.205636363636372
 11
164.09399999999999
 21
35.24153636363637
  0
LINE
  8
_0-1_H0
  6
CONTINUOUS
 62
    3
 10
164.09399999999999
 20
35.24153636363637
 11
164.37399999999999
 21
35.279036363636379
  0
LINE
  8
_0-1_H0
  6
CONTINUOUS
 62
    3
 10
164.37399999999999
 20
35.279036363636379
 11
164.65399999999999
 21
35.318436363636379
  0
LINE
  8
_0-1_H0
  6
CONTINUOUS
 62
    3
 10
164.65399999999999
 20
35.318436363636379
 11
164.93299999999999
 21
35.359736363636372
  0
LINE
  8
_0-1_H0
  6
CONTINUOUS
 62
    3
 10
164.93299999999999
 20
35.359736363636372
 11
165.21199999999998
 21
35.402936363636371
  0
LINE
  8
_0-1_H0
  6
CONTINUOUS
 62
    3
 10
165.21199999999998
 20
35.402936363636371
 11
165.49100000000001
 21
35.448236363636368
  0
LINE
  8
_0-1_H0
  6
CONTINUOUS
 62
    3
 10
165.49100000000001
 20
35.448236363636368
 11
165.77000000000001
 21
35.495636363636378
  0
LINE
  8
_0-1_H0
  6
CONTINUOUS
 62
    3
 10
165.77000000000001
 20
35.495636363636378
 11
166.048
 21
35.545136363636373
  0
LINE
  8
_0-1_H0
  6
CONTINUOUS
 62
    3
 10
166.048
 20
35.545136363636373
 11
166.32599999999999
 21
35.596936363636373
  0
LINE
  8
_0-1_H0
  6
CONTINUOUS
 62
    3
 10
166.32599999999999
 20
35.596936363636373
 11
166.60400000000001
 21
35.651036363636364
  0
LINE
  8
_0-1_H0
  6
CONTINUOUS
 62
    3
 10
166.60400000000001
 20
35.651036363636364
 11
166.881
 21
35.707536363636364
  0
LINE
  8
_0-1_H0
  6
CONTINUOUS
 62
    3
 10
166.881
 20
35.707536363636364
 11
167.15799999999998
 21
35.766536363636362
  0
LINE
  8
_0-1_H0
  6
CONTINUOUS
 62
    3
 10
167.15799999999998
 20
35.766536363636362
 11
167.43399999999999
 21
35.827936363636368
  0
LINE
  8
_0-1_H0
  6
CONTINUOUS
 62
    3
 10
167.43399999999999
 20
35.827936363636368
 11
167.71100000000001
 21
35.891836363636372
  0
LINE
  8
_0-1_H0
  6
CONTINUOUS
 62
    3
 10
167.71100000000001
 20
35.891836363636372
 11
167.98599999999998
 21
35.95813636363637
  0
LINE
  8
_0-1_H0
  6
CONTINUOUS
 62
    3
 10
167.98599999999998
 20
35.95813636363637
 11
168.262
 21
36.026836363636363
  0
LINE
  8
_0-1_H0
  6
CONTINUOUS
 62
    3
 10
168.262
 20
36.026836363636363
 11
168.536
 21
36.097936363636364
  0
LINE
  8
_0-1_H0
  6
CONTINUOUS
 62
    3
 10
168.536
 20
36.097936363636364
 11
168.81
 21
36.171536363636363
  0
LINE
  8
_0-1_H0
  6
CONTINUOUS
 62
    3
 10
168.81
 20
36.171536363636363
 11
169.084
 21
36.24753636363637
  0
LINE
  8
_0-1_H0
  6
CONTINUOUS
 62
    3
 10
169.084
 20
36.24753636363637
 11
169.35699999999999
 21
36.325936363636373
  0
LINE
  8
_0-1_H0
  6
CONTINUOUS
 62
    3
 10
169.35699999999999
 20
36.325936363636373
 11
169.62899999999999
 21
36.406736363636369
  0
LINE
  8
_0-1_H0
  6
CONTINUOUS
 62
    3
 10
169.62899999999999
 20
36.406736363636369
 11
169.90100000000001
 21
36.489836363636371
  0
LINE
  8
_0-1_H0
  6
CONTINUOUS
 62
    3
 10
169.90100000000001
 20
36.489836363636371
 11
170.17199999999999
 21
36.57543636363637
  0
LINE
  8
_0-1_H0
  6
CONTINUOUS
 62
    3
 10
170.17199999999999
 20
36.57543636363637
 11
170.442
 21
36.663436363636378
  0
LINE
  8
_0-1_H0
  6
CONTINUOUS
 62
    3
 10
170.442
 20
36.663436363636378
 11
170.71199999999998
 21
36.753836363636366
  0
LINE
  8
_0-1_H0
  6
CONTINUOUS
 62
    3
 10
170.71199999999998
 20
36.753836363636366
 11
170.98099999999999
 21
36.846536363636374
  0
LINE
  8
_0-1_H0
  6
CONTINUOUS
 62
    3
 10
170.98099999999999
 20
36.846536363636374
 11
171.24899999999999
 21
36.941636363636376
  0
LINE
  8
_0-1_H0
  6
CONTINUOUS
 62
    3
 10
171.24899999999999
 20
36.941636363636376
 11
171.51599999999999
 21
37.039136363636373
  0
LINE
  8
_0-1_H0
  6
CONTINUOUS
 62
    3
 10
171.51599999999999
 20
37.039136363636373
 11
171.78200000000001
 21
37.138936363636361
  0
LINE
  8
_0-1_H0
  6
CONTINUOUS
 62
    3
 10
171.78200000000001
 20
37.138936363636361
 11
172.04699999999999
 21
37.241136363636371
  0
LINE
  8
_0-1_H0
  6
CONTINUOUS
 62
    3
 10
172.04699999999999
 20
37.241136363636371
 11
172.31200000000001
 21
37.345736363636376
  0
LINE
  8
_0-1_H0
  6
CONTINUOUS
 62
    3
 10
172.31200000000001
 20
37.345736363636376
 11
172.57499999999998
 21
37.452636363636372
  0
LINE
  8
_0-1_H0
  6
CONTINUOUS
 62
    3
 10
172.57499999999998
 20
37.452636363636372
 11
172.83799999999999
 21
37.561836363636373
  0
LINE
  8
_0-1_H0
  6
CONTINUOUS
 62
    3
 10
172.83799999999999
 20
37.561836363636373
 11
173.09899999999998
 21
37.673436363636369
  0
LINE
  8
_0-1_H0
  6
CONTINUOUS
 62
    3
 10
173.09899999999998
 20
37.673436363636369
 11
173.359
 21
37.78733636363637
  0
LINE
  8
_0-1_H0
  6
CONTINUOUS
 62
    3
 10
173.359
 20
37.78733636363637
 11
173.61799999999999
 21
37.903536363636362
  0
LINE
  8
_0-1_H0
  6
CONTINUOUS
 62
    3
 10
173.61799999999999
 20
37.903536363636362
 11
173.877
 21
38.022136363636377
  0
LINE
  8
_0-1_H0
  6
CONTINUOUS
 62
    3
 10
173.877
 20
38.022136363636377
 11
174.13399999999998
 21
38.14293636363638
  0
LINE
  8
_0-1_H0
  6
CONTINUOUS
 62
    3
 10
174.13399999999998
 20
38.14293636363638
 11
174.38900000000001
 21
38.266136363636377
  0
LINE
  8
_0-1_H0
  6
CONTINUOUS
 62
    3
 10
174.38900000000001
 20
38.266136363636377
 11
174.644
 21
38.391636363636365
  0
LINE
  8
_0-1_H0
  6
CONTINUOUS
 62
    3
 10
174.644
 20
38.391636363636365
 11
174.89699999999999
 21
38.519336363636369
  0
LINE
  8
_0-1_H0
  6
CONTINUOUS
 62
    3
 10
174.89699999999999
 20
38.519336363636369
 11
175.149
 21
38.649436363636368
  0
LINE
  8
_0-1_H0
  6
CONTINUOUS
 62
    3
 10
175.149
 20
38.649436363636368
 11
175.4
 21
38.781836363636372
  0
LINE
  8
_0-1_H0
  6
CONTINUOUS
 62
    3
 10
175.4
 20
38.781836363636372
 11
175.649
 21
38.916436363636364
  0
LINE
  8
_0-1_H0
  6
CONTINUOUS
 62
    3
 10
175.649
 20
38.916436363636364
 11
175.89699999999999
 21
39.053336363636361
  0
LINE
  8
_0-1_H0
  6
CONTINUOUS
 62
    3
 10
175.89699999999999
 20
39.053336363636361
 11
176.144
 21
39.192536363636378
  0
LINE
  8
_0-1_H0
  6
CONTINUOUS
 62
    3
 10
176.144
 20
39.192536363636378
 11
176.38900000000001
 21
39.333936363636368
  0
LINE
  8
_0-1_H0
  6
CONTINUOUS
 62
    3
 10
176.38900000000001
 20
39.333936363636368
 11
176.633
 21
39.477636363636378
  0
LINE
  8
_0-1_H0
  6
CONTINUOUS
 62
    3
 10
176.633
 20
39.477636363636378
 11
176.875
 21
39.623536363636361
  0
LINE
  8
_0-1_H0
  6
CONTINUOUS
 62
    3
 10
176.875
 20
39.623536363636361
 11
177.11600000000001
 21
39.771636363636375
  0
LINE
  8
_0-1_H0
  6
CONTINUOUS
 62
    3
 10
177.11600000000001
 20
39.771636363636375
 11
177.35599999999999
 21
39.921836363636373
  0
LINE
  8
_0-1_H0
  6
CONTINUOUS
 62
    3
 10
177.35599999999999
 20
39.921836363636373
 11
177.59399999999999
 21
40.07413636363637
  0
LINE
  8
_0-1_H0
  6
CONTINUOUS
 62
    3
 10
177.59399999999999
 20
40.07413636363637
 11
177.83099999999998
 21
40.228436363636376
  0
LINE
  8
_0-1_H0
  6
CONTINUOUS
 62
    3
 10
177.83099999999998
 20
40.228436363636376
 11
178.066
 21
40.384836363636367
  0
LINE
  8
_0-1_H0
  6
CONTINUOUS
 62
    3
 10
178.066
 20
40.384836363636367
 11
178.30099999999998
 21
40.543136363636364
  0
LINE
  8
_0-1_H0
  6
CONTINUOUS
 62
    3
 10
178.30099999999998
 20
40.543136363636364
 11
178.53299999999998
 21
40.703336363636367
  0
LINE
  8
_0-1_H0
  6
CONTINUOUS
 62
    3
 10
178.53299999999998
 20
40.703336363636367
 11
178.76499999999998
 21
40.865436363636376
  0
LINE
  8
_0-1_H0
  6
CONTINUOUS
 62
    3
 10
178.76499999999998
 20
40.865436363636376
 11
178.995
 21
41.029336363636375
  0
LINE
  8
_0-1_H0
  6
CONTINUOUS
 62
    3
 10
178.995
 20
41.029336363636375
 11
179.22499999999999
 21
41.195136363636379
  0
LINE
  8
_0-1_H0
  6
CONTINUOUS
 62
    3
 10
179.22499999999999
 20
41.195136363636379
 11
179.453
 21
41.362536363636365
  0
LINE
  8
_0-1_H0
  6
CONTINUOUS
 62
    3
 10
179.453
 20
41.362536363636365
 11
179.679
 21
41.531736363636369
  0
LINE
  8
_0-1_H0
  6
CONTINUOUS
 62
    3
 10
179.679
 20
41.531736363636369
 11
179.905
 21
41.702636363636372
  0
LINE
  8
_0-1_H0
  6
CONTINUOUS
 62
    3
 10
179.905
 20
41.702636363636372
 11
180.12899999999999
 21
41.875136363636372
  0
LINE
  8
_0-1_H0
  6
CONTINUOUS
 62
    3
 10
180.12899999999999
 20
41.875136363636372
 11
180.353
 21
42.049236363636367
  0
LINE
  8
_0-1_H0
  6
CONTINUOUS
 62
    3
 10
180.353
 20
42.049236363636367
 11
180.57499999999998
 21
42.224936363636373
  0
LINE
  8
_0-1_H0
  6
CONTINUOUS
 62
    3
 10
180.57499999999998
 20
42.224936363636373
 11
180.79599999999999
 21
42.402036363636369
  0
LINE
  8
_0-1_H0
  6
CONTINUOUS
 62
    3
 10
180.79599999999999
 20
42.402036363636369
 11
181.01599999999999
 21
42.580636363636372
  0
LINE
  8
_0-1_H0
  6
CONTINUOUS
 62
    3
 10
181.01599999999999
 20
42.580636363636372
 11
181.23500000000001
 21
42.760636363636365
  0
LINE
  8
_0-1_H0
  6
CONTINUOUS
 62
    3
 10
181.23500000000001
 20
42.760636363636365
 11
181.453
 21
42.942136363636365
  0
LINE
  8
_0-1_H0
  6
CONTINUOUS
 62
    3
 10
181.453
 20
42.942136363636365
 11
181.66999999999998
 21
43.124836363636376
  0
LINE
  8
_0-1_H0
  6
CONTINUOUS
 62
    3
 10
181.66999999999998
 20
43.124836363636376
 11
181.88599999999999
 21
43.308936363636377
  0
LINE
  8
_0-1_H0
  6
CONTINUOUS
 62
    3
 10
181.88599999999999
 20
43.308936363636377
 11
182.10099999999999
 21
43.494236363636375
  0
LINE
  8
_0-1_H0
  6
CONTINUOUS
 62
    3
 10
182.10099999999999
 20
43.494236363636375
 11
182.31499999999999
 21
43.68073636363637
  0
LINE
  8
_0-1_H0
  6
CONTINUOUS
 62
    3
 10
182.31499999999999
 20
43.68073636363637
 11
182.52799999999999
 21
43.868436363636362
  0
LINE
  8
_0-1_H0
  6
CONTINUOUS
 62
    3
 10
182.52799999999999
 20
43.868436363636362
 11
182.74
 21
44.057236363636377
  0
LINE
  8
_0-1_H0
  6
CONTINUOUS
 62
    3
 10
182.74
 20
44.057236363636377
 11
182.95099999999999
 21
44.247236363636375
  0
LINE
  8
_0-1_H0
  6
CONTINUOUS
 62
    3
 10
182.95099999999999
 20
44.247236363636375
 11
183.162
 21
44.438236363636377
  0
LINE
  8
_0-1_H0
  6
CONTINUOUS
 62
    3
 10
183.162
 20
44.438236363636377
 11
183.371
 21
44.630136363636381
  0
LINE
  8
_0-1_H0
  6
CONTINUOUS
 62
    3
 10
183.371
 20
44.630136363636381
 11
183.58000000000001
 21
44.823136363636365
  0
LINE
  8
_0-1_H0
  6
CONTINUOUS
 62
    3
 10
183.58000000000001
 20
44.823136363636365
 11
183.78800000000001
 21
45.017036363636378
  0
LINE
  8
_0-1_H0
  6
CONTINUOUS
 62
    3
 10
183.78800000000001
 20
45.017036363636378
 11
183.995
 21
45.211836363636365
  0
LINE
  8
_0-1_H0
  6
CONTINUOUS
 62
    3
 10
183.995
 20
45.211836363636365
 11
184.20099999999999
 21
45.407436363636378
  0
LINE
  8
_0-1_H0
  6
CONTINUOUS
 62
    3
 10
184.20099999999999
 20
45.407436363636378
 11
184.406
 21
45.603836363636361
  0
LINE
  8
_0-1_H0
  6
CONTINUOUS
 62
    3
 10
184.406
 20
45.603836363636361
 11
184.61099999999998
 21
45.80103636363637
  0
LINE
  8
_0-1_H0
  6
CONTINUOUS
 62
    3
 10
184.61099999999998
 20
45.80103636363637
 11
184.81499999999999
 21
45.998936363636374
  0
LINE
  8
_0-1_H0
  6
CONTINUOUS
 62
    3
 10
184.81499999999999
 20
45.998936363636374
 11
185.019
 21
46.19743636363637
  0
LINE
  8
_0-1_H0
  6
CONTINUOUS
 62
    3
 10
185.019
 20
46.19743636363637
 11
185.221
 21
46.396636363636375
  0
LINE
  8
_0-1_H0
  6
CONTINUOUS
 62
    3
 10
185.221
 20
46.396636363636375
 11
185.423
 21
46.596536363636374
  0
LINE
  8
_0-1_H0
  6
CONTINUOUS
 62
    3
 10
185.423
 20
46.596536363636374
 11
185.625
 21
46.796836363636373
  0
LINE
  8
_0-1_H0
  6
CONTINUOUS
 62
    3
 10
185.625
 20
46.796836363636373
 11
185.82499999999998
 21
46.997736363636363
  0
LINE
  8
_0-1_H0
  6
CONTINUOUS
 62
    3
 10
185.82499999999998
 20
46.997736363636363
 11
186.02600000000001
 21
47.199036363636366
  0
LINE
  8
_0-1_H0
  6
CONTINUOUS
 62
    3
 10
186.02600000000001
 20
47.199036363636366
 11
186.22499999999999
 21
47.400936363636361
  0
LINE
  8
_0-1_H0
  6
CONTINUOUS
 62
    3
 10
186.22499999999999
 20
47.400936363636361
 11
186.424
 21
47.603136363636366
  0
LINE
  8
_0-1_H0
  6
CONTINUOUS
 62
    3
 10
186.424
 20
47.603136363636366
 11
186.62200000000001
 21
47.805936363636362
  0
LINE
  8
_0-1_H0
  6
CONTINUOUS
 62
    3
 10
186.62200000000001
 20
47.805936363636362
 11
186.81999999999999
 21
48.009136363636372
  0
LINE
  8
_0-1_H0
  6
CONTINUOUS
 62
    3
 10
186.81999999999999
 20
48.009136363636372
 11
187.01699999999999
 21
48.212736363636366
  0
LINE
  8
_0-1_H0
  6
CONTINUOUS
 62
    3
 10
187.01699999999999
 20
48.212736363636366
 11
187.21399999999999
 21
48.416836363636377
  0
LINE
  8
_0-1_H0
  6
CONTINUOUS
 62
    3
 10
187.21399999999999
 20
48.416836363636377
 11
187.40999999999999
 21
48.621436363636377
  0
LINE
  8
_0-1_H0
  6
CONTINUOUS
 62
    3
 10
187.40999999999999
 20
48.621436363636377
 11
187.60599999999999
 21
48.826436363636361
  0
LINE
  8
_0-1_H0
  6
CONTINUOUS
 62
    3
 10
187.60599999999999
 20
48.826436363636361
 11
187.80099999999998
 21
49.031836363636372
  0
LINE
  8
_0-1_H0
  6
CONTINUOUS
 62
    3
 10
187.80099999999998
 20
49.031836363636372
 11
187.995
 21
49.237636363636369
  0
LINE
  8
_0-1_H0
  6
CONTINUOUS
 62
    3
 10
187.995
 20
49.237636363636369
 11
188.18899999999999
 21
49.443936363636368
  0
LINE
  8
_0-1_H0
  6
CONTINUOUS
 62
    3
 10
188.18899999999999
 20
49.443936363636368
 11
188.382
 21
49.65063636363638
  0
LINE
  8
_0-1_H0
  6
CONTINUOUS
 62
    3
 10
188.382
 20
49.65063636363638
 11
188.57499999999998
 21
49.857736363636377
  0
LINE
  8
_0-1_H0
  6
CONTINUOUS
 62
    3
 10
188.57499999999998
 20
49.857736363636377
 11
188.76699999999999
 21
50.065336363636362
  0
LINE
  8
_0-1_H0
  6
CONTINUOUS
 62
    3
 10
188.76699999999999
 20
50.065336363636362
 11
188.959
 21
50.273336363636374
  0
LINE
  8
_0-1_H0
  6
CONTINUOUS
 62
    3
 10
188.959
 20
50.273336363636374
 11
189.15100000000001
 21
50.481636363636368
  0
LINE
  8
_0-1_H0
  6
CONTINUOUS
 62
    3
 10
189.15100000000001
 20
50.481636363636368
 11
189.341
 21
50.690436363636365
  0
LINE
  8
_0-1_H0
  6
CONTINUOUS
 62
    3
 10
189.341
 20
50.690436363636365
 11
189.53200000000001
 21
50.899636363636375
  0
LINE
  8
_0-1_H0
  6
CONTINUOUS
 62
    3
 10
189.53200000000001
 20
50.899636363636375
 11
189.721
 21
51.109136363636366
  0
LINE
  8
_0-1_H0
  6
CONTINUOUS
 62
    3
 10
189.721
 20
51.109136363636366
 11
189.911
 21
51.319136363636374
  0
LINE
  8
_0-1_H0
  6
CONTINUOUS
 62
    3
 10
189.911
 20
51.319136363636374
 11
190.09999999999999
 21
51.529536363636367
  0
LINE
  8
_0-1_H0
  6
CONTINUOUS
 62
    3
 10
190.09999999999999
 20
51.529536363636367
 11
190.28800000000001
 21
51.74023636363637
  0
LINE
  8
_0-1_H0
  6
CONTINUOUS
 62
    3
 10
190.28800000000001
 20
51.74023636363637
 11
190.47599999999999
 21
51.951336363636372
  0
LINE
  8
_0-1_H0
  6
CONTINUOUS
 62
    3
 10
190.47599999999999
 20
51.951336363636372
 11
190.66300000000001
 21
52.162836363636372
  0
LINE
  8
_0-1_H0
  6
CONTINUOUS
 62
    3
 10
190.66300000000001
 20
52.162836363636372
 11
190.84999999999999
 21
52.374736363636372
  0
LINE
  8
_0-1_H0
  6
CONTINUOUS
 62
    3
 10
190.84999999999999
 20
52.374736363636372
 11
191.037
 21
52.587036363636372
  0
LINE
  8
_0-1_H0
  6
CONTINUOUS
 62
    3
 10
191.037
 20
52.587036363636372
 11
191.22300000000001
 21
52.799636363636381
  0
LINE
  8
_0-1_H0
  6
CONTINUOUS
 62
    3
 10
191.22300000000001
 20
52.799636363636381
 11
191.40799999999998
 21
53.012636363636374
  0
LINE
  8
_0-1_H0
  6
CONTINUOUS
 62
    3
 10
191.40799999999998
 20
53.012636363636374
 11
191.59399999999999
 21
53.225936363636378
  0
LINE
  8
_0-1_H0
  6
CONTINUOUS
 62
    3
 10
191.59399999999999
 20
53.225936363636378
 11
191.77799999999999
 21
53.439636363636367
  0
LINE
  8
_0-1_H0
  6
CONTINUOUS
 62
    3
 10
191.77799999999999
 20
53.439636363636367
 11
191.96299999999999
 21
53.653636363636366
  0
LINE
  8
_0-1_H0
  6
CONTINUOUS
 62
    3
 10
191.96299999999999
 20
53.653636363636366
 11
192.14699999999999
 21
53.868036363636377
  0
LINE
  8
_0-1_H0
  6
CONTINUOUS
 62
    3
 10
192.14699999999999
 20
53.868036363636377
 11
192.33000000000001
 21
54.082836363636374
  0
LINE
  8
_0-1_H0
  6
CONTINUOUS
 62
    3
 10
192.33000000000001
 20
54.082836363636374
 11
192.513
 21
54.297936363636381
  0
LINE
  8
_0-1_H0
  6
CONTINUOUS
 62
    3
 10
192.513
 20
54.297936363636381
 11
192.69599999999999
 21
54.513336363636369
  0
LINE
  8
_0-1_H0
  6
CONTINUOUS
 62
    3
 10
192.69599999999999
 20
54.513336363636369
 11
192.87799999999998
 21
54.729036363636367
  0
LINE
  8
_0-1_H0
  6
CONTINUOUS
 62
    3
 10
192.87799999999998
 20
54.729036363636367
 11
193.06
 21
54.945136363636379
  0
LINE
  8
_0-1_H0
  6
CONTINUOUS
 62
    3
 10
193.06
 20
54.945136363636379
 11
193.24199999999999
 21
55.161536363636372
  0
LINE
  8
_0-1_H0
  6
CONTINUOUS
 62
    3
 10
193.24199999999999
 20
55.161536363636372
 11
193.423
 21
55.378236363636375
  0
LINE
  8
_0-1_H0
  6
CONTINUOUS
 62
    3
 10
193.423
 20
55.378236363636375
 11
193.60400000000001
 21
55.595236363636374
  0
LINE
  8
_0-1_H0
  6
CONTINUOUS
 62
    3
 10
193.60400000000001
 20
55.595236363636374
 11
193.78399999999999
 21
55.812636363636372
  0
LINE
  8
_0-1_H0
  6
CONTINUOUS
 62
    3
 10
193.78399999999999
 20
55.812636363636372
 11
193.96399999999999
 21
56.030236363636362
  0
LINE
  8
_0-1_H0
  6
CONTINUOUS
 62
    3
 10
193.96399999999999
 20
56.030236363636362
 11
194.144
 21
56.24823636363638
  0
LINE
  8
_0-1_H0
  6
CONTINUOUS
 62
    3
 10
194.144
 20
56.24823636363638
 11
194.32400000000001
 21
56.466436363636375
  0
LINE
  8
_0-1_H0
  6
CONTINUOUS
 62
    3
 10
194.32400000000001
 20
56.466436363636375
 11
194.50299999999998
 21
56.68503636363637
  0
LINE
  8
_0-1_H0
  6
CONTINUOUS
 62
    3
 10
194.50299999999998
 20
56.68503636363637
 11
194.68100000000001
 21
56.903836363636372
  0
LINE
  8
_0-1_H0
  6
CONTINUOUS
 62
    3
 10
194.68100000000001
 20
56.903836363636372
 11
194.86000000000001
 21
57.123036363636373
  0
LINE
  8
_0-1_H0
  6
CONTINUOUS
 62
    3
 10
194.86000000000001
 20
57.123036363636373
 11
195.03800000000001
 21
57.34243636363638
  0
LINE
  8
_0-1_H0
  6
CONTINUOUS
 62
    3
 10
195.03800000000001
 20
57.34243636363638
 11
195.216
 21
57.562136363636369
  0
LINE
  8
_0-1_H0
  6
CONTINUOUS
 62
    3
 10
195.216
 20
57.562136363636369
 11
195.393
 21
57.782136363636368
  0
LINE
  8
_0-1_H0
  6
CONTINUOUS
 62
    3
 10
195.393
 20
57.782136363636368
 11
195.56999999999999
 21
58.002336363636374
  0
LINE
  8
_0-1_H0
  6
CONTINUOUS
 62
    3
 10
195.56999999999999
 20
58.002336363636374
 11
195.74700000000001
 21
58.222936363636364
  0
LINE
  8
_0-1_H0
  6
CONTINUOUS
 62
    3
 10
195.74700000000001
 20
58.222936363636364
 11
195.924
 21
58.443736363636361
  0
LINE
  8
_0-1_H0
  6
CONTINUOUS
 62
    3
 10
195.924
 20
58.443736363636361
 11
196.09999999999999
 21
58.664836363636368
  0
LINE
  8
_0-1_H0
  6
CONTINUOUS
 62
    3
 10
196.09999999999999
 20
58.664836363636368
 11
196.27600000000001
 21
58.886136363636381
  0
LINE
  8
_0-1_H0
  6
CONTINUOUS
 62
    3
 10
196.27600000000001
 20
58.886136363636381
 11
196.45099999999999
 21
59.10783636363638
  0
LINE
  8
_0-1_H0
  6
CONTINUOUS
 62
    3
 10
196.45099999999999
 20
59.10783636363638
 11
196.626
 21
59.329736363636371
  0
LINE
  8
_0-1_H0
  6
CONTINUOUS
 62
    3
 10
196.626
 20
59.329736363636371
 11
196.80099999999998
 21
59.551936363636372
  0
LINE
  8
_0-1_H0
  6
CONTINUOUS
 62
    3
 10
196.80099999999998
 20
59.551936363636372
 11
196.97599999999999
 21
59.774436363636368
  0
LINE
  8
_0-1_H0
  6
CONTINUOUS
 62
    3
 10
196.97599999999999
 20
59.774436363636368
 11
197.15
 21
59.997236363636375
  0
LINE
  8
_0-1_H0
  6
CONTINUOUS
 62
    3
 10
197.15
 20
59.997236363636375
 11
197.32400000000001
 21
60.220236363636374
  0
LINE
  8
_0-1_H0
  6
CONTINUOUS
 62
    3
 10
197.32400000000001
 20
60.220236363636374
 11
197.49700000000001
 21
60.443636363636372
  0
LINE
  8
_0-1_H0
  6
CONTINUOUS
 62
    3
 10
197.49700000000001
 20
60.443636363636372
 11
197.67099999999999
 21
60.667236363636362
  0
LINE
  8
_0-1_H0
  6
CONTINUOUS
 62
    3
 10
197.67099999999999
 20
60.667236363636362
 11
197.84299999999998
 21
60.891136363636377
  0
LINE
  8
_0-1_H0
  6
CONTINUOUS
 62
    3
 10
197.84299999999998
 20
60.891136363636377
 11
198.01599999999999
 21
61.115336363636373
  0
LINE
  8
_0-1_H0
  6
CONTINUOUS
 62
    3
 10
198.01599999999999
 20
61.115336363636373
 11
198.18799999999998
 21
61.339836363636379
  0
LINE
  8
_0-1_H0
  6
CONTINUOUS
 62
    3
 10
198.18799999999998
 20
61.339836363636379
 11
198.36000000000001
 21
61.564536363636364
  0
LINE
  8
_0-1_H0
  6
CONTINUOUS
 62
    3
 10
198.36000000000001
 20
61.564536363636364
 11
198.531
 21
61.789636363636361
  0
LINE
  8
_0-1_H0
  6
CONTINUOUS
 62
    3
 10
198.531
 20
61.789636363636361
 11
198.70199999999999
 21
62.014936363636365
  0
LINE
  8
_0-1_H0
  6
CONTINUOUS
 62
    3
 10
198.70199999999999
 20
62.014936363636365
 11
198.87299999999999
 21
62.24053636363638
  0
LINE
  8
_0-1_H0
  6
CONTINUOUS
 62
    3
 10
198.87299999999999
 20
62.24053636363638
 11
199.043
 21
62.466536363636379
  0
LINE
  8
_0-1_H0
  6
CONTINUOUS
 62
    3
 10
199.043
 20
62.466536363636379
 11
199.21299999999999
 21
62.69273636363637
  0
LINE
  8
_0-1_H0
  6
CONTINUOUS
 62
    3
 10
199.21299999999999
 20
62.69273636363637
 11
199.382
 21
62.919236363636372
  0
LINE
  8
_0-1_H0
  6
CONTINUOUS
 62
    3
 10
199.382
 20
62.919236363636372
 11
199.55199999999999
 21
63.146036363636369
  0
LINE
  8
_0-1_H0
  6
CONTINUOUS
 62
    3
 10
199.55199999999999
 20
63.146036363636369
 11
199.71999999999999
 21
63.373036363636373
  0
LINE
  8
_0-1_H0
  6
CONTINUOUS
 62
    3
 10
199.71999999999999
 20
63.373036363636373
 11
199.88900000000001
 21
63.600436363636362
  0
LINE
  8
_0-1_H0
  6
CONTINUOUS
 62
    3
 10
199.88900000000001
 20
63.600436363636362
 11
200.05600000000001
 21
63.828136363636374
  0
LINE
  8
_0-1_H0
  6
CONTINUOUS
 62
    3
 10
200.05600000000001
 20
63.828136363636374
 11
200.22399999999998
 21
64.056136363636369
  0
LINE
  8
_0-1_H0
  6
CONTINUOUS
 62
    3
 10
200.22399999999998
 20
64.056136363636369
 11
200.39099999999999
 21
64.28433636363637
  0
LINE
  8
_0-1_H0
  6
CONTINUOUS
 62
    3
 10
200.39099999999999
 20
64.28433636363637
 11
200.55799999999999
 21
64.51293636363637
  0
LINE
  8
_0-1_H0
  6
CONTINUOUS
 62
    3
 10
200.55799999999999
 20
64.51293636363637
 11
200.72399999999998
 21
64.741736363636377
  0
LINE
  8
_0-1_H0
  6
CONTINUOUS
 62
    3
 10
200.72399999999998
 20
64.741736363636377
 11
200.88999999999998
 21
64.970936363636369
  0
LINE
  8
_0-1_H0
  6
CONTINUOUS
 62
    3
 10
200.88999999999998
 20
64.970936363636369
 11
201.055
 21
65.200336363636367
  0
LINE
  8
_0-1_H0
  6
CONTINUOUS
 62
    3
 10
201.055
 20
65.200336363636367
 11
201.21999999999999
 21
65.430136363636364
  0
LINE
  8
_0-1_H0
  6
CONTINUOUS
 62
    3
 10
201.21999999999999
 20
65.430136363636364
 11
201.38499999999999
 21
65.660136363636368
  0
LINE
  8
_0-1_H0
  6
CONTINUOUS
 62
    3
 10
201.38499999999999
 20
65.660136363636368
 11
201.549
 21
65.890536363636371
  0
LINE
  8
_0-1_H0
  6
CONTINUOUS
 62
    3
 10
201.549
 20
65.890536363636371
 11
201.71299999999999
 21
66.121136363636367
  0
LINE
  8
_0-1_H0
  6
CONTINUOUS
 62
    3
 10
201.71299999999999
 20
66.121136363636367
 11
201.876
 21
66.352136363636375
  0
LINE
  8
_0-1_H0
  6
CONTINUOUS
 62
    3
 10
201.876
 20
66.352136363636375
 11
202.03899999999998
 21
66.583436363636366
  0
LINE
  8
_0-1_H0
  6
CONTINUOUS
 62
    3
 10
202.03899999999998
 20
66.583436363636366
 11
202.20099999999999
 21
66.814936363636377
  0
LINE
  8
_0-1_H0
  6
CONTINUOUS
 62
    3
 10
202.20099999999999
 20
66.814936363636377
 11
202.36299999999999
 21
67.046836363636373
  0
LINE
  8
_0-1_H0
  6
CONTINUOUS
 62
    3
 10
202.36299999999999
 20
67.046836363636373
 11
202.525
 21
67.278936363636375
  0
LINE
  8
_0-1_H0
  6
CONTINUOUS
 62
    3
 10
202.525
 20
67.278936363636375
 11
202.686
 21
67.511436363636377
  0
LINE
  8
_0-1_H0
  6
CONTINUOUS
 62
    3
 10
202.686
 20
67.511436363636377
 11
202.846
 21
67.744236363636375
  0
LINE
  8
_0-1_H0
  6
CONTINUOUS
 62
    3
 10
202.846
 20
67.744236363636375
 11
203.006
 21
67.977336363636368
  0
LINE
  8
_0-1_H0
  6
CONTINUOUS
 62
    3
 10
203.006
 20
67.977336363636368
 11
203.16599999999999
 21
68.210736363636371
  0
LINE
  8
_0-1_H0
  6
CONTINUOUS
 62
    3
 10
203.16599999999999
 20
68.210736363636371
 11
203.32499999999998
 21
68.44443636363637
  0
LINE
  8
_0-1_H0
  6
CONTINUOUS
 62
    3
 10
203.32499999999998
 20
68.44443636363637
 11
203.484
 21
68.678436363636365
  0
LINE
  8
_0-1_H0
  6
CONTINUOUS
 62
    3
 10
203.484
 20
68.678436363636365
 11
203.64199999999999
 21
68.912736363636369
  0
LINE
  8
_0-1_H0
  6
CONTINUOUS
 62
    3
 10
203.64199999999999
 20
68.912736363636369
 11
203.80000000000001
 21
69.147436363636373
  0
LINE
  8
_0-1_H0
  6
CONTINUOUS
 62
    3
 10
203.80000000000001
 20
69.147436363636373
 11
203.95699999999999
 21
69.382336363636369
  0
LINE
  8
_0-1_H0
  6
CONTINUOUS
 62
    3
 10
203.95699999999999
 20
69.382336363636369
 11
204.114
 21
69.617636363636364
  0
LINE
  8
_0-1_H0
  6
CONTINUOUS
 62
    3
 10
204.114
 20
69.617636363636364
 11
204.27000000000001
 21
69.853136363636366
  0
LINE
  8
_0-1_H0
  6
CONTINUOUS
 62
    3
 10
204.27000000000001
 20
69.853136363636366
 11
204.42599999999998
 21
70.089036363636367
  0
LINE
  8
_0-1_H0
  6
CONTINUOUS
 62
    3
 10
204.42599999999998
 20
70.089036363636367
 11
204.58099999999998
 21
70.325236363636378
  0
LINE
  8
_0-1_H0
  6
CONTINUOUS
 62
    3
 10
204.58099999999998
 20
70.325236363636378
 11
204.73599999999998
 21
70.56173636363637
  0
LINE
  8
_0-1_H0
  6
CONTINUOUS
 62
    3
 10
204.73599999999998
 20
70.56173636363637
 11
204.88999999999998
 21
70.798636363636376
  0
LINE
  8
_0-1_H0
  6
CONTINUOUS
 62
    3
 10
204.88999999999998
 20
70.798636363636376
 11
205.04400000000001
 21
71.035736363636374
  0
LINE
  8
_0-1_H0
  6
CONTINUOUS
 62
    3
 10
205.04400000000001
 20
71.035736363636374
 11
205.197
 21
71.273236363636371
  0
LINE
  8
_0-1_H0
  6
CONTINUOUS
 62
    3
 10
205.197
 20
71.273236363636371
 11
205.34999999999999
 21
71.510936363636375
  0
LINE
  8
_0-1_H0
  6
CONTINUOUS
 62
    3
 10
205.34999999999999
 20
71.510936363636375
 11
205.502
 21
71.749036363636378
  0
LINE
  8
_0-1_H0
  6
CONTINUOUS
 62
    3
 10
205.502
 20
71.749036363636378
 11
205.65399999999999
 21
71.987336363636373
  0
LINE
  8
_0-1_H0
  6
CONTINUOUS
 62
    3
 10
205.65399999999999
 20
71.987336363636373
 11
205.80600000000001
 21
72.226036363636367
  0
LINE
  8
_0-1_H0
  6
CONTINUOUS
 62
    3
 10
205.80600000000001
 20
72.226036363636367
 11
205.95699999999999
 21
72.464936363636368
  0
LINE
  8
_0-1_H0
  6
CONTINUOUS
 62
    3
 10
205.95699999999999
 20
72.464936363636368
 11
206.10699999999999
 21
72.704136363636365
  0
LINE
  8
_0-1_H0
  6
CONTINUOUS
 62
    3
 10
206.10699999999999
 20
72.704136363636365
 11
206.257
 21
72.943636363636372
  0
LINE
  8
_0-1_H0
  6
CONTINUOUS
 62
    3
 10
206.257
 20
72.943636363636372
 11
206.40700000000001
 21
73.183336363636371
  0
LINE
  8
_0-1_H0
  6
CONTINUOUS
 62
    3
 10
206.40700000000001
 20
73.183336363636371
 11
206.55600000000001
 21
73.423436363636369
  0
LINE
  8
_0-1_H0
  6
CONTINUOUS
 62
    3
 10
206.55600000000001
 20
73.423436363636369
 11
206.704
 21
73.663636363636371
  0
LINE
  8
_0-1_H0
  6
CONTINUOUS
 62
    3
 10
206.704
 20
73.663636363636371
 11
206.853
 21
73.904236363636371
  0
LINE
  8
_0-1_H0
  6
CONTINUOUS
 62
    3
 10
206.853
 20
73.904236363636371
 11
207.001
 21
74.145036363636364
  0
LINE
  8
_0-1_H0
  6
CONTINUOUS
 62
    3
 10
207.001
 20
74.145036363636364
 11
207.14799999999999
 21
74.386036363636378
  0
LINE
  8
_0-1_H0
  6
CONTINUOUS
 62
    3
 10
207.14799999999999
 20
74.386036363636378
 11
207.29499999999998
 21
74.627336363636374
  0
LINE
  8
_0-1_H0
  6
CONTINUOUS
 62
    3
 10
207.29499999999998
 20
74.627336363636374
 11
207.442
 21
74.868836363636376
  0
LINE
  8
_0-1_H0
  6
CONTINUOUS
 62
    3
 10
207.442
 20
74.868836363636376
 11
207.58799999999999
 21
75.110636363636373
  0
LINE
  8
_0-1_H0
  6
CONTINUOUS
 62
    3
 10
207.58799999999999
 20
75.110636363636373
 11
207.734
 21
75.352636363636378
  0
LINE
  8
_0-1_H0
  6
CONTINUOUS
 62
    3
 10
207.734
 20
75.352636363636378
 11
207.87999999999999
 21
75.594836363636375
  0
LINE
  8
_0-1_H0
  6
CONTINUOUS
 62
    3
 10
207.87999999999999
 20
75.594836363636375
 11
208.025
 21
75.837236363636378
  0
LINE
  8
_0-1_H0
  6
CONTINUOUS
 62
    3
 10
208.025
 20
75.837236363636378
 11
208.16999999999998
 21
76.079836363636374
  0
LINE
  8
_0-1_H0
  6
CONTINUOUS
 62
    3
 10
208.16999999999998
 20
76.079836363636374
 11
208.31499999999999
 21
76.322736363636366
  0
LINE
  8
_0-1_H0
  6
CONTINUOUS
 62
    3
 10
208.31499999999999
 20
76.322736363636366
 11
208.459
 21
76.565736363636375
  0
LINE
  8
_0-1_H0
  6
CONTINUOUS
 62
    3
 10
208.459
 20
76.565736363636375
 11
208.603
 21
76.809036363636366
  0
LINE
  8
_0-1_H0
  6
CONTINUOUS
 62
    3
 10
208.603
 20
76.809036363636366
 11
208.74700000000001
 21
77.052436363636374
  0
LINE
  8
_0-1_H0
  6
CONTINUOUS
 62
    3
 10
208.74700000000001
 20
77.052436363636374
 11
208.88999999999998
 21
77.296036363636375
  0
LINE
  8
_0-1_H0
  6
CONTINUOUS
 62
    3
 10
208.88999999999998
 20
77.296036363636375
 11
209.03299999999998
 21
77.539936363636371
  0
LINE
  8
_0-1_H0
  6
CONTINUOUS
 62
    3
 10
209.03299999999998
 20
77.539936363636371
 11
209.17599999999998
 21
77.783936363636371
  0
LINE
  8
_0-1_H0
  6
CONTINUOUS
 62
    3
 10
209.17599999999998
 20
77.783936363636371
 11
209.31800000000001
 21
78.028136363636377
  0
LINE
  8
_0-1_H0
  6
CONTINUOUS
 62
    3
 10
209.31800000000001
 20
78.028136363636377
 11
209.46100000000001
 21
78.272436363636373
  0
LINE
  8
_0-1_H0
  6
CONTINUOUS
 62
    3
 10
209.46100000000001
 20
78.272436363636373
 11
209.602
 21
78.516936363636375
  0
LINE
  8
_0-1_H0
  6
CONTINUOUS
 62
    3
 10
209.602
 20
78.516936363636375
 11
209.74399999999999
 21
78.76163636363637
  0
LINE
  8
_0-1_H0
  6
CONTINUOUS
 62
    3
 10
209.74399999999999
 20
78.76163636363637
 11
209.88599999999999
 21
79.006436363636368
  0
LINE
  8
_0-1_H0
  6
CONTINUOUS
 62
    3
 10
209.88599999999999
 20
79.006436363636368
 11
210.02699999999998
 21
79.251436363636372
  0
LINE
  8
_0-1_H0
  6
CONTINUOUS
 62
    3
 10
210.02699999999998
 20
79.251436363636372
 11
210.168
 21
79.496636363636369
  0
LINE
  8
_0-1_H0
  6
CONTINUOUS
 62
    3
 10
210.168
 20
79.496636363636369
 11
210.30799999999999
 21
79.741836363636366
  0
LINE
  8
_0-1_H0
  6
CONTINUOUS
 62
    3
 10
210.30799999999999
 20
79.741836363636366
 11
210.44900000000001
 21
79.98723636363637
  0
LINE
  8
_0-1_H0
  6
CONTINUOUS
 62
    3
 10
210.44900000000001
 20
79.98723636363637
 11
210.58899999999999
 21
80.232836363636366
  0
LINE
  8
_0-1_H0
  6
CONTINUOUS
 62
    3
 10
210.58899999999999
 20
80.232836363636366
 11
210.72900000000001
 21
80.478536363636365
  0
LINE
  8
_0-1_H0
  6
CONTINUOUS
 62
    3
 10
210.72900000000001
 20
80.478536363636365
 11
210.86899999999999
 21
80.724336363636368
  0
LINE
  8
_0-1_H0
  6
CONTINUOUS
 62
    3
 10
210.86899999999999
 20
80.724336363636368
 11
211.00899999999998
 21
80.970236363636374
  0
LINE
  8
_0-1_H0
  6
CONTINUOUS
 62
    3
 10
211.00899999999998
 20
80.970236363636374
 11
211.14799999999999
 21
81.216236363636369
  0
LINE
  8
_0-1_H0
  6
CONTINUOUS
 62
    3
 10
211.14799999999999
 20
81.216236363636369
 11
211.287
 21
81.462436363636371
  0
LINE
  8
_0-1_H0
  6
CONTINUOUS
 62
    3
 10
211.287
 20
81.462436363636371
 11
211.42699999999999
 21
81.708636363636372
  0
LINE
  8
_0-1_H0
  6
CONTINUOUS
 62
    3
 10
211.42699999999999
 20
81.708636363636372
 11
211.566
 21
81.955036363636367
  0
LINE
  8
_0-1_H0
  6
CONTINUOUS
 62
    3
 10
211.566
 20
81.955036363636367
 11
211.704
 21
82.201436363636375
  0
LINE
  8
_0-1_H0
  6
CONTINUOUS
 62
    3
 10
211.704
 20
82.201436363636375
 11
211.84299999999998
 21
82.447936363636372
  0
LINE
  8
_0-1_H0
  6
CONTINUOUS
 62
    3
 10
211.84299999999998
 20
82.447936363636372
 11
211.98199999999999
 21
82.694636363636377
  0
LINE
  8
_0-1_H0
  6
CONTINUOUS
 62
    3
 10
211.98199999999999
 20
82.694636363636377
 11
212.12
 21
82.941336363636366
  0
LINE
  8
_0-1_H0
  6
CONTINUOUS
 62
    3
 10
212.12
 20
82.941336363636366
 11
212.258
 21
83.188036363636371
  0
LINE
  8
_0-1_H0
  6
CONTINUOUS
 62
    3
 10
212.258
 20
83.188036363636371
 11
212.39699999999999
 21
83.434936363636367
  0
LINE
  8
_0-1_H0
  6
CONTINUOUS
 62
    3
 10
212.39699999999999
 20
83.434936363636367
 11
212.53499999999999
 21
83.681836363636378
  0
LINE
  8
_0-1_H0
  6
CONTINUOUS
 62
    3
 10
212.53499999999999
 20
83.681836363636378
 11
212.673
 21
83.928836363636378
  0
LINE
  8
_0-1_H0
  6
CONTINUOUS
 62
    3
 10
212.673
 20
83.928836363636378
 11
212.81
 21
84.175836363636378
  0
LINE
  8
_0-1_H0
  6
CONTINUOUS
 62
    3
 10
212.81
 20
84.175836363636378
 11
212.948
 21
84.422936363636367
  0
LINE
  8
_0-1_H0
  6
CONTINUOUS
 62
    3
 10
212.948
 20
84.422936363636367
 11
213.08600000000001
 21
84.67003636363637
  0
LINE
  8
_0-1_H0
  6
CONTINUOUS
 62
    3
 10
213.08600000000001
 20
84.67003636363637
 11
213.22399999999998
 21
84.917236363636376
  0
LINE
  8
_0-1_H0
  6
CONTINUOUS
 62
    3
 10
213.22399999999998
 20
84.917236363636376
 11
213.36099999999998
 21
85.164436363636369
  0
LINE
  8
_0-1_H0
  6
CONTINUOUS
 62
    3
 10
213.36099999999998
 20
85.164436363636369
 11
213.49899999999999
 21
85.411736363636364
  0
LINE
  8
_0-1_H0
  6
CONTINUOUS
 62
    3
 10
213.49899999999999
 20
85.411736363636364
 11
213.63599999999999
 21
85.658936363636371
  0
LINE
  8
_0-1_H0
  6
CONTINUOUS
 62
    3
 10
213.63599999999999
 20
85.658936363636371
 11
213.774
 21
85.906236363636367
  0
LINE
  8
_0-1_H0
  6
CONTINUOUS
 62
    3
 10
213.774
 20
85.906236363636367
 11
213.911
 21
86.153636363636366
  0
LINE
  8
_0-1_H0
  6
CONTINUOUS
 62
    3
 10
213.911
 20
86.153636363636366
 11
214.049
 21
86.400936363636375
  0
LINE
  8
_0-1_H0
  6
CONTINUOUS
 62
    3
 10
214.049
 20
86.400936363636375
 11
214.186
 21
86.648236363636371
  0
LINE
  8
_0-1_H0
  6
CONTINUOUS
 62
    3
 10
214.186
 20
86.648236363636371
 11
214.323
 21
86.89563636363637
  0
INSERT
  2
-071-_U66
  8
_0-0_0
 10
-2.5
 20
0.2411363636363716
 41
1
 42
1
 50
0
  0
INSERT
  2
-072-_U67
  8
_0-0_0
 10
-2.5
 20
0.2411363636363716
 41
1
 42
1
 50
0
  0
INSERT
  2
-073-_U68
  8
_0-0_0
 10
-2.5
 20
0.2411363636363716
 41
1
 42
1
 50
0
  0
LINE
  8
_0-1_H0
  6
CONTINUOUS
 62
    3
 10
265.712400724382
 20
63.781490850451689
 11
352.45512651253528
 21
63.781490850451689
  0
LINE
  8
_0-1_H0
  6
CONTINUOUS
 62
    3
 10
245.71240072438189
 20
71.781490850451675
 11
375.71240072438189
 21
71.781490850451675
  0
INSERT
  2
-074-_U69
  8
_0-0_0
 10
-2.5
 20
0.2411363636363716
 41
1
 42
1
 50
0
  0
INSERT
  2
-075-_U70
  8
_0-0_0
 10
-2.5
 20
0.2411363636363716
 41
1
 42
1
 50
0
  0
INSERT
  2
-076-_U71
  8
_0-0_0
 10
-2.5
 20
0.2411363636363716
 41
1
 42
1
 50
0
  0
INSERT
  2
-077-_U72
  8
_0-0_0
 10
-2.5
 20
0.2411363636363716
 41
1
 42
1
 50
0
  0
INSERT
  2
-078-_U73
  8
_0-0_0
 10
-2.5
 20
0.2411363636363716
 41
1
 42
1
 50
0
  0
INSERT
  2
-079-_U74
  8
_0-0_0
 10
-2.5
 20
0.2411363636363716
 41
1
 42
1
 50
0
  0
INSERT
  2
-080-_U75
  8
_0-0_0
 10
-2.5
 20
0.2411363636363716
 41
1
 42
1
 50
0
  0
INSERT
  2
-081-_U76
  8
_0-0_0
 10
-2.5
 20
0.2411363636363716
 41
1
 42
1
 50
0
  0
LINE
  8
_0-1_H0
  6
CONTINUOUS
 62
    3
 10
387.5
 20
34.241136363636371
 11
387.5
 21
44.241136363636371
  0
LINE
  8
_0-1_H0
  6
CONTINUOUS
 62
    3
 10
359.5
 20
34.241136363636371
 11
359.5
 21
44.241136363636371
  0
LINE
  8
_0-1_H0
  6
CONTINUOUS
 62
    3
 10
317.49999999999988
 20
10.241136363636371
 11
317.49999999999988
 21
44.241136363636371
  0
LINE
  8
_0-1_H0
  6
CONTINUOUS
 62
    3
 10
289.49999999999988
 20
44.241136363636371
 11
289.49999999999988
 21
34.241136363636371
  0
INSERT
  2
-082-_U77
  8
_0-0_0
 10
-2.5
 20
0.2411363636363716
 41
1
 42
1
 50
0
  0
INSERT
  2
-083-_U78
  8
_0-0_0
 10
-2.5
 20
0.2411363636363716
 41
1
 42
1
 50
0
  0
INSERT
  2
-084-_U79
  8
_0-0_0
 10
-2.5
 20
0.2411363636363716
 41
1
 42
1
 50
0
  0
LINE
  8
_0-1_H0
  6
CONTINUOUS
 62
    3
 10
247.5
 20
44.241136363636371
 11
407.49999999999977
 21
44.241136363636371
  0
INSERT
  2
-085-_U80
  8
_0-0_0
 10
-2.5
 20
0.2411363636363716
 41
1
 42
1
 50
0
  0
POINT
  8
_0-1_H0
 62
    7
 10
378.31361184111131
 20
93.729243137827765
  0
INSERT
  2
-086-_U81
  8
_0-0_0
 10
-2.5
 20
0.2411363636363716
 41
1
 42
1
 50
0
  0
LINE
  8
_0-1_H0
  6
HIDDEN
 62
    3
 10
354.86601933475958
 20
93.729243137827765
 11
378.31361184111131
 21
93.729243137827765
  0
INSERT
  2
-087-_U82
  8
_0-0_0
 10
-2.5
 20
0.2411363636363716
 41
1
 42
1
 50
0
  0
LINE
  8
_0-1_H0
  6
CONTINUOUS
 62
    3
 10
323.65133322857622
 20
87.729243137827197
 11
391.63552673837801
 21
87.729243137827197
  0
POINT
  8
_0-1_H0
 62
    7
 10
249.8944362675071
 20
93.729243137827708
  0
POINT
  8
_0-1_H0
 62
    7
 10
329.9497525795565
 20
93.729243137827708
  0
INSERT
  2
-088-_U83
  8
_0-0_0
 10
-2.5
 20
0.2411363636363716
 41
1
 42
1
 50
0
  0
INSERT
  2
-089-_U84
  8
_0-0_0
 10
-2.5
 20
0.2411363636363716
 41
1
 42
1
 50
0
  0
LINE
  8
_0-1_H0
  6
CONTINUOUS
 62
    3
 10
323.65133322857622
 20
107.72924313782766
 11
346.23327627539578
 21
107.72924313782766
  0
LINE
  8
_0-1_H0
  6
CONTINUOUS
 62
    3
 10
369.27183620688077
 20
107.72924313782766
 11
391.63552673837818
 21
107.72924313782766
  0
LINE
  8
_0-1_H0
  6
CONTINUOUS
 62
    3
 10
323.65133322857622
 20
107.72924313782766
 11
323.65133322857622
 21
87.729243137827197
  0
LINE
  8
_0-1_H0
  6
CONTINUOUS
 62
    3
 10
391.63552673837818
 20
107.72924313782766
 11
391.63552673837818
 21
87.729243137827197
  0
INSERT
  2
-090-_U85
  8
_0-0_0
 10
-2.5
 20
0.2411363636363716
 41
1
 42
1
 50
0
  0
LINE
  8
_0-1_H0
  6
HIDDEN
 62
    3
 10
371.9727512543497
 20
100.72924313782766
 11
378.31361184111131
 21
100.72924313782766
  0
INSERT
  2
-091-_U86
  8
_0-0_0
 10
-2.5
 20
0.2411363636363716
 41
1
 42
1
 50
0
  0
INSERT
  2
-092-_U87
  8
_0-0_0
 10
-2.5
 20
0.2411363636363716
 41
1
 42
1
 50
0
  0
LINE
  8
_0-1_H0
  6
CONTINUOUS
 62
    3
 10
295.93947501494568
 20
107.72924313782766
 11
318.30316554644292
 21
107.72924313782766
  0
LINE
  8
_0-1_H0
  6
CONTINUOUS
 62
    3
 10
318.30316554644292
 20
107.72924313782766
 11
318.30316554644292
 21
87.729243137827197
  0
LINE
  8
_0-1_H0
  6
CONTINUOUS
 62
    3
 10
246.15277651397329
 20
87.729243137827197
 11
318.30316554644298
 21
87.729243137827197
  0
LINE
  8
_0-1_H0
  6
CONTINUOUS
 62
    3
 10
246.15277651397329
 20
107.72924313782766
 11
246.15277651397329
 21
87.729243137827197
  0
LINE
  8
_0-1_H0
  6
CONTINUOUS
 62
    3
 10
246.15277651397329
 20
107.72924313782766
 11
268.73471956079299
 21
107.72924313782766
  0
INSERT
  2
-093-_U88
  8
_0-0_0
 10
-2.5
 20
0.2411363636363716
 41
1
 42
1
 50
0
  0
LINE
  8
_0-2_H1
  6
CONTINUOUS
 62
    3
 10
157.3232931747851
 20
91.695621341106814
 11
157.3232931747851
 21
34.6956213411068
  0
INSERT
  2
-094-_U89
  8
_0-0_0
 10
-2.5
 20
0.2411363636363716
 41
1
 42
1
 50
0
  0
INSERT
  2
-095-_U90
  8
_0-0_0
 10
-2.5
 20
0.2411363636363716
 41
1
 42
1
 50
0
  0
INSERT
  2
-096-_U91
  8
_0-0_0
 10
-2.5
 20
0.2411363636363716
 41
1
 42
1
 50
0
  0
LINE
  8
_0-2_H1
  6
CONTINUOUS
 62
    3
 10
165.57571623397339
 20
26.423448012782003
 11
172.8978921681176
 21
26.423448012782003
  0
LINE
  8
_0-2_H1
  6
CONTINUOUS
 62
    3
 10
172.89789216811789
 20
26.423448012782031
 11
170.0001146892506
 21
25.646990877474479
  0
LINE
  8
_0-2_H1
  6
CONTINUOUS
 62
    3
 10
172.8978921681176
 20
26.423448012782102
 11
170.0001146892504
 21
27.199905148089669
  0
LINE
  8
_0-2_H1
  6
CONTINUOUS
 62
    3
 10
146.53643831111219
 20
54.4725305111901
 11
146.53643831111219
 21
46.122259196551851
  0
LINE
  8
_0-2_H1
  6
CONTINUOUS
 62
    3
 10
146.5364383111123
 20
54.4725305111901
 11
147.31289544641978
 21
51.574753032322931
  0
LINE
  8
_0-2_H1
  6
CONTINUOUS
 62
    3
 10
146.5364383111123
 20
54.472530511190143
 11
145.75998117580471
 21
51.574753032322945
  0
INSERT
  2
-097-_U92
  8
_0-0_0
 10
-2.5
 20
0.2411363636363716
 41
1
 42
1
 50
0
  0
INSERT
  2
-098-_U93
  8
_0-0_0
 10
-2.5
 20
0.2411363636363716
 41
1
 42
1
 50
0
  0
INSERT
  2
-099-_U94
  8
_0-0_0
 10
-2.5
 20
0.2411363636363716
 41
1
 42
1
 50
0
  0
INSERT
  2
-100-_U95
  8
_0-0_0
 10
-2.5
 20
0.2411363636363716
 41
1
 42
1
 50
0
  0
INSERT
  2
-101-_U96
  8
_0-0_0
 10
-2.5
 20
0.2411363636363716
 41
1
 42
1
 50
0
  0
LINE
  8
_0-2_H1
  6
CONTINUOUS
 62
    3
 10
157.3232931747851
 20
34.6956213411068
 11
214.3232931747851
 21
34.6956213411068
  0
INSERT
  2
-102-_U97
  8
_0-0_0
 10
-2.5
 20
0.2411363636363716
 41
1
 42
1
 50
0
  0
INSERT
  2
-103-_U98
  8
_0-0_0
 10
-2.5
 20
0.2411363636363716
 41
1
 42
1
 50
0
  0
INSERT
  2
-104-_U99
  8
_0-0_0
 10
-2.5
 20
0.2411363636363716
 41
1
 42
1
 50
0
  0
INSERT
  2
-105-_U100
  8
_0-0_0
 10
-2.5
 20
0.2411363636363716
 41
1
 42
1
 50
0
  0
LINE
  8
_0-4_A0
  6
CENTER
 62
    3
 10
201.48691548602471
 20
188.25820738140927
 11
373.50661965006997
 21
188.25820738140927
  0
LINE
  8
_0-4_A0
  6
CENTER
 62
    3
 10
312.99526386068521
 20
268.47972257425806
 11
312.99526386040287
 21
133.45546951479386
  0
CIRCLE
  8
_0-4_A0
  6
CONTINUOUS
 62
    3
 10
312.99526386051741
 20
188.25820738142036
 40
24.66666666666666
  0
CIRCLE
  8
_0-4_A0
  6
CONTINUOUS
 62
    3
 10
312.99526386051741
 20
188.25820738142036
 40
24.93333333333333
  0
LINE
  8
_0-4_A0
  6
CONTINUOUS
 62
    3
 10
351.99526386060227
 20
228.85820738141666
 11
351.99526386043248
 21
147.65820738141675
  0
LINE
  8
_0-4_A0
  6
CONTINUOUS
 62
    3
 10
273.99526386060227
 20
228.85820738142396
 11
273.99526386043248
 21
147.65820738142397
  0
LINE
  8
_0-4_A0
  6
CONTINUOUS
 62
    3
 10
275.72859719393562
 20
230.59154071475367
 11
350.26193052726898
 21
230.59154071475367
  0
LINE
  8
_0-4_A0
  6
CONTINUOUS
 62
    3
 10
275.72859719376589
 20
145.92487404808707
 11
350.26193052709919
 21
145.92487404808707
  0
ARC
  8
_0-4_A0
  6
CONTINUOUS
 62
    3
 10
350.26193052726898
 20
228.85820738142038
 40
1.7333333333333329
 50
0
 51
90
  0
ARC
  8
_0-4_A0
  6
CONTINUOUS
 62
    3
 10
275.72859719393562
 20
228.85820738142038
 40
1.7333333333333329
 50
90
 51
180
  0
ARC
  8
_0-4_A0
  6
CONTINUOUS
 62
    3
 10
275.72859719376589
 20
147.65820738142036
 40
1.7333333333333329
 50
180
 51
270
  0
ARC
  8
_0-4_A0
  6
CONTINUOUS
 62
    3
 10
350.26193052709919
 20
147.65820738142036
 40
1.7333333333333329
 50
270
 51
0
  0
LINE
  8
_0-4_A0
  6
CENTER
 62
    3
 10
272.70438789602599
 20
164.92487404808707
 11
281.27991481112832
 21
164.92487404808707
  0
LINE
  8
_0-4_A0
  6
CENTER
 62
    3
 10
345.13693851563698
 20
164.92487404808707
 11
353.09991986604461
 21
164.92487404808707
  0
LINE
  8
_0-4_A0
  6
CENTER
 62
    3
 10
272.70438789602599
 20
214.92487404808707
 11
281.27991481112832
 21
214.92487404808707
  0
LINE
  8
_0-4_A0
  6
CENTER
 62
    3
 10
345.13693851563698
 20
214.92487404808707
 11
353.09991986604461
 21
214.92487404808707
  0
LINE
  8
_0-4_A0
  6
CENTER
 62
    3
 10
348.82859719381127
 20
169.35987611004438
 11
348.82859719379371
 21
160.93748704654026
  0
LINE
  8
_0-4_A0
  6
CENTER
 62
    3
 10
348.82859719391541
 20
219.12854459978217
 11
348.82859719389682
 21
210.24674782311936
  0
CIRCLE
  8
_0-4_A0
  6
CONTINUOUS
 62
    3
 10
332.99526386059932
 20
227.42487404808707
 40
0.6666666666666666
  0
CIRCLE
  8
_0-4_A0
  6
CONTINUOUS
 62
    3
 10
292.99526386059932
 20
227.42487404808707
 40
0.6666666666666666
  0
CIRCLE
  8
_0-4_A0
  6
CONTINUOUS
 62
    3
 10
348.82859719390671
 20
214.92487404808707
 40
0.6666666666666666
  0
CIRCLE
  8
_0-4_A0
  6
CONTINUOUS
 62
    3
 10
348.82859719380201
 20
164.92487404808707
 40
0.6666666666666666
  0
CIRCLE
  8
_0-4_A0
  6
CONTINUOUS
 62
    3
 10
277.16193052723991
 20
214.92487404808707
 40
0.6666666666666666
  0
CIRCLE
  8
_0-4_A0
  6
CONTINUOUS
 62
    3
 10
277.16193052713532
 20
164.92487404808707
 40
0.6666666666666666
  0
LINE
  8
_0-4_A0
  6
CENTER
 62
    3
 10
287.11618432915759
 20
227.42487404808707
 11
297.77228273274761
 21
227.42487404808707
  0
LINE
  8
_0-4_A0
  6
CENTER
 62
    3
 10
329.35998018689991
 20
227.42487404808707
 11
338.11317691399727
 21
227.42487404808707
  0
LINE
  8
_0-4_A0
  6
CONTINUOUS
 62
    3
 10
218.52623919390998
 20
230.59154071474267
 11
219.5929058605775
 21
230.59154071474267
  0
LINE
  8
_0-4_A0
  6
CONTINUOUS
 62
    3
 10
218.5262391940428
 20
145.92487404807596
 11
219.5929058607094
 21
145.92487404807596
  0
ARC
  8
_0-4_A0
  6
CONTINUOUS
 62
    3
 10
219.5929058607094
 20
146.19154071474255
 40
0.2666666666666667
 50
270
 51
0
  0
LINE
  8
_0-4_A0
  6
HIDDEN
 62
    3
 10
218.5262391940428
 20
146.19154071474255
 11
219.5929058607094
 21
146.19154071474255
  0
ARC
  8
_0-4_A0
  6
CONTINUOUS
 62
    3
 10
219.5929058605775
 20
230.32487404807596
 40
0.2666666666666667
 50
0
 51
90
  0
LINE
  8
_0-4_A0
  6
HIDDEN
 62
    3
 10
218.52623919390998
 20
230.32487404807596
 11
219.5929058605775
 21
230.32487404807596
  0
LINE
  8
_0-4_A0
  6
CENTER
 62
    3
 10
80.083649703222022
 20
242.48096694162506
 11
80.083649703447122
 21
27.112741173436404
  0
LINE
  8
_0-4_A0
  6
CONTINUOUS
 62
    3
 10
46.316983036594933
 20
116.32961574613665
 11
113.85031636989768
 21
116.32961574606177
  0
LINE
  8
_0-4_A0
  6
CONTINUOUS
 62
    3
 10
37.75031637009053
 20
50.729615746099213
 11
80.083649703421741
 21
50.729615746099213
  0
LINE
  8
_0-4_A0
  6
CONTINUOUS
 62
    3
 10
38.01698303675721
 20
49.396282412765856
 11
80.083649703423816
 21
49.396282412765856
  0
LINE
  8
_0-4_A0
  6
CONTINUOUS
 62
    3
 10
55.41698303698206
 20
39.39628241276587
 11
55.41698303698206
 21
47.729615746099213
  0
LINE
  8
_0-4_A0
  6
CONTINUOUS
 62
    3
 10
55.41698303698206
 20
39.39628241276587
 11
80.083649703423816
 21
39.39628241276587
  0
ARC
  8
_0-4_A0
  6
CONTINUOUS
 62
    3
 10
53.750316370315402
 20
47.729615746099213
 40
1.666666666666666
 50
0
 51
90
  0
LINE
  8
_0-4_A0
  6
CONTINUOUS
 62
    3
 10
104.750316369897
 20
39.396282412843262
 11
104.7503163698708
 21
47.729615746176563
  0
LINE
  8
_0-4_A0
  6
CONTINUOUS
 62
    3
 10
104.750316369897
 20
39.396282412843262
 11
80.08364970345525
 21
39.396282412765899
  0
ARC
  8
_0-4_A0
  6
CONTINUOUS
 62
    3
 10
106.4169830365375
 20
47.729615746181778
 40
1.666666666666666
 50
90.000000000179738
 51
180.00000000017959
  0
LINE
  8
_0-4_A0
  6
CONTINUOUS
 62
    3
 10
122.4169830367572
 20
50.729615746231985
 11
80.083649703421713
 21
50.729615746099227
  0
LINE
  8
_0-4_A0
  6
CONTINUOUS
 62
    3
 10
122.1503163700914
 20
49.396282412897818
 11
80.083649703423873
 21
49.396282412765913
  0
LINE
  8
_0-4_A0
  6
CONTINUOUS
 62
    3
 10
122.4169830367572
 20
50.729615746231985
 11
122.4169830367572
 21
49.662949079564484
  0
LINE
  8
_0-4_A0
  6
CONTINUOUS
 62
    3
 10
37.75031637009053
 20
50.729615746099227
 11
37.75031637009053
 21
49.662949079432507
  0
ARC
  8
_0-4_A0
  6
CONTINUOUS
 62
    3
 10
38.01698303675721
 20
49.662949079432507
 40
0.2666666666666667
 50
180
 51
270
  0
ARC
  8
_0-4_A0
  6
CONTINUOUS
 62
    3
 10
122.15031637009059
 20
49.662949079564484
 40
0.2666666666666667
 50
270
 51
0
  0
LINE
  8
_0-4_A0
  6
CENTER
 62
    3
 10
60.08364970335063
 20
119.43399312048275
 11
60.083649703358332
 21
112.09634345121915
  0
LINE
  8
_0-4_A0
  6
CENTER
 62
    3
 10
100.0836497033506
 20
119.43399312052457
 11
100.0836497033583
 21
112.09634345126096
  0
LINE
  8
_0-4_A0
  6
CONTINUOUS
 62
    3
 10
46.750316370079758
 20
59.662949079432507
 11
113.4169830367464
 21
59.662949079432507
  0
LINE
  8
_0-4_A0
  6
CONTINUOUS
 62
    3
 10
46.750316370079758
 20
59.662949079432536
 11
46.750316370089109
 21
50.729615746099227
  0
LINE
  8
_0-4_A0
  6
CONTINUOUS
 62
    3
 10
113.4169830367464
 20
59.662949079432507
 11
113.41698303675579
 21
50.729615746203791
  0
LINE
  8
_0-4_A0
  6
CONTINUOUS
 62
    3
 10
47.016983036746694
 20
59.396282412765856
 11
47.016983036755789
 21
50.729615746099511
  0
LINE
  8
_0-4_A0
  6
CONTINUOUS
 62
    3
 10
47.016983036746694
 20
59.396282412765856
 11
113.15031637008
 21
59.396282412765856
  0
LINE
  8
_0-4_A0
  6
CONTINUOUS
 62
    3
 10
113.15031637008
 20
59.396282412765856
 11
113.1503163700891
 21
50.729615746203506
  0
LINE
  8
_0-4_A0
  6
CENTER
 62
    3
 10
41.743683936831615
 20
54.662949079432507
 11
51.00286237008288
 21
54.662949079432507
  0
LINE
  8
_0-4_A0
  6
CENTER
 62
    3
 10
118.7271164203656
 20
54.66294907955374
 11
108.9388427253925
 21
54.662949079523059
  0
LINE
  8
_0-4_A0
  6
CONTINUOUS
 62
    3
 10
50.316983036593882
 20
112.32961574613217
 11
50.316983036580126
 21
59.662949079432507
  0
LINE
  8
_0-4_A0
  6
CONTINUOUS
 62
    3
 10
50.316983036593882
 20
112.32961574613217
 11
109.8503163698936
 21
112.32961574606615
  0
LINE
  8
_0-4_A0
  6
CONTINUOUS
 62
    3
 10
109.8503163698936
 20
112.32961574606615
 11
109.85031636983849
 21
59.662949079432507
  0
LINE
  8
_0-4_A0
  6
CONTINUOUS
 62
    3
 10
109.8503163698936
 20
112.32961574606615
 11
113.85031636989768
 21
116.32961574606177
  0
LINE
  8
_0-4_A0
  6
CONTINUOUS
 62
    3
 10
50.316983036593882
 20
112.32961574613217
 11
46.316983036594933
 21
116.32961574613655
  0
LINE
  8
_0-4_A0
  6
CONTINUOUS
 62
    3
 10
50.316983036580154
 20
59.662949079435094
 11
72.752169150231964
 21
72.615909821461883
  0
LINE
  8
_0-4_A0
  6
CONTINUOUS
 62
    3
 10
50.316983036580666
 20
61.587449976733793
 11
71.872357629808306
 21
74.032451300607903
  0
LINE
  8
_0-4_A0
  6
CONTINUOUS
 62
    3
 10
50.316983036580865
 20
63.511950874032294
 11
70.899007176810187
 21
75.394988051852422
  0
LINE
  8
_0-4_A0
  6
CONTINUOUS
 62
    3
 10
50.316983036580865
 20
63.511950874032294
 11
70.899007176810187
 21
75.394988051852422
  0
LINE
  8
_0-4_A0
  6
CONTINUOUS
 62
    3
 10
50.31698303658166
 20
65.436451771331135
 11
69.83033298505984
 21
76.702489616868234
  0
LINE
  8
_0-4_A0
  6
CONTINUOUS
 62
    3
 10
50.316983036582087
 20
67.360952668629806
 11
68.663230940459584
 21
77.953163834545378
  0
LINE
  8
_0-4_A0
  6
CONTINUOUS
 62
    3
 10
50.31698303658257
 20
69.285453565928492
 11
67.393062016861165
 21
79.144332361888473
  0
LINE
  8
_0-4_A0
  6
CONTINUOUS
 62
    3
 10
50.316983036583621
 20
73.134455360525919
 11
64.514981227159978
 21
81.331673437803033
  0
LINE
  8
_0-4_A0
  6
CONTINUOUS
 62
    3
 10
50.316983036583167
 20
71.209954463227276
 11
66.013300968865848
 21
80.272227846710052
  0
LINE
  8
_0-4_A0
  6
CONTINUOUS
 62
    3
 10
50.316983036584133
 20
75.058956257824604
 11
62.885810712948114
 21
82.315572300166081
  0
LINE
  8
_0-4_A0
  6
CONTINUOUS
 62
    3
 10
53.65031636991074
 20
59.662949079432451
 11
73.539024296474281
 21
71.145699954659392
  0
LINE
  8
_0-4_A0
  6
CONTINUOUS
 62
    3
 10
50.316983036580154
 20
59.662949079435051
 11
72.752169150231935
 21
72.615909821461855
  0
LINE
  8
_0-4_A0
  6
CONTINUOUS
 62
    3
 10
56.983649703246044
 20
59.662949079432536
 11
74.232340510142194
 21
69.6214853599554
  0
LINE
  8
_0-4_A0
  6
CONTINUOUS
 62
    3
 10
60.316983036581234
 20
59.662949079432593
 11
74.830332985057907
 21
68.04223557902273
  0
LINE
  8
_0-4_A0
  6
CONTINUOUS
 62
    3
 10
63.650316369916254
 20
59.662949079432451
 11
75.329897607123655
 21
66.406158450751348
  0
LINE
  8
_0-4_A0
  6
CONTINUOUS
 62
    3
 10
66.983649703251444
 20
59.662949079432507
 11
75.726395350191239
 21
64.710575632145932
  0
LINE
  8
_0-4_A0
  6
CONTINUOUS
 62
    3
 10
73.650316369922052
 20
59.662949079432706
 11
76.18164789382223
 21
61.124414016163598
  0
LINE
  8
_0-4_A0
  6
CONTINUOUS
 62
    3
 10
70.316983036586634
 20
59.662949079432507
 11
76.013300968862012
 21
62.951719771018986
  0
LINE
  8
_0-4_A0
  6
CONTINUOUS
 62
    3
 10
50.316983036585611
 20
80.832458949720674
 11
57.001317682792176
 21
84.691661357058777
  0
LINE
  8
_0-4_A0
  6
CONTINUOUS
 62
    3
 10
50.316983036585156
 20
78.907958052422003
 11
59.159337247589803
 21
84.013093636411852
  0
LINE
  8
_0-4_A0
  6
CONTINUOUS
 62
    3
 10
50.316983036584588
 20
76.983457155123275
 11
61.108718218192677
 21
83.214068367243328
  0
LINE
  8
_0-4_A0
  6
CONTINUOUS
 62
    3
 10
50.316983036586123
 20
82.756959847019388
 11
54.576631557991589
 21
85.216269067504256
  0
LINE
  8
_0-4_A0
  6
CONTINUOUS
 62
    3
 10
50.316983036586719
 20
84.681460744318087
 11
51.7821960653512
 21
85.527401880894785
  0
LINE
  8
_0-4_A0
  6
CONTINUOUS
 62
    3
 10
53.650316369796769
 20
59.662949079432578
 11
50.316983036580836
 21
61.587449976661076
  0
LINE
  8
_0-4_A0
  6
CONTINUOUS
 62
    3
 10
56.983649703133607
 20
59.662949079432479
 11
50.316983036581092
 21
63.511950873959165
  0
LINE
  8
_0-4_A0
  6
CONTINUOUS
 62
    3
 10
60.316983036469878
 20
59.662949079432507
 11
50.31698303658166
 21
65.436451771256884
  0
LINE
  8
_0-4_A0
  6
CONTINUOUS
 62
    3
 10
63.650316369806489
 20
59.662949079432507
 11
50.316983036582143
 21
67.360952668554745
  0
LINE
  8
_0-4_A0
  6
CONTINUOUS
 62
    3
 10
66.983649703142873
 20
59.662949079432507
 11
50.316983036582655
 21
69.285453565852563
  0
LINE
  8
_0-4_A0
  6
CONTINUOUS
 62
    3
 10
70.316983036479513
 20
59.662949079432507
 11
50.31698303658328
 21
71.209954463150424
  0
LINE
  8
_0-4_A0
  6
CONTINUOUS
 62
    3
 10
73.650316369816039
 20
59.662949079432507
 11
50.316983036583621
 21
73.134455360448328
  0
LINE
  8
_0-4_A0
  6
CONTINUOUS
 62
    3
 10
76.219144046277477
 20
60.104336626225801
 11
50.316983036584247
 21
75.058956257746132
  0
LINE
  8
_0-4_A0
  6
CONTINUOUS
 62
    3
 10
76.108718218193303
 20
62.092591905093712
 11
50.316983036584815
 21
76.983457155043936
  0
LINE
  8
_0-4_A0
  6
CONTINUOUS
 62
    3
 10
75.826003914262628
 20
64.180317981869791
 11
50.316983036585185
 21
78.907958052341882
  0
LINE
  8
_0-4_A0
  6
CONTINUOUS
 62
    3
 10
75.334651016138934
 20
66.388501607166347
 11
50.316983036585696
 21
80.832458949639686
  0
LINE
  8
_0-4_A0
  6
CONTINUOUS
 62
    3
 10
74.576631558015094
 20
68.750645242662727
 11
50.316983036586179
 21
82.756959846937562
  0
LINE
  8
_0-4_A0
  6
CONTINUOUS
 62
    3
 10
73.448862732056454
 20
71.326263775210975
 11
50.316983036586805
 21
84.68146074423538
  0
LINE
  8
_0-4_A0
  6
CONTINUOUS
 62
    3
 10
71.7306616875467
 20
74.242768508077332
 11
52.236637718864585
 21
85.497648493970586
  0
LINE
  8
_0-4_A0
  6
CONTINUOUS
 62
    3
 10
68.698103334264487
 20
77.918117786974065
 11
56.935862738811948
 21
84.709050561023076
  0
INSERT
  2
-003-_D13
  8
_0-4_A0
 10
-2.5
 20
0.2411363636363716
 41
1
 42
1
 50
0
  0
INSERT
  2
-005-_D14
  8
_0-4_A0
 10
-2.5
 20
0.2411363636363716
 41
1
 42
1
 50
0
  0
INSERT
  2
-007-_D15
  8
_0-4_A0
 10
-2.5
 20
0.2411363636363716
 41
1
 42
1
 50
0
  0
INSERT
  2
-009-_D16
  8
_0-4_A0
 10
-2.5
 20
0.2411363636363716
 41
1
 42
1
 50
0
  0
INSERT
  2
-011-_D17
  8
_0-4_A0
 10
-2.5
 20
0.2411363636363716
 41
1
 42
1
 50
0
  0
INSERT
  2
-013-_D18
  8
_0-4_A0
 10
-2.5
 20
0.2411363636363716
 41
1
 42
1
 50
0
  0
INSERT
  2
-015-_D19
  8
_0-4_A0
 10
-2.5
 20
0.2411363636363716
 41
1
 42
1
 50
0
  0
INSERT
  2
-017-_D20
  8
_0-4_A0
 10
-2.5
 20
0.2411363636363716
 41
1
 42
1
 50
0
  0
INSERT
  2
-106-_U109
  8
_0-0_0
 10
-2.5
 20
0.2411363636363716
 41
1
 42
1
 50
0
  0
LINE
  8
_0-4_A0
  6
CENTER
 62
    3
 10
332.99526386061108
 20
233.06376780460007
 11
332.99526386059039
 21
223.11003527497948
  0
LINE
  8
_0-4_A0
  6
CENTER
 62
    3
 10
292.99526386061108
 20
233.06376780468377
 11
292.99526386059028
 21
223.11003527506306
  0
LINE
  8
_0-4_A0
  6
CONTINUOUS
 62
    3
 10
119.0836497033636
 20
228.85820738141677
 11
119.08364970319378
 21
147.65820738141675
  0
LINE
  8
_0-4_A0
  6
CONTINUOUS
 62
    3
 10
41.08364970336359
 20
228.85820738142408
 11
41.083649703193799
 21
147.65820738142406
  0
LINE
  8
_0-4_A0
  6
CONTINUOUS
 62
    3
 10
42.816983036696882
 20
230.59154071475376
 11
117.35031637003018
 21
230.59154071475376
  0
LINE
  8
_0-4_A0
  6
CONTINUOUS
 62
    3
 10
42.816983036527147
 20
145.92487404808707
 11
117.35031636986049
 21
145.92487404808707
  0
ARC
  8
_0-4_A0
  6
CONTINUOUS
 62
    3
 10
117.35031637003018
 20
228.85820738142038
 40
1.7333333333333329
 50
0
 51
90
  0
ARC
  8
_0-4_A0
  6
CONTINUOUS
 62
    3
 10
42.816983036696882
 20
228.85820738142038
 40
1.7333333333333329
 50
90
 51
180
  0
ARC
  8
_0-4_A0
  6
CONTINUOUS
 62
    3
 10
42.816983036527147
 20
147.65820738142048
 40
1.7333333333333329
 50
180
 51
270
  0
ARC
  8
_0-4_A0
  6
CONTINUOUS
 62
    3
 10
117.35031636986049
 20
147.65820738142048
 40
1.7333333333333329
 50
270
 51
0
  0
LINE
  8
_0-4_A0
  6
CENTER
 62
    3
 10
44.250316370009898
 20
219.12854459993198
 11
44.250316369888253
 21
160.93748704669027
  0
LINE
  8
_0-4_A0
  6
CENTER
 62
    3
 10
39.792773738787218
 20
164.92487404808707
 11
48.368300653889662
 21
164.92487404808707
  0
LINE
  8
_0-4_A0
  6
CENTER
 62
    3
 10
112.22532435839819
 20
164.92487404808707
 11
120.18830570880588
 21
164.92487404808707
  0
LINE
  8
_0-4_A0
  6
CENTER
 62
    3
 10
39.792773738787218
 20
214.92487404808707
 11
48.368300653889662
 21
214.92487404808707
  0
LINE
  8
_0-4_A0
  6
CENTER
 62
    3
 10
112.22532435839819
 20
214.92487404808707
 11
120.18830570880588
 21
214.92487404808707
  0
LINE
  8
_0-4_A0
  6
CENTER
 62
    3
 10
115.9169830365726
 20
169.35987611004446
 11
115.91698303655499
 21
160.93748704654026
  0
LINE
  8
_0-4_A0
  6
CENTER
 62
    3
 10
115.91698303667658
 20
219.12854459978217
 11
115.9169830365726
 21
169.35987611004446
  0
CIRCLE
  8
_0-4_A0
  6
CONTINUOUS
 62
    3
 10
100.0836497033606
 20
227.42487404808707
 40
0.6666666666666666
  0
CIRCLE
  8
_0-4_A0
  6
CONTINUOUS
 62
    3
 10
60.083649703360549
 20
227.42487404808707
 40
0.6666666666666666
  0
CIRCLE
  8
_0-4_A0
  6
CONTINUOUS
 62
    3
 10
115.9169830366678
 20
214.92487404808707
 40
0.6666666666666666
  0
CIRCLE
  8
_0-4_A0
  6
CONTINUOUS
 62
    3
 10
115.91698303656329
 20
164.92487404808707
 40
0.6666666666666666
  0
CIRCLE
  8
_0-4_A0
  6
CONTINUOUS
 62
    3
 10
44.250316370001144
 20
214.92487404808707
 40
0.6666666666666666
  0
CIRCLE
  8
_0-4_A0
  6
CONTINUOUS
 62
    3
 10
44.25031636989658
 20
164.92487404808707
 40
0.6666666666666666
  0
LINE
  8
_0-4_A0
  6
CENTER
 62
    3
 10
54.204570171918902
 20
227.42487404808707
 11
64.860668575508924
 21
227.42487404808707
  0
LINE
  8
_0-4_A0
  6
CENTER
 62
    3
 10
96.448366029661144
 20
227.42487404808707
 11
105.2015627567587
 21
227.42487404808707
  0
LINE
  8
_0-4_A0
  6
CENTER
 62
    3
 10
100.08364970321318
 20
156.92824063916057
 11
100.08364970319759
 21
149.43982819471986
  0
LINE
  8
_0-4_A0
  6
CENTER
 62
    3
 10
100.0836497033724
 20
233.06376780460016
 11
100.08364970335159
 21
223.11003527497948
  0
LINE
  8
_0-4_A0
  6
CENTER
 62
    3
 10
60.083649703213211
 20
156.92824063924396
 11
60.083649703197579
 21
149.43982819480336
  0
LINE
  8
_0-4_A0
  6
CENTER
 62
    3
 10
60.083649703372401
 20
233.06376780468377
 11
60.083649703351568
 21
223.11003527506318
  0
INSERT
  2
-018-_D21
  8
_0-4_A0
 10
-2.5
 20
0.2411363636363716
 41
1
 42
1
 50
0
  0
INSERT
  2
-020-_D22
  8
_0-4_A0
 10
-2.5
 20
0.2411363636363716
 41
1
 42
1
 50
0
  0
LINE
  8
_0-4_A0
  6
DASHED
 62
    3
 10
346.32859719393877
 20
230.32487404808708
 11
346.32859719377501
 21
151.99154071475368
  0
LINE
  8
_0-4_A0
  6
DASHED
 62
    3
 10
279.66193052727197
 20
230.32487404808708
 11
279.66193052710832
 21
151.99154071475368
  0
LINE
  8
_0-4_A0
  6
DASHED
 62
    3
 10
351.32859719393729
 20
229.65820738142036
 11
351.32859719376432
 21
146.85820738142038
  0
LINE
  8
_0-4_A0
  6
DASHED
 62
    3
 10
274.66193052727061
 20
229.65820738142036
 11
274.66193052709752
 21
146.85820738142038
  0
LINE
  8
_0-4_A0
  6
DASHED
 62
    3
 10
275.32859719393871
 20
230.32487404808708
 11
350.66193052727197
 21
230.32487404808708
  0
LINE
  8
_0-4_A0
  6
DASHED
 62
    3
 10
274.66193052727072
 20
229.65820738142036
 11
275.32859719393871
 21
230.32487404808708
  0
LINE
  8
_0-4_A0
  6
DASHED
 62
    3
 10
350.66193052727192
 20
230.32487404808708
 11
351.32859719393729
 21
229.65820738142036
  0
LINE
  8
_0-4_A0
  6
DASHED
 62
    3
 10
275.32859719376278
 20
146.19154071475378
 11
350.6619305270961
 21
146.19154071475378
  0
LINE
  8
_0-4_A0
  6
CONTINUOUS
 62
    3
 10
350.6619305270961
 20
146.19154071475378
 11
351.32859719376421
 21
146.85820738142047
  0
LINE
  8
_0-4_A0
  6
CONTINUOUS
 62
    3
 10
274.66193052709752
 20
146.85820738142038
 11
275.32859719376278
 21
146.19154071475367
  0
INSERT
  2
-107-_U112
  8
_0-0_0
 10
-2.5
 20
0.2411363636363716
 41
1
 42
1
 50
0
  0
LINE
  8
_0-4_A0
  6
CONTINUOUS
 62
    3
 10
152.92623919407159
 20
179.04259154900017
 11
152.92623919414521
 21
155.59154071434215
  0
LINE
  8
_0-4_A0
  6
CENTER
 62
    3
 10
215.12623919404279
 20
149.52917413024906
 11
215.12623919404279
 21
156.10589370101496
  0
LINE
  8
_0-4_A0
  6
CONTINUOUS
 62
    3
 10
180.2004371161374
 20
214.48586983042167
 11
219.59290586059441
 21
224.92487404776346
  0
LINE
  8
_0-4_A0
  6
CONTINUOUS
 62
    3
 10
152.5262391940428
 20
150.59154071434215
 11
152.5262391940428
 21
155.59154071434215
  0
ARC
  8
_0-4_A0
  6
CONTINUOUS
 62
    3
 10
189.59290586073831
 20
179.04259154911505
 40
36.666666666666657
 50
104.84222705799359
 51
180
  0
LINE
  8
_0-4_A0
  6
CONTINUOUS
 62
    3
 10
210.65957252725149
 20
148.25820738100875
 11
210.65957252725149
 21
150.59154071434215
  0
LINE
  8
_0-4_A0
  6
CONTINUOUS
 62
    3
 10
210.9262391939182
 20
150.32487404767547
 11
219.32623919403638
 21
150.32487404767547
  0
LINE
  8
_0-4_A0
  6
CONTINUOUS
 62
    3
 10
210.9262391939182
 20
148.25820738100875
 11
210.9262391939182
 21
150.32487404767547
  0
LINE
  8
_0-4_A0
  6
CONTINUOUS
 62
    3
 10
219.32623919403638
 20
150.32487404767547
 11
219.32623919404281
 21
148.25820738100875
  0
LINE
  8
_0-4_A0
  6
CONTINUOUS
 62
    3
 10
210.65957252725149
 20
148.25820738100875
 11
210.9262391939182
 21
148.25820738100875
  0
LINE
  8
_0-4_A0
  6
CONTINUOUS
 62
    3
 10
219.32623919404281
 20
148.25820738100875
 11
219.5929058607094
 21
148.25820738100875
  0
LINE
  8
_0-4_A0
  6
CENTER
 62
    3
 10
212.73478696715818
 20
153.25820738100875
 11
217.7248902458092
 21
153.25820738100875
  0
INSERT
  2
-022-_D23
  8
_0-4_A0
 10
-2.5
 20
0.2411363636363716
 41
1
 42
1
 50
0
  0
INSERT
  2
-023-_D24
  8
_0-4_A0
 10
-2.5
 20
0.2411363636363716
 41
1
 42
1
 50
0
  0
INSERT
  2
-025-_D25
  8
_0-4_A0
 10
-2.5
 20
0.2411363636363716
 41
1
 42
1
 50
0
  0
INSERT
  2
-026-_D26
  8
_0-4_A0
 10
-2.5
 20
0.2411363636363716
 41
1
 42
1
 50
0
  0
INSERT
  2
-028-_D27
  8
_0-4_A0
 10
-2.5
 20
0.2411363636363716
 41
1
 42
1
 50
0
  0
LINE
  8
_0-4_A0
  6
CONTINUOUS
 62
    3
 10
42.816983036696882
 20
230.32487404808708
 11
117.75031636990138
 21
230.32487404808708
  0
ARC
  8
_0-4_A0
  6
CONTINUOUS
 62
    3
 10
42.816983036527147
 20
147.65820738142048
 40
1.4666666666666658
 50
180
 51
270
  0
LINE
  8
_0-4_A0
  6
CONTINUOUS
 62
    3
 10
42.816983036527147
 20
146.19154071475378
 11
117.35031636986049
 21
146.19154071475378
  0
ARC
  8
_0-4_A0
  6
CONTINUOUS
 62
    3
 10
117.35031636986049
 20
147.65820738142048
 40
1.4666666666666658
 50
270
 51
0
  0
INSERT
  2
-030-_D28
  8
_0-4_A0
 10
-2.5
 20
0.2411363636363716
 41
1
 42
1
 50
0
  0
INSERT
  2
-032-_D29
  8
_0-4_A0
 10
-2.5
 20
0.2411363636363716
 41
1
 42
1
 50
0
  0
LINE
  8
_0-4_A0
  6
CONTINUOUS
 62
    3
 10
47.75031636998716
 20
148.25820738100875
 11
112.4169830366538
 21
148.25820738100875
  0
LINE
  8
_0-4_A0
  6
CONTINUOUS
 62
    3
 10
46.750316369986137
 20
149.25820738100887
 11
47.750316369987217
 21
148.25820738100887
  0
LINE
  8
_0-4_A0
  6
CONTINUOUS
 62
    3
 10
113.41698303665279
 20
149.25820738100875
 11
112.4169830366539
 21
148.25820738100875
  0
LINE
  8
_0-4_A0
  6
CONTINUOUS
 62
    3
 10
113.4169830366514
 20
150.59154071434215
 11
113.41698303665279
 21
149.25820738100875
  0
LINE
  8
_0-4_A0
  6
CONTINUOUS
 62
    3
 10
113.41698303656798
 20
230.32487404808708
 11
113.4169830366462
 21
155.59154071434215
  0
LINE
  8
_0-4_A0
  6
CONTINUOUS
 62
    3
 10
46.750316369984716
 20
150.59154071434215
 11
46.750316369986109
 21
149.25820738100875
  0
LINE
  8
_0-4_A0
  6
CONTINUOUS
 62
    3
 10
46.750316369901383
 20
230.32487404808708
 11
46.750316369979486
 21
155.59154071434215
  0
LINE
  8
_0-4_A0
  6
CONTINUOUS
 62
    3
 10
113.8503163698292
 20
50.729615746205112
 11
113.85031636989768
 21
116.32961574606177
  0
LINE
  8
_0-4_A0
  6
CONTINUOUS
 62
    3
 10
113.85031636993359
 20
150.59154071434215
 11
113.85031636993879
 21
155.59154071434207
  0
LINE
  8
_0-4_A0
  6
CONTINUOUS
 62
    3
 10
46.316983036577795
 20
50.729615746099213
 11
46.316983036594933
 21
116.32961574613665
  0
LINE
  8
_0-4_A0
  6
CONTINUOUS
 62
    3
 10
46.316983036603886
 20
150.59154071434215
 11
46.316983036605194
 21
155.59154071434215
  0
LINE
  8
_0-4_A0
  6
CONTINUOUS
 62
    3
 10
46.316983036605222
 20
155.59154071434215
 11
113.85031636993879
 21
155.59154071434215
  0
LINE
  8
_0-4_A0
  6
CONTINUOUS
 62
    3
 10
152.5262391940428
 20
155.59154071434215
 11
219.5929058607094
 21
155.59154071434215
  0
LINE
  8
_0-4_A0
  6
CONTINUOUS
 62
    3
 10
46.316983036603858
 20
150.59154071434215
 11
113.85031636993359
 21
150.59154071434215
  0
LINE
  8
_0-4_A0
  6
CONTINUOUS
 62
    3
 10
152.5262391940428
 20
150.59154071434215
 11
219.5929058607094
 21
150.59154071434215
  0
LINE
  8
_0-4_A0
  6
CENTER
 62
    3
 10
148.8320735227229
 20
153.25820738100875
 11
156.75820579026751
 21
153.25820738100875
  0
LINE
  8
_0-4_A0
  6
CENTER
 62
    3
 10
44.250316369888253
 20
153.25820738100875
 11
48.368300653889662
 21
153.25820738100875
  0
LINE
  8
_0-4_A0
  6
CENTER
 62
    3
 10
112.22532435839819
 20
153.25820738100875
 11
115.91698303655499
 21
153.25820738100875
  0
LINE
  8
_0-4_A0
  6
CENTER
 62
    3
 10
57.303142019769182
 20
153.25820738100875
 11
63.21800669337847
 21
153.25820738100875
  0
LINE
  8
_0-4_A0
  6
CENTER
 62
    3
 10
97.029850153249356
 20
153.25820738100875
 11
103.6509684561356
 21
153.25820738100875
  0
LINE
  8
_0-4_A0
  6
CONTINUOUS
 62
    3
 10
46.750316369907039
 20
224.92487404808707
 11
113.41698303657369
 21
224.92487404808707
  0
LINE
  8
_0-4_A0
  6
DASHED
 62
    3
 10
279.66193052726072
 20
224.92487404808707
 11
346.32859719392752
 21
224.92487404808707
  0
LINE
  8
_0-4_A0
  6
CONTINUOUS
 62
    3
 10
42.416983036649924
 20
151.99154071475368
 11
45.924497069308785
 21
151.99154071475368
  0
LINE
  8
_0-4_A0
  6
CONTINUOUS
 62
    3
 10
114.2428023372322
 20
151.99154071475368
 11
117.75031636998329
 21
151.99154071475368
  0
LINE
  8
_0-4_A0
  6
DASHED
 62
    3
 10
274.66193052710821
 20
151.99154071475368
 11
351.32859719377501
 21
151.99154071475368
  0
LINE
  8
_0-4_A0
  6
CONTINUOUS
 62
    3
 10
118.41698303656879
 20
229.65820738142048
 11
118.41698303664918
 21
152.65820738142036
  0
LINE
  8
_0-4_A0
  6
CONTINUOUS
 62
    3
 10
41.750316369902066
 20
229.65820738142048
 11
41.750316369982556
 21
152.65820738142036
  0
LINE
  8
_0-4_A0
  6
CONTINUOUS
 62
    3
 10
41.35031637003027
 20
228.85820738142356
 11
41.350316369860479
 21
147.65820738142346
  0
ARC
  8
_0-4_A0
  6
CONTINUOUS
 62
    3
 10
42.816983036696882
 20
228.85820738142038
 40
1.4666666666666658
 50
90
 51
180
  0
ARC
  8
_0-4_A0
  6
CONTINUOUS
 62
    3
 10
117.35031637003018
 20
228.85820738142038
 40
1.4666666666666658
 50
0
 51
90
  0
LINE
  8
_0-4_A0
  6
CONTINUOUS
 62
    3
 10
41.750316369902066
 20
229.65820738142036
 11
42.416983036568012
 21
230.32487404808708
  0
LINE
  8
_0-4_A0
  6
CONTINUOUS
 62
    3
 10
117.75031636990138
 20
230.32487404808716
 11
118.41698303656879
 21
229.65820738142048
  0
LINE
  8
_0-4_A0
  6
CONTINUOUS
 62
    3
 10
118.81698303669689
 20
228.85820738141737
 11
118.8169830365271
 21
147.65820738141738
  0
LINE
  8
_0-4_A0
  6
CONTINUOUS
 62
    3
 10
118.41698303664918
 20
152.65820738142028
 11
117.75031636998319
 21
151.99154071475368
  0
LINE
  8
_0-4_A0
  6
CONTINUOUS
 62
    3
 10
41.750316369982556
 20
152.65820738142036
 11
42.416983036649924
 21
151.99154071475376
  0
INSERT
  2
-034-_D30
  8
_0-4_A0
 10
-2.5
 20
0.2411363636363716
 41
1
 42
1
 50
0
  0
INSERT
  2
-036-_D31
  8
_0-4_A0
 10
-2.5
 20
0.2411363636363716
 41
1
 42
1
 50
0
  0
INSERT
  2
-038-_D32
  8
_0-4_A0
 10
-2.5
 20
0.2411363636363716
 41
1
 42
1
 50
0
  0
INSERT
  2
-040-_D33
  8
_0-4_A0
 10
-2.5
 20
0.2411363636363716
 41
1
 42
1
 50
0
  0
LINE
  8
_0-4_A0
  6
CONTINUOUS
 62
    3
 10
100.0836497032554
 20
210.53240530293606
 11
100.08364970328919
 21
178.25820738101407
  0
LINE
  8
_0-4_A0
  6
CONTINUOUS
 62
    3
 10
90.083649703255403
 20
210.53240530292558
 11
90.083649703289168
 21
178.25820738100355
  0
LINE
  8
_0-4_A0
  6
CONTINUOUS
 62
    3
 10
70.083649703255389
 20
210.53240530289176
 11
70.083649703289125
 21
178.25820738101407
  0
LINE
  8
_0-4_A0
  6
CONTINUOUS
 62
    3
 10
60.083649703255389
 20
210.53240530288115
 11
60.083649703289154
 21
178.25820738100355
  0
ARC
  8
_0-4_A0
  6
CONTINUOUS
 62
    3
 10
95.083649703255403
 20
210.53240530293086
 40
5
 50
0
 51
90
  0
ARC
  8
_0-4_A0
  6
CONTINUOUS
 62
    3
 10
95.083649703255403
 20
210.53240530293078
 40
5
 50
90
 51
180
  0
ARC
  8
_0-4_A0
  6
CONTINUOUS
 62
    3
 10
95.083649703289168
 20
178.25820738100887
 40
5
 50
270
 51
0
  0
ARC
  8
_0-4_A0
  6
CONTINUOUS
 62
    3
 10
95.083649703289125
 20
178.25820738100875
 40
5
 50
180
 51
270
  0
ARC
  8
_0-4_A0
  6
CONTINUOUS
 62
    3
 10
65.083649703289154
 20
178.25820738100887
 40
5
 50
270
 51
0
  0
ARC
  8
_0-4_A0
  6
CONTINUOUS
 62
    3
 10
65.083649703289154
 20
178.25820738100887
 40
5
 50
180
 51
270
  0
ARC
  8
_0-4_A0
  6
CONTINUOUS
 62
    3
 10
65.083649703255389
 20
210.53240530288647
 40
5
 50
90
 51
180
  0
ARC
  8
_0-4_A0
  6
CONTINUOUS
 62
    3
 10
65.083649703255389
 20
210.53240530288655
 40
5
 50
0
 51
90
  0
LINE
  8
_0-4_A0
  6
CENTER
 62
    3
 10
277.1619305271455
 20
169.85388988649896
 11
277.16193052712702
 21
160.93748704669016
  0
LINE
  8
_0-4_A0
  6
CENTER
 62
    3
 10
277.16193052724872
 20
219.12854459993198
 11
277.16193052723207
 21
211.21154116585998
  0
INSERT
  2
-108-_U124
  8
_0-0_0
 10
-2.5
 20
0.2411363636363716
 41
1
 42
1
 50
0
  0
INSERT
  2
-109-_U125
  8
_0-0_0
 10
-2.5
 20
0.2411363636363716
 41
1
 42
1
 50
0
  0
LINE
  8
_0-4_A0
  6
CONTINUOUS
 62
    3
 10
218.5262391940428
 20
145.92487404807596
 11
218.5262391940428
 21
146.19154071474255
  0
LINE
  8
_0-4_A0
  6
CONTINUOUS
 62
    3
 10
219.85957252737608
 20
146.19154071474255
 11
219.85957252737608
 21
214.59154071451757
  0
LINE
  8
_0-4_A0
  6
HIDDEN
 62
    3
 10
219.5929058607094
 20
146.19154071474255
 11
219.5929058607094
 21
188.25820738140888
  0
LINE
  8
_0-4_A0
  6
HIDDEN
 62
    3
 10
229.8595725273762
 20
163.85820738136277
 11
221.52623919403978
 21
163.85820738134967
  0
LINE
  8
_0-4_A0
  6
CONTINUOUS
 62
    3
 10
229.85957252737608
 20
163.59154071496746
 11
221.5262391940428
 21
163.59154071496746
  0
LINE
  8
_0-4_A0
  6
CONTINUOUS
 62
    3
 10
229.85957252737608
 20
163.59154071496746
 11
229.85957252737608
 21
188.25820738140916
  0
ARC
  8
_0-4_A0
  6
CONTINUOUS
 62
    3
 10
221.5262391940428
 20
161.92487404830077
 40
1.666666666666666
 50
90
 51
180
  0
ARC
  8
_0-4_A0
  6
HIDDEN
 62
    3
 10
221.5262391940428
 20
161.92487404801647
 40
1.9333333333333329
 50
90
 51
180
  0
LINE
  8
_0-4_A0
  6
HIDDEN
 62
    3
 10
229.8595725272996
 20
212.65820738148696
 11
221.52623919396319
 21
212.65820738147385
  0
LINE
  8
_0-4_A0
  6
CONTINUOUS
 62
    3
 10
229.8595725272988
 20
212.92487404788238
 11
221.5262391939654
 21
212.92487404785617
  0
LINE
  8
_0-4_A0
  6
CONTINUOUS
 62
    3
 10
229.8595725272988
 20
212.92487404788238
 11
229.85957252737608
 21
188.25820738144068
  0
ARC
  8
_0-4_A0
  6
CONTINUOUS
 62
    3
 10
221.5262391939602
 20
214.59154071452277
 40
1.666666666666666
 50
180.00000000017962
 51
270.00000000017962
  0
ARC
  8
_0-4_A0
  6
HIDDEN
 62
    3
 10
221.5262391939602
 20
214.59154071480728
 40
1.9333333333333329
 50
180.00000000017962
 51
270.00000000017962
  0
LINE
  8
_0-4_A0
  6
CONTINUOUS
 62
    3
 10
218.52623919390998
 20
230.59154071474267
 11
218.52623919417439
 21
146.03205815716987
  0
LINE
  8
_0-4_A0
  6
CONTINUOUS
 62
    3
 10
219.85957252724421
 20
230.32487404807687
 11
219.85957252729349
 21
214.59154071451766
  0
LINE
  8
_0-4_A0
  6
HIDDEN
 62
    3
 10
219.5929058605775
 20
230.32487404807596
 11
219.5929058607094
 21
188.25820738140888
  0
LINE
  8
_0-4_A0
  6
CONTINUOUS
 62
    3
 10
46.216983036578824
 20
56.229615746099185
 11
46.316983036578818
 21
56.229615746099185
  0
LINE
  8
_0-4_A0
  6
CONTINUOUS
 62
    3
 10
46.316983036578818
 20
53.096282412765859
 11
46.216983036578824
 21
53.096282412765859
  0
LINE
  8
_0-4_A0
  6
CONTINUOUS
 62
    3
 10
46.216983036578824
 20
56.229615746099185
 11
46.216983036578824
 21
53.096282412765859
  0
LINE
  8
_0-4_A0
  6
CONTINUOUS
 62
    3
 10
46.316983036578818
 20
56.229615746099199
 11
46.316983036578818
 21
53.096282412765859
  0
ARC
  8
_0-4_A0
  6
CONTINUOUS
 62
    3
 10
47.523801218397039
 20
54.662949079432507
 40
2.040151515151515
 50
129.8328119876146
 51
230.16718801237826
  0
LINE
  8
_0-4_A0
  6
CONTINUOUS
 62
    3
 10
113.9503163698333
 20
53.096282412871772
 11
113.85031636983329
 21
53.096282412871772
  0
LINE
  8
_0-4_A0
  6
CONTINUOUS
 62
    3
 10
113.85031636983329
 20
56.229615746205112
 11
113.9503163698333
 21
56.229615746205112
  0
LINE
  8
_0-4_A0
  6
CONTINUOUS
 62
    3
 10
113.9503163698333
 20
53.096282412871772
 11
113.9503163698333
 21
56.229615746205112
  0
LINE
  8
_0-4_A0
  6
CONTINUOUS
 62
    3
 10
113.85031636983329
 20
53.096282412871772
 11
113.85031636983329
 21
56.229615746205112
  0
ARC
  8
_0-4_A0
  6
CONTINUOUS
 62
    3
 10
112.6434981880151
 20
54.662949079538435
 40
2.040151515151515
 50
309.8328119876146
 51
50.167188012378282
  0
LINE
  8
_0-4_A0
  6
CONTINUOUS
 62
    3
 10
61.650316370020561
 20
116.42961574612137
 11
61.650316370020561
 21
116.32961574612137
  0
LINE
  8
_0-4_A0
  6
CONTINUOUS
 62
    3
 10
58.516983036687236
 20
116.32961574612137
 11
58.516983036687236
 21
116.42961574612137
  0
LINE
  8
_0-4_A0
  6
CONTINUOUS
 62
    3
 10
61.650316370020561
 20
116.42961574612137
 11
58.516983036687236
 21
116.42961574612137
  0
LINE
  8
_0-4_A0
  6
CONTINUOUS
 62
    3
 10
61.650316370020561
 20
116.32961574612137
 11
58.516983036687236
 21
116.32961574612137
  0
ARC
  8
_0-4_A0
  6
CONTINUOUS
 62
    3
 10
60.083649703353898
 20
115.12279756430315
 40
2.040151515151515
 50
39.832811987614562
 51
140.16718801237826
  0
LINE
  8
_0-4_A0
  6
CONTINUOUS
 62
    3
 10
101.6503163700205
 20
116.42961574607707
 11
101.6503163700205
 21
116.32961574607705
  0
LINE
  8
_0-4_A0
  6
CONTINUOUS
 62
    3
 10
98.516983036687193
 20
116.32961574607705
 11
98.516983036687193
 21
116.42961574607707
  0
LINE
  8
_0-4_A0
  6
CONTINUOUS
 62
    3
 10
101.6503163700205
 20
116.42961574607707
 11
98.516983036687193
 21
116.42961574607707
  0
LINE
  8
_0-4_A0
  6
CONTINUOUS
 62
    3
 10
101.6503163700205
 20
116.32961574607705
 11
98.516983036687193
 21
116.32961574607705
  0
ARC
  8
_0-4_A0
  6
CONTINUOUS
 62
    3
 10
100.08364970335388
 20
115.12279756425887
 40
2.040151515151515
 50
39.832811987614562
 51
140.16718801237826
  0
CIRCLE
  8
_0-4_A0
  6
CONTINUOUS
 62
    3
 10
215.12623919404279
 20
153.25820738100875
 40
1.5666666666666659
  0
LINE
  8
_0-4_A0
  6
CONTINUOUS
 62
    3
 10
215.82623919404281
 20
153.45820738100877
 11
215.82623919404281
 21
153.05820738100888
  0
LINE
  8
_0-4_A0
  6
CONTINUOUS
 62
    3
 10
214.4262391940428
 20
153.45820738100886
 11
214.4262391940428
 21
153.05820738100888
  0
LINE
  8
_0-4_A0
  6
CONTINUOUS
 62
    3
 10
214.92623919404289
 20
153.95820738100886
 11
215.32623919404281
 21
153.95820738100886
  0
LINE
  8
_0-4_A0
  6
CONTINUOUS
 62
    3
 10
214.9262391940428
 20
152.55820738100877
 11
215.32623919404281
 21
152.55820738100877
  0
LINE
  8
_0-4_A0
  6
CONTINUOUS
 62
    3
 10
215.32623919404281
 20
152.72487404767548
 11
215.32623919404281
 21
152.55820738100877
  0
LINE
  8
_0-4_A0
  6
CONTINUOUS
 62
    3
 10
215.32623919404281
 20
153.95820738100886
 11
215.32623919404281
 21
153.79154071434217
  0
LINE
  8
_0-4_A0
  6
CONTINUOUS
 62
    3
 10
214.4262391940428
 20
153.45820738100886
 11
214.5929058607094
 21
153.45820738100886
  0
LINE
  8
_0-4_A0
  6
CONTINUOUS
 62
    3
 10
215.65957252737609
 20
153.45820738100886
 11
215.82623919404281
 21
153.45820738100886
  0
LINE
  8
_0-4_A0
  6
CONTINUOUS
 62
    3
 10
214.4262391940428
 20
153.05820738100877
 11
214.5929058607094
 21
153.05820738100877
  0
LINE
  8
_0-4_A0
  6
CONTINUOUS
 62
    3
 10
215.65957252737609
 20
153.05820738100877
 11
215.82623919404281
 21
153.05820738100877
  0
LINE
  8
_0-4_A0
  6
CONTINUOUS
 62
    3
 10
214.9262391940428
 20
152.72487404767548
 11
214.9262391940428
 21
152.55820738100877
  0
LINE
  8
_0-4_A0
  6
CONTINUOUS
 62
    3
 10
214.9262391940428
 20
153.95820738100886
 11
214.9262391940428
 21
153.79154071434217
  0
ARC
  8
_0-4_A0
  6
CONTINUOUS
 62
    3
 10
215.65957252737609
 20
153.79154071434217
 40
0.3333333333333333
 50
179.99999999999639
 51
269.99999999999482
  0
ARC
  8
_0-4_A0
  6
CONTINUOUS
 62
    3
 10
215.65957252737609
 20
152.72487404767548
 40
0.3333333333333333
 50
89.999999999425526
 51
179.99999999999639
  0
ARC
  8
_0-4_A0
  6
CONTINUOUS
 62
    3
 10
214.5929058607094
 20
152.72487404767548
 40
0.3333333333333333
 50
0
 51
89.999999999425526
  0
ARC
  8
_0-4_A0
  6
CONTINUOUS
 62
    3
 10
214.5929058607094
 20
153.79154071434217
 40
0.3333333333333333
 50
269.99999999999488
 51
359.99999999999329
  0
LINE
  8
_0-4_A0
  6
CONTINUOUS
 62
    3
 10
152.4262391940428
 20
154.82487404767547
 11
152.5262391940428
 21
154.82487404767547
  0
LINE
  8
_0-4_A0
  6
CONTINUOUS
 62
    3
 10
152.5262391940428
 20
151.69154071434218
 11
152.4262391940428
 21
151.69154071434218
  0
LINE
  8
_0-4_A0
  6
CONTINUOUS
 62
    3
 10
152.4262391940428
 20
154.82487404767547
 11
152.4262391940428
 21
151.69154071434218
  0
LINE
  8
_0-4_A0
  6
CONTINUOUS
 62
    3
 10
152.5262391940428
 20
154.82487404767547
 11
152.5262391940428
 21
151.69154071434218
  0
ARC
  8
_0-4_A0
  6
CONTINUOUS
 62
    3
 10
153.73305737586099
 20
153.25820738100875
 40
2.040151515151515
 50
129.8328119876146
 51
230.16718801237826
  0
CIRCLE
  8
_0-4_A0
  6
CONTINUOUS
 62
    3
 10
100.08364970320559
 20
153.25820738100875
 40
1.5666666666666659
  0
LINE
  8
_0-4_A0
  6
CONTINUOUS
 62
    3
 10
100.78364970320558
 20
153.45820738100877
 11
100.78364970320558
 21
153.05820738100888
  0
LINE
  8
_0-4_A0
  6
CONTINUOUS
 62
    3
 10
99.383649703205605
 20
153.45820738100886
 11
99.383649703205605
 21
153.05820738100888
  0
LINE
  8
_0-4_A0
  6
CONTINUOUS
 62
    3
 10
99.883649703205605
 20
153.95820738100886
 11
100.28364970320558
 21
153.95820738100886
  0
LINE
  8
_0-4_A0
  6
CONTINUOUS
 62
    3
 10
99.883649703205605
 20
152.55820738100877
 11
100.28364970320558
 21
152.55820738100877
  0
LINE
  8
_0-4_A0
  6
CONTINUOUS
 62
    3
 10
100.28364970320558
 20
152.72487404767548
 11
100.28364970320558
 21
152.55820738100877
  0
LINE
  8
_0-4_A0
  6
CONTINUOUS
 62
    3
 10
100.28364970320558
 20
153.95820738100886
 11
100.28364970320558
 21
153.79154071434217
  0
LINE
  8
_0-4_A0
  6
CONTINUOUS
 62
    3
 10
99.383649703205605
 20
153.45820738100886
 11
99.550316369872206
 21
153.45820738100886
  0
LINE
  8
_0-4_A0
  6
CONTINUOUS
 62
    3
 10
100.61698303653888
 20
153.45820738100886
 11
100.78364970320558
 21
153.45820738100886
  0
LINE
  8
_0-4_A0
  6
CONTINUOUS
 62
    3
 10
99.383649703205605
 20
153.05820738100877
 11
99.550316369872206
 21
153.05820738100877
  0
LINE
  8
_0-4_A0
  6
CONTINUOUS
 62
    3
 10
100.61698303653888
 20
153.05820738100877
 11
100.78364970320558
 21
153.05820738100877
  0
LINE
  8
_0-4_A0
  6
CONTINUOUS
 62
    3
 10
99.883649703205605
 20
152.72487404767548
 11
99.883649703205605
 21
152.55820738100877
  0
LINE
  8
_0-4_A0
  6
CONTINUOUS
 62
    3
 10
99.883649703205605
 20
153.95820738100886
 11
99.883649703205605
 21
153.79154071434217
  0
ARC
  8
_0-4_A0
  6
CONTINUOUS
 62
    3
 10
100.61698303653888
 20
153.79154071434217
 40
0.3333333333333333
 50
179.99999999999639
 51
269.99999999999482
  0
ARC
  8
_0-4_A0
  6
CONTINUOUS
 62
    3
 10
100.61698303653888
 20
152.72487404767548
 40
0.3333333333333333
 50
89.999999999425526
 51
179.99999999999639
  0
ARC
  8
_0-4_A0
  6
CONTINUOUS
 62
    3
 10
99.550316369872206
 20
152.72487404767548
 40
0.3333333333333333
 50
0
 51
89.999999999425526
  0
ARC
  8
_0-4_A0
  6
CONTINUOUS
 62
    3
 10
99.550316369872206
 20
153.79154071434217
 40
0.3333333333333333
 50
269.99999999999488
 51
359.99999999999329
  0
CIRCLE
  8
_0-4_A0
  6
CONTINUOUS
 62
    3
 10
60.083649703205537
 20
153.25820738100875
 40
1.5666666666666659
  0
LINE
  8
_0-4_A0
  6
CONTINUOUS
 62
    3
 10
60.783649703205554
 20
153.45820738100877
 11
60.783649703205554
 21
153.05820738100888
  0
LINE
  8
_0-4_A0
  6
CONTINUOUS
 62
    3
 10
59.383649703205549
 20
153.45820738100886
 11
59.383649703205549
 21
153.05820738100888
  0
LINE
  8
_0-4_A0
  6
CONTINUOUS
 62
    3
 10
59.883649703205577
 20
153.95820738100886
 11
60.283649703205583
 21
153.95820738100886
  0
LINE
  8
_0-4_A0
  6
CONTINUOUS
 62
    3
 10
59.883649703205577
 20
152.55820738100877
 11
60.283649703205583
 21
152.55820738100877
  0
LINE
  8
_0-4_A0
  6
CONTINUOUS
 62
    3
 10
60.283649703205583
 20
152.72487404767548
 11
60.283649703205583
 21
152.55820738100877
  0
LINE
  8
_0-4_A0
  6
CONTINUOUS
 62
    3
 10
60.283649703205583
 20
153.95820738100886
 11
60.283649703205583
 21
153.79154071434217
  0
LINE
  8
_0-4_A0
  6
CONTINUOUS
 62
    3
 10
59.383649703205549
 20
153.45820738100886
 11
59.550316369872234
 21
153.45820738100886
  0
LINE
  8
_0-4_A0
  6
CONTINUOUS
 62
    3
 10
60.616983036538897
 20
153.45820738100886
 11
60.783649703205554
 21
153.45820738100886
  0
LINE
  8
_0-4_A0
  6
CONTINUOUS
 62
    3
 10
59.383649703205549
 20
153.05820738100877
 11
59.550316369872234
 21
153.05820738100877
  0
LINE
  8
_0-4_A0
  6
CONTINUOUS
 62
    3
 10
60.616983036538897
 20
153.05820738100877
 11
60.783649703205554
 21
153.05820738100877
  0
LINE
  8
_0-4_A0
  6
CONTINUOUS
 62
    3
 10
59.883649703205577
 20
152.72487404767548
 11
59.883649703205577
 21
152.55820738100877
  0
LINE
  8
_0-4_A0
  6
CONTINUOUS
 62
    3
 10
59.883649703205577
 20
153.95820738100886
 11
59.883649703205577
 21
153.79154071434217
  0
ARC
  8
_0-4_A0
  6
CONTINUOUS
 62
    3
 10
60.616983036538897
 20
153.79154071434217
 40
0.3333333333333333
 50
179.99999999999639
 51
269.99999999999482
  0
ARC
  8
_0-4_A0
  6
CONTINUOUS
 62
    3
 10
60.616983036538897
 20
152.72487404767548
 40
0.3333333333333333
 50
89.999999999425526
 51
179.99999999999639
  0
ARC
  8
_0-4_A0
  6
CONTINUOUS
 62
    3
 10
59.550316369872234
 20
152.72487404767548
 40
0.3333333333333333
 50
0
 51
89.999999999425526
  0
ARC
  8
_0-4_A0
  6
CONTINUOUS
 62
    3
 10
59.550316369872234
 20
153.79154071434217
 40
0.3333333333333333
 50
269.99999999999488
 51
359.99999999999329
  0
LINE
  8
_0-4_A0
  6
CONTINUOUS
 62
    3
 10
46.216983036604574
 20
154.82487404767547
 11
46.316983036604597
 21
154.82487404767547
  0
LINE
  8
_0-4_A0
  6
CONTINUOUS
 62
    3
 10
46.316983036604597
 20
151.69154071434218
 11
46.216983036604602
 21
151.69154071434218
  0
LINE
  8
_0-4_A0
  6
CONTINUOUS
 62
    3
 10
46.216983036604574
 20
154.82487404767547
 11
46.216983036604574
 21
151.69154071434218
  0
LINE
  8
_0-4_A0
  6
CONTINUOUS
 62
    3
 10
46.316983036604597
 20
154.82487404767547
 11
46.316983036604597
 21
151.69154071434218
  0
ARC
  8
_0-4_A0
  6
CONTINUOUS
 62
    3
 10
47.523801218422789
 20
153.25820738100875
 40
2.040151515151515
 50
129.8328119876146
 51
230.16718801237826
  0
LINE
  8
_0-4_A0
  6
CONTINUOUS
 62
    3
 10
113.9503163699364
 20
151.69154071434218
 11
113.85031636993639
 21
151.69154071434218
  0
LINE
  8
_0-4_A0
  6
CONTINUOUS
 62
    3
 10
113.85031636993639
 20
154.82487404767547
 11
113.9503163699364
 21
154.82487404767547
  0
LINE
  8
_0-4_A0
  6
CONTINUOUS
 62
    3
 10
113.9503163699364
 20
151.69154071434218
 11
113.9503163699364
 21
154.82487404767547
  0
LINE
  8
_0-4_A0
  6
CONTINUOUS
 62
    3
 10
113.85031636993639
 20
151.69154071434218
 11
113.85031636993639
 21
154.82487404767547
  0
ARC
  8
_0-4_A0
  6
CONTINUOUS
 62
    3
 10
112.6434981881182
 20
153.25820738100875
 40
2.040151515151515
 50
309.8328119876146
 51
50.167188012378282
  0
ENDSEC
  0
EOF
