  0
SECTION
  2
HEADER
  9
$ACADVER
  1
AC1009
  9
$INSBASE
 10
0
 20
0
 30
0
  9
$EXTMIN
 10
0
 20
0
  9
$EXTMAX
 10
420
 20
297
  9
$LIMMIN
 10
0
 20
0
  9
$LIMMAX
 10
420
 20
297
  9
$LTSCALE
 40
1
  0
ENDSEC
  0
SECTION
  2
TABLES
  0
TABLE
  2
LTYPE
 70
     9
  0
LTYPE
  2
CONTINUOUS
 70
    64
  3
実線
 72
    65
 73
     0
 40
0.0
  0
LTYPE
  2
DASHED1
 70
    64
  3
--  --  --  --  --  --  --  --  
 72
    65
 73
     2
 40
2.5
 49
1.25
 49
-1.25
  0
LTYPE
  2
DASHED2
 70
    64
  3
----    ----    ----    ----    
 72
    65
 73
     2
 40
5.0
 49
2.5
 49
-2.5
  0
LTYPE
  2
DASHED3
 70
    64
  3
------  ------  ------  ------  
 72
    65
 73
     2
 40
5.0
 49
3.75
 49
-1.25
  0
LTYPE
  2
CENTER1
 70
    64
  3
----- - ----- - ----- - ----- - 
 72
    65
 73
     4
 40
10.0
 49
6.25
 49
-1.25
 49
1.25
 49
-1.25
  0
LTYPE
  2
CENTER2
 70
    64
  3
----------  --  ----------  --  
 72
    65
 73
     4
 40
20.0
 49
12.5
 49
-2.5
 49
2.5
 49
-2.5
  0
LTYPE
  2
PHANTOM1
 70
    64
  3
--- - - --- - - --- - - --- - - 
 72
    65
 73
     6
 40
10.0
 49
3.25
 49
-1.25
 49
1.25
 49
-1.25
 49
1.25
 49
-1.25
  0
LTYPE
  2
PHANTOM2
 70
    64
  3
--------  -  -  --------  -  -  
 72
    65
 73
     6
 40
20.0
 49
10.0
 49
-2.5
 49
1.25
 49
-2.5
 49
1.25
 49
-2.5
  0
LTYPE
  2
DOT
 70
    64
  3
-   -   -   -   -   -   -   -   
 72
    65
 73
     2
 40
2.5
 49
0.625
 49
-1.875
  0
LTYPE
  2
DUMMY
 70
    64
  3
ダミー
 72
    65
 73
     0
 40
0.0
  0
LTYPE
  2
RAND1
 70
    64
  3
ランダム線1
 72
    65
 73
     4
 40
10.0
 49
1.0
 49
-2.0
 49
3.0
 49
-4.0
  0
LTYPE
  2
RAND2
 70
    64
  3
ランダム線2
 72
    65
 73
     4
 40
14.0
 49
2.0
 49
-3.0
 49
4.0
 49
-5.0
  0
LTYPE
  2
RAND3
 70
    64
  3
ランダム線3
 72
    65
 73
     4
 40
18.0
 49
3.0
 49
-4.0
 49
5.0
 49
-6.0
  0
LTYPE
  2
RAND4
 70
    64
  3
ランダム線4
 72
    65
 73
     4
 40
22.0
 49
4.0
 49
-5.0
 49
6.0
 49
-7.0
  0
LTYPE
  2
RAND5
 70
    64
  3
ランダム線5
 72
    65
 73
     4
 40
26.0
 49
5.0
 49
-6.0
 49
7.0
 49
-8.0
  0
LTYPE
  2
LONG1
 70
    64
  3
----------  --  ----------  --  
 72
    65
 73
     4
 40
40.0
 49
32.5
 49
-2.5
 49
2.5
 49
-2.5
  0
LTYPE
  2
LONG2
 70
    64
  3
--------  -  -  --------  -  -  
 72
    65
 73
     6
 40
40.0
 49
30.0
 49
-2.5
 49
1.25
 49
-2.5
 49
1.25
 49
-2.5
  0
LTYPE
  2
LONG3
 70
    64
  3
+++++++++++++++..+++++++++++++++
 72
    65
 73
     2
 40
40.0
 49
37.5
 49
-2.5
  0
LTYPE
  2
LONG4
 70
    64
  3
+++++++++++++++..+++++++++++++++
 72
    65
 73
     2
 40
80.0
 49
75.0
 49
-5.0
  0
LTYPE
  2
LONG5
 70
    64
  3
----------  --  ----------  --  
 72
    65
 73
     4
 40
60.0
 49
37.5
 49
-7.5
 49
7.5
 49
-7.5
  0
LTYPE
  2
dashed
 70
   64
  3
-------   -------------   ------
 72
   65
 73
    2
 40
7.5
 49
6
 49
-1.5
  0
LTYPE
  2
dashed_spaced
 70
   64
  3
----        --------        ----
 72
   65
 73
    2
 40
12
 49
6
 49
-6
  0
LTYPE
  2
long_dashed_dotted
 70
   64
  3
------------- --- --------------
 72
   65
 73
    4
 40
15.25
 49
12
 49
-1.5
 49
0.25
 49
-1.5
  0
LTYPE
  2
long_dashed_double-dotted
 70
   64
  3
----------- --- --- ------------
 72
   65
 73
    6
 40
17
 49
12
 49
-1.5
 49
0.25
 49
-1.5
 49
0.25
 49
-1.5
  0
LTYPE
  2
long_dashed_triplicate-dotted
 70
   64
  3
--------- --- --- --- ----------
 72
   65
 73
    8
 40
18.75
 49
12
 49
-1.5
 49
0.25
 49
-1.5
 49
0.25
 49
-1.5
 49
0.25
 49
-1.5
  0
LTYPE
  2
dotted
 70
   64
  3
   -       -       -       -    
 72
   65
 73
    2
 40
1.75
 49
0.25
 49
-1.5
  0
LTYPE
  2
chain
 70
   64
  3
-------------- -- --------------
 72
   65
 73
    4
 40
18.5
 49
12
 49
-1.5
 49
3.5
 49
-1.5
  0
LTYPE
  2
chain_double_dash
 70
   64
  3
------------ -- -- -------------
 72
   65
 73
    6
 40
23.5
 49
12
 49
-1.5
 49
3.5
 49
-1.5
 49
3.5
 49
-1.5
  0
LTYPE
  2
dashed_dotted
 70
   64
  3
-----------     -     ----------
 72
   65
 73
    4
 40
9.25
 49
6
 49
-1.5
 49
0.25
 49
-1.5
  0
LTYPE
  2
double-dashed_dotted
 70
   64
  3
------   -----------   -   -----
 72
   65
 73
    6
 40
16.75
 49
6
 49
-1.5
 49
6
 49
-1.5
 49
0.25
 49
-1.5
  0
LTYPE
  2
dashed_double-dotted
 70
   64
  3
---------    -    -    ---------
 72
   65
 73
    6
 40
11
 49
6
 49
-1.5
 49
0.25
 49
-1.5
 49
0.25
 49
-1.5
  0
LTYPE
  2
double-dashed_double-dotted
 70
   64
  3
-----   ---------   -   -   ----
 72
   65
 73
    8
 40
18.5
 49
6
 49
-1.5
 49
6
 49
-1.5
 49
0.25
 49
-1.5
 49
0.25
 49
-1.5
  0
LTYPE
  2
dashed_triplicate-dotted
 70
   64
  3
-------    -    -    -    ------
 72
   65
 73
    8
 40
12.75
 49
6
 49
-1.5
 49
0.25
 49
-1.5
 49
0.25
 49
-1.5
 49
0.25
 49
-1.5
  0
LTYPE
  2
double-dashed_triplicate-dotted
 70
   64
  3
-----  ---------  -  -  -  -----
 72
   65
 73
   10
 40
20.25
 49
6
 49
-1.5
 49
6
 49
-1.5
 49
0.25
 49
-1.5
 49
0.25
 49
-1.5
 49
0.25
 49
-1.5
  0
LTYPE
  2
undefined
 70
   64
  3
--------------------------------
 72
   65
 73
    0
 40
0
  0
LTYPE
  2
DASHED
 70
   64
  3
------     -----------     -----
 72
   65
 73
    2
 40
0.75
 49
0.5
 49
-0.25
  0
LTYPE
  2
HIDDEN
 70
   64
  3
------     -----------     -----
 72
   65
 73
    2
 40
0.375
 49
0.25
 49
-0.125
  0
LTYPE
  2
CENTER
 70
   64
  3
----------    ----    ----------
 72
   65
 73
    4
 40
2
 49
1.25
 49
-0.25
 49
0.25
 49
-0.25
  0
LTYPE
  2
_
 70
   64
  3
                                
 72
   65
 73
    0
 40
0
  0
LTYPE
  2
__21
 70
   64
  3
                                
 72
   65
 73
    0
 40
0
  0
LTYPE
  2
__22
 70
   64
  3
                                
 72
   65
 73
    0
 40
0
  0
LTYPE
  2
__23
 70
   64
  3
                                
 72
   65
 73
    0
 40
0
  0
LTYPE
  2
__24
 70
   64
  3
                                
 72
   65
 73
    0
 40
0
  0
LTYPE
  2
__25
 70
   64
  3
                                
 72
   65
 73
    0
 40
0
  0
LTYPE
  2
__26
 70
   64
  3
                                
 72
   65
 73
    0
 40
0
  0
LTYPE
  2
__27
 70
   64
  3
                                
 72
   65
 73
    0
 40
0
  0
LTYPE
  2
__28
 70
   64
  3
                                
 72
   65
 73
    0
 40
0
  0
LTYPE
  2
__29
 70
   64
  3
                                
 72
   65
 73
    0
 40
0
  0
LTYPE
  2
__30
 70
   64
  3
                                
 72
   65
 73
    0
 40
0
  0
LTYPE
  2
__31
 70
   64
  3
                                
 72
   65
 73
    0
 40
0
  0
LTYPE
  2
__32
 70
   64
  3
                                
 72
   65
 73
    0
 40
0
  0
ENDTAB
  0
TABLE
  2
STYLE
  5
3
100
AcDbSymbolTable
 70
     1
  0
STYLE
  5
10
100
AcDbSymbolTableRecord
100
AcDbTextStyleTableRecord
  2
STANDARD
 70
     0
 40
0.0
 41
1.0
 50
0.0
 71
     0
 42
0.2
  3
txt
  4
bigfont.shx
  0
STYLE
  5
26
100
AcDbSymbolTableRecord
100
AcDbTextStyleTableRecord
  2
TATEGAKI
 70
    68
 40
0.0
 41
1.0
 50
0.0
 71
     0
 42
1.0
  3
txt
  4
bigfont.shx
  0
ENDTAB
  0
TABLE
  2
LAYER
 70
    6
  0
LAYER
  2
_0-0_0
 70
   64
 62
    7
  6
CONTINUOUS
  0
LAYER
  2
_0-1_H0
 70
   64
 62
    7
  6
CONTINUOUS
  0
LAYER
  2
_0-3_A0
 70
   64
 62
    7
  6
CONTINUOUS
  0
LAYER
  2
_0-5_A10
 70
   64
 62
    7
  6
CONTINUOUS
  0
LAYER
  2
_0-6_A12
 70
   64
 62
    7
  6
CONTINUOUS
  0
LAYER
  2
ADD_LINE
 70
   64
 62
    7
  6
CONTINUOUS
  0
ENDTAB
  0
ENDSEC
  0
SECTION
  2
BLOCKS
  0
BLOCK
  2
-000-_DOT
 70
   64
 10
0
 20
0
 30
0
  0
CIRCLE
  8
_0-0_0
  6
CONTINUOUS
 62
    7
 10
0
 20
0
 40
0.25
  0
CIRCLE
  8
_0-0_0
  6
CONTINUOUS
 62
    7
 10
0
 20
-0
 40
0.25
  0
LINE
  8
_0-0_0
  6
CONTINUOUS
 62
    7
 10
-0.5
 20
0
 11
-1
 21
0
  0
ENDBLK
  0
BLOCK
  2
-001-_OPEN
 70
   64
 10
0
 20
0
 30
0
  0
LINE
  8
_0-0_0
  6
CONTINUOUS
 62
    7
 10
-1
 20
0.166667
 11
0
 21
0
  0
LINE
  8
_0-0_0
  6
CONTINUOUS
 62
    7
 10
0
 20
0
 11
-1
 21
-0.166667
  0
LINE
  8
_0-0_0
  6
CONTINUOUS
 62
    7
 10
0
 20
0
 11
-1
 21
0
  0
ENDBLK
  0
BLOCK
  2
-002-_U88
 70
   64
 10
0
 20
0
 30
0
  0
INSERT
  2
-000-_DOT
  8
_0-3_A0
 10
-0.0000000000000568
 20
0.0000000000000284
 41
1
 42
1
 50
77.43508202813939
  0
LINE
  8
_0-3_A0
  6
CONTINUOUS
 62
    7
 10
-0.2175456497348516
 20
-0.9760501474214375
 11
-8.3553687076226186
 21
-37.487574993007712
  0
LINE
  8
_0-3_A0
  6
CONTINUOUS
 62
    7
 10
-8.3553687076226186
 20
-37.487574993007712
 11
-9.3553687076226186
 21
-37.487574993007712
  0
ENDBLK
  0
BLOCK
  2
-003-_U89
 70
   64
 10
0
 20
0
 30
0
  0
TEXT
  8
_0-3_A0
 62
    7
 10
-11.403900972603889
 20
-42.988547197454749
 40
3.2400000000000002
 41
1
 50
0
  1
2
  0
ENDBLK
  0
BLOCK
  2
-004-$$BALLOON$$0
 70
   64
 10
0
 20
0
 30
0
  0
INSERT
  2
-002-_U88
  8
_0-0_0
 10
0
 20
0
 41
1
 42
1
 50
0
  0
INSERT
  2
-003-_U89
  8
_0-0_0
 10
0
 20
0
 41
1
 42
1
 50
0
  0
CIRCLE
  8
_0-3_A0
  6
CONTINUOUS
 62
    7
 10
-10.32390097260389
 20
-41.368547197454738
 40
4
  0
ENDBLK
  0
BLOCK
  2
-005-_U90
 70
   64
 10
0
 20
0
 30
0
  0
INSERT
  2
-001-_OPEN
  8
_0-3_A0
 10
0.0000000000000568
 20
0.0000000000000568
 41
3
 42
3
 50
7.5305487182261403
  0
LINE
  8
_0-3_A0
  6
CONTINUOUS
 62
    7
 10
-2.9741253811770849
 20
-0.3931643638961607
 11
-18.147906800182969
 21
-2.399061679880353
  0
ENDBLK
  0
BLOCK
  2
-006-_U91
 70
   64
 10
0
 20
0
 30
0
  0
TEXT
  8
_0-3_A0
 62
    7
 10
-22.653407308419058
 20
-4.5432808317419191
 40
3.2400000000000002
 41
1
 50
0
  1
1
  0
ENDBLK
  0
BLOCK
  2
-007-$$BALLOON$$1
 70
   64
 10
0
 20
0
 30
0
  0
INSERT
  2
-005-_U90
  8
_0-0_0
 10
0
 20
0
 41
1
 42
1
 50
0
  0
INSERT
  2
-006-_U91
  8
_0-0_0
 10
0
 20
0
 41
1
 42
1
 50
0
  0
CIRCLE
  8
_0-3_A0
  6
CONTINUOUS
 62
    7
 10
-22.113407308419059
 20
-2.9232808317419198
 40
4
  0
ENDBLK
  0
BLOCK
  2
-008-_U92
 70
   64
 10
0
 20
0
 30
0
  0
TEXT
  8
_0-3_A0
 62
    7
 10
265.8616762762129
 20
175.1361853559986
 40
4
 41
1
 50
90
  1
101
  0
ENDBLK
  0
BLOCK
  2
-009-_D15
 70
   64
 10
0
 20
0
 30
0
  0
LINE
  8
_0-3_A0
  6
CONTINUOUS
 62
    7
 10
277.8674356638653
 20
153.527852022659
 11
265.36167627620108
 21
153.5278520226648
  0
LINE
  8
_0-3_A0
  6
CONTINUOUS
 62
    7
 10
266.3616762762025
 20
156.52785202266429
 11
266.36167627622307
 21
201.07785202266589
  0
INSERT
  2
-001-_OPEN
  8
_0-3_A0
 10
266.36167627620102
 20
153.52785202266429
 41
3
 42
3
 50
269.99999999997339
  0
INSERT
  2
-001-_OPEN
  8
_0-3_A0
 10
266.3616762762245
 20
204.07785202266589
 41
3
 42
3
 50
89.999999999973397
  0
LINE
  8
_0-3_A0
  6
CONTINUOUS
 62
    7
 10
277.8674356638848
 20
204.0778520226606
 11
265.36167627622461
 21
204.0778520226664
  0
INSERT
  2
-008-_U92
  8
_0-0_0
 10
0
 20
0
 41
1
 42
1
 50
0
  0
ENDBLK
  0
BLOCK
  2
-010-_U93
 70
   64
 10
0
 20
0
 30
0
  0
TEXT
  8
_0-3_A0
 62
    7
 10
174.3201347540247
 20
240.2922689040599
 40
4
 41
1
 50
0
  1
190
  0
ENDBLK
  0
BLOCK
  2
-011-_D16
 70
   64
 10
0
 20
0
 30
0
  0
LINE
  8
_0-3_A0
  6
CONTINUOUS
 62
    7
 10
131.15346808735799
 20
220.22050012747371
 11
131.1534680873581
 21
240.79226890405999
  0
LINE
  8
_0-3_A0
  6
CONTINUOUS
 62
    7
 10
134.1534680873581
 20
239.79226890405999
 11
223.1534680873581
 21
239.79226890405971
  0
INSERT
  2
-001-_OPEN
  8
_0-3_A0
 10
131.1534680873581
 20
239.79226890405999
 41
3
 42
3
 50
179.9999999999998
  0
INSERT
  2
-001-_OPEN
  8
_0-3_A0
 10
226.1534680873581
 20
239.79226890405971
 41
3
 42
3
 50
359.99999999999971
  0
LINE
  8
_0-3_A0
  6
CONTINUOUS
 62
    7
 10
226.15346808735799
 20
220.13035486250001
 11
226.1534680873581
 21
240.79226890405971
  0
INSERT
  2
-010-_U93
  8
_0-0_0
 10
0
 20
0
 41
1
 42
1
 50
0
  0
ENDBLK
  0
BLOCK
  2
-012-_U94
 70
   64
 10
0
 20
0
 30
0
  0
TEXT
  8
_0-3_A0
 62
    7
 10
174.3201347540247
 20
246.6915031637219
 40
4
 41
1
 50
0
  1
201
  0
ENDBLK
  0
BLOCK
  2
-013-_D17
 70
   64
 10
0
 20
0
 30
0
  0
LINE
  8
_0-3_A0
  6
CONTINUOUS
 62
    7
 10
128.40346808735799
 20
227.62785203438551
 11
128.4034680873581
 21
247.19150316372198
  0
LINE
  8
_0-3_A0
  6
CONTINUOUS
 62
    7
 10
131.4034680873581
 20
246.19150316372198
 11
225.9034680873581
 21
246.1915031637217
  0
INSERT
  2
-001-_OPEN
  8
_0-3_A0
 10
128.4034680873581
 20
246.19150316372198
 41
3
 42
3
 50
179.9999999999998
  0
INSERT
  2
-001-_OPEN
  8
_0-3_A0
 10
228.9034680873581
 20
246.1915031637217
 41
3
 42
3
 50
359.99999999999971
  0
LINE
  8
_0-3_A0
  6
CONTINUOUS
 62
    7
 10
228.90346808735799
 20
227.62785203438519
 11
228.9034680873581
 21
247.1915031637217
  0
INSERT
  2
-012-_U94
  8
_0-0_0
 10
0
 20
0
 41
1
 42
1
 50
0
  0
ENDBLK
  0
BLOCK
  2
-014-_U95
 70
   64
 10
0
 20
0
 30
0
  0
TEXT
  8
_0-3_A0
 62
    7
 10
173.98680142069119
 20
140.5972007522113
 40
4
 41
1
 50
0
  1
172
  0
ENDBLK
  0
BLOCK
  2
-015-_D18
 70
   64
 10
0
 20
0
 30
0
  0
LINE
  8
_0-3_A0
  6
CONTINUOUS
 62
    7
 10
135.6534680873579
 20
153.4778520105473
 11
135.6534680873579
 21
139.09720075221139
  0
LINE
  8
_0-3_A0
  6
CONTINUOUS
 62
    7
 10
138.6534680873579
 20
140.09720075221139
 11
218.6534680873579
 21
140.09720075221119
  0
INSERT
  2
-001-_OPEN
  8
_0-3_A0
 10
135.6534680873579
 20
140.0972007522115
 41
3
 42
3
 50
179.9999999999998
  0
INSERT
  2
-001-_OPEN
  8
_0-3_A0
 10
221.6534680873579
 20
140.09720075221119
 41
3
 42
3
 50
359.99999999999971
  0
LINE
  8
_0-3_A0
  6
CONTINUOUS
 62
    7
 10
221.6534680873579
 20
153.47785201054711
 11
221.65346808735779
 21
139.09720075221119
  0
INSERT
  2
-014-_U95
  8
_0-0_0
 10
0
 20
0
 41
1
 42
1
 50
0
  0
ENDBLK
  0
BLOCK
  2
-016-_U96
 70
   64
 10
0
 20
0
 30
0
  0
TEXT
  8
_0-3_A0
 62
    7
 10
235.90718712365588
 20
186.9111853557994
 40
4
 41
1
 50
90
  1
110
  0
ENDBLK
  0
BLOCK
  2
-017-_D19
 70
   64
 10
0
 20
0
 30
0
  0
LINE
  8
_0-3_A0
  6
CONTINUOUS
 62
    7
 10
228.44056515815509
 20
163.07785202246799
 11
237.40718712365588
 21
163.07785202246799
  0
LINE
  8
_0-3_A0
  6
CONTINUOUS
 62
    7
 10
236.40718712365588
 20
166.07785202246799
 11
236.407187123656
 21
215.07785202246429
  0
INSERT
  2
-001-_OPEN
  8
_0-3_A0
 10
236.40718712365588
 20
163.07785202246799
 41
3
 42
3
 50
269.99999999999971
  0
INSERT
  2
-001-_OPEN
  8
_0-3_A0
 10
236.407187123656
 20
218.07785202246429
 41
3
 42
3
 50
89.999999999999843
  0
LINE
  8
_0-3_A0
  6
CONTINUOUS
 62
    7
 10
228.19632237424738
 20
218.07785202246429
 11
237.407187123656
 21
218.07785202246429
  0
INSERT
  2
-016-_U96
  8
_0-0_0
 10
0
 20
0
 41
1
 42
1
 50
0
  0
ENDBLK
  0
BLOCK
  2
-018-_D20
 70
   64
 10
0
 20
0
 30
0
  0
LINE
  8
_0-3_A0
  6
CONTINUOUS
 62
    7
 10
228.44056514623429
 20
163.07785202246799
 11
236.9071871236558
 21
163.07785202246799
  0
LINE
  8
_0-3_A0
  6
CONTINUOUS
 62
    7
 10
221.70346808735808
 20
153.52785202246801
 11
236.9071871236558
 21
153.52785202246801
  0
LINE
  8
_0-3_A0
  6
CONTINUOUS
 62
    7
 10
235.9071871236558
 20
166.07785202246799
 11
235.9071871236558
 21
169.07785202246799
  0
LINE
  8
_0-3_A0
  6
CONTINUOUS
 62
    7
 10
235.9071871236558
 20
150.52785202246801
 11
235.9071871236558
 21
136.14785202246798
  0
LINE
  8
_0-3_A0
  6
CONTINUOUS
 62
    7
 10
235.9071871236558
 20
163.07785202246799
 11
235.9071871236558
 21
153.52785202246801
  0
INSERT
  2
-001-_OPEN
  8
_0-3_A0
 10
235.9071871236558
 20
163.07785202246799
 41
3
 42
3
 50
270
  0
INSERT
  2
-001-_OPEN
  8
_0-3_A0
 10
235.9071871236558
 20
153.52785202246801
 41
3
 42
3
 50
90
  0
TEXT
  8
_0-3_A0
 62
    7
 10
217.817
 20
132.87799999999998
 40
4
 41
1
 50
0
  1
（19）
  0
POINT
  8
_0-8__0-8_Defpoints
 62
    7
 10
228.1405651462343
 20
163.07785202246799
  0
POINT
  8
_0-8__0-8_Defpoints
 62
    7
 10
221.40346808735799
 20
153.52785202246801
  0
POINT
  8
_0-8__0-8_Defpoints
 62
    7
 10
235.9071871236558
 20
153.52785202246801
  0
ENDBLK
  0
BLOCK
  2
-019-_U98
 70
   64
 10
0
 20
0
 30
0
  0
TEXT
  8
_0-3_A0
 62
    7
 10
287.66743567582261
 20
240.47840290237809
 40
4
 41
1
 50
0
  1
50
  0
ENDBLK
  0
BLOCK
  2
-020-_D21
 70
   64
 10
0
 20
0
 30
0
  0
LINE
  8
_0-3_A0
  6
CONTINUOUS
 62
    7
 10
278.1674356758059
 20
204.3778520345813
 11
278.16743567582278
 21
240.9784029023838
  0
LINE
  8
_0-3_A0
  6
CONTINUOUS
 62
    7
 10
281.1674356758225
 20
239.97840290238249
 11
300.16743567582227
 21
239.97840290237368
  0
INSERT
  2
-001-_OPEN
  8
_0-3_A0
 10
278.1674356758225
 20
239.97840290238389
 41
3
 42
3
 50
179.99999999997339
  0
INSERT
  2
-001-_OPEN
  8
_0-3_A0
 10
303.16743567582227
 20
239.97840290237229
 41
3
 42
3
 50
359.99999999997351
  0
LINE
  8
_0-3_A0
  6
CONTINUOUS
 62
    7
 10
303.1674356758188
 20
232.62785203456979
 11
303.16743567582267
 21
240.9784029023722
  0
INSERT
  2
-019-_U98
  8
_0-0_0
 10
0
 20
0
 41
1
 42
1
 50
0
  0
ENDBLK
  0
BLOCK
  2
-021-_D22
 70
   64
 10
0
 20
0
 30
0
  0
LINE
  8
_0-3_A0
  6
CONTINUOUS
 62
    7
 10
223.38346282091521
 20
163.07785202246799
 11
120.2148866051144
 21
163.07785202246799
  0
LINE
  8
_0-3_A0
  6
CONTINUOUS
 62
    7
 10
101.64584106535548
 20
178.80285202251261
 11
122.2148866051144
 21
178.80285202251261
  0
LINE
  8
_0-3_A0
  6
CONTINUOUS
 62
    7
 10
121.2148866051144
 20
166.07785202246799
 11
121.2148866051144
 21
175.80285202251261
  0
INSERT
  2
-001-_OPEN
  8
_0-3_A0
 10
121.2148866051144
 20
163.07785202246799
 41
3
 42
3
 50
270
  0
INSERT
  2
-001-_OPEN
  8
_0-3_A0
 10
121.2148866051144
 20
178.80285202251261
 41
3
 42
3
 50
90
  0
TEXT
  8
_0-3_A0
 62
    7
 10
111.125
 20
163.86000000000001
 40
4
 41
1
 50
0
  1
31.5
  0
POINT
  8
_0-8__0-8_Defpoints
 62
    7
 10
223.68346282091519
 20
163.07785202246799
  0
POINT
  8
_0-8__0-8_Defpoints
 62
    7
 10
101.3458410653555
 20
178.80285202251261
  0
POINT
  8
_0-8__0-8_Defpoints
 62
    7
 10
121.2148866051144
 20
178.80285202251261
  0
ENDBLK
  0
BLOCK
  2
-022-_U100
 70
   64
 10
0
 20
0
 30
0
  0
TEXT
  8
_0-3_A0
 62
    7
 10
114.9791577671444
 20
185.88618535580928
 40
4
 41
1
 50
90
  1
167
  0
ENDBLK
  0
BLOCK
  2
-023-_D23
 70
   64
 10
0
 20
0
 30
0
  0
LINE
  8
_0-3_A0
  6
CONTINUOUS
 62
    7
 10
139.10346807543689
 20
148.77785202248719
 11
114.4791577671443
 21
148.7778520224873
  0
LINE
  8
_0-3_A0
  6
CONTINUOUS
 62
    7
 10
115.4791577671443
 20
151.7778520224873
 11
115.47915776714448
 21
229.32785202246461
  0
INSERT
  2
-001-_OPEN
  8
_0-3_A0
 10
115.4791577671443
 20
148.7778520224873
 41
3
 42
3
 50
269.99999999999971
  0
INSERT
  2
-001-_OPEN
  8
_0-3_A0
 10
115.47915776714448
 20
232.32785202246461
 41
3
 42
3
 50
89.999999999999843
  0
LINE
  8
_0-3_A0
  6
CONTINUOUS
 62
    7
 10
133.1034680754372
 20
232.32785202246461
 11
114.47915776714448
 21
232.32785202246461
  0
INSERT
  2
-022-_U100
  8
_0-0_0
 10
0
 20
0
 41
1
 42
1
 50
0
  0
ENDBLK
  0
BLOCK
  2
-024-_U101
 70
   64
 10
0
 20
0
 30
0
  0
TEXT
  8
_0-3_A0
 62
    7
 10
243.6132106529468
 20
235.1429336600861
 40
4
 41
1
 50
0
  1
4-\U+22054.5穴
  0
ENDBLK
  0
BLOCK
  2
-025-_D24
 70
   64
 10
0
 20
0
 30
0
  0
LINE
  8
_0-3_A0
  6
CONTINUOUS
 62
    7
 10
229.30719725324289
 20
220.7367272260507
 11
245.80154371925129
 21
234.64293366008598
  0
INSERT
  2
-001-_OPEN
  8
_0-3_A0
 10
227.01357604169018
 20
218.80299980526061
 41
3
 42
3
 50
220.1338783780294
  0
LINE
  8
_0-3_A0
  6
CONTINUOUS
 62
    7
 10
245.80154371925141
 20
234.6429336600861
 11
266.49154425330897
 21
234.6429336600861
  0
INSERT
  2
-024-_U101
  8
_0-0_0
 10
0
 20
0
 41
1
 42
1
 50
0
  0
ENDBLK
  0
BLOCK
  2
-026-_X25
 70
   64
 10
0
 20
0
 30
0
  0
LINE
  8
_0-3_A0
  6
CONTINUOUS
 62
    7
 10
298.51743567550971
 20
155.9778520227951
 11
300.71743567563538
 21
153.7778520226673
  0
LINE
  8
_0-3_A0
  6
CONTINUOUS
 62
    7
 10
298.5174356755092
 20
155.2707452416088
 11
300.01032889444871
 21
153.7778520226677
  0
LINE
  8
_0-3_A0
  6
CONTINUOUS
 62
    7
 10
298.51743567551147
 20
154.56363846041929
 11
299.30322211326301
 21
153.7778520226671
  0
LINE
  8
_0-3_A0
  6
CONTINUOUS
 62
    7
 10
298.51743567551159
 20
153.85653167923268
 11
298.59611533207612
 21
153.77785202266778
  0
LINE
  8
_0-3_A0
  6
CONTINUOUS
 62
    7
 10
298.51743567550892
 20
156.6849588039829
 11
301.42454245682188
 21
153.77785202266719
  0
LINE
  8
_0-3_A0
  6
CONTINUOUS
 62
    7
 10
298.51743567550818
 20
157.39206558517071
 11
302.13164923800758
 21
153.77785202266778
  0
LINE
  8
_0-3_A0
  6
CONTINUOUS
 62
    7
 10
298.5174356755067
 20
158.09917236635911
 11
302.83875601919407
 21
153.77785202266758
  0
LINE
  8
_0-3_A0
  6
CONTINUOUS
 62
    7
 10
298.72086280038337
 20
158.60285202266911
 11
302.91743567576179
 21
154.40627914728679
  0
LINE
  8
_0-3_A0
  6
CONTINUOUS
 62
    7
 10
299.42796958156958
 20
158.60285202266931
 11
302.91743567576577
 21
155.11338592846999
  0
LINE
  8
_0-3_A0
  6
CONTINUOUS
 62
    7
 10
300.13507636275591
 20
158.6028520226695
 11
302.91743567576918
 21
155.82049270965359
  0
LINE
  8
_0-3_A0
  6
CONTINUOUS
 62
    7
 10
300.84218314394149
 20
158.60285202266979
 11
302.91743567577168
 21
156.52759949083758
  0
LINE
  8
_0-3_A0
  6
CONTINUOUS
 62
    7
 10
301.54928992512782
 20
158.60285202267019
 11
302.91743567577572
 21
157.23470627202141
  0
LINE
  8
_0-3_A0
  6
CONTINUOUS
 62
    7
 10
302.25639670631392
 20
158.6028520226703
 11
302.91743567577867
 21
157.94181305320489
  0
LINE
  8
_0-3_A0
  6
CONTINUOUS
 62
    7
 10
300.71743567563521
 20
153.77785202266778
 11
302.91743567576679
 21
155.9778520227974
  0
LINE
  8
_0-3_A0
  6
CONTINUOUS
 62
    7
 10
301.42454245682182
 20
153.7778520226669
 11
302.91743567576298
 21
155.27074524160718
  0
LINE
  8
_0-3_A0
  6
CONTINUOUS
 62
    7
 10
302.13164923800752
 20
153.77785202266571
 11
302.91743567576202
 21
154.56363846041969
  0
LINE
  8
_0-3_A0
  6
CONTINUOUS
 62
    7
 10
302.83875601919419
 20
153.77785202266571
 11
302.91743567575861
 21
153.8565316792299
  0
LINE
  8
_0-3_A0
  6
CONTINUOUS
 62
    7
 10
300.01032889444888
 20
153.7778520226679
 11
302.91743567577111
 21
156.68495880398759
  0
LINE
  8
_0-3_A0
  6
CONTINUOUS
 62
    7
 10
299.30322211326301
 20
153.77785202266929
 11
302.91743567577361
 21
157.3920655851767
  0
LINE
  8
_0-3_A0
  6
CONTINUOUS
 62
    7
 10
298.59611533207601
 20
153.77785202266989
 11
302.91743567577731
 21
158.0991723663667
  0
LINE
  8
_0-3_A0
  6
CONTINUOUS
 62
    7
 10
298.51743567551062
 20
154.40627914729049
 11
302.71400855089478
 21
158.60285202267058
  0
LINE
  8
_0-3_A0
  6
CONTINUOUS
 62
    7
 10
298.51743567551091
 20
155.11338592847678
 11
302.00690176970738
 21
158.6028520226701
  0
LINE
  8
_0-3_A0
  6
CONTINUOUS
 62
    7
 10
298.51743567550988
 20
155.8204927096626
 11
301.29979498851992
 21
158.6028520226699
  0
LINE
  8
_0-3_A0
  6
CONTINUOUS
 62
    7
 10
298.51743567550892
 20
156.52759949084779
 11
300.59268820733279
 21
158.6028520226699
  0
LINE
  8
_0-3_A0
  6
CONTINUOUS
 62
    7
 10
298.51743567550818
 20
157.2347062720334
 11
299.8855814261455
 21
158.6028520226697
  0
LINE
  8
_0-3_A0
  6
CONTINUOUS
 62
    7
 10
298.51743567550789
 20
157.9418130532193
 11
299.17847464495872
 21
158.60285202266931
  0
ENDBLK
  0
BLOCK
  2
-027-_X26
 70
   64
 10
0
 20
0
 30
0
  0
LINE
  8
_0-3_A0
  6
CONTINUOUS
 62
    7
 10
226.6534680872925
 20
201.5278520226119
 11
221.65346808730021
 21
196.52785202261969
  0
LINE
  8
_0-3_A0
  6
CONTINUOUS
 62
    7
 10
178.65346808733011
 20
153.52785202264979
 11
173.90346808658
 21
148.77785202189969
  0
LINE
  8
_0-3_A0
  6
CONTINUOUS
 62
    7
 10
226.65346808729501
 20
200.11363846024079
 11
221.65346808730339
 21
195.11363846024968
  0
LINE
  8
_0-3_A0
  6
CONTINUOUS
 62
    7
 10
180.06768164970569
 20
153.52785202265209
 11
175.3176816489508
 21
148.77785202189718
  0
LINE
  8
_0-3_A0
  6
CONTINUOUS
 62
    7
 10
226.65346808729731
 20
198.6994248978701
 11
221.65346808730521
 21
193.699424897878
  0
LINE
  8
_0-3_A0
  6
CONTINUOUS
 62
    7
 10
181.48189521207979
 20
153.52785202265249
 11
176.73189521132329
 21
148.7778520218963
  0
LINE
  8
_0-3_A0
  6
CONTINUOUS
 62
    7
 10
226.65346808729958
 20
197.28521133549878
 11
221.653468087307
 21
192.28521133550648
  0
LINE
  8
_0-3_A0
  6
CONTINUOUS
 62
    7
 10
182.89610877445178
 20
153.5278520226515
 11
178.14610877369489
 21
148.77785202189448
  0
LINE
  8
_0-3_A0
  6
CONTINUOUS
 62
    7
 10
226.6534680873018
 20
195.87099777312761
 11
221.65346808731018
 21
190.87099777313611
  0
LINE
  8
_0-3_A0
  6
CONTINUOUS
 62
    7
 10
184.3103223368252
 20
153.52785202265158
 11
179.56032233606649
 21
148.77785202189289
  0
LINE
  8
_0-3_A0
  6
CONTINUOUS
 62
    7
 10
226.6534680873041
 20
194.4567842107568
 11
221.6534680873122
 21
189.4567842107651
  0
LINE
  8
_0-3_A0
  6
CONTINUOUS
 62
    7
 10
185.72453589919911
 20
153.52785202265209
 11
180.9745358984386
 21
148.77785202189198
  0
LINE
  8
_0-3_A0
  6
CONTINUOUS
 62
    7
 10
226.65346808730589
 20
193.0425706483854
 11
221.65346808731379
 21
188.0425706483935
  0
LINE
  8
_0-3_A0
  6
CONTINUOUS
 62
    7
 10
187.1387494615721
 20
153.52785202265181
 11
182.3887494608102
 21
148.77785202188991
  0
LINE
  8
_0-3_A0
  6
CONTINUOUS
 62
    7
 10
226.65346808730768
 20
191.62835708601389
 11
221.65346808731609
 21
186.6283570860225
  0
LINE
  8
_0-3_A0
  6
CONTINUOUS
 62
    7
 10
188.552963023946
 20
153.52785202265241
 11
183.80296302318188
 21
148.77785202188829
  0
LINE
  8
_0-3_A0
  6
CONTINUOUS
 62
    7
 10
226.65346808731038
 20
190.214143523643
 11
221.65346808731788
 21
185.21414352365098
  0
LINE
  8
_0-3_A0
  6
CONTINUOUS
 62
    7
 10
189.96717658631919
 20
153.52785202265221
 11
185.2171765855532
 21
148.77785202188618
  0
LINE
  8
_0-3_A0
  6
CONTINUOUS
 62
    7
 10
226.65346808731268
 20
188.79992996127219
 11
221.65346808732059
 21
183.79992996128021
  0
LINE
  8
_0-3_A0
  6
CONTINUOUS
 62
    7
 10
191.3813901486923
 20
153.52785202265201
 11
186.63139014792488
 21
148.77785202188471
  0
LINE
  8
_0-3_A0
  6
CONTINUOUS
 62
    7
 10
226.6534680873149
 20
187.3857163989011
 11
221.6534680873226
 21
182.38571639890861
  0
LINE
  8
_0-3_A0
  6
CONTINUOUS
 62
    7
 10
192.79560371106549
 20
153.52785202265181
 11
188.04560371029799
 21
148.77785202188471
  0
LINE
  8
_0-3_A0
  6
CONTINUOUS
 62
    7
 10
226.65346808731649
 20
185.97150283652939
 11
221.65346808732539
 21
180.9715028365382
  0
LINE
  8
_0-3_A0
  6
CONTINUOUS
 62
    7
 10
194.2098172734388
 20
153.5278520226515
 11
189.45981727266868
 21
148.77785202188189
  0
LINE
  8
_0-3_A0
  6
CONTINUOUS
 62
    7
 10
226.65346808731899
 20
184.5572892741585
 11
221.65346808732741
 21
179.557289274167
  0
LINE
  8
_0-3_A0
  6
CONTINUOUS
 62
    7
 10
195.6240308358125
 20
153.52785202265221
 11
190.8740308350404
 21
148.77785202187999
  0
LINE
  8
_0-3_A0
  6
CONTINUOUS
 62
    7
 10
226.65346808732161
 20
183.14307571178758
 11
221.65346808732908
 21
178.14307571179529
  0
LINE
  8
_0-3_A0
  6
CONTINUOUS
 62
    7
 10
197.03824439818569
 20
153.52785202265201
 11
192.28824439741279
 21
148.77785202187899
  0
LINE
  8
_0-3_A0
  6
CONTINUOUS
 62
    7
 10
226.65346808732408
 20
181.72886214941709
 11
221.65346808733249
 21
176.72886214942531
  0
LINE
  8
_0-3_A0
  6
CONTINUOUS
 62
    7
 10
198.452457960559
 20
153.52785202265181
 11
193.70245795978439
 21
148.7778520218774
  0
LINE
  8
_0-3_A0
  6
CONTINUOUS
 62
    7
 10
226.6534680873259
 20
180.31464858704529
 11
221.6534680873336
 21
175.31464858705311
  0
LINE
  8
_0-3_A0
  6
CONTINUOUS
 62
    7
 10
199.8666715229319
 20
153.5278520226515
 11
195.11667152215579
 21
148.7778520218755
  0
LINE
  8
_0-3_A0
  6
CONTINUOUS
 62
    7
 10
226.65346808732829
 20
178.90043502467449
 11
221.6534680873361
 21
173.9004350246823
  0
LINE
  8
_0-3_A0
  6
CONTINUOUS
 62
    7
 10
201.28088508530589
 20
153.52785202265221
 11
196.5308850845283
 21
148.77785202187459
  0
LINE
  8
_0-3_A0
  6
CONTINUOUS
 62
    7
 10
226.65346808733011
 20
177.486221462303
 11
221.65346808733809
 21
172.48622146231099
  0
LINE
  8
_0-3_A0
  6
CONTINUOUS
 62
    7
 10
202.695098647679
 20
153.52785202265201
 11
197.94509864689979
 21
148.7778520218728
  0
LINE
  8
_0-3_A0
  6
CONTINUOUS
 62
    7
 10
226.6534680873334
 20
176.07200789993279
 11
221.65346808734091
 21
171.07200789994058
  0
LINE
  8
_0-3_A0
  6
CONTINUOUS
 62
    7
 10
204.10931221005299
 20
153.52785202265241
 11
199.3593122092715
 21
148.77785202187089
  0
LINE
  8
_0-3_A0
  6
CONTINUOUS
 62
    7
 10
226.65346808733539
 20
174.65779433756159
 11
221.65346808734278
 21
169.6577943375691
  0
LINE
  8
_0-3_A0
  6
CONTINUOUS
 62
    7
 10
205.52352577242621
 20
153.52785202265249
 11
200.7735257716431
 21
148.77785202186919
  0
LINE
  8
_0-3_A0
  6
CONTINUOUS
 62
    7
 10
226.65346808733718
 20
173.24358077519011
 11
221.65346808734469
 21
168.24358077519758
  0
LINE
  8
_0-3_A0
  6
CONTINUOUS
 62
    7
 10
206.93773933479829
 20
153.5278520226513
 11
202.18773933401459
 21
148.7778520218676
  0
LINE
  8
_0-3_A0
  6
CONTINUOUS
 62
    7
 10
226.6534680873388
 20
171.82936721281831
 11
221.65346808734739
 21
166.82936721282669
  0
LINE
  8
_0-3_A0
  6
CONTINUOUS
 62
    7
 10
208.35195289717231
 20
153.52785202265201
 11
203.6019528963867
 21
148.7778520218664
  0
LINE
  8
_0-3_A0
  6
CONTINUOUS
 62
    7
 10
226.65346808734159
 20
170.4151536504475
 11
221.65346808734901
 21
165.4151536504552
  0
LINE
  8
_0-3_A0
  6
CONTINUOUS
 62
    7
 10
209.7661664595455
 20
153.52785202265181
 11
205.0161664587585
 21
148.77785202186478
  0
LINE
  8
_0-3_A0
  6
CONTINUOUS
 62
    7
 10
226.65346808734389
 20
169.00094008807658
 11
221.6534680873529
 21
164.00094008808571
  0
LINE
  8
_0-3_A0
  6
CONTINUOUS
 62
    7
 10
211.1803800219192
 20
153.52785202265241
 11
206.4303800211301
 21
148.77785202186311
  0
LINE
  8
_0-3_A0
  6
CONTINUOUS
 62
    7
 10
226.6534680873456
 20
167.58672652570538
 11
221.65346808735401
 21
162.5867265257138
  0
LINE
  8
_0-3_A0
  6
CONTINUOUS
 62
    7
 10
212.59459358429259
 20
153.52785202265221
 11
207.84459358350159
 21
148.77785202186109
  0
LINE
  8
_0-3_A0
  6
CONTINUOUS
 62
    7
 10
226.6534680873477
 20
166.1725129633339
 11
221.6534680873558
 21
161.17251296334208
  0
LINE
  8
_0-3_A0
  6
CONTINUOUS
 62
    7
 10
214.00880714666641
 20
153.52785202265289
 11
209.2588071458739
 21
148.77785202186001
  0
LINE
  8
_0-3_A0
  6
CONTINUOUS
 62
    7
 10
226.6534680873506
 20
164.75829940096349
 11
221.6534680873585
 21
159.7582994009715
  0
LINE
  8
_0-3_A0
  6
CONTINUOUS
 62
    7
 10
215.4230207090388
 20
153.52785202265201
 11
210.6730207082455
 21
148.7778520218585
  0
LINE
  8
_0-3_A0
  6
CONTINUOUS
 62
    7
 10
226.6534680873527
 20
163.344085838592
 11
221.6534680873602
 21
158.34408583859971
  0
LINE
  8
_0-3_A0
  6
CONTINUOUS
 62
    7
 10
216.83723427141188
 20
153.52785202265181
 11
212.08723427061698
 21
148.7778520218566
  0
LINE
  8
_0-3_A0
  6
CONTINUOUS
 62
    7
 10
226.65346808735469
 20
161.92987227622069
 11
221.65346808736271
 21
156.9298722762289
  0
LINE
  8
_0-3_A0
  6
CONTINUOUS
 62
    7
 10
218.2514478337859
 20
153.52785202265221
 11
213.50144783298941
 21
148.7778520218556
  0
LINE
  8
_0-3_A0
  6
CONTINUOUS
 62
    7
 10
226.65346808735671
 20
160.5156587138496
 11
221.65346808736509
 21
155.51565871385798
  0
LINE
  8
_0-3_A0
  6
CONTINUOUS
 62
    7
 10
219.66566139615909
 20
153.52785202265201
 11
214.91566139536089
 21
148.7778520218541
  0
LINE
  8
_0-3_A0
  6
CONTINUOUS
 62
    7
 10
226.65346808735918
 20
159.1014451514786
 11
221.65346808736688
 21
154.1014451514863
  0
LINE
  8
_0-3_A0
  6
CONTINUOUS
 62
    7
 10
221.07987495853311
 20
153.52785202265269
 11
216.32987495773238
 21
148.77785202185211
  0
LINE
  8
_0-3_A0
  6
CONTINUOUS
 62
    7
 10
226.65346808736128
 20
157.68723158910751
 11
217.74408852010398
 21
148.77785202185049
  0
LINE
  8
_0-3_A0
  6
CONTINUOUS
 62
    7
 10
226.6534680873635
 20
156.27301802673639
 11
219.15830208247649
 21
148.77785202184949
  0
LINE
  8
_0-3_A0
  6
CONTINUOUS
 62
    7
 10
226.653468087366
 20
154.85880446436559
 11
220.57251564484718
 21
148.77785202184679
  0
LINE
  8
_0-3_A0
  6
CONTINUOUS
 62
    7
 10
226.64153816985549
 20
153.43266098461108
 11
221.99865912460239
 21
148.78978193935799
  0
LINE
  8
_0-3_A0
  6
CONTINUOUS
 62
    7
 10
226.08451160609999
 20
151.4614208583755
 11
223.96989925083809
 21
149.3468085031136
  0
LINE
  8
_0-3_A0
  6
CONTINUOUS
 62
    7
 10
226.6534680872904
 20
202.94206558498351
 11
221.65346808729839
 21
197.94206558499141
  0
LINE
  8
_0-3_A0
  6
CONTINUOUS
 62
    7
 10
177.23925452495629
 20
153.52785202264939
 11
172.4892545242082
 21
148.7778520219015
  0
LINE
  8
_0-3_A0
  6
CONTINUOUS
 62
    7
 10
226.65346808728858
 20
204.35627914735471
 11
221.6534680872964
 21
199.3562791473623
  0
LINE
  8
_0-3_A0
  6
CONTINUOUS
 62
    7
 10
175.82504096258381
 20
153.52785202265019
 11
171.07504096183669
 21
148.7778520219031
  0
LINE
  8
_0-3_A0
  6
CONTINUOUS
 62
    7
 10
226.65346808728588
 20
205.77049270972509
 11
221.65346808729449
 21
200.77049270973378
  0
LINE
  8
_0-3_A0
  6
CONTINUOUS
 62
    7
 10
174.41082740021059
 20
153.52785202265039
 11
169.66082739946389
 21
148.77785202190369
  0
LINE
  8
_0-3_A0
  6
CONTINUOUS
 62
    7
 10
226.65346808728381
 20
207.1847062720966
 11
221.65346808729148
 21
202.18470627210439
  0
LINE
  8
_0-3_A0
  6
CONTINUOUS
 62
    7
 10
172.996613837836
 20
153.52785202264911
 11
168.24661383709229
 21
148.7778520219054
  0
LINE
  8
_0-3_A0
  6
CONTINUOUS
 62
    7
 10
226.6534680872817
 20
208.59891983446769
 11
221.65346808728941
 21
203.5989198344757
  0
LINE
  8
_0-3_A0
  6
CONTINUOUS
 62
    7
 10
171.58240027546298
 20
153.52785202264939
 11
166.83240027472081
 21
148.7778520219073
  0
LINE
  8
_0-3_A0
  6
CONTINUOUS
 62
    7
 10
226.6534680872794
 20
210.01313339683881
 11
221.6534680872875
 21
205.01313339684719
  0
LINE
  8
_0-3_A0
  6
CONTINUOUS
 62
    7
 10
170.16818671308979
 20
153.52785202264951
 11
165.41818671234921
 21
148.77785202190901
  0
LINE
  8
_0-3_A0
  6
CONTINUOUS
 62
    7
 10
226.65346808727679
 20
211.42734695920958
 11
221.65346808728588
 21
206.4273469592187
  0
LINE
  8
_0-3_A0
  6
CONTINUOUS
 62
    7
 10
168.75397315071771
 20
153.5278520226505
 11
164.00397314997741
 21
148.77785202191049
  0
LINE
  8
_0-3_A0
  6
CONTINUOUS
 62
    7
 10
226.6534680872748
 20
212.8415605215811
 11
221.65346808728338
 21
207.84156052158971
  0
LINE
  8
_0-3_A0
  6
CONTINUOUS
 62
    7
 10
167.33975958834429
 20
153.5278520226507
 11
162.58975958760581
 21
148.77785202191219
  0
LINE
  8
_0-3_A0
  6
CONTINUOUS
 62
    7
 10
226.65346808727281
 20
214.2557740839519
 11
221.65346808728028
 21
209.25577408395969
  0
LINE
  8
_0-3_A0
  6
CONTINUOUS
 62
    7
 10
165.92554602596959
 20
153.52785202264939
 11
161.17554602523429
 21
148.7778520219141
  0
LINE
  8
_0-3_A0
  6
CONTINUOUS
 62
    7
 10
226.6534680872707
 20
215.6699876463237
 11
221.6534680872792
 21
210.66998764633189
  0
LINE
  8
_0-3_A0
  6
CONTINUOUS
 62
    7
 10
164.51133246359648
 20
153.52785202264959
 11
159.76133246286138
 21
148.77785202191429
  0
LINE
  8
_0-3_A0
  6
CONTINUOUS
 62
    7
 10
226.65346808726829
 20
217.08420120869431
 11
221.65346808727599
 21
212.08420120870229
  0
LINE
  8
_0-3_A0
  6
CONTINUOUS
 62
    7
 10
163.097118901224
 20
153.5278520226505
 11
158.34711890048978
 21
148.77785202191628
  0
LINE
  8
_0-3_A0
  6
CONTINUOUS
 62
    7
 10
226.65346808726638
 20
218.49841477106579
 11
221.65346808727429
 21
213.49841477107381
  0
LINE
  8
_0-3_A0
  6
CONTINUOUS
 62
    7
 10
161.68290533885098
 20
153.52785202265079
 11
156.93290533811838
 21
148.77785202191799
  0
LINE
  8
_0-3_A0
  6
CONTINUOUS
 62
    7
 10
226.653468087264
 20
219.91262833343668
 11
221.6534680872721
 21
214.91262833344509
  0
LINE
  8
_0-3_A0
  6
CONTINUOUS
 62
    7
 10
160.26869177647628
 20
153.52785202264939
 11
155.51869177574678
 21
148.77785202191989
  0
LINE
  8
_0-3_A0
  6
CONTINUOUS
 62
    7
 10
226.65346808726158
 20
221.32684189580768
 11
221.65346808726908
 21
216.32684189581519
  0
LINE
  8
_0-3_A0
  6
CONTINUOUS
 62
    7
 10
158.85447821410309
 20
153.52785202264931
 11
154.1044782133749
 21
148.77785202192109
  0
LINE
  8
_0-3_A0
  6
CONTINUOUS
 62
    7
 10
226.65346808725939
 20
222.741055458179
 11
221.65346808726729
 21
217.7410554581867
  0
LINE
  8
_0-3_A0
  6
CONTINUOUS
 62
    7
 10
157.4402646517301
 20
153.52785202264979
 11
152.69026465100338
 21
148.77785202192291
  0
LINE
  8
_0-3_A0
  6
CONTINUOUS
 62
    7
 10
226.6534680872578
 20
224.15526902055029
 11
221.6534680872655
 21
219.1552690205583
  0
LINE
  8
_0-3_A0
  6
CONTINUOUS
 62
    7
 10
156.02605108935759
 20
153.52785202265079
 11
151.27605108863158
 21
148.77785202192501
  0
LINE
  8
_0-3_A0
  6
CONTINUOUS
 62
    7
 10
226.6534680872553
 20
225.5694825829214
 11
221.65346808726408
 21
220.56948258292999
  0
LINE
  8
_0-3_A0
  6
CONTINUOUS
 62
    7
 10
154.61183752698448
 20
153.52785202265098
 11
149.8618375262601
 21
148.7778520219266
  0
LINE
  8
_0-3_A0
  6
CONTINUOUS
 62
    7
 10
226.6534680872528
 20
226.9836961452921
 11
221.6534680872605
 21
221.98369614529988
  0
LINE
  8
_0-3_A0
  6
CONTINUOUS
 62
    7
 10
153.19762396460978
 20
153.52785202264959
 11
148.4476239638875
 21
148.77785202192728
  0
LINE
  8
_0-3_A0
  6
CONTINUOUS
 62
    7
 10
226.55763783443359
 20
228.3020794552703
 11
221.653468087258
 21
223.39790970767049
  0
LINE
  8
_0-3_A0
  6
CONTINUOUS
 62
    7
 10
151.78341040223651
 20
153.5278520226499
 11
147.03341040151559
 21
148.7778520219289
  0
LINE
  8
_0-3_A0
  6
CONTINUOUS
 62
    7
 10
226.2155384514404
 20
229.37419363426749
 11
221.65346808725701
 21
224.81212327004288
  0
LINE
  8
_0-3_A0
  6
CONTINUOUS
 62
    7
 10
150.3691968398636
 20
153.5278520226501
 11
145.61919683914419
 21
148.77785202193069
  0
LINE
  8
_0-3_A0
  6
CONTINUOUS
 62
    7
 10
225.696598238484
 20
230.2694669837061
 11
221.6534680872553
 21
226.22633683241468
  0
LINE
  8
_0-3_A0
  6
CONTINUOUS
 62
    7
 10
148.95498327749049
 20
153.5278520226501
 11
144.20498327677231
 21
148.77785202193228
  0
LINE
  8
_0-3_A0
  6
CONTINUOUS
 62
    7
 10
225.02919406054971
 20
231.0162763680631
 11
221.59076971493161
 21
227.57785202246429
  0
LINE
  8
_0-3_A0
  6
CONTINUOUS
 62
    7
 10
147.5407697151171
 20
153.5278520226503
 11
142.7907697144009
 21
148.77785202193399
  0
LINE
  8
_0-3_A0
  6
CONTINUOUS
 62
    7
 10
224.2184875526166
 20
231.61978342246371
 11
220.17655615255839
 21
227.57785202246421
  0
LINE
  8
_0-3_A0
  6
CONTINUOUS
 62
    7
 10
146.1265561527434
 20
153.5278520226499
 11
141.37655615202919
 21
148.7778520219357
  0
LINE
  8
_0-3_A0
  6
CONTINUOUS
 62
    7
 10
223.25044896969561
 20
232.06595840171661
 11
218.76234259018511
 21
227.57785202246481
  0
LINE
  8
_0-3_A0
  6
CONTINUOUS
 62
    7
 10
144.712342590371
 20
153.52785202265079
 11
139.96234258965739
 21
148.7778520219374
  0
LINE
  8
_0-3_A0
  6
CONTINUOUS
 62
    7
 10
222.07991052138359
 20
232.30963351610409
 11
217.34812902781089
 21
227.57785202246358
  0
LINE
  8
_0-3_A0
  6
CONTINUOUS
 62
    7
 10
143.29812902799699
 20
153.52785202265039
 11
138.54812902728488
 21
148.777852021938
  0
LINE
  8
_0-3_A0
  6
CONTINUOUS
 62
    7
 10
220.6839154654381
 20
232.32785202246409
 11
215.93391546543779
 21
227.5778520224639
  0
LINE
  8
_0-3_A0
  6
CONTINUOUS
 62
    7
 10
141.8839154656232
 20
153.52785202264959
 11
137.13391546491328
 21
148.77785202193979
  0
LINE
  8
_0-3_A0
  6
CONTINUOUS
 62
    7
 10
219.26970190306491
 20
232.32785202246409
 11
214.51970190306471
 21
227.5778520224639
  0
LINE
  8
_0-3_A0
  6
CONTINUOUS
 62
    7
 10
140.46970190324918
 20
153.52785202264931
 11
135.71970190254239
 21
148.77785202194209
  0
LINE
  8
_0-3_A0
  6
CONTINUOUS
 62
    7
 10
217.8554883406918
 20
232.32785202246441
 11
213.1054883406916
 21
227.57785202246421
  0
LINE
  8
_0-3_A0
  6
CONTINUOUS
 62
    7
 10
139.05548834087699
 20
153.52785202265019
 11
134.45198964731258
 21
148.92435332942548
  0
LINE
  8
_0-3_A0
  6
CONTINUOUS
 62
    7
 10
216.44127477831779
 20
232.32785202246378
 11
211.6912747783183
 21
227.57785202246421
  0
LINE
  8
_0-3_A0
  6
CONTINUOUS
 62
    7
 10
137.64127477850391
 20
153.52785202265039
 11
133.41855937699858
 21
149.30513662113199
  0
LINE
  8
_0-3_A0
  6
CONTINUOUS
 62
    7
 10
215.02706121594519
 20
232.32785202246461
 11
210.2770612159442
 21
227.5778520224637
  0
LINE
  8
_0-3_A0
  6
CONTINUOUS
 62
    7
 10
136.2270612161306
 20
153.52785202265039
 11
132.55379436244621
 21
149.85458516898859
  0
LINE
  8
_0-3_A0
  6
CONTINUOUS
 62
    7
 10
213.612847653572
 20
232.32785202246481
 11
208.86284765357208
 21
227.57785202246461
  0
LINE
  8
_0-3_A0
  6
CONTINUOUS
 62
    7
 10
135.65346808729441
 20
154.36847245618778
 11
131.83497864176061
 21
150.54998301060609
  0
LINE
  8
_0-3_A0
  6
CONTINUOUS
 62
    7
 10
212.19863409119778
 20
232.3278520224639
 11
207.44863409119798
 21
227.5778520224639
  0
LINE
  8
_0-3_A0
  6
CONTINUOUS
 62
    7
 10
135.65346808729461
 20
155.78268601856109
 11
131.26059976780641
 21
151.38981769898211
  0
LINE
  8
_0-3_A0
  6
CONTINUOUS
 62
    7
 10
210.78442052882451
 20
232.3278520224639
 11
206.03442052882419
 21
227.5778520224637
  0
LINE
  8
_0-3_A0
  6
CONTINUOUS
 62
    7
 10
135.65346808729628
 20
157.1968995809359
 11
130.84918608667828
 21
152.39261758021379
  0
LINE
  8
_0-3_A0
  6
CONTINUOUS
 62
    7
 10
209.3702069664516
 20
232.32785202246409
 11
204.6202069664516
 21
227.57785202246441
  0
LINE
  8
_0-3_A0
  6
CONTINUOUS
 62
    7
 10
135.6534680872981
 20
158.61111314331151
 11
130.656159954124
 21
153.6138050099588
  0
LINE
  8
_0-3_A0
  6
CONTINUOUS
 62
    7
 10
207.95599340407829
 20
232.32785202246409
 11
203.20599340407798
 21
227.57785202246409
  0
LINE
  8
_0-3_A0
  6
CONTINUOUS
 62
    7
 10
135.65346808729938
 20
160.02532670568589
 11
130.6534680872962
 21
155.02532670568248
  0
LINE
  8
_0-3_A0
  6
CONTINUOUS
 62
    7
 10
206.54177984170419
 20
232.3278520224637
 11
201.79177984170439
 21
227.5778520224639
  0
LINE
  8
_0-3_A0
  6
CONTINUOUS
 62
    7
 10
135.65346808729938
 20
161.439540268059
 11
130.65346808729759
 21
156.43954026805741
  0
LINE
  8
_0-3_A0
  6
CONTINUOUS
 62
    7
 10
205.1275662793318
 20
232.32785202246481
 11
200.37756627933129
 21
227.57785202246421
  0
LINE
  8
_0-3_A0
  6
CONTINUOUS
 62
    7
 10
135.6534680873014
 20
162.85375383043461
 11
130.65346808729958
 21
157.85375383043299
  0
LINE
  8
_0-3_A0
  6
CONTINUOUS
 62
    7
 10
203.71335271695801
 20
232.32785202246409
 11
198.96335271695821
 21
227.57785202246429
  0
LINE
  8
_0-3_A0
  6
CONTINUOUS
 62
    7
 10
135.65346808730299
 20
164.26796739280931
 11
130.65346808730001
 21
159.2679673928068
  0
LINE
  8
_0-3_A0
  6
CONTINUOUS
 62
    7
 10
202.29913915458431
 20
232.3278520224637
 11
197.54913915458431
 21
227.57785202246398
  0
LINE
  8
_0-3_A0
  6
CONTINUOUS
 62
    7
 10
135.6534680873035
 20
165.68218095518329
 11
130.65346808730049
 21
160.68218095518059
  0
LINE
  8
_0-3_A0
  6
CONTINUOUS
 62
    7
 10
200.8849255922112
 20
232.3278520224639
 11
196.1349255922112
 21
227.57785202246421
  0
LINE
  8
_0-3_A0
  6
CONTINUOUS
 62
    7
 10
135.6534680873064
 20
167.09639451755958
 11
130.65346808730208
 21
162.09639451755529
  0
LINE
  8
_0-3_A0
  6
CONTINUOUS
 62
    7
 10
199.47071202983801
 20
232.32785202246409
 11
194.72071202983809
 21
227.57785202246429
  0
LINE
  8
_0-3_A0
  6
CONTINUOUS
 62
    7
 10
135.65346808730529
 20
168.51060807993181
 11
130.6534680873035
 21
163.51060807992979
  0
LINE
  8
_0-3_A0
  6
CONTINUOUS
 62
    7
 10
198.05649846746499
 20
232.32785202246421
 11
193.3064984674649
 21
227.57785202246441
  0
LINE
  8
_0-3_A0
  6
CONTINUOUS
 62
    7
 10
135.65346808730689
 20
169.92482164230651
 11
130.65346808730458
 21
164.92482164230449
  0
LINE
  8
_0-3_A0
  6
CONTINUOUS
 62
    7
 10
196.64228490509159
 20
232.32785202246409
 11
191.8922849050914
 21
227.57785202246421
  0
LINE
  8
_0-3_A0
  6
CONTINUOUS
 62
    7
 10
135.6534680873074
 20
171.33903520468061
 11
130.6534680873051
 21
166.33903520467799
  0
LINE
  8
_0-3_A0
  6
CONTINUOUS
 62
    7
 10
195.22807134271849
 20
232.32785202246461
 11
190.47807134271781
 21
227.57785202246398
  0
LINE
  8
_0-3_A0
  6
CONTINUOUS
 62
    7
 10
135.65346808730939
 20
172.7532487670559
 11
130.65346808730629
 21
167.75324876705289
  0
LINE
  8
_0-3_A0
  6
CONTINUOUS
 62
    7
 10
193.81385778034538
 20
232.32785202246461
 11
189.06385778034498
 21
227.57785202246441
  0
LINE
  8
_0-3_A0
  6
CONTINUOUS
 62
    7
 10
135.65346808730998
 20
174.16746232942989
 11
130.6534680873068
 21
169.16746232942679
  0
LINE
  8
_0-3_A0
  6
CONTINUOUS
 62
    7
 10
192.39964421797108
 20
232.32785202246421
 11
187.64964421797128
 21
227.57785202246421
  0
LINE
  8
_0-3_A0
  6
CONTINUOUS
 62
    7
 10
135.65346808731061
 20
175.58167589180399
 11
130.6534680873097
 21
170.58167589180288
  0
LINE
  8
_0-3_A0
  6
CONTINUOUS
 62
    7
 10
190.9854306555978
 20
232.3278520224637
 11
186.2354306555978
 21
227.5778520224639
  0
LINE
  8
_0-3_A0
  6
CONTINUOUS
 62
    7
 10
135.6534680873122
 20
176.99588945417841
 11
130.6534680873095
 21
171.9958894541759
  0
LINE
  8
_0-3_A0
  6
CONTINUOUS
 62
    7
 10
189.5712170932249
 20
232.32785202246469
 11
184.82121709322541
 21
227.57785202246469
  0
LINE
  8
_0-3_A0
  6
CONTINUOUS
 62
    7
 10
135.65346808731331
 20
178.4101030165533
 11
130.65346808731101
 21
173.4101030165506
  0
LINE
  8
_0-3_A0
  6
CONTINUOUS
 62
    7
 10
188.15700353085111
 20
232.32785202246421
 11
183.40700353085131
 21
227.57785202246421
  0
LINE
  8
_0-3_A0
  6
CONTINUOUS
 62
    7
 10
135.65346808731649
 20
179.82431657892959
 11
130.65346808731149
 21
174.82431657892459
  0
LINE
  8
_0-3_A0
  6
CONTINUOUS
 62
    7
 10
186.74278996847749
 20
232.32785202246398
 11
181.9927899684776
 21
227.57785202246378
  0
LINE
  8
_0-3_A0
  6
CONTINUOUS
 62
    7
 10
135.6534680873153
 20
181.23853014130179
 11
130.65346808731439
 21
176.23853014130091
  0
LINE
  8
_0-3_A0
  6
CONTINUOUS
 62
    7
 10
185.32857640610521
 20
232.32785202246461
 11
180.57857640610509
 21
227.57785202246481
  0
LINE
  8
_0-3_A0
  6
CONTINUOUS
 62
    7
 10
135.6534680873174
 20
182.65274370367708
 11
130.65346808731439
 21
177.6527437036743
  0
LINE
  8
_0-3_A0
  6
CONTINUOUS
 62
    7
 10
183.91436284373179
 20
232.32785202246441
 11
179.16436284373111
 21
227.57785202246421
  0
LINE
  8
_0-3_A0
  6
CONTINUOUS
 62
    7
 10
135.6534680873174
 20
184.06695726605079
 11
130.65346808731538
 21
179.06695726604849
  0
LINE
  8
_0-3_A0
  6
CONTINUOUS
 62
    7
 10
182.5001492813578
 20
232.32785202246398
 11
177.7501492813578
 21
227.57785202246421
  0
LINE
  8
_0-3_A0
  6
CONTINUOUS
 62
    7
 10
135.65346808731899
 20
185.4811708284254
 11
130.65346808731669
 21
180.48117082842338
  0
LINE
  8
_0-3_A0
  6
CONTINUOUS
 62
    7
 10
181.0859357189847
 20
232.32785202246409
 11
176.3359357189847
 21
227.57785202246441
  0
LINE
  8
_0-3_A0
  6
CONTINUOUS
 62
    7
 10
135.6534680873203
 20
186.8953843907999
 11
130.65346808731828
 21
181.89538439079788
  0
LINE
  8
_0-3_A0
  6
CONTINUOUS
 62
    7
 10
179.67172215661159
 20
232.32785202246441
 11
174.92172215661179
 21
227.57785202246441
  0
LINE
  8
_0-3_A0
  6
CONTINUOUS
 62
    7
 10
135.65346808732161
 20
188.30959795317488
 11
130.6534680873197
 21
183.30959795317281
  0
LINE
  8
_0-3_A0
  6
CONTINUOUS
 62
    7
 10
178.2575085942378
 20
232.32785202246398
 11
173.50750859423868
 21
227.57785202246489
  0
LINE
  8
_0-3_A0
  6
CONTINUOUS
 62
    7
 10
135.65346808732149
 20
189.72381151554799
 11
130.65346808731939
 21
184.72381151554608
  0
LINE
  8
_0-3_A0
  6
CONTINUOUS
 62
    7
 10
176.84329503186469
 20
232.32785202246421
 11
172.09329503186418
 21
227.57785202246378
  0
LINE
  8
_0-3_A0
  6
CONTINUOUS
 62
    7
 10
135.65346808732408
 20
191.13802507792379
 11
130.6534680873209
 21
186.13802507792078
  0
LINE
  8
_0-3_A0
  6
CONTINUOUS
 62
    7
 10
175.4290814694915
 20
232.32785202246421
 11
170.6790814694911
 21
227.57785202246398
  0
LINE
  8
_0-3_A0
  6
CONTINUOUS
 62
    7
 10
135.65346808732419
 20
192.55223864029738
 11
130.65346808732149
 21
187.5522386402946
  0
LINE
  8
_0-3_A0
  6
CONTINUOUS
 62
    7
 10
174.01486790711808
 20
232.32785202246421
 11
169.2648679071178
 21
227.57785202246421
  0
LINE
  8
_0-3_A0
  6
CONTINUOUS
 62
    7
 10
135.6534680873259
 20
193.966452202672
 11
130.6534680873238
 21
188.96645220267029
  0
LINE
  8
_0-3_A0
  6
CONTINUOUS
 62
    7
 10
172.60065434474461
 20
232.32785202246421
 11
167.85065434474449
 21
227.57785202246421
  0
LINE
  8
_0-3_A0
  6
CONTINUOUS
 62
    7
 10
135.6534680873265
 20
195.3806657650463
 11
130.65346808732519
 21
190.38066576504499
  0
LINE
  8
_0-3_A0
  6
CONTINUOUS
 62
    7
 10
171.18644078237119
 20
232.32785202246398
 11
166.4364407823711
 21
227.57785202246421
  0
LINE
  8
_0-3_A0
  6
CONTINUOUS
 62
    7
 10
135.6534680873284
 20
196.79487932742131
 11
130.65346808732559
 21
191.79487932741901
  0
LINE
  8
_0-3_A0
  6
CONTINUOUS
 62
    7
 10
169.77222721999871
 20
232.3278520224652
 11
165.02222721999851
 21
227.57785202246449
  0
LINE
  8
_0-3_A0
  6
CONTINUOUS
 62
    7
 10
135.6534680873313
 20
198.20909288979748
 11
130.65346808732599
 21
193.20909288979248
  0
LINE
  8
_0-3_A0
  6
CONTINUOUS
 62
    7
 10
168.35801365762489
 20
232.32785202246441
 11
163.60801365762509
 21
227.57785202246469
  0
LINE
  8
_0-3_A0
  6
CONTINUOUS
 62
    7
 10
135.65346808733019
 20
199.62330645216991
 11
130.653468087329
 21
194.6233064521688
  0
LINE
  8
_0-3_A0
  6
CONTINUOUS
 62
    7
 10
166.9438000952511
 20
232.32785202246398
 11
162.1938000952507
 21
227.57785202246358
  0
LINE
  8
_0-3_A0
  6
CONTINUOUS
 62
    7
 10
135.65346808733249
 20
201.0375200145456
 11
130.65346808732908
 21
196.03752001454239
  0
LINE
  8
_0-3_A0
  6
CONTINUOUS
 62
    7
 10
165.52958653287851
 20
232.32785202246469
 11
160.77958653287871
 21
227.57785202246489
  0
LINE
  8
_0-3_A0
  6
CONTINUOUS
 62
    7
 10
135.65346808733289
 20
202.45173357691939
 11
130.65346808733019
 21
197.4517335769166
  0
LINE
  8
_0-3_A0
  6
CONTINUOUS
 62
    7
 10
164.11537297050489
 20
232.32785202246421
 11
159.36537297050449
 21
227.57785202246398
  0
LINE
  8
_0-3_A0
  6
CONTINUOUS
 62
    7
 10
135.6534680873334
 20
203.86594713929321
 11
130.65346808733099
 21
198.8659471392909
  0
LINE
  8
_0-3_A0
  6
CONTINUOUS
 62
    7
 10
162.7011594081313
 20
232.32785202246429
 11
157.95115940813099
 21
227.57785202246409
  0
LINE
  8
_0-3_A0
  6
CONTINUOUS
 62
    7
 10
135.65346808733428
 20
205.28016070166719
 11
130.65346808733229
 21
200.2801607016656
  0
LINE
  8
_0-3_A0
  6
CONTINUOUS
 62
    7
 10
161.28694584575748
 20
232.32785202246378
 11
156.53694584575819
 21
227.57785202246449
  0
LINE
  8
_0-3_A0
  6
CONTINUOUS
 62
    7
 10
135.65346808733619
 20
206.69437426404249
 11
130.6534680873336
 21
201.6943742640403
  0
LINE
  8
_0-3_A0
  6
CONTINUOUS
 62
    7
 10
159.87273228338509
 20
232.32785202246481
 11
155.12273228338489
 21
227.57785202246449
  0
LINE
  8
_0-3_A0
  6
CONTINUOUS
 62
    7
 10
135.65346808733679
 20
208.10858782641659
 11
130.65346808733519
 21
203.108587826415
  0
LINE
  8
_0-3_A0
  6
CONTINUOUS
 62
    7
 10
158.4585187210113
 20
232.32785202246409
 11
153.70851872101098
 21
227.5778520224639
  0
LINE
  8
_0-3_A0
  6
CONTINUOUS
 62
    7
 10
135.65346808733841
 20
209.52280138879149
 11
130.65346808733559
 21
204.52280138878879
  0
LINE
  8
_0-3_A0
  6
CONTINUOUS
 62
    7
 10
157.04430515863799
 20
232.32785202246429
 11
152.29430515863779
 21
227.57785202246409
  0
LINE
  8
_0-3_A0
  6
CONTINUOUS
 62
    7
 10
135.65346808734039
 20
210.93701495116658
 11
130.6534680873361
 21
205.9370149511628
  0
LINE
  8
_0-3_A0
  6
CONTINUOUS
 62
    7
 10
155.63009159626508
 20
232.32785202246481
 11
150.8800915962646
 21
227.57785202246429
  0
LINE
  8
_0-3_A0
  6
CONTINUOUS
 62
    7
 10
135.6534680873402
 20
212.35122851353969
 11
130.65346808733841
 21
207.3512285135381
  0
LINE
  8
_0-3_A0
  6
CONTINUOUS
 62
    7
 10
154.2158780338913
 20
232.32785202246398
 11
149.46587803389161
 21
227.57785202246429
  0
LINE
  8
_0-3_A0
  6
CONTINUOUS
 62
    7
 10
135.65346808734159
 20
213.7654420759147
 11
130.653468087339
 21
208.7654420759122
  0
LINE
  8
_0-3_A0
  6
CONTINUOUS
 62
    7
 10
152.8016644715183
 20
232.32785202246461
 11
148.05166447151779
 21
227.57785202246409
  0
LINE
  8
_0-3_A0
  6
CONTINUOUS
 62
    7
 10
135.65346808734298
 20
215.1796556382894
 11
130.6534680873398
 21
210.1796556382859
  0
LINE
  8
_0-3_A0
  6
CONTINUOUS
 62
    7
 10
151.38745090914468
 20
232.32785202246429
 11
146.6374509091444
 21
227.57785202246429
  0
LINE
  8
_0-3_A0
  6
CONTINUOUS
 62
    7
 10
135.65346808734369
 20
216.5938692006631
 11
130.65346808734091
 21
211.59386920066069
  0
LINE
  8
_0-3_A0
  6
CONTINUOUS
 62
    7
 10
149.97323734677129
 20
232.32785202246449
 11
145.22323734677161
 21
227.57785202246429
  0
LINE
  8
_0-3_A0
  6
CONTINUOUS
 62
    7
 10
135.65346808734409
 20
218.00808276303709
 11
130.65346808734298
 21
213.00808276303621
  0
LINE
  8
_0-3_A0
  6
CONTINUOUS
 62
    7
 10
148.5590237843985
 20
232.32785202246481
 11
143.8090237843979
 21
227.57785202246429
  0
LINE
  8
_0-3_A0
  6
CONTINUOUS
 62
    7
 10
135.65346808734548
 20
219.4222963254119
 11
130.65346808734361
 21
214.42229632541008
  0
LINE
  8
_0-3_A0
  6
CONTINUOUS
 62
    7
 10
147.14481022202468
 20
232.32785202246429
 11
142.3948102220242
 21
227.57785202246378
  0
LINE
  8
_0-3_A0
  6
CONTINUOUS
 62
    7
 10
135.6534680873471
 20
220.8365098877866
 11
130.6534680873444
 21
215.8365098877841
  0
LINE
  8
_0-3_A0
  6
CONTINUOUS
 62
    7
 10
145.73059665965161
 20
232.32785202246429
 11
140.98059665965161
 21
227.57785202246481
  0
LINE
  8
_0-3_A0
  6
CONTINUOUS
 62
    7
 10
135.6534680873485
 20
222.2507234501613
 11
130.65346808734568
 21
217.2507234501588
  0
LINE
  8
_0-3_A0
  6
CONTINUOUS
 62
    7
 10
144.3163830972785
 20
232.32785202246481
 11
139.56638309727799
 21
227.57785202246441
  0
LINE
  8
_0-3_A0
  6
CONTINUOUS
 62
    7
 10
135.65346808734798
 20
223.66493701253429
 11
130.6534680873473
 21
218.66493701253361
  0
LINE
  8
_0-3_A0
  6
CONTINUOUS
 62
    7
 10
142.90216953490448
 20
232.32785202246409
 11
138.1521695349042
 21
227.5778520224637
  0
LINE
  8
_0-3_A0
  6
CONTINUOUS
 62
    7
 10
135.65346808735029
 20
225.07915057490998
 11
130.65346808734838
 21
220.07915057490819
  0
LINE
  8
_0-3_A0
  6
CONTINUOUS
 62
    7
 10
141.48795597253109
 20
232.32785202246398
 11
136.73795597253169
 21
227.57785202246469
  0
LINE
  8
_0-3_A0
  6
CONTINUOUS
 62
    7
 10
135.6534680873508
 20
226.493364137284
 11
130.65346808734921
 21
221.49336413728221
  0
LINE
  8
_0-3_A0
  6
CONTINUOUS
 62
    7
 10
140.07374241015818
 20
232.32785202246449
 11
130.6534680873498
 21
222.9075776996562
  0
LINE
  8
_0-3_A0
  6
CONTINUOUS
 62
    7
 10
138.65952884778491
 20
232.32785202246461
 11
130.65346808735088
 21
224.32179126203058
  0
LINE
  8
_0-3_A0
  6
CONTINUOUS
 62
    7
 10
137.24531528541089
 20
232.32785202246398
 11
130.65346808735318
 21
225.73600482440619
  0
LINE
  8
_0-3_A0
  6
CONTINUOUS
 62
    7
 10
135.83110172303869
 20
232.32785202246481
 11
130.6534680873537
 21
227.15021838678029
  0
LINE
  8
_0-3_A0
  6
CONTINUOUS
 62
    7
 10
134.20139170913569
 20
232.11235556952391
 11
130.868964540293
 21
228.77992840067949
  0
ENDBLK
  0
BLOCK
  2
-028-_X27
 70
   64
 10
0
 20
0
 30
0
  0
LINE
  8
_0-3_A0
  6
CONTINUOUS
 62
    7
 10
297.91743567576781
 20
151.2778520228704
 11
300.41743567577702
 21
148.7778520228588
  0
LINE
  8
_0-3_A0
  6
CONTINUOUS
 62
    7
 10
297.91743567577168
 20
149.86363846049249
 11
299.00322211340397
 21
148.7778520228592
  0
LINE
  8
_0-3_A0
  6
CONTINUOUS
 62
    7
 10
297.91743567576162
 20
152.69206558525038
 11
301.83164923814922
 21
148.77785202285929
  0
LINE
  8
_0-3_A0
  6
CONTINUOUS
 62
    7
 10
298.49586280073708
 20
153.5278520226486
 11
302.91743567577452
 21
149.10627914760689
  0
LINE
  8
_0-3_A0
  6
CONTINUOUS
 62
    7
 10
299.91007636310388
 20
153.52785202265451
 11
302.91743567577088
 21
150.5204927099848
  0
LINE
  8
_0-3_A0
  6
CONTINUOUS
 62
    7
 10
301.32428992547119
 20
153.52785202266011
 11
302.91743567576452
 21
151.93470627236519
  0
LINE
  8
_0-3_A0
  6
CONTINUOUS
 62
    7
 10
302.73850348783901
 20
153.5278520226644
 11
302.91743567575832
 21
153.34891983474508
  0
ENDBLK
  0
BLOCK
  2
-029-_X28
 70
   64
 10
0
 20
0
 30
0
  0
LINE
  8
_0-3_A0
  6
CONTINUOUS
 62
    7
 10
297.91743567545728
 20
230.07785202285259
 11
300.4174356754666
 21
227.57785202284111
  0
LINE
  8
_0-3_A0
  6
CONTINUOUS
 62
    7
 10
297.91743567546131
 20
228.6636384604748
 11
299.00322211309372
 21
227.57785202284151
  0
LINE
  8
_0-3_A0
  6
CONTINUOUS
 62
    7
 10
297.9174356754512
 20
231.4920655852326
 11
301.8316492378388
 21
227.57785202284159
  0
LINE
  8
_0-3_A0
  6
CONTINUOUS
 62
    7
 10
298.49586280042677
 20
232.32785202263079
 11
302.91743567546421
 21
227.90627914758908
  0
LINE
  8
_0-3_A0
  6
CONTINUOUS
 62
    7
 10
299.9100763627934
 20
232.32785202263679
 11
302.91743567546029
 21
229.32049270996699
  0
LINE
  8
_0-3_A0
  6
CONTINUOUS
 62
    7
 10
301.32428992516059
 20
232.32785202264258
 11
302.91743567545421
 21
230.73470627234749
  0
LINE
  8
_0-3_A0
  6
CONTINUOUS
 62
    7
 10
302.73850348752847
 20
232.3278520226467
 11
302.91743567544779
 21
232.1489198347275
  0
ENDBLK
  0
BLOCK
  2
-030-_X29
 70
   64
 10
0
 20
0
 30
0
  0
LINE
  8
_0-3_A0
  6
CONTINUOUS
 62
    7
 10
130.4034680869976
 20
76.936972415774491
 11
132.903468087008
 21
79.436972415784893
  0
LINE
  8
_0-3_A0
  6
CONTINUOUS
 62
    7
 10
130.40346808700209
 20
78.351185978152358
 11
131.4892545246349
 21
79.436972415785163
  0
LINE
  8
_0-3_A0
  6
CONTINUOUS
 62
    7
 10
130.40346808699069
 20
75.52275885339452
 11
134.3176816493802
 21
79.43697241578377
  0
LINE
  8
_0-3_A0
  6
CONTINUOUS
 62
    7
 10
130.9818952119659
 20
74.686972415996166
 11
135.40346808700519
 21
79.108545291035781
  0
LINE
  8
_0-3_A0
  6
CONTINUOUS
 62
    7
 10
132.3961087743327
 20
74.686972415989515
 11
135.40346808700098
 21
77.694331728657871
  0
LINE
  8
_0-3_A0
  6
CONTINUOUS
 62
    7
 10
133.81032233669989
 20
74.686972415983234
 11
135.40346808699391
 21
76.280118166277503
  0
LINE
  8
_0-3_A0
  6
CONTINUOUS
 62
    7
 10
135.22453589906768
 20
74.686972415978232
 11
135.40346808698708
 21
74.865904603897377
  0
ENDBLK
  0
BLOCK
  2
-031-_X30
 70
   64
 10
0
 20
0
 30
0
  0
LINE
  8
_0-3_A0
  6
CONTINUOUS
 62
    7
 10
221.40346808736879
 20
76.936972415752492
 11
223.90346808737919
 21
79.436972415762923
  0
LINE
  8
_0-3_A0
  6
CONTINUOUS
 62
    7
 10
221.40346808737331
 20
78.351185978130374
 11
222.48925452500608
 21
79.436972415763193
  0
LINE
  8
_0-3_A0
  6
CONTINUOUS
 62
    7
 10
221.40346808736188
 20
75.522758853372522
 11
225.31768164975139
 21
79.436972415761772
  0
LINE
  8
_0-3_A0
  6
CONTINUOUS
 62
    7
 10
221.98189521233709
 20
74.686972415974182
 11
226.40346808737649
 21
79.108545291013811
  0
LINE
  8
_0-3_A0
  6
CONTINUOUS
 62
    7
 10
223.39610877470389
 20
74.686972415967531
 11
226.4034680873722
 21
77.694331728635873
  0
LINE
  8
_0-3_A0
  6
CONTINUOUS
 62
    7
 10
224.81032233707119
 20
74.686972415961221
 11
226.40346808736521
 21
76.280118166255476
  0
LINE
  8
_0-3_A0
  6
CONTINUOUS
 62
    7
 10
226.2245358994389
 20
74.686972415956233
 11
226.4034680873583
 21
74.865904603875392
  0
ENDBLK
  0
BLOCK
  2
-032-_U31
 70
   64
 10
0
 20
0
 30
0
  0
TEXT
  8
_0-1_H0
 62
    7
 10
57.205600116729726
 20
283.66300002574922
 40
1.673999948501587
 41
1
 50
0
  1
技連番号
  0
ENDBLK
  0
BLOCK
  2
-033-_U32
 70
   64
 10
0
 20
0
 30
0
  0
TEXT
  8
_0-1_H0
 62
    7
 10
68.976200123786924
 20
283.58550002813342
 40
1.8289999437332149
 41
1
 50
0
  1
年 月 日
  0
ENDBLK
  0
BLOCK
  2
-034-_U33
 70
   64
 10
0
 20
0
 30
0
  0
TEXT
  8
_0-1_H0
 62
    7
 10
80.602666740417475
 20
283.60100002765659
 40
1.797999944686889
 41
1
 50
0
  1
担 当
  0
ENDBLK
  0
BLOCK
  2
-035-_U34
 70
   64
 10
0
 20
0
 30
0
  0
TEXT
  8
_0-1_H0
 62
    7
 10
15.850666732788079
 20
283.4925000309945
 40
2.0149999380111691
 41
1
 50
0
  1
記号
  0
ENDBLK
  0
BLOCK
  2
-036-_U35
 70
   64
 10
0
 20
0
 30
0
  0
TEXT
  8
_0-1_H0
 62
    7
 10
29.805666918754578
 20
283.4925000309945
 40
2.0149999380111691
 41
1
 50
0
  1
変　更　履　歴
  0
ENDBLK
  0
BLOCK
  2
-037-_U36
 70
   64
 10
0
 20
0
 30
0
  0
TEXT
  8
_0-1_H0
 62
    7
 10
17.199999999999999
 20
273.93817062273467
 40
1.6639999389648429
 41
1
 50
0
  1
B
  0
ENDBLK
  0
BLOCK
  2
-038-_U37
 70
   64
 10
0
 20
0
 30
0
  0
TEXT
  8
_0-1_H0
 62
    7
 10
17.199999999999999
 20
278.43817062273467
 40
1.6639999389648429
 41
1
 50
0
  1
A
  0
ENDBLK
  0
BLOCK
  2
-039-_U38
 70
   64
 10
0
 20
0
 30
0
  0
TEXT
  8
_0-1_H0
 62
    7
 10
17.199999999999999
 20
269.43800003051762
 40
1.6639999389648429
 41
1
 50
0
  1
C
  0
ENDBLK
  0
BLOCK
  2
-040-_U39
 70
   64
 10
0
 20
0
 30
0
  0
TEXT
  8
_0-1_H0
 62
    7
 10
17.199999999999999
 20
264.93800003051762
 40
1.6639999389648429
 41
1
 50
0
  1
D
  0
ENDBLK
  0
BLOCK
  2
-041-_U40
 70
   64
 10
0
 20
0
 30
0
  0
TEXT
  8
_0-1_H0
 62
    7
 10
17.199999999999999
 20
260.43800003051762
 40
1.6639999389648429
 41
1
 50
0
  1
E
  0
ENDBLK
  0
BLOCK
  2
-042-_U41
 70
   64
 10
0
 20
0
 30
0
  0
TEXT
  8
_0-1_H0
 62
    7
 10
336.80999999046309
 20
32.409999895095801
 40
3.0999999046325679
 41
1
 50
0
  1
型名
  0
ENDBLK
  0
BLOCK
  2
-043-_U42
 70
   64
 10
0
 20
0
 30
0
  0
TEXT
  8
_0-1_H0
 62
    7
 10
336.80999999046309
 20
23.806666564941398
 40
3.0999999046325679
 41
1
 50
0
  1
図番
  0
ENDBLK
  0
BLOCK
  2
-044-_U43
 70
   64
 10
0
 20
0
 30
0
  0
TEXT
  8
_0-1_H0
 62
    7
 10
262.06666666666671
 20
34.499999999999971
 40
4
 41
1
 50
0
  1
型　　名
  0
ENDBLK
  0
BLOCK
  2
-045-_U44
 70
   64
 10
0
 20
0
 30
0
  0
TEXT
  8
_0-1_H0
 62
    7
 10
294.79999999999989
 20
34.499999999999971
 40
4
 41
1
 50
0
  1
製品コード
  0
ENDBLK
  0
BLOCK
  2
-046-_U45
 70
   64
 10
0
 20
0
 30
0
  0
TEXT
  8
_0-1_H0
 62
    7
 10
351.25
 20
17.71
 40
5.58
 41
1
 50
0
  1
１０９２２５７
  0
ENDBLK
  0
BLOCK
  2
-047-_U46
 70
   64
 10
0
 20
0
 30
0
  0
TEXT
  8
_0-1_H0
 62
    7
 10
351.01600000000001
 20
10.71
 40
5.58
 41
1
 50
0
  1
製 品 姿 図
  0
ENDBLK
  0
BLOCK
  2
-048-_U47
 70
   64
 10
0
 20
0
 30
0
  0
TEXT
  8
_0-1_H0
 62
    7
 10
336.80999999046309
 20
16.806666564941398
 40
3.0999999046325679
 41
1
 50
0
  1
図名
  0
ENDBLK
  0
BLOCK
  2
-049-_U48
 70
   64
 10
0
 20
0
 30
0
  0
TEXT
  8
_0-1_H0
 62
    7
 10
400.0200000047684
 20
17.240000081062309
 40
2.2000000476837149
 41
1
 50
0
  1
変更歴
  0
ENDBLK
  0
BLOCK
  2
-050-_U49
 70
   64
 10
0
 20
0
 30
0
  0
TEXT
  8
_0-1_H0
 62
    7
 10
340.99999999989341
 20
28.299999999999979
 40
4.6500000000000003
 41
1
 50
0
  1
FAN-17KSH
  0
ENDBLK
  0
BLOCK
  2
-051-_U50
 70
   64
 10
0
 20
0
 30
0
  0
TEXT
  8
_0-1_H0
 62
    7
 10
340.61146667850749
 20
24.299999999999979
 40
2.913999910354613
 41
1
 50
0
  1
ワンド株式会社殿向け 平型用別売角排気口
  0
ENDBLK
  0
BLOCK
  2
-052-_U51
 70
   64
 10
0
 20
0
 30
0
  0
TEXT
  8
_0-1_H0
 62
    7
 10
308.0496000843749
 20
31.4080000186668
 40
2.183999962806701
 41
1
 50
0
  1
変更承認
  0
ENDBLK
  0
BLOCK
  2
-053-_U52
 70
   64
 10
0
 20
0
 30
0
  0
TEXT
  8
_0-1_H0
 62
    7
 10
295.4328000608192
 20
31.40800001866679
 40
2.183999962806701
 41
1
 50
0
  1
製　図
  0
ENDBLK
  0
BLOCK
  2
-054-_U53
 70
   64
 10
0
 20
0
 30
0
  0
TEXT
  8
_0-1_H0
 62
    7
 10
280.7533334057237
 20
31.226000021766239
 40
2.5479999566078181
 41
1
 50
0
  1
設　計
  0
ENDBLK
  0
BLOCK
  2
-055-_U54
 70
   64
 10
0
 20
0
 30
0
  0
TEXT
  8
_0-1_H0
 62
    7
 10
266.7533334057237
 20
31.226000021766239
 40
2.5479999566078181
 41
1
 50
0
  1
照　査
  0
ENDBLK
  0
BLOCK
  2
-056-_U55
 70
   64
 10
0
 20
0
 30
0
  0
TEXT
  8
_0-1_H0
 62
    7
 10
252.7533334057237
 20
31.226000021766239
 40
2.5479999566078181
 41
1
 50
0
  1
承　認
  0
ENDBLK
  0
BLOCK
  2
-057-_U56
 70
   64
 10
0
 20
0
 30
0
  0
TEXT
  8
_0-1_H0
 62
    7
 10
322.0496000843749
 20
31.4080000186668
 40
2.183999962806701
 41
1
 50
0
  1
変更照査
  0
ENDBLK
  0
BLOCK
  2
-058-_U57
 70
   64
 10
0
 20
0
 30
0
  0
TEXT
  8
_0-1_H0
 62
    7
 10
307.3999999999998
 20
11.82
 40
3.3599999999999989
 41
1
 50
0
  1
三角法
  0
ENDBLK
  0
BLOCK
  2
-059-_U58
 70
   64
 10
0
 20
0
 30
0
  0
TEXT
  8
_0-1_H0
 62
    7
 10
322.00999999046308
 20
16.906666564941378
 40
3.0999999046325679
 41
1
 50
0
  1
尺度
  0
ENDBLK
  0
BLOCK
  2
-060-_U59
 70
   64
 10
0
 20
0
 30
0
  0
TEXT
  8
_0-1_H0
 62
    7
 10
331.93333333333328
 20
34.5
 40
4
 41
1
 50
0
  1
色　　調
  0
ENDBLK
  0
BLOCK
  2
-061-_U60
 70
   64
 10
0
 20
0
 30
0
  0
TEXT
  8
_0-1_H0
 62
    7
 10
392.58533333333332
 20
34.840000000000003
 40
3.3199999999999989
 41
1
 50
0
  1
区分No.
  0
ENDBLK
  0
BLOCK
  2
-062-_U61
 70
   64
 10
0
 20
0
 30
0
  0
TEXT
  8
_0-1_H0
 62
    7
 10
287.20266666658352
 20
277.72000000000002
 40
3.56
 41
1
 50
0
  1
品番
  0
ENDBLK
  0
BLOCK
  2
-063-_U62
 70
   64
 10
0
 20
0
 30
0
  0
TEXT
  8
_0-1_H0
 62
    7
 10
300.28133333325007
 20
277.66000000000002
 40
3.6800000000000001
 41
1
 50
0
  1
部 品 名
  0
ENDBLK
  0
BLOCK
  2
-064-_U63
 70
   64
 10
0
 20
0
 30
0
  0
TEXT
  8
_0-1_H0
 62
    7
 10
327.49487271660012
 20
277.66000000000002
 40
3.6800000000000001
 41
1
 50
0
  1
材   質
  0
ENDBLK
  0
BLOCK
  2
-065-_U64
 70
   64
 10
0
 20
0
 30
0
  0
TEXT
  8
_0-1_H0
 62
    7
 10
351.5199999999167
 20
277.63999999999998
 40
3.7200000000000001
 41
1
 50
0
  1
表 面 処 理
  0
ENDBLK
  0
BLOCK
  2
-066-_U65
 70
   64
 10
0
 20
0
 30
0
  0
TEXT
  8
_0-1_H0
 62
    7
 10
387.06266666658342
 20
277.66000000000002
 40
3.6800000000000001
 41
1
 50
0
  1
色   調
  0
ENDBLK
  0
BLOCK
  2
-067-_U66
 70
   64
 10
0
 20
0
 30
0
  0
TEXT
  8
_0-1_H0
 62
    7
 10
290.02666666658342
 20
268.04000000000002
 40
2.919999999999999
 41
1
 50
0
  1
2
  0
ENDBLK
  0
BLOCK
  2
-068-_U67
 70
   64
 10
0
 20
0
 30
0
  0
TEXT
  8
_0-1_H0
 62
    7
 10
290.5133333332501
 20
273.0399999999999
 40
2.919999999999999
 41
1
 50
0
  1
1
  0
ENDBLK
  0
BLOCK
  2
-069-_U68
 70
   64
 10
0
 20
0
 30
0
  0
TEXT
  8
_0-1_H0
 62
    7
 10
315.9506666665834
 20
283.02000000000009
 40
2.959999999999999
 41
1
 50
0
  1
主    要    部    品    一    覧    表
  0
ENDBLK
  0
BLOCK
  2
-070-_U69
 70
   64
 10
0
 20
0
 30
0
  0
TEXT
  8
_0-1_H0
 62
    7
 10
298.18875586281319
 20
273.115
 40
3.185
 41
1
 50
0
  1
排気口
  0
ENDBLK
  0
BLOCK
  2
-071-_U70
 70
   64
 10
0
 20
0
 30
0
  0
TEXT
  8
_0-1_H0
 62
    7
 10
298.16899999991682
 20
267.8725
 40
3.2549999999999998
 41
1
 50
0
  1
シャッタ－
  0
ENDBLK
  0
BLOCK
  2
-072-_U71
 70
   64
 10
0
 20
0
 30
0
  0
TEXT
  8
_0-1_H0
 62
    7
 10
323.21456371852332
 20
273.53500000000002
 40
2.7650000000000001
 41
1
 50
0
  1
亜鉛めっき鋼板
  0
ENDBLK
  0
BLOCK
  2
-073-_U72
 70
   64
 10
0
 20
0
 30
0
  0
TEXT
  8
_0-1_H0
 62
    7
 10
323.21456371852332
 20
268.53500000000002
 40
2.7650000000000001
 41
1
 50
0
  1
アルミニウム
  0
ENDBLK
  0
BLOCK
  2
-074-_U73
 70
   64
 10
0
 20
0
 30
0
  0
TEXT
  8
_0-1_H0
 62
    7
 10
222.3119999998064
 20
275.63499999999771
 40
2.729999999999999
 41
1
 50
0
  1
付 属 品
  0
ENDBLK
  0
BLOCK
  2
-075-_U74
 70
   64
 10
0
 20
0
 30
0
  0
TEXT
  8
_0-1_H0
 62
    7
 10
249.57509940592748
 20
268.55339100793531
 40
2.7650000000000001
 41
1
 50
0
  1
１個
  0
ENDBLK
  0
BLOCK
  2
-076-_U75
 70
   64
 10
0
 20
0
 30
0
  0
TEXT
  8
_0-1_H0
 62
    7
 10
200.03570446107059
 20
268.30979682692958
 40
2.7650000000000001
 41
1
 50
0
  1
ソフトテープ
  0
ENDBLK
  0
BLOCK
  2
-077-_U76
 70
   64
 10
0
 20
0
 30
0
  0
TEXT
  8
_0-1_H0
 62
    7
 10
21.030986958860431
 20
26.176886197704888
 40
3.7000000000000001
 41
1
 50
0
  1
注）１．
  0
ENDBLK
  0
BLOCK
  2
-078-_U77
 70
   64
 10
0
 20
0
 30
0
  0
TEXT
  8
_0-1_H0
 62
    7
 10
41.030986958860431
 20
25.176886197704888
 40
4.6999999999999992
 41
1
 50
0
  1
本製品はＦＡＮ－１Ｅ用用角排気口である。
  0
ENDBLK
  0
BLOCK
  2
-079-_U78
 70
   64
 10
0
 20
0
 30
0
  0
TEXT
  8
_0-1_H0
 62
    7
 10
41.030986958860431
 20
17.176886197704888
 40
4.6999999999999992
 41
1
 50
0
  1
排気口の取付はレンジフード側に付属されている取付金具を使用の事。
  0
ENDBLK
  0
BLOCK
  2
-080-_U79
 70
   64
 10
0
 20
0
 30
0
  0
TEXT
  8
_0-1_H0
 62
    7
 10
21.030986958860431
 20
18.176886197704888
 40
3.7000000000000001
 41
1
 50
0
  1
　　２．
  0
ENDBLK
  0
BLOCK
  2
-081-_U80
 70
   64
 10
0
 20
0
 30
0
  0
TEXT
  8
_0-1_H0
 62
    7
 10
295.90390862944161
 20
25.859010152284259
 40
2.4300000000000001
 41
1
 50
0
  1
篠原
  0
ENDBLK
  0
BLOCK
  2
-082-_U81
 70
   64
 10
0
 20
0
 30
0
  0
TEXT
  8
_0-1_H0
 62
    7
 10
293.28267014812689
 20
19.68068021699862
 40
1.7639999699592578
 41
1
 50
0
  1
2023/03/29
  0
ENDBLK
  0
BLOCK
  2
-083-_U82
 70
   64
 10
0
 20
0
 30
0
  0
TEXT
  8
_0-1_H0
 62
    7
 10
281.90390862944161
 20
25.859010152284259
 40
2.4300000000000001
 41
1
 50
0
  1
篠原
  0
ENDBLK
  0
BLOCK
  2
-084-_U83
 70
   64
 10
0
 20
0
 30
0
  0
TEXT
  8
_0-1_H0
 62
    7
 10
279.28267014812701
 20
19.68068021699862
 40
1.7639999699592578
 41
1
 50
0
  1
2023/03/29
  0
ENDBLK
  0
BLOCK
  2
-085-_U84
 70
   64
 10
0
 20
0
 30
0
  0
TEXT
  8
_0-1_H0
 62
    7
 10
251
 20
40.039999999999999
 40
2.919999999999999
 41
1
 50
0
  1
FAN-17KSH
  0
ENDBLK
  0
BLOCK
  2
-086-_U85
 70
   64
 10
0
 20
0
 30
0
  0
TEXT
  8
_0-1_H0
 62
    7
 10
295.53666666666669
 20
40.039999999999999
 40
2.919999999999999
 41
1
 50
0
  1
109WL400
  0
ENDBLK
  0
BLOCK
  2
-087-_U86
 70
   64
 10
0
 20
0
 30
0
  0
TEXT
  8
_0-1_H0
 62
    7
 10
399.02666666666681
 20
40.039999999999999
 40
2.919999999999999
 41
1
 50
0
  1
-
  0
ENDBLK
  0
BLOCK
  2
-088-_U87
 70
   64
 10
0
 20
0
 30
0
  0
TEXT
  8
_0-1_H0
 62
    7
 10
340.02666666666669
 20
40.039999999999956
 40
2.919999999999999
 41
1
 50
0
  1
-
  0
ENDBLK
  0
ENDSEC
  0
SECTION
  2
ENTITIES
  0
LINE
  8
_0-1_H0
  6
CONTINUOUS
 62
    3
 10
407.5
 20
287.12000004053106
 11
12.5
 21
287.12000004053106
  0
LINE
  8
_0-1_H0
  6
CONTINUOUS
 62
    3
 10
12.5
 20
287.12000004053106
 11
12.5
 21
10.120000040531095
  0
LINE
  8
_0-1_H0
  6
CONTINUOUS
 62
    3
 10
84.5
 20
282.12000004053106
 11
12.5
 21
282.12000004053106
  0
LINE
  8
_0-1_H0
  6
CONTINUOUS
 62
    3
 10
53.5
 20
287.12000004053106
 11
53.5
 21
259.62000004053106
  0
LINE
  8
_0-1_H0
  6
CONTINUOUS
 62
    3
 10
84.5
 20
277.62000004053106
 11
12.5
 21
277.62000004053106
  0
LINE
  8
_0-1_H0
  6
CONTINUOUS
 62
    3
 10
84.5
 20
268.62000004053106
 11
12.5
 21
268.62000004053106
  0
LINE
  8
_0-1_H0
  6
CONTINUOUS
 62
    3
 10
84.5
 20
264.12000004053106
 11
12.5
 21
264.12000004053106
  0
LINE
  8
_0-1_H0
  6
CONTINUOUS
 62
    3
 10
84.5
 20
259.62000004053106
 11
12.5
 21
259.62000004053106
  0
INSERT
  2
-032-_U31
  8
_0-0_0
 10
-2.5
 20
0.1200000405310959
 41
1
 42
1
 50
0
  0
INSERT
  2
-033-_U32
  8
_0-0_0
 10
-2.5
 20
0.1200000405310959
 41
1
 42
1
 50
0
  0
INSERT
  2
-034-_U33
  8
_0-0_0
 10
-2.5
 20
0.1200000405310959
 41
1
 42
1
 50
0
  0
LINE
  8
_0-1_H0
  6
CONTINUOUS
 62
    3
 10
12.5
 20
273.12000004053106
 11
84.5
 21
273.12000004053106
  0
LINE
  8
_0-1_H0
  6
CONTINUOUS
 62
    3
 10
18.5
 20
287.12000004053106
 11
18.5
 21
259.62000004053106
  0
INSERT
  2
-035-_U34
  8
_0-0_0
 10
-2.5
 20
0.1200000405310959
 41
1
 42
1
 50
0
  0
INSERT
  2
-036-_U35
  8
_0-0_0
 10
-2.5
 20
0.1200000405310959
 41
1
 42
1
 50
0
  0
LINE
  8
_0-1_H0
  6
CONTINUOUS
 62
    3
 10
63.5
 20
287.12000004053106
 11
63.5
 21
259.62000004053106
  0
LINE
  8
_0-1_H0
  6
CONTINUOUS
 62
    3
 10
13.299999999999954
 20
264.52000004053104
 11
17.69999999999996
 21
264.52000004053104
  0
LINE
  8
_0-1_H0
  6
CONTINUOUS
 62
    3
 10
17.699999999999931
 20
264.52000004053104
 11
15.499999999999914
 21
268.33051181718235
  0
LINE
  8
_0-1_H0
  6
CONTINUOUS
 62
    3
 10
15.499999999999943
 20
268.33051181718246
 11
13.299999999999954
 21
264.52000004053104
  0
LINE
  8
_0-1_H0
  6
CONTINUOUS
 62
    3
 10
13.299999999999954
 20
269.02000004053104
 11
17.69999999999996
 21
269.02000004053104
  0
LINE
  8
_0-1_H0
  6
CONTINUOUS
 62
    3
 10
17.69999999999996
 20
269.02000004053115
 11
15.499999999999971
 21
272.83051181718246
  0
LINE
  8
_0-1_H0
  6
CONTINUOUS
 62
    3
 10
15.499999999999943
 20
272.83051181718235
 11
13.299999999999954
 21
269.02000004053104
  0
LINE
  8
_0-1_H0
  6
CONTINUOUS
 62
    3
 10
13.299999999999954
 20
273.52000004053104
 11
17.69999999999996
 21
273.52000004053104
  0
LINE
  8
_0-1_H0
  6
CONTINUOUS
 62
    3
 10
17.69999999999996
 20
273.52000004053104
 11
15.499999999999943
 21
277.33051181718246
  0
LINE
  8
_0-1_H0
  6
CONTINUOUS
 62
    3
 10
15.499999999999971
 20
277.33051181718246
 11
13.299999999999954
 21
273.52000004053104
  0
INSERT
  2
-037-_U36
  8
_0-0_0
 10
-2.5
 20
0.1200000405310959
 41
1
 42
1
 50
0
  0
LINE
  8
_0-1_H0
  6
CONTINUOUS
 62
    3
 10
13.299999999999954
 20
278.02000004053104
 11
17.69999999999996
 21
278.02000004053104
  0
LINE
  8
_0-1_H0
  6
CONTINUOUS
 62
    3
 10
17.69999999999996
 20
278.02000004053115
 11
15.499999999999943
 21
281.83051181718246
  0
LINE
  8
_0-1_H0
  6
CONTINUOUS
 62
    3
 10
15.499999999999943
 20
281.83051181718246
 11
13.299999999999926
 21
278.02000004053115
  0
INSERT
  2
-038-_U37
  8
_0-0_0
 10
-2.5
 20
0.1200000405310959
 41
1
 42
1
 50
0
  0
LINE
  8
_0-1_H0
  6
CONTINUOUS
 62
    3
 10
76.5
 20
287.12000004053106
 11
76.5
 21
259.62000004053106
  0
LINE
  8
_0-1_H0
  6
CONTINUOUS
 62
    3
 10
84.5
 20
287.12000004053106
 11
84.5
 21
259.62000004053106
  0
LINE
  8
_0-1_H0
  6
CONTINUOUS
 62
    3
 10
15.499999999999943
 20
263.83051181718235
 11
13.299999999999982
 21
260.02000004053104
  0
LINE
  8
_0-1_H0
  6
CONTINUOUS
 62
    3
 10
17.699999999999931
 20
260.02000004053104
 11
15.499999999999914
 21
263.83051181718235
  0
LINE
  8
_0-1_H0
  6
CONTINUOUS
 62
    3
 10
13.299999999999954
 20
260.02000004053104
 11
17.69999999999996
 21
260.02000004053104
  0
INSERT
  2
-039-_U38
  8
_0-0_0
 10
-2.5
 20
0.1200000405310959
 41
1
 42
1
 50
0
  0
INSERT
  2
-040-_U39
  8
_0-0_0
 10
-2.5
 20
0.1200000405310959
 41
1
 42
1
 50
0
  0
INSERT
  2
-041-_U40
  8
_0-0_0
 10
-2.5
 20
0.1200000405310959
 41
1
 42
1
 50
0
  0
LINE
  8
_0-1_H0
  6
CONTINUOUS
 62
    3
 10
247.5
 20
34.120000040531095
 11
407.49999999999977
 21
34.120000040531095
  0
LINE
  8
_0-1_H0
  6
CONTINUOUS
 62
    3
 10
336.49999999999988
 20
34.120000040531067
 11
336.49999999999988
 21
10.120000040531095
  0
LINE
  8
_0-1_H0
  6
CONTINUOUS
 62
    3
 10
331.49999999999988
 20
34.120000040531067
 11
331.49999999999988
 21
10.120000040531095
  0
LINE
  8
_0-1_H0
  6
CONTINUOUS
 62
    3
 10
247.5
 20
39.120000040531095
 11
407.49999999999977
 21
39.120000040531095
  0
LINE
  8
_0-1_H0
  6
CONTINUOUS
 62
    3
 10
247.5
 20
44.120000040531095
 11
407.49999999999977
 21
44.120000040531095
  0
LINE
  8
_0-1_H0
  6
CONTINUOUS
 62
    3
 10
247.5
 20
44.120000040531095
 11
247.5
 21
39.120000040531095
  0
LINE
  8
_0-1_H0
  6
CONTINUOUS
 62
    3
 10
289.49999999999988
 20
44.120000040531067
 11
289.49999999999988
 21
39.120000040531067
  0
LINE
  8
_0-1_H0
  6
CONTINUOUS
 62
    3
 10
289.49999999999988
 20
39.120000040531067
 11
289.49999999999988
 21
34.120000040531067
  0
INSERT
  2
-042-_U41
  8
_0-0_0
 10
-2.5
 20
0.1200000405310959
 41
1
 42
1
 50
0
  0
INSERT
  2
-043-_U42
  8
_0-0_0
 10
-2.5
 20
0.1200000405310959
 41
1
 42
1
 50
0
  0
INSERT
  2
-044-_U43
  8
_0-0_0
 10
-2.5
 20
0.1200000405310959
 41
1
 42
1
 50
0
  0
INSERT
  2
-045-_U44
  8
_0-0_0
 10
-2.5
 20
0.1200000405310959
 41
1
 42
1
 50
0
  0
INSERT
  2
-046-_U45
  8
_0-0_0
 10
-2.5
 20
0.1200000405310959
 41
1
 42
1
 50
0
  0
INSERT
  2
-047-_U46
  8
_0-0_0
 10
-2.5
 20
0.1200000405310959
 41
1
 42
1
 50
0
  0
INSERT
  2
-048-_U47
  8
_0-0_0
 10
-2.5
 20
0.1200000405310959
 41
1
 42
1
 50
0
  0
LINE
  8
_0-1_H0
  6
CONTINUOUS
 62
    3
 10
247.49999999999988
 20
17.120000040531095
 11
407.5
 21
17.120000040531095
  0
LINE
  8
_0-1_H0
  6
CONTINUOUS
 62
    3
 10
331.49999999999988
 20
24.120000040531095
 11
407.5
 21
24.120000040531095
  0
LINE
  8
_0-1_H0
  6
CONTINUOUS
 62
    3
 10
395.5
 20
10.120000040531095
 11
395.5
 21
17.120000040531095
  0
INSERT
  2
-049-_U48
  8
_0-0_0
 10
-2.5
 20
0.1200000405310959
 41
1
 42
1
 50
0
  0
LINE
  8
_0-1_H0
  6
CONTINUOUS
 62
    3
 10
399.5
 20
10.120000040531095
 11
399.5
 21
17.120000040531095
  0
INSERT
  2
-050-_U49
  8
_0-0_0
 10
-2.5
 20
0.1200000405310959
 41
1
 42
1
 50
0
  0
LINE
  8
_0-1_H0
  6
CONTINUOUS
 62
    3
 10
338.49999999999988
 20
28.120000040531095
 11
405.5
 21
28.120000040531095
  0
INSERT
  2
-051-_U50
  8
_0-0_0
 10
-2.5
 20
0.1200000405310959
 41
1
 42
1
 50
0
  0
LINE
  8
_0-1_H0
  6
CONTINUOUS
 62
    3
 10
317.49999999999988
 20
10.120000040531095
 11
317.49999999999988
 21
44.120000040531067
  0
LINE
  8
_0-1_H0
  6
CONTINUOUS
 62
    3
 10
303.49999999999988
 20
10.120000040531095
 11
303.49999999999988
 21
34.120000040531067
  0
LINE
  8
_0-1_H0
  6
CONTINUOUS
 62
    3
 10
289.49999999999988
 20
17.120000040531095
 11
289.49999999999988
 21
34.120000040531067
  0
LINE
  8
_0-1_H0
  6
CONTINUOUS
 62
    3
 10
275.49999999999988
 20
17.120000040531095
 11
275.49999999999988
 21
34.120000040531067
  0
LINE
  8
_0-1_H0
  6
CONTINUOUS
 62
    3
 10
261.5
 20
17.120000040531095
 11
261.5
 21
34.120000040531067
  0
INSERT
  2
-052-_U51
  8
_0-0_0
 10
-2.5
 20
0.1200000405310959
 41
1
 42
1
 50
0
  0
INSERT
  2
-053-_U52
  8
_0-0_0
 10
-2.5
 20
0.1200000405310959
 41
1
 42
1
 50
0
  0
INSERT
  2
-054-_U53
  8
_0-0_0
 10
-2.5
 20
0.1200000405310959
 41
1
 42
1
 50
0
  0
INSERT
  2
-055-_U54
  8
_0-0_0
 10
-2.5
 20
0.1200000405310959
 41
1
 42
1
 50
0
  0
INSERT
  2
-056-_U55
  8
_0-0_0
 10
-2.5
 20
0.1200000405310959
 41
1
 42
1
 50
0
  0
INSERT
  2
-057-_U56
  8
_0-0_0
 10
-2.5
 20
0.1200000405310959
 41
1
 42
1
 50
0
  0
LINE
  8
_0-1_H0
  6
CONTINUOUS
 62
    3
 10
247.49999999999988
 20
10.120000040531095
 11
247.49999999999988
 21
34.120000040531095
  0
LINE
  8
_0-1_H0
  6
CONTINUOUS
 62
    3
 10
247.49999999999988
 20
34.120000040531095
 11
247.49999999999988
 21
39.120000040531095
  0
LINE
  8
_0-1_H0
  6
CONTINUOUS
 62
    3
 10
247.49999999999988
 20
31.120000040531095
 11
331.49999999999988
 21
31.120000040531095
  0
INSERT
  2
-058-_U57
  8
_0-0_0
 10
-2.5
 20
0.1200000405310959
 41
1
 42
1
 50
0
  0
LINE
  8
_0-1_H0
  6
CONTINUOUS
 62
    3
 10
324.50000000000011
 20
11.620000040531181
 11
328.49999999999988
 21
15.62000004052814
  0
LINE
  8
_0-1_H0
  6
CONTINUOUS
 62
    3
 10
321.49999999999988
 20
10.120000040531095
 11
321.49999999999988
 21
17.120000040531095
  0
INSERT
  2
-059-_U58
  8
_0-0_0
 10
-2.5
 20
0.1200000405310959
 41
1
 42
1
 50
0
  0
INSERT
  2
-060-_U59
  8
_0-0_0
 10
-2.5
 20
0.1200000405310959
 41
1
 42
1
 50
0
  0
LINE
  8
_0-1_H0
  6
CONTINUOUS
 62
    3
 10
387.5
 20
34.120000040531095
 11
387.5
 21
44.120000040531095
  0
INSERT
  2
-061-_U60
  8
_0-0_0
 10
-2.5
 20
0.1200000405310959
 41
1
 42
1
 50
0
  0
LINE
  8
_0-1_H0
  6
CONTINUOUS
 62
    3
 10
359.5
 20
34.120000040531095
 11
359.5
 21
44.120000040531095
  0
LINE
  8
_0-1_H0
  6
CONTINUOUS
 62
    3
 10
407.5
 20
10.120000040531095
 11
407.5
 21
287.12000004053106
  0
LINE
  8
_0-1_H0
  6
CONTINUOUS
 62
    3
 10
12.5
 20
10.120000040531095
 11
407.5
 21
10.120000040531095
  0
LINE
  8
_0-1_H0
  6
CONTINUOUS
 62
    3
 10
407.499999999917
 20
277.12000004053106
 11
283.49999999991678
 21
277.12000004053106
  0
INSERT
  2
-062-_U61
  8
_0-0_0
 10
-2.5
 20
0.1200000405310959
 41
1
 42
1
 50
0
  0
INSERT
  2
-063-_U62
  8
_0-0_0
 10
-2.5
 20
0.1200000405310959
 41
1
 42
1
 50
0
  0
INSERT
  2
-064-_U63
  8
_0-0_0
 10
-2.5
 20
0.1200000405310959
 41
1
 42
1
 50
0
  0
INSERT
  2
-065-_U64
  8
_0-0_0
 10
-2.5
 20
0.1200000405310959
 41
1
 42
1
 50
0
  0
INSERT
  2
-066-_U65
  8
_0-0_0
 10
-2.5
 20
0.1200000405310959
 41
1
 42
1
 50
0
  0
INSERT
  2
-067-_U66
  8
_0-0_0
 10
-2.5
 20
0.1200000405310959
 41
1
 42
1
 50
0
  0
INSERT
  2
-068-_U67
  8
_0-0_0
 10
-2.5
 20
0.1200000405310959
 41
1
 42
1
 50
0
  0
INSERT
  2
-069-_U68
  8
_0-0_0
 10
-2.5
 20
0.1200000405310959
 41
1
 42
1
 50
0
  0
LINE
  8
_0-1_H0
  6
CONTINUOUS
 62
    3
 10
407.499999999917
 20
272.12000004053106
 11
283.49999999991678
 21
272.12000004053106
  0
LINE
  8
_0-1_H0
  6
CONTINUOUS
 62
    3
 10
283.49999999991678
 20
282.12000004053106
 11
407.499999999917
 21
282.12000004053106
  0
INSERT
  2
-070-_U69
  8
_0-0_0
 10
-2.5
 20
0.1200000405310959
 41
1
 42
1
 50
0
  0
INSERT
  2
-071-_U70
  8
_0-0_0
 10
-2.5
 20
0.1200000405310959
 41
1
 42
1
 50
0
  0
LINE
  8
_0-1_H0
  6
CONTINUOUS
 62
    3
 10
283.49999999991678
 20
267.12000004053106
 11
407.499999999917
 21
267.12000004053106
  0
LINE
  8
_0-1_H0
  6
CONTINUOUS
 62
    3
 10
293.49999999991678
 20
267.12000004053106
 11
293.49999999991678
 21
282.12000004053106
  0
LINE
  8
_0-1_H0
  6
CONTINUOUS
 62
    3
 10
319.49999999991678
 20
267.12000004053106
 11
319.49999999991678
 21
282.12000004053106
  0
INSERT
  2
-072-_U71
  8
_0-0_0
 10
-2.5
 20
0.1200000405310959
 41
1
 42
1
 50
0
  0
LINE
  8
_0-1_H0
  6
CONTINUOUS
 62
    3
 10
283.49999999977501
 20
287.12000004053118
 11
283.4999999997907
 21
267.12000004053106
  0
INSERT
  2
-073-_U72
  8
_0-0_0
 10
-2.5
 20
0.1200000405310959
 41
1
 42
1
 50
0
  0
LINE
  8
_0-1_H0
  6
CONTINUOUS
 62
    3
 10
376.79999999991667
 20
282.12000004053106
 11
376.79999999991667
 21
267.12000004053106
  0
LINE
  8
_0-1_H0
  6
CONTINUOUS
 62
    3
 10
344.79999999991667
 20
282.12000004053106
 11
344.79999999991667
 21
267.12000004053106
  0
INSERT
  2
-074-_U73
  8
_0-0_0
 10
-2.5
 20
0.1200000405310959
 41
1
 42
1
 50
0
  0
LINE
  8
_0-1_H0
  6
CONTINUOUS
 62
    3
 10
194.4999999998065
 20
277.12000004054084
 11
216.49999999980639
 21
277.12000004053254
  0
LINE
  8
_0-1_H0
  6
CONTINUOUS
 62
    3
 10
235.4999999998065
 20
277.12000004052526
 11
257.49999999980627
 21
277.12000004051674
  0
LINE
  8
_0-1_H0
  6
CONTINUOUS
 62
    3
 10
257.49999999978291
 20
262.12000004047774
 11
257.49999999980639
 21
277.12000004051208
  0
LINE
  8
_0-1_H0
  6
CONTINUOUS
 62
    3
 10
194.49999999978288
 20
262.12000004043397
 11
194.49999999980639
 21
277.12000004054561
  0
LINE
  8
_0-1_H0
  6
HIDDEN
 62
    3
 10
219.0866372000714
 20
269.81229686746394
 11
247.25668183078718
 21
269.81229686745325
  0
INSERT
  2
-075-_U74
  8
_0-0_0
 10
-2.5
 20
0.1200000405310959
 41
1
 42
1
 50
0
  0
INSERT
  2
-076-_U75
  8
_0-0_0
 10
-2.5
 20
0.1200000405310959
 41
1
 42
1
 50
0
  0
LINE
  8
_0-1_H0
  6
CONTINUOUS
 62
    3
 10
257.49999999977501
 20
262.12000004047774
 11
194.49999999977501
 21
262.12000004043409
  0
INSERT
  2
-077-_U76
  8
_0-0_0
 10
-2.5
 20
0.1200000405310959
 41
1
 42
1
 50
0
  0
INSERT
  2
-078-_U77
  8
_0-0_0
 10
-2.5
 20
0.1200000405310959
 41
1
 42
1
 50
0
  0
LINE
  8
_0-1_H0
  6
CONTINUOUS
 62
    3
 10
18.530986958860438
 20
23.996886238235987
 11
147.89393602675301
 21
23.996886238235987
  0
LINE
  8
_0-1_H0
  6
CONTINUOUS
 62
    3
 10
328.3203655324217
 20
12.807746008361249
 11
325.3946629400973
 21
15.733448600686017
  0
LINE
  8
_0-1_H0
  6
CONTINUOUS
 62
    3
 10
327.09494018319639
 20
11.582320659145835
 11
324.16923759088359
 21
14.508023251482086
  0
INSERT
  2
-079-_U78
  8
_0-0_0
 10
-2.5
 20
0.1200000405310959
 41
1
 42
1
 50
0
  0
LINE
  8
_0-1_H0
  6
CONTINUOUS
 62
    3
 10
27.32574286636742
 20
15.996886238235987
 11
215.83974103393791
 21
15.996886238235987
  0
INSERT
  2
-080-_U79
  8
_0-0_0
 10
-2.5
 20
0.1200000405310959
 41
1
 42
1
 50
0
  0
INSERT
  2
-081-_U80
  8
_0-0_0
 10
-2.5
 20
0.1200000405310959
 41
1
 42
1
 50
0
  0
INSERT
  2
-082-_U81
  8
_0-0_0
 10
-2.5
 20
0.1200000405310959
 41
1
 42
1
 50
0
  0
INSERT
  2
-083-_U82
  8
_0-0_0
 10
-2.5
 20
0.1200000405310959
 41
1
 42
1
 50
0
  0
INSERT
  2
-084-_U83
  8
_0-0_0
 10
-2.5
 20
0.1200000405310959
 41
1
 42
1
 50
0
  0
INSERT
  2
-085-_U84
  8
_0-0_0
 10
-2.5
 20
0.1200000405310959
 41
1
 42
1
 50
0
  0
INSERT
  2
-086-_U85
  8
_0-0_0
 10
-2.5
 20
0.1200000405310959
 41
1
 42
1
 50
0
  0
INSERT
  2
-087-_U86
  8
_0-0_0
 10
-2.5
 20
0.1200000405310959
 41
1
 42
1
 50
0
  0
INSERT
  2
-088-_U87
  8
_0-0_0
 10
-2.5
 20
0.1200000405310959
 41
1
 42
1
 50
0
  0
LINE
  8
_0-3_A0
  6
CONTINUOUS
 62
    3
 10
133.15346808735779
 20
153.89785206299939
 11
128.40346808735608
 21
153.8978520630028
  0
LINE
  8
_0-3_A0
  6
CONTINUOUS
 62
    3
 10
133.15346808735799
 20
203.6978520629994
 11
128.40346808735969
 21
203.69785206300269
  0
LINE
  8
_0-3_A0
  6
CONTINUOUS
 62
    3
 10
125.90346808735779
 20
156.3978520630028
 11
125.90346808735799
 21
201.19785206300278
  0
LINE
  8
_0-3_A0
  6
CONTINUOUS
 62
    3
 10
176.1534680873579
 20
99.556972456403897
 11
219.1534680873579
 21
99.55697245642726
  0
LINE
  8
_0-3_A0
  6
HIDDEN
 62
    3
 10
217.90346808735799
 20
81.956972456427351
 11
217.90346808735799
 21
77.15697245642724
  0
LINE
  8
_0-3_A0
  6
HIDDEN
 62
    3
 10
218.4534680873584
 20
82.306972456427828
 11
218.6534680873579
 21
82.306972456427672
  0
ARC
  8
_0-3_A0
  6
HIDDEN
 62
    3
 10
218.453468087358
 20
81.756972456427831
 40
0.55
 50
90
 51
180
  0
ARC
  8
_0-3_A0
  6
HIDDEN
 62
    3
 10
218.453468087358
 20
77.356972456427826
 40
0.55
 50
180
 51
270
  0
ARC
  8
_0-3_A0
  6
HIDDEN
 62
    3
 10
218.65346808735799
 20
82.556972456427644
 40
0.25
 50
270
 51
0
  0
ARC
  8
_0-3_A0
  6
HIDDEN
 62
    3
 10
218.65346808735318
 20
76.556972456427544
 40
0.25
 50
359.99999999991018
 51
89.999999999910187
  0
LINE
  8
_0-3_A0
  6
CONTINUOUS
 62
    3
 10
219.15346808735799
 20
99.55697245642726
 11
219.15346808735799
 21
74.805326295377753
  0
LINE
  8
_0-3_A0
  6
HIDDEN
 62
    3
 10
218.90346808735799
 20
74.80697245642726
 11
218.90346808735799
 21
99.55697245642726
  0
LINE
  8
_0-3_A0
  6
CONTINUOUS
 62
    3
 10
300.66743567579129
 20
153.89785206319788
 11
300.6674356760314
 21
203.69785206285249
  0
LINE
  8
_0-3_A0
  6
CONTINUOUS
 62
    3
 10
143.40346808735779
 20
203.6978520629915
 11
133.40346808735799
 21
203.6978520629994
  0
LINE
  8
_0-3_A0
  6
CONTINUOUS
 62
    3
 10
300.41743567575298
 20
153.64785206319768
 11
300.41743567599951
 21
203.94785206319778
  0
LINE
  8
_0-3_A0
  6
CONTINUOUS
 62
    3
 10
143.40346808735799
 20
203.9478520629915
 11
133.40346808735799
 21
203.9478520629994
  0
LINE
  8
_0-3_A0
  6
CONTINUOUS
 62
    3
 10
275.66743567603259
 20
203.94785206318988
 11
300.41743567599951
 21
203.94785206319778
  0
LINE
  8
_0-3_A0
  6
CONTINUOUS
 62
    3
 10
275.66743567578618
 20
153.6478520631899
 11
300.41743567575809
 21
153.64785206319768
  0
LINE
  8
_0-3_A0
  6
CONTINUOUS
 62
    3
 10
219.1534680873579
 20
153.8978520629991
 11
223.90346808735969
 21
153.8978520630024
  0
LINE
  8
_0-3_A0
  6
CONTINUOUS
 62
    3
 10
219.15346808735799
 20
203.6978520629992
 11
223.90346808735628
 21
203.6978520630025
  0
LINE
  8
_0-3_A0
  6
CONTINUOUS
 62
    3
 10
226.40346808735779
 20
156.3978520630024
 11
226.40346808735799
 21
201.1978520630025
  0
LINE
  8
_0-3_A0
  6
CONTINUOUS
 62
    3
 10
176.15346808735799
 20
99.556972456403897
 11
133.15346808735799
 21
99.55697245642726
  0
LINE
  8
_0-3_A0
  6
CONTINUOUS
 62
    3
 10
217.9034680873579
 20
151.397852063018
 11
217.9034680873579
 21
153.6478520629991
  0
LINE
  8
_0-3_A0
  6
CONTINUOUS
 62
    3
 10
218.90346808735779
 20
153.8978520629991
 11
218.90346808735799
 21
203.69785206299908
  0
LINE
  8
_0-3_A0
  6
CONTINUOUS
 62
    3
 10
133.1534680873579
 20
99.55697245642726
 11
133.1534680873579
 21
74.805326295377753
  0
LINE
  8
_0-3_A0
  6
CONTINUOUS
 62
    3
 10
219.1534680873579
 20
153.8978520629991
 11
219.15346808735799
 21
203.69785206299908
  0
LINE
  8
_0-3_A0
  6
HIDDEN
 62
    3
 10
133.40346808738559
 20
74.80697245642726
 11
133.40346808738559
 21
99.55697245642726
  0
LINE
  8
_0-3_A0
  6
CONTINUOUS
 62
    3
 10
208.90346808735819
 20
203.6978520629913
 11
218.90346808735799
 21
203.69785206299908
  0
LINE
  8
_0-3_A0
  6
CONTINUOUS
 62
    3
 10
208.90346808735799
 20
203.9478520629913
 11
218.90346808735799
 21
203.9478520629992
  0
LINE
  8
_0-3_A0
  6
CONTINUOUS
 62
    3
 10
300.41743567599837
 20
203.6978520628524
 11
300.66743567603151
 21
203.69785206285249
  0
LINE
  8
_0-3_A0
  6
CONTINUOUS
 62
    3
 10
300.41743567575832
 20
153.89785206319768
 11
300.6674356757914
 21
153.89785206319788
  0
CIRCLE
  8
_0-3_A0
  6
CONTINUOUS
 62
    3
 10
295.66743567601321
 20
199.9478520631969
 40
1.55
  0
CIRCLE
  8
_0-3_A0
  6
CONTINUOUS
 62
    3
 10
295.66743567601321
 20
199.9478520631969
 40
2.5
  0
LINE
  8
_0-3_A0
  6
HIDDEN
 62
    3
 10
143.453468087358
 20
97.056972456423011
 11
143.453468087358
 21
77.30697245642726
  0
LINE
  8
_0-3_A0
  6
CONTINUOUS
 62
    3
 10
208.90346808735799
 20
203.6978520629913
 11
208.90346808735799
 21
203.9478520629913
  0
LINE
  8
_0-3_A0
  6
HIDDEN
 62
    3
 10
208.85346808735801
 20
97.056972456423011
 11
208.85346808735801
 21
77.30697245642726
  0
LINE
  8
_0-3_A0
  6
CONTINUOUS
 62
    3
 10
143.40346808735799
 20
203.6978520629915
 11
143.40346808735799
 21
203.9478520629915
  0
LINE
  8
_0-3_A0
  6
CONTINUOUS
 62
    3
 10
218.9034680873579
 20
153.8978520629991
 11
133.4034680873579
 21
153.8978520629993
  0
LINE
  8
_0-3_A0
  6
CONTINUOUS
 62
    3
 10
215.4034680873579
 20
148.897852063018
 11
136.90346808735779
 21
148.89785206301829
  0
ARC
  8
_0-3_A0
  6
CONTINUOUS
 62
    3
 10
133.4034680873579
 20
153.89785206299939
 40
0.25
 50
179.99999999999985
 51
269.99999999999977
  0
ARC
  8
_0-3_A0
  6
CONTINUOUS
 62
    3
 10
133.4034680873581
 20
203.6978520629994
 40
0.25
 50
89.999999999999829
 51
179.9999999999998
  0
ARC
  8
_0-3_A0
  6
CONTINUOUS
 62
    3
 10
218.9034680873579
 20
153.8978520629991
 40
0.25
 50
269.99999999999977
 51
359.99999999999977
  0
LINE
  8
_0-3_A0
  6
CONTINUOUS
 62
    3
 10
134.4034680873579
 20
197.74785206299918
 11
134.40346808735799
 21
202.1478520629993
  0
LINE
  8
_0-3_A0
  6
CONTINUOUS
 62
    3
 10
133.85346808735749
 20
197.19785206299928
 11
133.6534680873581
 21
197.1978520629994
  0
LINE
  8
_0-3_A0
  6
CONTINUOUS
 62
    3
 10
133.8534680873584
 20
202.69785206299928
 11
133.6534680873577
 21
202.6978520629994
  0
ARC
  8
_0-3_A0
  6
CONTINUOUS
 62
    3
 10
133.85346808735801
 20
197.74785206299918
 40
0.55
 50
269.99999999999977
 51
359.99999999999977
  0
ARC
  8
_0-3_A0
  6
CONTINUOUS
 62
    3
 10
133.85346808735801
 20
202.1478520629993
 40
0.55
 50
359.99999999999977
 51
89.999999999999744
  0
ARC
  8
_0-3_A0
  6
CONTINUOUS
 62
    3
 10
133.65346808735799
 20
196.94785206299948
 40
0.25
 50
89.999999999999829
 51
179.9999999999998
  0
ARC
  8
_0-3_A0
  6
CONTINUOUS
 62
    3
 10
133.65346808736279
 20
202.9478520629996
 40
0.25
 50
179.99999999990998
 51
269.99999999991007
  0
LINE
  8
_0-3_A0
  6
CONTINUOUS
 62
    3
 10
300.41743567577668
 20
148.89785206338868
 11
300.66743567577668
 21
148.89785206338868
  0
LINE
  8
_0-3_A0
  6
CONTINUOUS
 62
    3
 10
300.41743567577668
 20
148.89785206338868
 11
300.41743567575809
 21
153.64785206319768
  0
LINE
  8
_0-3_A0
  6
CONTINUOUS
 62
    3
 10
300.66743567577668
 20
148.89785206338868
 11
300.66743567575809
 21
153.64785206319879
  0
ARC
  8
_0-3_A0
  6
CONTINUOUS
 62
    3
 10
300.41743567575809
 20
153.64785206319768
 40
0.25
 50
359.99999999997339
 51
89.999999999973212
  0
LINE
  8
_0-3_A0
  6
CONTINUOUS
 62
    3
 10
125.9034680873855
 20
74.80697245642726
 11
125.9034680873855
 21
74.55697245642726
  0
LINE
  8
_0-3_A0
  6
CONTINUOUS
 62
    3
 10
133.15346808738559
 20
74.55697245642726
 11
125.9034680873855
 21
74.55697245642726
  0
ARC
  8
_0-3_A0
  6
CONTINUOUS
 62
    3
 10
133.15346808738559
 20
74.80697245642726
 40
0.25
 50
270
 51
0
  0
LINE
  8
_0-3_A0
  6
CONTINUOUS
 62
    3
 10
226.40346808735799
 20
74.55697245642726
 11
226.40346808735799
 21
74.80697245642726
  0
LINE
  8
_0-3_A0
  6
CONTINUOUS
 62
    3
 10
219.15346808735799
 20
74.55697245642726
 11
226.40346808735799
 21
74.55697245642726
  0
ARC
  8
_0-3_A0
  6
CONTINUOUS
 62
    3
 10
219.15346808735799
 20
74.80697245642726
 40
0.25
 50
180
 51
270
  0
LINE
  8
_0-3_A0
  6
CONTINUOUS
 62
    3
 10
133.90346808738559
 20
74.55697245642726
 11
218.40346808735799
 21
74.55697245642726
  0
LINE
  8
_0-3_A0
  6
CONTINUOUS
 62
    3
 10
133.40346808735779
 20
153.8978520629993
 11
133.40346808735799
 21
203.69785206299928
  0
LINE
  8
_0-3_A0
  6
CENTER
 62
    3
 10
131.1234733538007
 20
163.1978520629994
 11
126.66637102848159
 21
163.1978520629994
  0
CIRCLE
  8
_0-3_A0
  6
CONTINUOUS
 62
    3
 10
128.6534680873579
 20
163.19785206299928
 40
1.125
  0
LINE
  8
_0-3_A0
  6
CENTER
 62
    3
 10
221.18346282091511
 20
163.19785206299908
 11
225.64056514623419
 21
163.19785206299908
  0
CIRCLE
  8
_0-3_A0
  6
CONTINUOUS
 62
    3
 10
223.6534680873579
 20
163.19785206299908
 40
1.125
  0
LINE
  8
_0-3_A0
  6
CONTINUOUS
 62
    3
 10
134.4034680873579
 20
153.6478520629993
 11
134.4034680873579
 21
151.3978520630182
  0
LINE
  8
_0-3_A0
  6
HIDDEN
 62
    3
 10
217.9034680873579
 20
153.8978520629991
 11
217.9034680873579
 21
153.6478520629991
  0
LINE
  8
_0-3_A0
  6
HIDDEN
 62
    3
 10
218.9034680873579
 20
153.8978520629991
 11
219.1534680873579
 21
153.8978520629991
  0
LINE
  8
_0-3_A0
  6
HIDDEN
 62
    3
 10
133.15346808735799
 20
203.6978520629994
 11
133.40346808735799
 21
203.6978520629994
  0
LINE
  8
_0-3_A0
  6
CENTER
 62
    3
 10
298.32162481424848
 20
161.197852063195
 11
302.7787271395677
 21
161.19785206319298
  0
LINE
  8
_0-3_A0
  6
HIDDEN
 62
    3
 10
174.15346808721679
 20
158.89785206300268
 11
178.1534680875192
 21
158.89785206300908
  0
ARC
  8
_0-3_A0
  6
HIDDEN
 62
    3
 10
174.15346808721758
 20
158.39785206300268
 40
0.5
 50
89.999999999999829
 51
179.9999999999998
  0
ARC
  8
_0-3_A0
  6
HIDDEN
 62
    3
 10
178.15346808751991
 20
158.39785206300908
 40
0.5
 50
359.99999999999977
 51
89.999999999999744
  0
ARC
  8
_0-3_A0
  6
CONTINUOUS
 62
    3
 10
215.4034680873579
 20
151.39785206301809
 40
2.5
 50
269.99999999999977
 51
359.99999999999977
  0
ARC
  8
_0-3_A0
  6
CONTINUOUS
 62
    3
 10
136.9034680873579
 20
151.39785206301829
 40
2.5
 50
179.99999999999985
 51
269.99999999999977
  0
ARC
  8
_0-3_A0
  6
CONTINUOUS
 62
    3
 10
128.4034680873579
 20
156.39785206300268
 40
2.5
 50
179.99999999999985
 51
269.99999999999977
  0
ARC
  8
_0-3_A0
  6
CONTINUOUS
 62
    3
 10
128.40346808735799
 20
201.19785206300278
 40
2.5
 50
89.999999999999829
 51
179.9999999999998
  0
ARC
  8
_0-3_A0
  6
CONTINUOUS
 62
    3
 10
223.9034680873579
 20
156.3978520630024
 40
2.5
 50
269.99999999999977
 51
359.99999999999977
  0
ARC
  8
_0-3_A0
  6
CONTINUOUS
 62
    3
 10
223.90346808735799
 20
201.1978520630025
 40
2.5
 50
359.99999999999977
 51
89.999999999999744
  0
LINE
  8
_0-3_A0
  6
CONTINUOUS
 62
    3
 10
125.9034680873855
 20
74.80697245642726
 11
140.953468087358
 21
74.80697245642726
  0
LINE
  8
_0-3_A0
  6
DASHED
 62
    3
 10
140.953468087358
 20
74.80697245642726
 11
211.35346808735801
 21
74.80697245642726
  0
LINE
  8
_0-3_A0
  6
CONTINUOUS
 62
    3
 10
211.35346808735801
 20
74.80697245642726
 11
226.40346808735799
 21
74.80697245642726
  0
ARC
  8
_0-3_A0
  6
HIDDEN
 62
    3
 10
140.953468087358
 20
97.056972456423011
 40
2.5
 50
0
 51
90
  0
ARC
  8
_0-3_A0
  6
HIDDEN
 62
    3
 10
211.35346808735801
 20
97.056972456423011
 40
2.5
 50
90
 51
180
  0
ARC
  8
_0-3_A0
  6
HIDDEN
 62
    3
 10
140.953468087358
 20
77.30697245642726
 40
2.5
 50
270
 51
0
  0
ARC
  8
_0-3_A0
  6
HIDDEN
 62
    3
 10
211.35346808735801
 20
77.30697245642726
 40
2.5
 50
180
 51
270
  0
LINE
  8
_0-3_A0
  6
CONTINUOUS
 62
    3
 10
218.90346808735799
 20
203.94785206299539
 11
133.4034680873581
 21
203.9478520629957
  0
LINE
  8
_0-5_A10
  6
CONTINUOUS
 62
    3
 10
125.90346808734
 20
74.556972456427288
 11
226.4034680872769
 21
74.55697245642726
  0
LINE
  8
_0-3_A0
  6
CONTINUOUS
 62
    3
 10
133.40346808735799
 20
203.94785206299559
 11
133.40346808735799
 21
204.19785206299559
  0
LINE
  8
_0-5_A10
  6
CONTINUOUS
 62
    3
 10
135.90346808735799
 20
99.55697245642726
 11
216.4034680873579
 21
99.55697245642726
  0
LINE
  8
_0-3_A0
  6
CONTINUOUS
 62
    3
 10
223.90346808735799
 20
204.19785206299539
 11
128.4034680873581
 21
204.19785206299559
  0
LINE
  8
_0-5_A10
  6
CONTINUOUS
 62
    3
 10
125.9034680873402
 20
74.806972456558483
 11
226.40346808727738
 21
74.806972456502762
  0
LINE
  8
_0-3_A0
  6
CONTINUOUS
 62
    3
 10
221.4034680873581
 20
232.44785206299539
 11
130.9034680873581
 21
232.4478520629957
  0
LINE
  8
_0-3_A0
  6
CONTINUOUS
 62
    3
 10
125.90346808735799
 20
206.69785206299559
 11
125.90346808735799
 21
227.44785206299559
  0
LINE
  8
_0-3_A0
  6
CONTINUOUS
 62
    3
 10
226.40346808735799
 20
206.69785206299539
 11
226.40346808735799
 21
227.44785206299539
  0
LINE
  8
_0-5_A10
  6
CONTINUOUS
 62
    3
 10
226.4034680872773
 20
74.806972456502791
 11
226.4034680872769
 21
74.55697245642726
  0
LINE
  8
_0-5_A10
  6
CONTINUOUS
 62
    3
 10
125.90346808734007
 20
74.806972456558469
 11
125.90346808734
 21
74.556972456427288
  0
LINE
  8
_0-5_A10
  6
HIDDEN
 62
    3
 10
133.4034680873579
 20
74.55697245642726
 11
133.40346808735799
 21
74.806972456554333
  0
CIRCLE
  8
_0-3_A0
  6
CONTINUOUS
 62
    3
 10
128.65346808735799
 20
218.19785206299559
 40
1.125
  0
CIRCLE
  8
_0-3_A0
  6
CONTINUOUS
 62
    3
 10
223.65346808735799
 20
218.19785206299539
 40
1.125
  0
ARC
  8
_0-3_A0
  6
CONTINUOUS
 62
    3
 10
130.9034680873581
 20
227.44785206299559
 40
5
 50
89.999999999999829
 51
179.9999999999998
  0
ARC
  8
_0-3_A0
  6
CONTINUOUS
 62
    3
 10
221.4034680873581
 20
227.44785206299539
 40
5
 50
359.99999999999977
 51
89.999999999999744
  0
ARC
  8
_0-3_A0
  6
CONTINUOUS
 62
    3
 10
223.90346808735799
 20
206.69785206299539
 40
2.5
 50
269.99999999999977
 51
359.99999999999977
  0
ARC
  8
_0-3_A0
  6
CONTINUOUS
 62
    3
 10
128.4034680873581
 20
206.69785206299559
 40
2.5
 50
179.99999999999985
 51
269.99999999999977
  0
ARC
  8
_0-5_A10
  6
CONTINUOUS
 62
    3
 10
216.4034680873579
 20
97.05697245642726
 40
2.5
 50
0
 51
90
  0
ARC
  8
_0-5_A10
  6
CONTINUOUS
 62
    3
 10
135.9034680873579
 20
97.05697245642726
 40
2.5
 50
90
 51
180
  0
LINE
  8
_0-3_A0
  6
CONTINUOUS
 62
    3
 10
275.66743567580567
 20
204.1978520631915
 11
300.66743567580562
 21
204.1978520631799
  0
LINE
  8
_0-3_A0
  6
CONTINUOUS
 62
    3
 10
275.66743567580562
 20
203.9478520631915
 11
300.4174356758055
 21
203.9478520631801
  0
LINE
  8
_0-3_A0
  6
CONTINUOUS
 62
    3
 10
300.6674356758188
 20
232.44785206317999
 11
300.66743567580567
 21
204.1978520631799
  0
LINE
  8
_0-3_A0
  6
CONTINUOUS
 62
    3
 10
300.4174356758188
 20
232.4478520631801
 11
300.6674356758188
 21
232.44785206317999
  0
LINE
  8
_0-3_A0
  6
CONTINUOUS
 62
    3
 10
300.4174356758188
 20
232.4478520631801
 11
300.41743567580567
 21
204.19785206317999
  0
ARC
  8
_0-3_A0
  6
CONTINUOUS
 62
    3
 10
300.41743567580567
 20
204.19785206317999
 40
0.25
 50
269.99999999997351
 51
359.99999999997351
  0
ARC
  8
_0-6_A12
  6
HIDDEN
 62
    3
 10
295.66743567601321
 20
199.9478520631969
 40
3
 50
284.28486901361918
 51
179.80735682759956
  0
LINE
  8
_0-6_A12
  6
HIDDEN
 62
    3
 10
294.64390556927247
 20
192.95125388118259
 11
292.64391687403912
 21
192.9579783837936
  0
ARC
  8
_0-6_A12
  6
HIDDEN
 62
    3
 10
296.65440808032661
 20
196.07152835727089
 40
1
 50
104.28486901361868
 51
179.80735682759933
  0
ARC
  8
_0-6_A12
  6
HIDDEN
 62
    3
 10
295.64148125048137
 20
155.07251332477818
 40
0.375
 50
215.02494977616663
 51
34.370121494861685
  0
LINE
  8
_0-6_A12
  6
HIDDEN
 62
    3
 10
292.55594518515357
 20
158.9196517996572
 11
295.3343929257503
 21
154.8572884172656
  0
LINE
  8
_0-6_A12
  6
HIDDEN
 62
    3
 10
292.5297572336637
 20
159.00483663447528
 11
292.66745263316187
 21
199.95793881711338
  0
LINE
  8
_0-6_A12
  6
HIDDEN
 62
    3
 10
295.95122077674261
 20
155.2844664044949
 11
294.65340048073437
 21
156.37453720119839
  0
LINE
  8
_0-6_A12
  6
HIDDEN
 62
    3
 10
295.64726216819292
 20
193.9478859774941
 11
295.65441373270937
 21
196.07489060857429
  0
LINE
  8
_0-6_A12
  6
HIDDEN
 62
    3
 10
294.64390556927219
 20
192.9512538811827
 11
295.64726216819281
 21
193.9478859774943
  0
ARC
  8
_0-6_A12
  6
HIDDEN
 62
    3
 10
292.67975638580611
 20
159.0043322967798
 40
0.1499999999999999
 50
179.80735682759933
 51
214.3701214695238
  0
LINE
  8
_0-6_A12
  6
HIDDEN
 62
    3
 10
293.52975158128072
 20
159.0014743831702
 11
294.56435060096538
 21
159.99647098717278
  0
LINE
  8
_0-6_A12
  6
HIDDEN
 62
    3
 10
293.52975158128077
 20
159.0014743831702
 11
292.5297572336637
 21
159.0048366344757
  0
LINE
  8
_0-6_A12
  6
HIDDEN
 62
    3
 10
294.63718106666601
 20
190.95126518609419
 11
292.6371923714326
 21
190.95798968870408
  0
LINE
  8
_0-6_A12
  6
HIDDEN
 62
    3
 10
294.63718106666607
 20
190.9512651860943
 11
295.60253466044747
 21
189.94850310580508
  0
LINE
  8
_0-6_A12
  6
HIDDEN
 62
    3
 10
295.60253466044747
 20
189.9485031058052
 11
294.56435060096538
 21
159.99647098717278
  0
LINE
  8
_0-3_A0
  6
HIDDEN
 62
    3
 10
296.01743567551221
 20
153.8978520631999
 11
300.41743567575809
 21
153.89785206319768
  0
LINE
  8
_0-3_A0
  6
HIDDEN
 62
    3
 10
296.01743567550721
 20
158.7228520632002
 11
300.4174356757814
 21
158.72285206320168
  0
LINE
  8
_0-3_A0
  6
HIDDEN
 62
    3
 10
296.01743567551301
 20
153.89785206319638
 11
296.0174356755304
 21
158.7228520632002
  0
LINE
  8
_0-6_A12
  6
CONTINUOUS
 62
    3
 10
134.4034680873863
 20
190.9478520629579
 11
134.4034680873612
 21
158.9478520629583
  0
LINE
  8
_0-6_A12
  6
CONTINUOUS
 62
    3
 10
135.65346808739579
 20
202.9478520629575
 11
135.653468087388
 21
192.99087149690819
  0
LINE
  8
_0-6_A12
  6
CONTINUOUS
 62
    3
 10
217.9034680873612
 20
158.9478520628898
 11
134.40346808736128
 21
158.94785206295819
  0
LINE
  8
_0-6_A12
  6
CONTINUOUS
 62
    3
 10
217.7534680873579
 20
154.69785206288938
 11
134.55346808735791
 21
154.69785206295819
  0
LINE
  8
_0-6_A12
  6
CONTINUOUS
 62
    3
 10
136.403468087432
 20
201.69785206295719
 11
135.65346808739491
 21
201.69785206295759
  0
LINE
  8
_0-6_A12
  6
CONTINUOUS
 62
    3
 10
136.40346808743188
 20
202.94785206295708
 11
136.40346808743188
 21
201.69785206295719
  0
LINE
  8
_0-6_A12
  6
CONTINUOUS
 62
    3
 10
215.90346808735969
 20
202.94785206289128
 11
136.40346808743188
 21
202.94785206295708
  0
LINE
  8
_0-6_A12
  6
CONTINUOUS
 62
    3
 10
135.80346808739579
 20
202.9478520629575
 11
135.6534680873959
 21
202.94785206295759
  0
LINE
  8
_0-6_A12
  6
CONTINUOUS
 62
    3
 10
135.65346808738809
 20
192.99087149690819
 11
134.42626834178568
 21
191.02735190394849
  0
ARC
  8
_0-6_A12
  6
CONTINUOUS
 62
    3
 10
134.55346808738639
 20
190.94785206294778
 40
0.1499999999999999
 50
147.99461679186111
 51
179.99999999999982
  0
LINE
  8
_0-6_A12
  6
CONTINUOUS
 62
    3
 10
217.90346808738638
 20
190.94785206289219
 11
217.9034680873612
 21
158.94785206289259
  0
LINE
  8
_0-6_A12
  6
CONTINUOUS
 62
    3
 10
216.65346808739579
 20
202.94785206289378
 11
216.653468087388
 21
192.9908714968445
  0
LINE
  8
_0-6_A12
  6
CONTINUOUS
 62
    3
 10
216.65346808738789
 20
192.9908714968445
 11
217.88066783298719
 21
191.0273519038829
  0
ARC
  8
_0-6_A12
  6
CONTINUOUS
 62
    3
 10
217.7534680873864
 20
190.94785206288239
 40
0.1499999999999999
 50
359.99999999991007
 51
32.00538320804879
  0
LINE
  8
_0-3_A0
  6
CONTINUOUS
 62
    3
 10
218.9034680873579
 20
153.6478520629991
 11
133.40346808735779
 21
153.64785206299939
  0
LINE
  8
_0-3_A0
  6
HIDDEN
 62
    3
 10
213.6534680874636
 20
80.431972456431921
 11
213.6534680874559
 21
78.681972456431935
  0
LINE
  8
_0-3_A0
  6
HIDDEN
 62
    3
 10
217.40346808747071
 20
82.056972456427402
 11
217.80346808747029
 21
82.05697245642726
  0
LINE
  8
_0-3_A0
  6
HIDDEN
 62
    3
 10
217.40346808744848
 20
77.056972456427402
 11
217.803468087449
 21
77.05697245642726
  0
LINE
  8
_0-3_A0
  6
HIDDEN
 62
    3
 10
214.40346808746389
 20
81.181972456428539
 11
216.4034680874667
 21
81.181972456427772
  0
LINE
  8
_0-3_A0
  6
HIDDEN
 62
    3
 10
216.9034680874524
 20
77.906972456427638
 11
217.40346808745221
 21
77.906972456427439
  0
LINE
  8
_0-3_A0
  6
HIDDEN
 62
    3
 10
216.90346808746699
 20
81.206972456427592
 11
217.4034680874669
 21
81.206972456427379
  0
ARC
  8
_0-3_A0
  6
HIDDEN
 62
    3
 10
217.80346808747029
 20
81.956972456427351
 40
0.1
 50
0
 51
90
  0
ARC
  8
_0-3_A0
  6
HIDDEN
 62
    3
 10
217.803468087449
 20
77.15697245642724
 40
0.1
 50
270
 51
0
  0
ARC
  8
_0-3_A0
  6
HIDDEN
 62
    3
 10
214.4034680874636
 20
80.431972456428582
 40
0.75
 50
90
 51
180
  0
ARC
  8
_0-3_A0
  6
HIDDEN
 62
    3
 10
214.40346808745579
 20
78.681972456428596
 40
0.75
 50
180
 51
270
  0
LINE
  8
_0-3_A0
  6
HIDDEN
 62
    3
 10
216.4034680874669
 20
81.181972456427899
 11
216.90346808746699
 21
81.20697245642772
  0
LINE
  8
_0-3_A0
  6
HIDDEN
 62
    3
 10
216.40346808745249
 20
77.931972456427899
 11
216.90346808745229
 21
77.906972456427695
  0
LINE
  8
_0-3_A0
  6
HIDDEN
 62
    3
 10
217.40346808745221
 20
77.906972456427411
 11
217.4034680874484
 21
77.056972456427516
  0
LINE
  8
_0-3_A0
  6
HIDDEN
 62
    3
 10
217.40346808747071
 20
82.056972456427516
 11
217.4034680874669
 21
81.206972456427507
  0
LINE
  8
_0-3_A0
  6
HIDDEN
 62
    3
 10
214.4034680874555
 20
77.931972456428553
 11
216.4034680874524
 21
77.931972456427772
  0
LINE
  8
_0-3_A0
  6
HIDDEN
 62
    3
 10
218.4534680873576
 20
76.806972456427047
 11
218.65346808735338
 21
76.80697245642689
  0
LINE
  8
_0-3_A0
  6
CONTINUOUS
 62
    3
 10
134.40346808735779
 20
197.60510019229189
 11
134.4034680873579
 21
200.6156009322442
  0
LINE
  8
_0-3_A0
  6
CONTINUOUS
 62
    3
 10
134.9034680874445
 20
202.3551001922913
 11
134.5034680874441
 21
202.3551001922915
  0
LINE
  8
_0-3_A0
  6
CONTINUOUS
 62
    3
 10
135.40346808744058
 20
201.5051001922911
 11
134.90346808744081
 21
201.5051001922913
  0
ARC
  8
_0-3_A0
  6
CONTINUOUS
 62
    3
 10
134.5034680874414
 20
197.64060393362478
 40
0.1
 50
179.99999999999985
 51
269.99999999999977
  0
ARC
  8
_0-3_A0
  6
CONTINUOUS
 62
    3
 10
134.50346808744399
 20
202.2551001922915
 40
0.1
 50
89.999999999999829
 51
179.9999999999998
  0
LINE
  8
_0-3_A0
  6
CONTINUOUS
 62
    3
 10
134.40346808743871
 20
201.08010019229138
 11
134.40346808744391
 21
202.25510019229179
  0
LINE
  8
_0-3_A0
  6
CONTINUOUS
 62
    3
 10
135.65346808739479
 20
201.4926001922933
 11
135.4034680874407
 21
201.5051001922911
  0
LINE
  8
_0-3_A0
  6
CONTINUOUS
 62
    3
 10
134.90346808744081
 20
201.5051001922913
 11
134.90346808744459
 21
202.35510019229118
  0
LINE
  8
_0-3_A0
  6
CONTINUOUS
 62
    3
 10
134.9034680874231
 20
197.54060393362459
 11
134.90346808742688
 21
198.3906039336247
  0
LINE
  8
_0-3_A0
  6
CONTINUOUS
 62
    3
 10
134.40346808735779
 20
197.60510019229189
 11
134.4034680873579
 21
202.10510019229189
  0
INSERT
  2
-004-$$BALLOON$$0
  8
_0-3_A0
 10
147.93824623647009
 20
170.0257465674494
 41
1
 42
1
 50
0
  0
INSERT
  2
-007-$$BALLOON$$1
  8
_0-3_A0
 10
125.9034680873581
 20
213.26985916741779
 41
1
 42
1
 50
0
  0
LINE
  8
_0-3_A0
  6
CONTINUOUS
 62
    3
 10
133.15346808735799
 20
203.6978520629994
 11
133.15346808735779
 21
153.89785206299939
  0
LINE
  8
_0-6_A12
  6
CONTINUOUS
 62
    3
 10
134.55346808736121
 20
158.9478520629581
 11
134.55346808735791
 21
154.69785206295819
  0
INSERT
  2
-009-_D15
  8
_0-3_A0
 10
-2.5
 20
0.1200000405310959
 41
1
 42
1
 50
0
  0
INSERT
  2
-011-_D16
  8
_0-3_A0
 10
-2.5
 20
0.1200000405310959
 41
1
 42
1
 50
0
  0
INSERT
  2
-013-_D17
  8
_0-3_A0
 10
-2.5
 20
0.1200000405310959
 41
1
 42
1
 50
0
  0
INSERT
  2
-015-_D18
  8
_0-3_A0
 10
-2.5
 20
0.1200000405310959
 41
1
 42
1
 50
0
  0
LINE
  8
_0-3_A0
  6
CENTER
 62
    3
 10
128.65346808735799
 20
220.04050015608379
 11
128.6534680873579
 21
160.82233601269669
  0
LINE
  8
_0-3_A0
  6
CENTER
 62
    3
 10
223.65346808735799
 20
219.9503548911102
 11
223.6534680873579
 21
160.82233601269649
  0
LINE
  8
_0-3_A0
  6
CENTER
 62
    3
 10
225.3963223623264
 20
218.19785206299539
 11
126.94237409625819
 21
218.1978520629957
  0
INSERT
  2
-017-_D19
  8
_0-3_A0
 10
-2.5
 20
0.1200000405310959
 41
1
 42
1
 50
0
  0
INSERT
  2
-018-_D20
  8
_0-3_A0
 10
-2.5
 20
0.1200000405310959
 41
1
 42
1
 50
0
  0
LINE
  8
_0-6_A12
  6
CONTINUOUS
 62
    3
 10
217.75346808736119
 20
158.94785206288989
 11
217.7534680873579
 21
154.6978520628927
  0
LINE
  8
_0-6_A12
  6
CONTINUOUS
 62
    3
 10
135.80346808739591
 20
202.9478520629575
 11
135.80346808739489
 21
201.6978520629577
  0
LINE
  8
_0-3_A0
  6
HIDDEN
 62
    3
 10
173.65346808721758
 20
158.39785206300268
 11
173.65346808721739
 21
154.6978520629259
  0
LINE
  8
_0-3_A0
  6
CONTINUOUS
 62
    3
 10
173.65346808721739
 20
154.6978520629259
 11
173.65346808721739
 21
153.8978520630012
  0
LINE
  8
_0-3_A0
  6
HIDDEN
 62
    3
 10
178.65346808751991
 20
158.3978520630099
 11
178.6534680875261
 21
154.69785206292178
  0
LINE
  8
_0-3_A0
  6
CONTINUOUS
 62
    3
 10
178.6534680875261
 20
154.69785206292169
 11
178.6534680875275
 21
153.89785206300899
  0
INSERT
  2
-020-_D21
  8
_0-3_A0
 10
-2.5
 20
0.1200000405310959
 41
1
 42
1
 50
0
  0
LINE
  8
_0-3_A0
  6
HIDDEN
 62
    3
 10
135.7734680874224
 20
82.506972450555139
 11
216.533468087285
 21
82.50697245632935
  0
ARC
  8
_0-3_A0
  6
HIDDEN
 62
    3
 10
216.53346808729361
 20
82.386972456422114
 40
0.1199999999999998
 50
0
 51
90
  0
LINE
  8
_0-3_A0
  6
HIDDEN
 62
    3
 10
216.65346808728369
 20
79.206972456788179
 11
216.65346808729358
 21
82.386972456422114
  0
LINE
  8
_0-3_A0
  6
CONTINUOUS
 62
    3
 10
275.66743567580567
 20
204.1978520631915
 11
275.66743567578618
 21
153.6478520631885
  0
INSERT
  2
-021-_D22
  8
_0-3_A0
 10
-2.5
 20
0.1200000405310959
 41
1
 42
1
 50
0
  0
INSERT
  2
-023-_D23
  8
_0-3_A0
 10
-2.5
 20
0.1200000405310959
 41
1
 42
1
 50
0
  0
LINE
  8
_0-3_A0
  6
CENTER
 62
    3
 10
176.1534680873579
 20
66.69354796430828
 11
176.1534680873579
 21
110.34836967211839
  0
LINE
  8
_0-3_A0
  6
CONTINUOUS
 62
    3
 10
219.1534680872605
 20
227.6978520629658
 11
133.1534680873481
 21
227.69785206296609
  0
LINE
  8
_0-3_A0
  6
CONTINUOUS
 62
    3
 10
133.15346808740039
 20
227.69785206296609
 11
133.15346808740039
 21
203.6978520629996
  0
LINE
  8
_0-3_A0
  6
CONTINUOUS
 62
    3
 10
128.1534680872952
 20
153.89785206247668
 11
128.1534680873531
 21
227.4478520629996
  0
ARC
  8
_0-3_A0
  6
CONTINUOUS
 62
    3
 10
133.15346808735299
 20
227.4478520629957
 40
5
 50
89.999999999999829
 51
179.9999999999998
  0
LINE
  8
_0-3_A0
  6
CONTINUOUS
 62
    3
 10
219.1534680872524
 20
232.44785206299539
 11
133.1534680873531
 21
232.4478520629957
  0
LINE
  8
_0-3_A0
  6
CONTINUOUS
 62
    3
 10
219.1534680870657
 20
227.6978520629658
 11
219.1534680870468
 21
203.69785206299928
  0
ARC
  8
_0-3_A0
  6
CONTINUOUS
 62
    3
 10
219.15346808725229
 20
227.44785206299539
 40
5
 50
359.99999999999977
 51
89.999999999999744
  0
LINE
  8
_0-3_A0
  6
CONTINUOUS
 62
    3
 10
224.1534680873674
 20
153.89785206238499
 11
224.15346808725229
 21
227.44785206300318
  0
ARC
  8
_0-3_A0
  6
CONTINUOUS
 62
    3
 10
219.1534680873674
 20
153.89785206237718
 40
5
 50
269.99999999999977
 51
359.99999999999977
  0
LINE
  8
_0-3_A0
  6
CONTINUOUS
 62
    3
 10
219.15346808736188
 20
148.89785206237709
 11
133.15346808728961
 21
148.8978520624727
  0
ARC
  8
_0-3_A0
  6
CONTINUOUS
 62
    3
 10
133.1534680872952
 20
153.89785206247279
 40
5
 50
179.99999999999985
 51
269.99999999999977
  0
LINE
  8
_0-3_A0
  6
CONTINUOUS
 62
    3
 10
295.41743567577668
 20
148.89785206339109
 11
300.41743567577668
 21
148.89785206338868
  0
LINE
  8
_0-3_A0
  6
CONTINUOUS
 62
    3
 10
295.41743567577668
 20
148.89785206308209
 11
295.41743567575798
 21
153.6478520631781
  0
LINE
  8
_0-3_A0
  6
CONTINUOUS
 62
    3
 10
295.41743567575798
 20
153.6478520631781
 11
300.41743567575809
 21
153.64785206319768
  0
LINE
  8
_0-3_A0
  6
CONTINUOUS
 62
    3
 10
300.41743567575809
 20
153.64785206319768
 11
300.41743567577668
 21
148.8978520631017
  0
LINE
  8
_0-3_A0
  6
CONTINUOUS
 62
    3
 10
295.41743567546632
 20
227.6978520633732
 11
300.41743567546632
 21
227.69785206337098
  0
LINE
  8
_0-3_A0
  6
CONTINUOUS
 62
    3
 10
295.41743567546632
 20
227.69785206306428
 11
295.41743567544762
 21
232.44785206316038
  0
LINE
  8
_0-3_A0
  6
CONTINUOUS
 62
    3
 10
295.41743567544762
 20
232.44785206316038
 11
300.41743567544762
 21
232.4478520631801
  0
LINE
  8
_0-3_A0
  6
CONTINUOUS
 62
    3
 10
300.41743567544762
 20
232.4478520631801
 11
300.41743567546632
 21
227.69785206308398
  0
LINE
  8
_0-3_A0
  6
CONTINUOUS
 62
    3
 10
127.90346808700761
 20
79.556972456316032
 11
132.90346808700761
 21
79.556972456316032
  0
LINE
  8
_0-3_A0
  6
CONTINUOUS
 62
    3
 10
127.90346808700761
 20
79.556972456625004
 11
127.90346808698669
 21
74.80697245652891
  0
LINE
  8
_0-3_A0
  6
CONTINUOUS
 62
    3
 10
127.90346808698669
 20
74.806972456528924
 11
132.90346808698669
 21
74.806972456506926
  0
LINE
  8
_0-3_A0
  6
CONTINUOUS
 62
    3
 10
132.90346808698669
 20
74.806972456506898
 11
132.90346808700761
 21
79.556972456602949
  0
LINE
  8
_0-3_A0
  6
CONTINUOUS
 62
    3
 10
218.90346808737891
 20
79.556972456294033
 11
223.90346808737891
 21
79.556972456294033
  0
LINE
  8
_0-3_A0
  6
CONTINUOUS
 62
    3
 10
223.9034680873579
 20
74.806972456484899
 11
223.90346808737891
 21
79.55697245658095
  0
LINE
  8
_0-3_A0
  6
CONTINUOUS
 62
    3
 10
218.90346808737891
 20
79.556972456603006
 11
218.9034680873579
 21
74.806972456506898
  0
LINE
  8
_0-3_A0
  6
CONTINUOUS
 62
    3
 10
218.90346808735799
 20
74.806972456506926
 11
223.90346808735799
 21
74.806972456484928
  0
LINE
  8
_0-3_A0
  6
CONTINUOUS
 62
    3
 10
135.65346808739221
 20
198.40310393362179
 11
135.4034680874389
 21
198.3906039336243
  0
LINE
  8
_0-3_A0
  6
CONTINUOUS
 62
    3
 10
135.40346808743899
 20
198.3906039336243
 11
134.9034680874391
 21
198.39060393362458
  0
LINE
  8
_0-3_A0
  6
CONTINUOUS
 62
    3
 10
134.9034680874418
 20
197.54060393362459
 11
134.5034680874414
 21
197.5406039336249
  0
ARC
  8
_0-3_A0
  6
CONTINUOUS
 62
    3
 10
218.9034680873581
 20
203.69785206299908
 40
0.25
 50
359.99999999999977
 51
89.999999999999744
  0
LINE
  8
_0-3_A0
  6
CONTINUOUS
 62
    3
 10
217.9034680873581
 20
197.7478520629991
 11
217.9034680873581
 21
202.1478520629991
  0
LINE
  8
_0-3_A0
  6
CONTINUOUS
 62
    3
 10
218.4534680873586
 20
197.19785206299908
 11
218.65346808735799
 21
197.1978520629992
  0
LINE
  8
_0-3_A0
  6
CONTINUOUS
 62
    3
 10
218.4534680873578
 20
202.69785206299908
 11
218.65346808735839
 21
202.6978520629992
  0
ARC
  8
_0-3_A0
  6
CONTINUOUS
 62
    3
 10
218.4534680873582
 20
197.7478520629991
 40
0.55
 50
179.99999999999985
 51
269.99999999999977
  0
ARC
  8
_0-3_A0
  6
CONTINUOUS
 62
    3
 10
218.4534680873582
 20
202.1478520629991
 40
0.55
 50
89.999999999999829
 51
179.9999999999998
  0
ARC
  8
_0-3_A0
  6
CONTINUOUS
 62
    3
 10
218.6534680873581
 20
196.9478520629992
 40
0.25
 50
359.99999999999977
 51
89.999999999999744
  0
ARC
  8
_0-3_A0
  6
CONTINUOUS
 62
    3
 10
218.65346808735338
 20
202.9478520629994
 40
0.25
 50
270.00000000008952
 51
0.0000000000895135
  0
LINE
  8
_0-3_A0
  6
HIDDEN
 62
    3
 10
219.1534680873581
 20
203.69785206299908
 11
218.90346808735819
 21
203.69785206299908
  0
LINE
  8
_0-3_A0
  6
CONTINUOUS
 62
    3
 10
218.9034680873581
 20
203.94785206299539
 11
218.9034680873581
 21
204.19785206299539
  0
LINE
  8
_0-6_A12
  6
CONTINUOUS
 62
    3
 10
215.90346808728421
 20
201.69785206295699
 11
216.6534680873213
 21
201.69785206295739
  0
LINE
  8
_0-6_A12
  6
CONTINUOUS
 62
    3
 10
215.90346808728421
 20
202.94785206295688
 11
215.90346808728421
 21
201.69785206295699
  0
LINE
  8
_0-6_A12
  6
CONTINUOUS
 62
    3
 10
216.5034680873203
 20
202.9478520629573
 11
216.6534680873203
 21
202.9478520629573
  0
LINE
  8
_0-3_A0
  6
CONTINUOUS
 62
    3
 10
217.90346808735819
 20
197.6051001922917
 11
217.9034680873583
 21
200.61560093224389
  0
LINE
  8
_0-3_A0
  6
CONTINUOUS
 62
    3
 10
217.4034680872717
 20
202.3551001922911
 11
217.8034680872721
 21
202.3551001922913
  0
LINE
  8
_0-3_A0
  6
CONTINUOUS
 62
    3
 10
216.90346808727551
 20
201.50510019229068
 11
217.40346808727528
 21
201.50510019229099
  0
ARC
  8
_0-3_A0
  6
CONTINUOUS
 62
    3
 10
217.80346808727469
 20
197.6406039336245
 40
0.1
 50
269.99999999999977
 51
359.99999999999977
  0
ARC
  8
_0-3_A0
  6
CONTINUOUS
 62
    3
 10
217.8034680872721
 20
202.25510019229119
 40
0.1
 50
359.99999999999977
 51
89.999999999999744
  0
LINE
  8
_0-3_A0
  6
CONTINUOUS
 62
    3
 10
217.90346808727738
 20
201.08010019229109
 11
217.90346808727218
 21
202.2551001922915
  0
LINE
  8
_0-3_A0
  6
CONTINUOUS
 62
    3
 10
216.65346808732138
 20
201.49260019229299
 11
216.90346808727551
 21
201.50510019229068
  0
LINE
  8
_0-3_A0
  6
CONTINUOUS
 62
    3
 10
217.40346808727539
 20
201.50510019229099
 11
217.40346808727159
 21
202.3551001922909
  0
LINE
  8
_0-3_A0
  6
CONTINUOUS
 62
    3
 10
217.40346808729299
 20
197.54060393362439
 11
217.40346808728921
 21
198.39060393362439
  0
LINE
  8
_0-3_A0
  6
CONTINUOUS
 62
    3
 10
217.90346808735819
 20
197.6051001922917
 11
217.9034680873583
 21
202.1051001922917
  0
LINE
  8
_0-6_A12
  6
CONTINUOUS
 62
    3
 10
216.50346808732018
 20
202.9478520629573
 11
216.5034680873212
 21
201.6978520629575
  0
LINE
  8
_0-3_A0
  6
CONTINUOUS
 62
    3
 10
216.65346808732388
 20
198.40310393362159
 11
216.9034680872773
 21
198.3906039336241
  0
LINE
  8
_0-3_A0
  6
CONTINUOUS
 62
    3
 10
216.90346808727719
 20
198.3906039336241
 11
217.4034680872771
 21
198.3906039336245
  0
LINE
  8
_0-3_A0
  6
CONTINUOUS
 62
    3
 10
217.40346808727429
 20
197.54060393362428
 11
217.8034680872748
 21
197.54060393362459
  0
LINE
  8
_0-3_A0
  6
HIDDEN
 62
    3
 10
135.65346808742799
 20
80.592033529484382
 11
216.65346808728799
 21
80.592033529439461
  0
LINE
  8
_0-3_A0
  6
HIDDEN
 62
    3
 10
135.65346808743228
 20
79.206972456833085
 11
216.65346808728369
 21
79.206972456788165
  0
LINE
  8
_0-3_A0
  6
HIDDEN
 62
    3
 10
134.40346808735799
 20
81.956972456427351
 11
134.40346808735799
 21
77.15697245642724
  0
LINE
  8
_0-3_A0
  6
HIDDEN
 62
    3
 10
133.85346808735749
 20
82.3069724564278
 11
133.6534680873581
 21
82.306972456427672
  0
ARC
  8
_0-3_A0
  6
HIDDEN
 62
    3
 10
133.85346808735801
 20
81.756972456427831
 40
0.55
 50
0
 51
90
  0
ARC
  8
_0-3_A0
  6
HIDDEN
 62
    3
 10
133.85346808735801
 20
77.356972456427826
 40
0.55
 50
270
 51
0
  0
ARC
  8
_0-3_A0
  6
HIDDEN
 62
    3
 10
133.65346808735799
 20
82.556972456427644
 40
0.25
 50
180
 51
270
  0
ARC
  8
_0-3_A0
  6
HIDDEN
 62
    3
 10
133.65346808736279
 20
76.556972456427544
 40
0.25
 50
90.000000000089698
 51
180.00000000008961
  0
LINE
  8
_0-3_A0
  6
HIDDEN
 62
    3
 10
138.6534680872524
 20
80.431972456431921
 11
138.6534680872601
 21
78.681972456431935
  0
LINE
  8
_0-3_A0
  6
HIDDEN
 62
    3
 10
134.90346808724518
 20
82.056972456427402
 11
134.50346808724569
 21
82.05697245642726
  0
LINE
  8
_0-3_A0
  6
HIDDEN
 62
    3
 10
134.90346808726741
 20
77.056972456427402
 11
134.503468087267
 21
77.05697245642726
  0
LINE
  8
_0-3_A0
  6
HIDDEN
 62
    3
 10
137.90346808725209
 20
81.181972456428539
 11
135.9034680872493
 21
81.181972456427772
  0
LINE
  8
_0-3_A0
  6
HIDDEN
 62
    3
 10
135.4034680872636
 20
77.906972456427624
 11
134.9034680872638
 21
77.906972456427411
  0
LINE
  8
_0-3_A0
  6
HIDDEN
 62
    3
 10
135.40346808724899
 20
81.206972456427578
 11
134.9034680872491
 21
81.206972456427379
  0
ARC
  8
_0-3_A0
  6
HIDDEN
 62
    3
 10
134.50346808724569
 20
81.956972456427351
 40
0.1
 50
90
 51
180
  0
ARC
  8
_0-3_A0
  6
HIDDEN
 62
    3
 10
134.503468087267
 20
77.15697245642724
 40
0.1
 50
180
 51
270
  0
ARC
  8
_0-3_A0
  6
HIDDEN
 62
    3
 10
137.9034680872524
 20
80.431972456428582
 40
0.75
 50
0
 51
90
  0
ARC
  8
_0-3_A0
  6
HIDDEN
 62
    3
 10
137.90346808726019
 20
78.681972456428596
 40
0.75
 50
270
 51
0
  0
LINE
  8
_0-3_A0
  6
HIDDEN
 62
    3
 10
135.9034680872491
 20
81.181972456427899
 11
135.40346808724899
 21
81.20697245642772
  0
LINE
  8
_0-3_A0
  6
HIDDEN
 62
    3
 10
135.9034680872634
 20
77.931972456427899
 11
135.4034680872636
 21
77.906972456427695
  0
LINE
  8
_0-3_A0
  6
HIDDEN
 62
    3
 10
134.9034680872638
 20
77.906972456427411
 11
134.90346808726749
 21
77.056972456427516
  0
LINE
  8
_0-3_A0
  6
HIDDEN
 62
    3
 10
134.9034680872453
 20
82.056972456427516
 11
134.9034680872491
 21
81.206972456427507
  0
LINE
  8
_0-3_A0
  6
HIDDEN
 62
    3
 10
137.9034680872605
 20
77.931972456428553
 11
135.9034680872636
 21
77.931972456427772
  0
LINE
  8
_0-3_A0
  6
HIDDEN
 62
    3
 10
133.8534680873584
 20
76.806972456427033
 11
133.65346808736259
 21
76.806972456426876
  0
ARC
  8
_0-3_A0
  6
HIDDEN
 62
    3
 10
135.7734680874224
 20
82.386972456422114
 40
0.1199999999999998
 50
90
 51
180
  0
LINE
  8
_0-3_A0
  6
HIDDEN
 62
    3
 10
135.65346808743228
 20
79.206972456788179
 11
135.65346808742239
 21
82.386972456422114
  0
LINE
  8
_0-3_A0
  6
CENTER
 62
    3
 10
176.1534680873581
 20
254.0433079431221
 11
176.15346808735779
 21
141.11793940813009
  0
LINE
  8
_0-3_A0
  6
CENTER
 62
    3
 10
176.1534680873579
 20
223.5163387520173
 11
176.1534680873579
 21
234.15945958614429
  0
INSERT
  2
-025-_D24
  8
_0-3_A0
 10
-2.5
 20
0.1200000405310959
 41
1
 42
1
 50
0
  0
LINE
  8
_0-3_A0
  6
CONTINUOUS
 62
    3
 10
133.4034680873579
 20
97.05697245642726
 11
133.4034680873579
 21
74.80697245642726
  0
LINE
  8
_0-3_A0
  6
CONTINUOUS
 62
    3
 10
218.9034680873581
 20
97.05697245642726
 11
218.9034680873581
 21
74.80697245642726
  0
LINE
  8
_0-3_A0
  6
CENTER
 62
    3
 10
98.8458410653555
 20
178.92285206304359
 11
324.49260365998412
 21
178.92285206285509
  0
LINE
  8
_0-3_A0
  6
CONTINUOUS
 62
    3
 10
161.1534680873581
 20
226.59105063381448
 11
191.1534680873581
 21
226.5910506338144
  0
LINE
  8
_0-3_A0
  6
CONTINUOUS
 62
    3
 10
191.1534680873579
 20
204.32300676588579
 11
191.15346808735799
 21
226.59105063381429
  0
LINE
  8
_0-3_A0
  6
CONTINUOUS
 62
    3
 10
161.15346808735799
 20
204.32300676588599
 11
191.1534680873579
 21
204.3230067658859
  0
LINE
  8
_0-3_A0
  6
CONTINUOUS
 62
    3
 10
161.1534680873579
 20
204.32300676588599
 11
161.1534680873581
 21
226.5910506338146
  0
LINE
  8
_0-3_A0
  6
CONTINUOUS
 62
    3
 10
176.1534680873581
 20
224.8410506338144
 11
173.6534680873581
 21
221.8410506338144
  0
LINE
  8
_0-3_A0
  6
CONTINUOUS
 62
    3
 10
176.1534680873581
 20
224.8410506338144
 11
178.65346808735799
 21
221.84105063381429
  0
LINE
  8
_0-3_A0
  6
CONTINUOUS
 62
    3
 10
173.6534680873581
 20
221.8410506338144
 11
174.9034680873581
 21
221.8410506338144
  0
LINE
  8
_0-3_A0
  6
CONTINUOUS
 62
    3
 10
174.9034680873581
 20
221.8410506338144
 11
174.9034680873581
 21
219.8410506338144
  0
LINE
  8
_0-3_A0
  6
CONTINUOUS
 62
    3
 10
174.9034680873581
 20
219.8410506338144
 11
177.4034680873581
 21
219.8410506338144
  0
LINE
  8
_0-3_A0
  6
CONTINUOUS
 62
    3
 10
177.40346808735799
 20
221.8410506338144
 11
177.40346808735799
 21
219.8410506338144
  0
LINE
  8
_0-3_A0
  6
CONTINUOUS
 62
    3
 10
178.6534680873581
 20
221.8410506338144
 11
177.4034680873581
 21
221.8410506338144
  0
INSERT
  2
-026-_X25
  8
_0-3_A0
 10
-2.5
 20
0.1200000405310959
 41
1
 42
1
 50
0
  0
INSERT
  2
-027-_X26
  8
_0-3_A0
 10
-2.5
 20
0.1200000405310959
 41
1
 42
1
 50
0
  0
INSERT
  2
-028-_X27
  8
_0-3_A0
 10
-2.5
 20
0.1200000405310959
 41
1
 42
1
 50
0
  0
INSERT
  2
-029-_X28
  8
_0-3_A0
 10
-2.5
 20
0.1200000405310959
 41
1
 42
1
 50
0
  0
INSERT
  2
-030-_X29
  8
_0-3_A0
 10
-2.5
 20
0.1200000405310959
 41
1
 42
1
 50
0
  0
INSERT
  2
-031-_X30
  8
_0-3_A0
 10
-2.5
 20
0.1200000405310959
 41
1
 42
1
 50
0
  0
ENDSEC
  0
EOF
