  0
SECTION
  2
HEADER
  9
$ACADVER
  1
AC1009
  9
$INSBASE
 10
0
 20
0
 30
0
  9
$EXTMIN
 10
0
 20
0
  9
$EXTMAX
 10
420
 20
297
  9
$LIMMIN
 10
0
 20
0
  9
$LIMMAX
 10
420
 20
297
  9
$LTSCALE
 40
1
  0
ENDSEC
  0
SECTION
  2
TABLES
  0
TABLE
  2
LTYPE
 70
     9
  0
LTYPE
  2
CONTINUOUS
 70
    64
  3
実線
 72
    65
 73
     0
 40
0.0
  0
LTYPE
  2
DASHED1
 70
    64
  3
--  --  --  --  --  --  --  --  
 72
    65
 73
     2
 40
2.5
 49
1.25
 49
-1.25
  0
LTYPE
  2
DASHED2
 70
    64
  3
----    ----    ----    ----    
 72
    65
 73
     2
 40
5.0
 49
2.5
 49
-2.5
  0
LTYPE
  2
DASHED3
 70
    64
  3
------  ------  ------  ------  
 72
    65
 73
     2
 40
5.0
 49
3.75
 49
-1.25
  0
LTYPE
  2
CENTER1
 70
    64
  3
----- - ----- - ----- - ----- - 
 72
    65
 73
     4
 40
10.0
 49
6.25
 49
-1.25
 49
1.25
 49
-1.25
  0
LTYPE
  2
CENTER2
 70
    64
  3
----------  --  ----------  --  
 72
    65
 73
     4
 40
20.0
 49
12.5
 49
-2.5
 49
2.5
 49
-2.5
  0
LTYPE
  2
PHANTOM1
 70
    64
  3
--- - - --- - - --- - - --- - - 
 72
    65
 73
     6
 40
10.0
 49
3.25
 49
-1.25
 49
1.25
 49
-1.25
 49
1.25
 49
-1.25
  0
LTYPE
  2
PHANTOM2
 70
    64
  3
--------  -  -  --------  -  -  
 72
    65
 73
     6
 40
20.0
 49
10.0
 49
-2.5
 49
1.25
 49
-2.5
 49
1.25
 49
-2.5
  0
LTYPE
  2
DOT
 70
    64
  3
-   -   -   -   -   -   -   -   
 72
    65
 73
     2
 40
2.5
 49
0.625
 49
-1.875
  0
LTYPE
  2
DUMMY
 70
    64
  3
ダミー
 72
    65
 73
     0
 40
0.0
  0
LTYPE
  2
RAND1
 70
    64
  3
ランダム線1
 72
    65
 73
     4
 40
10.0
 49
1.0
 49
-2.0
 49
3.0
 49
-4.0
  0
LTYPE
  2
RAND2
 70
    64
  3
ランダム線2
 72
    65
 73
     4
 40
14.0
 49
2.0
 49
-3.0
 49
4.0
 49
-5.0
  0
LTYPE
  2
RAND3
 70
    64
  3
ランダム線3
 72
    65
 73
     4
 40
18.0
 49
3.0
 49
-4.0
 49
5.0
 49
-6.0
  0
LTYPE
  2
RAND4
 70
    64
  3
ランダム線4
 72
    65
 73
     4
 40
22.0
 49
4.0
 49
-5.0
 49
6.0
 49
-7.0
  0
LTYPE
  2
RAND5
 70
    64
  3
ランダム線5
 72
    65
 73
     4
 40
26.0
 49
5.0
 49
-6.0
 49
7.0
 49
-8.0
  0
LTYPE
  2
LONG1
 70
    64
  3
----------  --  ----------  --  
 72
    65
 73
     4
 40
40.0
 49
32.5
 49
-2.5
 49
2.5
 49
-2.5
  0
LTYPE
  2
LONG2
 70
    64
  3
--------  -  -  --------  -  -  
 72
    65
 73
     6
 40
40.0
 49
30.0
 49
-2.5
 49
1.25
 49
-2.5
 49
1.25
 49
-2.5
  0
LTYPE
  2
LONG3
 70
    64
  3
+++++++++++++++..+++++++++++++++
 72
    65
 73
     2
 40
40.0
 49
37.5
 49
-2.5
  0
LTYPE
  2
LONG4
 70
    64
  3
+++++++++++++++..+++++++++++++++
 72
    65
 73
     2
 40
80.0
 49
75.0
 49
-5.0
  0
LTYPE
  2
LONG5
 70
    64
  3
----------  --  ----------  --  
 72
    65
 73
     4
 40
60.0
 49
37.5
 49
-7.5
 49
7.5
 49
-7.5
  0
LTYPE
  2
dashed
 70
   64
  3
-------   -------------   ------
 72
   65
 73
    2
 40
7.5
 49
6
 49
-1.5
  0
LTYPE
  2
dashed_spaced
 70
   64
  3
----        --------        ----
 72
   65
 73
    2
 40
12
 49
6
 49
-6
  0
LTYPE
  2
long_dashed_dotted
 70
   64
  3
------------- --- --------------
 72
   65
 73
    4
 40
15.25
 49
12
 49
-1.5
 49
0.25
 49
-1.5
  0
LTYPE
  2
long_dashed_double-dotted
 70
   64
  3
----------- --- --- ------------
 72
   65
 73
    6
 40
17
 49
12
 49
-1.5
 49
0.25
 49
-1.5
 49
0.25
 49
-1.5
  0
LTYPE
  2
long_dashed_triplicate-dotted
 70
   64
  3
--------- --- --- --- ----------
 72
   65
 73
    8
 40
18.75
 49
12
 49
-1.5
 49
0.25
 49
-1.5
 49
0.25
 49
-1.5
 49
0.25
 49
-1.5
  0
LTYPE
  2
dotted
 70
   64
  3
   -       -       -       -    
 72
   65
 73
    2
 40
1.75
 49
0.25
 49
-1.5
  0
LTYPE
  2
chain
 70
   64
  3
-------------- -- --------------
 72
   65
 73
    4
 40
18.5
 49
12
 49
-1.5
 49
3.5
 49
-1.5
  0
LTYPE
  2
chain_double_dash
 70
   64
  3
------------ -- -- -------------
 72
   65
 73
    6
 40
23.5
 49
12
 49
-1.5
 49
3.5
 49
-1.5
 49
3.5
 49
-1.5
  0
LTYPE
  2
dashed_dotted
 70
   64
  3
-----------     -     ----------
 72
   65
 73
    4
 40
9.25
 49
6
 49
-1.5
 49
0.25
 49
-1.5
  0
LTYPE
  2
double-dashed_dotted
 70
   64
  3
------   -----------   -   -----
 72
   65
 73
    6
 40
16.75
 49
6
 49
-1.5
 49
6
 49
-1.5
 49
0.25
 49
-1.5
  0
LTYPE
  2
dashed_double-dotted
 70
   64
  3
---------    -    -    ---------
 72
   65
 73
    6
 40
11
 49
6
 49
-1.5
 49
0.25
 49
-1.5
 49
0.25
 49
-1.5
  0
LTYPE
  2
double-dashed_double-dotted
 70
   64
  3
-----   ---------   -   -   ----
 72
   65
 73
    8
 40
18.5
 49
6
 49
-1.5
 49
6
 49
-1.5
 49
0.25
 49
-1.5
 49
0.25
 49
-1.5
  0
LTYPE
  2
dashed_triplicate-dotted
 70
   64
  3
-------    -    -    -    ------
 72
   65
 73
    8
 40
12.75
 49
6
 49
-1.5
 49
0.25
 49
-1.5
 49
0.25
 49
-1.5
 49
0.25
 49
-1.5
  0
LTYPE
  2
double-dashed_triplicate-dotted
 70
   64
  3
-----  ---------  -  -  -  -----
 72
   65
 73
   10
 40
20.25
 49
6
 49
-1.5
 49
6
 49
-1.5
 49
0.25
 49
-1.5
 49
0.25
 49
-1.5
 49
0.25
 49
-1.5
  0
LTYPE
  2
undefined
 70
   64
  3
--------------------------------
 72
   65
 73
    0
 40
0
  0
LTYPE
  2
DASHED
 70
   64
  3
------     -----------     -----
 72
   65
 73
    2
 40
0.75
 49
0.5
 49
-0.25
  0
LTYPE
  2
HIDDEN
 70
   64
  3
------     -----------     -----
 72
   65
 73
    2
 40
0.375
 49
0.25
 49
-0.125
  0
LTYPE
  2
CENTER
 70
   64
  3
----------    ----    ----------
 72
   65
 73
    4
 40
2
 49
1.25
 49
-0.25
 49
0.25
 49
-0.25
  0
LTYPE
  2
_
 70
   64
  3
                                
 72
   65
 73
    0
 40
0
  0
LTYPE
  2
__21
 70
   64
  3
                                
 72
   65
 73
    0
 40
0
  0
LTYPE
  2
__22
 70
   64
  3
                                
 72
   65
 73
    0
 40
0
  0
LTYPE
  2
__23
 70
   64
  3
                                
 72
   65
 73
    0
 40
0
  0
LTYPE
  2
__24
 70
   64
  3
                                
 72
   65
 73
    0
 40
0
  0
LTYPE
  2
__25
 70
   64
  3
                                
 72
   65
 73
    0
 40
0
  0
LTYPE
  2
__26
 70
   64
  3
                                
 72
   65
 73
    0
 40
0
  0
LTYPE
  2
__27
 70
   64
  3
                                
 72
   65
 73
    0
 40
0
  0
LTYPE
  2
__28
 70
   64
  3
                                
 72
   65
 73
    0
 40
0
  0
LTYPE
  2
__29
 70
   64
  3
                                
 72
   65
 73
    0
 40
0
  0
LTYPE
  2
__30
 70
   64
  3
                                
 72
   65
 73
    0
 40
0
  0
LTYPE
  2
__31
 70
   64
  3
                                
 72
   65
 73
    0
 40
0
  0
LTYPE
  2
__32
 70
   64
  3
                                
 72
   65
 73
    0
 40
0
  0
ENDTAB
  0
TABLE
  2
STYLE
  5
3
100
AcDbSymbolTable
 70
     1
  0
STYLE
  5
10
100
AcDbSymbolTableRecord
100
AcDbTextStyleTableRecord
  2
STANDARD
 70
     0
 40
0.0
 41
1.0
 50
0.0
 71
     0
 42
0.2
  3
txt
  4
bigfont.shx
  0
STYLE
  5
26
100
AcDbSymbolTableRecord
100
AcDbTextStyleTableRecord
  2
TATEGAKI
 70
    68
 40
0.0
 41
1.0
 50
0.0
 71
     0
 42
1.0
  3
txt
  4
bigfont.shx
  0
ENDTAB
  0
TABLE
  2
LAYER
 70
    4
  0
LAYER
  2
_0-0_0
 70
   64
 62
    7
  6
CONTINUOUS
  0
LAYER
  2
_0-1_H0
 70
   64
 62
    7
  6
CONTINUOUS
  0
LAYER
  2
_0-3_A0
 70
   64
 62
    7
  6
CONTINUOUS
  0
LAYER
  2
ADD_LINE
 70
   64
 62
    7
  6
CONTINUOUS
  0
ENDTAB
  0
ENDSEC
  0
SECTION
  2
BLOCKS
  0
BLOCK
  2
-000-_DOT
 70
   64
 10
0
 20
0
 30
0
  0
CIRCLE
  8
_0-0_0
  6
CONTINUOUS
 62
    7
 10
0
 20
0
 40
0.25
  0
CIRCLE
  8
_0-0_0
  6
CONTINUOUS
 62
    7
 10
0
 20
-0
 40
0.25
  0
LINE
  8
_0-0_0
  6
CONTINUOUS
 62
    7
 10
-0.5
 20
0
 11
-1
 21
0
  0
ENDBLK
  0
BLOCK
  2
-001-_OPEN
 70
   64
 10
0
 20
0
 30
0
  0
LINE
  8
_0-0_0
  6
CONTINUOUS
 62
    7
 10
-1
 20
0.166667
 11
0
 21
0
  0
LINE
  8
_0-0_0
  6
CONTINUOUS
 62
    7
 10
0
 20
0
 11
-1
 21
-0.166667
  0
LINE
  8
_0-0_0
  6
CONTINUOUS
 62
    7
 10
0
 20
0
 11
-1
 21
0
  0
ENDBLK
  0
BLOCK
  2
-002-_U119
 70
   64
 10
0
 20
0
 30
0
  0
TEXT
  8
_0-3_A0
 62
    7
 10
235.62278285642798
 20
223.11327290833949
 40
4
 41
1
 50
0
  1
300
  0
ENDBLK
  0
BLOCK
  2
-003-_D13
 70
   64
 10
0
 20
0
 30
0
  0
LINE
  8
_0-3_A0
  6
CONTINUOUS
 62
    7
 10
202.7894495230947
 20
210.0518236897671
 11
202.7894495230947
 21
223.61327290833949
  0
LINE
  8
_0-3_A0
  6
CONTINUOUS
 62
    7
 10
205.7894495230947
 20
222.61327290833949
 11
274.78944952309467
 21
222.61327290833949
  0
INSERT
  2
-001-_OPEN
  8
_0-3_A0
 10
202.7894495230947
 20
222.61327290833949
 41
3
 42
3
 50
180
  0
INSERT
  2
-001-_OPEN
  8
_0-3_A0
 10
277.78944952309467
 20
222.61327290833949
 41
3
 42
3
 50
0
  0
LINE
  8
_0-3_A0
  6
CONTINUOUS
 62
    7
 10
277.78944952309467
 20
210.0518236897671
 11
277.78944952309467
 21
223.61327290833949
  0
INSERT
  2
-002-_U119
  8
_0-0_0
 10
0
 20
0
 41
1
 42
1
 50
0
  0
ENDBLK
  0
BLOCK
  2
-004-_U120
 70
   64
 10
0
 20
0
 30
0
  0
TEXT
  8
_0-3_A0
 62
    7
 10
235.62278285642798
 20
231.82832421417751
 40
4
 41
1
 50
0
  1
316
  0
ENDBLK
  0
BLOCK
  2
-005-_D14
 70
   64
 10
0
 20
0
 30
0
  0
LINE
  8
_0-3_A0
  6
CONTINUOUS
 62
    7
 10
200.7894495230947
 20
209.1585962189672
 11
200.7894495230947
 21
232.32832421417751
  0
LINE
  8
_0-3_A0
  6
CONTINUOUS
 62
    7
 10
203.7894495230947
 20
231.32832421417751
 11
276.78944952309467
 21
231.32832421417751
  0
INSERT
  2
-001-_OPEN
  8
_0-3_A0
 10
200.7894495230947
 20
231.32832421417751
 41
3
 42
3
 50
180
  0
INSERT
  2
-001-_OPEN
  8
_0-3_A0
 10
279.78944952309467
 20
231.32832421417751
 41
3
 42
3
 50
0
  0
LINE
  8
_0-3_A0
  6
CONTINUOUS
 62
    7
 10
279.78944952309467
 20
209.61634022995289
 11
279.78944952309467
 21
232.32832421417751
  0
INSERT
  2
-004-_U120
  8
_0-0_0
 10
0
 20
0
 41
1
 42
1
 50
0
  0
ENDBLK
  0
BLOCK
  2
-006-_U121
 70
   64
 10
0
 20
0
 30
0
  0
TEXT
  8
_0-3_A0
 62
    7
 10
235.2894495230947
 20
240.54336699558749
 40
4
 41
1
 50
0
  1
330
  0
ENDBLK
  0
BLOCK
  2
-007-_D15
 70
   64
 10
0
 20
0
 30
0
  0
LINE
  8
_0-3_A0
  6
CONTINUOUS
 62
    7
 10
199.03944952309458
 20
209.5518236897671
 11
199.03944952309458
 21
241.04336699558749
  0
LINE
  8
_0-3_A0
  6
CONTINUOUS
 62
    7
 10
202.0394495230947
 20
240.04336699558749
 11
278.53944952309467
 21
240.04336699558749
  0
INSERT
  2
-001-_OPEN
  8
_0-3_A0
 10
199.03944952309458
 20
240.04336699558749
 41
3
 42
3
 50
180
  0
INSERT
  2
-001-_OPEN
  8
_0-3_A0
 10
281.53944952309467
 20
240.04336699558749
 41
3
 42
3
 50
0
  0
LINE
  8
_0-3_A0
  6
CONTINUOUS
 62
    7
 10
281.53944952309467
 20
209.5518236897671
 11
281.53944952309467
 21
241.04336699558749
  0
INSERT
  2
-006-_U121
  8
_0-0_0
 10
0
 20
0
 41
1
 42
1
 50
0
  0
ENDBLK
  0
BLOCK
  2
-008-_U122
 70
   64
 10
0
 20
0
 30
0
  0
TEXT
  8
_0-3_A0
 62
    7
 10
184.22557421439879
 20
163.8351570111794
 40
4
 41
1
 50
90
  1
300
  0
ENDBLK
  0
BLOCK
  2
-009-_D16
 70
   64
 10
0
 20
0
 30
0
  0
LINE
  8
_0-3_A0
  6
CONTINUOUS
 62
    7
 10
202.4894495111738
 20
206.00182367784609
 11
183.72557421439879
 21
206.00182367784609
  0
LINE
  8
_0-3_A0
  6
CONTINUOUS
 62
    7
 10
184.72557421439879
 20
203.00182367784609
 11
184.72557421439879
 21
134.0018236778462
  0
INSERT
  2
-001-_OPEN
  8
_0-3_A0
 10
184.72557421439879
 20
206.00182367784609
 41
3
 42
3
 50
90
  0
INSERT
  2
-001-_OPEN
  8
_0-3_A0
 10
184.72557421439879
 20
131.0018236778462
 41
3
 42
3
 50
270
  0
LINE
  8
_0-3_A0
  6
CONTINUOUS
 62
    7
 10
202.4894495111738
 20
131.0018236778462
 11
183.72557421439879
 21
131.0018236778462
  0
INSERT
  2
-008-_U122
  8
_0-0_0
 10
0
 20
0
 41
1
 42
1
 50
0
  0
ENDBLK
  0
BLOCK
  2
-010-_U123
 70
   64
 10
0
 20
0
 30
0
  0
TEXT
  8
_0-3_A0
 62
    7
 10
173.11821606232228
 20
163.8351570111794
 40
4
 41
1
 50
90
  1
316
  0
ENDBLK
  0
BLOCK
  2
-011-_D17
 70
   64
 10
0
 20
0
 30
0
  0
LINE
  8
_0-3_A0
  6
CONTINUOUS
 62
    7
 10
197.93363871975
 20
208.00182367784609
 11
172.61821606232228
 21
208.00182367784609
  0
LINE
  8
_0-3_A0
  6
CONTINUOUS
 62
    7
 10
173.61821606232228
 20
205.00182367784609
 11
173.61821606232228
 21
132.0018236778462
  0
INSERT
  2
-001-_OPEN
  8
_0-3_A0
 10
173.61821606232228
 20
208.00182367784609
 41
3
 42
3
 50
90
  0
INSERT
  2
-001-_OPEN
  8
_0-3_A0
 10
173.61821606232228
 20
129.0018236778462
 41
3
 42
3
 50
270
  0
LINE
  8
_0-3_A0
  6
CONTINUOUS
 62
    7
 10
197.769190028161
 20
129.0018236778462
 11
172.61821606232228
 21
129.0018236778462
  0
INSERT
  2
-010-_U123
  8
_0-0_0
 10
0
 20
0
 41
1
 42
1
 50
0
  0
ENDBLK
  0
BLOCK
  2
-012-_U124
 70
   64
 10
0
 20
0
 30
0
  0
TEXT
  8
_0-3_A0
 62
    7
 10
162.15225448281358
 20
163.50182367784609
 40
4
 41
1
 50
90
  1
330
  0
ENDBLK
  0
BLOCK
  2
-013-_D18
 70
   64
 10
0
 20
0
 30
0
  0
LINE
  8
_0-3_A0
  6
CONTINUOUS
 62
    7
 10
199.2394495111738
 20
209.75182367784609
 11
161.6522544828137
 21
209.75182367784609
  0
LINE
  8
_0-3_A0
  6
CONTINUOUS
 62
    7
 10
162.6522544828137
 20
206.75182367784609
 11
162.6522544828137
 21
130.2518236778462
  0
INSERT
  2
-001-_OPEN
  8
_0-3_A0
 10
162.6522544828137
 20
209.75182367784609
 41
3
 42
3
 50
90
  0
INSERT
  2
-001-_OPEN
  8
_0-3_A0
 10
162.6522544828137
 20
127.2518236778462
 41
3
 42
3
 50
270
  0
LINE
  8
_0-3_A0
  6
CONTINUOUS
 62
    7
 10
199.2394495111738
 20
127.2518236778462
 11
161.6522544828137
 21
127.2518236778462
  0
INSERT
  2
-012-_U124
  8
_0-0_0
 10
0
 20
0
 41
1
 42
1
 50
0
  0
ENDBLK
  0
BLOCK
  2
-014-_U125
 70
   64
 10
0
 20
0
 30
0
  0
TEXT
  8
_0-3_A0
 62
    7
 10
162.15225448281358
 20
119.5434903445129
 40
4
 41
1
 50
90
  1
35
  0
ENDBLK
  0
BLOCK
  2
-015-_D19
 70
   64
 10
0
 20
0
 30
0
  0
LINE
  8
_0-3_A0
  6
CONTINUOUS
 62
    7
 10
199.2394495111738
 20
118.5018236778462
 11
161.6522544828137
 21
118.5018236778462
  0
LINE
  8
_0-3_A0
  6
CONTINUOUS
 62
    7
 10
162.6522544828137
 20
121.5018236778462
 11
162.6522544828137
 21
124.2518236778462
  0
INSERT
  2
-001-_OPEN
  8
_0-3_A0
 10
162.6522544828137
 20
118.5018236778462
 41
3
 42
3
 50
270
  0
INSERT
  2
-001-_OPEN
  8
_0-3_A0
 10
162.6522544828137
 20
127.2518236778462
 41
3
 42
3
 50
90
  0
INSERT
  2
-014-_U125
  8
_0-0_0
 10
0
 20
0
 41
1
 42
1
 50
0
  0
ENDBLK
  0
BLOCK
  2
-016-_U127
 70
   64
 10
0
 20
0
 30
0
  0
TEXT
  8
_0-3_A0
 62
    7
 10
105.83091236001918
 20
223.11327290833949
 40
4
 41
1
 50
0
  1
225
  0
ENDBLK
  0
BLOCK
  2
-017-_D20
 70
   64
 10
0
 20
0
 30
0
  0
LINE
  8
_0-3_A0
  6
CONTINUOUS
 62
    7
 10
139.28924569336339
 20
210.0518236897671
 11
139.28924569336339
 21
223.61327290833949
  0
LINE
  8
_0-3_A0
  6
CONTINUOUS
 62
    7
 10
136.28924569336339
 20
222.61327290833949
 11
86.03924569334184
 21
222.61327290833949
  0
INSERT
  2
-001-_OPEN
  8
_0-3_A0
 10
139.28924569336339
 20
222.61327290833949
 41
3
 42
3
 50
0
  0
INSERT
  2
-001-_OPEN
  8
_0-3_A0
 10
83.039245693341825
 20
222.61327290833949
 41
3
 42
3
 50
180
  0
LINE
  8
_0-3_A0
  6
CONTINUOUS
 62
    7
 10
83.039245693341825
 20
196.3018236897671
 11
83.039245693341825
 21
223.61327290833949
  0
INSERT
  2
-016-_U127
  8
_0-0_0
 10
0
 20
0
 41
1
 42
1
 50
0
  0
ENDBLK
  0
BLOCK
  2
-018-_U128
 70
   64
 10
0
 20
0
 30
0
  0
TEXT
  8
_0-3_A0
 62
    7
 10
51.637683818632432
 20
169.7518236778462
 40
4
 41
1
 50
90
  1
250
  0
ENDBLK
  0
BLOCK
  2
-019-_D21
 70
   64
 10
0
 20
0
 30
0
  0
LINE
  8
_0-3_A0
  6
CONTINUOUS
 62
    7
 10
63.989245681338609
 20
143.5018236778462
 11
51.137683818632432
 21
143.5018236778462
  0
LINE
  8
_0-3_A0
  6
CONTINUOUS
 62
    7
 10
52.137683818632432
 20
146.5018236778462
 11
52.137683818632432
 21
203.00182367784609
  0
INSERT
  2
-001-_OPEN
  8
_0-3_A0
 10
52.137683818632432
 20
143.5018236778462
 41
3
 42
3
 50
270
  0
INSERT
  2
-001-_OPEN
  8
_0-3_A0
 10
52.137683818632432
 20
206.00182367784609
 41
3
 42
3
 50
90
  0
LINE
  8
_0-3_A0
  6
CONTINUOUS
 62
    7
 10
138.98924568143661
 20
206.00182367784609
 11
51.137683818632432
 21
206.00182367784609
  0
INSERT
  2
-018-_U128
  8
_0-0_0
 10
0
 20
0
 41
1
 42
1
 50
0
  0
ENDBLK
  0
BLOCK
  2
-020-_U129
 70
   64
 10
0
 20
0
 30
0
  0
TEXT
  8
_0-3_A0
 62
    7
 10
63.625453336213709
 20
198.00182367784609
 40
4
 41
1
 50
90
  1
40
  0
ENDBLK
  0
BLOCK
  2
-021-_D22
 70
   64
 10
0
 20
0
 30
0
  0
LINE
  8
_0-3_A0
  6
CONTINUOUS
 62
    7
 10
64.125453336213709
 20
203.00182367784609
 11
64.125453336213709
 21
199.00182367784609
  0
INSERT
  2
-001-_OPEN
  8
_0-3_A0
 10
64.125453336213709
 20
206.00182367784609
 41
3
 42
3
 50
90
  0
INSERT
  2
-001-_OPEN
  8
_0-3_A0
 10
64.125453336213709
 20
196.00182367784609
 41
3
 42
3
 50
270
  0
LINE
  8
_0-3_A0
  6
CONTINUOUS
 62
    7
 10
82.739245681420939
 20
196.00182367784609
 11
63.125453336213709
 21
196.00182367784609
  0
INSERT
  2
-020-_U129
  8
_0-0_0
 10
0
 20
0
 41
1
 42
1
 50
0
  0
ENDBLK
  0
BLOCK
  2
-022-_U130
 70
   64
 10
0
 20
0
 30
0
  0
TEXT
  8
_0-3_A0
 62
    7
 10
131.2892456932272
 20
107.17057280585379
 40
4
 41
1
 50
0
  1
40
  0
ENDBLK
  0
BLOCK
  2
-023-_D23
 70
   64
 10
0
 20
0
 30
0
  0
LINE
  8
_0-3_A0
  6
CONTINUOUS
 62
    7
 10
139.2892456932341
 20
126.9518236659252
 11
139.2892456932341
 21
97.847587156744879
  0
LINE
  8
_0-3_A0
  6
CONTINUOUS
 62
    7
 10
136.2892456932341
 20
106.67057280585379
 11
132.2892456932204
 21
106.67057280585379
  0
INSERT
  2
-001-_OPEN
  8
_0-3_A0
 10
139.2892456932341
 20
106.67057280585379
 41
3
 42
3
 50
0
  0
INSERT
  2
-001-_OPEN
  8
_0-3_A0
 10
129.2892456932204
 20
106.67057280585379
 41
3
 42
3
 50
180
  0
LINE
  8
_0-3_A0
  6
CONTINUOUS
 62
    7
 10
129.2892456932204
 20
118.201823665925
 11
129.2892456932204
 21
105.67057280585379
  0
INSERT
  2
-022-_U130
  8
_0-0_0
 10
0
 20
0
 41
1
 42
1
 50
0
  0
ENDBLK
  0
BLOCK
  2
-024-_U131
 70
   64
 10
0
 20
0
 30
0
  0
TEXT
  8
_0-3_A0
 62
    7
 10
97.122579026580126
 20
99.385585735260406
 40
4
 41
1
 50
0
  1
300
  0
ENDBLK
  0
BLOCK
  2
-025-_D24
 70
   64
 10
0
 20
0
 30
0
  0
LINE
  8
_0-3_A0
  6
CONTINUOUS
 62
    7
 10
136.2892456932341
 20
98.885585735260406
 11
67.289245693259545
 21
98.885585735260406
  0
INSERT
  2
-001-_OPEN
  8
_0-3_A0
 10
139.2892456932341
 20
98.885585735260406
 41
3
 42
3
 50
0
  0
INSERT
  2
-001-_OPEN
  8
_0-3_A0
 10
64.289245693259545
 20
98.885585735260406
 41
3
 42
3
 50
180
  0
LINE
  8
_0-3_A0
  6
CONTINUOUS
 62
    7
 10
64.289245693259545
 20
143.2018236659253
 11
64.289245693259545
 21
97.885585735260406
  0
INSERT
  2
-024-_U131
  8
_0-0_0
 10
0
 20
0
 41
1
 42
1
 50
0
  0
ENDBLK
  0
BLOCK
  2
-026-_U132
 70
   64
 10
0
 20
0
 30
0
  0
INSERT
  2
-000-_DOT
  8
_0-3_A0
 10
0
 20
0
 41
1
 42
1
 50
204.17011432156502
  0
LINE
  8
_0-3_A0
  6
CONTINUOUS
 62
    7
 10
0.9123338093664449
 20
0.4094472130652633
 11
39.787090823949391
 21
17.856088732646458
  0
LINE
  8
_0-3_A0
  6
CONTINUOUS
 62
    7
 10
39.787090823949391
 20
17.856088732646458
 11
40.787090823949391
 21
17.856088732646458
  0
ENDBLK
  0
BLOCK
  2
-027-_U133
 70
   64
 10
0
 20
0
 30
0
  0
TEXT
  8
_0-3_A0
 62
    7
 10
45.109923614365662
 20
17.915309044194749
 40
4.2930001544952389
 41
1
 50
0
  1
1
  0
ENDBLK
  0
BLOCK
  2
-028-$$BALLOON$$0
 70
   64
 10
0
 20
0
 30
0
  0
INSERT
  2
-026-_U132
  8
_0-0_0
 10
0
 20
0
 41
1
 42
1
 50
0
  0
INSERT
  2
-027-_U133
  8
_0-0_0
 10
0
 20
0
 41
1
 42
1
 50
0
  0
CIRCLE
  8
_0-3_A0
  6
CONTINUOUS
 62
    7
 10
45.82542364011487
 20
20.061809121442369
 40
5.5
  0
ENDBLK
  0
BLOCK
  2
-029-_U134
 70
   64
 10
0
 20
0
 30
0
  0
INSERT
  2
-000-_DOT
  8
_0-3_A0
 10
0
 20
0
 41
1
 42
1
 50
306.19975535770521
  0
LINE
  8
_0-3_A0
  6
CONTINUOUS
 62
    7
 10
-0.5906022220444786
 20
0.8069628339125195
 11
-20.145914826043739
 21
27.526148586959038
  0
LINE
  8
_0-3_A0
  6
CONTINUOUS
 62
    7
 10
-20.145914826043739
 20
27.526148586959038
 11
-21.145914826043739
 21
27.526148586959038
  0
ENDBLK
  0
BLOCK
  2
-030-_U135
 70
   64
 10
0
 20
0
 30
0
  0
TEXT
  8
_0-3_A0
 62
    7
 10
-25.927531487676439
 20
29.741227161059129
 40
4.2930001544952389
 41
1
 50
0
  1
2
  0
ENDBLK
  0
BLOCK
  2
-031-$$BALLOON$$1
 70
   64
 10
0
 20
0
 30
0
  0
INSERT
  2
-029-_U134
  8
_0-0_0
 10
0
 20
0
 41
1
 42
1
 50
0
  0
INSERT
  2
-030-_U135
  8
_0-0_0
 10
0
 20
0
 41
1
 42
1
 50
0
  0
CIRCLE
  8
_0-3_A0
  6
CONTINUOUS
 62
    7
 10
-24.496531436178031
 20
31.887727238306759
 40
5.5
  0
ENDBLK
  0
BLOCK
  2
-032-_U136
 70
   64
 10
0
 20
0
 30
0
  0
INSERT
  2
-000-_DOT
  8
_0-3_A0
 10
0
 20
0
 41
1
 42
1
 50
196.78103536454233
  0
LINE
  8
_0-3_A0
  6
CONTINUOUS
 62
    7
 10
0.9574151132644207
 20
0.2887149128342281
 11
24.337821098786509
 21
7.339232272146658
  0
LINE
  8
_0-3_A0
  6
CONTINUOUS
 62
    7
 10
24.337821098786509
 20
7.339232272146658
 11
25.337821098786509
 21
7.339232272146658
  0
ENDBLK
  0
BLOCK
  2
-033-_U137
 70
   64
 10
0
 20
0
 30
0
  0
TEXT
  8
_0-3_A0
 62
    7
 10
29.189668271606201
 20
6.722936496459626
 40
4.2930001544952389
 41
1
 50
0
  1
3
  0
ENDBLK
  0
BLOCK
  2
-034-$$BALLOON$$2
 70
   64
 10
0
 20
0
 30
0
  0
INSERT
  2
-032-_U136
  8
_0-0_0
 10
0
 20
0
 41
1
 42
1
 50
0
  0
INSERT
  2
-033-_U137
  8
_0-0_0
 10
0
 20
0
 41
1
 42
1
 50
0
  0
CIRCLE
  8
_0-3_A0
  6
CONTINUOUS
 62
    7
 10
30.620668323104609
 20
8.8694365737072473
 40
5.5
  0
ENDBLK
  0
BLOCK
  2
-035-_U138
 70
   64
 10
0
 20
0
 30
0
  0
INSERT
  2
-001-_OPEN
  8
_0-3_A0
 10
0
 20
0
 41
3
 42
3
 50
39.244928726113826
  0
LINE
  8
_0-3_A0
  6
CONTINUOUS
 62
    7
 10
-2.323345926201938
 20
-1.897910352782991
 11
-19.507091036733509
 21
-15.93508293955144
  0
LINE
  8
_0-3_A0
  6
CONTINUOUS
 62
    7
 10
-19.507091036733509
 20
-15.93508293955144
 11
-22.507091036733509
 21
-15.93508293955144
  0
ENDBLK
  0
BLOCK
  2
-036-_U139
 70
   64
 10
0
 20
0
 30
0
  0
TEXT
  8
_0-3_A0
 62
    7
 10
-28.426925506354859
 20
-21.259690247003049
 40
4.2930001544952389
 41
1
 50
0
  1
5
  0
ENDBLK
  0
BLOCK
  2
-037-$$BALLOON$$3
 70
   64
 10
0
 20
0
 30
0
  0
INSERT
  2
-035-_U138
  8
_0-0_0
 10
0
 20
0
 41
1
 42
1
 50
0
  0
INSERT
  2
-036-_U139
  8
_0-0_0
 10
0
 20
0
 41
1
 42
1
 50
0
  0
CIRCLE
  8
_0-3_A0
  6
CONTINUOUS
 62
    7
 10
-26.99592545485645
 20
-19.11319016975543
 40
5.5
  0
ENDBLK
  0
BLOCK
  2
-038-_U140
 70
   64
 10
0
 20
0
 30
0
  0
INSERT
  2
-001-_OPEN
  8
_0-3_A0
 10
0
 20
0
 41
3
 42
3
 50
139.8794380578972
  0
LINE
  8
_0-3_A0
  6
CONTINUOUS
 62
    7
 10
2.2940705781197259
 20
-1.9331942950995431
 11
20.17408357239789
 21
-17.000533306602388
  0
LINE
  8
_0-3_A0
  6
CONTINUOUS
 62
    7
 10
20.17408357239789
 20
-17.000533306602388
 11
23.17408357239789
 21
-17.000533306602388
  0
ENDBLK
  0
BLOCK
  2
-039-_U141
 70
   64
 10
0
 20
0
 30
0
  0
TEXT
  8
_0-3_A0
 62
    7
 10
26.17774464955313
 20
-22.400305686318461
 40
4.2930001544952389
 41
1
 50
0
  1
4
  0
ENDBLK
  0
BLOCK
  2
-040-$$BALLOON$$4
 70
   64
 10
0
 20
0
 30
0
  0
INSERT
  2
-038-_U140
  8
_0-0_0
 10
0
 20
0
 41
1
 42
1
 50
0
  0
INSERT
  2
-039-_U141
  8
_0-0_0
 10
0
 20
0
 41
1
 42
1
 50
0
  0
CIRCLE
  8
_0-3_A0
  6
CONTINUOUS
 62
    7
 10
27.608744701051538
 20
-20.253805609070841
 40
5.5
  0
ENDBLK
  0
BLOCK
  2
-041-_U30
 70
   64
 10
0
 20
0
 30
0
  0
TEXT
  8
_0-1_H0
 62
    7
 10
336.80999999046309
 20
32.409999895095822
 40
3.0999999046325679
 41
1
 50
0
  1
型名
  0
ENDBLK
  0
BLOCK
  2
-042-_U31
 70
   64
 10
0
 20
0
 30
0
  0
TEXT
  8
_0-1_H0
 62
    7
 10
336.80999999046309
 20
23.806666564941398
 40
3.0999999046325679
 41
1
 50
0
  1
図番
  0
ENDBLK
  0
BLOCK
  2
-043-_U32
 70
   64
 10
0
 20
0
 30
0
  0
TEXT
  8
_0-1_H0
 62
    7
 10
351.25
 20
17.71
 40
5.58
 41
1
 50
0
  1
１０９２２５６
  0
ENDBLK
  0
BLOCK
  2
-044-_U33
 70
   64
 10
0
 20
0
 30
0
  0
TEXT
  8
_0-1_H0
 62
    7
 10
351.01600000000001
 20
10.71
 40
5.58
 41
1
 50
0
  1
製 品 姿 図
  0
ENDBLK
  0
BLOCK
  2
-045-_U34
 70
   64
 10
0
 20
0
 30
0
  0
TEXT
  8
_0-1_H0
 62
    7
 10
336.80999999046309
 20
16.806666564941398
 40
3.0999999046325679
 41
1
 50
0
  1
図名
  0
ENDBLK
  0
BLOCK
  2
-046-_U35
 70
   64
 10
0
 20
0
 30
0
  0
TEXT
  8
_0-1_H0
 62
    7
 10
57.205600116729726
 20
283.66300002574922
 40
1.673999948501587
 41
1
 50
0
  1
技連番号
  0
ENDBLK
  0
BLOCK
  2
-047-_U36
 70
   64
 10
0
 20
0
 30
0
  0
TEXT
  8
_0-1_H0
 62
    7
 10
68.976200123786924
 20
283.58550002813342
 40
1.8289999437332149
 41
1
 50
0
  1
年 月 日
  0
ENDBLK
  0
BLOCK
  2
-048-_U37
 70
   64
 10
0
 20
0
 30
0
  0
TEXT
  8
_0-1_H0
 62
    7
 10
80.602666740417475
 20
283.60100002765659
 40
1.797999944686889
 41
1
 50
0
  1
担 当
  0
ENDBLK
  0
BLOCK
  2
-049-_U38
 70
   64
 10
0
 20
0
 30
0
  0
TEXT
  8
_0-1_H0
 62
    7
 10
15.850666732788079
 20
283.4925000309945
 40
2.0149999380111691
 41
1
 50
0
  1
記号
  0
ENDBLK
  0
BLOCK
  2
-050-_U39
 70
   64
 10
0
 20
0
 30
0
  0
TEXT
  8
_0-1_H0
 62
    7
 10
29.805666918754578
 20
283.4925000309945
 40
2.0149999380111691
 41
1
 50
0
  1
変　更　履　歴
  0
ENDBLK
  0
BLOCK
  2
-051-_U40
 70
   64
 10
0
 20
0
 30
0
  0
TEXT
  8
_0-1_H0
 62
    7
 10
17.199999999999999
 20
273.93817062273467
 40
1.6639999389648429
 41
1
 50
0
  1
B
  0
ENDBLK
  0
BLOCK
  2
-052-_U41
 70
   64
 10
0
 20
0
 30
0
  0
TEXT
  8
_0-1_H0
 62
    7
 10
17.199999999999999
 20
278.43817062273467
 40
1.6639999389648429
 41
1
 50
0
  1
A
  0
ENDBLK
  0
BLOCK
  2
-053-_U42
 70
   64
 10
0
 20
0
 30
0
  0
TEXT
  8
_0-1_H0
 62
    7
 10
17.199999999999999
 20
269.43800003051762
 40
1.6639999389648429
 41
1
 50
0
  1
C
  0
ENDBLK
  0
BLOCK
  2
-054-_U43
 70
   64
 10
0
 20
0
 30
0
  0
TEXT
  8
_0-1_H0
 62
    7
 10
17.199999999999999
 20
264.93800003051762
 40
1.6639999389648429
 41
1
 50
0
  1
D
  0
ENDBLK
  0
BLOCK
  2
-055-_U44
 70
   64
 10
0
 20
0
 30
0
  0
TEXT
  8
_0-1_H0
 62
    7
 10
17.199999999999999
 20
260.43800003051762
 40
1.6639999389648429
 41
1
 50
0
  1
E
  0
ENDBLK
  0
BLOCK
  2
-056-_U45
 70
   64
 10
0
 20
0
 30
0
  0
TEXT
  8
_0-1_H0
 62
    7
 10
400.0200000047684
 20
17.240000081062309
 40
2.2000000476837149
 41
1
 50
0
  1
変更歴
  0
ENDBLK
  0
BLOCK
  2
-057-_U46
 70
   64
 10
0
 20
0
 30
0
  0
TEXT
  8
_0-1_H0
 62
    7
 10
340.99999999989341
 20
28.3
 40
4.6500000000000003
 41
1
 50
0
  1
FAN-25WK
  0
ENDBLK
  0
BLOCK
  2
-058-_U47
 70
   64
 10
0
 20
0
 30
0
  0
TEXT
  8
_0-1_H0
 62
    7
 10
340.71893334186808
 20
24.3
 40
2.1079999351501461
 41
1
 50
0
  1
ワンド株式会社殿向け 25cm換気扇用ウェザーカバー　
  0
ENDBLK
  0
BLOCK
  2
-059-_U48
 70
   64
 10
0
 20
0
 30
0
  0
TEXT
  8
_0-1_H0
 62
    7
 10
308.0496000843749
 20
31.408000018666811
 40
2.183999962806701
 41
1
 50
0
  1
変更承認
  0
ENDBLK
  0
BLOCK
  2
-060-_U49
 70
   64
 10
0
 20
0
 30
0
  0
TEXT
  8
_0-1_H0
 62
    7
 10
280.7533334057237
 20
31.22600002176625
 40
2.5479999566078181
 41
1
 50
0
  1
設　計
  0
ENDBLK
  0
BLOCK
  2
-061-_U50
 70
   64
 10
0
 20
0
 30
0
  0
TEXT
  8
_0-1_H0
 62
    7
 10
266.7533334057237
 20
31.22600002176625
 40
2.5479999566078181
 41
1
 50
0
  1
照　査
  0
ENDBLK
  0
BLOCK
  2
-062-_U51
 70
   64
 10
0
 20
0
 30
0
  0
TEXT
  8
_0-1_H0
 62
    7
 10
252.7533334057237
 20
31.22600002176625
 40
2.5479999566078181
 41
1
 50
0
  1
承　認
  0
ENDBLK
  0
BLOCK
  2
-063-_U52
 70
   64
 10
0
 20
0
 30
0
  0
TEXT
  8
_0-1_H0
 62
    7
 10
322.0496000843749
 20
31.408000018666811
 40
2.183999962806701
 41
1
 50
0
  1
変更照査
  0
ENDBLK
  0
BLOCK
  2
-064-_U53
 70
   64
 10
0
 20
0
 30
0
  0
TEXT
  8
_0-1_H0
 62
    7
 10
307.3999999999998
 20
11.82
 40
3.3599999999999989
 41
1
 50
0
  1
三角法
  0
ENDBLK
  0
BLOCK
  2
-065-_U54
 70
   64
 10
0
 20
0
 30
0
  0
TEXT
  8
_0-1_H0
 62
    7
 10
329.73466667970012
 20
10.75200001955033
 40
2.295999960899353
 41
1
 50
0
  1
4
  0
ENDBLK
  0
BLOCK
  2
-066-_U55
 70
   64
 10
0
 20
0
 30
0
  0
TEXT
  8
_0-1_H0
 62
    7
 10
327.11733333985029
 20
13.95200001954732
 40
2.295999960899353
 41
1
 50
0
  1
1
  0
ENDBLK
  0
BLOCK
  2
-067-_U56
 70
   64
 10
0
 20
0
 30
0
  0
TEXT
  8
_0-1_H0
 62
    7
 10
322.30999999046309
 20
16.806666564941409
 40
3.0999999046325679
 41
1
 50
0
  1
尺度
  0
ENDBLK
  0
BLOCK
  2
-068-_U59
 70
   64
 10
0
 20
0
 30
0
  0
TEXT
  8
_0-1_H0
 62
    7
 10
57.846777921592241
 20
27.086639766640828
 40
3.7000000000000001
 41
1
 50
0
  1
注）１．
  0
ENDBLK
  0
BLOCK
  2
-069-_U60
 70
   64
 10
0
 20
0
 30
0
  0
TEXT
  8
_0-1_H0
 62
    7
 10
77.846777921592192
 20
26.586639766640828
 40
4.2000000000000001
 41
1
 50
0
  1
補助枠は取り付け工事の時、ウェザーカバーと共締めとする。
  0
ENDBLK
  0
BLOCK
  2
-070-_U61
 70
   64
 10
0
 20
0
 30
0
  0
TEXT
  8
_0-1_H0
 62
    7
 10
319.23069827893681
 20
81.310154051557617
 40
2.919999999999999
 41
1
 50
0
  1
0
  0
ENDBLK
  0
BLOCK
  2
-071-_U62
 70
   64
 10
0
 20
0
 30
0
  0
TEXT
  8
_0-1_H0
 62
    7
 10
319.23069827893681
 20
93.197013661233768
 40
2.919999999999999
 41
1
 50
0
  1
1
  0
ENDBLK
  0
BLOCK
  2
-072-_U63
 70
   64
 10
0
 20
0
 30
0
  0
TEXT
  8
_0-1_H0
 62
    7
 10
319.23069827890617
 20
102.97065580006838
 40
2.919999999999999
 41
1
 50
0
  1
2
  0
ENDBLK
  0
BLOCK
  2
-073-_U64
 70
   64
 10
0
 20
0
 30
0
  0
TEXT
  8
_0-1_H0
 62
    7
 10
319.23069827891947
 20
112.41298489139869
 40
2.919999999999999
 41
1
 50
0
  1
3
  0
ENDBLK
  0
BLOCK
  2
-074-_U65
 70
   64
 10
0
 20
0
 30
0
  0
TEXT
  8
_0-1_H0
 62
    7
 10
309.72120958353588
 20
103.4831110920571
 40
4.2000000000000001
 41
1
 50
0
  1
静
  0
TEXT
  8
_0-1_H0
 62
    7
 10
309.72120958353588
 20
98.599911175217485
 40
4.2000000000000001
 41
1
 50
0
  1
圧
  0
ENDBLK
  0
BLOCK
  2
-075-_U66
 70
   64
 10
0
 20
0
 30
0
  0
TEXT
  8
_0-1_H0
 62
    7
 10
309.72120958353599
 20
92.140404925813001
 40
2.919999999999999
 41
1
 50
0
  1
Pa
  0
ENDBLK
  0
BLOCK
  2
-076-_U67
 70
   64
 10
0
 20
0
 30
0
  0
TEXT
  8
_0-1_H0
 62
    7
 10
337.85344298543969
 20
80.913926405563302
 40
2.919999999999999
 41
1
 50
0
  1
200
  0
ENDBLK
  0
BLOCK
  2
-077-_U68
 70
   64
 10
0
 20
0
 30
0
  0
TEXT
  8
_0-1_H0
 62
    7
 10
357.53280146567118
 20
81.178079848995466
 40
2.919999999999999
 41
1
 50
0
  1
400
  0
ENDBLK
  0
BLOCK
  2
-078-_U69
 70
   64
 10
0
 20
0
 30
0
  0
TEXT
  8
_0-1_H0
 62
    7
 10
376.55177381816827
 20
81.310154051557617
 40
2.919999999999999
 41
1
 50
0
  1
600
  0
ENDBLK
  0
BLOCK
  2
-079-_U70
 70
   64
 10
0
 20
0
 30
0
  0
TEXT
  8
_0-1_H0
 62
    7
 10
341.81572448369047
 20
73.315962067866593
 40
4.6500000000000003
 41
1
 50
0
  1
風量 m／h
  0
ENDBLK
  0
BLOCK
  2
-080-_U71
 70
   64
 10
0
 20
0
 30
0
  0
TEXT
  8
_0-1_H0
 62
    7
 10
361.75923640735419
 20
76.177486425572439
 40
2.4300000000000001
 41
1
 50
0
  1
3
  0
ENDBLK
  0
BLOCK
  2
-081-_U72
 70
   64
 10
0
 20
0
 30
0
  0
TEXT
  8
_0-1_H0
 62
    7
 10
334.7325641722698
 20
119.0564648954372
 40
4.6500000000000003
 41
1
 50
0
  1
圧力損失特性
  0
ENDBLK
  0
BLOCK
  2
-082-_U73
 70
   64
 10
0
 20
0
 30
0
  0
TEXT
  8
_0-1_H0
 62
    7
 10
271.20266666666668
 20
277.72000000000002
 40
3.56
 41
1
 50
0
  1
品番
  0
ENDBLK
  0
BLOCK
  2
-083-_U74
 70
   64
 10
0
 20
0
 30
0
  0
TEXT
  8
_0-1_H0
 62
    7
 10
289.2813333333334
 20
277.66000000000002
 40
3.6800000000000001
 41
1
 50
0
  1
部 品 名
  0
ENDBLK
  0
BLOCK
  2
-084-_U75
 70
   64
 10
0
 20
0
 30
0
  0
TEXT
  8
_0-1_H0
 62
    7
 10
325.2626666666668
 20
277.66000000000002
 40
3.6800000000000001
 41
1
 50
0
  1
材   質
  0
ENDBLK
  0
BLOCK
  2
-085-_U76
 70
   64
 10
0
 20
0
 30
0
  0
TEXT
  8
_0-1_H0
 62
    7
 10
353.22000000000019
 20
277.63999999999998
 40
3.7200000000000001
 41
1
 50
0
  1
表 面 処 理
  0
ENDBLK
  0
BLOCK
  2
-086-_U77
 70
   64
 10
0
 20
0
 30
0
  0
TEXT
  8
_0-1_H0
 62
    7
 10
387.76266666666691
 20
277.66000000000002
 40
3.6800000000000001
 41
1
 50
0
  1
色   調
  0
ENDBLK
  0
BLOCK
  2
-087-_U78
 70
   64
 10
0
 20
0
 30
0
  0
TEXT
  8
_0-1_H0
 62
    7
 10
274.02666666666669
 20
268.04000000000002
 40
2.919999999999999
 41
1
 50
0
  1
2
  0
ENDBLK
  0
BLOCK
  2
-088-_U79
 70
   64
 10
0
 20
0
 30
0
  0
TEXT
  8
_0-1_H0
 62
    7
 10
274.51333333333337
 20
273.0399999999999
 40
2.919999999999999
 41
1
 50
0
  1
1
  0
ENDBLK
  0
BLOCK
  2
-089-_U80
 70
   64
 10
0
 20
0
 30
0
  0
TEXT
  8
_0-1_H0
 62
    7
 10
274.02666666666669
 20
263.04000000000002
 40
2.919999999999999
 41
1
 50
0
  1
3
  0
ENDBLK
  0
BLOCK
  2
-090-_U81
 70
   64
 10
0
 20
0
 30
0
  0
TEXT
  8
_0-1_H0
 62
    7
 10
306.65066666666677
 20
283.02000000000009
 40
2.959999999999999
 41
1
 50
0
  1
主    要    部    品    一    覧    表
  0
ENDBLK
  0
BLOCK
  2
-091-_U82
 70
   64
 10
0
 20
0
 30
0
  0
TEXT
  8
_0-1_H0
 62
    7
 10
282.93002195142827
 20
273.97500000000002
 40
2.274999999999999
 41
1
 50
0
  1
ウェザーカバー本体
  0
ENDBLK
  0
BLOCK
  2
-092-_U83
 70
   64
 10
0
 20
0
 30
0
  0
TEXT
  8
_0-1_H0
 62
    7
 10
318.92992909593738
 20
273.04500000000001
 40
3.2549999999999998
 41
1
 50
0
  1
亜鉛めっき鋼板
  0
ENDBLK
  0
BLOCK
  2
-093-_U84
 70
   64
 10
0
 20
0
 30
0
  0
TEXT
  8
_0-1_H0
 62
    7
 10
274.02666666666669
 20
258.04000000000002
 40
2.919999999999999
 41
1
 50
0
  1
4
  0
ENDBLK
  0
BLOCK
  2
-094-_U85
 70
   64
 10
0
 20
0
 30
0
  0
TEXT
  8
_0-1_H0
 62
    7
 10
274.02666666666669
 20
253.03999999999999
 40
2.919999999999999
 41
1
 50
0
  1
5
  0
ENDBLK
  0
BLOCK
  2
-095-_U86
 70
   64
 10
0
 20
0
 30
0
  0
TEXT
  8
_0-1_H0
 62
    7
 10
318.92992909593738
 20
253.04499999999998
 40
3.2549999999999998
 41
1
 50
0
  1
アルミニウム TAP-D41BS
  0
ENDBLK
  0
BLOCK
  2
-096-_U87
 70
   64
 10
0
 20
0
 30
0
  0
TEXT
  8
_0-1_H0
 62
    7
 10
282.93002195142827
 20
268.97500000000002
 40
2.274999999999999
 41
1
 50
0
  1
ウェザーカバー側板Ｒ
  0
ENDBLK
  0
BLOCK
  2
-097-_U88
 70
   64
 10
0
 20
0
 30
0
  0
TEXT
  8
_0-1_H0
 62
    7
 10
282.93002195142827
 20
263.97500000000002
 40
2.274999999999999
 41
1
 50
0
  1
ウェザーカバー側板Ｌ
  0
ENDBLK
  0
BLOCK
  2
-098-_U89
 70
   64
 10
0
 20
0
 30
0
  0
TEXT
  8
_0-1_H0
 62
    7
 10
283.23335528476161
 20
258.97500000000002
 40
2.274999999999999
 41
1
 50
0
  1
補助枠
  0
ENDBLK
  0
BLOCK
  2
-099-_U90
 70
   64
 10
0
 20
0
 30
0
  0
TEXT
  8
_0-1_H0
 62
    7
 10
283.08168861809497
 20
253.9750000000001
 40
2.274999999999999
 41
1
 50
0
  1
ポップリベット
  0
ENDBLK
  0
BLOCK
  2
-100-_U91
 70
   64
 10
0
 20
0
 30
0
  0
TEXT
  8
_0-1_H0
 62
    7
 10
318.92992909593738
 20
268.04500000000001
 40
3.2549999999999998
 41
1
 50
0
  1
亜鉛めっき鋼板
  0
ENDBLK
  0
BLOCK
  2
-101-_U92
 70
   64
 10
0
 20
0
 30
0
  0
TEXT
  8
_0-1_H0
 62
    7
 10
318.92992909593738
 20
263.04500000000001
 40
3.2549999999999998
 41
1
 50
0
  1
亜鉛めっき鋼板
  0
ENDBLK
  0
BLOCK
  2
-102-_U93
 70
   64
 10
0
 20
0
 30
0
  0
TEXT
  8
_0-1_H0
 62
    7
 10
318.92992909593738
 20
258.04500000000001
 40
3.2549999999999998
 41
1
 50
0
  1
亜鉛めっき鋼板
  0
ENDBLK
  0
BLOCK
  2
-103-_U94
 70
   64
 10
0
 20
0
 30
0
  0
TEXT
  8
_0-1_H0
 62
    7
 10
352.18708030263621
 20
274.19999999999998
 40
2.1
 41
1
 50
0
  1
ポリエステル塗装
  0
ENDBLK
  0
BLOCK
  2
-104-_U95
 70
   64
 10
0
 20
0
 30
0
  0
TEXT
  8
_0-1_H0
 62
    7
 10
352.18708030263621
 20
269.19999999999998
 40
2.1
 41
1
 50
0
  1
ポリエステル塗装
  0
ENDBLK
  0
BLOCK
  2
-105-_U96
 70
   64
 10
0
 20
0
 30
0
  0
TEXT
  8
_0-1_H0
 62
    7
 10
352.18708030263621
 20
264.19999999999998
 40
2.1
 41
1
 50
0
  1
ポリエステル塗装
  0
ENDBLK
  0
BLOCK
  2
-106-_U97
 70
   64
 10
0
 20
0
 30
0
  0
TEXT
  8
_0-1_H0
 62
    7
 10
352.18708030263621
 20
259.19999999999998
 40
2.1
 41
1
 50
0
  1
ポリエステル塗装
  0
ENDBLK
  0
BLOCK
  2
-107-_U98
 70
   64
 10
0
 20
0
 30
0
  0
TEXT
  8
_0-1_H0
 62
    7
 10
383.92992909593738
 20
273.07999999999998
 40
3.2200000000000001
 41
1
 50
0
  1
表題欄による
  0
ENDBLK
  0
BLOCK
  2
-108-_U99
 70
   64
 10
0
 20
0
 30
0
  0
TEXT
  8
_0-1_H0
 62
    7
 10
383.92992909593738
 20
268.07999999999998
 40
3.2200000000000001
 41
1
 50
0
  1
表題欄による
  0
ENDBLK
  0
BLOCK
  2
-109-_U100
 70
   64
 10
0
 20
0
 30
0
  0
TEXT
  8
_0-1_H0
 62
    7
 10
383.92992909593738
 20
263.07999999999998
 40
3.2200000000000001
 41
1
 50
0
  1
表題欄による
  0
ENDBLK
  0
BLOCK
  2
-110-_U101
 70
   64
 10
0
 20
0
 30
0
  0
TEXT
  8
_0-1_H0
 62
    7
 10
383.92992909593738
 20
258.07999999999998
 40
3.2200000000000001
 41
1
 50
0
  1
表題欄による
  0
ENDBLK
  0
BLOCK
  2
-111-_U102
 70
   64
 10
0
 20
0
 30
0
  0
TEXT
  8
_0-1_H0
 62
    7
 10
294.83826673761058
 20
31.22600002176625
 40
2.5479999566078181
 41
1
 50
0
  1
製　図
  0
ENDBLK
  0
BLOCK
  2
-112-_U103
 70
   64
 10
0
 20
0
 30
0
  0
TEXT
  8
_0-1_H0
 62
    7
 10
295.90390862944161
 20
25.859010152284259
 40
2.4300000000000001
 41
1
 50
0
  1
篠原
  0
ENDBLK
  0
BLOCK
  2
-113-_U104
 70
   64
 10
0
 20
0
 30
0
  0
TEXT
  8
_0-1_H0
 62
    7
 10
293.27371583355858
 20
19.68068021699862
 40
1.7639999699592578
 41
1
 50
0
  1
2023/03/28
  0
ENDBLK
  0
BLOCK
  2
-114-_U105
 70
   64
 10
0
 20
0
 30
0
  0
TEXT
  8
_0-1_H0
 62
    7
 10
281.90390862944161
 20
25.859010152284259
 40
2.4300000000000001
 41
1
 50
0
  1
篠原
  0
ENDBLK
  0
BLOCK
  2
-115-_U106
 70
   64
 10
0
 20
0
 30
0
  0
TEXT
  8
_0-1_H0
 62
    7
 10
279.27371583355869
 20
19.68068021699862
 40
1.7639999699592578
 41
1
 50
0
  1
2023/03/28
  0
ENDBLK
  0
BLOCK
  2
-116-_U107
 70
   64
 10
0
 20
0
 30
0
  0
TEXT
  8
_0-1_H0
 62
    7
 10
392.58533333333332
 20
34.84000000000001
 40
3.3199999999999989
 41
1
 50
0
  1
区分No.
  0
ENDBLK
  0
BLOCK
  2
-117-_U108
 70
   64
 10
0
 20
0
 30
0
  0
TEXT
  8
_0-1_H0
 62
    7
 10
331.93333333333328
 20
34.500000000000007
 40
4
 41
1
 50
0
  1
色　　調
  0
ENDBLK
  0
BLOCK
  2
-118-_U109
 70
   64
 10
0
 20
0
 30
0
  0
TEXT
  8
_0-1_H0
 62
    7
 10
294.79999999999989
 20
34.499999999999992
 40
4
 41
1
 50
0
  1
製品コード
  0
ENDBLK
  0
BLOCK
  2
-119-_U110
 70
   64
 10
0
 20
0
 30
0
  0
TEXT
  8
_0-1_H0
 62
    7
 10
262.06666666666671
 20
34.499999999999992
 40
4
 41
1
 50
0
  1
型　　名
  0
ENDBLK
  0
BLOCK
  2
-120-_U111
 70
   64
 10
0
 20
0
 30
0
  0
TEXT
  8
_0-1_H0
 62
    7
 10
251
 20
40.039999999999999
 40
2.919999999999999
 41
1
 50
0
  1
FAN-25WK
  0
ENDBLK
  0
BLOCK
  2
-121-_U112
 70
   64
 10
0
 20
0
 30
0
  0
TEXT
  8
_0-1_H0
 62
    7
 10
295.53666666666669
 20
40.039999999999999
 40
2.919999999999999
 41
1
 50
0
  1
109WL300
  0
ENDBLK
  0
BLOCK
  2
-122-_U113
 70
   64
 10
0
 20
0
 30
0
  0
TEXT
  8
_0-1_H0
 62
    7
 10
321
 20
40.499999999999992
 40
2
 41
1
 50
0
  1
C2色(アイボリー)
  0
ENDBLK
  0
BLOCK
  2
-123-_U114
 70
   64
 10
0
 20
0
 30
0
  0
TEXT
  8
_0-1_H0
 62
    7
 10
399.02666666666658
 20
40.039999999999999
 40
2.919999999999999
 41
1
 50
0
  1
-
  0
ENDBLK
  0
BLOCK
  2
-124-_U115
 70
   64
 10
0
 20
0
 30
0
  0
TEXT
  8
_0-1_H0
 62
    7
 10
196.31118908814841
 20
77.25664561563083
 40
2.975
 41
1
 50
0
  1
ドリルねじ(3.5×25)
  0
ENDBLK
  0
BLOCK
  2
-125-_U116
 70
   64
 10
0
 20
0
 30
0
  0
TEXT
  8
_0-1_H0
 62
    7
 10
217.4995331587358
 20
84.134145615630828
 40
3.2200000000000001
 41
1
 50
0
  1
付 属 品
  0
ENDBLK
  0
BLOCK
  2
-126-_U117
 70
   64
 10
0
 20
0
 30
0
  0
TEXT
  8
_0-1_H0
 62
    7
 10
246.74897120041049
 20
77.780568411722455
 40
3.08
 41
1
 50
0
  1
4本
  0
ENDBLK
  0
BLOCK
  2
-127-_U118
 70
   64
 10
0
 20
0
 30
0
  0
TEXT
  8
_0-3_A0
 62
    7
 10
237.79067615393771
 20
251.84089760283438
 40
4.2000000000000001
 41
1
 50
0
  1
￡
  0
ENDBLK
  0
BLOCK
  2
-128-_U126
 70
   64
 10
0
 20
0
 30
0
  0
TEXT
  8
_0-3_A0
 62
    7
 10
294.48798468534488
 20
144.41590874278369
 40
2.8829999113082878
 41
1
 50
0
  1
4-\U+22055穴(取付用)
  0
LINE
  8
_0-3_A0
  6
CONTINUOUS
 62
    7
 10
292.56198474113489
 20
143.6989087494594
 11
294.48798468534488
 21
143.6989087494594
  0
LINE
  8
_0-3_A0
  6
CONTINUOUS
 62
    7
 10
282.16729807914271
 20
131.73796352158589
 11
292.56198474113489
 21
143.6989087494594
  0
INSERT
  2
-001-_OPEN
  8
_0-3_A0
 10
280.19942341206848
 20
129.47357192676679
 41
3
 42
3
 50
229.00765255864996
  0
LINE
  8
_0-3_A0
  6
CONTINUOUS
 62
    7
 10
294.48798468534488
 20
143.6989087494594
 11
322.75138381616608
 21
143.6989087494594
  0
ENDBLK
  0
ENDSEC
  0
SECTION
  2
ENTITIES
  0
LINE
  8
_0-1_H0
  6
CONTINUOUS
 62
    3
 10
407.49999999999994
 20
10.241136363636371
 11
407.49999999999994
 21
287.24113636363637
  0
LINE
  8
_0-1_H0
  6
CONTINUOUS
 62
    3
 10
407.49999999999994
 20
287.24113636363637
 11
12.499999999999943
 21
287.24113636363637
  0
LINE
  8
_0-1_H0
  6
CONTINUOUS
 62
    3
 10
12.499999999999943
 20
287.24113636363637
 11
12.499999999999943
 21
10.241136363636371
  0
LINE
  8
_0-1_H0
  6
CONTINUOUS
 62
    3
 10
247.49999999999994
 20
34.241136363636371
 11
407.49999999999971
 21
34.241136363636371
  0
LINE
  8
_0-1_H0
  6
CONTINUOUS
 62
    3
 10
336.49999999999982
 20
34.241136363636371
 11
336.49999999999982
 21
10.241136363636371
  0
LINE
  8
_0-1_H0
  6
CONTINUOUS
 62
    3
 10
331.49999999999982
 20
34.241136363636371
 11
331.49999999999982
 21
10.241136363636371
  0
LINE
  8
_0-1_H0
  6
CONTINUOUS
 62
    3
 10
247.49999999999994
 20
39.241136363636371
 11
407.49999999999971
 21
39.241136363636371
  0
INSERT
  2
-041-_U30
  8
_0-0_0
 10
-2.5000000000000568
 20
0.2411363636363716
 41
1
 42
1
 50
0
  0
INSERT
  2
-042-_U31
  8
_0-0_0
 10
-2.5000000000000568
 20
0.2411363636363716
 41
1
 42
1
 50
0
  0
INSERT
  2
-043-_U32
  8
_0-0_0
 10
-2.5000000000000568
 20
0.2411363636363716
 41
1
 42
1
 50
0
  0
INSERT
  2
-044-_U33
  8
_0-0_0
 10
-2.5000000000000568
 20
0.2411363636363716
 41
1
 42
1
 50
0
  0
INSERT
  2
-045-_U34
  8
_0-0_0
 10
-2.5000000000000568
 20
0.2411363636363716
 41
1
 42
1
 50
0
  0
LINE
  8
_0-1_H0
  6
CONTINUOUS
 62
    3
 10
84.499999999999943
 20
282.24113636363637
 11
12.499999999999943
 21
282.24113636363637
  0
LINE
  8
_0-1_H0
  6
CONTINUOUS
 62
    3
 10
53.499999999999943
 20
287.24113636363637
 11
53.499999999999943
 21
259.74113636363637
  0
LINE
  8
_0-1_H0
  6
CONTINUOUS
 62
    3
 10
84.499999999999943
 20
277.74113636363637
 11
12.499999999999943
 21
277.74113636363637
  0
LINE
  8
_0-1_H0
  6
CONTINUOUS
 62
    3
 10
84.499999999999943
 20
268.74113636363637
 11
12.499999999999943
 21
268.74113636363637
  0
LINE
  8
_0-1_H0
  6
CONTINUOUS
 62
    3
 10
84.499999999999943
 20
264.24113636363637
 11
12.499999999999943
 21
264.24113636363637
  0
LINE
  8
_0-1_H0
  6
CONTINUOUS
 62
    3
 10
84.499999999999943
 20
259.74113636363637
 11
12.499999999999943
 21
259.74113636363637
  0
INSERT
  2
-046-_U35
  8
_0-0_0
 10
-2.5000000000000568
 20
0.2411363636363716
 41
1
 42
1
 50
0
  0
INSERT
  2
-047-_U36
  8
_0-0_0
 10
-2.5000000000000568
 20
0.2411363636363716
 41
1
 42
1
 50
0
  0
INSERT
  2
-048-_U37
  8
_0-0_0
 10
-2.5000000000000568
 20
0.2411363636363716
 41
1
 42
1
 50
0
  0
LINE
  8
_0-1_H0
  6
CONTINUOUS
 62
    3
 10
12.499999999999943
 20
273.24113636363637
 11
84.499999999999943
 21
273.24113636363637
  0
LINE
  8
_0-1_H0
  6
CONTINUOUS
 62
    3
 10
18.499999999999943
 20
287.24113636363637
 11
18.499999999999943
 21
259.74113636363637
  0
INSERT
  2
-049-_U38
  8
_0-0_0
 10
-2.5000000000000568
 20
0.2411363636363716
 41
1
 42
1
 50
0
  0
INSERT
  2
-050-_U39
  8
_0-0_0
 10
-2.5000000000000568
 20
0.2411363636363716
 41
1
 42
1
 50
0
  0
LINE
  8
_0-1_H0
  6
CONTINUOUS
 62
    3
 10
63.499999999999943
 20
287.24113636363637
 11
63.499999999999943
 21
259.74113636363637
  0
LINE
  8
_0-1_H0
  6
CONTINUOUS
 62
    3
 10
13.299999999999897
 20
264.64113636363634
 11
17.699999999999903
 21
264.64113636363634
  0
LINE
  8
_0-1_H0
  6
CONTINUOUS
 62
    3
 10
17.699999999999874
 20
264.64113636363634
 11
15.499999999999857
 21
268.45164814028765
  0
LINE
  8
_0-1_H0
  6
CONTINUOUS
 62
    3
 10
15.499999999999886
 20
268.45164814028777
 11
13.299999999999897
 21
264.64113636363629
  0
LINE
  8
_0-1_H0
  6
CONTINUOUS
 62
    3
 10
13.299999999999897
 20
269.14113636363634
 11
17.699999999999903
 21
269.14113636363634
  0
LINE
  8
_0-1_H0
  6
CONTINUOUS
 62
    3
 10
17.699999999999903
 20
269.14113636363646
 11
15.499999999999914
 21
272.95164814028777
  0
LINE
  8
_0-1_H0
  6
CONTINUOUS
 62
    3
 10
15.499999999999886
 20
272.95164814028765
 11
13.299999999999897
 21
269.14113636363634
  0
LINE
  8
_0-1_H0
  6
CONTINUOUS
 62
    3
 10
13.299999999999897
 20
273.64113636363634
 11
17.699999999999903
 21
273.64113636363634
  0
LINE
  8
_0-1_H0
  6
CONTINUOUS
 62
    3
 10
17.699999999999903
 20
273.64113636363634
 11
15.499999999999886
 21
277.45164814028777
  0
LINE
  8
_0-1_H0
  6
CONTINUOUS
 62
    3
 10
15.499999999999914
 20
277.45164814028777
 11
13.299999999999897
 21
273.64113636363634
  0
INSERT
  2
-051-_U40
  8
_0-0_0
 10
-2.5000000000000568
 20
0.2411363636363716
 41
1
 42
1
 50
0
  0
LINE
  8
_0-1_H0
  6
CONTINUOUS
 62
    3
 10
13.299999999999897
 20
278.14113636363634
 11
17.699999999999903
 21
278.14113636363634
  0
LINE
  8
_0-1_H0
  6
CONTINUOUS
 62
    3
 10
17.699999999999903
 20
278.14113636363646
 11
15.499999999999886
 21
281.95164814028777
  0
LINE
  8
_0-1_H0
  6
CONTINUOUS
 62
    3
 10
15.499999999999886
 20
281.95164814028777
 11
13.299999999999869
 21
278.14113636363646
  0
INSERT
  2
-052-_U41
  8
_0-0_0
 10
-2.5000000000000568
 20
0.2411363636363716
 41
1
 42
1
 50
0
  0
LINE
  8
_0-1_H0
  6
CONTINUOUS
 62
    3
 10
76.499999999999943
 20
287.24113636363637
 11
76.499999999999943
 21
259.74113636363637
  0
LINE
  8
_0-1_H0
  6
CONTINUOUS
 62
    3
 10
84.499999999999943
 20
287.24113636363637
 11
84.499999999999943
 21
259.74113636363637
  0
LINE
  8
_0-1_H0
  6
CONTINUOUS
 62
    3
 10
15.499999999999886
 20
263.95164814028765
 11
13.299999999999926
 21
260.14113636363634
  0
LINE
  8
_0-1_H0
  6
CONTINUOUS
 62
    3
 10
17.699999999999874
 20
260.14113636363634
 11
15.499999999999857
 21
263.95164814028765
  0
LINE
  8
_0-1_H0
  6
CONTINUOUS
 62
    3
 10
13.299999999999897
 20
260.14113636363634
 11
17.699999999999903
 21
260.14113636363634
  0
INSERT
  2
-053-_U42
  8
_0-0_0
 10
-2.5000000000000568
 20
0.2411363636363716
 41
1
 42
1
 50
0
  0
INSERT
  2
-054-_U43
  8
_0-0_0
 10
-2.5000000000000568
 20
0.2411363636363716
 41
1
 42
1
 50
0
  0
INSERT
  2
-055-_U44
  8
_0-0_0
 10
-2.5000000000000568
 20
0.2411363636363716
 41
1
 42
1
 50
0
  0
LINE
  8
_0-1_H0
  6
CONTINUOUS
 62
    3
 10
247.49999999999982
 20
17.241136363636371
 11
407.49999999999994
 21
17.241136363636371
  0
LINE
  8
_0-1_H0
  6
CONTINUOUS
 62
    3
 10
331.49999999999982
 20
24.241136363636371
 11
407.49999999999994
 21
24.241136363636371
  0
LINE
  8
_0-1_H0
  6
CONTINUOUS
 62
    3
 10
395.49999999999994
 20
10.241136363636371
 11
395.49999999999994
 21
17.241136363636371
  0
INSERT
  2
-056-_U45
  8
_0-0_0
 10
-2.5000000000000568
 20
0.2411363636363716
 41
1
 42
1
 50
0
  0
LINE
  8
_0-1_H0
  6
CONTINUOUS
 62
    3
 10
399.49999999999994
 20
10.241136363636371
 11
399.49999999999994
 21
17.241136363636371
  0
LINE
  8
_0-1_H0
  6
CONTINUOUS
 62
    3
 10
12.499999999999943
 20
10.241136363636371
 11
407.49999999999994
 21
10.241136363636371
  0
INSERT
  2
-057-_U46
  8
_0-0_0
 10
-2.5000000000000568
 20
0.2411363636363716
 41
1
 42
1
 50
0
  0
LINE
  8
_0-1_H0
  6
CONTINUOUS
 62
    3
 10
338.49999999999982
 20
28.241136363636371
 11
405.49999999999994
 21
28.241136363636371
  0
INSERT
  2
-058-_U47
  8
_0-0_0
 10
-2.5000000000000568
 20
0.2411363636363716
 41
1
 42
1
 50
0
  0
LINE
  8
_0-1_H0
  6
CONTINUOUS
 62
    3
 10
317.49999999999982
 20
10.241136363636371
 11
317.49999999999982
 21
34.241136363636371
  0
LINE
  8
_0-1_H0
  6
CONTINUOUS
 62
    3
 10
303.49999999999982
 20
10.241136363636371
 11
303.49999999999982
 21
34.241136363636371
  0
LINE
  8
_0-1_H0
  6
CONTINUOUS
 62
    3
 10
289.49999999999982
 20
17.241136363636371
 11
289.49999999999982
 21
34.241136363636371
  0
LINE
  8
_0-1_H0
  6
CONTINUOUS
 62
    3
 10
275.49999999999982
 20
17.241136363636371
 11
275.49999999999982
 21
34.241136363636371
  0
LINE
  8
_0-1_H0
  6
CONTINUOUS
 62
    3
 10
261.49999999999994
 20
17.241136363636371
 11
261.49999999999994
 21
34.241136363636371
  0
INSERT
  2
-059-_U48
  8
_0-0_0
 10
-2.5000000000000568
 20
0.2411363636363716
 41
1
 42
1
 50
0
  0
INSERT
  2
-060-_U49
  8
_0-0_0
 10
-2.5000000000000568
 20
0.2411363636363716
 41
1
 42
1
 50
0
  0
INSERT
  2
-061-_U50
  8
_0-0_0
 10
-2.5000000000000568
 20
0.2411363636363716
 41
1
 42
1
 50
0
  0
INSERT
  2
-062-_U51
  8
_0-0_0
 10
-2.5000000000000568
 20
0.2411363636363716
 41
1
 42
1
 50
0
  0
INSERT
  2
-063-_U52
  8
_0-0_0
 10
-2.5000000000000568
 20
0.2411363636363716
 41
1
 42
1
 50
0
  0
LINE
  8
_0-1_H0
  6
CONTINUOUS
 62
    3
 10
247.49999999999982
 20
10.241136363636371
 11
247.49999999999982
 21
34.241136363636371
  0
LINE
  8
_0-1_H0
  6
CONTINUOUS
 62
    3
 10
247.49999999999982
 20
31.241136363636371
 11
331.49999999999982
 21
31.241136363636371
  0
INSERT
  2
-064-_U53
  8
_0-0_0
 10
-2.5000000000000568
 20
0.2411363636363716
 41
1
 42
1
 50
0
  0
LINE
  8
_0-1_H0
  6
CONTINUOUS
 62
    3
 10
324.50000000000005
 20
11.741136363636428
 11
328.49999999999994
 21
15.741136363633387
  0
INSERT
  2
-065-_U54
  8
_0-0_0
 10
-2.5000000000000568
 20
0.2411363636363716
 41
1
 42
1
 50
0
  0
INSERT
  2
-066-_U55
  8
_0-0_0
 10
-2.5000000000000568
 20
0.2411363636363716
 41
1
 42
1
 50
0
  0
LINE
  8
_0-1_H0
  6
CONTINUOUS
 62
    3
 10
321.49999999999982
 20
10.241136363636371
 11
321.49999999999982
 21
17.241136363636371
  0
INSERT
  2
-067-_U56
  8
_0-0_0
 10
-2.5000000000000568
 20
0.2411363636363716
 41
1
 42
1
 50
0
  0
INSERT
  2
-068-_U59
  8
_0-0_0
 10
-2.5000000000000568
 20
0.2411363636363716
 41
1
 42
1
 50
0
  0
INSERT
  2
-069-_U60
  8
_0-0_0
 10
-2.5000000000000568
 20
0.2411363636363716
 41
1
 42
1
 50
0
  0
LINE
  8
_0-1_H0
  6
CONTINUOUS
 62
    3
 10
55.346777921592178
 20
25.027776130277203
 11
75.346777921592178
 21
25.027776130277203
  0
LINE
  8
_0-1_H0
  6
CONTINUOUS
 62
    3
 10
75.346777921592149
 20
25.027776130277203
 11
215.34677792159214
 21
25.027776130277203
  0
LINE
  8
_0-1_H0
  6
CONTINUOUS
 62
    3
 10
320.82505901798896
 20
85.093958041191186
 11
377.82505901798896
 21
85.093958041191186
  0
LINE
  8
_0-1_H0
  6
CONTINUOUS
 62
    3
 10
320.82505901800016
 20
113.59395804119117
 11
320.82505901798896
 21
85.093958041191172
  0
LINE
  8
_0-1_H0
  6
CONTINUOUS
 62
    3
 10
320.82505901799265
 20
94.593958041191186
 11
377.82505901799277
 21
94.593958041191186
  0
LINE
  8
_0-1_H0
  6
CONTINUOUS
 62
    3
 10
320.82505901799623
 20
104.09395804119117
 11
377.82505901799646
 21
104.09395804119117
  0
LINE
  8
_0-1_H0
  6
CONTINUOUS
 62
    3
 10
320.82505901800004
 20
113.59395804119117
 11
377.82505901800004
 21
113.59395804119117
  0
LINE
  8
_0-1_H0
  6
CONTINUOUS
 62
    3
 10
330.32505901800004
 20
113.59395804119107
 11
330.32505901798896
 21
85.093958041191129
  0
LINE
  8
_0-1_H0
  6
CONTINUOUS
 62
    3
 10
339.82505901800016
 20
113.59395804119117
 11
339.82505901798896
 21
85.093958041191129
  0
LINE
  8
_0-1_H0
  6
CONTINUOUS
 62
    3
 10
349.32505901800016
 20
113.59395804119107
 11
349.32505901798884
 21
85.093958041191129
  0
LINE
  8
_0-1_H0
  6
CONTINUOUS
 62
    3
 10
358.82505901800016
 20
113.59395804119117
 11
358.82505901798896
 21
85.093958041191129
  0
LINE
  8
_0-1_H0
  6
CONTINUOUS
 62
    3
 10
368.32505901800016
 20
113.59395804119107
 11
368.32505901798896
 21
85.093958041191129
  0
LINE
  8
_0-1_H0
  6
CONTINUOUS
 62
    3
 10
377.82505901800004
 20
113.59395804119117
 11
377.82505901798896
 21
85.093958041191129
  0
INSERT
  2
-070-_U61
  8
_0-0_0
 10
-2.5000000000000568
 20
0.2411363636363716
 41
1
 42
1
 50
0
  0
INSERT
  2
-071-_U62
  8
_0-0_0
 10
-2.5000000000000568
 20
0.2411363636363716
 41
1
 42
1
 50
0
  0
INSERT
  2
-072-_U63
  8
_0-0_0
 10
-2.5000000000000568
 20
0.2411363636363716
 41
1
 42
1
 50
0
  0
INSERT
  2
-073-_U64
  8
_0-0_0
 10
-2.5000000000000568
 20
0.2411363636363716
 41
1
 42
1
 50
0
  0
INSERT
  2
-074-_U65
  8
_0-0_0
 10
-2.5000000000000568
 20
0.2411363636363716
 41
1
 42
1
 50
0
  0
INSERT
  2
-075-_U66
  8
_0-0_0
 10
-2.5000000000000568
 20
0.2411363636363716
 41
1
 42
1
 50
0
  0
INSERT
  2
-076-_U67
  8
_0-0_0
 10
-2.5000000000000568
 20
0.2411363636363716
 41
1
 42
1
 50
0
  0
INSERT
  2
-077-_U68
  8
_0-0_0
 10
-2.5000000000000568
 20
0.2411363636363716
 41
1
 42
1
 50
0
  0
INSERT
  2
-078-_U69
  8
_0-0_0
 10
-2.5000000000000568
 20
0.2411363636363716
 41
1
 42
1
 50
0
  0
INSERT
  2
-079-_U70
  8
_0-0_0
 10
-2.5000000000000568
 20
0.2411363636363716
 41
1
 42
1
 50
0
  0
INSERT
  2
-080-_U71
  8
_0-0_0
 10
-2.5000000000000568
 20
0.2411363636363716
 41
1
 42
1
 50
0
  0
INSERT
  2
-081-_U72
  8
_0-0_0
 10
-2.5000000000000568
 20
0.2411363636363716
 41
1
 42
1
 50
0
  0
LINE
  8
_0-1_H0
  6
CONTINUOUS
 62
    3
 10
332.23256417226974
 20
117.94760125907356
 11
365.53256501865564
 21
117.94760125907356
  0
LINE
  8
_0-1_H0
  6
CONTINUOUS
 62
    3
 10
320.82499999999993
 20
85.093936363636373
 11
321.04299999999994
 21
85.115636363636369
  0
LINE
  8
_0-1_H0
  6
CONTINUOUS
 62
    3
 10
321.04299999999994
 20
85.115636363636369
 11
321.26199999999994
 21
85.137336363636364
  0
LINE
  8
_0-1_H0
  6
CONTINUOUS
 62
    3
 10
321.26199999999994
 20
85.137336363636364
 11
321.47999999999996
 21
85.158936363636371
  0
LINE
  8
_0-1_H0
  6
CONTINUOUS
 62
    3
 10
321.47999999999996
 20
85.158936363636371
 11
321.69799999999992
 21
85.180636363636367
  0
LINE
  8
_0-1_H0
  6
CONTINUOUS
 62
    3
 10
321.69799999999992
 20
85.180636363636367
 11
321.91699999999991
 21
85.202236363636373
  0
LINE
  8
_0-1_H0
  6
CONTINUOUS
 62
    3
 10
321.91699999999991
 20
85.202236363636373
 11
322.13499999999993
 21
85.223936363636369
  0
LINE
  8
_0-1_H0
  6
CONTINUOUS
 62
    3
 10
322.13499999999993
 20
85.223936363636369
 11
322.35299999999995
 21
85.245536363636375
  0
LINE
  8
_0-1_H0
  6
CONTINUOUS
 62
    3
 10
322.35299999999995
 20
85.245536363636375
 11
322.57199999999994
 21
85.267136363636367
  0
LINE
  8
_0-1_H0
  6
CONTINUOUS
 62
    3
 10
322.57199999999994
 20
85.267136363636367
 11
322.78999999999996
 21
85.288636363636371
  0
LINE
  8
_0-1_H0
  6
CONTINUOUS
 62
    3
 10
322.78999999999996
 20
85.288636363636371
 11
323.00799999999992
 21
85.310236363636377
  0
LINE
  8
_0-1_H0
  6
CONTINUOUS
 62
    3
 10
323.00799999999992
 20
85.310236363636377
 11
323.22699999999991
 21
85.331736363636366
  0
LINE
  8
_0-1_H0
  6
CONTINUOUS
 62
    3
 10
323.22699999999991
 20
85.331736363636366
 11
323.44499999999993
 21
85.353136363636366
  0
LINE
  8
_0-1_H0
  6
CONTINUOUS
 62
    3
 10
323.44499999999993
 20
85.353136363636366
 11
323.66299999999995
 21
85.374636363636369
  0
LINE
  8
_0-1_H0
  6
CONTINUOUS
 62
    3
 10
323.66299999999995
 20
85.374636363636369
 11
323.88199999999994
 21
85.396036363636369
  0
LINE
  8
_0-1_H0
  6
CONTINUOUS
 62
    3
 10
323.88199999999994
 20
85.396036363636369
 11
324.09999999999996
 21
85.417336363636366
  0
LINE
  8
_0-1_H0
  6
CONTINUOUS
 62
    3
 10
324.09999999999996
 20
85.417336363636366
 11
324.31899999999995
 21
85.438636363636376
  0
LINE
  8
_0-1_H0
  6
CONTINUOUS
 62
    3
 10
324.31899999999995
 20
85.438636363636376
 11
324.53699999999992
 21
85.459936363636373
  0
LINE
  8
_0-1_H0
  6
CONTINUOUS
 62
    3
 10
324.53699999999992
 20
85.459936363636373
 11
324.75499999999993
 21
85.481136363636366
  0
LINE
  8
_0-1_H0
  6
CONTINUOUS
 62
    3
 10
324.75499999999993
 20
85.481136363636366
 11
324.97399999999993
 21
85.50223636363637
  0
LINE
  8
_0-1_H0
  6
CONTINUOUS
 62
    3
 10
324.97399999999993
 20
85.50223636363637
 11
325.19199999999995
 21
85.523336363636374
  0
LINE
  8
_0-1_H0
  6
CONTINUOUS
 62
    3
 10
325.19199999999995
 20
85.523336363636374
 11
325.41099999999994
 21
85.544336363636375
  0
LINE
  8
_0-1_H0
  6
CONTINUOUS
 62
    3
 10
325.41099999999994
 20
85.544336363636375
 11
325.62899999999996
 21
85.565336363636376
  0
LINE
  8
_0-1_H0
  6
CONTINUOUS
 62
    3
 10
325.62899999999996
 20
85.565336363636376
 11
325.84799999999995
 21
85.586236363636373
  0
LINE
  8
_0-1_H0
  6
CONTINUOUS
 62
    3
 10
325.84799999999995
 20
85.586236363636373
 11
326.06599999999991
 21
85.607036363636368
  0
LINE
  8
_0-1_H0
  6
CONTINUOUS
 62
    3
 10
326.06599999999991
 20
85.607036363636368
 11
326.28499999999996
 21
85.627736363636373
  0
LINE
  8
_0-1_H0
  6
CONTINUOUS
 62
    3
 10
326.28499999999996
 20
85.627736363636373
 11
326.50299999999992
 21
85.648436363636378
  0
LINE
  8
_0-1_H0
  6
CONTINUOUS
 62
    3
 10
326.50299999999992
 20
85.648436363636378
 11
326.72199999999992
 21
85.669036363636365
  0
LINE
  8
_0-1_H0
  6
CONTINUOUS
 62
    3
 10
326.72199999999992
 20
85.669036363636365
 11
326.93999999999994
 21
85.689536363636378
  0
LINE
  8
_0-1_H0
  6
CONTINUOUS
 62
    3
 10
326.93999999999994
 20
85.689536363636378
 11
327.15899999999993
 21
85.709936363636373
  0
LINE
  8
_0-1_H0
  6
CONTINUOUS
 62
    3
 10
327.15899999999993
 20
85.709936363636373
 11
327.37699999999995
 21
85.730336363636368
  0
LINE
  8
_0-1_H0
  6
CONTINUOUS
 62
    3
 10
327.37699999999995
 20
85.730336363636368
 11
327.59599999999994
 21
85.750536363636371
  0
LINE
  8
_0-1_H0
  6
CONTINUOUS
 62
    3
 10
327.59599999999994
 20
85.750536363636371
 11
327.81499999999994
 21
85.77063636363637
  0
LINE
  8
_0-1_H0
  6
CONTINUOUS
 62
    3
 10
327.81499999999994
 20
85.77063636363637
 11
328.03299999999995
 21
85.790736363636369
  0
LINE
  8
_0-1_H0
  6
CONTINUOUS
 62
    3
 10
328.03299999999995
 20
85.790736363636369
 11
328.25199999999995
 21
85.810636363636376
  0
LINE
  8
_0-1_H0
  6
CONTINUOUS
 62
    3
 10
328.25199999999995
 20
85.810636363636376
 11
328.47099999999994
 21
85.830536363636369
  0
LINE
  8
_0-1_H0
  6
CONTINUOUS
 62
    3
 10
328.47099999999994
 20
85.830536363636369
 11
328.68899999999996
 21
85.850236363636369
  0
LINE
  8
_0-1_H0
  6
CONTINUOUS
 62
    3
 10
328.68899999999996
 20
85.850236363636369
 11
328.90799999999995
 21
85.869836363636366
  0
LINE
  8
_0-1_H0
  6
CONTINUOUS
 62
    3
 10
328.90799999999995
 20
85.869836363636366
 11
329.12699999999995
 21
85.889336363636374
  0
LINE
  8
_0-1_H0
  6
CONTINUOUS
 62
    3
 10
329.12699999999995
 20
85.889336363636374
 11
329.34599999999994
 21
85.908736363636364
  0
LINE
  8
_0-1_H0
  6
CONTINUOUS
 62
    3
 10
329.34599999999994
 20
85.908736363636364
 11
329.56399999999996
 21
85.928036363636365
  0
LINE
  8
_0-1_H0
  6
CONTINUOUS
 62
    3
 10
329.56399999999996
 20
85.928036363636365
 11
329.78299999999995
 21
85.947136363636374
  0
LINE
  8
_0-1_H0
  6
CONTINUOUS
 62
    3
 10
329.78299999999995
 20
85.947136363636374
 11
330.00199999999995
 21
85.966136363636366
  0
LINE
  8
_0-1_H0
  6
CONTINUOUS
 62
    3
 10
330.00199999999995
 20
85.966136363636366
 11
330.22099999999994
 21
85.985036363636368
  0
LINE
  8
_0-1_H0
  6
CONTINUOUS
 62
    3
 10
330.22099999999994
 20
85.985036363636368
 11
330.43999999999994
 21
86.003736363636377
  0
LINE
  8
_0-1_H0
  6
CONTINUOUS
 62
    3
 10
330.43999999999994
 20
86.003736363636377
 11
330.65899999999993
 21
86.022436363636373
  0
LINE
  8
_0-1_H0
  6
CONTINUOUS
 62
    3
 10
330.65899999999993
 20
86.022436363636373
 11
330.87799999999992
 21
86.040936363636376
  0
LINE
  8
_0-1_H0
  6
CONTINUOUS
 62
    3
 10
330.87799999999992
 20
86.040936363636376
 11
331.09699999999992
 21
86.059436363636365
  0
LINE
  8
_0-1_H0
  6
CONTINUOUS
 62
    3
 10
331.09699999999992
 20
86.059436363636365
 11
331.31599999999991
 21
86.077936363636368
  0
LINE
  8
_0-1_H0
  6
CONTINUOUS
 62
    3
 10
331.31599999999991
 20
86.077936363636368
 11
331.53499999999996
 21
86.096336363636368
  0
LINE
  8
_0-1_H0
  6
CONTINUOUS
 62
    3
 10
331.53499999999996
 20
86.096336363636368
 11
331.75399999999996
 21
86.114836363636371
  0
LINE
  8
_0-1_H0
  6
CONTINUOUS
 62
    3
 10
331.75399999999996
 20
86.114836363636371
 11
331.97299999999995
 21
86.133436363636377
  0
LINE
  8
_0-1_H0
  6
CONTINUOUS
 62
    3
 10
331.97299999999995
 20
86.133436363636377
 11
332.19199999999995
 21
86.152036363636369
  0
LINE
  8
_0-1_H0
  6
CONTINUOUS
 62
    3
 10
332.19199999999995
 20
86.152036363636369
 11
332.41099999999994
 21
86.170836363636368
  0
LINE
  8
_0-1_H0
  6
CONTINUOUS
 62
    3
 10
332.41099999999994
 20
86.170836363636368
 11
332.62999999999993
 21
86.18973636363637
  0
LINE
  8
_0-1_H0
  6
CONTINUOUS
 62
    3
 10
332.62999999999993
 20
86.18973636363637
 11
332.84899999999993
 21
86.208736363636376
  0
LINE
  8
_0-1_H0
  6
CONTINUOUS
 62
    3
 10
332.84899999999993
 20
86.208736363636376
 11
333.06799999999992
 21
86.228036363636377
  0
LINE
  8
_0-1_H0
  6
CONTINUOUS
 62
    3
 10
333.06799999999992
 20
86.228036363636377
 11
333.28599999999994
 21
86.247636363636374
  0
LINE
  8
_0-1_H0
  6
CONTINUOUS
 62
    3
 10
333.28599999999994
 20
86.247636363636374
 11
333.50499999999993
 21
86.267436363636377
  0
LINE
  8
_0-1_H0
  6
CONTINUOUS
 62
    3
 10
333.50499999999993
 20
86.267436363636377
 11
333.72399999999993
 21
86.287536363636377
  0
LINE
  8
_0-1_H0
  6
CONTINUOUS
 62
    3
 10
333.72399999999993
 20
86.287536363636377
 11
333.94299999999992
 21
86.307936363636372
  0
LINE
  8
_0-1_H0
  6
CONTINUOUS
 62
    3
 10
333.94299999999992
 20
86.307936363636372
 11
334.16199999999992
 21
86.328736363636366
  0
LINE
  8
_0-1_H0
  6
CONTINUOUS
 62
    3
 10
334.16199999999992
 20
86.328736363636366
 11
334.37999999999993
 21
86.34983636363637
  0
LINE
  8
_0-1_H0
  6
CONTINUOUS
 62
    3
 10
334.37999999999993
 20
86.34983636363637
 11
334.59899999999993
 21
86.371436363636377
  0
LINE
  8
_0-1_H0
  6
CONTINUOUS
 62
    3
 10
334.59899999999993
 20
86.371436363636377
 11
334.81699999999995
 21
86.393536363636371
  0
LINE
  8
_0-1_H0
  6
CONTINUOUS
 62
    3
 10
334.81699999999995
 20
86.393536363636371
 11
335.03599999999994
 21
86.416036363636365
  0
LINE
  8
_0-1_H0
  6
CONTINUOUS
 62
    3
 10
335.03599999999994
 20
86.416036363636365
 11
335.25399999999996
 21
86.439036363636375
  0
LINE
  8
_0-1_H0
  6
CONTINUOUS
 62
    3
 10
335.25399999999996
 20
86.439036363636375
 11
335.47199999999992
 21
86.462536363636374
  0
LINE
  8
_0-1_H0
  6
CONTINUOUS
 62
    3
 10
335.47199999999992
 20
86.462536363636374
 11
335.69099999999991
 21
86.486736363636367
  0
LINE
  8
_0-1_H0
  6
CONTINUOUS
 62
    3
 10
335.69099999999991
 20
86.486736363636367
 11
335.90899999999993
 21
86.511436363636377
  0
LINE
  8
_0-1_H0
  6
CONTINUOUS
 62
    3
 10
335.90899999999993
 20
86.511436363636377
 11
336.12699999999995
 21
86.536736363636364
  0
LINE
  8
_0-1_H0
  6
CONTINUOUS
 62
    3
 10
336.12699999999995
 20
86.536736363636364
 11
336.34499999999997
 21
86.562736363636375
  0
LINE
  8
_0-1_H0
  6
CONTINUOUS
 62
    3
 10
336.34499999999997
 20
86.562736363636375
 11
336.56299999999993
 21
86.589436363636366
  0
LINE
  8
_0-1_H0
  6
CONTINUOUS
 62
    3
 10
336.56299999999993
 20
86.589436363636366
 11
336.77999999999991
 21
86.616836363636366
  0
LINE
  8
_0-1_H0
  6
CONTINUOUS
 62
    3
 10
336.77999999999991
 20
86.616836363636366
 11
336.99799999999993
 21
86.644936363636375
  0
LINE
  8
_0-1_H0
  6
CONTINUOUS
 62
    3
 10
336.99799999999993
 20
86.644936363636375
 11
337.21599999999995
 21
86.673836363636368
  0
LINE
  8
_0-1_H0
  6
CONTINUOUS
 62
    3
 10
337.21599999999995
 20
86.673836363636368
 11
337.43299999999993
 21
86.703636363636377
  0
LINE
  8
_0-1_H0
  6
CONTINUOUS
 62
    3
 10
337.43299999999993
 20
86.703636363636377
 11
337.64999999999992
 21
86.734136363636366
  0
LINE
  8
_0-1_H0
  6
CONTINUOUS
 62
    3
 10
337.64999999999992
 20
86.734136363636366
 11
337.86699999999996
 21
86.765536363636371
  0
LINE
  8
_0-1_H0
  6
CONTINUOUS
 62
    3
 10
337.86699999999996
 20
86.765536363636371
 11
338.08399999999994
 21
86.797836363636378
  0
LINE
  8
_0-1_H0
  6
CONTINUOUS
 62
    3
 10
338.08399999999994
 20
86.797836363636378
 11
338.30099999999993
 21
86.831136363636375
  0
LINE
  8
_0-1_H0
  6
CONTINUOUS
 62
    3
 10
338.30099999999993
 20
86.831136363636375
 11
338.51799999999991
 21
86.865336363636373
  0
LINE
  8
_0-1_H0
  6
CONTINUOUS
 62
    3
 10
338.51799999999991
 20
86.865336363636373
 11
338.73499999999995
 21
86.900436363636373
  0
LINE
  8
_0-1_H0
  6
CONTINUOUS
 62
    3
 10
338.73499999999995
 20
86.900436363636373
 11
338.95099999999996
 21
86.936636363636367
  0
LINE
  8
_0-1_H0
  6
CONTINUOUS
 62
    3
 10
338.95099999999996
 20
86.936636363636367
 11
339.16699999999991
 21
86.973836363636365
  0
LINE
  8
_0-1_H0
  6
CONTINUOUS
 62
    3
 10
339.16699999999991
 20
86.973836363636365
 11
339.38299999999992
 21
87.012136363636372
  0
LINE
  8
_0-1_H0
  6
CONTINUOUS
 62
    3
 10
339.38299999999992
 20
87.012136363636372
 11
339.59899999999993
 21
87.051536363636373
  0
LINE
  8
_0-1_H0
  6
CONTINUOUS
 62
    3
 10
339.59899999999993
 20
87.051536363636373
 11
339.81499999999994
 21
87.092036363636367
  0
LINE
  8
_0-1_H0
  6
CONTINUOUS
 62
    3
 10
339.81499999999994
 20
87.092036363636367
 11
340.03099999999994
 21
87.133736363636373
  0
LINE
  8
_0-1_H0
  6
CONTINUOUS
 62
    3
 10
340.03099999999994
 20
87.133736363636373
 11
340.24599999999992
 21
87.176636363636376
  0
LINE
  8
_0-1_H0
  6
CONTINUOUS
 62
    3
 10
340.24599999999992
 20
87.176636363636376
 11
340.46099999999995
 21
87.220636363636373
  0
LINE
  8
_0-1_H0
  6
CONTINUOUS
 62
    3
 10
340.46099999999995
 20
87.220636363636373
 11
340.67599999999993
 21
87.265736363636378
  0
LINE
  8
_0-1_H0
  6
CONTINUOUS
 62
    3
 10
340.67599999999993
 20
87.265736363636378
 11
340.89099999999996
 21
87.312036363636366
  0
LINE
  8
_0-1_H0
  6
CONTINUOUS
 62
    3
 10
340.89099999999996
 20
87.312036363636366
 11
341.10599999999993
 21
87.359436363636376
  0
LINE
  8
_0-1_H0
  6
CONTINUOUS
 62
    3
 10
341.10599999999993
 20
87.359436363636376
 11
341.31999999999993
 21
87.408036363636369
  0
LINE
  8
_0-1_H0
  6
CONTINUOUS
 62
    3
 10
341.31999999999993
 20
87.408036363636369
 11
341.53399999999993
 21
87.457736363636371
  0
LINE
  8
_0-1_H0
  6
CONTINUOUS
 62
    3
 10
341.53399999999993
 20
87.457736363636371
 11
341.74799999999993
 21
87.508536363636366
  0
LINE
  8
_0-1_H0
  6
CONTINUOUS
 62
    3
 10
341.74799999999993
 20
87.508536363636366
 11
341.96199999999993
 21
87.560536363636373
  0
LINE
  8
_0-1_H0
  6
CONTINUOUS
 62
    3
 10
341.96199999999993
 20
87.560536363636373
 11
342.17599999999993
 21
87.613636363636373
  0
LINE
  8
_0-1_H0
  6
CONTINUOUS
 62
    3
 10
342.17599999999993
 20
87.613636363636373
 11
342.38899999999995
 21
87.667836363636368
  0
LINE
  8
_0-1_H0
  6
CONTINUOUS
 62
    3
 10
342.38899999999995
 20
87.667836363636368
 11
342.60199999999991
 21
87.723136363636371
  0
LINE
  8
_0-1_H0
  6
CONTINUOUS
 62
    3
 10
342.60199999999991
 20
87.723136363636371
 11
342.81399999999996
 21
87.779536363636367
  0
LINE
  8
_0-1_H0
  6
CONTINUOUS
 62
    3
 10
342.81399999999996
 20
87.779536363636367
 11
343.02699999999992
 21
87.837036363636372
  0
LINE
  8
_0-1_H0
  6
CONTINUOUS
 62
    3
 10
343.02699999999992
 20
87.837036363636372
 11
343.23899999999991
 21
87.89563636363637
  0
LINE
  8
_0-1_H0
  6
CONTINUOUS
 62
    3
 10
343.23899999999991
 20
87.89563636363637
 11
343.45099999999996
 21
87.955336363636376
  0
LINE
  8
_0-1_H0
  6
CONTINUOUS
 62
    3
 10
343.45099999999996
 20
87.955336363636376
 11
343.66199999999992
 21
88.016136363636377
  0
LINE
  8
_0-1_H0
  6
CONTINUOUS
 62
    3
 10
343.66199999999992
 20
88.016136363636377
 11
343.87399999999996
 21
88.078036363636371
  0
LINE
  8
_0-1_H0
  6
CONTINUOUS
 62
    3
 10
343.87399999999996
 20
88.078036363636371
 11
344.08499999999992
 21
88.141036363636374
  0
LINE
  8
_0-1_H0
  6
CONTINUOUS
 62
    3
 10
344.08499999999992
 20
88.141036363636374
 11
344.29499999999995
 21
88.20513636363637
  0
LINE
  8
_0-1_H0
  6
CONTINUOUS
 62
    3
 10
344.29499999999995
 20
88.20513636363637
 11
344.50499999999993
 21
88.270236363636371
  0
LINE
  8
_0-1_H0
  6
CONTINUOUS
 62
    3
 10
344.50499999999993
 20
88.270236363636371
 11
344.71499999999991
 21
88.336436363636366
  0
LINE
  8
_0-1_H0
  6
CONTINUOUS
 62
    3
 10
344.71499999999991
 20
88.336436363636366
 11
344.92499999999995
 21
88.403736363636369
  0
LINE
  8
_0-1_H0
  6
CONTINUOUS
 62
    3
 10
344.92499999999995
 20
88.403736363636369
 11
345.13399999999995
 21
88.472036363636377
  0
LINE
  8
_0-1_H0
  6
CONTINUOUS
 62
    3
 10
345.13399999999995
 20
88.472036363636377
 11
345.34299999999996
 21
88.541436363636364
  0
LINE
  8
_0-1_H0
  6
CONTINUOUS
 62
    3
 10
345.34299999999996
 20
88.541436363636364
 11
345.55199999999996
 21
88.611836363636371
  0
LINE
  8
_0-1_H0
  6
CONTINUOUS
 62
    3
 10
345.55199999999996
 20
88.611836363636371
 11
345.75999999999993
 21
88.683336363636371
  0
LINE
  8
_0-1_H0
  6
CONTINUOUS
 62
    3
 10
345.75999999999993
 20
88.683336363636371
 11
345.96799999999996
 21
88.755836363636376
  0
LINE
  8
_0-1_H0
  6
CONTINUOUS
 62
    3
 10
345.96799999999996
 20
88.755836363636376
 11
346.17599999999993
 21
88.829436363636375
  0
LINE
  8
_0-1_H0
  6
CONTINUOUS
 62
    3
 10
346.17599999999993
 20
88.829436363636375
 11
346.38299999999992
 21
88.904036363636365
  0
LINE
  8
_0-1_H0
  6
CONTINUOUS
 62
    3
 10
346.38299999999992
 20
88.904036363636365
 11
346.58899999999994
 21
88.979736363636376
  0
LINE
  8
_0-1_H0
  6
CONTINUOUS
 62
    3
 10
346.58899999999994
 20
88.979736363636376
 11
346.79599999999993
 21
89.056336363636376
  0
LINE
  8
_0-1_H0
  6
CONTINUOUS
 62
    3
 10
346.79599999999993
 20
89.056336363636376
 11
347.00199999999995
 21
89.134036363636369
  0
LINE
  8
_0-1_H0
  6
CONTINUOUS
 62
    3
 10
347.00199999999995
 20
89.134036363636369
 11
347.20699999999993
 21
89.21283636363637
  0
LINE
  8
_0-1_H0
  6
CONTINUOUS
 62
    3
 10
347.20699999999993
 20
89.21283636363637
 11
347.41199999999992
 21
89.292536363636372
  0
LINE
  8
_0-1_H0
  6
CONTINUOUS
 62
    3
 10
347.41199999999992
 20
89.292536363636372
 11
347.61699999999996
 21
89.373236363636365
  0
LINE
  8
_0-1_H0
  6
CONTINUOUS
 62
    3
 10
347.61699999999996
 20
89.373236363636365
 11
347.82099999999996
 21
89.455036363636367
  0
LINE
  8
_0-1_H0
  6
CONTINUOUS
 62
    3
 10
347.82099999999996
 20
89.455036363636367
 11
348.02499999999992
 21
89.537736363636369
  0
LINE
  8
_0-1_H0
  6
CONTINUOUS
 62
    3
 10
348.02499999999992
 20
89.537736363636369
 11
348.22799999999995
 21
89.621536363636366
  0
LINE
  8
_0-1_H0
  6
CONTINUOUS
 62
    3
 10
348.22799999999995
 20
89.621536363636366
 11
348.43099999999992
 21
89.706236363636378
  0
LINE
  8
_0-1_H0
  6
CONTINUOUS
 62
    3
 10
348.43099999999992
 20
89.706236363636378
 11
348.63299999999992
 21
89.79203636363637
  0
LINE
  8
_0-1_H0
  6
CONTINUOUS
 62
    3
 10
348.63299999999992
 20
89.79203636363637
 11
348.83499999999992
 21
89.878736363636377
  0
LINE
  8
_0-1_H0
  6
CONTINUOUS
 62
    3
 10
348.83499999999992
 20
89.878736363636377
 11
349.03699999999992
 21
89.966436363636375
  0
LINE
  8
_0-1_H0
  6
CONTINUOUS
 62
    3
 10
349.03699999999992
 20
89.966436363636375
 11
349.23799999999994
 21
90.055136363636364
  0
LINE
  8
_0-1_H0
  6
CONTINUOUS
 62
    3
 10
349.23799999999994
 20
90.055136363636364
 11
349.43799999999993
 21
90.144836363636372
  0
LINE
  8
_0-1_H0
  6
CONTINUOUS
 62
    3
 10
349.43799999999993
 20
90.144836363636372
 11
349.63799999999991
 21
90.235436363636367
  0
LINE
  8
_0-1_H0
  6
CONTINUOUS
 62
    3
 10
349.63799999999991
 20
90.235436363636367
 11
349.83799999999996
 21
90.327036363636366
  0
LINE
  8
_0-1_H0
  6
CONTINUOUS
 62
    3
 10
349.83799999999996
 20
90.327036363636366
 11
350.03699999999992
 21
90.419436363636364
  0
LINE
  8
_0-1_H0
  6
CONTINUOUS
 62
    3
 10
350.03699999999992
 20
90.419436363636364
 11
350.23599999999993
 21
90.512836363636367
  0
LINE
  8
_0-1_H0
  6
CONTINUOUS
 62
    3
 10
350.23599999999993
 20
90.512836363636367
 11
350.43399999999996
 21
90.607136363636371
  0
LINE
  8
_0-1_H0
  6
CONTINUOUS
 62
    3
 10
350.43399999999996
 20
90.607136363636371
 11
350.63199999999994
 21
90.702236363636373
  0
LINE
  8
_0-1_H0
  6
CONTINUOUS
 62
    3
 10
350.63199999999994
 20
90.702236363636373
 11
350.82899999999995
 21
90.798236363636377
  0
LINE
  8
_0-1_H0
  6
CONTINUOUS
 62
    3
 10
350.82899999999995
 20
90.798236363636377
 11
351.02599999999995
 21
90.894936363636375
  0
LINE
  8
_0-1_H0
  6
CONTINUOUS
 62
    3
 10
351.02599999999995
 20
90.894936363636375
 11
351.22199999999992
 21
90.992536363636375
  0
LINE
  8
_0-1_H0
  6
CONTINUOUS
 62
    3
 10
351.22199999999992
 20
90.992536363636375
 11
351.41899999999992
 21
91.090936363636373
  0
LINE
  8
_0-1_H0
  6
CONTINUOUS
 62
    3
 10
351.41899999999992
 20
91.090936363636373
 11
351.61399999999991
 21
91.190036363636366
  0
LINE
  8
_0-1_H0
  6
CONTINUOUS
 62
    3
 10
351.61399999999991
 20
91.190036363636366
 11
351.80999999999994
 21
91.289836363636368
  0
LINE
  8
_0-1_H0
  6
CONTINUOUS
 62
    3
 10
351.80999999999994
 20
91.289836363636368
 11
352.00499999999993
 21
91.390436363636368
  0
LINE
  8
_0-1_H0
  6
CONTINUOUS
 62
    3
 10
352.00499999999993
 20
91.390436363636368
 11
352.19899999999995
 21
91.491736363636377
  0
LINE
  8
_0-1_H0
  6
CONTINUOUS
 62
    3
 10
352.19899999999995
 20
91.491736363636377
 11
352.39399999999994
 21
91.593636363636377
  0
LINE
  8
_0-1_H0
  6
CONTINUOUS
 62
    3
 10
352.39399999999994
 20
91.593636363636377
 11
352.58799999999996
 21
91.696236363636373
  0
LINE
  8
_0-1_H0
  6
CONTINUOUS
 62
    3
 10
352.58799999999996
 20
91.696236363636373
 11
352.78099999999994
 21
91.799536363636377
  0
LINE
  8
_0-1_H0
  6
CONTINUOUS
 62
    3
 10
352.78099999999994
 20
91.799536363636377
 11
352.97499999999996
 21
91.903436363636373
  0
LINE
  8
_0-1_H0
  6
CONTINUOUS
 62
    3
 10
352.97499999999996
 20
91.903436363636373
 11
353.16799999999994
 21
92.007836363636371
  0
LINE
  8
_0-1_H0
  6
CONTINUOUS
 62
    3
 10
353.16799999999994
 20
92.007836363636371
 11
353.35999999999995
 21
92.112936363636364
  0
LINE
  8
_0-1_H0
  6
CONTINUOUS
 62
    3
 10
353.35999999999995
 20
92.112936363636364
 11
353.55299999999994
 21
92.218436363636371
  0
LINE
  8
_0-1_H0
  6
CONTINUOUS
 62
    3
 10
353.55299999999994
 20
92.218436363636371
 11
353.74499999999994
 21
92.324636363636372
  0
LINE
  8
_0-1_H0
  6
CONTINUOUS
 62
    3
 10
353.74499999999994
 20
92.324636363636372
 11
353.93699999999995
 21
92.431236363636372
  0
LINE
  8
_0-1_H0
  6
CONTINUOUS
 62
    3
 10
353.93699999999995
 20
92.431236363636372
 11
354.12899999999996
 21
92.538436363636378
  0
LINE
  8
_0-1_H0
  6
CONTINUOUS
 62
    3
 10
354.12899999999996
 20
92.538436363636378
 11
354.31999999999993
 21
92.646036363636369
  0
LINE
  8
_0-1_H0
  6
CONTINUOUS
 62
    3
 10
354.31999999999993
 20
92.646036363636369
 11
354.51099999999996
 21
92.754136363636376
  0
LINE
  8
_0-1_H0
  6
CONTINUOUS
 62
    3
 10
354.51099999999996
 20
92.754136363636376
 11
354.70199999999994
 21
92.862636363636369
  0
LINE
  8
_0-1_H0
  6
CONTINUOUS
 62
    3
 10
354.70199999999994
 20
92.862636363636369
 11
354.89299999999991
 21
92.971536363636374
  0
LINE
  8
_0-1_H0
  6
CONTINUOUS
 62
    3
 10
354.89299999999991
 20
92.971536363636374
 11
355.08299999999996
 21
93.080836363636365
  0
LINE
  8
_0-1_H0
  6
CONTINUOUS
 62
    3
 10
355.08299999999996
 20
93.080836363636365
 11
355.27399999999994
 21
93.190536363636368
  0
LINE
  8
_0-1_H0
  6
CONTINUOUS
 62
    3
 10
355.27399999999994
 20
93.190536363636368
 11
355.46399999999994
 21
93.300636363636371
  0
LINE
  8
_0-1_H0
  6
CONTINUOUS
 62
    3
 10
355.46399999999994
 20
93.300636363636371
 11
355.65399999999993
 21
93.41103636363637
  0
LINE
  8
_0-1_H0
  6
CONTINUOUS
 62
    3
 10
355.65399999999993
 20
93.41103636363637
 11
355.84399999999993
 21
93.521736363636378
  0
LINE
  8
_0-1_H0
  6
CONTINUOUS
 62
    3
 10
355.84399999999993
 20
93.521736363636378
 11
356.03299999999995
 21
93.632736363636368
  0
LINE
  8
_0-1_H0
  6
CONTINUOUS
 62
    3
 10
356.03299999999995
 20
93.632736363636368
 11
356.22299999999995
 21
93.744036363636368
  0
LINE
  8
_0-1_H0
  6
CONTINUOUS
 62
    3
 10
356.22299999999995
 20
93.744036363636368
 11
356.41199999999992
 21
93.855536363636375
  0
LINE
  8
_0-1_H0
  6
CONTINUOUS
 62
    3
 10
356.41199999999992
 20
93.855536363636375
 11
356.60199999999991
 21
93.967236363636374
  0
LINE
  8
_0-1_H0
  6
CONTINUOUS
 62
    3
 10
356.60199999999991
 20
93.967236363636374
 11
356.79099999999993
 21
94.079236363636368
  0
LINE
  8
_0-1_H0
  6
CONTINUOUS
 62
    3
 10
356.79099999999993
 20
94.079236363636368
 11
356.97999999999996
 21
94.19143636363637
  0
LINE
  8
_0-1_H0
  6
CONTINUOUS
 62
    3
 10
356.97999999999996
 20
94.19143636363637
 11
357.16899999999992
 21
94.303736363636375
  0
LINE
  8
_0-1_H0
  6
CONTINUOUS
 62
    3
 10
357.16899999999992
 20
94.303736363636375
 11
357.35799999999994
 21
94.416236363636372
  0
LINE
  8
_0-1_H0
  6
CONTINUOUS
 62
    3
 10
357.35799999999994
 20
94.416236363636372
 11
357.54699999999996
 21
94.528936363636375
  0
LINE
  8
_0-1_H0
  6
CONTINUOUS
 62
    3
 10
357.54699999999996
 20
94.528936363636375
 11
357.73499999999995
 21
94.641636363636365
  0
LINE
  8
_0-1_H0
  6
CONTINUOUS
 62
    3
 10
357.73499999999995
 20
94.641636363636365
 11
357.92399999999992
 21
94.754436363636372
  0
LINE
  8
_0-1_H0
  6
CONTINUOUS
 62
    3
 10
357.92399999999992
 20
94.754436363636372
 11
358.11299999999994
 21
94.867336363636368
  0
LINE
  8
_0-1_H0
  6
CONTINUOUS
 62
    3
 10
358.11299999999994
 20
94.867336363636368
 11
358.30199999999996
 21
94.980336363636368
  0
LINE
  8
_0-1_H0
  6
CONTINUOUS
 62
    3
 10
358.30199999999996
 20
94.980336363636368
 11
358.48999999999995
 21
95.093336363636367
  0
LINE
  8
_0-1_H0
  6
CONTINUOUS
 62
    3
 10
358.48999999999995
 20
95.093336363636367
 11
358.67899999999991
 21
95.206336363636367
  0
LINE
  8
_0-1_H0
  6
CONTINUOUS
 62
    3
 10
358.67899999999991
 20
95.206336363636367
 11
358.86699999999996
 21
95.319336363636367
  0
LINE
  8
_0-1_H0
  6
CONTINUOUS
 62
    3
 10
358.86699999999996
 20
95.319336363636367
 11
359.05599999999992
 21
95.432336363636366
  0
LINE
  8
_0-1_H0
  6
CONTINUOUS
 62
    3
 10
359.05599999999992
 20
95.432336363636366
 11
359.24499999999994
 21
95.545336363636366
  0
LINE
  8
_0-1_H0
  6
CONTINUOUS
 62
    3
 10
359.24499999999994
 20
95.545336363636366
 11
359.43299999999993
 21
95.658236363636376
  0
LINE
  8
_0-1_H0
  6
CONTINUOUS
 62
    3
 10
359.43299999999993
 20
95.658236363636376
 11
359.62199999999995
 21
95.771236363636376
  0
LINE
  8
_0-1_H0
  6
CONTINUOUS
 62
    3
 10
359.62199999999995
 20
95.771236363636376
 11
359.80999999999994
 21
95.884236363636375
  0
LINE
  8
_0-1_H0
  6
CONTINUOUS
 62
    3
 10
359.80999999999994
 20
95.884236363636375
 11
359.99899999999996
 21
95.997236363636375
  0
LINE
  8
_0-1_H0
  6
CONTINUOUS
 62
    3
 10
359.99899999999996
 20
95.997236363636375
 11
360.18799999999993
 21
96.110336363636378
  0
LINE
  8
_0-1_H0
  6
CONTINUOUS
 62
    3
 10
360.18799999999993
 20
96.110336363636378
 11
360.37599999999991
 21
96.22353636363637
  0
LINE
  8
_0-1_H0
  6
CONTINUOUS
 62
    3
 10
360.37599999999991
 20
96.22353636363637
 11
360.56399999999996
 21
96.336736363636376
  0
LINE
  8
_0-1_H0
  6
CONTINUOUS
 62
    3
 10
360.56399999999996
 20
96.336736363636376
 11
360.75299999999992
 21
96.450036363636371
  0
LINE
  8
_0-1_H0
  6
CONTINUOUS
 62
    3
 10
360.75299999999992
 20
96.450036363636371
 11
360.94099999999991
 21
96.563336363636366
  0
LINE
  8
_0-1_H0
  6
CONTINUOUS
 62
    3
 10
360.94099999999991
 20
96.563336363636366
 11
361.12899999999996
 21
96.676836363636368
  0
LINE
  8
_0-1_H0
  6
CONTINUOUS
 62
    3
 10
361.12899999999996
 20
96.676836363636368
 11
361.31699999999995
 21
96.790436363636374
  0
LINE
  8
_0-1_H0
  6
CONTINUOUS
 62
    3
 10
361.31699999999995
 20
96.790436363636374
 11
361.50499999999993
 21
96.904136363636368
  0
LINE
  8
_0-1_H0
  6
CONTINUOUS
 62
    3
 10
361.50499999999993
 20
96.904136363636368
 11
361.69299999999992
 21
97.017936363636366
  0
LINE
  8
_0-1_H0
  6
CONTINUOUS
 62
    3
 10
361.69299999999992
 20
97.017936363636366
 11
361.88099999999991
 21
97.13193636363637
  0
LINE
  8
_0-1_H0
  6
CONTINUOUS
 62
    3
 10
361.88099999999991
 20
97.13193636363637
 11
362.06899999999995
 21
97.246136363636367
  0
LINE
  8
_0-1_H0
  6
CONTINUOUS
 62
    3
 10
362.06899999999995
 20
97.246136363636367
 11
362.25599999999991
 21
97.360436363636367
  0
LINE
  8
_0-1_H0
  6
CONTINUOUS
 62
    3
 10
362.25599999999991
 20
97.360436363636367
 11
362.44399999999995
 21
97.474936363636373
  0
LINE
  8
_0-1_H0
  6
CONTINUOUS
 62
    3
 10
362.44399999999995
 20
97.474936363636373
 11
362.63099999999991
 21
97.589536363636369
  0
LINE
  8
_0-1_H0
  6
CONTINUOUS
 62
    3
 10
362.63099999999991
 20
97.589536363636369
 11
362.81799999999992
 21
97.704436363636375
  0
LINE
  8
_0-1_H0
  6
CONTINUOUS
 62
    3
 10
362.81799999999992
 20
97.704436363636375
 11
363.00499999999993
 21
97.819536363636373
  0
LINE
  8
_0-1_H0
  6
CONTINUOUS
 62
    3
 10
363.00499999999993
 20
97.819536363636373
 11
363.19199999999995
 21
97.934836363636378
  0
LINE
  8
_0-1_H0
  6
CONTINUOUS
 62
    3
 10
363.19199999999995
 20
97.934836363636378
 11
363.37899999999996
 21
98.050336363636375
  0
LINE
  8
_0-1_H0
  6
CONTINUOUS
 62
    3
 10
363.37899999999996
 20
98.050336363636375
 11
363.56599999999991
 21
98.166136363636368
  0
LINE
  8
_0-1_H0
  6
CONTINUOUS
 62
    3
 10
363.56599999999991
 20
98.166136363636368
 11
363.75199999999995
 21
98.282136363636368
  0
LINE
  8
_0-1_H0
  6
CONTINUOUS
 62
    3
 10
363.75199999999995
 20
98.282136363636368
 11
363.93799999999993
 21
98.398436363636378
  0
LINE
  8
_0-1_H0
  6
CONTINUOUS
 62
    3
 10
363.93799999999993
 20
98.398436363636378
 11
364.12399999999996
 21
98.515036363636369
  0
LINE
  8
_0-1_H0
  6
CONTINUOUS
 62
    3
 10
364.12399999999996
 20
98.515036363636369
 11
364.30999999999994
 21
98.63193636363637
  0
LINE
  8
_0-1_H0
  6
CONTINUOUS
 62
    3
 10
364.30999999999994
 20
98.63193636363637
 11
364.49599999999992
 21
98.749136363636367
  0
LINE
  8
_0-1_H0
  6
CONTINUOUS
 62
    3
 10
364.49599999999992
 20
98.749136363636367
 11
364.68099999999992
 21
98.86653636363637
  0
LINE
  8
_0-1_H0
  6
CONTINUOUS
 62
    3
 10
364.68099999999992
 20
98.86653636363637
 11
364.86599999999992
 21
98.984336363636373
  0
LINE
  8
_0-1_H0
  6
CONTINUOUS
 62
    3
 10
364.86599999999992
 20
98.984336363636373
 11
365.05099999999993
 21
99.102536363636374
  0
LINE
  8
_0-1_H0
  6
CONTINUOUS
 62
    3
 10
365.05099999999993
 20
99.102536363636374
 11
365.23599999999993
 21
99.220936363636369
  0
LINE
  8
_0-1_H0
  6
CONTINUOUS
 62
    3
 10
365.23599999999993
 20
99.220936363636369
 11
365.41999999999995
 21
99.339836363636365
  0
LINE
  8
_0-1_H0
  6
CONTINUOUS
 62
    3
 10
365.41999999999995
 20
99.339836363636365
 11
365.60399999999992
 21
99.459036363636371
  0
LINE
  8
_0-1_H0
  6
CONTINUOUS
 62
    3
 10
365.60399999999992
 20
99.459036363636371
 11
365.78799999999995
 21
99.578536363636374
  0
LINE
  8
_0-1_H0
  6
CONTINUOUS
 62
    3
 10
365.78799999999995
 20
99.578536363636374
 11
365.97199999999992
 21
99.698536363636378
  0
LINE
  8
_0-1_H0
  6
CONTINUOUS
 62
    3
 10
365.97199999999992
 20
99.698536363636378
 11
366.15499999999991
 21
99.818836363636364
  0
LINE
  8
_0-1_H0
  6
CONTINUOUS
 62
    3
 10
366.15499999999991
 20
99.818836363636364
 11
366.33799999999996
 21
99.939636363636367
  0
LINE
  8
_0-1_H0
  6
CONTINUOUS
 62
    3
 10
366.33799999999996
 20
99.939636363636367
 11
366.52099999999995
 21
100.06083636363635
  0
LINE
  8
_0-1_H0
  6
CONTINUOUS
 62
    3
 10
366.52099999999995
 20
100.06083636363635
 11
366.70299999999991
 21
100.18243636363635
  0
LINE
  8
_0-1_H0
  6
CONTINUOUS
 62
    3
 10
366.70299999999991
 20
100.18243636363635
 11
366.88599999999996
 21
100.30413636363637
  0
LINE
  8
_0-1_H0
  6
CONTINUOUS
 62
    3
 10
366.88599999999996
 20
100.30413636363637
 11
367.06699999999995
 21
100.42713636363636
  0
LINE
  8
_0-1_H0
  6
CONTINUOUS
 62
    3
 10
367.06699999999995
 20
100.42713636363636
 11
367.24899999999996
 21
100.55013636363635
  0
LINE
  8
_0-1_H0
  6
CONTINUOUS
 62
    3
 10
367.24899999999996
 20
100.55013636363635
 11
367.42999999999994
 21
100.67313636363637
  0
LINE
  8
_0-1_H0
  6
CONTINUOUS
 62
    3
 10
367.42999999999994
 20
100.67313636363637
 11
367.61099999999993
 21
100.79713636363635
  0
LINE
  8
_0-1_H0
  6
CONTINUOUS
 62
    3
 10
367.61099999999993
 20
100.79713636363635
 11
367.79199999999991
 21
100.92213636363635
  0
LINE
  8
_0-1_H0
  6
CONTINUOUS
 62
    3
 10
367.79199999999991
 20
100.92213636363635
 11
367.97199999999992
 21
101.04713636363635
  0
LINE
  8
_0-1_H0
  6
CONTINUOUS
 62
    3
 10
367.97199999999992
 20
101.04713636363635
 11
368.15199999999992
 21
101.17213636363635
  0
LINE
  8
_0-1_H0
  6
CONTINUOUS
 62
    3
 10
368.15199999999992
 20
101.17213636363635
 11
368.33099999999996
 21
101.29813636363637
  0
LINE
  8
_0-1_H0
  6
CONTINUOUS
 62
    3
 10
368.33099999999996
 20
101.29813636363637
 11
368.50999999999993
 21
101.42513636363635
  0
LINE
  8
_0-1_H0
  6
CONTINUOUS
 62
    3
 10
368.50999999999993
 20
101.42513636363635
 11
368.68899999999996
 21
101.55213636363636
  0
LINE
  8
_0-1_H0
  6
CONTINUOUS
 62
    3
 10
368.68899999999996
 20
101.55213636363636
 11
368.86699999999996
 21
101.67913636363637
  0
LINE
  8
_0-1_H0
  6
CONTINUOUS
 62
    3
 10
368.86699999999996
 20
101.67913636363637
 11
369.04499999999995
 21
101.80713636363637
  0
LINE
  8
_0-1_H0
  6
CONTINUOUS
 62
    3
 10
369.04499999999995
 20
101.80713636363637
 11
369.22299999999995
 21
101.93613636363636
  0
LINE
  8
_0-1_H0
  6
CONTINUOUS
 62
    3
 10
369.22299999999995
 20
101.93613636363636
 11
369.40099999999995
 21
102.06513636363635
  0
LINE
  8
_0-1_H0
  6
CONTINUOUS
 62
    3
 10
369.40099999999995
 20
102.06513636363635
 11
369.57799999999991
 21
102.19413636363637
  0
LINE
  8
_0-1_H0
  6
CONTINUOUS
 62
    3
 10
369.57799999999991
 20
102.19413636363637
 11
369.75499999999993
 21
102.32413636363637
  0
LINE
  8
_0-1_H0
  6
CONTINUOUS
 62
    3
 10
369.75499999999993
 20
102.32413636363637
 11
369.93099999999992
 21
102.45413636363636
  0
LINE
  8
_0-1_H0
  6
CONTINUOUS
 62
    3
 10
369.93099999999992
 20
102.45413636363636
 11
370.10799999999994
 21
102.58413636363637
  0
LINE
  8
_0-1_H0
  6
CONTINUOUS
 62
    3
 10
370.10799999999994
 20
102.58413636363637
 11
370.28399999999993
 21
102.71513636363637
  0
LINE
  8
_0-1_H0
  6
CONTINUOUS
 62
    3
 10
370.28399999999993
 20
102.71513636363637
 11
370.45999999999992
 21
102.84713636363636
  0
LINE
  8
_0-1_H0
  6
CONTINUOUS
 62
    3
 10
370.45999999999992
 20
102.84713636363636
 11
370.63499999999993
 21
102.97813636363636
  0
LINE
  8
_0-1_H0
  6
CONTINUOUS
 62
    3
 10
370.63499999999993
 20
102.97813636363636
 11
370.81099999999992
 21
103.11013636363637
  0
LINE
  8
_0-1_H0
  6
CONTINUOUS
 62
    3
 10
370.81099999999992
 20
103.11013636363637
 11
370.98599999999993
 21
103.24213636363637
  0
LINE
  8
_0-1_H0
  6
CONTINUOUS
 62
    3
 10
370.98599999999993
 20
103.24213636363637
 11
371.16099999999994
 21
103.37413636363635
  0
LINE
  8
_0-1_H0
  6
CONTINUOUS
 62
    3
 10
371.16099999999994
 20
103.37413636363635
 11
371.33599999999995
 21
103.50713636363637
  0
LINE
  8
_0-1_H0
  6
CONTINUOUS
 62
    3
 10
371.33599999999995
 20
103.50713636363637
 11
371.51099999999996
 21
103.64013636363637
  0
LINE
  8
_0-1_H0
  6
CONTINUOUS
 62
    3
 10
371.51099999999996
 20
103.64013636363637
 11
371.68599999999992
 21
103.77213636363636
  0
LINE
  8
_0-1_H0
  6
CONTINUOUS
 62
    3
 10
371.68599999999992
 20
103.77213636363636
 11
371.85999999999995
 21
103.90613636363636
  0
LINE
  8
_0-1_H0
  6
CONTINUOUS
 62
    3
 10
371.85999999999995
 20
103.90613636363636
 11
372.03499999999996
 21
104.03913636363637
  0
LINE
  8
_0-1_H0
  6
CONTINUOUS
 62
    3
 10
372.03499999999996
 20
104.03913636363637
 11
372.20899999999994
 21
104.17213636363635
  0
LINE
  8
_0-1_H0
  6
CONTINUOUS
 62
    3
 10
372.20899999999994
 20
104.17213636363635
 11
372.38399999999995
 21
104.30613636363635
  0
LINE
  8
_0-1_H0
  6
CONTINUOUS
 62
    3
 10
372.38399999999995
 20
104.30613636363635
 11
372.55799999999993
 21
104.43913636363636
  0
LINE
  8
_0-1_H0
  6
CONTINUOUS
 62
    3
 10
372.55799999999993
 20
104.43913636363636
 11
372.73199999999997
 21
104.57313636363636
  0
LINE
  8
_0-1_H0
  6
CONTINUOUS
 62
    3
 10
372.73199999999997
 20
104.57313636363636
 11
372.90599999999994
 21
104.70713636363636
  0
LINE
  8
_0-1_H0
  6
CONTINUOUS
 62
    3
 10
372.90599999999994
 20
104.70713636363636
 11
373.07999999999992
 21
104.84013636363637
  0
LINE
  8
_0-1_H0
  6
CONTINUOUS
 62
    3
 10
373.07999999999992
 20
104.84013636363637
 11
373.25499999999993
 21
104.97413636363637
  0
LINE
  8
_0-1_H0
  6
CONTINUOUS
 62
    3
 10
373.25499999999993
 20
104.97413636363637
 11
373.42899999999991
 21
105.10813636363637
  0
LINE
  8
_0-1_H0
  6
CONTINUOUS
 62
    3
 10
373.42899999999991
 20
105.10813636363637
 11
373.60299999999995
 21
105.24213636363637
  0
LINE
  8
_0-1_H0
  6
CONTINUOUS
 62
    3
 10
373.60299999999995
 20
105.24213636363637
 11
373.77699999999992
 21
105.37513636363637
  0
LINE
  8
_0-1_H0
  6
CONTINUOUS
 62
    3
 10
373.77699999999992
 20
105.37513636363637
 11
373.95199999999994
 21
105.50913636363637
  0
LINE
  8
_0-1_H0
  6
CONTINUOUS
 62
    3
 10
373.95199999999994
 20
105.50913636363637
 11
374.12599999999991
 21
105.64313636363637
  0
LINE
  8
_0-1_H0
  6
CONTINUOUS
 62
    3
 10
374.12599999999991
 20
105.64313636363637
 11
374.29999999999995
 21
105.77613636363635
  0
LINE
  8
_0-1_H0
  6
CONTINUOUS
 62
    3
 10
374.29999999999995
 20
105.77613636363635
 11
374.47499999999996
 21
105.90913636363636
  0
LINE
  8
_0-1_H0
  6
CONTINUOUS
 62
    3
 10
374.47499999999996
 20
105.90913636363636
 11
374.64899999999994
 21
106.04313636363636
  0
LINE
  8
_0-1_H0
  6
CONTINUOUS
 62
    3
 10
374.64899999999994
 20
106.04313636363636
 11
374.82399999999995
 21
106.17613636363637
  0
LINE
  8
_0-1_H0
  6
CONTINUOUS
 62
    3
 10
374.82399999999995
 20
106.17613636363637
 11
374.99899999999996
 21
106.30813636363636
  0
LINE
  8
_0-1_H0
  6
CONTINUOUS
 62
    3
 10
374.99899999999996
 20
106.30813636363636
 11
375.17399999999992
 21
106.44113636363637
  0
LINE
  8
_0-1_H0
  6
CONTINUOUS
 62
    3
 10
375.17399999999992
 20
106.44113636363637
 11
375.34899999999993
 21
106.57413636363637
  0
LINE
  8
_0-1_H0
  6
CONTINUOUS
 62
    3
 10
375.34899999999993
 20
106.57413636363637
 11
375.52399999999994
 21
106.70613636363637
  0
LINE
  8
_0-1_H0
  6
CONTINUOUS
 62
    3
 10
375.52399999999994
 20
106.70613636363637
 11
375.69999999999993
 21
106.83813636363636
  0
LINE
  8
_0-1_H0
  6
CONTINUOUS
 62
    3
 10
375.69999999999993
 20
106.83813636363636
 11
375.87599999999991
 21
106.96913636363636
  0
LINE
  8
_0-1_H0
  6
CONTINUOUS
 62
    3
 10
375.87599999999991
 20
106.96913636363636
 11
376.05199999999996
 21
107.10113636363637
  0
LINE
  8
_0-1_H0
  6
CONTINUOUS
 62
    3
 10
376.05199999999996
 20
107.10113636363637
 11
376.22799999999995
 21
107.23213636363637
  0
LINE
  8
_0-1_H0
  6
CONTINUOUS
 62
    3
 10
376.22799999999995
 20
107.23213636363637
 11
376.40399999999993
 21
107.36313636363637
  0
LINE
  8
_0-1_H0
  6
CONTINUOUS
 62
    3
 10
376.40399999999993
 20
107.36313636363637
 11
376.58099999999996
 21
107.49313636363636
  0
LINE
  8
_0-1_H0
  6
CONTINUOUS
 62
    3
 10
376.58099999999996
 20
107.49313636363636
 11
376.75799999999992
 21
107.62313636363637
  0
LINE
  8
_0-1_H0
  6
CONTINUOUS
 62
    3
 10
376.75799999999992
 20
107.62313636363637
 11
376.93499999999994
 21
107.75213636363635
  0
LINE
  8
_0-1_H0
  6
CONTINUOUS
 62
    3
 10
376.93499999999994
 20
107.75213636363635
 11
377.11199999999996
 21
107.88213636363637
  0
LINE
  8
_0-1_H0
  6
CONTINUOUS
 62
    3
 10
377.11199999999996
 20
107.88213636363637
 11
377.28999999999996
 21
108.01013636363636
  0
LINE
  8
_0-1_H0
  6
CONTINUOUS
 62
    3
 10
377.28999999999996
 20
108.01013636363636
 11
377.46799999999996
 21
108.13913636363635
  0
LINE
  8
_0-1_H0
  6
CONTINUOUS
 62
    3
 10
377.46799999999996
 20
108.13913636363635
 11
377.64599999999995
 21
108.26613636363636
  0
LINE
  8
_0-1_H0
  6
CONTINUOUS
 62
    3
 10
377.64599999999995
 20
108.26613636363636
 11
377.82499999999993
 21
108.39413636363636
  0
LINE
  8
_0-1_H0
  6
CONTINUOUS
 62
    3
 10
267.50000000000005
 20
262.24113636363637
 11
407.50000000000005
 21
262.24113636363637
  0
LINE
  8
_0-1_H0
  6
CONTINUOUS
 62
    3
 10
407.50000000000005
 20
277.24113636363637
 11
267.50000000000005
 21
277.24113636363637
  0
LINE
  8
_0-1_H0
  6
CONTINUOUS
 62
    3
 10
407.50000000000005
 20
277.24113636363637
 11
267.50000000000005
 21
277.24113636363637
  0
INSERT
  2
-082-_U73
  8
_0-0_0
 10
-2.5000000000000568
 20
0.2411363636363716
 41
1
 42
1
 50
0
  0
INSERT
  2
-083-_U74
  8
_0-0_0
 10
-2.5000000000000568
 20
0.2411363636363716
 41
1
 42
1
 50
0
  0
INSERT
  2
-084-_U75
  8
_0-0_0
 10
-2.5000000000000568
 20
0.2411363636363716
 41
1
 42
1
 50
0
  0
INSERT
  2
-085-_U76
  8
_0-0_0
 10
-2.5000000000000568
 20
0.2411363636363716
 41
1
 42
1
 50
0
  0
INSERT
  2
-086-_U77
  8
_0-0_0
 10
-2.5000000000000568
 20
0.2411363636363716
 41
1
 42
1
 50
0
  0
INSERT
  2
-087-_U78
  8
_0-0_0
 10
-2.5000000000000568
 20
0.2411363636363716
 41
1
 42
1
 50
0
  0
INSERT
  2
-088-_U79
  8
_0-0_0
 10
-2.5000000000000568
 20
0.2411363636363716
 41
1
 42
1
 50
0
  0
INSERT
  2
-089-_U80
  8
_0-0_0
 10
-2.5000000000000568
 20
0.2411363636363716
 41
1
 42
1
 50
0
  0
INSERT
  2
-090-_U81
  8
_0-0_0
 10
-2.5000000000000568
 20
0.2411363636363716
 41
1
 42
1
 50
0
  0
LINE
  8
_0-1_H0
  6
CONTINUOUS
 62
    3
 10
347.50000000000017
 20
282.24113636363637
 11
347.50000000000017
 21
257.24113636363637
  0
LINE
  8
_0-1_H0
  6
CONTINUOUS
 62
    3
 10
267.50000000000005
 20
277.24113636363637
 11
407.50000000000005
 21
277.24113636363637
  0
LINE
  8
_0-1_H0
  6
CONTINUOUS
 62
    3
 10
407.50000000000005
 20
272.24113636363637
 11
267.50000000000005
 21
272.24113636363637
  0
LINE
  8
_0-1_H0
  6
CONTINUOUS
 62
    3
 10
267.50000000000005
 20
267.24113636363637
 11
407.50000000000005
 21
267.24113636363637
  0
LINE
  8
_0-1_H0
  6
CONTINUOUS
 62
    3
 10
267.50000000000005
 20
282.24113636363637
 11
407.50000000000005
 21
282.24113636363637
  0
LINE
  8
_0-1_H0
  6
CONTINUOUS
 62
    3
 10
267.50000000000005
 20
252.24113636363637
 11
267.50000000000005
 21
287.24113636363637
  0
LINE
  8
_0-1_H0
  6
CONTINUOUS
 62
    3
 10
277.50000000000005
 20
252.24113636363648
 11
277.50000000000005
 21
282.24113636363637
  0
LINE
  8
_0-1_H0
  6
CONTINUOUS
 62
    3
 10
312.50000000000005
 20
252.24113636363648
 11
312.50000000000005
 21
282.24113636363637
  0
INSERT
  2
-091-_U82
  8
_0-0_0
 10
-2.5000000000000568
 20
0.2411363636363716
 41
1
 42
1
 50
0
  0
LINE
  8
_0-1_H0
  6
CONTINUOUS
 62
    3
 10
377.50000000000017
 20
282.24113636363637
 11
377.50000000000017
 21
257.24113636363637
  0
INSERT
  2
-092-_U83
  8
_0-0_0
 10
-2.5000000000000568
 20
0.2411363636363716
 41
1
 42
1
 50
0
  0
LINE
  8
_0-1_H0
  6
CONTINUOUS
 62
    3
 10
267.50000000000005
 20
252.24113636363637
 11
407.50000000000005
 21
252.24113636363637
  0
INSERT
  2
-093-_U84
  8
_0-0_0
 10
-2.5000000000000568
 20
0.2411363636363716
 41
1
 42
1
 50
0
  0
INSERT
  2
-094-_U85
  8
_0-0_0
 10
-2.5000000000000568
 20
0.2411363636363716
 41
1
 42
1
 50
0
  0
LINE
  8
_0-1_H0
  6
CONTINUOUS
 62
    3
 10
407.50000000000005
 20
262.24113636363637
 11
267.50000000000005
 21
262.24113636363637
  0
LINE
  8
_0-1_H0
  6
CONTINUOUS
 62
    3
 10
267.50000000000005
 20
257.24113636363637
 11
407.50000000000005
 21
257.24113636363637
  0
INSERT
  2
-095-_U86
  8
_0-0_0
 10
-2.5000000000000568
 20
0.2411363636363716
 41
1
 42
1
 50
0
  0
INSERT
  2
-096-_U87
  8
_0-0_0
 10
-2.5000000000000568
 20
0.2411363636363716
 41
1
 42
1
 50
0
  0
INSERT
  2
-097-_U88
  8
_0-0_0
 10
-2.5000000000000568
 20
0.2411363636363716
 41
1
 42
1
 50
0
  0
INSERT
  2
-098-_U89
  8
_0-0_0
 10
-2.5000000000000568
 20
0.2411363636363716
 41
1
 42
1
 50
0
  0
INSERT
  2
-099-_U90
  8
_0-0_0
 10
-2.5000000000000568
 20
0.2411363636363716
 41
1
 42
1
 50
0
  0
INSERT
  2
-100-_U91
  8
_0-0_0
 10
-2.5000000000000568
 20
0.2411363636363716
 41
1
 42
1
 50
0
  0
INSERT
  2
-101-_U92
  8
_0-0_0
 10
-2.5000000000000568
 20
0.2411363636363716
 41
1
 42
1
 50
0
  0
INSERT
  2
-102-_U93
  8
_0-0_0
 10
-2.5000000000000568
 20
0.2411363636363716
 41
1
 42
1
 50
0
  0
INSERT
  2
-103-_U94
  8
_0-0_0
 10
-2.5000000000000568
 20
0.2411363636363716
 41
1
 42
1
 50
0
  0
INSERT
  2
-104-_U95
  8
_0-0_0
 10
-2.5000000000000568
 20
0.2411363636363716
 41
1
 42
1
 50
0
  0
INSERT
  2
-105-_U96
  8
_0-0_0
 10
-2.5000000000000568
 20
0.2411363636363716
 41
1
 42
1
 50
0
  0
INSERT
  2
-106-_U97
  8
_0-0_0
 10
-2.5000000000000568
 20
0.2411363636363716
 41
1
 42
1
 50
0
  0
INSERT
  2
-107-_U98
  8
_0-0_0
 10
-2.5000000000000568
 20
0.2411363636363716
 41
1
 42
1
 50
0
  0
INSERT
  2
-108-_U99
  8
_0-0_0
 10
-2.5000000000000568
 20
0.2411363636363716
 41
1
 42
1
 50
0
  0
INSERT
  2
-109-_U100
  8
_0-0_0
 10
-2.5000000000000568
 20
0.2411363636363716
 41
1
 42
1
 50
0
  0
INSERT
  2
-110-_U101
  8
_0-0_0
 10
-2.5000000000000568
 20
0.2411363636363716
 41
1
 42
1
 50
0
  0
INSERT
  2
-111-_U102
  8
_0-0_0
 10
-2.5000000000000568
 20
0.2411363636363716
 41
1
 42
1
 50
0
  0
INSERT
  2
-112-_U103
  8
_0-0_0
 10
-2.5000000000000568
 20
0.2411363636363716
 41
1
 42
1
 50
0
  0
INSERT
  2
-113-_U104
  8
_0-0_0
 10
-2.5000000000000568
 20
0.2411363636363716
 41
1
 42
1
 50
0
  0
INSERT
  2
-114-_U105
  8
_0-0_0
 10
-2.5000000000000568
 20
0.2411363636363716
 41
1
 42
1
 50
0
  0
INSERT
  2
-115-_U106
  8
_0-0_0
 10
-2.5000000000000568
 20
0.2411363636363716
 41
1
 42
1
 50
0
  0
INSERT
  2
-116-_U107
  8
_0-0_0
 10
-2.5000000000000568
 20
0.2411363636363716
 41
1
 42
1
 50
0
  0
INSERT
  2
-117-_U108
  8
_0-0_0
 10
-2.5000000000000568
 20
0.2411363636363716
 41
1
 42
1
 50
0
  0
INSERT
  2
-118-_U109
  8
_0-0_0
 10
-2.5000000000000568
 20
0.2411363636363716
 41
1
 42
1
 50
0
  0
LINE
  8
_0-1_H0
  6
CONTINUOUS
 62
    3
 10
247.49999999999982
 20
34.241136363636371
 11
247.49999999999982
 21
44.241136363636371
  0
LINE
  8
_0-1_H0
  6
CONTINUOUS
 62
    3
 10
289.49999999999982
 20
44.241136363636371
 11
289.49999999999982
 21
34.241136363636371
  0
LINE
  8
_0-1_H0
  6
CONTINUOUS
 62
    3
 10
317.49999999999982
 20
10.241136363636371
 11
317.49999999999982
 21
44.241136363636371
  0
LINE
  8
_0-1_H0
  6
CONTINUOUS
 62
    3
 10
359.49999999999994
 20
34.241136363636371
 11
359.49999999999994
 21
44.241136363636371
  0
LINE
  8
_0-1_H0
  6
CONTINUOUS
 62
    3
 10
387.49999999999994
 20
34.241136363636371
 11
387.49999999999994
 21
44.241136363636371
  0
INSERT
  2
-119-_U110
  8
_0-0_0
 10
-2.5000000000000568
 20
0.2411363636363716
 41
1
 42
1
 50
0
  0
INSERT
  2
-120-_U111
  8
_0-0_0
 10
-2.5000000000000568
 20
0.2411363636363716
 41
1
 42
1
 50
0
  0
INSERT
  2
-121-_U112
  8
_0-0_0
 10
-2.5000000000000568
 20
0.2411363636363716
 41
1
 42
1
 50
0
  0
INSERT
  2
-122-_U113
  8
_0-0_0
 10
-2.5000000000000568
 20
0.2411363636363716
 41
1
 42
1
 50
0
  0
LINE
  8
_0-1_H0
  6
CONTINUOUS
 62
    3
 10
247.49999999999994
 20
44.241136363636371
 11
407.49999999999971
 21
44.241136363636371
  0
INSERT
  2
-123-_U114
  8
_0-0_0
 10
-2.5000000000000568
 20
0.2411363636363716
 41
1
 42
1
 50
0
  0
INSERT
  2
-124-_U115
  8
_0-0_0
 10
-2.5000000000000568
 20
0.2411363636363716
 41
1
 42
1
 50
0
  0
INSERT
  2
-125-_U116
  8
_0-0_0
 10
-2.5000000000000568
 20
0.2411363636363716
 41
1
 42
1
 50
0
  0
LINE
  8
_0-1_H0
  6
CONTINUOUS
 62
    3
 10
188.30610307050145
 20
85.985281979267199
 11
210.88804611732095
 21
85.985281979267199
  0
LINE
  8
_0-1_H0
  6
CONTINUOUS
 62
    3
 10
233.92660604880595
 20
85.985281979267199
 11
256.29029658030322
 21
85.985281979267199
  0
LINE
  8
_0-1_H0
  6
CONTINUOUS
 62
    3
 10
188.30610307050145
 20
72.985281979266687
 11
256.29029658030322
 21
72.985281979266687
  0
LINE
  8
_0-1_H0
  6
CONTINUOUS
 62
    3
 10
188.30610307050145
 20
85.985281979267199
 11
188.30610307050145
 21
72.985281979266687
  0
LINE
  8
_0-1_H0
  6
CONTINUOUS
 62
    3
 10
256.29029658030322
 20
85.985281979267199
 11
256.29029658030322
 21
72.985281979266687
  0
INSERT
  2
-126-_U117
  8
_0-0_0
 10
-2.5000000000000568
 20
0.2411363636363716
 41
1
 42
1
 50
0
  0
LINE
  8
_0-1_H0
  6
HIDDEN
 62
    3
 10
236.62752109627484
 20
78.985281979267142
 11
242.96838168303645
 21
78.985281979267142
  0
LINE
  8
_0-3_A0
  6
CENTER
 62
    3
 10
199.58209617514944
 20
200.09094510445348
 11
204.01374954253535
 21
200.09094510444856
  0
LINE
  8
_0-3_A0
  6
CENTER
 62
    3
 10
271.72501913392972
 20
200.09094510437356
 11
275.96915826000463
 21
200.09094510436878
  0
LINE
  8
_0-3_A0
  6
CENTER
 62
    3
 10
199.50532844470703
 20
205.34579425687016
 11
204.01374954253535
 21
205.34579425687016
  0
LINE
  8
_0-3_A0
  6
CENTER
 62
    3
 10
271.72501913392972
 20
205.34579425687016
 11
275.96915826000463
 21
205.34579425687016
  0
LINE
  8
_0-3_A0
  6
CENTER
 62
    3
 10
199.58209617513645
 20
176.70392694717287
 11
204.01374954250943
 21
176.70392694717045
  0
LINE
  8
_0-3_A0
  6
CENTER
 62
    3
 10
271.72501913390385
 20
176.70392694713288
 11
275.96915825997865
 21
176.70392694713058
  0
LINE
  8
_0-3_A0
  6
CENTER
 62
    3
 10
199.58209617510505
 20
148.45166959924597
 11
204.01374954249374
 21
148.45166959924105
  0
LINE
  8
_0-3_A0
  6
CENTER
 62
    3
 10
271.72501913388816
 20
148.45166959916596
 11
275.96915825996296
 21
148.45166959916127
  0
ARC
  8
_0-3_A0
  6
CONTINUOUS
 62
    3
 10
131.47029252728523
 20
205.44972029927475
 40
0.375
 50
100.08059798753569
 51
190.08059798741641
  0
ARC
  8
_0-3_A0
  6
CONTINUOUS
 62
    3
 10
131.96257378117823
 20
205.53723696663345
 40
0.375
 50
10.08059798741643
 51
100.08059798753572
  0
ARC
  8
_0-3_A0
  6
CONTINUOUS
 62
    3
 10
101.91169797588364
 20
200.19485904569367
 40
0.375
 50
100.08059798753859
 51
190.10699650177309
  0
ARC
  8
_0-3_A0
  6
CONTINUOUS
 62
    3
 10
102.40397928202793
 20
200.28237572234147
 40
0.375
 50
10.106996501773107
 51
100.0805979875399
  0
LINE
  8
_0-3_A0
  6
CONTINUOUS
 62
    3
 10
73.150689183888175
 20
177.11593903356538
 11
72.982520985388447
 21
176.64506807776817
  0
ARC
  8
_0-3_A0
  6
CONTINUOUS
 62
    3
 10
73.503842400736033
 20
176.98981288469056
 40
0.375
 50
70.34617594179565
 51
160.34617594186292
  0
ARC
  8
_0-3_A0
  6
CONTINUOUS
 62
    3
 10
73.335674202236305
 20
176.51894192889326
 40
0.375
 50
160.3461759418684
 51
250.3461759417963
  0
ARC
  8
_0-3_A0
  6
CONTINUOUS
 62
    3
 10
63.413750490751965
 20
148.73755553685927
 40
0.375
 50
70.346175941796246
 51
160.34617594186428
  0
ARC
  8
_0-3_A0
  6
CONTINUOUS
 62
    3
 10
63.245582292252208
 20
148.26668458106217
 40
0.375
 50
160.3461759418684
 51
250.34617594179567
  0
LINE
  8
_0-3_A0
  6
CONTINUOUS
 62
    3
 10
202.66399999999993
 20
205.34613636363636
 11
202.66399999999993
 21
205.35213636363636
  0
LINE
  8
_0-3_A0
  6
CONTINUOUS
 62
    3
 10
202.66399999999993
 20
205.35213636363636
 11
202.66099999999994
 21
205.35813636363636
  0
LINE
  8
_0-3_A0
  6
CONTINUOUS
 62
    3
 10
202.66099999999994
 20
205.35813636363636
 11
202.65799999999993
 21
205.36413636363636
  0
LINE
  8
_0-3_A0
  6
CONTINUOUS
 62
    3
 10
202.65799999999993
 20
205.36413636363636
 11
202.65199999999992
 21
205.37013636363636
  0
LINE
  8
_0-3_A0
  6
CONTINUOUS
 62
    3
 10
202.65199999999992
 20
205.37013636363636
 11
202.64599999999992
 21
205.37613636363636
  0
LINE
  8
_0-3_A0
  6
CONTINUOUS
 62
    3
 10
202.64599999999992
 20
205.37613636363636
 11
202.63799999999994
 21
205.38213636363636
  0
LINE
  8
_0-3_A0
  6
CONTINUOUS
 62
    3
 10
202.63799999999994
 20
205.38213636363636
 11
202.62799999999992
 21
205.38813636363636
  0
LINE
  8
_0-3_A0
  6
CONTINUOUS
 62
    3
 10
202.62799999999992
 20
205.38813636363636
 11
202.61699999999993
 21
205.39313636363635
  0
LINE
  8
_0-3_A0
  6
CONTINUOUS
 62
    3
 10
202.61699999999993
 20
205.39313636363635
 11
202.60399999999995
 21
205.39913636363635
  0
LINE
  8
_0-3_A0
  6
CONTINUOUS
 62
    3
 10
202.60399999999995
 20
205.39913636363635
 11
202.59099999999995
 21
205.40513636363635
  0
LINE
  8
_0-3_A0
  6
CONTINUOUS
 62
    3
 10
202.59099999999995
 20
205.40513636363635
 11
202.57599999999993
 21
205.41013636363638
  0
LINE
  8
_0-3_A0
  6
CONTINUOUS
 62
    3
 10
202.57599999999993
 20
205.41013636363638
 11
202.55899999999994
 21
205.41513636363637
  0
LINE
  8
_0-3_A0
  6
CONTINUOUS
 62
    3
 10
202.55899999999994
 20
205.41513636363637
 11
202.54099999999993
 21
205.42013636363637
  0
LINE
  8
_0-3_A0
  6
CONTINUOUS
 62
    3
 10
202.54099999999993
 20
205.42013636363637
 11
202.52299999999993
 21
205.42513636363636
  0
LINE
  8
_0-3_A0
  6
CONTINUOUS
 62
    3
 10
202.52299999999993
 20
205.42513636363636
 11
202.50299999999992
 21
205.43013636363636
  0
LINE
  8
_0-3_A0
  6
CONTINUOUS
 62
    3
 10
202.50299999999992
 20
205.43013636363636
 11
202.48099999999993
 21
205.43413636363638
  0
LINE
  8
_0-3_A0
  6
CONTINUOUS
 62
    3
 10
202.48099999999993
 20
205.43413636363638
 11
202.45899999999994
 21
205.43813636363637
  0
LINE
  8
_0-3_A0
  6
CONTINUOUS
 62
    3
 10
202.45899999999994
 20
205.43813636363637
 11
202.43599999999995
 21
205.44213636363636
  0
LINE
  8
_0-3_A0
  6
CONTINUOUS
 62
    3
 10
202.43599999999995
 20
205.44213636363636
 11
202.41199999999994
 21
205.44613636363638
  0
LINE
  8
_0-3_A0
  6
CONTINUOUS
 62
    3
 10
202.41199999999994
 20
205.44613636363638
 11
202.38699999999994
 21
205.45013636363637
  0
LINE
  8
_0-3_A0
  6
CONTINUOUS
 62
    3
 10
202.38699999999994
 20
205.45013636363637
 11
202.36099999999993
 21
205.45313636363636
  0
LINE
  8
_0-3_A0
  6
CONTINUOUS
 62
    3
 10
202.36099999999993
 20
205.45313636363636
 11
202.33399999999994
 21
205.45613636363637
  0
LINE
  8
_0-3_A0
  6
CONTINUOUS
 62
    3
 10
202.33399999999994
 20
205.45613636363637
 11
202.30699999999993
 21
205.45913636363636
  0
LINE
  8
_0-3_A0
  6
CONTINUOUS
 62
    3
 10
202.30699999999993
 20
205.45913636363636
 11
202.27899999999993
 21
205.46113636363637
  0
LINE
  8
_0-3_A0
  6
CONTINUOUS
 62
    3
 10
202.27899999999993
 20
205.46113636363637
 11
202.24999999999994
 21
205.46313636363638
  0
LINE
  8
_0-3_A0
  6
CONTINUOUS
 62
    3
 10
202.24999999999994
 20
205.46313636363638
 11
202.22099999999994
 21
205.46513636363636
  0
LINE
  8
_0-3_A0
  6
CONTINUOUS
 62
    3
 10
202.22099999999994
 20
205.46513636363636
 11
202.19099999999994
 21
205.46713636363637
  0
LINE
  8
_0-3_A0
  6
CONTINUOUS
 62
    3
 10
202.19099999999994
 20
205.46713636363637
 11
202.16099999999994
 21
205.46813636363637
  0
LINE
  8
_0-3_A0
  6
CONTINUOUS
 62
    3
 10
202.16099999999994
 20
205.46813636363637
 11
202.13099999999994
 21
205.46913636363638
  0
LINE
  8
_0-3_A0
  6
CONTINUOUS
 62
    3
 10
202.13099999999994
 20
205.46913636363638
 11
202.10099999999994
 21
205.47013636363638
  0
LINE
  8
_0-3_A0
  6
CONTINUOUS
 62
    3
 10
202.10099999999994
 20
205.47013636363638
 11
202.06999999999993
 21
205.47113636363636
  0
LINE
  8
_0-3_A0
  6
CONTINUOUS
 62
    3
 10
202.06999999999993
 20
205.47113636363636
 11
202.03899999999993
 21
205.47113636363636
  0
LINE
  8
_0-3_A0
  6
CONTINUOUS
 62
    3
 10
202.03899999999993
 20
205.47113636363636
 11
202.00899999999992
 21
205.47113636363636
  0
LINE
  8
_0-3_A0
  6
CONTINUOUS
 62
    3
 10
202.00899999999992
 20
205.47113636363636
 11
201.97799999999995
 21
205.47013636363638
  0
LINE
  8
_0-3_A0
  6
CONTINUOUS
 62
    3
 10
201.97799999999995
 20
205.47013636363638
 11
201.94799999999995
 21
205.46913636363638
  0
LINE
  8
_0-3_A0
  6
CONTINUOUS
 62
    3
 10
201.94799999999995
 20
205.46913636363638
 11
201.91799999999994
 21
205.46813636363637
  0
LINE
  8
_0-3_A0
  6
CONTINUOUS
 62
    3
 10
201.91799999999994
 20
205.46813636363637
 11
201.88799999999994
 21
205.46713636363637
  0
LINE
  8
_0-3_A0
  6
CONTINUOUS
 62
    3
 10
201.88799999999994
 20
205.46713636363637
 11
201.85799999999994
 21
205.46513636363636
  0
LINE
  8
_0-3_A0
  6
CONTINUOUS
 62
    3
 10
201.85799999999994
 20
205.46513636363636
 11
201.82899999999995
 21
205.46313636363638
  0
LINE
  8
_0-3_A0
  6
CONTINUOUS
 62
    3
 10
201.82899999999995
 20
205.46313636363638
 11
201.79999999999995
 21
205.46113636363637
  0
LINE
  8
_0-3_A0
  6
CONTINUOUS
 62
    3
 10
201.79999999999995
 20
205.46113636363637
 11
201.77199999999993
 21
205.45913636363636
  0
LINE
  8
_0-3_A0
  6
CONTINUOUS
 62
    3
 10
201.77199999999993
 20
205.45913636363636
 11
201.74499999999994
 21
205.45613636363637
  0
LINE
  8
_0-3_A0
  6
CONTINUOUS
 62
    3
 10
201.74499999999994
 20
205.45613636363637
 11
201.71799999999993
 21
205.45313636363636
  0
LINE
  8
_0-3_A0
  6
CONTINUOUS
 62
    3
 10
201.71799999999993
 20
205.45313636363636
 11
201.69199999999995
 21
205.45013636363637
  0
LINE
  8
_0-3_A0
  6
CONTINUOUS
 62
    3
 10
201.69199999999995
 20
205.45013636363637
 11
201.66699999999994
 21
205.44613636363638
  0
LINE
  8
_0-3_A0
  6
CONTINUOUS
 62
    3
 10
201.66699999999994
 20
205.44613636363638
 11
201.64299999999994
 21
205.44213636363636
  0
LINE
  8
_0-3_A0
  6
CONTINUOUS
 62
    3
 10
201.64299999999994
 20
205.44213636363636
 11
201.61999999999994
 21
205.43813636363637
  0
LINE
  8
_0-3_A0
  6
CONTINUOUS
 62
    3
 10
201.61999999999994
 20
205.43813636363637
 11
201.59799999999995
 21
205.43413636363638
  0
LINE
  8
_0-3_A0
  6
CONTINUOUS
 62
    3
 10
201.59799999999995
 20
205.43413636363638
 11
201.57599999999993
 21
205.43013636363636
  0
LINE
  8
_0-3_A0
  6
CONTINUOUS
 62
    3
 10
201.57599999999993
 20
205.43013636363636
 11
201.55599999999995
 21
205.42513636363636
  0
LINE
  8
_0-3_A0
  6
CONTINUOUS
 62
    3
 10
201.55599999999995
 20
205.42513636363636
 11
201.53699999999994
 21
205.42013636363637
  0
LINE
  8
_0-3_A0
  6
CONTINUOUS
 62
    3
 10
201.53699999999994
 20
205.42013636363637
 11
201.51999999999995
 21
205.41513636363637
  0
LINE
  8
_0-3_A0
  6
CONTINUOUS
 62
    3
 10
201.51999999999995
 20
205.41513636363637
 11
201.50299999999992
 21
205.41013636363638
  0
LINE
  8
_0-3_A0
  6
CONTINUOUS
 62
    3
 10
201.50299999999992
 20
205.41013636363638
 11
201.48799999999994
 21
205.40513636363635
  0
LINE
  8
_0-3_A0
  6
CONTINUOUS
 62
    3
 10
201.48799999999994
 20
205.40513636363635
 11
201.47399999999993
 21
205.39913636363635
  0
LINE
  8
_0-3_A0
  6
CONTINUOUS
 62
    3
 10
201.47399999999993
 20
205.39913636363635
 11
201.46199999999993
 21
205.39313636363635
  0
LINE
  8
_0-3_A0
  6
CONTINUOUS
 62
    3
 10
201.46199999999993
 20
205.39313636363635
 11
201.45099999999993
 21
205.38813636363636
  0
LINE
  8
_0-3_A0
  6
CONTINUOUS
 62
    3
 10
201.45099999999993
 20
205.38813636363636
 11
201.44099999999994
 21
205.38213636363636
  0
LINE
  8
_0-3_A0
  6
CONTINUOUS
 62
    3
 10
201.44099999999994
 20
205.38213636363636
 11
201.43299999999993
 21
205.37613636363636
  0
LINE
  8
_0-3_A0
  6
CONTINUOUS
 62
    3
 10
201.43299999999993
 20
205.37613636363636
 11
201.42599999999993
 21
205.37013636363636
  0
LINE
  8
_0-3_A0
  6
CONTINUOUS
 62
    3
 10
201.42599999999993
 20
205.37013636363636
 11
201.42099999999993
 21
205.36413636363636
  0
LINE
  8
_0-3_A0
  6
CONTINUOUS
 62
    3
 10
201.42099999999993
 20
205.36413636363636
 11
201.41699999999994
 21
205.35813636363636
  0
LINE
  8
_0-3_A0
  6
CONTINUOUS
 62
    3
 10
201.41699999999994
 20
205.35813636363636
 11
201.41499999999993
 21
205.35213636363636
  0
LINE
  8
_0-3_A0
  6
CONTINUOUS
 62
    3
 10
201.41499999999993
 20
205.35213636363636
 11
201.41399999999993
 21
205.34613636363636
  0
LINE
  8
_0-3_A0
  6
CONTINUOUS
 62
    3
 10
201.41399999999993
 20
205.34613636363636
 11
201.41499999999993
 21
205.34013636363636
  0
LINE
  8
_0-3_A0
  6
CONTINUOUS
 62
    3
 10
201.41499999999993
 20
205.34013636363636
 11
201.41699999999994
 21
205.33313636363638
  0
LINE
  8
_0-3_A0
  6
CONTINUOUS
 62
    3
 10
201.41699999999994
 20
205.33313636363638
 11
201.42099999999993
 21
205.32713636363638
  0
LINE
  8
_0-3_A0
  6
CONTINUOUS
 62
    3
 10
201.42099999999993
 20
205.32713636363638
 11
201.42599999999993
 21
205.32113636363638
  0
LINE
  8
_0-3_A0
  6
CONTINUOUS
 62
    3
 10
201.42599999999993
 20
205.32113636363638
 11
201.43299999999993
 21
205.31513636363638
  0
LINE
  8
_0-3_A0
  6
CONTINUOUS
 62
    3
 10
201.43299999999993
 20
205.31513636363638
 11
201.44099999999994
 21
205.30913636363638
  0
LINE
  8
_0-3_A0
  6
CONTINUOUS
 62
    3
 10
201.44099999999994
 20
205.30913636363638
 11
201.45099999999993
 21
205.30413636363635
  0
LINE
  8
_0-3_A0
  6
CONTINUOUS
 62
    3
 10
201.45099999999993
 20
205.30413636363635
 11
201.46199999999993
 21
205.29813636363635
  0
LINE
  8
_0-3_A0
  6
CONTINUOUS
 62
    3
 10
201.46199999999993
 20
205.29813636363635
 11
201.47399999999993
 21
205.29213636363635
  0
LINE
  8
_0-3_A0
  6
CONTINUOUS
 62
    3
 10
201.47399999999993
 20
205.29213636363635
 11
201.48799999999994
 21
205.28713636363636
  0
LINE
  8
_0-3_A0
  6
CONTINUOUS
 62
    3
 10
201.48799999999994
 20
205.28713636363636
 11
201.50299999999992
 21
205.28113636363636
  0
LINE
  8
_0-3_A0
  6
CONTINUOUS
 62
    3
 10
201.50299999999992
 20
205.28113636363636
 11
201.51999999999995
 21
205.27613636363636
  0
LINE
  8
_0-3_A0
  6
CONTINUOUS
 62
    3
 10
201.51999999999995
 20
205.27613636363636
 11
201.53699999999994
 21
205.27113636363637
  0
LINE
  8
_0-3_A0
  6
CONTINUOUS
 62
    3
 10
201.53699999999994
 20
205.27113636363637
 11
201.55599999999995
 21
205.26613636363637
  0
LINE
  8
_0-3_A0
  6
CONTINUOUS
 62
    3
 10
201.55599999999995
 20
205.26613636363637
 11
201.57599999999993
 21
205.26213636363635
  0
LINE
  8
_0-3_A0
  6
CONTINUOUS
 62
    3
 10
201.57599999999993
 20
205.26213636363635
 11
201.59799999999995
 21
205.25713636363636
  0
LINE
  8
_0-3_A0
  6
CONTINUOUS
 62
    3
 10
201.59799999999995
 20
205.25713636363636
 11
201.61999999999994
 21
205.25313636363637
  0
LINE
  8
_0-3_A0
  6
CONTINUOUS
 62
    3
 10
201.61999999999994
 20
205.25313636363637
 11
201.64299999999994
 21
205.24913636363638
  0
LINE
  8
_0-3_A0
  6
CONTINUOUS
 62
    3
 10
201.64299999999994
 20
205.24913636363638
 11
201.66699999999994
 21
205.24513636363636
  0
LINE
  8
_0-3_A0
  6
CONTINUOUS
 62
    3
 10
201.66699999999994
 20
205.24513636363636
 11
201.69199999999995
 21
205.24213636363637
  0
LINE
  8
_0-3_A0
  6
CONTINUOUS
 62
    3
 10
201.69199999999995
 20
205.24213636363637
 11
201.71799999999993
 21
205.23813636363638
  0
LINE
  8
_0-3_A0
  6
CONTINUOUS
 62
    3
 10
201.71799999999993
 20
205.23813636363638
 11
201.74499999999994
 21
205.23513636363637
  0
LINE
  8
_0-3_A0
  6
CONTINUOUS
 62
    3
 10
201.74499999999994
 20
205.23513636363637
 11
201.77199999999993
 21
205.23313636363636
  0
LINE
  8
_0-3_A0
  6
CONTINUOUS
 62
    3
 10
201.77199999999993
 20
205.23313636363636
 11
201.79999999999995
 21
205.23013636363637
  0
LINE
  8
_0-3_A0
  6
CONTINUOUS
 62
    3
 10
201.79999999999995
 20
205.23013636363637
 11
201.82899999999995
 21
205.22813636363636
  0
LINE
  8
_0-3_A0
  6
CONTINUOUS
 62
    3
 10
201.82899999999995
 20
205.22813636363636
 11
201.85799999999994
 21
205.22613636363638
  0
LINE
  8
_0-3_A0
  6
CONTINUOUS
 62
    3
 10
201.85799999999994
 20
205.22613636363638
 11
201.88799999999994
 21
205.22413636363637
  0
LINE
  8
_0-3_A0
  6
CONTINUOUS
 62
    3
 10
201.88799999999994
 20
205.22413636363637
 11
201.91799999999994
 21
205.22313636363637
  0
LINE
  8
_0-3_A0
  6
CONTINUOUS
 62
    3
 10
201.91799999999994
 20
205.22313636363637
 11
201.94799999999995
 21
205.22213636363636
  0
LINE
  8
_0-3_A0
  6
CONTINUOUS
 62
    3
 10
201.94799999999995
 20
205.22213636363636
 11
201.97799999999995
 21
205.22113636363636
  0
LINE
  8
_0-3_A0
  6
CONTINUOUS
 62
    3
 10
201.97799999999995
 20
205.22113636363636
 11
202.00899999999992
 21
205.22113636363636
  0
LINE
  8
_0-3_A0
  6
CONTINUOUS
 62
    3
 10
202.00899999999992
 20
205.22113636363636
 11
202.03899999999993
 21
205.22113636363636
  0
LINE
  8
_0-3_A0
  6
CONTINUOUS
 62
    3
 10
202.03899999999993
 20
205.22113636363636
 11
202.06999999999993
 21
205.22113636363636
  0
LINE
  8
_0-3_A0
  6
CONTINUOUS
 62
    3
 10
202.06999999999993
 20
205.22113636363636
 11
202.10099999999994
 21
205.22113636363636
  0
LINE
  8
_0-3_A0
  6
CONTINUOUS
 62
    3
 10
202.10099999999994
 20
205.22113636363636
 11
202.13099999999994
 21
205.22213636363636
  0
LINE
  8
_0-3_A0
  6
CONTINUOUS
 62
    3
 10
202.13099999999994
 20
205.22213636363636
 11
202.16099999999994
 21
205.22313636363637
  0
LINE
  8
_0-3_A0
  6
CONTINUOUS
 62
    3
 10
202.16099999999994
 20
205.22313636363637
 11
202.19099999999994
 21
205.22413636363637
  0
LINE
  8
_0-3_A0
  6
CONTINUOUS
 62
    3
 10
202.19099999999994
 20
205.22413636363637
 11
202.22099999999994
 21
205.22613636363638
  0
LINE
  8
_0-3_A0
  6
CONTINUOUS
 62
    3
 10
202.22099999999994
 20
205.22613636363638
 11
202.24999999999994
 21
205.22813636363636
  0
LINE
  8
_0-3_A0
  6
CONTINUOUS
 62
    3
 10
202.24999999999994
 20
205.22813636363636
 11
202.27899999999993
 21
205.23013636363637
  0
LINE
  8
_0-3_A0
  6
CONTINUOUS
 62
    3
 10
202.27899999999993
 20
205.23013636363637
 11
202.30699999999993
 21
205.23313636363636
  0
LINE
  8
_0-3_A0
  6
CONTINUOUS
 62
    3
 10
202.30699999999993
 20
205.23313636363636
 11
202.33399999999994
 21
205.23513636363637
  0
LINE
  8
_0-3_A0
  6
CONTINUOUS
 62
    3
 10
202.33399999999994
 20
205.23513636363637
 11
202.36099999999993
 21
205.23813636363638
  0
LINE
  8
_0-3_A0
  6
CONTINUOUS
 62
    3
 10
202.36099999999993
 20
205.23813636363638
 11
202.38699999999994
 21
205.24213636363637
  0
LINE
  8
_0-3_A0
  6
CONTINUOUS
 62
    3
 10
202.38699999999994
 20
205.24213636363637
 11
202.41199999999994
 21
205.24513636363636
  0
LINE
  8
_0-3_A0
  6
CONTINUOUS
 62
    3
 10
202.41199999999994
 20
205.24513636363636
 11
202.43599999999995
 21
205.24913636363638
  0
LINE
  8
_0-3_A0
  6
CONTINUOUS
 62
    3
 10
202.43599999999995
 20
205.24913636363638
 11
202.45899999999994
 21
205.25313636363637
  0
LINE
  8
_0-3_A0
  6
CONTINUOUS
 62
    3
 10
202.45899999999994
 20
205.25313636363637
 11
202.48099999999993
 21
205.25713636363636
  0
LINE
  8
_0-3_A0
  6
CONTINUOUS
 62
    3
 10
202.48099999999993
 20
205.25713636363636
 11
202.50299999999992
 21
205.26213636363635
  0
LINE
  8
_0-3_A0
  6
CONTINUOUS
 62
    3
 10
202.50299999999992
 20
205.26213636363635
 11
202.52299999999993
 21
205.26613636363637
  0
LINE
  8
_0-3_A0
  6
CONTINUOUS
 62
    3
 10
202.52299999999993
 20
205.26613636363637
 11
202.54099999999993
 21
205.27113636363637
  0
LINE
  8
_0-3_A0
  6
CONTINUOUS
 62
    3
 10
202.54099999999993
 20
205.27113636363637
 11
202.55899999999994
 21
205.27613636363636
  0
LINE
  8
_0-3_A0
  6
CONTINUOUS
 62
    3
 10
202.55899999999994
 20
205.27613636363636
 11
202.57599999999993
 21
205.28113636363636
  0
LINE
  8
_0-3_A0
  6
CONTINUOUS
 62
    3
 10
202.57599999999993
 20
205.28113636363636
 11
202.59099999999995
 21
205.28713636363636
  0
LINE
  8
_0-3_A0
  6
CONTINUOUS
 62
    3
 10
202.59099999999995
 20
205.28713636363636
 11
202.60399999999995
 21
205.29213636363635
  0
LINE
  8
_0-3_A0
  6
CONTINUOUS
 62
    3
 10
202.60399999999995
 20
205.29213636363635
 11
202.61699999999993
 21
205.29813636363635
  0
LINE
  8
_0-3_A0
  6
CONTINUOUS
 62
    3
 10
202.61699999999993
 20
205.29813636363635
 11
202.62799999999992
 21
205.30413636363635
  0
LINE
  8
_0-3_A0
  6
CONTINUOUS
 62
    3
 10
202.62799999999992
 20
205.30413636363635
 11
202.63799999999994
 21
205.30913636363638
  0
LINE
  8
_0-3_A0
  6
CONTINUOUS
 62
    3
 10
202.63799999999994
 20
205.30913636363638
 11
202.64599999999992
 21
205.31513636363638
  0
LINE
  8
_0-3_A0
  6
CONTINUOUS
 62
    3
 10
202.64599999999992
 20
205.31513636363638
 11
202.65199999999992
 21
205.32113636363638
  0
LINE
  8
_0-3_A0
  6
CONTINUOUS
 62
    3
 10
202.65199999999992
 20
205.32113636363638
 11
202.65799999999993
 21
205.32713636363638
  0
LINE
  8
_0-3_A0
  6
CONTINUOUS
 62
    3
 10
202.65799999999993
 20
205.32713636363638
 11
202.66099999999994
 21
205.33313636363638
  0
LINE
  8
_0-3_A0
  6
CONTINUOUS
 62
    3
 10
202.66099999999994
 20
205.33313636363638
 11
202.66399999999993
 21
205.34013636363636
  0
LINE
  8
_0-3_A0
  6
CONTINUOUS
 62
    3
 10
202.66399999999993
 20
205.34013636363636
 11
202.66399999999993
 21
205.34613636363636
  0
LINE
  8
_0-3_A0
  6
CONTINUOUS
 62
    3
 10
274.16399999999993
 20
205.34613636363636
 11
274.16399999999993
 21
205.35213636363636
  0
LINE
  8
_0-3_A0
  6
CONTINUOUS
 62
    3
 10
274.16399999999993
 20
205.35213636363636
 11
274.16099999999994
 21
205.35813636363636
  0
LINE
  8
_0-3_A0
  6
CONTINUOUS
 62
    3
 10
274.16099999999994
 20
205.35813636363636
 11
274.15799999999995
 21
205.36413636363636
  0
LINE
  8
_0-3_A0
  6
CONTINUOUS
 62
    3
 10
274.15799999999995
 20
205.36413636363636
 11
274.15199999999992
 21
205.37013636363636
  0
LINE
  8
_0-3_A0
  6
CONTINUOUS
 62
    3
 10
274.15199999999992
 20
205.37013636363636
 11
274.14599999999995
 21
205.37613636363636
  0
LINE
  8
_0-3_A0
  6
CONTINUOUS
 62
    3
 10
274.14599999999995
 20
205.37613636363636
 11
274.13799999999991
 21
205.38213636363636
  0
LINE
  8
_0-3_A0
  6
CONTINUOUS
 62
    3
 10
274.13799999999991
 20
205.38213636363636
 11
274.12799999999992
 21
205.38813636363636
  0
LINE
  8
_0-3_A0
  6
CONTINUOUS
 62
    3
 10
274.12799999999992
 20
205.38813636363636
 11
274.11699999999996
 21
205.39313636363635
  0
LINE
  8
_0-3_A0
  6
CONTINUOUS
 62
    3
 10
274.11699999999996
 20
205.39313636363635
 11
274.10399999999992
 21
205.39913636363635
  0
LINE
  8
_0-3_A0
  6
CONTINUOUS
 62
    3
 10
274.10399999999992
 20
205.39913636363635
 11
274.09099999999995
 21
205.40513636363635
  0
LINE
  8
_0-3_A0
  6
CONTINUOUS
 62
    3
 10
274.09099999999995
 20
205.40513636363635
 11
274.07599999999996
 21
205.41013636363638
  0
LINE
  8
_0-3_A0
  6
CONTINUOUS
 62
    3
 10
274.07599999999996
 20
205.41013636363638
 11
274.05899999999996
 21
205.41513636363637
  0
LINE
  8
_0-3_A0
  6
CONTINUOUS
 62
    3
 10
274.05899999999996
 20
205.41513636363637
 11
274.04099999999993
 21
205.42013636363637
  0
LINE
  8
_0-3_A0
  6
CONTINUOUS
 62
    3
 10
274.04099999999993
 20
205.42013636363637
 11
274.02299999999996
 21
205.42513636363636
  0
LINE
  8
_0-3_A0
  6
CONTINUOUS
 62
    3
 10
274.02299999999996
 20
205.42513636363636
 11
274.00299999999992
 21
205.43013636363636
  0
LINE
  8
_0-3_A0
  6
CONTINUOUS
 62
    3
 10
274.00299999999992
 20
205.43013636363636
 11
273.98099999999993
 21
205.43413636363638
  0
LINE
  8
_0-3_A0
  6
CONTINUOUS
 62
    3
 10
273.98099999999993
 20
205.43413636363638
 11
273.95899999999994
 21
205.43813636363637
  0
LINE
  8
_0-3_A0
  6
CONTINUOUS
 62
    3
 10
273.95899999999994
 20
205.43813636363637
 11
273.93599999999992
 21
205.44213636363636
  0
LINE
  8
_0-3_A0
  6
CONTINUOUS
 62
    3
 10
273.93599999999992
 20
205.44213636363636
 11
273.91199999999992
 21
205.44613636363638
  0
LINE
  8
_0-3_A0
  6
CONTINUOUS
 62
    3
 10
273.91199999999992
 20
205.44613636363638
 11
273.88699999999994
 21
205.45013636363637
  0
LINE
  8
_0-3_A0
  6
CONTINUOUS
 62
    3
 10
273.88699999999994
 20
205.45013636363637
 11
273.86099999999993
 21
205.45313636363636
  0
LINE
  8
_0-3_A0
  6
CONTINUOUS
 62
    3
 10
273.86099999999993
 20
205.45313636363636
 11
273.83399999999994
 21
205.45613636363637
  0
LINE
  8
_0-3_A0
  6
CONTINUOUS
 62
    3
 10
273.83399999999994
 20
205.45613636363637
 11
273.80699999999995
 21
205.45913636363636
  0
LINE
  8
_0-3_A0
  6
CONTINUOUS
 62
    3
 10
273.80699999999995
 20
205.45913636363636
 11
273.77899999999993
 21
205.46113636363637
  0
LINE
  8
_0-3_A0
  6
CONTINUOUS
 62
    3
 10
273.77899999999993
 20
205.46113636363637
 11
273.74999999999994
 21
205.46313636363638
  0
LINE
  8
_0-3_A0
  6
CONTINUOUS
 62
    3
 10
273.74999999999994
 20
205.46313636363638
 11
273.72099999999994
 21
205.46513636363636
  0
LINE
  8
_0-3_A0
  6
CONTINUOUS
 62
    3
 10
273.72099999999994
 20
205.46513636363636
 11
273.69099999999991
 21
205.46713636363637
  0
LINE
  8
_0-3_A0
  6
CONTINUOUS
 62
    3
 10
273.69099999999991
 20
205.46713636363637
 11
273.66099999999994
 21
205.46813636363637
  0
LINE
  8
_0-3_A0
  6
CONTINUOUS
 62
    3
 10
273.66099999999994
 20
205.46813636363637
 11
273.63099999999991
 21
205.46913636363638
  0
LINE
  8
_0-3_A0
  6
CONTINUOUS
 62
    3
 10
273.63099999999991
 20
205.46913636363638
 11
273.60099999999994
 21
205.47013636363638
  0
LINE
  8
_0-3_A0
  6
CONTINUOUS
 62
    3
 10
273.60099999999994
 20
205.47013636363638
 11
273.56999999999993
 21
205.47113636363636
  0
LINE
  8
_0-3_A0
  6
CONTINUOUS
 62
    3
 10
273.56999999999993
 20
205.47113636363636
 11
273.53899999999993
 21
205.47113636363636
  0
LINE
  8
_0-3_A0
  6
CONTINUOUS
 62
    3
 10
273.53899999999993
 20
205.47113636363636
 11
273.50899999999995
 21
205.47113636363636
  0
LINE
  8
_0-3_A0
  6
CONTINUOUS
 62
    3
 10
273.50899999999995
 20
205.47113636363636
 11
273.47799999999995
 21
205.47013636363638
  0
LINE
  8
_0-3_A0
  6
CONTINUOUS
 62
    3
 10
273.47799999999995
 20
205.47013636363638
 11
273.44799999999992
 21
205.46913636363638
  0
LINE
  8
_0-3_A0
  6
CONTINUOUS
 62
    3
 10
273.44799999999992
 20
205.46913636363638
 11
273.41799999999994
 21
205.46813636363637
  0
LINE
  8
_0-3_A0
  6
CONTINUOUS
 62
    3
 10
273.41799999999994
 20
205.46813636363637
 11
273.38799999999991
 21
205.46713636363637
  0
LINE
  8
_0-3_A0
  6
CONTINUOUS
 62
    3
 10
273.38799999999991
 20
205.46713636363637
 11
273.35799999999994
 21
205.46513636363636
  0
LINE
  8
_0-3_A0
  6
CONTINUOUS
 62
    3
 10
273.35799999999994
 20
205.46513636363636
 11
273.32899999999995
 21
205.46313636363638
  0
LINE
  8
_0-3_A0
  6
CONTINUOUS
 62
    3
 10
273.32899999999995
 20
205.46313636363638
 11
273.29999999999995
 21
205.46113636363637
  0
LINE
  8
_0-3_A0
  6
CONTINUOUS
 62
    3
 10
273.29999999999995
 20
205.46113636363637
 11
273.27199999999993
 21
205.45913636363636
  0
LINE
  8
_0-3_A0
  6
CONTINUOUS
 62
    3
 10
273.27199999999993
 20
205.45913636363636
 11
273.24499999999994
 21
205.45613636363637
  0
LINE
  8
_0-3_A0
  6
CONTINUOUS
 62
    3
 10
273.24499999999994
 20
205.45613636363637
 11
273.21799999999996
 21
205.45313636363636
  0
LINE
  8
_0-3_A0
  6
CONTINUOUS
 62
    3
 10
273.21799999999996
 20
205.45313636363636
 11
273.19199999999995
 21
205.45013636363637
  0
LINE
  8
_0-3_A0
  6
CONTINUOUS
 62
    3
 10
273.19199999999995
 20
205.45013636363637
 11
273.16699999999991
 21
205.44613636363638
  0
LINE
  8
_0-3_A0
  6
CONTINUOUS
 62
    3
 10
273.16699999999991
 20
205.44613636363638
 11
273.14299999999991
 21
205.44213636363636
  0
LINE
  8
_0-3_A0
  6
CONTINUOUS
 62
    3
 10
273.14299999999991
 20
205.44213636363636
 11
273.11999999999994
 21
205.43813636363637
  0
LINE
  8
_0-3_A0
  6
CONTINUOUS
 62
    3
 10
273.11999999999994
 20
205.43813636363637
 11
273.09799999999995
 21
205.43413636363638
  0
LINE
  8
_0-3_A0
  6
CONTINUOUS
 62
    3
 10
273.09799999999995
 20
205.43413636363638
 11
273.07599999999996
 21
205.43013636363636
  0
LINE
  8
_0-3_A0
  6
CONTINUOUS
 62
    3
 10
273.07599999999996
 20
205.43013636363636
 11
273.05599999999992
 21
205.42513636363636
  0
LINE
  8
_0-3_A0
  6
CONTINUOUS
 62
    3
 10
273.05599999999992
 20
205.42513636363636
 11
273.03699999999992
 21
205.42013636363637
  0
LINE
  8
_0-3_A0
  6
CONTINUOUS
 62
    3
 10
273.03699999999992
 20
205.42013636363637
 11
273.01999999999992
 21
205.41513636363637
  0
LINE
  8
_0-3_A0
  6
CONTINUOUS
 62
    3
 10
273.01999999999992
 20
205.41513636363637
 11
273.00299999999992
 21
205.41013636363638
  0
LINE
  8
_0-3_A0
  6
CONTINUOUS
 62
    3
 10
273.00299999999992
 20
205.41013636363638
 11
272.98799999999994
 21
205.40513636363635
  0
LINE
  8
_0-3_A0
  6
CONTINUOUS
 62
    3
 10
272.98799999999994
 20
205.40513636363635
 11
272.97399999999993
 21
205.39913636363635
  0
LINE
  8
_0-3_A0
  6
CONTINUOUS
 62
    3
 10
272.97399999999993
 20
205.39913636363635
 11
272.96199999999993
 21
205.39313636363635
  0
LINE
  8
_0-3_A0
  6
CONTINUOUS
 62
    3
 10
272.96199999999993
 20
205.39313636363635
 11
272.95099999999996
 21
205.38813636363636
  0
LINE
  8
_0-3_A0
  6
CONTINUOUS
 62
    3
 10
272.95099999999996
 20
205.38813636363636
 11
272.94099999999991
 21
205.38213636363636
  0
LINE
  8
_0-3_A0
  6
CONTINUOUS
 62
    3
 10
272.94099999999991
 20
205.38213636363636
 11
272.93299999999993
 21
205.37613636363636
  0
LINE
  8
_0-3_A0
  6
CONTINUOUS
 62
    3
 10
272.93299999999993
 20
205.37613636363636
 11
272.92599999999993
 21
205.37013636363636
  0
LINE
  8
_0-3_A0
  6
CONTINUOUS
 62
    3
 10
272.92599999999993
 20
205.37013636363636
 11
272.92099999999993
 21
205.36413636363636
  0
LINE
  8
_0-3_A0
  6
CONTINUOUS
 62
    3
 10
272.92099999999993
 20
205.36413636363636
 11
272.91699999999991
 21
205.35813636363636
  0
LINE
  8
_0-3_A0
  6
CONTINUOUS
 62
    3
 10
272.91699999999991
 20
205.35813636363636
 11
272.91499999999996
 21
205.35213636363636
  0
LINE
  8
_0-3_A0
  6
CONTINUOUS
 62
    3
 10
272.91499999999996
 20
205.35213636363636
 11
272.91399999999993
 21
205.34613636363636
  0
LINE
  8
_0-3_A0
  6
CONTINUOUS
 62
    3
 10
272.91399999999993
 20
205.34613636363636
 11
272.91499999999996
 21
205.34013636363636
  0
LINE
  8
_0-3_A0
  6
CONTINUOUS
 62
    3
 10
272.91499999999996
 20
205.34013636363636
 11
272.91699999999991
 21
205.33313636363638
  0
LINE
  8
_0-3_A0
  6
CONTINUOUS
 62
    3
 10
272.91699999999991
 20
205.33313636363638
 11
272.92099999999993
 21
205.32713636363638
  0
LINE
  8
_0-3_A0
  6
CONTINUOUS
 62
    3
 10
272.92099999999993
 20
205.32713636363638
 11
272.92599999999993
 21
205.32113636363638
  0
LINE
  8
_0-3_A0
  6
CONTINUOUS
 62
    3
 10
272.92599999999993
 20
205.32113636363638
 11
272.93299999999993
 21
205.31513636363638
  0
LINE
  8
_0-3_A0
  6
CONTINUOUS
 62
    3
 10
272.93299999999993
 20
205.31513636363638
 11
272.94099999999991
 21
205.30913636363638
  0
LINE
  8
_0-3_A0
  6
CONTINUOUS
 62
    3
 10
272.94099999999991
 20
205.30913636363638
 11
272.95099999999996
 21
205.30413636363635
  0
LINE
  8
_0-3_A0
  6
CONTINUOUS
 62
    3
 10
272.95099999999996
 20
205.30413636363635
 11
272.96199999999993
 21
205.29813636363635
  0
LINE
  8
_0-3_A0
  6
CONTINUOUS
 62
    3
 10
272.96199999999993
 20
205.29813636363635
 11
272.97399999999993
 21
205.29213636363635
  0
LINE
  8
_0-3_A0
  6
CONTINUOUS
 62
    3
 10
272.97399999999993
 20
205.29213636363635
 11
272.98799999999994
 21
205.28713636363636
  0
LINE
  8
_0-3_A0
  6
CONTINUOUS
 62
    3
 10
272.98799999999994
 20
205.28713636363636
 11
273.00299999999992
 21
205.28113636363636
  0
LINE
  8
_0-3_A0
  6
CONTINUOUS
 62
    3
 10
273.00299999999992
 20
205.28113636363636
 11
273.01999999999992
 21
205.27613636363636
  0
LINE
  8
_0-3_A0
  6
CONTINUOUS
 62
    3
 10
273.01999999999992
 20
205.27613636363636
 11
273.03699999999992
 21
205.27113636363637
  0
LINE
  8
_0-3_A0
  6
CONTINUOUS
 62
    3
 10
273.03699999999992
 20
205.27113636363637
 11
273.05599999999992
 21
205.26613636363637
  0
LINE
  8
_0-3_A0
  6
CONTINUOUS
 62
    3
 10
273.05599999999992
 20
205.26613636363637
 11
273.07599999999996
 21
205.26213636363635
  0
LINE
  8
_0-3_A0
  6
CONTINUOUS
 62
    3
 10
273.07599999999996
 20
205.26213636363635
 11
273.09799999999995
 21
205.25713636363636
  0
LINE
  8
_0-3_A0
  6
CONTINUOUS
 62
    3
 10
273.09799999999995
 20
205.25713636363636
 11
273.11999999999994
 21
205.25313636363637
  0
LINE
  8
_0-3_A0
  6
CONTINUOUS
 62
    3
 10
273.11999999999994
 20
205.25313636363637
 11
273.14299999999991
 21
205.24913636363638
  0
LINE
  8
_0-3_A0
  6
CONTINUOUS
 62
    3
 10
273.14299999999991
 20
205.24913636363638
 11
273.16699999999991
 21
205.24513636363636
  0
LINE
  8
_0-3_A0
  6
CONTINUOUS
 62
    3
 10
273.16699999999991
 20
205.24513636363636
 11
273.19199999999995
 21
205.24213636363637
  0
LINE
  8
_0-3_A0
  6
CONTINUOUS
 62
    3
 10
273.19199999999995
 20
205.24213636363637
 11
273.21799999999996
 21
205.23813636363638
  0
LINE
  8
_0-3_A0
  6
CONTINUOUS
 62
    3
 10
273.21799999999996
 20
205.23813636363638
 11
273.24499999999994
 21
205.23513636363637
  0
LINE
  8
_0-3_A0
  6
CONTINUOUS
 62
    3
 10
273.24499999999994
 20
205.23513636363637
 11
273.27199999999993
 21
205.23313636363636
  0
LINE
  8
_0-3_A0
  6
CONTINUOUS
 62
    3
 10
273.27199999999993
 20
205.23313636363636
 11
273.29999999999995
 21
205.23013636363637
  0
LINE
  8
_0-3_A0
  6
CONTINUOUS
 62
    3
 10
273.29999999999995
 20
205.23013636363637
 11
273.32899999999995
 21
205.22813636363636
  0
LINE
  8
_0-3_A0
  6
CONTINUOUS
 62
    3
 10
273.32899999999995
 20
205.22813636363636
 11
273.35799999999994
 21
205.22613636363638
  0
LINE
  8
_0-3_A0
  6
CONTINUOUS
 62
    3
 10
273.35799999999994
 20
205.22613636363638
 11
273.38799999999991
 21
205.22413636363637
  0
LINE
  8
_0-3_A0
  6
CONTINUOUS
 62
    3
 10
273.38799999999991
 20
205.22413636363637
 11
273.41799999999994
 21
205.22313636363637
  0
LINE
  8
_0-3_A0
  6
CONTINUOUS
 62
    3
 10
273.41799999999994
 20
205.22313636363637
 11
273.44799999999992
 21
205.22213636363636
  0
LINE
  8
_0-3_A0
  6
CONTINUOUS
 62
    3
 10
273.44799999999992
 20
205.22213636363636
 11
273.47799999999995
 21
205.22113636363636
  0
LINE
  8
_0-3_A0
  6
CONTINUOUS
 62
    3
 10
273.47799999999995
 20
205.22113636363636
 11
273.50899999999995
 21
205.22113636363636
  0
LINE
  8
_0-3_A0
  6
CONTINUOUS
 62
    3
 10
273.50899999999995
 20
205.22113636363636
 11
273.53899999999993
 21
205.22113636363636
  0
LINE
  8
_0-3_A0
  6
CONTINUOUS
 62
    3
 10
273.53899999999993
 20
205.22113636363636
 11
273.56999999999993
 21
205.22113636363636
  0
LINE
  8
_0-3_A0
  6
CONTINUOUS
 62
    3
 10
273.56999999999993
 20
205.22113636363636
 11
273.60099999999994
 21
205.22113636363636
  0
LINE
  8
_0-3_A0
  6
CONTINUOUS
 62
    3
 10
273.60099999999994
 20
205.22113636363636
 11
273.63099999999991
 21
205.22213636363636
  0
LINE
  8
_0-3_A0
  6
CONTINUOUS
 62
    3
 10
273.63099999999991
 20
205.22213636363636
 11
273.66099999999994
 21
205.22313636363637
  0
LINE
  8
_0-3_A0
  6
CONTINUOUS
 62
    3
 10
273.66099999999994
 20
205.22313636363637
 11
273.69099999999991
 21
205.22413636363637
  0
LINE
  8
_0-3_A0
  6
CONTINUOUS
 62
    3
 10
273.69099999999991
 20
205.22413636363637
 11
273.72099999999994
 21
205.22613636363638
  0
LINE
  8
_0-3_A0
  6
CONTINUOUS
 62
    3
 10
273.72099999999994
 20
205.22613636363638
 11
273.74999999999994
 21
205.22813636363636
  0
LINE
  8
_0-3_A0
  6
CONTINUOUS
 62
    3
 10
273.74999999999994
 20
205.22813636363636
 11
273.77899999999993
 21
205.23013636363637
  0
LINE
  8
_0-3_A0
  6
CONTINUOUS
 62
    3
 10
273.77899999999993
 20
205.23013636363637
 11
273.80699999999995
 21
205.23313636363636
  0
LINE
  8
_0-3_A0
  6
CONTINUOUS
 62
    3
 10
273.80699999999995
 20
205.23313636363636
 11
273.83399999999994
 21
205.23513636363637
  0
LINE
  8
_0-3_A0
  6
CONTINUOUS
 62
    3
 10
273.83399999999994
 20
205.23513636363637
 11
273.86099999999993
 21
205.23813636363638
  0
LINE
  8
_0-3_A0
  6
CONTINUOUS
 62
    3
 10
273.86099999999993
 20
205.23813636363638
 11
273.88699999999994
 21
205.24213636363637
  0
LINE
  8
_0-3_A0
  6
CONTINUOUS
 62
    3
 10
273.88699999999994
 20
205.24213636363637
 11
273.91199999999992
 21
205.24513636363636
  0
LINE
  8
_0-3_A0
  6
CONTINUOUS
 62
    3
 10
273.91199999999992
 20
205.24513636363636
 11
273.93599999999992
 21
205.24913636363638
  0
LINE
  8
_0-3_A0
  6
CONTINUOUS
 62
    3
 10
273.93599999999992
 20
205.24913636363638
 11
273.95899999999994
 21
205.25313636363637
  0
LINE
  8
_0-3_A0
  6
CONTINUOUS
 62
    3
 10
273.95899999999994
 20
205.25313636363637
 11
273.98099999999993
 21
205.25713636363636
  0
LINE
  8
_0-3_A0
  6
CONTINUOUS
 62
    3
 10
273.98099999999993
 20
205.25713636363636
 11
274.00299999999992
 21
205.26213636363635
  0
LINE
  8
_0-3_A0
  6
CONTINUOUS
 62
    3
 10
274.00299999999992
 20
205.26213636363635
 11
274.02299999999996
 21
205.26613636363637
  0
LINE
  8
_0-3_A0
  6
CONTINUOUS
 62
    3
 10
274.02299999999996
 20
205.26613636363637
 11
274.04099999999993
 21
205.27113636363637
  0
LINE
  8
_0-3_A0
  6
CONTINUOUS
 62
    3
 10
274.04099999999993
 20
205.27113636363637
 11
274.05899999999996
 21
205.27613636363636
  0
LINE
  8
_0-3_A0
  6
CONTINUOUS
 62
    3
 10
274.05899999999996
 20
205.27613636363636
 11
274.07599999999996
 21
205.28113636363636
  0
LINE
  8
_0-3_A0
  6
CONTINUOUS
 62
    3
 10
274.07599999999996
 20
205.28113636363636
 11
274.09099999999995
 21
205.28713636363636
  0
LINE
  8
_0-3_A0
  6
CONTINUOUS
 62
    3
 10
274.09099999999995
 20
205.28713636363636
 11
274.10399999999992
 21
205.29213636363635
  0
LINE
  8
_0-3_A0
  6
CONTINUOUS
 62
    3
 10
274.10399999999992
 20
205.29213636363635
 11
274.11699999999996
 21
205.29813636363635
  0
LINE
  8
_0-3_A0
  6
CONTINUOUS
 62
    3
 10
274.11699999999996
 20
205.29813636363635
 11
274.12799999999992
 21
205.30413636363635
  0
LINE
  8
_0-3_A0
  6
CONTINUOUS
 62
    3
 10
274.12799999999992
 20
205.30413636363635
 11
274.13799999999991
 21
205.30913636363638
  0
LINE
  8
_0-3_A0
  6
CONTINUOUS
 62
    3
 10
274.13799999999991
 20
205.30913636363638
 11
274.14599999999995
 21
205.31513636363638
  0
LINE
  8
_0-3_A0
  6
CONTINUOUS
 62
    3
 10
274.14599999999995
 20
205.31513636363638
 11
274.15199999999992
 21
205.32113636363638
  0
LINE
  8
_0-3_A0
  6
CONTINUOUS
 62
    3
 10
274.15199999999992
 20
205.32113636363638
 11
274.15799999999995
 21
205.32713636363638
  0
LINE
  8
_0-3_A0
  6
CONTINUOUS
 62
    3
 10
274.15799999999995
 20
205.32713636363638
 11
274.16099999999994
 21
205.33313636363638
  0
LINE
  8
_0-3_A0
  6
CONTINUOUS
 62
    3
 10
274.16099999999994
 20
205.33313636363638
 11
274.16399999999993
 21
205.34013636363636
  0
LINE
  8
_0-3_A0
  6
CONTINUOUS
 62
    3
 10
274.16399999999993
 20
205.34013636363636
 11
274.16399999999993
 21
205.34613636363636
  0
LINE
  8
_0-3_A0
  6
CONTINUOUS
 62
    3
 10
202.66399999999993
 20
200.09113636363636
 11
202.66399999999993
 21
200.10313636363636
  0
LINE
  8
_0-3_A0
  6
CONTINUOUS
 62
    3
 10
202.66399999999993
 20
200.10313636363636
 11
202.66099999999994
 21
200.11513636363636
  0
LINE
  8
_0-3_A0
  6
CONTINUOUS
 62
    3
 10
202.66099999999994
 20
200.11513636363636
 11
202.65799999999993
 21
200.12713636363636
  0
LINE
  8
_0-3_A0
  6
CONTINUOUS
 62
    3
 10
202.65799999999993
 20
200.12713636363636
 11
202.65199999999992
 21
200.14013636363637
  0
LINE
  8
_0-3_A0
  6
CONTINUOUS
 62
    3
 10
202.65199999999992
 20
200.14013636363637
 11
202.64599999999992
 21
200.15213636363637
  0
LINE
  8
_0-3_A0
  6
CONTINUOUS
 62
    3
 10
202.64599999999992
 20
200.15213636363637
 11
202.63799999999994
 21
200.16313636363636
  0
LINE
  8
_0-3_A0
  6
CONTINUOUS
 62
    3
 10
202.63799999999994
 20
200.16313636363636
 11
202.62799999999992
 21
200.17513636363636
  0
LINE
  8
_0-3_A0
  6
CONTINUOUS
 62
    3
 10
202.62799999999992
 20
200.17513636363636
 11
202.61699999999993
 21
200.18613636363636
  0
LINE
  8
_0-3_A0
  6
CONTINUOUS
 62
    3
 10
202.61699999999993
 20
200.18613636363636
 11
202.60399999999995
 21
200.19813636363636
  0
LINE
  8
_0-3_A0
  6
CONTINUOUS
 62
    3
 10
202.60399999999995
 20
200.19813636363636
 11
202.59099999999995
 21
200.20913636363636
  0
LINE
  8
_0-3_A0
  6
CONTINUOUS
 62
    3
 10
202.59099999999995
 20
200.20913636363636
 11
202.57599999999993
 21
200.21913636363638
  0
LINE
  8
_0-3_A0
  6
CONTINUOUS
 62
    3
 10
202.57599999999993
 20
200.21913636363638
 11
202.55899999999994
 21
200.23013636363637
  0
LINE
  8
_0-3_A0
  6
CONTINUOUS
 62
    3
 10
202.55899999999994
 20
200.23013636363637
 11
202.54099999999993
 21
200.24013636363636
  0
LINE
  8
_0-3_A0
  6
CONTINUOUS
 62
    3
 10
202.54099999999993
 20
200.24013636363636
 11
202.52299999999993
 21
200.24913636363638
  0
LINE
  8
_0-3_A0
  6
CONTINUOUS
 62
    3
 10
202.52299999999993
 20
200.24913636363638
 11
202.50299999999992
 21
200.25913636363637
  0
LINE
  8
_0-3_A0
  6
CONTINUOUS
 62
    3
 10
202.50299999999992
 20
200.25913636363637
 11
202.48099999999993
 21
200.26813636363635
  0
LINE
  8
_0-3_A0
  6
CONTINUOUS
 62
    3
 10
202.48099999999993
 20
200.26813636363635
 11
202.45899999999994
 21
200.27613636363636
  0
LINE
  8
_0-3_A0
  6
CONTINUOUS
 62
    3
 10
202.45899999999994
 20
200.27613636363636
 11
202.43599999999995
 21
200.28413636363637
  0
LINE
  8
_0-3_A0
  6
CONTINUOUS
 62
    3
 10
202.43599999999995
 20
200.28413636363637
 11
202.41199999999994
 21
200.29213636363635
  0
LINE
  8
_0-3_A0
  6
CONTINUOUS
 62
    3
 10
202.41199999999994
 20
200.29213636363635
 11
202.38699999999994
 21
200.29913636363636
  0
LINE
  8
_0-3_A0
  6
CONTINUOUS
 62
    3
 10
202.38699999999994
 20
200.29913636363636
 11
202.36099999999993
 21
200.30513636363636
  0
LINE
  8
_0-3_A0
  6
CONTINUOUS
 62
    3
 10
202.36099999999993
 20
200.30513636363636
 11
202.33399999999994
 21
200.31113636363636
  0
LINE
  8
_0-3_A0
  6
CONTINUOUS
 62
    3
 10
202.33399999999994
 20
200.31113636363636
 11
202.30699999999993
 21
200.31713636363636
  0
LINE
  8
_0-3_A0
  6
CONTINUOUS
 62
    3
 10
202.30699999999993
 20
200.31713636363636
 11
202.27899999999993
 21
200.32213636363636
  0
LINE
  8
_0-3_A0
  6
CONTINUOUS
 62
    3
 10
202.27899999999993
 20
200.32213636363636
 11
202.24999999999994
 21
200.32613636363637
  0
LINE
  8
_0-3_A0
  6
CONTINUOUS
 62
    3
 10
202.24999999999994
 20
200.32613636363637
 11
202.22099999999994
 21
200.33013636363637
  0
LINE
  8
_0-3_A0
  6
CONTINUOUS
 62
    3
 10
202.22099999999994
 20
200.33013636363637
 11
202.19099999999994
 21
200.33313636363638
  0
LINE
  8
_0-3_A0
  6
CONTINUOUS
 62
    3
 10
202.19099999999994
 20
200.33313636363638
 11
202.16099999999994
 21
200.33613636363637
  0
LINE
  8
_0-3_A0
  6
CONTINUOUS
 62
    3
 10
202.16099999999994
 20
200.33613636363637
 11
202.13099999999994
 21
200.33813636363638
  0
LINE
  8
_0-3_A0
  6
CONTINUOUS
 62
    3
 10
202.13099999999994
 20
200.33813636363638
 11
202.10099999999994
 21
200.34013636363636
  0
LINE
  8
_0-3_A0
  6
CONTINUOUS
 62
    3
 10
202.10099999999994
 20
200.34013636363636
 11
202.06999999999993
 21
200.34113636363636
  0
LINE
  8
_0-3_A0
  6
CONTINUOUS
 62
    3
 10
202.06999999999993
 20
200.34113636363636
 11
202.03899999999993
 21
200.34113636363636
  0
LINE
  8
_0-3_A0
  6
CONTINUOUS
 62
    3
 10
202.03899999999993
 20
200.34113636363636
 11
202.00899999999992
 21
200.34113636363636
  0
LINE
  8
_0-3_A0
  6
CONTINUOUS
 62
    3
 10
202.00899999999992
 20
200.34113636363636
 11
201.97799999999995
 21
200.34013636363636
  0
LINE
  8
_0-3_A0
  6
CONTINUOUS
 62
    3
 10
201.97799999999995
 20
200.34013636363636
 11
201.94799999999995
 21
200.33813636363638
  0
LINE
  8
_0-3_A0
  6
CONTINUOUS
 62
    3
 10
201.94799999999995
 20
200.33813636363638
 11
201.91799999999994
 21
200.33613636363637
  0
LINE
  8
_0-3_A0
  6
CONTINUOUS
 62
    3
 10
201.91799999999994
 20
200.33613636363637
 11
201.88799999999994
 21
200.33313636363638
  0
LINE
  8
_0-3_A0
  6
CONTINUOUS
 62
    3
 10
201.88799999999994
 20
200.33313636363638
 11
201.85799999999994
 21
200.33013636363637
  0
LINE
  8
_0-3_A0
  6
CONTINUOUS
 62
    3
 10
201.85799999999994
 20
200.33013636363637
 11
201.82899999999995
 21
200.32613636363637
  0
LINE
  8
_0-3_A0
  6
CONTINUOUS
 62
    3
 10
201.82899999999995
 20
200.32613636363637
 11
201.79999999999995
 21
200.32213636363636
  0
LINE
  8
_0-3_A0
  6
CONTINUOUS
 62
    3
 10
201.79999999999995
 20
200.32213636363636
 11
201.77199999999993
 21
200.31713636363636
  0
LINE
  8
_0-3_A0
  6
CONTINUOUS
 62
    3
 10
201.77199999999993
 20
200.31713636363636
 11
201.74499999999994
 21
200.31113636363636
  0
LINE
  8
_0-3_A0
  6
CONTINUOUS
 62
    3
 10
201.74499999999994
 20
200.31113636363636
 11
201.71799999999993
 21
200.30513636363636
  0
LINE
  8
_0-3_A0
  6
CONTINUOUS
 62
    3
 10
201.71799999999993
 20
200.30513636363636
 11
201.69199999999995
 21
200.29913636363636
  0
LINE
  8
_0-3_A0
  6
CONTINUOUS
 62
    3
 10
201.69199999999995
 20
200.29913636363636
 11
201.66699999999994
 21
200.29213636363635
  0
LINE
  8
_0-3_A0
  6
CONTINUOUS
 62
    3
 10
201.66699999999994
 20
200.29213636363635
 11
201.64299999999994
 21
200.28413636363637
  0
LINE
  8
_0-3_A0
  6
CONTINUOUS
 62
    3
 10
201.64299999999994
 20
200.28413636363637
 11
201.61999999999994
 21
200.27613636363636
  0
LINE
  8
_0-3_A0
  6
CONTINUOUS
 62
    3
 10
201.61999999999994
 20
200.27613636363636
 11
201.59799999999995
 21
200.26813636363635
  0
LINE
  8
_0-3_A0
  6
CONTINUOUS
 62
    3
 10
201.59799999999995
 20
200.26813636363635
 11
201.57599999999993
 21
200.25913636363637
  0
LINE
  8
_0-3_A0
  6
CONTINUOUS
 62
    3
 10
201.57599999999993
 20
200.25913636363637
 11
201.55599999999995
 21
200.24913636363638
  0
LINE
  8
_0-3_A0
  6
CONTINUOUS
 62
    3
 10
201.55599999999995
 20
200.24913636363638
 11
201.53699999999994
 21
200.24013636363636
  0
LINE
  8
_0-3_A0
  6
CONTINUOUS
 62
    3
 10
201.53699999999994
 20
200.24013636363636
 11
201.51999999999995
 21
200.23013636363637
  0
LINE
  8
_0-3_A0
  6
CONTINUOUS
 62
    3
 10
201.51999999999995
 20
200.23013636363637
 11
201.50299999999992
 21
200.21913636363638
  0
LINE
  8
_0-3_A0
  6
CONTINUOUS
 62
    3
 10
201.50299999999992
 20
200.21913636363638
 11
201.48799999999994
 21
200.20913636363636
  0
LINE
  8
_0-3_A0
  6
CONTINUOUS
 62
    3
 10
201.48799999999994
 20
200.20913636363636
 11
201.47399999999993
 21
200.19813636363636
  0
LINE
  8
_0-3_A0
  6
CONTINUOUS
 62
    3
 10
201.47399999999993
 20
200.19813636363636
 11
201.46199999999993
 21
200.18613636363636
  0
LINE
  8
_0-3_A0
  6
CONTINUOUS
 62
    3
 10
201.46199999999993
 20
200.18613636363636
 11
201.45099999999993
 21
200.17513636363636
  0
LINE
  8
_0-3_A0
  6
CONTINUOUS
 62
    3
 10
201.45099999999993
 20
200.17513636363636
 11
201.44099999999994
 21
200.16313636363636
  0
LINE
  8
_0-3_A0
  6
CONTINUOUS
 62
    3
 10
201.44099999999994
 20
200.16313636363636
 11
201.43299999999993
 21
200.15213636363637
  0
LINE
  8
_0-3_A0
  6
CONTINUOUS
 62
    3
 10
201.43299999999993
 20
200.15213636363637
 11
201.42599999999993
 21
200.14013636363637
  0
LINE
  8
_0-3_A0
  6
CONTINUOUS
 62
    3
 10
201.42599999999993
 20
200.14013636363637
 11
201.42099999999993
 21
200.12713636363636
  0
LINE
  8
_0-3_A0
  6
CONTINUOUS
 62
    3
 10
201.42099999999993
 20
200.12713636363636
 11
201.41699999999994
 21
200.11513636363636
  0
LINE
  8
_0-3_A0
  6
CONTINUOUS
 62
    3
 10
201.41699999999994
 20
200.11513636363636
 11
201.41499999999993
 21
200.10313636363636
  0
LINE
  8
_0-3_A0
  6
CONTINUOUS
 62
    3
 10
201.41499999999993
 20
200.10313636363636
 11
201.41399999999993
 21
200.09113636363636
  0
LINE
  8
_0-3_A0
  6
CONTINUOUS
 62
    3
 10
201.41399999999993
 20
200.09113636363636
 11
201.41499999999993
 21
200.07913636363636
  0
LINE
  8
_0-3_A0
  6
CONTINUOUS
 62
    3
 10
201.41499999999993
 20
200.07913636363636
 11
201.41699999999994
 21
200.06613636363636
  0
LINE
  8
_0-3_A0
  6
CONTINUOUS
 62
    3
 10
201.41699999999994
 20
200.06613636363636
 11
201.42099999999993
 21
200.05413636363635
  0
LINE
  8
_0-3_A0
  6
CONTINUOUS
 62
    3
 10
201.42099999999993
 20
200.05413636363635
 11
201.42599999999993
 21
200.04213636363635
  0
LINE
  8
_0-3_A0
  6
CONTINUOUS
 62
    3
 10
201.42599999999993
 20
200.04213636363635
 11
201.43299999999993
 21
200.03013636363635
  0
LINE
  8
_0-3_A0
  6
CONTINUOUS
 62
    3
 10
201.43299999999993
 20
200.03013636363635
 11
201.44099999999994
 21
200.01813636363635
  0
LINE
  8
_0-3_A0
  6
CONTINUOUS
 62
    3
 10
201.44099999999994
 20
200.01813636363635
 11
201.45099999999993
 21
200.00713636363636
  0
LINE
  8
_0-3_A0
  6
CONTINUOUS
 62
    3
 10
201.45099999999993
 20
200.00713636363636
 11
201.46199999999993
 21
199.99513636363636
  0
LINE
  8
_0-3_A0
  6
CONTINUOUS
 62
    3
 10
201.46199999999993
 20
199.99513636363636
 11
201.47399999999993
 21
199.98413636363636
  0
LINE
  8
_0-3_A0
  6
CONTINUOUS
 62
    3
 10
201.47399999999993
 20
199.98413636363636
 11
201.48799999999994
 21
199.97313636363637
  0
LINE
  8
_0-3_A0
  6
CONTINUOUS
 62
    3
 10
201.48799999999994
 20
199.97313636363637
 11
201.50299999999992
 21
199.96213636363637
  0
LINE
  8
_0-3_A0
  6
CONTINUOUS
 62
    3
 10
201.50299999999992
 20
199.96213636363637
 11
201.51999999999995
 21
199.95213636363638
  0
LINE
  8
_0-3_A0
  6
CONTINUOUS
 62
    3
 10
201.51999999999995
 20
199.95213636363638
 11
201.53699999999994
 21
199.94213636363636
  0
LINE
  8
_0-3_A0
  6
CONTINUOUS
 62
    3
 10
201.53699999999994
 20
199.94213636363636
 11
201.55599999999995
 21
199.93213636363637
  0
LINE
  8
_0-3_A0
  6
CONTINUOUS
 62
    3
 10
201.55599999999995
 20
199.93213636363637
 11
201.57599999999993
 21
199.92313636363635
  0
LINE
  8
_0-3_A0
  6
CONTINUOUS
 62
    3
 10
201.57599999999993
 20
199.92313636363635
 11
201.59799999999995
 21
199.91413636363637
  0
LINE
  8
_0-3_A0
  6
CONTINUOUS
 62
    3
 10
201.59799999999995
 20
199.91413636363637
 11
201.61999999999994
 21
199.90613636363636
  0
LINE
  8
_0-3_A0
  6
CONTINUOUS
 62
    3
 10
201.61999999999994
 20
199.90613636363636
 11
201.64299999999994
 21
199.89813636363638
  0
LINE
  8
_0-3_A0
  6
CONTINUOUS
 62
    3
 10
201.64299999999994
 20
199.89813636363638
 11
201.66699999999994
 21
199.89013636363637
  0
LINE
  8
_0-3_A0
  6
CONTINUOUS
 62
    3
 10
201.66699999999994
 20
199.89013636363637
 11
201.69199999999995
 21
199.88313636363636
  0
LINE
  8
_0-3_A0
  6
CONTINUOUS
 62
    3
 10
201.69199999999995
 20
199.88313636363636
 11
201.71799999999993
 21
199.87613636363636
  0
LINE
  8
_0-3_A0
  6
CONTINUOUS
 62
    3
 10
201.71799999999993
 20
199.87613636363636
 11
201.74499999999994
 21
199.87013636363636
  0
LINE
  8
_0-3_A0
  6
CONTINUOUS
 62
    3
 10
201.74499999999994
 20
199.87013636363636
 11
201.77199999999993
 21
199.86513636363636
  0
LINE
  8
_0-3_A0
  6
CONTINUOUS
 62
    3
 10
201.77199999999993
 20
199.86513636363636
 11
201.79999999999995
 21
199.86013636363637
  0
LINE
  8
_0-3_A0
  6
CONTINUOUS
 62
    3
 10
201.79999999999995
 20
199.86013636363637
 11
201.82899999999995
 21
199.85513636363637
  0
LINE
  8
_0-3_A0
  6
CONTINUOUS
 62
    3
 10
201.82899999999995
 20
199.85513636363637
 11
201.85799999999994
 21
199.85213636363636
  0
LINE
  8
_0-3_A0
  6
CONTINUOUS
 62
    3
 10
201.85799999999994
 20
199.85213636363636
 11
201.88799999999994
 21
199.84813636363637
  0
LINE
  8
_0-3_A0
  6
CONTINUOUS
 62
    3
 10
201.88799999999994
 20
199.84813636363637
 11
201.91799999999994
 21
199.84613636363636
  0
LINE
  8
_0-3_A0
  6
CONTINUOUS
 62
    3
 10
201.91799999999994
 20
199.84613636363636
 11
201.94799999999995
 21
199.84413636363638
  0
LINE
  8
_0-3_A0
  6
CONTINUOUS
 62
    3
 10
201.94799999999995
 20
199.84413636363638
 11
201.97799999999995
 21
199.84213636363637
  0
LINE
  8
_0-3_A0
  6
CONTINUOUS
 62
    3
 10
201.97799999999995
 20
199.84213636363637
 11
202.00899999999992
 21
199.84113636363636
  0
LINE
  8
_0-3_A0
  6
CONTINUOUS
 62
    3
 10
202.00899999999992
 20
199.84113636363636
 11
202.03899999999993
 21
199.84113636363636
  0
LINE
  8
_0-3_A0
  6
CONTINUOUS
 62
    3
 10
202.03899999999993
 20
199.84113636363636
 11
202.06999999999993
 21
199.84113636363636
  0
LINE
  8
_0-3_A0
  6
CONTINUOUS
 62
    3
 10
202.06999999999993
 20
199.84113636363636
 11
202.10099999999994
 21
199.84213636363637
  0
LINE
  8
_0-3_A0
  6
CONTINUOUS
 62
    3
 10
202.10099999999994
 20
199.84213636363637
 11
202.13099999999994
 21
199.84413636363638
  0
LINE
  8
_0-3_A0
  6
CONTINUOUS
 62
    3
 10
202.13099999999994
 20
199.84413636363638
 11
202.16099999999994
 21
199.84613636363636
  0
LINE
  8
_0-3_A0
  6
CONTINUOUS
 62
    3
 10
202.16099999999994
 20
199.84613636363636
 11
202.19099999999994
 21
199.84813636363637
  0
LINE
  8
_0-3_A0
  6
CONTINUOUS
 62
    3
 10
202.19099999999994
 20
199.84813636363637
 11
202.22099999999994
 21
199.85213636363636
  0
LINE
  8
_0-3_A0
  6
CONTINUOUS
 62
    3
 10
202.22099999999994
 20
199.85213636363636
 11
202.24999999999994
 21
199.85513636363637
  0
LINE
  8
_0-3_A0
  6
CONTINUOUS
 62
    3
 10
202.24999999999994
 20
199.85513636363637
 11
202.27899999999993
 21
199.86013636363637
  0
LINE
  8
_0-3_A0
  6
CONTINUOUS
 62
    3
 10
202.27899999999993
 20
199.86013636363637
 11
202.30699999999993
 21
199.86513636363636
  0
LINE
  8
_0-3_A0
  6
CONTINUOUS
 62
    3
 10
202.30699999999993
 20
199.86513636363636
 11
202.33399999999994
 21
199.87013636363636
  0
LINE
  8
_0-3_A0
  6
CONTINUOUS
 62
    3
 10
202.33399999999994
 20
199.87013636363636
 11
202.36099999999993
 21
199.87613636363636
  0
LINE
  8
_0-3_A0
  6
CONTINUOUS
 62
    3
 10
202.36099999999993
 20
199.87613636363636
 11
202.38699999999994
 21
199.88313636363636
  0
LINE
  8
_0-3_A0
  6
CONTINUOUS
 62
    3
 10
202.38699999999994
 20
199.88313636363636
 11
202.41199999999994
 21
199.89013636363637
  0
LINE
  8
_0-3_A0
  6
CONTINUOUS
 62
    3
 10
202.41199999999994
 20
199.89013636363637
 11
202.43599999999995
 21
199.89813636363638
  0
LINE
  8
_0-3_A0
  6
CONTINUOUS
 62
    3
 10
202.43599999999995
 20
199.89813636363638
 11
202.45899999999994
 21
199.90613636363636
  0
LINE
  8
_0-3_A0
  6
CONTINUOUS
 62
    3
 10
202.45899999999994
 20
199.90613636363636
 11
202.48099999999993
 21
199.91413636363637
  0
LINE
  8
_0-3_A0
  6
CONTINUOUS
 62
    3
 10
202.48099999999993
 20
199.91413636363637
 11
202.50299999999992
 21
199.92313636363635
  0
LINE
  8
_0-3_A0
  6
CONTINUOUS
 62
    3
 10
202.50299999999992
 20
199.92313636363635
 11
202.52299999999993
 21
199.93213636363637
  0
LINE
  8
_0-3_A0
  6
CONTINUOUS
 62
    3
 10
202.52299999999993
 20
199.93213636363637
 11
202.54099999999993
 21
199.94213636363636
  0
LINE
  8
_0-3_A0
  6
CONTINUOUS
 62
    3
 10
202.54099999999993
 20
199.94213636363636
 11
202.55899999999994
 21
199.95213636363638
  0
LINE
  8
_0-3_A0
  6
CONTINUOUS
 62
    3
 10
202.55899999999994
 20
199.95213636363638
 11
202.57599999999993
 21
199.96213636363637
  0
LINE
  8
_0-3_A0
  6
CONTINUOUS
 62
    3
 10
202.57599999999993
 20
199.96213636363637
 11
202.59099999999995
 21
199.97313636363637
  0
LINE
  8
_0-3_A0
  6
CONTINUOUS
 62
    3
 10
202.59099999999995
 20
199.97313636363637
 11
202.60399999999995
 21
199.98413636363636
  0
LINE
  8
_0-3_A0
  6
CONTINUOUS
 62
    3
 10
202.60399999999995
 20
199.98413636363636
 11
202.61699999999993
 21
199.99513636363636
  0
LINE
  8
_0-3_A0
  6
CONTINUOUS
 62
    3
 10
202.61699999999993
 20
199.99513636363636
 11
202.62799999999992
 21
200.00713636363636
  0
LINE
  8
_0-3_A0
  6
CONTINUOUS
 62
    3
 10
202.62799999999992
 20
200.00713636363636
 11
202.63799999999994
 21
200.01813636363635
  0
LINE
  8
_0-3_A0
  6
CONTINUOUS
 62
    3
 10
202.63799999999994
 20
200.01813636363635
 11
202.64599999999992
 21
200.03013636363635
  0
LINE
  8
_0-3_A0
  6
CONTINUOUS
 62
    3
 10
202.64599999999992
 20
200.03013636363635
 11
202.65199999999992
 21
200.04213636363635
  0
LINE
  8
_0-3_A0
  6
CONTINUOUS
 62
    3
 10
202.65199999999992
 20
200.04213636363635
 11
202.65799999999993
 21
200.05413636363635
  0
LINE
  8
_0-3_A0
  6
CONTINUOUS
 62
    3
 10
202.65799999999993
 20
200.05413636363635
 11
202.66099999999994
 21
200.06613636363636
  0
LINE
  8
_0-3_A0
  6
CONTINUOUS
 62
    3
 10
202.66099999999994
 20
200.06613636363636
 11
202.66399999999993
 21
200.07913636363636
  0
LINE
  8
_0-3_A0
  6
CONTINUOUS
 62
    3
 10
202.66399999999993
 20
200.07913636363636
 11
202.66399999999993
 21
200.09113636363636
  0
LINE
  8
_0-3_A0
  6
CONTINUOUS
 62
    3
 10
274.16399999999993
 20
200.09113636363636
 11
274.16399999999993
 21
200.10313636363636
  0
LINE
  8
_0-3_A0
  6
CONTINUOUS
 62
    3
 10
274.16399999999993
 20
200.10313636363636
 11
274.16099999999994
 21
200.11513636363636
  0
LINE
  8
_0-3_A0
  6
CONTINUOUS
 62
    3
 10
274.16099999999994
 20
200.11513636363636
 11
274.15799999999995
 21
200.12713636363636
  0
LINE
  8
_0-3_A0
  6
CONTINUOUS
 62
    3
 10
274.15799999999995
 20
200.12713636363636
 11
274.15199999999992
 21
200.14013636363637
  0
LINE
  8
_0-3_A0
  6
CONTINUOUS
 62
    3
 10
274.15199999999992
 20
200.14013636363637
 11
274.14599999999995
 21
200.15213636363637
  0
LINE
  8
_0-3_A0
  6
CONTINUOUS
 62
    3
 10
274.14599999999995
 20
200.15213636363637
 11
274.13799999999991
 21
200.16313636363636
  0
LINE
  8
_0-3_A0
  6
CONTINUOUS
 62
    3
 10
274.13799999999991
 20
200.16313636363636
 11
274.12799999999992
 21
200.17513636363636
  0
LINE
  8
_0-3_A0
  6
CONTINUOUS
 62
    3
 10
274.12799999999992
 20
200.17513636363636
 11
274.11699999999996
 21
200.18613636363636
  0
LINE
  8
_0-3_A0
  6
CONTINUOUS
 62
    3
 10
274.11699999999996
 20
200.18613636363636
 11
274.10399999999992
 21
200.19813636363636
  0
LINE
  8
_0-3_A0
  6
CONTINUOUS
 62
    3
 10
274.10399999999992
 20
200.19813636363636
 11
274.09099999999995
 21
200.20913636363636
  0
LINE
  8
_0-3_A0
  6
CONTINUOUS
 62
    3
 10
274.09099999999995
 20
200.20913636363636
 11
274.07599999999996
 21
200.21913636363638
  0
LINE
  8
_0-3_A0
  6
CONTINUOUS
 62
    3
 10
274.07599999999996
 20
200.21913636363638
 11
274.05899999999996
 21
200.23013636363637
  0
LINE
  8
_0-3_A0
  6
CONTINUOUS
 62
    3
 10
274.05899999999996
 20
200.23013636363637
 11
274.04099999999993
 21
200.24013636363636
  0
LINE
  8
_0-3_A0
  6
CONTINUOUS
 62
    3
 10
274.04099999999993
 20
200.24013636363636
 11
274.02299999999996
 21
200.24913636363638
  0
LINE
  8
_0-3_A0
  6
CONTINUOUS
 62
    3
 10
274.02299999999996
 20
200.24913636363638
 11
274.00299999999992
 21
200.25913636363637
  0
LINE
  8
_0-3_A0
  6
CONTINUOUS
 62
    3
 10
274.00299999999992
 20
200.25913636363637
 11
273.98099999999993
 21
200.26813636363635
  0
LINE
  8
_0-3_A0
  6
CONTINUOUS
 62
    3
 10
273.98099999999993
 20
200.26813636363635
 11
273.95899999999994
 21
200.27613636363636
  0
LINE
  8
_0-3_A0
  6
CONTINUOUS
 62
    3
 10
273.95899999999994
 20
200.27613636363636
 11
273.93599999999992
 21
200.28413636363637
  0
LINE
  8
_0-3_A0
  6
CONTINUOUS
 62
    3
 10
273.93599999999992
 20
200.28413636363637
 11
273.91199999999992
 21
200.29213636363635
  0
LINE
  8
_0-3_A0
  6
CONTINUOUS
 62
    3
 10
273.91199999999992
 20
200.29213636363635
 11
273.88699999999994
 21
200.29913636363636
  0
LINE
  8
_0-3_A0
  6
CONTINUOUS
 62
    3
 10
273.88699999999994
 20
200.29913636363636
 11
273.86099999999993
 21
200.30513636363636
  0
LINE
  8
_0-3_A0
  6
CONTINUOUS
 62
    3
 10
273.86099999999993
 20
200.30513636363636
 11
273.83399999999994
 21
200.31113636363636
  0
LINE
  8
_0-3_A0
  6
CONTINUOUS
 62
    3
 10
273.83399999999994
 20
200.31113636363636
 11
273.80699999999995
 21
200.31713636363636
  0
LINE
  8
_0-3_A0
  6
CONTINUOUS
 62
    3
 10
273.80699999999995
 20
200.31713636363636
 11
273.77899999999993
 21
200.32213636363636
  0
LINE
  8
_0-3_A0
  6
CONTINUOUS
 62
    3
 10
273.77899999999993
 20
200.32213636363636
 11
273.74999999999994
 21
200.32613636363637
  0
LINE
  8
_0-3_A0
  6
CONTINUOUS
 62
    3
 10
273.74999999999994
 20
200.32613636363637
 11
273.72099999999994
 21
200.33013636363637
  0
LINE
  8
_0-3_A0
  6
CONTINUOUS
 62
    3
 10
273.72099999999994
 20
200.33013636363637
 11
273.69099999999991
 21
200.33313636363638
  0
LINE
  8
_0-3_A0
  6
CONTINUOUS
 62
    3
 10
273.69099999999991
 20
200.33313636363638
 11
273.66099999999994
 21
200.33613636363637
  0
LINE
  8
_0-3_A0
  6
CONTINUOUS
 62
    3
 10
273.66099999999994
 20
200.33613636363637
 11
273.63099999999991
 21
200.33813636363638
  0
LINE
  8
_0-3_A0
  6
CONTINUOUS
 62
    3
 10
273.63099999999991
 20
200.33813636363638
 11
273.60099999999994
 21
200.34013636363636
  0
LINE
  8
_0-3_A0
  6
CONTINUOUS
 62
    3
 10
273.60099999999994
 20
200.34013636363636
 11
273.56999999999993
 21
200.34113636363636
  0
LINE
  8
_0-3_A0
  6
CONTINUOUS
 62
    3
 10
273.56999999999993
 20
200.34113636363636
 11
273.53899999999993
 21
200.34113636363636
  0
LINE
  8
_0-3_A0
  6
CONTINUOUS
 62
    3
 10
273.53899999999993
 20
200.34113636363636
 11
273.50899999999995
 21
200.34113636363636
  0
LINE
  8
_0-3_A0
  6
CONTINUOUS
 62
    3
 10
273.50899999999995
 20
200.34113636363636
 11
273.47799999999995
 21
200.34013636363636
  0
LINE
  8
_0-3_A0
  6
CONTINUOUS
 62
    3
 10
273.47799999999995
 20
200.34013636363636
 11
273.44799999999992
 21
200.33813636363638
  0
LINE
  8
_0-3_A0
  6
CONTINUOUS
 62
    3
 10
273.44799999999992
 20
200.33813636363638
 11
273.41799999999994
 21
200.33613636363637
  0
LINE
  8
_0-3_A0
  6
CONTINUOUS
 62
    3
 10
273.41799999999994
 20
200.33613636363637
 11
273.38799999999991
 21
200.33313636363638
  0
LINE
  8
_0-3_A0
  6
CONTINUOUS
 62
    3
 10
273.38799999999991
 20
200.33313636363638
 11
273.35799999999994
 21
200.33013636363637
  0
LINE
  8
_0-3_A0
  6
CONTINUOUS
 62
    3
 10
273.35799999999994
 20
200.33013636363637
 11
273.32899999999995
 21
200.32613636363637
  0
LINE
  8
_0-3_A0
  6
CONTINUOUS
 62
    3
 10
273.32899999999995
 20
200.32613636363637
 11
273.29999999999995
 21
200.32213636363636
  0
LINE
  8
_0-3_A0
  6
CONTINUOUS
 62
    3
 10
273.29999999999995
 20
200.32213636363636
 11
273.27199999999993
 21
200.31713636363636
  0
LINE
  8
_0-3_A0
  6
CONTINUOUS
 62
    3
 10
273.27199999999993
 20
200.31713636363636
 11
273.24499999999994
 21
200.31113636363636
  0
LINE
  8
_0-3_A0
  6
CONTINUOUS
 62
    3
 10
273.24499999999994
 20
200.31113636363636
 11
273.21799999999996
 21
200.30513636363636
  0
LINE
  8
_0-3_A0
  6
CONTINUOUS
 62
    3
 10
273.21799999999996
 20
200.30513636363636
 11
273.19199999999995
 21
200.29913636363636
  0
LINE
  8
_0-3_A0
  6
CONTINUOUS
 62
    3
 10
273.19199999999995
 20
200.29913636363636
 11
273.16699999999991
 21
200.29213636363635
  0
LINE
  8
_0-3_A0
  6
CONTINUOUS
 62
    3
 10
273.16699999999991
 20
200.29213636363635
 11
273.14299999999991
 21
200.28413636363637
  0
LINE
  8
_0-3_A0
  6
CONTINUOUS
 62
    3
 10
273.14299999999991
 20
200.28413636363637
 11
273.11999999999994
 21
200.27613636363636
  0
LINE
  8
_0-3_A0
  6
CONTINUOUS
 62
    3
 10
273.11999999999994
 20
200.27613636363636
 11
273.09799999999995
 21
200.26813636363635
  0
LINE
  8
_0-3_A0
  6
CONTINUOUS
 62
    3
 10
273.09799999999995
 20
200.26813636363635
 11
273.07599999999996
 21
200.25913636363637
  0
LINE
  8
_0-3_A0
  6
CONTINUOUS
 62
    3
 10
273.07599999999996
 20
200.25913636363637
 11
273.05599999999992
 21
200.24913636363638
  0
LINE
  8
_0-3_A0
  6
CONTINUOUS
 62
    3
 10
273.05599999999992
 20
200.24913636363638
 11
273.03699999999992
 21
200.24013636363636
  0
LINE
  8
_0-3_A0
  6
CONTINUOUS
 62
    3
 10
273.03699999999992
 20
200.24013636363636
 11
273.01999999999992
 21
200.23013636363637
  0
LINE
  8
_0-3_A0
  6
CONTINUOUS
 62
    3
 10
273.01999999999992
 20
200.23013636363637
 11
273.00299999999992
 21
200.21913636363638
  0
LINE
  8
_0-3_A0
  6
CONTINUOUS
 62
    3
 10
273.00299999999992
 20
200.21913636363638
 11
272.98799999999994
 21
200.20913636363636
  0
LINE
  8
_0-3_A0
  6
CONTINUOUS
 62
    3
 10
272.98799999999994
 20
200.20913636363636
 11
272.97399999999993
 21
200.19813636363636
  0
LINE
  8
_0-3_A0
  6
CONTINUOUS
 62
    3
 10
272.97399999999993
 20
200.19813636363636
 11
272.96199999999993
 21
200.18613636363636
  0
LINE
  8
_0-3_A0
  6
CONTINUOUS
 62
    3
 10
272.96199999999993
 20
200.18613636363636
 11
272.95099999999996
 21
200.17513636363636
  0
LINE
  8
_0-3_A0
  6
CONTINUOUS
 62
    3
 10
272.95099999999996
 20
200.17513636363636
 11
272.94099999999991
 21
200.16313636363636
  0
LINE
  8
_0-3_A0
  6
CONTINUOUS
 62
    3
 10
272.94099999999991
 20
200.16313636363636
 11
272.93299999999993
 21
200.15213636363637
  0
LINE
  8
_0-3_A0
  6
CONTINUOUS
 62
    3
 10
272.93299999999993
 20
200.15213636363637
 11
272.92599999999993
 21
200.14013636363637
  0
LINE
  8
_0-3_A0
  6
CONTINUOUS
 62
    3
 10
272.92599999999993
 20
200.14013636363637
 11
272.92099999999993
 21
200.12713636363636
  0
LINE
  8
_0-3_A0
  6
CONTINUOUS
 62
    3
 10
272.92099999999993
 20
200.12713636363636
 11
272.91699999999991
 21
200.11513636363636
  0
LINE
  8
_0-3_A0
  6
CONTINUOUS
 62
    3
 10
272.91699999999991
 20
200.11513636363636
 11
272.91499999999996
 21
200.10313636363636
  0
LINE
  8
_0-3_A0
  6
CONTINUOUS
 62
    3
 10
272.91499999999996
 20
200.10313636363636
 11
272.91399999999993
 21
200.09113636363636
  0
LINE
  8
_0-3_A0
  6
CONTINUOUS
 62
    3
 10
272.91399999999993
 20
200.09113636363636
 11
272.91499999999996
 21
200.07913636363636
  0
LINE
  8
_0-3_A0
  6
CONTINUOUS
 62
    3
 10
272.91499999999996
 20
200.07913636363636
 11
272.91699999999991
 21
200.06613636363636
  0
LINE
  8
_0-3_A0
  6
CONTINUOUS
 62
    3
 10
272.91699999999991
 20
200.06613636363636
 11
272.92099999999993
 21
200.05413636363635
  0
LINE
  8
_0-3_A0
  6
CONTINUOUS
 62
    3
 10
272.92099999999993
 20
200.05413636363635
 11
272.92599999999993
 21
200.04213636363635
  0
LINE
  8
_0-3_A0
  6
CONTINUOUS
 62
    3
 10
272.92599999999993
 20
200.04213636363635
 11
272.93299999999993
 21
200.03013636363635
  0
LINE
  8
_0-3_A0
  6
CONTINUOUS
 62
    3
 10
272.93299999999993
 20
200.03013636363635
 11
272.94099999999991
 21
200.01813636363635
  0
LINE
  8
_0-3_A0
  6
CONTINUOUS
 62
    3
 10
272.94099999999991
 20
200.01813636363635
 11
272.95099999999996
 21
200.00713636363636
  0
LINE
  8
_0-3_A0
  6
CONTINUOUS
 62
    3
 10
272.95099999999996
 20
200.00713636363636
 11
272.96199999999993
 21
199.99513636363636
  0
LINE
  8
_0-3_A0
  6
CONTINUOUS
 62
    3
 10
272.96199999999993
 20
199.99513636363636
 11
272.97399999999993
 21
199.98413636363636
  0
LINE
  8
_0-3_A0
  6
CONTINUOUS
 62
    3
 10
272.97399999999993
 20
199.98413636363636
 11
272.98799999999994
 21
199.97313636363637
  0
LINE
  8
_0-3_A0
  6
CONTINUOUS
 62
    3
 10
272.98799999999994
 20
199.97313636363637
 11
273.00299999999992
 21
199.96213636363637
  0
LINE
  8
_0-3_A0
  6
CONTINUOUS
 62
    3
 10
273.00299999999992
 20
199.96213636363637
 11
273.01999999999992
 21
199.95213636363638
  0
LINE
  8
_0-3_A0
  6
CONTINUOUS
 62
    3
 10
273.01999999999992
 20
199.95213636363638
 11
273.03699999999992
 21
199.94213636363636
  0
LINE
  8
_0-3_A0
  6
CONTINUOUS
 62
    3
 10
273.03699999999992
 20
199.94213636363636
 11
273.05599999999992
 21
199.93213636363637
  0
LINE
  8
_0-3_A0
  6
CONTINUOUS
 62
    3
 10
273.05599999999992
 20
199.93213636363637
 11
273.07599999999996
 21
199.92313636363635
  0
LINE
  8
_0-3_A0
  6
CONTINUOUS
 62
    3
 10
273.07599999999996
 20
199.92313636363635
 11
273.09799999999995
 21
199.91413636363637
  0
LINE
  8
_0-3_A0
  6
CONTINUOUS
 62
    3
 10
273.09799999999995
 20
199.91413636363637
 11
273.11999999999994
 21
199.90613636363636
  0
LINE
  8
_0-3_A0
  6
CONTINUOUS
 62
    3
 10
273.11999999999994
 20
199.90613636363636
 11
273.14299999999991
 21
199.89813636363638
  0
LINE
  8
_0-3_A0
  6
CONTINUOUS
 62
    3
 10
273.14299999999991
 20
199.89813636363638
 11
273.16699999999991
 21
199.89013636363637
  0
LINE
  8
_0-3_A0
  6
CONTINUOUS
 62
    3
 10
273.16699999999991
 20
199.89013636363637
 11
273.19199999999995
 21
199.88313636363636
  0
LINE
  8
_0-3_A0
  6
CONTINUOUS
 62
    3
 10
273.19199999999995
 20
199.88313636363636
 11
273.21799999999996
 21
199.87613636363636
  0
LINE
  8
_0-3_A0
  6
CONTINUOUS
 62
    3
 10
273.21799999999996
 20
199.87613636363636
 11
273.24499999999994
 21
199.87013636363636
  0
LINE
  8
_0-3_A0
  6
CONTINUOUS
 62
    3
 10
273.24499999999994
 20
199.87013636363636
 11
273.27199999999993
 21
199.86513636363636
  0
LINE
  8
_0-3_A0
  6
CONTINUOUS
 62
    3
 10
273.27199999999993
 20
199.86513636363636
 11
273.29999999999995
 21
199.86013636363637
  0
LINE
  8
_0-3_A0
  6
CONTINUOUS
 62
    3
 10
273.29999999999995
 20
199.86013636363637
 11
273.32899999999995
 21
199.85513636363637
  0
LINE
  8
_0-3_A0
  6
CONTINUOUS
 62
    3
 10
273.32899999999995
 20
199.85513636363637
 11
273.35799999999994
 21
199.85213636363636
  0
LINE
  8
_0-3_A0
  6
CONTINUOUS
 62
    3
 10
273.35799999999994
 20
199.85213636363636
 11
273.38799999999991
 21
199.84813636363637
  0
LINE
  8
_0-3_A0
  6
CONTINUOUS
 62
    3
 10
273.38799999999991
 20
199.84813636363637
 11
273.41799999999994
 21
199.84613636363636
  0
LINE
  8
_0-3_A0
  6
CONTINUOUS
 62
    3
 10
273.41799999999994
 20
199.84613636363636
 11
273.44799999999992
 21
199.84413636363638
  0
LINE
  8
_0-3_A0
  6
CONTINUOUS
 62
    3
 10
273.44799999999992
 20
199.84413636363638
 11
273.47799999999995
 21
199.84213636363637
  0
LINE
  8
_0-3_A0
  6
CONTINUOUS
 62
    3
 10
273.47799999999995
 20
199.84213636363637
 11
273.50899999999995
 21
199.84113636363636
  0
LINE
  8
_0-3_A0
  6
CONTINUOUS
 62
    3
 10
273.50899999999995
 20
199.84113636363636
 11
273.53899999999993
 21
199.84113636363636
  0
LINE
  8
_0-3_A0
  6
CONTINUOUS
 62
    3
 10
273.53899999999993
 20
199.84113636363636
 11
273.56999999999993
 21
199.84113636363636
  0
LINE
  8
_0-3_A0
  6
CONTINUOUS
 62
    3
 10
273.56999999999993
 20
199.84113636363636
 11
273.60099999999994
 21
199.84213636363637
  0
LINE
  8
_0-3_A0
  6
CONTINUOUS
 62
    3
 10
273.60099999999994
 20
199.84213636363637
 11
273.63099999999991
 21
199.84413636363638
  0
LINE
  8
_0-3_A0
  6
CONTINUOUS
 62
    3
 10
273.63099999999991
 20
199.84413636363638
 11
273.66099999999994
 21
199.84613636363636
  0
LINE
  8
_0-3_A0
  6
CONTINUOUS
 62
    3
 10
273.66099999999994
 20
199.84613636363636
 11
273.69099999999991
 21
199.84813636363637
  0
LINE
  8
_0-3_A0
  6
CONTINUOUS
 62
    3
 10
273.69099999999991
 20
199.84813636363637
 11
273.72099999999994
 21
199.85213636363636
  0
LINE
  8
_0-3_A0
  6
CONTINUOUS
 62
    3
 10
273.72099999999994
 20
199.85213636363636
 11
273.74999999999994
 21
199.85513636363637
  0
LINE
  8
_0-3_A0
  6
CONTINUOUS
 62
    3
 10
273.74999999999994
 20
199.85513636363637
 11
273.77899999999993
 21
199.86013636363637
  0
LINE
  8
_0-3_A0
  6
CONTINUOUS
 62
    3
 10
273.77899999999993
 20
199.86013636363637
 11
273.80699999999995
 21
199.86513636363636
  0
LINE
  8
_0-3_A0
  6
CONTINUOUS
 62
    3
 10
273.80699999999995
 20
199.86513636363636
 11
273.83399999999994
 21
199.87013636363636
  0
LINE
  8
_0-3_A0
  6
CONTINUOUS
 62
    3
 10
273.83399999999994
 20
199.87013636363636
 11
273.86099999999993
 21
199.87613636363636
  0
LINE
  8
_0-3_A0
  6
CONTINUOUS
 62
    3
 10
273.86099999999993
 20
199.87613636363636
 11
273.88699999999994
 21
199.88313636363636
  0
LINE
  8
_0-3_A0
  6
CONTINUOUS
 62
    3
 10
273.88699999999994
 20
199.88313636363636
 11
273.91199999999992
 21
199.89013636363637
  0
LINE
  8
_0-3_A0
  6
CONTINUOUS
 62
    3
 10
273.91199999999992
 20
199.89013636363637
 11
273.93599999999992
 21
199.89813636363638
  0
LINE
  8
_0-3_A0
  6
CONTINUOUS
 62
    3
 10
273.93599999999992
 20
199.89813636363638
 11
273.95899999999994
 21
199.90613636363636
  0
LINE
  8
_0-3_A0
  6
CONTINUOUS
 62
    3
 10
273.95899999999994
 20
199.90613636363636
 11
273.98099999999993
 21
199.91413636363637
  0
LINE
  8
_0-3_A0
  6
CONTINUOUS
 62
    3
 10
273.98099999999993
 20
199.91413636363637
 11
274.00299999999992
 21
199.92313636363635
  0
LINE
  8
_0-3_A0
  6
CONTINUOUS
 62
    3
 10
274.00299999999992
 20
199.92313636363635
 11
274.02299999999996
 21
199.93213636363637
  0
LINE
  8
_0-3_A0
  6
CONTINUOUS
 62
    3
 10
274.02299999999996
 20
199.93213636363637
 11
274.04099999999993
 21
199.94213636363636
  0
LINE
  8
_0-3_A0
  6
CONTINUOUS
 62
    3
 10
274.04099999999993
 20
199.94213636363636
 11
274.05899999999996
 21
199.95213636363638
  0
LINE
  8
_0-3_A0
  6
CONTINUOUS
 62
    3
 10
274.05899999999996
 20
199.95213636363638
 11
274.07599999999996
 21
199.96213636363637
  0
LINE
  8
_0-3_A0
  6
CONTINUOUS
 62
    3
 10
274.07599999999996
 20
199.96213636363637
 11
274.09099999999995
 21
199.97313636363637
  0
LINE
  8
_0-3_A0
  6
CONTINUOUS
 62
    3
 10
274.09099999999995
 20
199.97313636363637
 11
274.10399999999992
 21
199.98413636363636
  0
LINE
  8
_0-3_A0
  6
CONTINUOUS
 62
    3
 10
274.10399999999992
 20
199.98413636363636
 11
274.11699999999996
 21
199.99513636363636
  0
LINE
  8
_0-3_A0
  6
CONTINUOUS
 62
    3
 10
274.11699999999996
 20
199.99513636363636
 11
274.12799999999992
 21
200.00713636363636
  0
LINE
  8
_0-3_A0
  6
CONTINUOUS
 62
    3
 10
274.12799999999992
 20
200.00713636363636
 11
274.13799999999991
 21
200.01813636363635
  0
LINE
  8
_0-3_A0
  6
CONTINUOUS
 62
    3
 10
274.13799999999991
 20
200.01813636363635
 11
274.14599999999995
 21
200.03013636363635
  0
LINE
  8
_0-3_A0
  6
CONTINUOUS
 62
    3
 10
274.14599999999995
 20
200.03013636363635
 11
274.15199999999992
 21
200.04213636363635
  0
LINE
  8
_0-3_A0
  6
CONTINUOUS
 62
    3
 10
274.15199999999992
 20
200.04213636363635
 11
274.15799999999995
 21
200.05413636363635
  0
LINE
  8
_0-3_A0
  6
CONTINUOUS
 62
    3
 10
274.15799999999995
 20
200.05413636363635
 11
274.16099999999994
 21
200.06613636363636
  0
LINE
  8
_0-3_A0
  6
CONTINUOUS
 62
    3
 10
274.16099999999994
 20
200.06613636363636
 11
274.16399999999993
 21
200.07913636363636
  0
LINE
  8
_0-3_A0
  6
CONTINUOUS
 62
    3
 10
274.16399999999993
 20
200.07913636363636
 11
274.16399999999993
 21
200.09113636363636
  0
LINE
  8
_0-3_A0
  6
CONTINUOUS
 62
    3
 10
202.66399999999993
 20
176.70413636363636
 11
202.66399999999993
 21
176.72513636363638
  0
LINE
  8
_0-3_A0
  6
CONTINUOUS
 62
    3
 10
202.66399999999993
 20
176.72513636363638
 11
202.66099999999994
 21
176.74713636363637
  0
LINE
  8
_0-3_A0
  6
CONTINUOUS
 62
    3
 10
202.66099999999994
 20
176.74713636363637
 11
202.65799999999993
 21
176.76813636363635
  0
LINE
  8
_0-3_A0
  6
CONTINUOUS
 62
    3
 10
202.65799999999993
 20
176.76813636363635
 11
202.65199999999992
 21
176.78913636363637
  0
LINE
  8
_0-3_A0
  6
CONTINUOUS
 62
    3
 10
202.65199999999992
 20
176.78913636363637
 11
202.64599999999992
 21
176.81013636363636
  0
LINE
  8
_0-3_A0
  6
CONTINUOUS
 62
    3
 10
202.64599999999992
 20
176.81013636363636
 11
202.63799999999994
 21
176.83113636363637
  0
LINE
  8
_0-3_A0
  6
CONTINUOUS
 62
    3
 10
202.63799999999994
 20
176.83113636363637
 11
202.62799999999992
 21
176.85113636363638
  0
LINE
  8
_0-3_A0
  6
CONTINUOUS
 62
    3
 10
202.62799999999992
 20
176.85113636363638
 11
202.61699999999993
 21
176.87113636363636
  0
LINE
  8
_0-3_A0
  6
CONTINUOUS
 62
    3
 10
202.61699999999993
 20
176.87113636363636
 11
202.60399999999995
 21
176.89113636363637
  0
LINE
  8
_0-3_A0
  6
CONTINUOUS
 62
    3
 10
202.60399999999995
 20
176.89113636363637
 11
202.59099999999995
 21
176.91013636363638
  0
LINE
  8
_0-3_A0
  6
CONTINUOUS
 62
    3
 10
202.59099999999995
 20
176.91013636363638
 11
202.57599999999993
 21
176.92913636363635
  0
LINE
  8
_0-3_A0
  6
CONTINUOUS
 62
    3
 10
202.57599999999993
 20
176.92913636363635
 11
202.55899999999994
 21
176.94713636363636
  0
LINE
  8
_0-3_A0
  6
CONTINUOUS
 62
    3
 10
202.55899999999994
 20
176.94713636363636
 11
202.54099999999993
 21
176.96413636363638
  0
LINE
  8
_0-3_A0
  6
CONTINUOUS
 62
    3
 10
202.54099999999993
 20
176.96413636363638
 11
202.52299999999993
 21
176.98113636363638
  0
LINE
  8
_0-3_A0
  6
CONTINUOUS
 62
    3
 10
202.52299999999993
 20
176.98113636363638
 11
202.50299999999992
 21
176.99813636363637
  0
LINE
  8
_0-3_A0
  6
CONTINUOUS
 62
    3
 10
202.50299999999992
 20
176.99813636363637
 11
202.48099999999993
 21
177.01313636363636
  0
LINE
  8
_0-3_A0
  6
CONTINUOUS
 62
    3
 10
202.48099999999993
 20
177.01313636363636
 11
202.45899999999994
 21
177.02813636363637
  0
LINE
  8
_0-3_A0
  6
CONTINUOUS
 62
    3
 10
202.45899999999994
 20
177.02813636363637
 11
202.43599999999995
 21
177.04213636363635
  0
LINE
  8
_0-3_A0
  6
CONTINUOUS
 62
    3
 10
202.43599999999995
 20
177.04213636363635
 11
202.41199999999994
 21
177.05513636363636
  0
LINE
  8
_0-3_A0
  6
CONTINUOUS
 62
    3
 10
202.41199999999994
 20
177.05513636363636
 11
202.38699999999994
 21
177.06813636363636
  0
LINE
  8
_0-3_A0
  6
CONTINUOUS
 62
    3
 10
202.38699999999994
 20
177.06813636363636
 11
202.36099999999993
 21
177.07913636363636
  0
LINE
  8
_0-3_A0
  6
CONTINUOUS
 62
    3
 10
202.36099999999993
 20
177.07913636363636
 11
202.33399999999994
 21
177.09013636363636
  0
LINE
  8
_0-3_A0
  6
CONTINUOUS
 62
    3
 10
202.33399999999994
 20
177.09013636363636
 11
202.30699999999993
 21
177.09913636363637
  0
LINE
  8
_0-3_A0
  6
CONTINUOUS
 62
    3
 10
202.30699999999993
 20
177.09913636363637
 11
202.27899999999993
 21
177.10813636363636
  0
LINE
  8
_0-3_A0
  6
CONTINUOUS
 62
    3
 10
202.27899999999993
 20
177.10813636363636
 11
202.24999999999994
 21
177.11613636363637
  0
LINE
  8
_0-3_A0
  6
CONTINUOUS
 62
    3
 10
202.24999999999994
 20
177.11613636363637
 11
202.22099999999994
 21
177.12213636363637
  0
LINE
  8
_0-3_A0
  6
CONTINUOUS
 62
    3
 10
202.22099999999994
 20
177.12213636363637
 11
202.19099999999994
 21
177.12813636363637
  0
LINE
  8
_0-3_A0
  6
CONTINUOUS
 62
    3
 10
202.19099999999994
 20
177.12813636363637
 11
202.16099999999994
 21
177.13313636363636
  0
LINE
  8
_0-3_A0
  6
CONTINUOUS
 62
    3
 10
202.16099999999994
 20
177.13313636363636
 11
202.13099999999994
 21
177.13713636363635
  0
LINE
  8
_0-3_A0
  6
CONTINUOUS
 62
    3
 10
202.13099999999994
 20
177.13713636363635
 11
202.10099999999994
 21
177.13913636363636
  0
LINE
  8
_0-3_A0
  6
CONTINUOUS
 62
    3
 10
202.10099999999994
 20
177.13913636363636
 11
202.06999999999993
 21
177.14113636363637
  0
LINE
  8
_0-3_A0
  6
CONTINUOUS
 62
    3
 10
202.06999999999993
 20
177.14113636363637
 11
202.03899999999993
 21
177.14113636363637
  0
LINE
  8
_0-3_A0
  6
CONTINUOUS
 62
    3
 10
202.03899999999993
 20
177.14113636363637
 11
202.00899999999992
 21
177.14113636363637
  0
LINE
  8
_0-3_A0
  6
CONTINUOUS
 62
    3
 10
202.00899999999992
 20
177.14113636363637
 11
201.97799999999995
 21
177.13913636363636
  0
LINE
  8
_0-3_A0
  6
CONTINUOUS
 62
    3
 10
201.97799999999995
 20
177.13913636363636
 11
201.94799999999995
 21
177.13713636363635
  0
LINE
  8
_0-3_A0
  6
CONTINUOUS
 62
    3
 10
201.94799999999995
 20
177.13713636363635
 11
201.91799999999994
 21
177.13313636363636
  0
LINE
  8
_0-3_A0
  6
CONTINUOUS
 62
    3
 10
201.91799999999994
 20
177.13313636363636
 11
201.88799999999994
 21
177.12813636363637
  0
LINE
  8
_0-3_A0
  6
CONTINUOUS
 62
    3
 10
201.88799999999994
 20
177.12813636363637
 11
201.85799999999994
 21
177.12213636363637
  0
LINE
  8
_0-3_A0
  6
CONTINUOUS
 62
    3
 10
201.85799999999994
 20
177.12213636363637
 11
201.82899999999995
 21
177.11613636363637
  0
LINE
  8
_0-3_A0
  6
CONTINUOUS
 62
    3
 10
201.82899999999995
 20
177.11613636363637
 11
201.79999999999995
 21
177.10813636363636
  0
LINE
  8
_0-3_A0
  6
CONTINUOUS
 62
    3
 10
201.79999999999995
 20
177.10813636363636
 11
201.77199999999993
 21
177.09913636363637
  0
LINE
  8
_0-3_A0
  6
CONTINUOUS
 62
    3
 10
201.77199999999993
 20
177.09913636363637
 11
201.74499999999994
 21
177.09013636363636
  0
LINE
  8
_0-3_A0
  6
CONTINUOUS
 62
    3
 10
201.74499999999994
 20
177.09013636363636
 11
201.71799999999993
 21
177.07913636363636
  0
LINE
  8
_0-3_A0
  6
CONTINUOUS
 62
    3
 10
201.71799999999993
 20
177.07913636363636
 11
201.69199999999995
 21
177.06813636363636
  0
LINE
  8
_0-3_A0
  6
CONTINUOUS
 62
    3
 10
201.69199999999995
 20
177.06813636363636
 11
201.66699999999994
 21
177.05513636363636
  0
LINE
  8
_0-3_A0
  6
CONTINUOUS
 62
    3
 10
201.66699999999994
 20
177.05513636363636
 11
201.64299999999994
 21
177.04213636363635
  0
LINE
  8
_0-3_A0
  6
CONTINUOUS
 62
    3
 10
201.64299999999994
 20
177.04213636363635
 11
201.61999999999994
 21
177.02813636363637
  0
LINE
  8
_0-3_A0
  6
CONTINUOUS
 62
    3
 10
201.61999999999994
 20
177.02813636363637
 11
201.59799999999995
 21
177.01313636363636
  0
LINE
  8
_0-3_A0
  6
CONTINUOUS
 62
    3
 10
201.59799999999995
 20
177.01313636363636
 11
201.57599999999993
 21
176.99813636363637
  0
LINE
  8
_0-3_A0
  6
CONTINUOUS
 62
    3
 10
201.57599999999993
 20
176.99813636363637
 11
201.55599999999995
 21
176.98113636363638
  0
LINE
  8
_0-3_A0
  6
CONTINUOUS
 62
    3
 10
201.55599999999995
 20
176.98113636363638
 11
201.53699999999994
 21
176.96413636363638
  0
LINE
  8
_0-3_A0
  6
CONTINUOUS
 62
    3
 10
201.53699999999994
 20
176.96413636363638
 11
201.51999999999995
 21
176.94713636363636
  0
LINE
  8
_0-3_A0
  6
CONTINUOUS
 62
    3
 10
201.51999999999995
 20
176.94713636363636
 11
201.50299999999992
 21
176.92913636363635
  0
LINE
  8
_0-3_A0
  6
CONTINUOUS
 62
    3
 10
201.50299999999992
 20
176.92913636363635
 11
201.48799999999994
 21
176.91013636363638
  0
LINE
  8
_0-3_A0
  6
CONTINUOUS
 62
    3
 10
201.48799999999994
 20
176.91013636363638
 11
201.47399999999993
 21
176.89113636363637
  0
LINE
  8
_0-3_A0
  6
CONTINUOUS
 62
    3
 10
201.47399999999993
 20
176.89113636363637
 11
201.46199999999993
 21
176.87113636363636
  0
LINE
  8
_0-3_A0
  6
CONTINUOUS
 62
    3
 10
201.46199999999993
 20
176.87113636363636
 11
201.45099999999993
 21
176.85113636363638
  0
LINE
  8
_0-3_A0
  6
CONTINUOUS
 62
    3
 10
201.45099999999993
 20
176.85113636363638
 11
201.44099999999994
 21
176.83113636363637
  0
LINE
  8
_0-3_A0
  6
CONTINUOUS
 62
    3
 10
201.44099999999994
 20
176.83113636363637
 11
201.43299999999993
 21
176.81013636363636
  0
LINE
  8
_0-3_A0
  6
CONTINUOUS
 62
    3
 10
201.43299999999993
 20
176.81013636363636
 11
201.42599999999993
 21
176.78913636363637
  0
LINE
  8
_0-3_A0
  6
CONTINUOUS
 62
    3
 10
201.42599999999993
 20
176.78913636363637
 11
201.42099999999993
 21
176.76813636363635
  0
LINE
  8
_0-3_A0
  6
CONTINUOUS
 62
    3
 10
201.42099999999993
 20
176.76813636363635
 11
201.41699999999994
 21
176.74713636363637
  0
LINE
  8
_0-3_A0
  6
CONTINUOUS
 62
    3
 10
201.41699999999994
 20
176.74713636363637
 11
201.41499999999993
 21
176.72513636363638
  0
LINE
  8
_0-3_A0
  6
CONTINUOUS
 62
    3
 10
201.41499999999993
 20
176.72513636363638
 11
201.41399999999993
 21
176.70413636363636
  0
LINE
  8
_0-3_A0
  6
CONTINUOUS
 62
    3
 10
201.41399999999993
 20
176.70413636363636
 11
201.41499999999993
 21
176.68213636363637
  0
LINE
  8
_0-3_A0
  6
CONTINUOUS
 62
    3
 10
201.41499999999993
 20
176.68213636363637
 11
201.41699999999994
 21
176.66113636363635
  0
LINE
  8
_0-3_A0
  6
CONTINUOUS
 62
    3
 10
201.41699999999994
 20
176.66113636363635
 11
201.42099999999993
 21
176.64013636363637
  0
LINE
  8
_0-3_A0
  6
CONTINUOUS
 62
    3
 10
201.42099999999993
 20
176.64013636363637
 11
201.42599999999993
 21
176.61813636363638
  0
LINE
  8
_0-3_A0
  6
CONTINUOUS
 62
    3
 10
201.42599999999993
 20
176.61813636363638
 11
201.43299999999993
 21
176.59713636363636
  0
LINE
  8
_0-3_A0
  6
CONTINUOUS
 62
    3
 10
201.43299999999993
 20
176.59713636363636
 11
201.44099999999994
 21
176.57713636363638
  0
LINE
  8
_0-3_A0
  6
CONTINUOUS
 62
    3
 10
201.44099999999994
 20
176.57713636363638
 11
201.45099999999993
 21
176.55613636363636
  0
LINE
  8
_0-3_A0
  6
CONTINUOUS
 62
    3
 10
201.45099999999993
 20
176.55613636363636
 11
201.46199999999993
 21
176.53613636363635
  0
LINE
  8
_0-3_A0
  6
CONTINUOUS
 62
    3
 10
201.46199999999993
 20
176.53613636363635
 11
201.47399999999993
 21
176.51713636363638
  0
LINE
  8
_0-3_A0
  6
CONTINUOUS
 62
    3
 10
201.47399999999993
 20
176.51713636363638
 11
201.48799999999994
 21
176.49813636363637
  0
LINE
  8
_0-3_A0
  6
CONTINUOUS
 62
    3
 10
201.48799999999994
 20
176.49813636363637
 11
201.50299999999992
 21
176.47913636363637
  0
LINE
  8
_0-3_A0
  6
CONTINUOUS
 62
    3
 10
201.50299999999992
 20
176.47913636363637
 11
201.51999999999995
 21
176.46113636363637
  0
LINE
  8
_0-3_A0
  6
CONTINUOUS
 62
    3
 10
201.51999999999995
 20
176.46113636363637
 11
201.53699999999994
 21
176.44313636363636
  0
LINE
  8
_0-3_A0
  6
CONTINUOUS
 62
    3
 10
201.53699999999994
 20
176.44313636363636
 11
201.55599999999995
 21
176.42613636363637
  0
LINE
  8
_0-3_A0
  6
CONTINUOUS
 62
    3
 10
201.55599999999995
 20
176.42613636363637
 11
201.57599999999993
 21
176.41013636363638
  0
LINE
  8
_0-3_A0
  6
CONTINUOUS
 62
    3
 10
201.57599999999993
 20
176.41013636363638
 11
201.59799999999995
 21
176.39413636363636
  0
LINE
  8
_0-3_A0
  6
CONTINUOUS
 62
    3
 10
201.59799999999995
 20
176.39413636363636
 11
201.61999999999994
 21
176.38013636363638
  0
LINE
  8
_0-3_A0
  6
CONTINUOUS
 62
    3
 10
201.61999999999994
 20
176.38013636363638
 11
201.64299999999994
 21
176.36613636363637
  0
LINE
  8
_0-3_A0
  6
CONTINUOUS
 62
    3
 10
201.64299999999994
 20
176.36613636363637
 11
201.66699999999994
 21
176.35213636363636
  0
LINE
  8
_0-3_A0
  6
CONTINUOUS
 62
    3
 10
201.66699999999994
 20
176.35213636363636
 11
201.69199999999995
 21
176.34013636363636
  0
LINE
  8
_0-3_A0
  6
CONTINUOUS
 62
    3
 10
201.69199999999995
 20
176.34013636363636
 11
201.71799999999993
 21
176.32913636363636
  0
LINE
  8
_0-3_A0
  6
CONTINUOUS
 62
    3
 10
201.71799999999993
 20
176.32913636363636
 11
201.74499999999994
 21
176.31813636363636
  0
LINE
  8
_0-3_A0
  6
CONTINUOUS
 62
    3
 10
201.74499999999994
 20
176.31813636363636
 11
201.77199999999993
 21
176.30813636363637
  0
LINE
  8
_0-3_A0
  6
CONTINUOUS
 62
    3
 10
201.77199999999993
 20
176.30813636363637
 11
201.79999999999995
 21
176.30013636363636
  0
LINE
  8
_0-3_A0
  6
CONTINUOUS
 62
    3
 10
201.79999999999995
 20
176.30013636363636
 11
201.82899999999995
 21
176.29213636363635
  0
LINE
  8
_0-3_A0
  6
CONTINUOUS
 62
    3
 10
201.82899999999995
 20
176.29213636363635
 11
201.85799999999994
 21
176.28513636363638
  0
LINE
  8
_0-3_A0
  6
CONTINUOUS
 62
    3
 10
201.85799999999994
 20
176.28513636363638
 11
201.88799999999994
 21
176.27913636363638
  0
LINE
  8
_0-3_A0
  6
CONTINUOUS
 62
    3
 10
201.88799999999994
 20
176.27913636363638
 11
201.91799999999994
 21
176.27513636363636
  0
LINE
  8
_0-3_A0
  6
CONTINUOUS
 62
    3
 10
201.91799999999994
 20
176.27513636363636
 11
201.94799999999995
 21
176.27113636363637
  0
LINE
  8
_0-3_A0
  6
CONTINUOUS
 62
    3
 10
201.94799999999995
 20
176.27113636363637
 11
201.97799999999995
 21
176.26813636363635
  0
LINE
  8
_0-3_A0
  6
CONTINUOUS
 62
    3
 10
201.97799999999995
 20
176.26813636363635
 11
202.00899999999992
 21
176.26713636363638
  0
LINE
  8
_0-3_A0
  6
CONTINUOUS
 62
    3
 10
202.00899999999992
 20
176.26713636363638
 11
202.03899999999993
 21
176.26613636363637
  0
LINE
  8
_0-3_A0
  6
CONTINUOUS
 62
    3
 10
202.03899999999993
 20
176.26613636363637
 11
202.06999999999993
 21
176.26713636363638
  0
LINE
  8
_0-3_A0
  6
CONTINUOUS
 62
    3
 10
202.06999999999993
 20
176.26713636363638
 11
202.10099999999994
 21
176.26813636363635
  0
LINE
  8
_0-3_A0
  6
CONTINUOUS
 62
    3
 10
202.10099999999994
 20
176.26813636363635
 11
202.13099999999994
 21
176.27113636363637
  0
LINE
  8
_0-3_A0
  6
CONTINUOUS
 62
    3
 10
202.13099999999994
 20
176.27113636363637
 11
202.16099999999994
 21
176.27513636363636
  0
LINE
  8
_0-3_A0
  6
CONTINUOUS
 62
    3
 10
202.16099999999994
 20
176.27513636363636
 11
202.19099999999994
 21
176.27913636363638
  0
LINE
  8
_0-3_A0
  6
CONTINUOUS
 62
    3
 10
202.19099999999994
 20
176.27913636363638
 11
202.22099999999994
 21
176.28513636363638
  0
LINE
  8
_0-3_A0
  6
CONTINUOUS
 62
    3
 10
202.22099999999994
 20
176.28513636363638
 11
202.24999999999994
 21
176.29213636363635
  0
LINE
  8
_0-3_A0
  6
CONTINUOUS
 62
    3
 10
202.24999999999994
 20
176.29213636363635
 11
202.27899999999993
 21
176.30013636363636
  0
LINE
  8
_0-3_A0
  6
CONTINUOUS
 62
    3
 10
202.27899999999993
 20
176.30013636363636
 11
202.30699999999993
 21
176.30813636363637
  0
LINE
  8
_0-3_A0
  6
CONTINUOUS
 62
    3
 10
202.30699999999993
 20
176.30813636363637
 11
202.33399999999994
 21
176.31813636363636
  0
LINE
  8
_0-3_A0
  6
CONTINUOUS
 62
    3
 10
202.33399999999994
 20
176.31813636363636
 11
202.36099999999993
 21
176.32913636363636
  0
LINE
  8
_0-3_A0
  6
CONTINUOUS
 62
    3
 10
202.36099999999993
 20
176.32913636363636
 11
202.38699999999994
 21
176.34013636363636
  0
LINE
  8
_0-3_A0
  6
CONTINUOUS
 62
    3
 10
202.38699999999994
 20
176.34013636363636
 11
202.41199999999994
 21
176.35213636363636
  0
LINE
  8
_0-3_A0
  6
CONTINUOUS
 62
    3
 10
202.41199999999994
 20
176.35213636363636
 11
202.43599999999995
 21
176.36613636363637
  0
LINE
  8
_0-3_A0
  6
CONTINUOUS
 62
    3
 10
202.43599999999995
 20
176.36613636363637
 11
202.45899999999994
 21
176.38013636363638
  0
LINE
  8
_0-3_A0
  6
CONTINUOUS
 62
    3
 10
202.45899999999994
 20
176.38013636363638
 11
202.48099999999993
 21
176.39413636363636
  0
LINE
  8
_0-3_A0
  6
CONTINUOUS
 62
    3
 10
202.48099999999993
 20
176.39413636363636
 11
202.50299999999992
 21
176.41013636363638
  0
LINE
  8
_0-3_A0
  6
CONTINUOUS
 62
    3
 10
202.50299999999992
 20
176.41013636363638
 11
202.52299999999993
 21
176.42613636363637
  0
LINE
  8
_0-3_A0
  6
CONTINUOUS
 62
    3
 10
202.52299999999993
 20
176.42613636363637
 11
202.54099999999993
 21
176.44313636363636
  0
LINE
  8
_0-3_A0
  6
CONTINUOUS
 62
    3
 10
202.54099999999993
 20
176.44313636363636
 11
202.55899999999994
 21
176.46113636363637
  0
LINE
  8
_0-3_A0
  6
CONTINUOUS
 62
    3
 10
202.55899999999994
 20
176.46113636363637
 11
202.57599999999993
 21
176.47913636363637
  0
LINE
  8
_0-3_A0
  6
CONTINUOUS
 62
    3
 10
202.57599999999993
 20
176.47913636363637
 11
202.59099999999995
 21
176.49813636363637
  0
LINE
  8
_0-3_A0
  6
CONTINUOUS
 62
    3
 10
202.59099999999995
 20
176.49813636363637
 11
202.60399999999995
 21
176.51713636363638
  0
LINE
  8
_0-3_A0
  6
CONTINUOUS
 62
    3
 10
202.60399999999995
 20
176.51713636363638
 11
202.61699999999993
 21
176.53613636363635
  0
LINE
  8
_0-3_A0
  6
CONTINUOUS
 62
    3
 10
202.61699999999993
 20
176.53613636363635
 11
202.62799999999992
 21
176.55613636363636
  0
LINE
  8
_0-3_A0
  6
CONTINUOUS
 62
    3
 10
202.62799999999992
 20
176.55613636363636
 11
202.63799999999994
 21
176.57713636363638
  0
LINE
  8
_0-3_A0
  6
CONTINUOUS
 62
    3
 10
202.63799999999994
 20
176.57713636363638
 11
202.64599999999992
 21
176.59713636363636
  0
LINE
  8
_0-3_A0
  6
CONTINUOUS
 62
    3
 10
202.64599999999992
 20
176.59713636363636
 11
202.65199999999992
 21
176.61813636363638
  0
LINE
  8
_0-3_A0
  6
CONTINUOUS
 62
    3
 10
202.65199999999992
 20
176.61813636363638
 11
202.65799999999993
 21
176.64013636363637
  0
LINE
  8
_0-3_A0
  6
CONTINUOUS
 62
    3
 10
202.65799999999993
 20
176.64013636363637
 11
202.66099999999994
 21
176.66113636363635
  0
LINE
  8
_0-3_A0
  6
CONTINUOUS
 62
    3
 10
202.66099999999994
 20
176.66113636363635
 11
202.66399999999993
 21
176.68213636363637
  0
LINE
  8
_0-3_A0
  6
CONTINUOUS
 62
    3
 10
202.66399999999993
 20
176.68213636363637
 11
202.66399999999993
 21
176.70413636363636
  0
LINE
  8
_0-3_A0
  6
CONTINUOUS
 62
    3
 10
274.16399999999993
 20
176.70413636363636
 11
274.16399999999993
 21
176.72513636363638
  0
LINE
  8
_0-3_A0
  6
CONTINUOUS
 62
    3
 10
274.16399999999993
 20
176.72513636363638
 11
274.16099999999994
 21
176.74713636363637
  0
LINE
  8
_0-3_A0
  6
CONTINUOUS
 62
    3
 10
274.16099999999994
 20
176.74713636363637
 11
274.15799999999995
 21
176.76813636363635
  0
LINE
  8
_0-3_A0
  6
CONTINUOUS
 62
    3
 10
274.15799999999995
 20
176.76813636363635
 11
274.15199999999992
 21
176.78913636363637
  0
LINE
  8
_0-3_A0
  6
CONTINUOUS
 62
    3
 10
274.15199999999992
 20
176.78913636363637
 11
274.14599999999995
 21
176.81013636363636
  0
LINE
  8
_0-3_A0
  6
CONTINUOUS
 62
    3
 10
274.14599999999995
 20
176.81013636363636
 11
274.13799999999991
 21
176.83113636363637
  0
LINE
  8
_0-3_A0
  6
CONTINUOUS
 62
    3
 10
274.13799999999991
 20
176.83113636363637
 11
274.12799999999992
 21
176.85113636363638
  0
LINE
  8
_0-3_A0
  6
CONTINUOUS
 62
    3
 10
274.12799999999992
 20
176.85113636363638
 11
274.11699999999996
 21
176.87113636363636
  0
LINE
  8
_0-3_A0
  6
CONTINUOUS
 62
    3
 10
274.11699999999996
 20
176.87113636363636
 11
274.10399999999992
 21
176.89113636363637
  0
LINE
  8
_0-3_A0
  6
CONTINUOUS
 62
    3
 10
274.10399999999992
 20
176.89113636363637
 11
274.09099999999995
 21
176.91013636363638
  0
LINE
  8
_0-3_A0
  6
CONTINUOUS
 62
    3
 10
274.09099999999995
 20
176.91013636363638
 11
274.07599999999996
 21
176.92913636363635
  0
LINE
  8
_0-3_A0
  6
CONTINUOUS
 62
    3
 10
274.07599999999996
 20
176.92913636363635
 11
274.05899999999996
 21
176.94713636363636
  0
LINE
  8
_0-3_A0
  6
CONTINUOUS
 62
    3
 10
274.05899999999996
 20
176.94713636363636
 11
274.04099999999993
 21
176.96413636363638
  0
LINE
  8
_0-3_A0
  6
CONTINUOUS
 62
    3
 10
274.04099999999993
 20
176.96413636363638
 11
274.02299999999996
 21
176.98113636363638
  0
LINE
  8
_0-3_A0
  6
CONTINUOUS
 62
    3
 10
274.02299999999996
 20
176.98113636363638
 11
274.00299999999992
 21
176.99813636363637
  0
LINE
  8
_0-3_A0
  6
CONTINUOUS
 62
    3
 10
274.00299999999992
 20
176.99813636363637
 11
273.98099999999993
 21
177.01313636363636
  0
LINE
  8
_0-3_A0
  6
CONTINUOUS
 62
    3
 10
273.98099999999993
 20
177.01313636363636
 11
273.95899999999994
 21
177.02813636363637
  0
LINE
  8
_0-3_A0
  6
CONTINUOUS
 62
    3
 10
273.95899999999994
 20
177.02813636363637
 11
273.93599999999992
 21
177.04213636363635
  0
LINE
  8
_0-3_A0
  6
CONTINUOUS
 62
    3
 10
273.93599999999992
 20
177.04213636363635
 11
273.91199999999992
 21
177.05513636363636
  0
LINE
  8
_0-3_A0
  6
CONTINUOUS
 62
    3
 10
273.91199999999992
 20
177.05513636363636
 11
273.88699999999994
 21
177.06813636363636
  0
LINE
  8
_0-3_A0
  6
CONTINUOUS
 62
    3
 10
273.88699999999994
 20
177.06813636363636
 11
273.86099999999993
 21
177.07913636363636
  0
LINE
  8
_0-3_A0
  6
CONTINUOUS
 62
    3
 10
273.86099999999993
 20
177.07913636363636
 11
273.83399999999994
 21
177.09013636363636
  0
LINE
  8
_0-3_A0
  6
CONTINUOUS
 62
    3
 10
273.83399999999994
 20
177.09013636363636
 11
273.80699999999995
 21
177.09913636363637
  0
LINE
  8
_0-3_A0
  6
CONTINUOUS
 62
    3
 10
273.80699999999995
 20
177.09913636363637
 11
273.77899999999993
 21
177.10813636363636
  0
LINE
  8
_0-3_A0
  6
CONTINUOUS
 62
    3
 10
273.77899999999993
 20
177.10813636363636
 11
273.74999999999994
 21
177.11613636363637
  0
LINE
  8
_0-3_A0
  6
CONTINUOUS
 62
    3
 10
273.74999999999994
 20
177.11613636363637
 11
273.72099999999994
 21
177.12213636363637
  0
LINE
  8
_0-3_A0
  6
CONTINUOUS
 62
    3
 10
273.72099999999994
 20
177.12213636363637
 11
273.69099999999991
 21
177.12813636363637
  0
LINE
  8
_0-3_A0
  6
CONTINUOUS
 62
    3
 10
273.69099999999991
 20
177.12813636363637
 11
273.66099999999994
 21
177.13313636363636
  0
LINE
  8
_0-3_A0
  6
CONTINUOUS
 62
    3
 10
273.66099999999994
 20
177.13313636363636
 11
273.63099999999991
 21
177.13713636363635
  0
LINE
  8
_0-3_A0
  6
CONTINUOUS
 62
    3
 10
273.63099999999991
 20
177.13713636363635
 11
273.60099999999994
 21
177.13913636363636
  0
LINE
  8
_0-3_A0
  6
CONTINUOUS
 62
    3
 10
273.60099999999994
 20
177.13913636363636
 11
273.56999999999993
 21
177.14113636363637
  0
LINE
  8
_0-3_A0
  6
CONTINUOUS
 62
    3
 10
273.56999999999993
 20
177.14113636363637
 11
273.53899999999993
 21
177.14113636363637
  0
LINE
  8
_0-3_A0
  6
CONTINUOUS
 62
    3
 10
273.53899999999993
 20
177.14113636363637
 11
273.50899999999995
 21
177.14113636363637
  0
LINE
  8
_0-3_A0
  6
CONTINUOUS
 62
    3
 10
273.50899999999995
 20
177.14113636363637
 11
273.47799999999995
 21
177.13913636363636
  0
LINE
  8
_0-3_A0
  6
CONTINUOUS
 62
    3
 10
273.47799999999995
 20
177.13913636363636
 11
273.44799999999992
 21
177.13713636363635
  0
LINE
  8
_0-3_A0
  6
CONTINUOUS
 62
    3
 10
273.44799999999992
 20
177.13713636363635
 11
273.41799999999994
 21
177.13313636363636
  0
LINE
  8
_0-3_A0
  6
CONTINUOUS
 62
    3
 10
273.41799999999994
 20
177.13313636363636
 11
273.38799999999991
 21
177.12813636363637
  0
LINE
  8
_0-3_A0
  6
CONTINUOUS
 62
    3
 10
273.38799999999991
 20
177.12813636363637
 11
273.35799999999994
 21
177.12213636363637
  0
LINE
  8
_0-3_A0
  6
CONTINUOUS
 62
    3
 10
273.35799999999994
 20
177.12213636363637
 11
273.32899999999995
 21
177.11613636363637
  0
LINE
  8
_0-3_A0
  6
CONTINUOUS
 62
    3
 10
273.32899999999995
 20
177.11613636363637
 11
273.29999999999995
 21
177.10813636363636
  0
LINE
  8
_0-3_A0
  6
CONTINUOUS
 62
    3
 10
273.29999999999995
 20
177.10813636363636
 11
273.27199999999993
 21
177.09913636363637
  0
LINE
  8
_0-3_A0
  6
CONTINUOUS
 62
    3
 10
273.27199999999993
 20
177.09913636363637
 11
273.24499999999994
 21
177.09013636363636
  0
LINE
  8
_0-3_A0
  6
CONTINUOUS
 62
    3
 10
273.24499999999994
 20
177.09013636363636
 11
273.21799999999996
 21
177.07913636363636
  0
LINE
  8
_0-3_A0
  6
CONTINUOUS
 62
    3
 10
273.21799999999996
 20
177.07913636363636
 11
273.19199999999995
 21
177.06813636363636
  0
LINE
  8
_0-3_A0
  6
CONTINUOUS
 62
    3
 10
273.19199999999995
 20
177.06813636363636
 11
273.16699999999991
 21
177.05513636363636
  0
LINE
  8
_0-3_A0
  6
CONTINUOUS
 62
    3
 10
273.16699999999991
 20
177.05513636363636
 11
273.14299999999991
 21
177.04213636363635
  0
LINE
  8
_0-3_A0
  6
CONTINUOUS
 62
    3
 10
273.14299999999991
 20
177.04213636363635
 11
273.11999999999994
 21
177.02813636363637
  0
LINE
  8
_0-3_A0
  6
CONTINUOUS
 62
    3
 10
273.11999999999994
 20
177.02813636363637
 11
273.09799999999995
 21
177.01313636363636
  0
LINE
  8
_0-3_A0
  6
CONTINUOUS
 62
    3
 10
273.09799999999995
 20
177.01313636363636
 11
273.07599999999996
 21
176.99813636363637
  0
LINE
  8
_0-3_A0
  6
CONTINUOUS
 62
    3
 10
273.07599999999996
 20
176.99813636363637
 11
273.05599999999992
 21
176.98113636363638
  0
LINE
  8
_0-3_A0
  6
CONTINUOUS
 62
    3
 10
273.05599999999992
 20
176.98113636363638
 11
273.03699999999992
 21
176.96413636363638
  0
LINE
  8
_0-3_A0
  6
CONTINUOUS
 62
    3
 10
273.03699999999992
 20
176.96413636363638
 11
273.01999999999992
 21
176.94713636363636
  0
LINE
  8
_0-3_A0
  6
CONTINUOUS
 62
    3
 10
273.01999999999992
 20
176.94713636363636
 11
273.00299999999992
 21
176.92913636363635
  0
LINE
  8
_0-3_A0
  6
CONTINUOUS
 62
    3
 10
273.00299999999992
 20
176.92913636363635
 11
272.98799999999994
 21
176.91013636363638
  0
LINE
  8
_0-3_A0
  6
CONTINUOUS
 62
    3
 10
272.98799999999994
 20
176.91013636363638
 11
272.97399999999993
 21
176.89113636363637
  0
LINE
  8
_0-3_A0
  6
CONTINUOUS
 62
    3
 10
272.97399999999993
 20
176.89113636363637
 11
272.96199999999993
 21
176.87113636363636
  0
LINE
  8
_0-3_A0
  6
CONTINUOUS
 62
    3
 10
272.96199999999993
 20
176.87113636363636
 11
272.95099999999996
 21
176.85113636363638
  0
LINE
  8
_0-3_A0
  6
CONTINUOUS
 62
    3
 10
272.95099999999996
 20
176.85113636363638
 11
272.94099999999991
 21
176.83113636363637
  0
LINE
  8
_0-3_A0
  6
CONTINUOUS
 62
    3
 10
272.94099999999991
 20
176.83113636363637
 11
272.93299999999993
 21
176.81013636363636
  0
LINE
  8
_0-3_A0
  6
CONTINUOUS
 62
    3
 10
272.93299999999993
 20
176.81013636363636
 11
272.92599999999993
 21
176.78913636363637
  0
LINE
  8
_0-3_A0
  6
CONTINUOUS
 62
    3
 10
272.92599999999993
 20
176.78913636363637
 11
272.92099999999993
 21
176.76813636363635
  0
LINE
  8
_0-3_A0
  6
CONTINUOUS
 62
    3
 10
272.92099999999993
 20
176.76813636363635
 11
272.91699999999991
 21
176.74713636363637
  0
LINE
  8
_0-3_A0
  6
CONTINUOUS
 62
    3
 10
272.91699999999991
 20
176.74713636363637
 11
272.91499999999996
 21
176.72513636363638
  0
LINE
  8
_0-3_A0
  6
CONTINUOUS
 62
    3
 10
272.91499999999996
 20
176.72513636363638
 11
272.91399999999993
 21
176.70413636363636
  0
LINE
  8
_0-3_A0
  6
CONTINUOUS
 62
    3
 10
272.91399999999993
 20
176.70413636363636
 11
272.91499999999996
 21
176.68213636363637
  0
LINE
  8
_0-3_A0
  6
CONTINUOUS
 62
    3
 10
272.91499999999996
 20
176.68213636363637
 11
272.91699999999991
 21
176.66113636363635
  0
LINE
  8
_0-3_A0
  6
CONTINUOUS
 62
    3
 10
272.91699999999991
 20
176.66113636363635
 11
272.92099999999993
 21
176.64013636363637
  0
LINE
  8
_0-3_A0
  6
CONTINUOUS
 62
    3
 10
272.92099999999993
 20
176.64013636363637
 11
272.92599999999993
 21
176.61813636363638
  0
LINE
  8
_0-3_A0
  6
CONTINUOUS
 62
    3
 10
272.92599999999993
 20
176.61813636363638
 11
272.93299999999993
 21
176.59713636363636
  0
LINE
  8
_0-3_A0
  6
CONTINUOUS
 62
    3
 10
272.93299999999993
 20
176.59713636363636
 11
272.94099999999991
 21
176.57713636363638
  0
LINE
  8
_0-3_A0
  6
CONTINUOUS
 62
    3
 10
272.94099999999991
 20
176.57713636363638
 11
272.95099999999996
 21
176.55613636363636
  0
LINE
  8
_0-3_A0
  6
CONTINUOUS
 62
    3
 10
272.95099999999996
 20
176.55613636363636
 11
272.96199999999993
 21
176.53613636363635
  0
LINE
  8
_0-3_A0
  6
CONTINUOUS
 62
    3
 10
272.96199999999993
 20
176.53613636363635
 11
272.97399999999993
 21
176.51713636363638
  0
LINE
  8
_0-3_A0
  6
CONTINUOUS
 62
    3
 10
272.97399999999993
 20
176.51713636363638
 11
272.98799999999994
 21
176.49813636363637
  0
LINE
  8
_0-3_A0
  6
CONTINUOUS
 62
    3
 10
272.98799999999994
 20
176.49813636363637
 11
273.00299999999992
 21
176.47913636363637
  0
LINE
  8
_0-3_A0
  6
CONTINUOUS
 62
    3
 10
273.00299999999992
 20
176.47913636363637
 11
273.01999999999992
 21
176.46113636363637
  0
LINE
  8
_0-3_A0
  6
CONTINUOUS
 62
    3
 10
273.01999999999992
 20
176.46113636363637
 11
273.03699999999992
 21
176.44313636363636
  0
LINE
  8
_0-3_A0
  6
CONTINUOUS
 62
    3
 10
273.03699999999992
 20
176.44313636363636
 11
273.05599999999992
 21
176.42613636363637
  0
LINE
  8
_0-3_A0
  6
CONTINUOUS
 62
    3
 10
273.05599999999992
 20
176.42613636363637
 11
273.07599999999996
 21
176.41013636363638
  0
LINE
  8
_0-3_A0
  6
CONTINUOUS
 62
    3
 10
273.07599999999996
 20
176.41013636363638
 11
273.09799999999995
 21
176.39413636363636
  0
LINE
  8
_0-3_A0
  6
CONTINUOUS
 62
    3
 10
273.09799999999995
 20
176.39413636363636
 11
273.11999999999994
 21
176.38013636363638
  0
LINE
  8
_0-3_A0
  6
CONTINUOUS
 62
    3
 10
273.11999999999994
 20
176.38013636363638
 11
273.14299999999991
 21
176.36613636363637
  0
LINE
  8
_0-3_A0
  6
CONTINUOUS
 62
    3
 10
273.14299999999991
 20
176.36613636363637
 11
273.16699999999991
 21
176.35213636363636
  0
LINE
  8
_0-3_A0
  6
CONTINUOUS
 62
    3
 10
273.16699999999991
 20
176.35213636363636
 11
273.19199999999995
 21
176.34013636363636
  0
LINE
  8
_0-3_A0
  6
CONTINUOUS
 62
    3
 10
273.19199999999995
 20
176.34013636363636
 11
273.21799999999996
 21
176.32913636363636
  0
LINE
  8
_0-3_A0
  6
CONTINUOUS
 62
    3
 10
273.21799999999996
 20
176.32913636363636
 11
273.24499999999994
 21
176.31813636363636
  0
LINE
  8
_0-3_A0
  6
CONTINUOUS
 62
    3
 10
273.24499999999994
 20
176.31813636363636
 11
273.27199999999993
 21
176.30813636363637
  0
LINE
  8
_0-3_A0
  6
CONTINUOUS
 62
    3
 10
273.27199999999993
 20
176.30813636363637
 11
273.29999999999995
 21
176.30013636363636
  0
LINE
  8
_0-3_A0
  6
CONTINUOUS
 62
    3
 10
273.29999999999995
 20
176.30013636363636
 11
273.32899999999995
 21
176.29213636363635
  0
LINE
  8
_0-3_A0
  6
CONTINUOUS
 62
    3
 10
273.32899999999995
 20
176.29213636363635
 11
273.35799999999994
 21
176.28513636363638
  0
LINE
  8
_0-3_A0
  6
CONTINUOUS
 62
    3
 10
273.35799999999994
 20
176.28513636363638
 11
273.38799999999991
 21
176.27913636363638
  0
LINE
  8
_0-3_A0
  6
CONTINUOUS
 62
    3
 10
273.38799999999991
 20
176.27913636363638
 11
273.41799999999994
 21
176.27513636363636
  0
LINE
  8
_0-3_A0
  6
CONTINUOUS
 62
    3
 10
273.41799999999994
 20
176.27513636363636
 11
273.44799999999992
 21
176.27113636363637
  0
LINE
  8
_0-3_A0
  6
CONTINUOUS
 62
    3
 10
273.44799999999992
 20
176.27113636363637
 11
273.47799999999995
 21
176.26813636363635
  0
LINE
  8
_0-3_A0
  6
CONTINUOUS
 62
    3
 10
273.47799999999995
 20
176.26813636363635
 11
273.50899999999995
 21
176.26713636363638
  0
LINE
  8
_0-3_A0
  6
CONTINUOUS
 62
    3
 10
273.50899999999995
 20
176.26713636363638
 11
273.53899999999993
 21
176.26613636363637
  0
LINE
  8
_0-3_A0
  6
CONTINUOUS
 62
    3
 10
273.53899999999993
 20
176.26613636363637
 11
273.56999999999993
 21
176.26713636363638
  0
LINE
  8
_0-3_A0
  6
CONTINUOUS
 62
    3
 10
273.56999999999993
 20
176.26713636363638
 11
273.60099999999994
 21
176.26813636363635
  0
LINE
  8
_0-3_A0
  6
CONTINUOUS
 62
    3
 10
273.60099999999994
 20
176.26813636363635
 11
273.63099999999991
 21
176.27113636363637
  0
LINE
  8
_0-3_A0
  6
CONTINUOUS
 62
    3
 10
273.63099999999991
 20
176.27113636363637
 11
273.66099999999994
 21
176.27513636363636
  0
LINE
  8
_0-3_A0
  6
CONTINUOUS
 62
    3
 10
273.66099999999994
 20
176.27513636363636
 11
273.69099999999991
 21
176.27913636363638
  0
LINE
  8
_0-3_A0
  6
CONTINUOUS
 62
    3
 10
273.69099999999991
 20
176.27913636363638
 11
273.72099999999994
 21
176.28513636363638
  0
LINE
  8
_0-3_A0
  6
CONTINUOUS
 62
    3
 10
273.72099999999994
 20
176.28513636363638
 11
273.74999999999994
 21
176.29213636363635
  0
LINE
  8
_0-3_A0
  6
CONTINUOUS
 62
    3
 10
273.74999999999994
 20
176.29213636363635
 11
273.77899999999993
 21
176.30013636363636
  0
LINE
  8
_0-3_A0
  6
CONTINUOUS
 62
    3
 10
273.77899999999993
 20
176.30013636363636
 11
273.80699999999995
 21
176.30813636363637
  0
LINE
  8
_0-3_A0
  6
CONTINUOUS
 62
    3
 10
273.80699999999995
 20
176.30813636363637
 11
273.83399999999994
 21
176.31813636363636
  0
LINE
  8
_0-3_A0
  6
CONTINUOUS
 62
    3
 10
273.83399999999994
 20
176.31813636363636
 11
273.86099999999993
 21
176.32913636363636
  0
LINE
  8
_0-3_A0
  6
CONTINUOUS
 62
    3
 10
273.86099999999993
 20
176.32913636363636
 11
273.88699999999994
 21
176.34013636363636
  0
LINE
  8
_0-3_A0
  6
CONTINUOUS
 62
    3
 10
273.88699999999994
 20
176.34013636363636
 11
273.91199999999992
 21
176.35213636363636
  0
LINE
  8
_0-3_A0
  6
CONTINUOUS
 62
    3
 10
273.91199999999992
 20
176.35213636363636
 11
273.93599999999992
 21
176.36613636363637
  0
LINE
  8
_0-3_A0
  6
CONTINUOUS
 62
    3
 10
273.93599999999992
 20
176.36613636363637
 11
273.95899999999994
 21
176.38013636363638
  0
LINE
  8
_0-3_A0
  6
CONTINUOUS
 62
    3
 10
273.95899999999994
 20
176.38013636363638
 11
273.98099999999993
 21
176.39413636363636
  0
LINE
  8
_0-3_A0
  6
CONTINUOUS
 62
    3
 10
273.98099999999993
 20
176.39413636363636
 11
274.00299999999992
 21
176.41013636363638
  0
LINE
  8
_0-3_A0
  6
CONTINUOUS
 62
    3
 10
274.00299999999992
 20
176.41013636363638
 11
274.02299999999996
 21
176.42613636363637
  0
LINE
  8
_0-3_A0
  6
CONTINUOUS
 62
    3
 10
274.02299999999996
 20
176.42613636363637
 11
274.04099999999993
 21
176.44313636363636
  0
LINE
  8
_0-3_A0
  6
CONTINUOUS
 62
    3
 10
274.04099999999993
 20
176.44313636363636
 11
274.05899999999996
 21
176.46113636363637
  0
LINE
  8
_0-3_A0
  6
CONTINUOUS
 62
    3
 10
274.05899999999996
 20
176.46113636363637
 11
274.07599999999996
 21
176.47913636363637
  0
LINE
  8
_0-3_A0
  6
CONTINUOUS
 62
    3
 10
274.07599999999996
 20
176.47913636363637
 11
274.09099999999995
 21
176.49813636363637
  0
LINE
  8
_0-3_A0
  6
CONTINUOUS
 62
    3
 10
274.09099999999995
 20
176.49813636363637
 11
274.10399999999992
 21
176.51713636363638
  0
LINE
  8
_0-3_A0
  6
CONTINUOUS
 62
    3
 10
274.10399999999992
 20
176.51713636363638
 11
274.11699999999996
 21
176.53613636363635
  0
LINE
  8
_0-3_A0
  6
CONTINUOUS
 62
    3
 10
274.11699999999996
 20
176.53613636363635
 11
274.12799999999992
 21
176.55613636363636
  0
LINE
  8
_0-3_A0
  6
CONTINUOUS
 62
    3
 10
274.12799999999992
 20
176.55613636363636
 11
274.13799999999991
 21
176.57713636363638
  0
LINE
  8
_0-3_A0
  6
CONTINUOUS
 62
    3
 10
274.13799999999991
 20
176.57713636363638
 11
274.14599999999995
 21
176.59713636363636
  0
LINE
  8
_0-3_A0
  6
CONTINUOUS
 62
    3
 10
274.14599999999995
 20
176.59713636363636
 11
274.15199999999992
 21
176.61813636363638
  0
LINE
  8
_0-3_A0
  6
CONTINUOUS
 62
    3
 10
274.15199999999992
 20
176.61813636363638
 11
274.15799999999995
 21
176.64013636363637
  0
LINE
  8
_0-3_A0
  6
CONTINUOUS
 62
    3
 10
274.15799999999995
 20
176.64013636363637
 11
274.16099999999994
 21
176.66113636363635
  0
LINE
  8
_0-3_A0
  6
CONTINUOUS
 62
    3
 10
274.16099999999994
 20
176.66113636363635
 11
274.16399999999993
 21
176.68213636363637
  0
LINE
  8
_0-3_A0
  6
CONTINUOUS
 62
    3
 10
274.16399999999993
 20
176.68213636363637
 11
274.16399999999993
 21
176.70413636363636
  0
LINE
  8
_0-3_A0
  6
CONTINUOUS
 62
    3
 10
202.66399999999993
 20
148.45213636363638
 11
202.66399999999993
 21
148.47913636363637
  0
LINE
  8
_0-3_A0
  6
CONTINUOUS
 62
    3
 10
202.66399999999993
 20
148.47913636363637
 11
202.66099999999994
 21
148.50713636363636
  0
LINE
  8
_0-3_A0
  6
CONTINUOUS
 62
    3
 10
202.66099999999994
 20
148.50713636363636
 11
202.65799999999993
 21
148.53413636363637
  0
LINE
  8
_0-3_A0
  6
CONTINUOUS
 62
    3
 10
202.65799999999993
 20
148.53413636363637
 11
202.65199999999992
 21
148.56113636363636
  0
LINE
  8
_0-3_A0
  6
CONTINUOUS
 62
    3
 10
202.65199999999992
 20
148.56113636363636
 11
202.64599999999992
 21
148.58813636363638
  0
LINE
  8
_0-3_A0
  6
CONTINUOUS
 62
    3
 10
202.64599999999992
 20
148.58813636363638
 11
202.63799999999994
 21
148.61513636363636
  0
LINE
  8
_0-3_A0
  6
CONTINUOUS
 62
    3
 10
202.63799999999994
 20
148.61513636363636
 11
202.62799999999992
 21
148.64113636363637
  0
LINE
  8
_0-3_A0
  6
CONTINUOUS
 62
    3
 10
202.62799999999992
 20
148.64113636363637
 11
202.61699999999993
 21
148.66713636363635
  0
LINE
  8
_0-3_A0
  6
CONTINUOUS
 62
    3
 10
202.61699999999993
 20
148.66713636363635
 11
202.60399999999995
 21
148.69213636363636
  0
LINE
  8
_0-3_A0
  6
CONTINUOUS
 62
    3
 10
202.60399999999995
 20
148.69213636363636
 11
202.59099999999995
 21
148.71713636363637
  0
LINE
  8
_0-3_A0
  6
CONTINUOUS
 62
    3
 10
202.59099999999995
 20
148.71713636363637
 11
202.57599999999993
 21
148.74113636363637
  0
LINE
  8
_0-3_A0
  6
CONTINUOUS
 62
    3
 10
202.57599999999993
 20
148.74113636363637
 11
202.55899999999994
 21
148.76413636363636
  0
LINE
  8
_0-3_A0
  6
CONTINUOUS
 62
    3
 10
202.55899999999994
 20
148.76413636363636
 11
202.54099999999993
 21
148.78713636363636
  0
LINE
  8
_0-3_A0
  6
CONTINUOUS
 62
    3
 10
202.54099999999993
 20
148.78713636363636
 11
202.52299999999993
 21
148.80813636363637
  0
LINE
  8
_0-3_A0
  6
CONTINUOUS
 62
    3
 10
202.52299999999993
 20
148.80813636363637
 11
202.50299999999992
 21
148.82913636363636
  0
LINE
  8
_0-3_A0
  6
CONTINUOUS
 62
    3
 10
202.50299999999992
 20
148.82913636363636
 11
202.48099999999993
 21
148.84913636363637
  0
LINE
  8
_0-3_A0
  6
CONTINUOUS
 62
    3
 10
202.48099999999993
 20
148.84913636363637
 11
202.45899999999994
 21
148.86813636363638
  0
LINE
  8
_0-3_A0
  6
CONTINUOUS
 62
    3
 10
202.45899999999994
 20
148.86813636363638
 11
202.43599999999995
 21
148.88613636363638
  0
LINE
  8
_0-3_A0
  6
CONTINUOUS
 62
    3
 10
202.43599999999995
 20
148.88613636363638
 11
202.41199999999994
 21
148.90313636363637
  0
LINE
  8
_0-3_A0
  6
CONTINUOUS
 62
    3
 10
202.41199999999994
 20
148.90313636363637
 11
202.38699999999994
 21
148.91913636363636
  0
LINE
  8
_0-3_A0
  6
CONTINUOUS
 62
    3
 10
202.38699999999994
 20
148.91913636363636
 11
202.36099999999993
 21
148.93413636363638
  0
LINE
  8
_0-3_A0
  6
CONTINUOUS
 62
    3
 10
202.36099999999993
 20
148.93413636363638
 11
202.33399999999994
 21
148.94813636363636
  0
LINE
  8
_0-3_A0
  6
CONTINUOUS
 62
    3
 10
202.33399999999994
 20
148.94813636363636
 11
202.30699999999993
 21
148.96013636363636
  0
LINE
  8
_0-3_A0
  6
CONTINUOUS
 62
    3
 10
202.30699999999993
 20
148.96013636363636
 11
202.27899999999993
 21
148.97113636363636
  0
LINE
  8
_0-3_A0
  6
CONTINUOUS
 62
    3
 10
202.27899999999993
 20
148.97113636363636
 11
202.24999999999994
 21
148.98113636363638
  0
LINE
  8
_0-3_A0
  6
CONTINUOUS
 62
    3
 10
202.24999999999994
 20
148.98113636363638
 11
202.22099999999994
 21
148.99013636363636
  0
LINE
  8
_0-3_A0
  6
CONTINUOUS
 62
    3
 10
202.22099999999994
 20
148.99013636363636
 11
202.19099999999994
 21
148.99713636363637
  0
LINE
  8
_0-3_A0
  6
CONTINUOUS
 62
    3
 10
202.19099999999994
 20
148.99713636363637
 11
202.16099999999994
 21
149.00313636363637
  0
LINE
  8
_0-3_A0
  6
CONTINUOUS
 62
    3
 10
202.16099999999994
 20
149.00313636363637
 11
202.13099999999994
 21
149.00813636363636
  0
LINE
  8
_0-3_A0
  6
CONTINUOUS
 62
    3
 10
202.13099999999994
 20
149.00813636363636
 11
202.10099999999994
 21
149.01113636363638
  0
LINE
  8
_0-3_A0
  6
CONTINUOUS
 62
    3
 10
202.10099999999994
 20
149.01113636363638
 11
202.06999999999993
 21
149.01313636363636
  0
LINE
  8
_0-3_A0
  6
CONTINUOUS
 62
    3
 10
202.06999999999993
 20
149.01313636363636
 11
202.03899999999993
 21
149.01413636363636
  0
LINE
  8
_0-3_A0
  6
CONTINUOUS
 62
    3
 10
202.03899999999993
 20
149.01413636363636
 11
202.00899999999992
 21
149.01313636363636
  0
LINE
  8
_0-3_A0
  6
CONTINUOUS
 62
    3
 10
202.00899999999992
 20
149.01313636363636
 11
201.97799999999995
 21
149.01113636363638
  0
LINE
  8
_0-3_A0
  6
CONTINUOUS
 62
    3
 10
201.97799999999995
 20
149.01113636363638
 11
201.94799999999995
 21
149.00813636363636
  0
LINE
  8
_0-3_A0
  6
CONTINUOUS
 62
    3
 10
201.94799999999995
 20
149.00813636363636
 11
201.91799999999994
 21
149.00313636363637
  0
LINE
  8
_0-3_A0
  6
CONTINUOUS
 62
    3
 10
201.91799999999994
 20
149.00313636363637
 11
201.88799999999994
 21
148.99713636363637
  0
LINE
  8
_0-3_A0
  6
CONTINUOUS
 62
    3
 10
201.88799999999994
 20
148.99713636363637
 11
201.85799999999994
 21
148.99013636363636
  0
LINE
  8
_0-3_A0
  6
CONTINUOUS
 62
    3
 10
201.85799999999994
 20
148.99013636363636
 11
201.82899999999995
 21
148.98113636363638
  0
LINE
  8
_0-3_A0
  6
CONTINUOUS
 62
    3
 10
201.82899999999995
 20
148.98113636363638
 11
201.79999999999995
 21
148.97113636363636
  0
LINE
  8
_0-3_A0
  6
CONTINUOUS
 62
    3
 10
201.79999999999995
 20
148.97113636363636
 11
201.77199999999993
 21
148.96013636363636
  0
LINE
  8
_0-3_A0
  6
CONTINUOUS
 62
    3
 10
201.77199999999993
 20
148.96013636363636
 11
201.74499999999994
 21
148.94813636363636
  0
LINE
  8
_0-3_A0
  6
CONTINUOUS
 62
    3
 10
201.74499999999994
 20
148.94813636363636
 11
201.71799999999993
 21
148.93413636363638
  0
LINE
  8
_0-3_A0
  6
CONTINUOUS
 62
    3
 10
201.71799999999993
 20
148.93413636363638
 11
201.69199999999995
 21
148.91913636363636
  0
LINE
  8
_0-3_A0
  6
CONTINUOUS
 62
    3
 10
201.69199999999995
 20
148.91913636363636
 11
201.66699999999994
 21
148.90313636363637
  0
LINE
  8
_0-3_A0
  6
CONTINUOUS
 62
    3
 10
201.66699999999994
 20
148.90313636363637
 11
201.64299999999994
 21
148.88613636363638
  0
LINE
  8
_0-3_A0
  6
CONTINUOUS
 62
    3
 10
201.64299999999994
 20
148.88613636363638
 11
201.61999999999994
 21
148.86813636363638
  0
LINE
  8
_0-3_A0
  6
CONTINUOUS
 62
    3
 10
201.61999999999994
 20
148.86813636363638
 11
201.59799999999995
 21
148.84913636363637
  0
LINE
  8
_0-3_A0
  6
CONTINUOUS
 62
    3
 10
201.59799999999995
 20
148.84913636363637
 11
201.57599999999993
 21
148.82913636363636
  0
LINE
  8
_0-3_A0
  6
CONTINUOUS
 62
    3
 10
201.57599999999993
 20
148.82913636363636
 11
201.55599999999995
 21
148.80813636363637
  0
LINE
  8
_0-3_A0
  6
CONTINUOUS
 62
    3
 10
201.55599999999995
 20
148.80813636363637
 11
201.53699999999994
 21
148.78713636363636
  0
LINE
  8
_0-3_A0
  6
CONTINUOUS
 62
    3
 10
201.53699999999994
 20
148.78713636363636
 11
201.51999999999995
 21
148.76413636363636
  0
LINE
  8
_0-3_A0
  6
CONTINUOUS
 62
    3
 10
201.51999999999995
 20
148.76413636363636
 11
201.50299999999992
 21
148.74113636363637
  0
LINE
  8
_0-3_A0
  6
CONTINUOUS
 62
    3
 10
201.50299999999992
 20
148.74113636363637
 11
201.48799999999994
 21
148.71713636363637
  0
LINE
  8
_0-3_A0
  6
CONTINUOUS
 62
    3
 10
201.48799999999994
 20
148.71713636363637
 11
201.47399999999993
 21
148.69213636363636
  0
LINE
  8
_0-3_A0
  6
CONTINUOUS
 62
    3
 10
201.47399999999993
 20
148.69213636363636
 11
201.46199999999993
 21
148.66713636363635
  0
LINE
  8
_0-3_A0
  6
CONTINUOUS
 62
    3
 10
201.46199999999993
 20
148.66713636363635
 11
201.45099999999993
 21
148.64113636363637
  0
LINE
  8
_0-3_A0
  6
CONTINUOUS
 62
    3
 10
201.45099999999993
 20
148.64113636363637
 11
201.44099999999994
 21
148.61513636363636
  0
LINE
  8
_0-3_A0
  6
CONTINUOUS
 62
    3
 10
201.44099999999994
 20
148.61513636363636
 11
201.43299999999993
 21
148.58813636363638
  0
LINE
  8
_0-3_A0
  6
CONTINUOUS
 62
    3
 10
201.43299999999993
 20
148.58813636363638
 11
201.42599999999993
 21
148.56113636363636
  0
LINE
  8
_0-3_A0
  6
CONTINUOUS
 62
    3
 10
201.42599999999993
 20
148.56113636363636
 11
201.42099999999993
 21
148.53413636363637
  0
LINE
  8
_0-3_A0
  6
CONTINUOUS
 62
    3
 10
201.42099999999993
 20
148.53413636363637
 11
201.41699999999994
 21
148.50713636363636
  0
LINE
  8
_0-3_A0
  6
CONTINUOUS
 62
    3
 10
201.41699999999994
 20
148.50713636363636
 11
201.41499999999993
 21
148.47913636363637
  0
LINE
  8
_0-3_A0
  6
CONTINUOUS
 62
    3
 10
201.41499999999993
 20
148.47913636363637
 11
201.41399999999993
 21
148.45213636363638
  0
LINE
  8
_0-3_A0
  6
CONTINUOUS
 62
    3
 10
201.41399999999993
 20
148.45213636363638
 11
201.41499999999993
 21
148.42413636363636
  0
LINE
  8
_0-3_A0
  6
CONTINUOUS
 62
    3
 10
201.41499999999993
 20
148.42413636363636
 11
201.41699999999994
 21
148.39613636363637
  0
LINE
  8
_0-3_A0
  6
CONTINUOUS
 62
    3
 10
201.41699999999994
 20
148.39613636363637
 11
201.42099999999993
 21
148.36913636363635
  0
LINE
  8
_0-3_A0
  6
CONTINUOUS
 62
    3
 10
201.42099999999993
 20
148.36913636363635
 11
201.42599999999993
 21
148.34213636363637
  0
LINE
  8
_0-3_A0
  6
CONTINUOUS
 62
    3
 10
201.42599999999993
 20
148.34213636363637
 11
201.43299999999993
 21
148.31513636363638
  0
LINE
  8
_0-3_A0
  6
CONTINUOUS
 62
    3
 10
201.43299999999993
 20
148.31513636363638
 11
201.44099999999994
 21
148.28813636363636
  0
LINE
  8
_0-3_A0
  6
CONTINUOUS
 62
    3
 10
201.44099999999994
 20
148.28813636363636
 11
201.45099999999993
 21
148.26213636363635
  0
LINE
  8
_0-3_A0
  6
CONTINUOUS
 62
    3
 10
201.45099999999993
 20
148.26213636363635
 11
201.46199999999993
 21
148.23613636363637
  0
LINE
  8
_0-3_A0
  6
CONTINUOUS
 62
    3
 10
201.46199999999993
 20
148.23613636363637
 11
201.47399999999993
 21
148.21113636363637
  0
LINE
  8
_0-3_A0
  6
CONTINUOUS
 62
    3
 10
201.47399999999993
 20
148.21113636363637
 11
201.48799999999994
 21
148.18613636363636
  0
LINE
  8
_0-3_A0
  6
CONTINUOUS
 62
    3
 10
201.48799999999994
 20
148.18613636363636
 11
201.50299999999992
 21
148.16213636363636
  0
LINE
  8
_0-3_A0
  6
CONTINUOUS
 62
    3
 10
201.50299999999992
 20
148.16213636363636
 11
201.51999999999995
 21
148.13913636363636
  0
LINE
  8
_0-3_A0
  6
CONTINUOUS
 62
    3
 10
201.51999999999995
 20
148.13913636363636
 11
201.53699999999994
 21
148.11613636363637
  0
LINE
  8
_0-3_A0
  6
CONTINUOUS
 62
    3
 10
201.53699999999994
 20
148.11613636363637
 11
201.55599999999995
 21
148.09513636363638
  0
LINE
  8
_0-3_A0
  6
CONTINUOUS
 62
    3
 10
201.55599999999995
 20
148.09513636363638
 11
201.57599999999993
 21
148.07413636363637
  0
LINE
  8
_0-3_A0
  6
CONTINUOUS
 62
    3
 10
201.57599999999993
 20
148.07413636363637
 11
201.59799999999995
 21
148.05413636363635
  0
LINE
  8
_0-3_A0
  6
CONTINUOUS
 62
    3
 10
201.59799999999995
 20
148.05413636363635
 11
201.61999999999994
 21
148.03513636363638
  0
LINE
  8
_0-3_A0
  6
CONTINUOUS
 62
    3
 10
201.61999999999994
 20
148.03513636363638
 11
201.64299999999994
 21
148.01713636363638
  0
LINE
  8
_0-3_A0
  6
CONTINUOUS
 62
    3
 10
201.64299999999994
 20
148.01713636363638
 11
201.66699999999994
 21
148.00013636363635
  0
LINE
  8
_0-3_A0
  6
CONTINUOUS
 62
    3
 10
201.66699999999994
 20
148.00013636363635
 11
201.69199999999995
 21
147.98413636363636
  0
LINE
  8
_0-3_A0
  6
CONTINUOUS
 62
    3
 10
201.69199999999995
 20
147.98413636363636
 11
201.71799999999993
 21
147.96913636363638
  0
LINE
  8
_0-3_A0
  6
CONTINUOUS
 62
    3
 10
201.71799999999993
 20
147.96913636363638
 11
201.74499999999994
 21
147.95513636363637
  0
LINE
  8
_0-3_A0
  6
CONTINUOUS
 62
    3
 10
201.74499999999994
 20
147.95513636363637
 11
201.77199999999993
 21
147.94313636363636
  0
LINE
  8
_0-3_A0
  6
CONTINUOUS
 62
    3
 10
201.77199999999993
 20
147.94313636363636
 11
201.79999999999995
 21
147.93213636363637
  0
LINE
  8
_0-3_A0
  6
CONTINUOUS
 62
    3
 10
201.79999999999995
 20
147.93213636363637
 11
201.82899999999995
 21
147.92213636363638
  0
LINE
  8
_0-3_A0
  6
CONTINUOUS
 62
    3
 10
201.82899999999995
 20
147.92213636363638
 11
201.85799999999994
 21
147.91313636363636
  0
LINE
  8
_0-3_A0
  6
CONTINUOUS
 62
    3
 10
201.85799999999994
 20
147.91313636363636
 11
201.88799999999994
 21
147.90613636363636
  0
LINE
  8
_0-3_A0
  6
CONTINUOUS
 62
    3
 10
201.88799999999994
 20
147.90613636363636
 11
201.91799999999994
 21
147.90013636363636
  0
LINE
  8
_0-3_A0
  6
CONTINUOUS
 62
    3
 10
201.91799999999994
 20
147.90013636363636
 11
201.94799999999995
 21
147.89513636363636
  0
LINE
  8
_0-3_A0
  6
CONTINUOUS
 62
    3
 10
201.94799999999995
 20
147.89513636363636
 11
201.97799999999995
 21
147.89213636363638
  0
LINE
  8
_0-3_A0
  6
CONTINUOUS
 62
    3
 10
201.97799999999995
 20
147.89213636363638
 11
202.00899999999992
 21
147.89013636363637
  0
LINE
  8
_0-3_A0
  6
CONTINUOUS
 62
    3
 10
202.00899999999992
 20
147.89013636363637
 11
202.03899999999993
 21
147.88913636363636
  0
LINE
  8
_0-3_A0
  6
CONTINUOUS
 62
    3
 10
202.03899999999993
 20
147.88913636363636
 11
202.06999999999993
 21
147.89013636363637
  0
LINE
  8
_0-3_A0
  6
CONTINUOUS
 62
    3
 10
202.06999999999993
 20
147.89013636363637
 11
202.10099999999994
 21
147.89213636363638
  0
LINE
  8
_0-3_A0
  6
CONTINUOUS
 62
    3
 10
202.10099999999994
 20
147.89213636363638
 11
202.13099999999994
 21
147.89513636363636
  0
LINE
  8
_0-3_A0
  6
CONTINUOUS
 62
    3
 10
202.13099999999994
 20
147.89513636363636
 11
202.16099999999994
 21
147.90013636363636
  0
LINE
  8
_0-3_A0
  6
CONTINUOUS
 62
    3
 10
202.16099999999994
 20
147.90013636363636
 11
202.19099999999994
 21
147.90613636363636
  0
LINE
  8
_0-3_A0
  6
CONTINUOUS
 62
    3
 10
202.19099999999994
 20
147.90613636363636
 11
202.22099999999994
 21
147.91313636363636
  0
LINE
  8
_0-3_A0
  6
CONTINUOUS
 62
    3
 10
202.22099999999994
 20
147.91313636363636
 11
202.24999999999994
 21
147.92213636363638
  0
LINE
  8
_0-3_A0
  6
CONTINUOUS
 62
    3
 10
202.24999999999994
 20
147.92213636363638
 11
202.27899999999993
 21
147.93213636363637
  0
LINE
  8
_0-3_A0
  6
CONTINUOUS
 62
    3
 10
202.27899999999993
 20
147.93213636363637
 11
202.30699999999993
 21
147.94313636363636
  0
LINE
  8
_0-3_A0
  6
CONTINUOUS
 62
    3
 10
202.30699999999993
 20
147.94313636363636
 11
202.33399999999994
 21
147.95513636363637
  0
LINE
  8
_0-3_A0
  6
CONTINUOUS
 62
    3
 10
202.33399999999994
 20
147.95513636363637
 11
202.36099999999993
 21
147.96913636363638
  0
LINE
  8
_0-3_A0
  6
CONTINUOUS
 62
    3
 10
202.36099999999993
 20
147.96913636363638
 11
202.38699999999994
 21
147.98413636363636
  0
LINE
  8
_0-3_A0
  6
CONTINUOUS
 62
    3
 10
202.38699999999994
 20
147.98413636363636
 11
202.41199999999994
 21
148.00013636363635
  0
LINE
  8
_0-3_A0
  6
CONTINUOUS
 62
    3
 10
202.41199999999994
 20
148.00013636363635
 11
202.43599999999995
 21
148.01713636363638
  0
LINE
  8
_0-3_A0
  6
CONTINUOUS
 62
    3
 10
202.43599999999995
 20
148.01713636363638
 11
202.45899999999994
 21
148.03513636363638
  0
LINE
  8
_0-3_A0
  6
CONTINUOUS
 62
    3
 10
202.45899999999994
 20
148.03513636363638
 11
202.48099999999993
 21
148.05413636363635
  0
LINE
  8
_0-3_A0
  6
CONTINUOUS
 62
    3
 10
202.48099999999993
 20
148.05413636363635
 11
202.50299999999992
 21
148.07413636363637
  0
LINE
  8
_0-3_A0
  6
CONTINUOUS
 62
    3
 10
202.50299999999992
 20
148.07413636363637
 11
202.52299999999993
 21
148.09513636363638
  0
LINE
  8
_0-3_A0
  6
CONTINUOUS
 62
    3
 10
202.52299999999993
 20
148.09513636363638
 11
202.54099999999993
 21
148.11613636363637
  0
LINE
  8
_0-3_A0
  6
CONTINUOUS
 62
    3
 10
202.54099999999993
 20
148.11613636363637
 11
202.55899999999994
 21
148.13913636363636
  0
LINE
  8
_0-3_A0
  6
CONTINUOUS
 62
    3
 10
202.55899999999994
 20
148.13913636363636
 11
202.57599999999993
 21
148.16213636363636
  0
LINE
  8
_0-3_A0
  6
CONTINUOUS
 62
    3
 10
202.57599999999993
 20
148.16213636363636
 11
202.59099999999995
 21
148.18613636363636
  0
LINE
  8
_0-3_A0
  6
CONTINUOUS
 62
    3
 10
202.59099999999995
 20
148.18613636363636
 11
202.60399999999995
 21
148.21113636363637
  0
LINE
  8
_0-3_A0
  6
CONTINUOUS
 62
    3
 10
202.60399999999995
 20
148.21113636363637
 11
202.61699999999993
 21
148.23613636363637
  0
LINE
  8
_0-3_A0
  6
CONTINUOUS
 62
    3
 10
202.61699999999993
 20
148.23613636363637
 11
202.62799999999992
 21
148.26213636363635
  0
LINE
  8
_0-3_A0
  6
CONTINUOUS
 62
    3
 10
202.62799999999992
 20
148.26213636363635
 11
202.63799999999994
 21
148.28813636363636
  0
LINE
  8
_0-3_A0
  6
CONTINUOUS
 62
    3
 10
202.63799999999994
 20
148.28813636363636
 11
202.64599999999992
 21
148.31513636363638
  0
LINE
  8
_0-3_A0
  6
CONTINUOUS
 62
    3
 10
202.64599999999992
 20
148.31513636363638
 11
202.65199999999992
 21
148.34213636363637
  0
LINE
  8
_0-3_A0
  6
CONTINUOUS
 62
    3
 10
202.65199999999992
 20
148.34213636363637
 11
202.65799999999993
 21
148.36913636363635
  0
LINE
  8
_0-3_A0
  6
CONTINUOUS
 62
    3
 10
202.65799999999993
 20
148.36913636363635
 11
202.66099999999994
 21
148.39613636363637
  0
LINE
  8
_0-3_A0
  6
CONTINUOUS
 62
    3
 10
202.66099999999994
 20
148.39613636363637
 11
202.66399999999993
 21
148.42413636363636
  0
LINE
  8
_0-3_A0
  6
CONTINUOUS
 62
    3
 10
202.66399999999993
 20
148.42413636363636
 11
202.66399999999993
 21
148.45213636363638
  0
LINE
  8
_0-3_A0
  6
CONTINUOUS
 62
    3
 10
274.16399999999993
 20
148.45213636363638
 11
274.16399999999993
 21
148.47913636363637
  0
LINE
  8
_0-3_A0
  6
CONTINUOUS
 62
    3
 10
274.16399999999993
 20
148.47913636363637
 11
274.16099999999994
 21
148.50713636363636
  0
LINE
  8
_0-3_A0
  6
CONTINUOUS
 62
    3
 10
274.16099999999994
 20
148.50713636363636
 11
274.15799999999995
 21
148.53413636363637
  0
LINE
  8
_0-3_A0
  6
CONTINUOUS
 62
    3
 10
274.15799999999995
 20
148.53413636363637
 11
274.15199999999992
 21
148.56113636363636
  0
LINE
  8
_0-3_A0
  6
CONTINUOUS
 62
    3
 10
274.15199999999992
 20
148.56113636363636
 11
274.14599999999995
 21
148.58813636363638
  0
LINE
  8
_0-3_A0
  6
CONTINUOUS
 62
    3
 10
274.14599999999995
 20
148.58813636363638
 11
274.13799999999991
 21
148.61513636363636
  0
LINE
  8
_0-3_A0
  6
CONTINUOUS
 62
    3
 10
274.13799999999991
 20
148.61513636363636
 11
274.12799999999992
 21
148.64113636363637
  0
LINE
  8
_0-3_A0
  6
CONTINUOUS
 62
    3
 10
274.12799999999992
 20
148.64113636363637
 11
274.11699999999996
 21
148.66713636363635
  0
LINE
  8
_0-3_A0
  6
CONTINUOUS
 62
    3
 10
274.11699999999996
 20
148.66713636363635
 11
274.10399999999992
 21
148.69213636363636
  0
LINE
  8
_0-3_A0
  6
CONTINUOUS
 62
    3
 10
274.10399999999992
 20
148.69213636363636
 11
274.09099999999995
 21
148.71713636363637
  0
LINE
  8
_0-3_A0
  6
CONTINUOUS
 62
    3
 10
274.09099999999995
 20
148.71713636363637
 11
274.07599999999996
 21
148.74113636363637
  0
LINE
  8
_0-3_A0
  6
CONTINUOUS
 62
    3
 10
274.07599999999996
 20
148.74113636363637
 11
274.05899999999996
 21
148.76413636363636
  0
LINE
  8
_0-3_A0
  6
CONTINUOUS
 62
    3
 10
274.05899999999996
 20
148.76413636363636
 11
274.04099999999993
 21
148.78713636363636
  0
LINE
  8
_0-3_A0
  6
CONTINUOUS
 62
    3
 10
274.04099999999993
 20
148.78713636363636
 11
274.02299999999996
 21
148.80813636363637
  0
LINE
  8
_0-3_A0
  6
CONTINUOUS
 62
    3
 10
274.02299999999996
 20
148.80813636363637
 11
274.00299999999992
 21
148.82913636363636
  0
LINE
  8
_0-3_A0
  6
CONTINUOUS
 62
    3
 10
274.00299999999992
 20
148.82913636363636
 11
273.98099999999993
 21
148.84913636363637
  0
LINE
  8
_0-3_A0
  6
CONTINUOUS
 62
    3
 10
273.98099999999993
 20
148.84913636363637
 11
273.95899999999994
 21
148.86813636363638
  0
LINE
  8
_0-3_A0
  6
CONTINUOUS
 62
    3
 10
273.95899999999994
 20
148.86813636363638
 11
273.93599999999992
 21
148.88613636363638
  0
LINE
  8
_0-3_A0
  6
CONTINUOUS
 62
    3
 10
273.93599999999992
 20
148.88613636363638
 11
273.91199999999992
 21
148.90313636363637
  0
LINE
  8
_0-3_A0
  6
CONTINUOUS
 62
    3
 10
273.91199999999992
 20
148.90313636363637
 11
273.88699999999994
 21
148.91913636363636
  0
LINE
  8
_0-3_A0
  6
CONTINUOUS
 62
    3
 10
273.88699999999994
 20
148.91913636363636
 11
273.86099999999993
 21
148.93413636363638
  0
LINE
  8
_0-3_A0
  6
CONTINUOUS
 62
    3
 10
273.86099999999993
 20
148.93413636363638
 11
273.83399999999994
 21
148.94813636363636
  0
LINE
  8
_0-3_A0
  6
CONTINUOUS
 62
    3
 10
273.83399999999994
 20
148.94813636363636
 11
273.80699999999995
 21
148.96013636363636
  0
LINE
  8
_0-3_A0
  6
CONTINUOUS
 62
    3
 10
273.80699999999995
 20
148.96013636363636
 11
273.77899999999993
 21
148.97113636363636
  0
LINE
  8
_0-3_A0
  6
CONTINUOUS
 62
    3
 10
273.77899999999993
 20
148.97113636363636
 11
273.74999999999994
 21
148.98113636363638
  0
LINE
  8
_0-3_A0
  6
CONTINUOUS
 62
    3
 10
273.74999999999994
 20
148.98113636363638
 11
273.72099999999994
 21
148.99013636363636
  0
LINE
  8
_0-3_A0
  6
CONTINUOUS
 62
    3
 10
273.72099999999994
 20
148.99013636363636
 11
273.69099999999991
 21
148.99713636363637
  0
LINE
  8
_0-3_A0
  6
CONTINUOUS
 62
    3
 10
273.69099999999991
 20
148.99713636363637
 11
273.66099999999994
 21
149.00313636363637
  0
LINE
  8
_0-3_A0
  6
CONTINUOUS
 62
    3
 10
273.66099999999994
 20
149.00313636363637
 11
273.63099999999991
 21
149.00813636363636
  0
LINE
  8
_0-3_A0
  6
CONTINUOUS
 62
    3
 10
273.63099999999991
 20
149.00813636363636
 11
273.60099999999994
 21
149.01113636363638
  0
LINE
  8
_0-3_A0
  6
CONTINUOUS
 62
    3
 10
273.60099999999994
 20
149.01113636363638
 11
273.56999999999993
 21
149.01313636363636
  0
LINE
  8
_0-3_A0
  6
CONTINUOUS
 62
    3
 10
273.56999999999993
 20
149.01313636363636
 11
273.53899999999993
 21
149.01413636363636
  0
LINE
  8
_0-3_A0
  6
CONTINUOUS
 62
    3
 10
273.53899999999993
 20
149.01413636363636
 11
273.50899999999995
 21
149.01313636363636
  0
LINE
  8
_0-3_A0
  6
CONTINUOUS
 62
    3
 10
273.50899999999995
 20
149.01313636363636
 11
273.47799999999995
 21
149.01113636363638
  0
LINE
  8
_0-3_A0
  6
CONTINUOUS
 62
    3
 10
273.47799999999995
 20
149.01113636363638
 11
273.44799999999992
 21
149.00813636363636
  0
LINE
  8
_0-3_A0
  6
CONTINUOUS
 62
    3
 10
273.44799999999992
 20
149.00813636363636
 11
273.41799999999994
 21
149.00313636363637
  0
LINE
  8
_0-3_A0
  6
CONTINUOUS
 62
    3
 10
273.41799999999994
 20
149.00313636363637
 11
273.38799999999991
 21
148.99713636363637
  0
LINE
  8
_0-3_A0
  6
CONTINUOUS
 62
    3
 10
273.38799999999991
 20
148.99713636363637
 11
273.35799999999994
 21
148.99013636363636
  0
LINE
  8
_0-3_A0
  6
CONTINUOUS
 62
    3
 10
273.35799999999994
 20
148.99013636363636
 11
273.32899999999995
 21
148.98113636363638
  0
LINE
  8
_0-3_A0
  6
CONTINUOUS
 62
    3
 10
273.32899999999995
 20
148.98113636363638
 11
273.29999999999995
 21
148.97113636363636
  0
LINE
  8
_0-3_A0
  6
CONTINUOUS
 62
    3
 10
273.29999999999995
 20
148.97113636363636
 11
273.27199999999993
 21
148.96013636363636
  0
LINE
  8
_0-3_A0
  6
CONTINUOUS
 62
    3
 10
273.27199999999993
 20
148.96013636363636
 11
273.24499999999994
 21
148.94813636363636
  0
LINE
  8
_0-3_A0
  6
CONTINUOUS
 62
    3
 10
273.24499999999994
 20
148.94813636363636
 11
273.21799999999996
 21
148.93413636363638
  0
LINE
  8
_0-3_A0
  6
CONTINUOUS
 62
    3
 10
273.21799999999996
 20
148.93413636363638
 11
273.19199999999995
 21
148.91913636363636
  0
LINE
  8
_0-3_A0
  6
CONTINUOUS
 62
    3
 10
273.19199999999995
 20
148.91913636363636
 11
273.16699999999991
 21
148.90313636363637
  0
LINE
  8
_0-3_A0
  6
CONTINUOUS
 62
    3
 10
273.16699999999991
 20
148.90313636363637
 11
273.14299999999991
 21
148.88613636363638
  0
LINE
  8
_0-3_A0
  6
CONTINUOUS
 62
    3
 10
273.14299999999991
 20
148.88613636363638
 11
273.11999999999994
 21
148.86813636363638
  0
LINE
  8
_0-3_A0
  6
CONTINUOUS
 62
    3
 10
273.11999999999994
 20
148.86813636363638
 11
273.09799999999995
 21
148.84913636363637
  0
LINE
  8
_0-3_A0
  6
CONTINUOUS
 62
    3
 10
273.09799999999995
 20
148.84913636363637
 11
273.07599999999996
 21
148.82913636363636
  0
LINE
  8
_0-3_A0
  6
CONTINUOUS
 62
    3
 10
273.07599999999996
 20
148.82913636363636
 11
273.05599999999992
 21
148.80813636363637
  0
LINE
  8
_0-3_A0
  6
CONTINUOUS
 62
    3
 10
273.05599999999992
 20
148.80813636363637
 11
273.03699999999992
 21
148.78713636363636
  0
LINE
  8
_0-3_A0
  6
CONTINUOUS
 62
    3
 10
273.03699999999992
 20
148.78713636363636
 11
273.01999999999992
 21
148.76413636363636
  0
LINE
  8
_0-3_A0
  6
CONTINUOUS
 62
    3
 10
273.01999999999992
 20
148.76413636363636
 11
273.00299999999992
 21
148.74113636363637
  0
LINE
  8
_0-3_A0
  6
CONTINUOUS
 62
    3
 10
273.00299999999992
 20
148.74113636363637
 11
272.98799999999994
 21
148.71713636363637
  0
LINE
  8
_0-3_A0
  6
CONTINUOUS
 62
    3
 10
272.98799999999994
 20
148.71713636363637
 11
272.97399999999993
 21
148.69213636363636
  0
LINE
  8
_0-3_A0
  6
CONTINUOUS
 62
    3
 10
272.97399999999993
 20
148.69213636363636
 11
272.96199999999993
 21
148.66713636363635
  0
LINE
  8
_0-3_A0
  6
CONTINUOUS
 62
    3
 10
272.96199999999993
 20
148.66713636363635
 11
272.95099999999996
 21
148.64113636363637
  0
LINE
  8
_0-3_A0
  6
CONTINUOUS
 62
    3
 10
272.95099999999996
 20
148.64113636363637
 11
272.94099999999991
 21
148.61513636363636
  0
LINE
  8
_0-3_A0
  6
CONTINUOUS
 62
    3
 10
272.94099999999991
 20
148.61513636363636
 11
272.93299999999993
 21
148.58813636363638
  0
LINE
  8
_0-3_A0
  6
CONTINUOUS
 62
    3
 10
272.93299999999993
 20
148.58813636363638
 11
272.92599999999993
 21
148.56113636363636
  0
LINE
  8
_0-3_A0
  6
CONTINUOUS
 62
    3
 10
272.92599999999993
 20
148.56113636363636
 11
272.92099999999993
 21
148.53413636363637
  0
LINE
  8
_0-3_A0
  6
CONTINUOUS
 62
    3
 10
272.92099999999993
 20
148.53413636363637
 11
272.91699999999991
 21
148.50713636363636
  0
LINE
  8
_0-3_A0
  6
CONTINUOUS
 62
    3
 10
272.91699999999991
 20
148.50713636363636
 11
272.91499999999996
 21
148.47913636363637
  0
LINE
  8
_0-3_A0
  6
CONTINUOUS
 62
    3
 10
272.91499999999996
 20
148.47913636363637
 11
272.91399999999993
 21
148.45213636363638
  0
LINE
  8
_0-3_A0
  6
CONTINUOUS
 62
    3
 10
272.91399999999993
 20
148.45213636363638
 11
272.91499999999996
 21
148.42413636363636
  0
LINE
  8
_0-3_A0
  6
CONTINUOUS
 62
    3
 10
272.91499999999996
 20
148.42413636363636
 11
272.91699999999991
 21
148.39613636363637
  0
LINE
  8
_0-3_A0
  6
CONTINUOUS
 62
    3
 10
272.91699999999991
 20
148.39613636363637
 11
272.92099999999993
 21
148.36913636363635
  0
LINE
  8
_0-3_A0
  6
CONTINUOUS
 62
    3
 10
272.92099999999993
 20
148.36913636363635
 11
272.92599999999993
 21
148.34213636363637
  0
LINE
  8
_0-3_A0
  6
CONTINUOUS
 62
    3
 10
272.92599999999993
 20
148.34213636363637
 11
272.93299999999993
 21
148.31513636363638
  0
LINE
  8
_0-3_A0
  6
CONTINUOUS
 62
    3
 10
272.93299999999993
 20
148.31513636363638
 11
272.94099999999991
 21
148.28813636363636
  0
LINE
  8
_0-3_A0
  6
CONTINUOUS
 62
    3
 10
272.94099999999991
 20
148.28813636363636
 11
272.95099999999996
 21
148.26213636363635
  0
LINE
  8
_0-3_A0
  6
CONTINUOUS
 62
    3
 10
272.95099999999996
 20
148.26213636363635
 11
272.96199999999993
 21
148.23613636363637
  0
LINE
  8
_0-3_A0
  6
CONTINUOUS
 62
    3
 10
272.96199999999993
 20
148.23613636363637
 11
272.97399999999993
 21
148.21113636363637
  0
LINE
  8
_0-3_A0
  6
CONTINUOUS
 62
    3
 10
272.97399999999993
 20
148.21113636363637
 11
272.98799999999994
 21
148.18613636363636
  0
LINE
  8
_0-3_A0
  6
CONTINUOUS
 62
    3
 10
272.98799999999994
 20
148.18613636363636
 11
273.00299999999992
 21
148.16213636363636
  0
LINE
  8
_0-3_A0
  6
CONTINUOUS
 62
    3
 10
273.00299999999992
 20
148.16213636363636
 11
273.01999999999992
 21
148.13913636363636
  0
LINE
  8
_0-3_A0
  6
CONTINUOUS
 62
    3
 10
273.01999999999992
 20
148.13913636363636
 11
273.03699999999992
 21
148.11613636363637
  0
LINE
  8
_0-3_A0
  6
CONTINUOUS
 62
    3
 10
273.03699999999992
 20
148.11613636363637
 11
273.05599999999992
 21
148.09513636363638
  0
LINE
  8
_0-3_A0
  6
CONTINUOUS
 62
    3
 10
273.05599999999992
 20
148.09513636363638
 11
273.07599999999996
 21
148.07413636363637
  0
LINE
  8
_0-3_A0
  6
CONTINUOUS
 62
    3
 10
273.07599999999996
 20
148.07413636363637
 11
273.09799999999995
 21
148.05413636363635
  0
LINE
  8
_0-3_A0
  6
CONTINUOUS
 62
    3
 10
273.09799999999995
 20
148.05413636363635
 11
273.11999999999994
 21
148.03513636363638
  0
LINE
  8
_0-3_A0
  6
CONTINUOUS
 62
    3
 10
273.11999999999994
 20
148.03513636363638
 11
273.14299999999991
 21
148.01713636363638
  0
LINE
  8
_0-3_A0
  6
CONTINUOUS
 62
    3
 10
273.14299999999991
 20
148.01713636363638
 11
273.16699999999991
 21
148.00013636363635
  0
LINE
  8
_0-3_A0
  6
CONTINUOUS
 62
    3
 10
273.16699999999991
 20
148.00013636363635
 11
273.19199999999995
 21
147.98413636363636
  0
LINE
  8
_0-3_A0
  6
CONTINUOUS
 62
    3
 10
273.19199999999995
 20
147.98413636363636
 11
273.21799999999996
 21
147.96913636363638
  0
LINE
  8
_0-3_A0
  6
CONTINUOUS
 62
    3
 10
273.21799999999996
 20
147.96913636363638
 11
273.24499999999994
 21
147.95513636363637
  0
LINE
  8
_0-3_A0
  6
CONTINUOUS
 62
    3
 10
273.24499999999994
 20
147.95513636363637
 11
273.27199999999993
 21
147.94313636363636
  0
LINE
  8
_0-3_A0
  6
CONTINUOUS
 62
    3
 10
273.27199999999993
 20
147.94313636363636
 11
273.29999999999995
 21
147.93213636363637
  0
LINE
  8
_0-3_A0
  6
CONTINUOUS
 62
    3
 10
273.29999999999995
 20
147.93213636363637
 11
273.32899999999995
 21
147.92213636363638
  0
LINE
  8
_0-3_A0
  6
CONTINUOUS
 62
    3
 10
273.32899999999995
 20
147.92213636363638
 11
273.35799999999994
 21
147.91313636363636
  0
LINE
  8
_0-3_A0
  6
CONTINUOUS
 62
    3
 10
273.35799999999994
 20
147.91313636363636
 11
273.38799999999991
 21
147.90613636363636
  0
LINE
  8
_0-3_A0
  6
CONTINUOUS
 62
    3
 10
273.38799999999991
 20
147.90613636363636
 11
273.41799999999994
 21
147.90013636363636
  0
LINE
  8
_0-3_A0
  6
CONTINUOUS
 62
    3
 10
273.41799999999994
 20
147.90013636363636
 11
273.44799999999992
 21
147.89513636363636
  0
LINE
  8
_0-3_A0
  6
CONTINUOUS
 62
    3
 10
273.44799999999992
 20
147.89513636363636
 11
273.47799999999995
 21
147.89213636363638
  0
LINE
  8
_0-3_A0
  6
CONTINUOUS
 62
    3
 10
273.47799999999995
 20
147.89213636363638
 11
273.50899999999995
 21
147.89013636363637
  0
LINE
  8
_0-3_A0
  6
CONTINUOUS
 62
    3
 10
273.50899999999995
 20
147.89013636363637
 11
273.53899999999993
 21
147.88913636363636
  0
LINE
  8
_0-3_A0
  6
CONTINUOUS
 62
    3
 10
273.53899999999993
 20
147.88913636363636
 11
273.56999999999993
 21
147.89013636363637
  0
LINE
  8
_0-3_A0
  6
CONTINUOUS
 62
    3
 10
273.56999999999993
 20
147.89013636363637
 11
273.60099999999994
 21
147.89213636363638
  0
LINE
  8
_0-3_A0
  6
CONTINUOUS
 62
    3
 10
273.60099999999994
 20
147.89213636363638
 11
273.63099999999991
 21
147.89513636363636
  0
LINE
  8
_0-3_A0
  6
CONTINUOUS
 62
    3
 10
273.63099999999991
 20
147.89513636363636
 11
273.66099999999994
 21
147.90013636363636
  0
LINE
  8
_0-3_A0
  6
CONTINUOUS
 62
    3
 10
273.66099999999994
 20
147.90013636363636
 11
273.69099999999991
 21
147.90613636363636
  0
LINE
  8
_0-3_A0
  6
CONTINUOUS
 62
    3
 10
273.69099999999991
 20
147.90613636363636
 11
273.72099999999994
 21
147.91313636363636
  0
LINE
  8
_0-3_A0
  6
CONTINUOUS
 62
    3
 10
273.72099999999994
 20
147.91313636363636
 11
273.74999999999994
 21
147.92213636363638
  0
LINE
  8
_0-3_A0
  6
CONTINUOUS
 62
    3
 10
273.74999999999994
 20
147.92213636363638
 11
273.77899999999993
 21
147.93213636363637
  0
LINE
  8
_0-3_A0
  6
CONTINUOUS
 62
    3
 10
273.77899999999993
 20
147.93213636363637
 11
273.80699999999995
 21
147.94313636363636
  0
LINE
  8
_0-3_A0
  6
CONTINUOUS
 62
    3
 10
273.80699999999995
 20
147.94313636363636
 11
273.83399999999994
 21
147.95513636363637
  0
LINE
  8
_0-3_A0
  6
CONTINUOUS
 62
    3
 10
273.83399999999994
 20
147.95513636363637
 11
273.86099999999993
 21
147.96913636363638
  0
LINE
  8
_0-3_A0
  6
CONTINUOUS
 62
    3
 10
273.86099999999993
 20
147.96913636363638
 11
273.88699999999994
 21
147.98413636363636
  0
LINE
  8
_0-3_A0
  6
CONTINUOUS
 62
    3
 10
273.88699999999994
 20
147.98413636363636
 11
273.91199999999992
 21
148.00013636363635
  0
LINE
  8
_0-3_A0
  6
CONTINUOUS
 62
    3
 10
273.91199999999992
 20
148.00013636363635
 11
273.93599999999992
 21
148.01713636363638
  0
LINE
  8
_0-3_A0
  6
CONTINUOUS
 62
    3
 10
273.93599999999992
 20
148.01713636363638
 11
273.95899999999994
 21
148.03513636363638
  0
LINE
  8
_0-3_A0
  6
CONTINUOUS
 62
    3
 10
273.95899999999994
 20
148.03513636363638
 11
273.98099999999993
 21
148.05413636363635
  0
LINE
  8
_0-3_A0
  6
CONTINUOUS
 62
    3
 10
273.98099999999993
 20
148.05413636363635
 11
274.00299999999992
 21
148.07413636363637
  0
LINE
  8
_0-3_A0
  6
CONTINUOUS
 62
    3
 10
274.00299999999992
 20
148.07413636363637
 11
274.02299999999996
 21
148.09513636363638
  0
LINE
  8
_0-3_A0
  6
CONTINUOUS
 62
    3
 10
274.02299999999996
 20
148.09513636363638
 11
274.04099999999993
 21
148.11613636363637
  0
LINE
  8
_0-3_A0
  6
CONTINUOUS
 62
    3
 10
274.04099999999993
 20
148.11613636363637
 11
274.05899999999996
 21
148.13913636363636
  0
LINE
  8
_0-3_A0
  6
CONTINUOUS
 62
    3
 10
274.05899999999996
 20
148.13913636363636
 11
274.07599999999996
 21
148.16213636363636
  0
LINE
  8
_0-3_A0
  6
CONTINUOUS
 62
    3
 10
274.07599999999996
 20
148.16213636363636
 11
274.09099999999995
 21
148.18613636363636
  0
LINE
  8
_0-3_A0
  6
CONTINUOUS
 62
    3
 10
274.09099999999995
 20
148.18613636363636
 11
274.10399999999992
 21
148.21113636363637
  0
LINE
  8
_0-3_A0
  6
CONTINUOUS
 62
    3
 10
274.10399999999992
 20
148.21113636363637
 11
274.11699999999996
 21
148.23613636363637
  0
LINE
  8
_0-3_A0
  6
CONTINUOUS
 62
    3
 10
274.11699999999996
 20
148.23613636363637
 11
274.12799999999992
 21
148.26213636363635
  0
LINE
  8
_0-3_A0
  6
CONTINUOUS
 62
    3
 10
274.12799999999992
 20
148.26213636363635
 11
274.13799999999991
 21
148.28813636363636
  0
LINE
  8
_0-3_A0
  6
CONTINUOUS
 62
    3
 10
274.13799999999991
 20
148.28813636363636
 11
274.14599999999995
 21
148.31513636363638
  0
LINE
  8
_0-3_A0
  6
CONTINUOUS
 62
    3
 10
274.14599999999995
 20
148.31513636363638
 11
274.15199999999992
 21
148.34213636363637
  0
LINE
  8
_0-3_A0
  6
CONTINUOUS
 62
    3
 10
274.15199999999992
 20
148.34213636363637
 11
274.15799999999995
 21
148.36913636363635
  0
LINE
  8
_0-3_A0
  6
CONTINUOUS
 62
    3
 10
274.15799999999995
 20
148.36913636363635
 11
274.16099999999994
 21
148.39613636363637
  0
LINE
  8
_0-3_A0
  6
CONTINUOUS
 62
    3
 10
274.16099999999994
 20
148.39613636363637
 11
274.16399999999993
 21
148.42413636363636
  0
LINE
  8
_0-3_A0
  6
CONTINUOUS
 62
    3
 10
274.16399999999993
 20
148.42413636363636
 11
274.16399999999993
 21
148.45213636363638
  0
LINE
  8
_0-3_A0
  6
CENTER
 62
    3
 10
273.53944952309461
 20
146.70706103356096
 11
273.53944952309461
 21
150.64662527469087
  0
LINE
  8
_0-3_A0
  6
CENTER
 62
    3
 10
202.03944952309464
 20
146.70706103356096
 11
202.03944952309464
 21
150.64662527469087
  0
LINE
  8
_0-3_A0
  6
CENTER
 62
    3
 10
273.53944952309461
 20
175.18683267964365
 11
273.53944952309461
 21
178.67318103516538
  0
LINE
  8
_0-3_A0
  6
CENTER
 62
    3
 10
202.03944952309464
 20
175.18683267964365
 11
202.03944952309464
 21
178.67318103516538
  0
LINE
  8
_0-3_A0
  6
CENTER
 62
    3
 10
273.53944952309461
 20
198.71448775497248
 11
273.53944952309461
 21
201.43136296658227
  0
LINE
  8
_0-3_A0
  6
CENTER
 62
    3
 10
273.53944952309461
 20
204.38720920805926
 11
273.53944952309461
 21
206.09296004148248
  0
LINE
  8
_0-3_A0
  6
CENTER
 62
    3
 10
202.03944952309464
 20
198.71448775497248
 11
202.03944952309464
 21
201.43136296658227
  0
LINE
  8
_0-3_A0
  6
CENTER
 62
    3
 10
202.03944952309464
 20
204.38720920805926
 11
202.03944952309464
 21
206.09296004148248
  0
INSERT
  2
-127-_U118
  8
_0-0_0
 10
-2.5000000000000568
 20
0.2411363636363716
 41
1
 42
1
 50
0
  0
INSERT
  2
-003-_D13
  8
_0-3_A0
 10
-2.5000000000000568
 20
0.2411363636363716
 41
1
 42
1
 50
0
  0
INSERT
  2
-005-_D14
  8
_0-3_A0
 10
-2.5000000000000568
 20
0.2411363636363716
 41
1
 42
1
 50
0
  0
INSERT
  2
-007-_D15
  8
_0-3_A0
 10
-2.5000000000000568
 20
0.2411363636363716
 41
1
 42
1
 50
0
  0
INSERT
  2
-009-_D16
  8
_0-3_A0
 10
-2.5000000000000568
 20
0.2411363636363716
 41
1
 42
1
 50
0
  0
LINE
  8
_0-3_A0
  6
CENTER
 62
    3
 10
195.56919004008184
 20
129.24296004148257
 11
279.87810646741723
 21
129.24296004148257
  0
LINE
  8
_0-3_A0
  6
CENTER
 62
    3
 10
195.73363873167085
 20
208.24296004148246
 11
280.29429100524237
 21
208.24296004148246
  0
INSERT
  2
-011-_D17
  8
_0-3_A0
 10
-2.5000000000000568
 20
0.2411363636363716
 41
1
 42
1
 50
0
  0
INSERT
  2
-013-_D18
  8
_0-3_A0
 10
-2.5000000000000568
 20
0.2411363636363716
 41
1
 42
1
 50
0
  0
INSERT
  2
-015-_D19
  8
_0-3_A0
 10
-2.5000000000000568
 20
0.2411363636363716
 41
1
 42
1
 50
0
  0
CIRCLE
  8
_0-3_A0
  6
CONTINUOUS
 62
    3
 10
277.28944952309461
 20
129.24296004148257
 40
0.625
  0
CIRCLE
  8
_0-3_A0
  6
CONTINUOUS
 62
    3
 10
198.28944952309464
 20
129.24296004148257
 40
0.625
  0
CIRCLE
  8
_0-3_A0
  6
CONTINUOUS
 62
    3
 10
277.28944952309461
 20
208.24296004148246
 40
0.625
  0
CIRCLE
  8
_0-3_A0
  6
CONTINUOUS
 62
    3
 10
198.28944952309464
 20
208.24296004148246
 40
0.625
  0
INSERT
  2
-128-_U126
  8
_0-0_0
 10
-2.5000000000000568
 20
0.2411363636363716
 41
1
 42
1
 50
0
  0
INSERT
  2
-017-_D20
  8
_0-3_A0
 10
-2.5000000000000568
 20
0.2411363636363716
 41
1
 42
1
 50
0
  0
INSERT
  2
-019-_D21
  8
_0-3_A0
 10
-2.5000000000000568
 20
0.2411363636363716
 41
1
 42
1
 50
0
  0
INSERT
  2
-021-_D22
  8
_0-3_A0
 10
-2.5000000000000568
 20
0.2411363636363716
 41
1
 42
1
 50
0
  0
INSERT
  2
-023-_D23
  8
_0-3_A0
 10
-2.5000000000000568
 20
0.2411363636363716
 41
1
 42
1
 50
0
  0
INSERT
  2
-025-_D24
  8
_0-3_A0
 10
-2.5000000000000568
 20
0.2411363636363716
 41
1
 42
1
 50
0
  0
LINE
  8
_0-3_A0
  6
CONTINUOUS
 62
    3
 10
61.638931584098997
 20
87.183365703610377
 11
61.638931584098997
 21
55.649188850181076
  0
LINE
  8
_0-3_A0
  6
CONTINUOUS
 62
    3
 10
61.789245693300472
 20
87.252560443436181
 11
61.78924569328808
 21
55.64918885018109
  0
LINE
  8
_0-3_A0
  6
CENTER
 62
    3
 10
63.470927678301592
 20
58.489624145653522
 11
63.470927678301592
 21
56.080997491195063
  0
LINE
  8
_0-3_A0
  6
CENTER
 62
    3
 10
73.561019588281993
 20
58.48962414563833
 11
73.561019588281993
 21
56.080997491195063
  0
LINE
  8
_0-3_A0
  6
CENTER
 62
    3
 10
102.18416167334324
 20
58.489624145638344
 11
102.18416167334234
 21
56.080997491183865
  0
LINE
  8
_0-3_A0
  6
CONTINUOUS
 62
    3
 10
136.63924569352315
 20
87.255889129967641
 11
136.63924569355083
 21
51.899188850181076
  0
LINE
  8
_0-3_A0
  6
CONTINUOUS
 62
    3
 10
136.78924569317084
 20
87.162638669785906
 11
136.78924569311553
 21
51.899188850181076
  0
LINE
  8
_0-3_A0
  6
CONTINUOUS
 62
    3
 10
126.78924569333493
 20
87.190793997684892
 11
126.78924569330723
 21
51.899188850181076
  0
LINE
  8
_0-3_A0
  6
CONTINUOUS
 62
    3
 10
126.63924569342805
 20
87.250947745961099
 11
126.63924569340034
 21
51.899188850181076
  0
LINE
  8
_0-3_A0
  6
DASHED
 62
    3
 10
136.48924569321943
 20
87.348726824426037
 11
136.48924569321943
 21
51.899188850181076
  0
LINE
  8
_0-3_A0
  6
CONTINUOUS
 62
    3
 10
61.789245693289331
 20
58.799188850181081
 11
126.63924569340574
 21
58.799188850181081
  0
LINE
  8
_0-3_A0
  6
CONTINUOUS
 62
    3
 10
61.939245693289336
 20
58.799188850181081
 11
61.939245693288171
 21
55.799188850181081
  0
LINE
  8
_0-3_A0
  6
CENTER
 62
    3
 10
62.63388495076856
 20
57.549188850181081
 11
64.476726261907117
 21
57.549188850181081
  0
LINE
  8
_0-3_A0
  6
CENTER
 62
    3
 10
70.845846003009768
 20
57.549188850181081
 11
75.976303163747388
 21
57.549188850181081
  0
LINE
  8
_0-3_A0
  6
CENTER
 62
    3
 10
100.20718179235052
 20
57.549188850181081
 11
104.50229017058113
 21
57.549188850181081
  0
LINE
  8
_0-3_A0
  6
CONTINUOUS
 62
    3
 10
126.63924569340034
 20
51.899188850181076
 11
136.78924569311553
 21
51.899188850181076
  0
LINE
  8
_0-3_A0
  6
CONTINUOUS
 62
    3
 10
61.939245693288171
 20
55.799188850181081
 11
126.63924569340342
 21
55.799188850181081
  0
LINE
  8
_0-3_A0
  6
DASHED
 62
    3
 10
126.63924569340342
 20
55.799188850181081
 11
136.63924569354784
 21
55.799188850181081
  0
LINE
  8
_0-3_A0
  6
CONTINUOUS
 62
    3
 10
61.638931584098997
 20
55.649188850181076
 11
126.63924569340342
 21
55.649188850181076
  0
LINE
  8
_0-3_A0
  6
DASHED
 62
    3
 10
126.63924569340342
 20
55.649188850181076
 11
136.63924569354793
 21
55.649188850181076
  0
CIRCLE
  8
_0-3_A0
  6
CONTINUOUS
 62
    3
 10
63.470927678301592
 20
57.549188850181081
 40
0.625
  0
CIRCLE
  8
_0-3_A0
  6
CONTINUOUS
 62
    3
 10
73.561019588281993
 20
57.549188850181081
 40
0.625
  0
CIRCLE
  8
_0-3_A0
  6
CONTINUOUS
 62
    3
 10
102.18416167334294
 20
57.549188850181081
 40
0.625
  0
LINE
  8
_0-3_A0
  6
CONTINUOUS
 62
    3
 10
61.638899999999949
 20
87.183336363636371
 11
61.676399999999944
 21
87.201036363636376
  0
LINE
  8
_0-3_A0
  6
CONTINUOUS
 62
    3
 10
61.676399999999944
 20
87.201036363636376
 11
61.714399999999955
 21
87.218536363636374
  0
LINE
  8
_0-3_A0
  6
CONTINUOUS
 62
    3
 10
61.714399999999955
 20
87.218536363636374
 11
61.752999999999929
 21
87.235836363636366
  0
LINE
  8
_0-3_A0
  6
CONTINUOUS
 62
    3
 10
61.752999999999929
 20
87.235836363636366
 11
61.792099999999948
 21
87.252936363636365
  0
LINE
  8
_0-3_A0
  6
CONTINUOUS
 62
    3
 10
61.792099999999948
 20
87.252936363636365
 11
61.831699999999955
 21
87.269836363636372
  0
LINE
  8
_0-3_A0
  6
CONTINUOUS
 62
    3
 10
61.831699999999955
 20
87.269836363636372
 11
61.87179999999995
 21
87.286536363636372
  0
LINE
  8
_0-3_A0
  6
CONTINUOUS
 62
    3
 10
61.87179999999995
 20
87.286536363636372
 11
61.912499999999937
 21
87.302936363636376
  0
LINE
  8
_0-3_A0
  6
CONTINUOUS
 62
    3
 10
61.912499999999937
 20
87.302936363636376
 11
61.953599999999937
 21
87.319136363636374
  0
LINE
  8
_0-3_A0
  6
CONTINUOUS
 62
    3
 10
61.953599999999937
 20
87.319136363636374
 11
61.995199999999954
 21
87.334936363636373
  0
LINE
  8
_0-3_A0
  6
CONTINUOUS
 62
    3
 10
61.995199999999954
 20
87.334936363636373
 11
62.037399999999934
 21
87.350536363636365
  0
LINE
  8
_0-3_A0
  6
CONTINUOUS
 62
    3
 10
62.037399999999934
 20
87.350536363636365
 11
62.079999999999927
 21
87.365736363636372
  0
LINE
  8
_0-3_A0
  6
CONTINUOUS
 62
    3
 10
62.079999999999927
 20
87.365736363636372
 11
62.122999999999933
 21
87.380536363636366
  0
LINE
  8
_0-3_A0
  6
CONTINUOUS
 62
    3
 10
62.122999999999933
 20
87.380536363636366
 11
62.166599999999959
 21
87.394936363636375
  0
LINE
  8
_0-3_A0
  6
CONTINUOUS
 62
    3
 10
62.166599999999959
 20
87.394936363636375
 11
62.210599999999942
 21
87.409036363636374
  0
LINE
  8
_0-3_A0
  6
CONTINUOUS
 62
    3
 10
62.210599999999942
 20
87.409036363636374
 11
62.254999999999938
 21
87.422636363636371
  0
LINE
  8
_0-3_A0
  6
CONTINUOUS
 62
    3
 10
62.254999999999938
 20
87.422636363636371
 11
62.299899999999922
 21
87.435736363636365
  0
LINE
  8
_0-3_A0
  6
CONTINUOUS
 62
    3
 10
62.299899999999922
 20
87.435736363636365
 11
62.345199999999948
 21
87.448436363636375
  0
LINE
  8
_0-3_A0
  6
CONTINUOUS
 62
    3
 10
62.345199999999948
 20
87.448436363636375
 11
62.39089999999993
 21
87.460636363636368
  0
LINE
  8
_0-3_A0
  6
CONTINUOUS
 62
    3
 10
62.39089999999993
 20
87.460636363636368
 11
62.437099999999929
 21
87.472336363636372
  0
LINE
  8
_0-3_A0
  6
CONTINUOUS
 62
    3
 10
62.437099999999929
 20
87.472336363636372
 11
62.483599999999938
 21
87.483436363636371
  0
LINE
  8
_0-3_A0
  6
CONTINUOUS
 62
    3
 10
62.483599999999938
 20
87.483436363636371
 11
62.530599999999935
 21
87.494036363636368
  0
LINE
  8
_0-3_A0
  6
CONTINUOUS
 62
    3
 10
62.530599999999935
 20
87.494036363636368
 11
62.577999999999946
 21
87.504136363636376
  0
LINE
  8
_0-3_A0
  6
CONTINUOUS
 62
    3
 10
62.577999999999946
 20
87.504136363636376
 11
62.625799999999941
 21
87.513536363636376
  0
LINE
  8
_0-3_A0
  6
CONTINUOUS
 62
    3
 10
62.625799999999941
 20
87.513536363636376
 11
62.673899999999946
 21
87.52233636363637
  0
LINE
  8
_0-3_A0
  6
CONTINUOUS
 62
    3
 10
62.673899999999946
 20
87.52233636363637
 11
62.722399999999936
 21
87.530436363636368
  0
LINE
  8
_0-3_A0
  6
CONTINUOUS
 62
    3
 10
62.722399999999936
 20
87.530436363636368
 11
62.771299999999939
 21
87.537936363636376
  0
LINE
  8
_0-3_A0
  6
CONTINUOUS
 62
    3
 10
62.771299999999939
 20
87.537936363636376
 11
62.820499999999924
 21
87.544736363636374
  0
LINE
  8
_0-3_A0
  6
CONTINUOUS
 62
    3
 10
62.820499999999924
 20
87.544736363636374
 11
62.870099999999922
 21
87.550836363636378
  0
LINE
  8
_0-3_A0
  6
CONTINUOUS
 62
    3
 10
62.870099999999922
 20
87.550836363636378
 11
62.920099999999933
 21
87.556236363636372
  0
LINE
  8
_0-3_A0
  6
CONTINUOUS
 62
    3
 10
62.920099999999933
 20
87.556236363636372
 11
62.970299999999951
 21
87.560836363636369
  0
LINE
  8
_0-3_A0
  6
CONTINUOUS
 62
    3
 10
62.970299999999951
 20
87.560836363636369
 11
63.020899999999926
 21
87.56473636363637
  0
LINE
  8
_0-3_A0
  6
CONTINUOUS
 62
    3
 10
63.020899999999926
 20
87.56473636363637
 11
63.071899999999942
 21
87.56773636363637
  0
LINE
  8
_0-3_A0
  6
CONTINUOUS
 62
    3
 10
63.071899999999942
 20
87.56773636363637
 11
63.123099999999936
 21
87.570036363636376
  0
LINE
  8
_0-3_A0
  6
CONTINUOUS
 62
    3
 10
63.123099999999936
 20
87.570036363636376
 11
63.174599999999941
 21
87.571436363636365
  0
LINE
  8
_0-3_A0
  6
CONTINUOUS
 62
    3
 10
63.174599999999941
 20
87.571436363636365
 11
63.22649999999993
 21
87.572036363636371
  0
LINE
  8
_0-3_A0
  6
CONTINUOUS
 62
    3
 10
63.22649999999993
 20
87.572036363636371
 11
63.278599999999926
 21
87.571636363636372
  0
LINE
  8
_0-3_A0
  6
CONTINUOUS
 62
    3
 10
63.278599999999926
 20
87.571636363636372
 11
63.331099999999935
 21
87.570436363636375
  0
LINE
  8
_0-3_A0
  6
CONTINUOUS
 62
    3
 10
63.331099999999935
 20
87.570436363636375
 11
63.383799999999951
 21
87.568336363636376
  0
LINE
  8
_0-3_A0
  6
CONTINUOUS
 62
    3
 10
63.383799999999951
 20
87.568336363636376
 11
63.436699999999945
 21
87.565236363636373
  0
LINE
  8
_0-3_A0
  6
CONTINUOUS
 62
    3
 10
63.436699999999945
 20
87.565236363636373
 11
63.489999999999952
 21
87.561236363636368
  0
LINE
  8
_0-3_A0
  6
CONTINUOUS
 62
    3
 10
63.489999999999952
 20
87.561236363636368
 11
63.543499999999937
 21
87.556136363636369
  0
LINE
  8
_0-3_A0
  6
CONTINUOUS
 62
    3
 10
63.543499999999937
 20
87.556136363636369
 11
63.597199999999929
 21
87.550136363636369
  0
LINE
  8
_0-3_A0
  6
CONTINUOUS
 62
    3
 10
63.597199999999929
 20
87.550136363636369
 11
63.65119999999996
 21
87.543036363636375
  0
LINE
  8
_0-3_A0
  6
CONTINUOUS
 62
    3
 10
63.65119999999996
 20
87.543036363636375
 11
63.70539999999994
 21
87.534936363636376
  0
LINE
  8
_0-3_A0
  6
CONTINUOUS
 62
    3
 10
63.70539999999994
 20
87.534936363636376
 11
63.759799999999927
 21
87.525736363636369
  0
LINE
  8
_0-3_A0
  6
CONTINUOUS
 62
    3
 10
63.759799999999927
 20
87.525736363636369
 11
63.814499999999952
 21
87.515536363636371
  0
LINE
  8
_0-3_A0
  6
CONTINUOUS
 62
    3
 10
63.814499999999952
 20
87.515536363636371
 11
63.869299999999952
 21
87.504136363636376
  0
LINE
  8
_0-3_A0
  6
CONTINUOUS
 62
    3
 10
63.869299999999952
 20
87.504136363636376
 11
63.924399999999934
 21
87.491636363636374
  0
LINE
  8
_0-3_A0
  6
CONTINUOUS
 62
    3
 10
63.924399999999934
 20
87.491636363636374
 11
63.979599999999948
 21
87.477936363636374
  0
LINE
  8
_0-3_A0
  6
CONTINUOUS
 62
    3
 10
63.979599999999948
 20
87.477936363636374
 11
64.035099999999943
 21
87.463036363636376
  0
LINE
  8
_0-3_A0
  6
CONTINUOUS
 62
    3
 10
64.035099999999943
 20
87.463036363636376
 11
64.090699999999941
 21
87.447036363636371
  0
LINE
  8
_0-3_A0
  6
CONTINUOUS
 62
    3
 10
64.090699999999941
 20
87.447036363636371
 11
64.146499999999946
 21
87.429736363636365
  0
LINE
  8
_0-3_A0
  6
CONTINUOUS
 62
    3
 10
64.146499999999946
 20
87.429736363636365
 11
64.202499999999929
 21
87.411236363636376
  0
LINE
  8
_0-3_A0
  6
CONTINUOUS
 62
    3
 10
64.202499999999929
 20
87.411236363636376
 11
64.258599999999944
 21
87.391436363636373
  0
LINE
  8
_0-3_A0
  6
CONTINUOUS
 62
    3
 10
64.258599999999944
 20
87.391436363636373
 11
64.314899999999937
 21
87.370336363636369
  0
LINE
  8
_0-3_A0
  6
CONTINUOUS
 62
    3
 10
64.314899999999937
 20
87.370336363636369
 11
64.371299999999962
 21
87.348036363636367
  0
LINE
  8
_0-3_A0
  6
CONTINUOUS
 62
    3
 10
64.371299999999962
 20
87.348036363636367
 11
64.427799999999933
 21
87.324536363636369
  0
LINE
  8
_0-3_A0
  6
CONTINUOUS
 62
    3
 10
64.427799999999933
 20
87.324536363636369
 11
64.48449999999994
 21
87.299936363636376
  0
LINE
  8
_0-3_A0
  6
CONTINUOUS
 62
    3
 10
64.48449999999994
 20
87.299936363636376
 11
64.541399999999953
 21
87.274236363636376
  0
LINE
  8
_0-3_A0
  6
CONTINUOUS
 62
    3
 10
64.541399999999953
 20
87.274236363636376
 11
64.598299999999937
 21
87.24753636363637
  0
LINE
  8
_0-3_A0
  6
CONTINUOUS
 62
    3
 10
64.598299999999937
 20
87.24753636363637
 11
64.655399999999929
 21
87.220036363636367
  0
LINE
  8
_0-3_A0
  6
CONTINUOUS
 62
    3
 10
64.655399999999929
 20
87.220036363636367
 11
64.712599999999952
 21
87.191636363636376
  0
LINE
  8
_0-3_A0
  6
CONTINUOUS
 62
    3
 10
64.712599999999952
 20
87.191636363636376
 11
64.76989999999995
 21
87.162536363636377
  0
LINE
  8
_0-3_A0
  6
CONTINUOUS
 62
    3
 10
64.76989999999995
 20
87.162536363636377
 11
64.827299999999922
 21
87.132736363636368
  0
LINE
  8
_0-3_A0
  6
CONTINUOUS
 62
    3
 10
64.827299999999922
 20
87.132736363636368
 11
64.884799999999927
 21
87.102336363636368
  0
LINE
  8
_0-3_A0
  6
CONTINUOUS
 62
    3
 10
64.884799999999927
 20
87.102336363636368
 11
64.942499999999938
 21
87.071436363636365
  0
LINE
  8
_0-3_A0
  6
CONTINUOUS
 62
    3
 10
64.942499999999938
 20
87.071436363636365
 11
65.000199999999949
 21
87.040036363636374
  0
LINE
  8
_0-3_A0
  6
CONTINUOUS
 62
    3
 10
65.000199999999949
 20
87.040036363636374
 11
65.057999999999935
 21
87.00823636363637
  0
LINE
  8
_0-3_A0
  6
CONTINUOUS
 62
    3
 10
65.057999999999935
 20
87.00823636363637
 11
65.115899999999953
 21
86.976136363636371
  0
LINE
  8
_0-3_A0
  6
CONTINUOUS
 62
    3
 10
65.115899999999953
 20
86.976136363636371
 11
65.173899999999946
 21
86.943736363636375
  0
LINE
  8
_0-3_A0
  6
CONTINUOUS
 62
    3
 10
65.173899999999946
 20
86.943736363636375
 11
65.231999999999942
 21
86.911236363636376
  0
LINE
  8
_0-3_A0
  6
CONTINUOUS
 62
    3
 10
65.231999999999942
 20
86.911236363636376
 11
65.290099999999938
 21
86.878636363636374
  0
LINE
  8
_0-3_A0
  6
CONTINUOUS
 62
    3
 10
65.290099999999938
 20
86.878636363636374
 11
65.348399999999941
 21
86.846036363636372
  0
LINE
  8
_0-3_A0
  6
CONTINUOUS
 62
    3
 10
65.348399999999941
 20
86.846036363636372
 11
65.40659999999994
 21
86.81343636363637
  0
LINE
  8
_0-3_A0
  6
CONTINUOUS
 62
    3
 10
65.40659999999994
 20
86.81343636363637
 11
65.464999999999946
 21
86.781036363636374
  0
LINE
  8
_0-3_A0
  6
CONTINUOUS
 62
    3
 10
65.464999999999946
 20
86.781036363636374
 11
65.523399999999924
 21
86.748736363636368
  0
LINE
  8
_0-3_A0
  6
CONTINUOUS
 62
    3
 10
65.523399999999924
 20
86.748736363636368
 11
65.581899999999961
 21
86.716836363636375
  0
LINE
  8
_0-3_A0
  6
CONTINUOUS
 62
    3
 10
65.581899999999961
 20
86.716836363636375
 11
65.640399999999942
 21
86.685136363636374
  0
LINE
  8
_0-3_A0
  6
CONTINUOUS
 62
    3
 10
65.640399999999942
 20
86.685136363636374
 11
65.698999999999955
 21
86.653936363636375
  0
LINE
  8
_0-3_A0
  6
CONTINUOUS
 62
    3
 10
65.698999999999955
 20
86.653936363636375
 11
65.757599999999939
 21
86.623236363636365
  0
LINE
  8
_0-3_A0
  6
CONTINUOUS
 62
    3
 10
65.757599999999939
 20
86.623236363636365
 11
65.816199999999923
 21
86.593036363636372
  0
LINE
  8
_0-3_A0
  6
CONTINUOUS
 62
    3
 10
65.816199999999923
 20
86.593036363636372
 11
65.874899999999939
 21
86.56343636363637
  0
LINE
  8
_0-3_A0
  6
CONTINUOUS
 62
    3
 10
65.874899999999939
 20
86.56343636363637
 11
65.933599999999955
 21
86.534636363636366
  0
LINE
  8
_0-3_A0
  6
CONTINUOUS
 62
    3
 10
65.933599999999955
 20
86.534636363636366
 11
65.992399999999946
 21
86.506636363636374
  0
LINE
  8
_0-3_A0
  6
CONTINUOUS
 62
    3
 10
65.992399999999946
 20
86.506636363636374
 11
66.051099999999962
 21
86.479436363636366
  0
LINE
  8
_0-3_A0
  6
CONTINUOUS
 62
    3
 10
66.051099999999962
 20
86.479436363636366
 11
66.109899999999925
 21
86.453136363636374
  0
LINE
  8
_0-3_A0
  6
CONTINUOUS
 62
    3
 10
66.109899999999925
 20
86.453136363636374
 11
66.168699999999944
 21
86.427836363636373
  0
LINE
  8
_0-3_A0
  6
CONTINUOUS
 62
    3
 10
66.168699999999944
 20
86.427836363636373
 11
66.227499999999963
 21
86.403636363636366
  0
LINE
  8
_0-3_A0
  6
CONTINUOUS
 62
    3
 10
66.227499999999963
 20
86.403636363636366
 11
66.286299999999926
 21
86.380636363636369
  0
LINE
  8
_0-3_A0
  6
CONTINUOUS
 62
    3
 10
66.286299999999926
 20
86.380636363636369
 11
66.345099999999945
 21
86.358736363636367
  0
LINE
  8
_0-3_A0
  6
CONTINUOUS
 62
    3
 10
66.345099999999945
 20
86.358736363636367
 11
66.403899999999936
 21
86.338236363636369
  0
LINE
  8
_0-3_A0
  6
CONTINUOUS
 62
    3
 10
66.403899999999936
 20
86.338236363636369
 11
66.462699999999927
 21
86.319036363636371
  0
LINE
  8
_0-3_A0
  6
CONTINUOUS
 62
    3
 10
66.462699999999927
 20
86.319036363636371
 11
66.521399999999943
 21
86.301336363636366
  0
LINE
  8
_0-3_A0
  6
CONTINUOUS
 62
    3
 10
66.521399999999943
 20
86.301336363636366
 11
66.580199999999933
 21
86.285036363636365
  0
LINE
  8
_0-3_A0
  6
CONTINUOUS
 62
    3
 10
66.580199999999933
 20
86.285036363636365
 11
66.638899999999949
 21
86.270436363636378
  0
LINE
  8
_0-3_A0
  6
CONTINUOUS
 62
    3
 10
66.638899999999949
 20
86.270436363636378
 11
66.697599999999937
 21
86.257436363636372
  0
LINE
  8
_0-3_A0
  6
CONTINUOUS
 62
    3
 10
66.697599999999937
 20
86.257436363636372
 11
66.756299999999953
 21
86.24623636363637
  0
LINE
  8
_0-3_A0
  6
CONTINUOUS
 62
    3
 10
66.756299999999953
 20
86.24623636363637
 11
66.81499999999994
 21
86.236736363636367
  0
LINE
  8
_0-3_A0
  6
CONTINUOUS
 62
    3
 10
66.81499999999994
 20
86.236736363636367
 11
66.873599999999953
 21
86.229136363636371
  0
LINE
  8
_0-3_A0
  6
CONTINUOUS
 62
    3
 10
66.873599999999953
 20
86.229136363636371
 11
66.932199999999937
 21
86.22353636363637
  0
LINE
  8
_0-3_A0
  6
CONTINUOUS
 62
    3
 10
66.932199999999937
 20
86.22353636363637
 11
66.990699999999947
 21
86.219936363636378
  0
LINE
  8
_0-3_A0
  6
CONTINUOUS
 62
    3
 10
66.990699999999947
 20
86.219936363636378
 11
67.049099999999953
 21
86.218436363636371
  0
LINE
  8
_0-3_A0
  6
CONTINUOUS
 62
    3
 10
67.049099999999953
 20
86.218436363636371
 11
67.107599999999933
 21
86.219036363636377
  0
LINE
  8
_0-3_A0
  6
CONTINUOUS
 62
    3
 10
67.107599999999933
 20
86.219036363636377
 11
67.165899999999936
 21
86.221936363636373
  0
LINE
  8
_0-3_A0
  6
CONTINUOUS
 62
    3
 10
67.165899999999936
 20
86.221936363636373
 11
67.224199999999939
 21
86.227136363636375
  0
LINE
  8
_0-3_A0
  6
CONTINUOUS
 62
    3
 10
67.224199999999939
 20
86.227136363636375
 11
67.282399999999938
 21
86.234736363636372
  0
LINE
  8
_0-3_A0
  6
CONTINUOUS
 62
    3
 10
67.282399999999938
 20
86.234736363636372
 11
67.340599999999938
 21
86.244736363636377
  0
LINE
  8
_0-3_A0
  6
CONTINUOUS
 62
    3
 10
67.340599999999938
 20
86.244736363636377
 11
67.39859999999993
 21
86.257336363636369
  0
LINE
  8
_0-3_A0
  6
CONTINUOUS
 62
    3
 10
67.39859999999993
 20
86.257336363636369
 11
67.456599999999923
 21
86.272536363636376
  0
LINE
  8
_0-3_A0
  6
CONTINUOUS
 62
    3
 10
67.456599999999923
 20
86.272536363636376
 11
67.514599999999944
 21
86.29033636363637
  0
LINE
  8
_0-3_A0
  6
CONTINUOUS
 62
    3
 10
67.514599999999944
 20
86.29033636363637
 11
67.572399999999959
 21
86.310636363636376
  0
LINE
  8
_0-3_A0
  6
CONTINUOUS
 62
    3
 10
67.572399999999959
 20
86.310636363636376
 11
67.630199999999945
 21
86.333336363636377
  0
LINE
  8
_0-3_A0
  6
CONTINUOUS
 62
    3
 10
67.630199999999945
 20
86.333336363636377
 11
67.687799999999924
 21
86.358436363636371
  0
LINE
  8
_0-3_A0
  6
CONTINUOUS
 62
    3
 10
67.687799999999924
 20
86.358436363636371
 11
67.745499999999935
 21
86.385636363636365
  0
LINE
  8
_0-3_A0
  6
CONTINUOUS
 62
    3
 10
67.745499999999935
 20
86.385636363636365
 11
67.803099999999943
 21
86.415036363636374
  0
LINE
  8
_0-3_A0
  6
CONTINUOUS
 62
    3
 10
67.803099999999943
 20
86.415036363636374
 11
67.860599999999948
 21
86.446536363636369
  0
LINE
  8
_0-3_A0
  6
CONTINUOUS
 62
    3
 10
67.860599999999948
 20
86.446536363636369
 11
67.918099999999924
 21
86.479836363636366
  0
LINE
  8
_0-3_A0
  6
CONTINUOUS
 62
    3
 10
67.918099999999924
 20
86.479836363636366
 11
67.975499999999954
 21
86.515036363636369
  0
LINE
  8
_0-3_A0
  6
CONTINUOUS
 62
    3
 10
67.975499999999954
 20
86.515036363636369
 11
68.032899999999926
 21
86.551936363636372
  0
LINE
  8
_0-3_A0
  6
CONTINUOUS
 62
    3
 10
68.032899999999926
 20
86.551936363636372
 11
68.090299999999956
 21
86.590436363636371
  0
LINE
  8
_0-3_A0
  6
CONTINUOUS
 62
    3
 10
68.090299999999956
 20
86.590436363636371
 11
68.147599999999954
 21
86.630536363636366
  0
LINE
  8
_0-3_A0
  6
CONTINUOUS
 62
    3
 10
68.147599999999954
 20
86.630536363636366
 11
68.204899999999952
 21
86.672136363636369
  0
LINE
  8
_0-3_A0
  6
CONTINUOUS
 62
    3
 10
68.204899999999952
 20
86.672136363636369
 11
68.26219999999995
 21
86.714936363636368
  0
LINE
  8
_0-3_A0
  6
CONTINUOUS
 62
    3
 10
68.26219999999995
 20
86.714936363636368
 11
68.319499999999948
 21
86.759036363636369
  0
LINE
  8
_0-3_A0
  6
CONTINUOUS
 62
    3
 10
68.319499999999948
 20
86.759036363636369
 11
68.376799999999946
 21
86.804336363636366
  0
LINE
  8
_0-3_A0
  6
CONTINUOUS
 62
    3
 10
68.376799999999946
 20
86.804336363636366
 11
68.434099999999943
 21
86.850636363636368
  0
LINE
  8
_0-3_A0
  6
CONTINUOUS
 62
    3
 10
68.434099999999943
 20
86.850636363636368
 11
68.491299999999938
 21
86.897936363636375
  0
LINE
  8
_0-3_A0
  6
CONTINUOUS
 62
    3
 10
68.491299999999938
 20
86.897936363636375
 11
68.548599999999936
 21
86.946036363636366
  0
LINE
  8
_0-3_A0
  6
CONTINUOUS
 62
    3
 10
68.548599999999936
 20
86.946036363636366
 11
68.605899999999962
 21
86.994936363636369
  0
LINE
  8
_0-3_A0
  6
CONTINUOUS
 62
    3
 10
68.605899999999962
 20
86.994936363636369
 11
68.66319999999996
 21
87.044536363636368
  0
LINE
  8
_0-3_A0
  6
CONTINUOUS
 62
    3
 10
68.66319999999996
 20
87.044536363636368
 11
68.720599999999933
 21
87.094636363636368
  0
LINE
  8
_0-3_A0
  6
CONTINUOUS
 62
    3
 10
68.720599999999933
 20
87.094636363636368
 11
68.777899999999931
 21
87.145236363636371
  0
LINE
  8
_0-3_A0
  6
CONTINUOUS
 62
    3
 10
68.777899999999931
 20
87.145236363636371
 11
68.835299999999961
 21
87.196136363636369
  0
LINE
  8
_0-3_A0
  6
CONTINUOUS
 62
    3
 10
68.835299999999961
 20
87.196136363636369
 11
68.892699999999933
 21
87.247336363636378
  0
LINE
  8
_0-3_A0
  6
CONTINUOUS
 62
    3
 10
68.892699999999933
 20
87.247336363636378
 11
68.950199999999938
 21
87.298736363636365
  0
LINE
  8
_0-3_A0
  6
CONTINUOUS
 62
    3
 10
68.950199999999938
 20
87.298736363636365
 11
69.007699999999942
 21
87.350236363636369
  0
LINE
  8
_0-3_A0
  6
CONTINUOUS
 62
    3
 10
69.007699999999942
 20
87.350236363636369
 11
69.065299999999922
 21
87.40163636363637
  0
LINE
  8
_0-3_A0
  6
CONTINUOUS
 62
    3
 10
69.065299999999922
 20
87.40163636363637
 11
69.122899999999958
 21
87.452936363636368
  0
LINE
  8
_0-3_A0
  6
CONTINUOUS
 62
    3
 10
69.122899999999958
 20
87.452936363636368
 11
69.180599999999941
 21
87.504036363636373
  0
LINE
  8
_0-3_A0
  6
CONTINUOUS
 62
    3
 10
69.180599999999941
 20
87.504036363636373
 11
69.238299999999924
 21
87.554836363636368
  0
LINE
  8
_0-3_A0
  6
CONTINUOUS
 62
    3
 10
69.238299999999924
 20
87.554836363636368
 11
69.296099999999938
 21
87.605236363636365
  0
LINE
  8
_0-3_A0
  6
CONTINUOUS
 62
    3
 10
69.296099999999938
 20
87.605236363636365
 11
69.353999999999928
 21
87.655036363636369
  0
LINE
  8
_0-3_A0
  6
CONTINUOUS
 62
    3
 10
69.353999999999928
 20
87.655036363636369
 11
69.411999999999949
 21
87.704336363636372
  0
LINE
  8
_0-3_A0
  6
CONTINUOUS
 62
    3
 10
69.411999999999949
 20
87.704336363636372
 11
69.470099999999945
 21
87.752836363636376
  0
LINE
  8
_0-3_A0
  6
CONTINUOUS
 62
    3
 10
69.470099999999945
 20
87.752836363636376
 11
69.528199999999941
 21
87.800636363636371
  0
LINE
  8
_0-3_A0
  6
CONTINUOUS
 62
    3
 10
69.528199999999941
 20
87.800636363636371
 11
69.586499999999944
 21
87.847436363636376
  0
LINE
  8
_0-3_A0
  6
CONTINUOUS
 62
    3
 10
69.586499999999944
 20
87.847436363636376
 11
69.644799999999946
 21
87.893236363636376
  0
LINE
  8
_0-3_A0
  6
CONTINUOUS
 62
    3
 10
69.644799999999946
 20
87.893236363636376
 11
69.703299999999956
 21
87.938036363636371
  0
LINE
  8
_0-3_A0
  6
CONTINUOUS
 62
    3
 10
69.703299999999956
 20
87.938036363636371
 11
69.761799999999936
 21
87.981536363636365
  0
LINE
  8
_0-3_A0
  6
CONTINUOUS
 62
    3
 10
69.761799999999936
 20
87.981536363636365
 11
69.820499999999924
 21
88.023836363636377
  0
LINE
  8
_0-3_A0
  6
CONTINUOUS
 62
    3
 10
69.820499999999924
 20
88.023836363636377
 11
69.879299999999943
 21
88.06473636363637
  0
LINE
  8
_0-3_A0
  6
CONTINUOUS
 62
    3
 10
69.879299999999943
 20
88.06473636363637
 11
69.938199999999937
 21
88.104136363636371
  0
LINE
  8
_0-3_A0
  6
CONTINUOUS
 62
    3
 10
69.938199999999937
 20
88.104136363636371
 11
69.997199999999963
 21
88.141936363636375
  0
LINE
  8
_0-3_A0
  6
CONTINUOUS
 62
    3
 10
69.997199999999963
 20
88.141936363636375
 11
70.056399999999939
 21
88.178036363636365
  0
LINE
  8
_0-3_A0
  6
CONTINUOUS
 62
    3
 10
70.056399999999939
 20
88.178036363636365
 11
70.115699999999947
 21
88.212336363636367
  0
LINE
  8
_0-3_A0
  6
CONTINUOUS
 62
    3
 10
70.115699999999947
 20
88.212336363636367
 11
70.175199999999961
 21
88.244836363636366
  0
LINE
  8
_0-3_A0
  6
CONTINUOUS
 62
    3
 10
70.175199999999961
 20
88.244836363636366
 11
70.23479999999995
 21
88.27533636363637
  0
LINE
  8
_0-3_A0
  6
CONTINUOUS
 62
    3
 10
70.23479999999995
 20
88.27533636363637
 11
70.294599999999945
 21
88.303736363636375
  0
LINE
  8
_0-3_A0
  6
CONTINUOUS
 62
    3
 10
70.294599999999945
 20
88.303736363636375
 11
70.354499999999944
 21
88.329936363636377
  0
LINE
  8
_0-3_A0
  6
CONTINUOUS
 62
    3
 10
70.354499999999944
 20
88.329936363636377
 11
70.41459999999995
 21
88.353936363636364
  0
LINE
  8
_0-3_A0
  6
CONTINUOUS
 62
    3
 10
70.41459999999995
 20
88.353936363636364
 11
70.474799999999959
 21
88.375536363636371
  0
LINE
  8
_0-3_A0
  6
CONTINUOUS
 62
    3
 10
70.474799999999959
 20
88.375536363636371
 11
70.535299999999949
 21
88.394736363636368
  0
LINE
  8
_0-3_A0
  6
CONTINUOUS
 62
    3
 10
70.535299999999949
 20
88.394736363636368
 11
70.595899999999943
 21
88.411436363636369
  0
LINE
  8
_0-3_A0
  6
CONTINUOUS
 62
    3
 10
70.595899999999943
 20
88.411436363636369
 11
70.65659999999994
 21
88.425736363636374
  0
LINE
  8
_0-3_A0
  6
CONTINUOUS
 62
    3
 10
70.65659999999994
 20
88.425736363636374
 11
70.717599999999947
 21
88.437736363636375
  0
LINE
  8
_0-3_A0
  6
CONTINUOUS
 62
    3
 10
70.717599999999947
 20
88.437736363636375
 11
70.778699999999957
 21
88.447336363636367
  0
LINE
  8
_0-3_A0
  6
CONTINUOUS
 62
    3
 10
70.778699999999957
 20
88.447336363636367
 11
70.839899999999943
 21
88.454636363636367
  0
LINE
  8
_0-3_A0
  6
CONTINUOUS
 62
    3
 10
70.839899999999943
 20
88.454636363636367
 11
70.901299999999935
 21
88.459736363636366
  0
LINE
  8
_0-3_A0
  6
CONTINUOUS
 62
    3
 10
70.901299999999935
 20
88.459736363636366
 11
70.962899999999933
 21
88.462636363636377
  0
LINE
  8
_0-3_A0
  6
CONTINUOUS
 62
    3
 10
70.962899999999933
 20
88.462636363636377
 11
71.024599999999963
 21
88.463336363636372
  0
LINE
  8
_0-3_A0
  6
CONTINUOUS
 62
    3
 10
71.024599999999963
 20
88.463336363636372
 11
71.086499999999944
 21
88.461936363636368
  0
LINE
  8
_0-3_A0
  6
CONTINUOUS
 62
    3
 10
71.086499999999944
 20
88.461936363636368
 11
71.148499999999955
 21
88.458436363636366
  0
LINE
  8
_0-3_A0
  6
CONTINUOUS
 62
    3
 10
71.148499999999955
 20
88.458436363636366
 11
71.210699999999945
 21
88.452836363636365
  0
LINE
  8
_0-3_A0
  6
CONTINUOUS
 62
    3
 10
71.210699999999945
 20
88.452836363636365
 11
71.272999999999939
 21
88.445336363636371
  0
LINE
  8
_0-3_A0
  6
CONTINUOUS
 62
    3
 10
71.272999999999939
 20
88.445336363636371
 11
71.335399999999935
 21
88.435736363636365
  0
LINE
  8
_0-3_A0
  6
CONTINUOUS
 62
    3
 10
71.335399999999935
 20
88.435736363636365
 11
71.397999999999939
 21
88.424336363636371
  0
LINE
  8
_0-3_A0
  6
CONTINUOUS
 62
    3
 10
71.397999999999939
 20
88.424336363636371
 11
71.460699999999945
 21
88.410936363636366
  0
LINE
  8
_0-3_A0
  6
CONTINUOUS
 62
    3
 10
71.460699999999945
 20
88.410936363636366
 11
71.52359999999993
 21
88.395836363636377
  0
LINE
  8
_0-3_A0
  6
CONTINUOUS
 62
    3
 10
71.52359999999993
 20
88.395836363636377
 11
71.586499999999944
 21
88.378836363636366
  0
LINE
  8
_0-3_A0
  6
CONTINUOUS
 62
    3
 10
71.586499999999944
 20
88.378836363636366
 11
71.649599999999963
 21
88.360036363636368
  0
LINE
  8
_0-3_A0
  6
CONTINUOUS
 62
    3
 10
71.649599999999963
 20
88.360036363636368
 11
71.712799999999958
 21
88.339536363636369
  0
LINE
  8
_0-3_A0
  6
CONTINUOUS
 62
    3
 10
71.712799999999958
 20
88.339536363636369
 11
71.77619999999996
 21
88.317436363636375
  0
LINE
  8
_0-3_A0
  6
CONTINUOUS
 62
    3
 10
71.77619999999996
 20
88.317436363636375
 11
71.839599999999961
 21
88.293636363636366
  0
LINE
  8
_0-3_A0
  6
CONTINUOUS
 62
    3
 10
71.839599999999961
 20
88.293636363636366
 11
71.903199999999941
 21
88.268236363636376
  0
LINE
  8
_0-3_A0
  6
CONTINUOUS
 62
    3
 10
71.903199999999941
 20
88.268236363636376
 11
71.966799999999949
 21
88.241236363636375
  0
LINE
  8
_0-3_A0
  6
CONTINUOUS
 62
    3
 10
71.966799999999949
 20
88.241236363636375
 11
72.030599999999935
 21
88.212736363636366
  0
LINE
  8
_0-3_A0
  6
CONTINUOUS
 62
    3
 10
72.030599999999935
 20
88.212736363636366
 11
72.094499999999925
 21
88.182736363636365
  0
LINE
  8
_0-3_A0
  6
CONTINUOUS
 62
    3
 10
72.094499999999925
 20
88.182736363636365
 11
72.158499999999946
 21
88.151336363636374
  0
LINE
  8
_0-3_A0
  6
CONTINUOUS
 62
    3
 10
72.158499999999946
 20
88.151336363636374
 11
72.222599999999943
 21
88.118436363636376
  0
LINE
  8
_0-3_A0
  6
CONTINUOUS
 62
    3
 10
72.222599999999943
 20
88.118436363636376
 11
72.286699999999939
 21
88.084236363636378
  0
LINE
  8
_0-3_A0
  6
CONTINUOUS
 62
    3
 10
72.286699999999939
 20
88.084236363636378
 11
72.350999999999942
 21
88.048736363636365
  0
LINE
  8
_0-3_A0
  6
CONTINUOUS
 62
    3
 10
72.350999999999942
 20
88.048736363636365
 11
72.415399999999948
 21
88.011936363636365
  0
LINE
  8
_0-3_A0
  6
CONTINUOUS
 62
    3
 10
72.415399999999948
 20
88.011936363636365
 11
72.479799999999954
 21
87.973836363636365
  0
LINE
  8
_0-3_A0
  6
CONTINUOUS
 62
    3
 10
72.479799999999954
 20
87.973836363636365
 11
72.544399999999939
 21
87.934636363636371
  0
LINE
  8
_0-3_A0
  6
CONTINUOUS
 62
    3
 10
72.544399999999939
 20
87.934636363636371
 11
72.608999999999923
 21
87.894236363636366
  0
LINE
  8
_0-3_A0
  6
CONTINUOUS
 62
    3
 10
72.608999999999923
 20
87.894236363636366
 11
72.673699999999939
 21
87.852636363636378
  0
LINE
  8
_0-3_A0
  6
CONTINUOUS
 62
    3
 10
72.673699999999939
 20
87.852636363636378
 11
72.738399999999955
 21
87.81003636363637
  0
LINE
  8
_0-3_A0
  6
CONTINUOUS
 62
    3
 10
72.738399999999955
 20
87.81003636363637
 11
72.803299999999921
 21
87.766336363636369
  0
LINE
  8
_0-3_A0
  6
CONTINUOUS
 62
    3
 10
72.803299999999921
 20
87.766336363636369
 11
72.868199999999944
 21
87.721736363636367
  0
LINE
  8
_0-3_A0
  6
CONTINUOUS
 62
    3
 10
72.868199999999944
 20
87.721736363636367
 11
72.933199999999942
 21
87.67603636363637
  0
LINE
  8
_0-3_A0
  6
CONTINUOUS
 62
    3
 10
72.933199999999942
 20
87.67603636363637
 11
72.99819999999994
 21
87.629536363636375
  0
LINE
  8
_0-3_A0
  6
CONTINUOUS
 62
    3
 10
72.99819999999994
 20
87.629536363636375
 11
73.063299999999941
 21
87.582036363636376
  0
LINE
  8
_0-3_A0
  6
CONTINUOUS
 62
    3
 10
73.063299999999941
 20
87.582036363636376
 11
73.128499999999945
 21
87.533736363636364
  0
LINE
  8
_0-3_A0
  6
CONTINUOUS
 62
    3
 10
73.128499999999945
 20
87.533736363636364
 11
73.19369999999995
 21
87.484736363636372
  0
LINE
  8
_0-3_A0
  6
CONTINUOUS
 62
    3
 10
73.19369999999995
 20
87.484736363636372
 11
73.258999999999957
 21
87.434836363636378
  0
LINE
  8
_0-3_A0
  6
CONTINUOUS
 62
    3
 10
73.258999999999957
 20
87.434836363636378
 11
73.324299999999936
 21
87.384236363636375
  0
LINE
  8
_0-3_A0
  6
CONTINUOUS
 62
    3
 10
73.324299999999936
 20
87.384236363636375
 11
73.389699999999947
 21
87.333036363636367
  0
LINE
  8
_0-3_A0
  6
CONTINUOUS
 62
    3
 10
73.389699999999947
 20
87.333036363636367
 11
73.455099999999958
 21
87.281136363636377
  0
LINE
  8
_0-3_A0
  6
CONTINUOUS
 62
    3
 10
73.455099999999958
 20
87.281136363636377
 11
73.520599999999944
 21
87.228636363636368
  0
LINE
  8
_0-3_A0
  6
CONTINUOUS
 62
    3
 10
73.520599999999944
 20
87.228636363636368
 11
73.58609999999993
 21
87.175536363636368
  0
LINE
  8
_0-3_A0
  6
CONTINUOUS
 62
    3
 10
73.58609999999993
 20
87.175536363636368
 11
73.651599999999945
 21
87.121936363636365
  0
LINE
  8
_0-3_A0
  6
CONTINUOUS
 62
    3
 10
73.651599999999945
 20
87.121936363636365
 11
73.717199999999934
 21
87.067936363636377
  0
LINE
  8
_0-3_A0
  6
CONTINUOUS
 62
    3
 10
73.717199999999934
 20
87.067936363636377
 11
73.782799999999951
 21
87.013436363636373
  0
LINE
  8
_0-3_A0
  6
CONTINUOUS
 62
    3
 10
73.782799999999951
 20
87.013436363636373
 11
73.848399999999941
 21
86.958536363636369
  0
LINE
  8
_0-3_A0
  6
CONTINUOUS
 62
    3
 10
73.848399999999941
 20
86.958536363636369
 11
73.914099999999962
 21
86.903236363636366
  0
LINE
  8
_0-3_A0
  6
CONTINUOUS
 62
    3
 10
73.914099999999962
 20
86.903236363636366
 11
73.979799999999954
 21
86.847636363636368
  0
LINE
  8
_0-3_A0
  6
CONTINUOUS
 62
    3
 10
73.979799999999954
 20
86.847636363636368
 11
74.045499999999947
 21
86.791836363636377
  0
LINE
  8
_0-3_A0
  6
CONTINUOUS
 62
    3
 10
74.045499999999947
 20
86.791836363636377
 11
74.111199999999939
 21
86.735736363636377
  0
LINE
  8
_0-3_A0
  6
CONTINUOUS
 62
    3
 10
74.111199999999939
 20
86.735736363636377
 11
74.176899999999932
 21
86.679336363636366
  0
LINE
  8
_0-3_A0
  6
CONTINUOUS
 62
    3
 10
74.176899999999932
 20
86.679336363636366
 11
74.242599999999924
 21
86.62293636363637
  0
LINE
  8
_0-3_A0
  6
CONTINUOUS
 62
    3
 10
74.242599999999924
 20
86.62293636363637
 11
74.308399999999949
 21
86.566336363636366
  0
LINE
  8
_0-3_A0
  6
CONTINUOUS
 62
    3
 10
74.308399999999949
 20
86.566336363636366
 11
74.374099999999941
 21
86.509636363636374
  0
LINE
  8
_0-3_A0
  6
CONTINUOUS
 62
    3
 10
74.374099999999941
 20
86.509636363636374
 11
74.439899999999937
 21
86.452936363636368
  0
LINE
  8
_0-3_A0
  6
CONTINUOUS
 62
    3
 10
119.45499999999994
 20
87.061236363636368
 11
119.53499999999992
 21
87.093636363636377
  0
LINE
  8
_0-3_A0
  6
CONTINUOUS
 62
    3
 10
119.53499999999992
 20
87.093636363636377
 11
119.61499999999992
 21
87.12593636363637
  0
LINE
  8
_0-3_A0
  6
CONTINUOUS
 62
    3
 10
119.61499999999992
 20
87.12593636363637
 11
119.69599999999994
 21
87.158236363636376
  0
LINE
  8
_0-3_A0
  6
CONTINUOUS
 62
    3
 10
119.69599999999994
 20
87.158236363636376
 11
119.77599999999992
 21
87.190436363636365
  0
LINE
  8
_0-3_A0
  6
CONTINUOUS
 62
    3
 10
119.77599999999992
 20
87.190436363636365
 11
119.85599999999992
 21
87.222536363636365
  0
LINE
  8
_0-3_A0
  6
CONTINUOUS
 62
    3
 10
119.85599999999992
 20
87.222536363636365
 11
119.93599999999995
 21
87.254436363636372
  0
LINE
  8
_0-3_A0
  6
CONTINUOUS
 62
    3
 10
119.93599999999995
 20
87.254436363636372
 11
120.01599999999993
 21
87.286236363636376
  0
LINE
  8
_0-3_A0
  6
CONTINUOUS
 62
    3
 10
120.01599999999993
 20
87.286236363636376
 11
120.09599999999994
 21
87.317936363636377
  0
LINE
  8
_0-3_A0
  6
CONTINUOUS
 62
    3
 10
120.09599999999994
 20
87.317936363636377
 11
120.17599999999994
 21
87.349336363636368
  0
LINE
  8
_0-3_A0
  6
CONTINUOUS
 62
    3
 10
120.17599999999994
 20
87.349336363636368
 11
120.25599999999994
 21
87.380536363636366
  0
LINE
  8
_0-3_A0
  6
CONTINUOUS
 62
    3
 10
120.25599999999994
 20
87.380536363636366
 11
120.33599999999994
 21
87.411536363636372
  0
LINE
  8
_0-3_A0
  6
CONTINUOUS
 62
    3
 10
120.33599999999994
 20
87.411536363636372
 11
120.41699999999994
 21
87.442236363636368
  0
LINE
  8
_0-3_A0
  6
CONTINUOUS
 62
    3
 10
120.41699999999994
 20
87.442236363636368
 11
120.49699999999994
 21
87.472536363636365
  0
LINE
  8
_0-3_A0
  6
CONTINUOUS
 62
    3
 10
120.49699999999994
 20
87.472536363636365
 11
120.57699999999994
 21
87.502636363636369
  0
LINE
  8
_0-3_A0
  6
CONTINUOUS
 62
    3
 10
120.57699999999994
 20
87.502636363636369
 11
120.65699999999992
 21
87.532236363636371
  0
LINE
  8
_0-3_A0
  6
CONTINUOUS
 62
    3
 10
120.65699999999992
 20
87.532236363636371
 11
120.73699999999992
 21
87.561536363636378
  0
LINE
  8
_0-3_A0
  6
CONTINUOUS
 62
    3
 10
120.73699999999992
 20
87.561536363636378
 11
120.81699999999993
 21
87.590436363636371
  0
LINE
  8
_0-3_A0
  6
CONTINUOUS
 62
    3
 10
120.81699999999993
 20
87.590436363636371
 11
120.89699999999993
 21
87.618936363636365
  0
LINE
  8
_0-3_A0
  6
CONTINUOUS
 62
    3
 10
120.89699999999993
 20
87.618936363636365
 11
120.97699999999994
 21
87.64693636363637
  0
LINE
  8
_0-3_A0
  6
CONTINUOUS
 62
    3
 10
120.97699999999994
 20
87.64693636363637
 11
121.05699999999994
 21
87.674436363636374
  0
LINE
  8
_0-3_A0
  6
CONTINUOUS
 62
    3
 10
121.05699999999994
 20
87.674436363636374
 11
121.13699999999994
 21
87.701536363636378
  0
LINE
  8
_0-3_A0
  6
CONTINUOUS
 62
    3
 10
121.13699999999994
 20
87.701536363636378
 11
121.21699999999994
 21
87.727936363636374
  0
LINE
  8
_0-3_A0
  6
CONTINUOUS
 62
    3
 10
121.21699999999994
 20
87.727936363636374
 11
121.29699999999994
 21
87.75393636363637
  0
LINE
  8
_0-3_A0
  6
CONTINUOUS
 62
    3
 10
121.29699999999994
 20
87.75393636363637
 11
121.37699999999992
 21
87.779236363636371
  0
LINE
  8
_0-3_A0
  6
CONTINUOUS
 62
    3
 10
121.37699999999992
 20
87.779236363636371
 11
121.45699999999993
 21
87.803936363636367
  0
LINE
  8
_0-3_A0
  6
CONTINUOUS
 62
    3
 10
121.45699999999993
 20
87.803936363636367
 11
121.53699999999993
 21
87.828036363636371
  0
LINE
  8
_0-3_A0
  6
CONTINUOUS
 62
    3
 10
121.53699999999993
 20
87.828036363636371
 11
121.61699999999993
 21
87.85153636363637
  0
LINE
  8
_0-3_A0
  6
CONTINUOUS
 62
    3
 10
121.61699999999993
 20
87.85153636363637
 11
121.69699999999994
 21
87.87423636363637
  0
LINE
  8
_0-3_A0
  6
CONTINUOUS
 62
    3
 10
121.69699999999994
 20
87.87423636363637
 11
121.77699999999994
 21
87.896336363636365
  0
LINE
  8
_0-3_A0
  6
CONTINUOUS
 62
    3
 10
121.77699999999994
 20
87.896336363636365
 11
121.85699999999994
 21
87.917636363636376
  0
LINE
  8
_0-3_A0
  6
CONTINUOUS
 62
    3
 10
121.85699999999994
 20
87.917636363636376
 11
121.93699999999994
 21
87.938136363636374
  0
LINE
  8
_0-3_A0
  6
CONTINUOUS
 62
    3
 10
121.93699999999994
 20
87.938136363636374
 11
122.01699999999992
 21
87.957936363636378
  0
LINE
  8
_0-3_A0
  6
CONTINUOUS
 62
    3
 10
122.01699999999992
 20
87.957936363636378
 11
122.09699999999992
 21
87.976836363636365
  0
LINE
  8
_0-3_A0
  6
CONTINUOUS
 62
    3
 10
122.09699999999992
 20
87.976836363636365
 11
122.17699999999993
 21
87.994936363636369
  0
LINE
  8
_0-3_A0
  6
CONTINUOUS
 62
    3
 10
122.17699999999993
 20
87.994936363636369
 11
122.25599999999994
 21
88.012236363636375
  0
LINE
  8
_0-3_A0
  6
CONTINUOUS
 62
    3
 10
122.25599999999994
 20
88.012236363636375
 11
122.33599999999994
 21
88.028536363636376
  0
LINE
  8
_0-3_A0
  6
CONTINUOUS
 62
    3
 10
122.33599999999994
 20
88.028536363636376
 11
122.41599999999992
 21
88.043936363636376
  0
LINE
  8
_0-3_A0
  6
CONTINUOUS
 62
    3
 10
122.41599999999992
 20
88.043936363636376
 11
122.49599999999992
 21
88.058436363636374
  0
LINE
  8
_0-3_A0
  6
CONTINUOUS
 62
    3
 10
122.49599999999992
 20
88.058436363636374
 11
122.57599999999993
 21
88.072036363636371
  0
LINE
  8
_0-3_A0
  6
CONTINUOUS
 62
    3
 10
122.57599999999993
 20
88.072036363636371
 11
122.65599999999993
 21
88.084536363636374
  0
LINE
  8
_0-3_A0
  6
CONTINUOUS
 62
    3
 10
122.65599999999993
 20
88.084536363636374
 11
122.73499999999994
 21
88.096136363636375
  0
LINE
  8
_0-3_A0
  6
CONTINUOUS
 62
    3
 10
122.73499999999994
 20
88.096136363636375
 11
122.81499999999994
 21
88.106536363636365
  0
LINE
  8
_0-3_A0
  6
CONTINUOUS
 62
    3
 10
122.81499999999994
 20
88.106536363636365
 11
122.89499999999992
 21
88.116036363636368
  0
LINE
  8
_0-3_A0
  6
CONTINUOUS
 62
    3
 10
122.89499999999992
 20
88.116036363636368
 11
122.97499999999992
 21
88.124336363636373
  0
LINE
  8
_0-3_A0
  6
CONTINUOUS
 62
    3
 10
122.97499999999992
 20
88.124336363636373
 11
123.05399999999994
 21
88.131536363636371
  0
LINE
  8
_0-3_A0
  6
CONTINUOUS
 62
    3
 10
123.05399999999994
 20
88.131536363636371
 11
123.13399999999994
 21
88.137636363636374
  0
LINE
  8
_0-3_A0
  6
CONTINUOUS
 62
    3
 10
123.13399999999994
 20
88.137636363636374
 11
123.21399999999994
 21
88.142536363636367
  0
LINE
  8
_0-3_A0
  6
CONTINUOUS
 62
    3
 10
123.21399999999994
 20
88.142536363636367
 11
123.29299999999993
 21
88.146236363636376
  0
LINE
  8
_0-3_A0
  6
CONTINUOUS
 62
    3
 10
123.29299999999993
 20
88.146236363636376
 11
123.37299999999993
 21
88.148736363636373
  0
LINE
  8
_0-3_A0
  6
CONTINUOUS
 62
    3
 10
123.37299999999993
 20
88.148736363636373
 11
123.45199999999994
 21
88.149936363636371
  0
LINE
  8
_0-3_A0
  6
CONTINUOUS
 62
    3
 10
123.45199999999994
 20
88.149936363636371
 11
123.53199999999992
 21
88.149936363636371
  0
LINE
  8
_0-3_A0
  6
CONTINUOUS
 62
    3
 10
123.53199999999992
 20
88.149936363636371
 11
123.61199999999992
 21
88.14863636363637
  0
LINE
  8
_0-3_A0
  6
CONTINUOUS
 62
    3
 10
123.61199999999992
 20
88.14863636363637
 11
123.69099999999994
 21
88.145936363636366
  0
LINE
  8
_0-3_A0
  6
CONTINUOUS
 62
    3
 10
123.69099999999994
 20
88.145936363636366
 11
123.77099999999994
 21
88.141936363636375
  0
LINE
  8
_0-3_A0
  6
CONTINUOUS
 62
    3
 10
123.77099999999994
 20
88.141936363636375
 11
123.84999999999992
 21
88.13663636363637
  0
LINE
  8
_0-3_A0
  6
CONTINUOUS
 62
    3
 10
123.84999999999992
 20
88.13663636363637
 11
123.92899999999994
 21
88.129836363636371
  0
LINE
  8
_0-3_A0
  6
CONTINUOUS
 62
    3
 10
123.92899999999994
 20
88.129836363636371
 11
124.00899999999994
 21
88.121636363636369
  0
LINE
  8
_0-3_A0
  6
CONTINUOUS
 62
    3
 10
124.00899999999994
 20
88.121636363636369
 11
124.08799999999993
 21
88.112036363636377
  0
LINE
  8
_0-3_A0
  6
CONTINUOUS
 62
    3
 10
124.08799999999993
 20
88.112036363636377
 11
124.16799999999993
 21
88.100936363636378
  0
LINE
  8
_0-3_A0
  6
CONTINUOUS
 62
    3
 10
124.16799999999993
 20
88.100936363636378
 11
124.24699999999994
 21
88.088336363636372
  0
LINE
  8
_0-3_A0
  6
CONTINUOUS
 62
    3
 10
124.24699999999994
 20
88.088336363636372
 11
124.32599999999993
 21
88.074236363636373
  0
LINE
  8
_0-3_A0
  6
CONTINUOUS
 62
    3
 10
124.32599999999993
 20
88.074236363636373
 11
124.40599999999993
 21
88.058636363636367
  0
LINE
  8
_0-3_A0
  6
CONTINUOUS
 62
    3
 10
124.40599999999993
 20
88.058636363636367
 11
124.48499999999994
 21
88.041436363636364
  0
LINE
  8
_0-3_A0
  6
CONTINUOUS
 62
    3
 10
124.48499999999994
 20
88.041436363636364
 11
124.56399999999993
 21
88.022936363636375
  0
LINE
  8
_0-3_A0
  6
CONTINUOUS
 62
    3
 10
124.56399999999993
 20
88.022936363636375
 11
124.64299999999994
 21
88.003036363636368
  0
LINE
  8
_0-3_A0
  6
CONTINUOUS
 62
    3
 10
124.64299999999994
 20
88.003036363636368
 11
124.72299999999994
 21
87.981836363636375
  0
LINE
  8
_0-3_A0
  6
CONTINUOUS
 62
    3
 10
124.72299999999994
 20
87.981836363636375
 11
124.80199999999993
 21
87.959536363636374
  0
LINE
  8
_0-3_A0
  6
CONTINUOUS
 62
    3
 10
124.80199999999993
 20
87.959536363636374
 11
124.88099999999994
 21
87.935936363636372
  0
LINE
  8
_0-3_A0
  6
CONTINUOUS
 62
    3
 10
124.88099999999994
 20
87.935936363636372
 11
124.95999999999993
 21
87.911336363636365
  0
LINE
  8
_0-3_A0
  6
CONTINUOUS
 62
    3
 10
124.95999999999993
 20
87.911336363636365
 11
125.03899999999994
 21
87.885736363636368
  0
LINE
  8
_0-3_A0
  6
CONTINUOUS
 62
    3
 10
125.03899999999994
 20
87.885736363636368
 11
125.11799999999992
 21
87.859136363636366
  0
LINE
  8
_0-3_A0
  6
CONTINUOUS
 62
    3
 10
125.11799999999992
 20
87.859136363636366
 11
125.19699999999994
 21
87.831736363636366
  0
LINE
  8
_0-3_A0
  6
CONTINUOUS
 62
    3
 10
125.19699999999994
 20
87.831736363636366
 11
125.27599999999992
 21
87.803436363636365
  0
LINE
  8
_0-3_A0
  6
CONTINUOUS
 62
    3
 10
125.27599999999992
 20
87.803436363636365
 11
125.35499999999993
 21
87.774336363636365
  0
LINE
  8
_0-3_A0
  6
CONTINUOUS
 62
    3
 10
125.35499999999993
 20
87.774336363636365
 11
125.43399999999994
 21
87.744636363636374
  0
LINE
  8
_0-3_A0
  6
CONTINUOUS
 62
    3
 10
125.43399999999994
 20
87.744636363636374
 11
125.51299999999993
 21
87.714336363636377
  0
LINE
  8
_0-3_A0
  6
CONTINUOUS
 62
    3
 10
125.51299999999993
 20
87.714336363636377
 11
125.59199999999995
 21
87.683436363636374
  0
LINE
  8
_0-3_A0
  6
CONTINUOUS
 62
    3
 10
125.59199999999995
 20
87.683436363636374
 11
125.67099999999993
 21
87.652036363636369
  0
LINE
  8
_0-3_A0
  6
CONTINUOUS
 62
    3
 10
125.67099999999993
 20
87.652036363636369
 11
125.74999999999994
 21
87.620236363636365
  0
LINE
  8
_0-3_A0
  6
CONTINUOUS
 62
    3
 10
125.74999999999994
 20
87.620236363636365
 11
125.82799999999994
 21
87.588036363636376
  0
LINE
  8
_0-3_A0
  6
CONTINUOUS
 62
    3
 10
125.82799999999994
 20
87.588036363636376
 11
125.90699999999995
 21
87.555536363636377
  0
LINE
  8
_0-3_A0
  6
CONTINUOUS
 62
    3
 10
125.90699999999995
 20
87.555536363636377
 11
125.98599999999993
 21
87.522836363636372
  0
LINE
  8
_0-3_A0
  6
CONTINUOUS
 62
    3
 10
125.98599999999993
 20
87.522836363636372
 11
126.06499999999994
 21
87.490036363636377
  0
LINE
  8
_0-3_A0
  6
CONTINUOUS
 62
    3
 10
126.06499999999994
 20
87.490036363636377
 11
126.14299999999994
 21
87.457036363636376
  0
LINE
  8
_0-3_A0
  6
CONTINUOUS
 62
    3
 10
126.14299999999994
 20
87.457036363636376
 11
126.22199999999995
 21
87.424136363636378
  0
LINE
  8
_0-3_A0
  6
CONTINUOUS
 62
    3
 10
126.22199999999995
 20
87.424136363636378
 11
126.29999999999995
 21
87.391136363636377
  0
LINE
  8
_0-3_A0
  6
CONTINUOUS
 62
    3
 10
126.29999999999995
 20
87.391136363636377
 11
126.37899999999993
 21
87.358336363636368
  0
LINE
  8
_0-3_A0
  6
CONTINUOUS
 62
    3
 10
126.37899999999993
 20
87.358336363636368
 11
126.45699999999993
 21
87.325636363636377
  0
LINE
  8
_0-3_A0
  6
CONTINUOUS
 62
    3
 10
126.45699999999993
 20
87.325636363636377
 11
126.53599999999994
 21
87.293236363636367
  0
LINE
  8
_0-3_A0
  6
CONTINUOUS
 62
    3
 10
126.53599999999994
 20
87.293236363636367
 11
126.61399999999993
 21
87.261136363636367
  0
LINE
  8
_0-3_A0
  6
CONTINUOUS
 62
    3
 10
126.61399999999993
 20
87.261136363636367
 11
126.69299999999995
 21
87.229336363636377
  0
LINE
  8
_0-3_A0
  6
CONTINUOUS
 62
    3
 10
126.69299999999995
 20
87.229336363636377
 11
126.77099999999991
 21
87.198036363636376
  0
LINE
  8
_0-3_A0
  6
CONTINUOUS
 62
    3
 10
126.77099999999991
 20
87.198036363636376
 11
126.84899999999993
 21
87.167136363636373
  0
LINE
  8
_0-3_A0
  6
CONTINUOUS
 62
    3
 10
126.84899999999993
 20
87.167136363636373
 11
126.92799999999994
 21
87.136936363636365
  0
LINE
  8
_0-3_A0
  6
CONTINUOUS
 62
    3
 10
126.92799999999994
 20
87.136936363636365
 11
127.00599999999994
 21
87.107236363636374
  0
LINE
  8
_0-3_A0
  6
CONTINUOUS
 62
    3
 10
127.00599999999994
 20
87.107236363636374
 11
127.08399999999994
 21
87.078336363636367
  0
LINE
  8
_0-3_A0
  6
CONTINUOUS
 62
    3
 10
127.08399999999994
 20
87.078336363636367
 11
127.16199999999993
 21
87.050136363636369
  0
LINE
  8
_0-3_A0
  6
CONTINUOUS
 62
    3
 10
127.16199999999993
 20
87.050136363636369
 11
127.23999999999995
 21
87.022736363636369
  0
LINE
  8
_0-3_A0
  6
CONTINUOUS
 62
    3
 10
127.23999999999995
 20
87.022736363636369
 11
127.31899999999993
 21
86.996336363636373
  0
LINE
  8
_0-3_A0
  6
CONTINUOUS
 62
    3
 10
127.31899999999993
 20
86.996336363636373
 11
127.39699999999993
 21
86.970836363636365
  0
LINE
  8
_0-3_A0
  6
CONTINUOUS
 62
    3
 10
127.39699999999993
 20
86.970836363636365
 11
127.47499999999992
 21
86.946336363636376
  0
LINE
  8
_0-3_A0
  6
CONTINUOUS
 62
    3
 10
127.47499999999992
 20
86.946336363636376
 11
127.55299999999994
 21
86.922936363636367
  0
LINE
  8
_0-3_A0
  6
CONTINUOUS
 62
    3
 10
127.55299999999994
 20
86.922936363636367
 11
127.63099999999994
 21
86.900736363636369
  0
LINE
  8
_0-3_A0
  6
CONTINUOUS
 62
    3
 10
127.63099999999994
 20
86.900736363636369
 11
127.70799999999994
 21
86.879736363636368
  0
LINE
  8
_0-3_A0
  6
CONTINUOUS
 62
    3
 10
127.70799999999994
 20
86.879736363636368
 11
127.78599999999994
 21
86.859936363636364
  0
LINE
  8
_0-3_A0
  6
CONTINUOUS
 62
    3
 10
127.78599999999994
 20
86.859936363636364
 11
127.86399999999993
 21
86.841636363636368
  0
LINE
  8
_0-3_A0
  6
CONTINUOUS
 62
    3
 10
127.86399999999993
 20
86.841636363636368
 11
127.94199999999995
 21
86.824636363636372
  0
LINE
  8
_0-3_A0
  6
CONTINUOUS
 62
    3
 10
127.94199999999995
 20
86.824636363636372
 11
128.01999999999995
 21
86.809236363636372
  0
LINE
  8
_0-3_A0
  6
CONTINUOUS
 62
    3
 10
128.01999999999995
 20
86.809236363636372
 11
128.09699999999995
 21
86.795336363636366
  0
LINE
  8
_0-3_A0
  6
CONTINUOUS
 62
    3
 10
128.09699999999995
 20
86.795336363636366
 11
128.17499999999995
 21
86.783036363636369
  0
LINE
  8
_0-3_A0
  6
CONTINUOUS
 62
    3
 10
128.17499999999995
 20
86.783036363636369
 11
128.25299999999992
 21
86.772436363636373
  0
LINE
  8
_0-3_A0
  6
CONTINUOUS
 62
    3
 10
128.25299999999992
 20
86.772436363636373
 11
128.32999999999995
 21
86.763536363636376
  0
LINE
  8
_0-3_A0
  6
CONTINUOUS
 62
    3
 10
128.32999999999995
 20
86.763536363636376
 11
128.40799999999993
 21
86.756536363636371
  0
LINE
  8
_0-3_A0
  6
CONTINUOUS
 62
    3
 10
128.40799999999993
 20
86.756536363636371
 11
128.48499999999995
 21
86.751336363636369
  0
LINE
  8
_0-3_A0
  6
CONTINUOUS
 62
    3
 10
128.48499999999995
 20
86.751336363636369
 11
128.56299999999993
 21
86.748136363636376
  0
LINE
  8
_0-3_A0
  6
CONTINUOUS
 62
    3
 10
128.56299999999993
 20
86.748136363636376
 11
128.63999999999992
 21
86.746936363636365
  0
LINE
  8
_0-3_A0
  6
CONTINUOUS
 62
    3
 10
128.63999999999992
 20
86.746936363636365
 11
128.71699999999995
 21
86.747836363636366
  0
LINE
  8
_0-3_A0
  6
CONTINUOUS
 62
    3
 10
128.71699999999995
 20
86.747836363636366
 11
128.79499999999993
 21
86.750836363636366
  0
LINE
  8
_0-3_A0
  6
CONTINUOUS
 62
    3
 10
128.79499999999993
 20
86.750836363636366
 11
128.87199999999995
 21
86.756036363636368
  0
LINE
  8
_0-3_A0
  6
CONTINUOUS
 62
    3
 10
128.87199999999995
 20
86.756036363636368
 11
128.94899999999995
 21
86.763536363636376
  0
LINE
  8
_0-3_A0
  6
CONTINUOUS
 62
    3
 10
128.94899999999995
 20
86.763536363636376
 11
129.02599999999995
 21
86.773236363636371
  0
LINE
  8
_0-3_A0
  6
CONTINUOUS
 62
    3
 10
129.02599999999995
 20
86.773236363636371
 11
129.10299999999995
 21
86.785136363636368
  0
LINE
  8
_0-3_A0
  6
CONTINUOUS
 62
    3
 10
129.10299999999995
 20
86.785136363636368
 11
129.17999999999994
 21
86.799036363636375
  0
LINE
  8
_0-3_A0
  6
CONTINUOUS
 62
    3
 10
129.17999999999994
 20
86.799036363636375
 11
129.25699999999994
 21
86.814936363636377
  0
LINE
  8
_0-3_A0
  6
CONTINUOUS
 62
    3
 10
129.25699999999994
 20
86.814936363636377
 11
129.33399999999994
 21
86.832736363636371
  0
LINE
  8
_0-3_A0
  6
CONTINUOUS
 62
    3
 10
129.33399999999994
 20
86.832736363636371
 11
129.41099999999994
 21
86.852436363636371
  0
LINE
  8
_0-3_A0
  6
CONTINUOUS
 62
    3
 10
129.41099999999994
 20
86.852436363636371
 11
129.48799999999994
 21
86.873836363636371
  0
LINE
  8
_0-3_A0
  6
CONTINUOUS
 62
    3
 10
129.48799999999994
 20
86.873836363636371
 11
129.56499999999994
 21
86.89693636363637
  0
LINE
  8
_0-3_A0
  6
CONTINUOUS
 62
    3
 10
129.56499999999994
 20
86.89693636363637
 11
129.64199999999993
 21
86.921636363636366
  0
LINE
  8
_0-3_A0
  6
CONTINUOUS
 62
    3
 10
129.64199999999993
 20
86.921636363636366
 11
129.71899999999993
 21
86.947836363636369
  0
LINE
  8
_0-3_A0
  6
CONTINUOUS
 62
    3
 10
129.71899999999993
 20
86.947836363636369
 11
129.79499999999993
 21
86.975536363636365
  0
LINE
  8
_0-3_A0
  6
CONTINUOUS
 62
    3
 10
129.79499999999993
 20
86.975536363636365
 11
129.87199999999995
 21
87.004536363636375
  0
LINE
  8
_0-3_A0
  6
CONTINUOUS
 62
    3
 10
129.87199999999995
 20
87.004536363636375
 11
129.94899999999995
 21
87.034836363636372
  0
LINE
  8
_0-3_A0
  6
CONTINUOUS
 62
    3
 10
129.94899999999995
 20
87.034836363636372
 11
130.02499999999994
 21
87.06643636363637
  0
LINE
  8
_0-3_A0
  6
CONTINUOUS
 62
    3
 10
130.02499999999994
 20
87.06643636363637
 11
130.10199999999994
 21
87.099036363636372
  0
LINE
  8
_0-3_A0
  6
CONTINUOUS
 62
    3
 10
130.10199999999994
 20
87.099036363636372
 11
130.17899999999994
 21
87.132836363636371
  0
LINE
  8
_0-3_A0
  6
CONTINUOUS
 62
    3
 10
130.17899999999994
 20
87.132836363636371
 11
130.25499999999993
 21
87.167536363636372
  0
LINE
  8
_0-3_A0
  6
CONTINUOUS
 62
    3
 10
130.25499999999993
 20
87.167536363636372
 11
130.33199999999993
 21
87.203136363636374
  0
LINE
  8
_0-3_A0
  6
CONTINUOUS
 62
    3
 10
130.33199999999993
 20
87.203136363636374
 11
130.40799999999993
 21
87.239536363636375
  0
LINE
  8
_0-3_A0
  6
CONTINUOUS
 62
    3
 10
130.40799999999993
 20
87.239536363636375
 11
130.48399999999995
 21
87.276736363636373
  0
LINE
  8
_0-3_A0
  6
CONTINUOUS
 62
    3
 10
130.48399999999995
 20
87.276736363636373
 11
130.56099999999995
 21
87.314536363636378
  0
LINE
  8
_0-3_A0
  6
CONTINUOUS
 62
    3
 10
130.56099999999995
 20
87.314536363636378
 11
130.63699999999994
 21
87.352936363636374
  0
LINE
  8
_0-3_A0
  6
CONTINUOUS
 62
    3
 10
130.63699999999994
 20
87.352936363636374
 11
130.71399999999994
 21
87.391936363636375
  0
LINE
  8
_0-3_A0
  6
CONTINUOUS
 62
    3
 10
130.71399999999994
 20
87.391936363636375
 11
130.78999999999993
 21
87.431336363636376
  0
LINE
  8
_0-3_A0
  6
CONTINUOUS
 62
    3
 10
130.78999999999993
 20
87.431336363636376
 11
130.86599999999995
 21
87.471036363636372
  0
LINE
  8
_0-3_A0
  6
CONTINUOUS
 62
    3
 10
130.86599999999995
 20
87.471036363636372
 11
130.94299999999995
 21
87.511036363636378
  0
LINE
  8
_0-3_A0
  6
CONTINUOUS
 62
    3
 10
130.94299999999995
 20
87.511036363636378
 11
131.01899999999994
 21
87.551336363636366
  0
LINE
  8
_0-3_A0
  6
CONTINUOUS
 62
    3
 10
131.01899999999994
 20
87.551336363636366
 11
131.09499999999994
 21
87.591636363636368
  0
LINE
  8
_0-3_A0
  6
CONTINUOUS
 62
    3
 10
131.09499999999994
 20
87.591636363636368
 11
131.17099999999993
 21
87.632036363636373
  0
LINE
  8
_0-3_A0
  6
CONTINUOUS
 62
    3
 10
131.17099999999993
 20
87.632036363636373
 11
131.24699999999995
 21
87.672436363636364
  0
LINE
  8
_0-3_A0
  6
CONTINUOUS
 62
    3
 10
131.24699999999995
 20
87.672436363636364
 11
131.32399999999995
 21
87.712636363636377
  0
LINE
  8
_0-3_A0
  6
CONTINUOUS
 62
    3
 10
131.32399999999995
 20
87.712636363636377
 11
131.39999999999994
 21
87.752736363636373
  0
LINE
  8
_0-3_A0
  6
CONTINUOUS
 62
    3
 10
131.39999999999994
 20
87.752736363636373
 11
131.47599999999994
 21
87.792536363636372
  0
LINE
  8
_0-3_A0
  6
CONTINUOUS
 62
    3
 10
131.47599999999994
 20
87.792536363636372
 11
131.55199999999993
 21
87.832036363636376
  0
LINE
  8
_0-3_A0
  6
CONTINUOUS
 62
    3
 10
131.55199999999993
 20
87.832036363636376
 11
131.62799999999992
 21
87.871036363636378
  0
LINE
  8
_0-3_A0
  6
CONTINUOUS
 62
    3
 10
131.62799999999992
 20
87.871036363636378
 11
131.70399999999995
 21
87.909636363636366
  0
LINE
  8
_0-3_A0
  6
CONTINUOUS
 62
    3
 10
131.70399999999995
 20
87.909636363636366
 11
131.77999999999994
 21
87.947636363636377
  0
LINE
  8
_0-3_A0
  6
CONTINUOUS
 62
    3
 10
131.77999999999994
 20
87.947636363636377
 11
131.85599999999993
 21
87.984936363636364
  0
LINE
  8
_0-3_A0
  6
CONTINUOUS
 62
    3
 10
131.85599999999993
 20
87.984936363636364
 11
131.93199999999993
 21
88.021536363636371
  0
LINE
  8
_0-3_A0
  6
CONTINUOUS
 62
    3
 10
131.93199999999993
 20
88.021536363636371
 11
132.00799999999995
 21
88.057336363636366
  0
LINE
  8
_0-3_A0
  6
CONTINUOUS
 62
    3
 10
132.00799999999995
 20
88.057336363636366
 11
132.08399999999994
 21
88.092236363636374
  0
LINE
  8
_0-3_A0
  6
CONTINUOUS
 62
    3
 10
132.08399999999994
 20
88.092236363636374
 11
132.15999999999993
 21
88.126136363636376
  0
LINE
  8
_0-3_A0
  6
CONTINUOUS
 62
    3
 10
132.15999999999993
 20
88.126136363636376
 11
132.23599999999993
 21
88.159136363636378
  0
LINE
  8
_0-3_A0
  6
CONTINUOUS
 62
    3
 10
132.23599999999993
 20
88.159136363636378
 11
132.31199999999995
 21
88.190836363636378
  0
LINE
  8
_0-3_A0
  6
CONTINUOUS
 62
    3
 10
132.31199999999995
 20
88.190836363636378
 11
132.38799999999994
 21
88.221436363636371
  0
LINE
  8
_0-3_A0
  6
CONTINUOUS
 62
    3
 10
132.38799999999994
 20
88.221436363636371
 11
132.46399999999994
 21
88.250836363636366
  0
LINE
  8
_0-3_A0
  6
CONTINUOUS
 62
    3
 10
132.46399999999994
 20
88.250836363636366
 11
132.53999999999993
 21
88.278736363636369
  0
LINE
  8
_0-3_A0
  6
CONTINUOUS
 62
    3
 10
132.53999999999993
 20
88.278736363636369
 11
132.61599999999995
 21
88.305336363636371
  0
LINE
  8
_0-3_A0
  6
CONTINUOUS
 62
    3
 10
132.61599999999995
 20
88.305336363636371
 11
132.69199999999995
 21
88.330336363636376
  0
LINE
  8
_0-3_A0
  6
CONTINUOUS
 62
    3
 10
132.69199999999995
 20
88.330336363636376
 11
132.76699999999993
 21
88.353836363636375
  0
LINE
  8
_0-3_A0
  6
CONTINUOUS
 62
    3
 10
132.76699999999993
 20
88.353836363636375
 11
132.84299999999993
 21
88.375636363636374
  0
LINE
  8
_0-3_A0
  6
CONTINUOUS
 62
    3
 10
132.84299999999993
 20
88.375636363636374
 11
132.91899999999995
 21
88.39563636363637
  0
LINE
  8
_0-3_A0
  6
CONTINUOUS
 62
    3
 10
132.91899999999995
 20
88.39563636363637
 11
132.99499999999994
 21
88.413936363636366
  0
LINE
  8
_0-3_A0
  6
CONTINUOUS
 62
    3
 10
132.99499999999994
 20
88.413936363636366
 11
133.07099999999994
 21
88.430236363636367
  0
LINE
  8
_0-3_A0
  6
CONTINUOUS
 62
    3
 10
133.07099999999994
 20
88.430236363636367
 11
133.14699999999993
 21
88.444636363636377
  0
LINE
  8
_0-3_A0
  6
CONTINUOUS
 62
    3
 10
133.14699999999993
 20
88.444636363636377
 11
133.22299999999995
 21
88.456936363636373
  0
LINE
  8
_0-3_A0
  6
CONTINUOUS
 62
    3
 10
133.22299999999995
 20
88.456936363636373
 11
133.29899999999994
 21
88.46713636363637
  0
LINE
  8
_0-3_A0
  6
CONTINUOUS
 62
    3
 10
133.29899999999994
 20
88.46713636363637
 11
133.37399999999993
 21
88.475136363636366
  0
LINE
  8
_0-3_A0
  6
CONTINUOUS
 62
    3
 10
133.37399999999993
 20
88.475136363636366
 11
133.44999999999993
 21
88.480936363636374
  0
LINE
  8
_0-3_A0
  6
CONTINUOUS
 62
    3
 10
133.44999999999993
 20
88.480936363636374
 11
133.52599999999995
 21
88.48423636363637
  0
LINE
  8
_0-3_A0
  6
CONTINUOUS
 62
    3
 10
133.52599999999995
 20
88.48423636363637
 11
133.60199999999994
 21
88.485336363636378
  0
LINE
  8
_0-3_A0
  6
CONTINUOUS
 62
    3
 10
133.60199999999994
 20
88.485336363636378
 11
133.67799999999994
 21
88.48423636363637
  0
LINE
  8
_0-3_A0
  6
CONTINUOUS
 62
    3
 10
133.67799999999994
 20
88.48423636363637
 11
133.75399999999993
 21
88.48083636363637
  0
LINE
  8
_0-3_A0
  6
CONTINUOUS
 62
    3
 10
133.75399999999993
 20
88.48083636363637
 11
133.82999999999995
 21
88.475336363636372
  0
LINE
  8
_0-3_A0
  6
CONTINUOUS
 62
    3
 10
133.82999999999995
 20
88.475336363636372
 11
133.90599999999994
 21
88.467736363636376
  0
LINE
  8
_0-3_A0
  6
CONTINUOUS
 62
    3
 10
133.90599999999994
 20
88.467736363636376
 11
133.98099999999993
 21
88.45813636363637
  0
LINE
  8
_0-3_A0
  6
CONTINUOUS
 62
    3
 10
133.98099999999993
 20
88.45813636363637
 11
134.05699999999993
 21
88.446536363636369
  0
LINE
  8
_0-3_A0
  6
CONTINUOUS
 62
    3
 10
134.05699999999993
 20
88.446536363636369
 11
134.13299999999995
 21
88.433036363636375
  0
LINE
  8
_0-3_A0
  6
CONTINUOUS
 62
    3
 10
134.13299999999995
 20
88.433036363636375
 11
134.20899999999994
 21
88.417636363636376
  0
LINE
  8
_0-3_A0
  6
CONTINUOUS
 62
    3
 10
134.20899999999994
 20
88.417636363636376
 11
134.28499999999993
 21
88.400436363636373
  0
LINE
  8
_0-3_A0
  6
CONTINUOUS
 62
    3
 10
134.28499999999993
 20
88.400436363636373
 11
134.36099999999993
 21
88.381436363636368
  0
LINE
  8
_0-3_A0
  6
CONTINUOUS
 62
    3
 10
134.36099999999993
 20
88.381436363636368
 11
134.43699999999995
 21
88.360836363636366
  0
LINE
  8
_0-3_A0
  6
CONTINUOUS
 62
    3
 10
134.43699999999995
 20
88.360836363636366
 11
134.51299999999994
 21
88.338436363636375
  0
LINE
  8
_0-3_A0
  6
CONTINUOUS
 62
    3
 10
134.51299999999994
 20
88.338436363636375
 11
134.58799999999993
 21
88.314536363636378
  0
LINE
  8
_0-3_A0
  6
CONTINUOUS
 62
    3
 10
134.58799999999993
 20
88.314536363636378
 11
134.66399999999993
 21
88.28903636363637
  0
LINE
  8
_0-3_A0
  6
CONTINUOUS
 62
    3
 10
134.66399999999993
 20
88.28903636363637
 11
134.73999999999995
 21
88.262036363636369
  0
LINE
  8
_0-3_A0
  6
CONTINUOUS
 62
    3
 10
134.73999999999995
 20
88.262036363636369
 11
134.81599999999994
 21
88.233536363636375
  0
LINE
  8
_0-3_A0
  6
CONTINUOUS
 62
    3
 10
134.81599999999994
 20
88.233536363636375
 11
134.89199999999993
 21
88.203736363636366
  0
LINE
  8
_0-3_A0
  6
CONTINUOUS
 62
    3
 10
134.89199999999993
 20
88.203736363636366
 11
134.96799999999993
 21
88.172636363636371
  0
LINE
  8
_0-3_A0
  6
CONTINUOUS
 62
    3
 10
134.96799999999993
 20
88.172636363636371
 11
135.04399999999995
 21
88.140136363636372
  0
LINE
  8
_0-3_A0
  6
CONTINUOUS
 62
    3
 10
135.04399999999995
 20
88.140136363636372
 11
135.11999999999994
 21
88.106436363636376
  0
LINE
  8
_0-3_A0
  6
CONTINUOUS
 62
    3
 10
135.11999999999994
 20
88.106436363636376
 11
135.19599999999994
 21
88.071636363636372
  0
LINE
  8
_0-3_A0
  6
CONTINUOUS
 62
    3
 10
135.19599999999994
 20
88.071636363636372
 11
135.27099999999992
 21
88.035636363636371
  0
LINE
  8
_0-3_A0
  6
CONTINUOUS
 62
    3
 10
135.27099999999992
 20
88.035636363636371
 11
135.34699999999995
 21
87.998636363636364
  0
LINE
  8
_0-3_A0
  6
CONTINUOUS
 62
    3
 10
135.34699999999995
 20
87.998636363636364
 11
135.42299999999994
 21
87.960536363636364
  0
LINE
  8
_0-3_A0
  6
CONTINUOUS
 62
    3
 10
135.42299999999994
 20
87.960536363636364
 11
135.49899999999993
 21
87.921536363636377
  0
LINE
  8
_0-3_A0
  6
CONTINUOUS
 62
    3
 10
135.49899999999993
 20
87.921536363636377
 11
135.57499999999993
 21
87.881536363636371
  0
LINE
  8
_0-3_A0
  6
CONTINUOUS
 62
    3
 10
135.57499999999993
 20
87.881536363636371
 11
135.65099999999995
 21
87.840736363636366
  0
LINE
  8
_0-3_A0
  6
CONTINUOUS
 62
    3
 10
135.65099999999995
 20
87.840736363636366
 11
135.72699999999994
 21
87.799236363636367
  0
LINE
  8
_0-3_A0
  6
CONTINUOUS
 62
    3
 10
135.72699999999994
 20
87.799236363636367
 11
135.80299999999994
 21
87.756836363636367
  0
LINE
  8
_0-3_A0
  6
CONTINUOUS
 62
    3
 10
135.80299999999994
 20
87.756836363636367
 11
135.87899999999993
 21
87.713836363636374
  0
LINE
  8
_0-3_A0
  6
CONTINUOUS
 62
    3
 10
135.87899999999993
 20
87.713836363636374
 11
135.95399999999995
 21
87.670136363636373
  0
LINE
  8
_0-3_A0
  6
CONTINUOUS
 62
    3
 10
135.95399999999995
 20
87.670136363636373
 11
136.02999999999994
 21
87.625836363636366
  0
LINE
  8
_0-3_A0
  6
CONTINUOUS
 62
    3
 10
136.02999999999994
 20
87.625836363636366
 11
136.10599999999993
 21
87.581036363636371
  0
LINE
  8
_0-3_A0
  6
CONTINUOUS
 62
    3
 10
136.10599999999993
 20
87.581036363636371
 11
136.18199999999993
 21
87.535836363636377
  0
LINE
  8
_0-3_A0
  6
CONTINUOUS
 62
    3
 10
136.18199999999993
 20
87.535836363636377
 11
136.25799999999995
 21
87.490136363636366
  0
LINE
  8
_0-3_A0
  6
CONTINUOUS
 62
    3
 10
136.25799999999995
 20
87.490136363636366
 11
136.33399999999994
 21
87.444036363636371
  0
LINE
  8
_0-3_A0
  6
CONTINUOUS
 62
    3
 10
136.33399999999994
 20
87.444036363636371
 11
136.40999999999993
 21
87.397636363636365
  0
LINE
  8
_0-3_A0
  6
CONTINUOUS
 62
    3
 10
136.40999999999993
 20
87.397636363636365
 11
136.48599999999993
 21
87.350936363636378
  0
LINE
  8
_0-3_A0
  6
CONTINUOUS
 62
    3
 10
136.48599999999993
 20
87.350936363636378
 11
136.56199999999995
 21
87.30403636363637
  0
LINE
  8
_0-3_A0
  6
CONTINUOUS
 62
    3
 10
136.56199999999995
 20
87.30403636363637
 11
136.63699999999994
 21
87.257036363636373
  0
LINE
  8
_0-3_A0
  6
CONTINUOUS
 62
    3
 10
136.63699999999994
 20
87.257036363636373
 11
136.71299999999993
 21
87.20983636363637
  0
LINE
  8
_0-3_A0
  6
CONTINUOUS
 62
    3
 10
136.71299999999993
 20
87.20983636363637
 11
136.78899999999993
 21
87.162636363636366
  0
INSERT
  2
-028-$$BALLOON$$0
  8
_0-3_A0
 10
259.95527999102091
 20
188.81804185795837
 41
1
 42
1
 50
0
  0
INSERT
  2
-031-$$BALLOON$$1
  8
_0-3_A0
 10
198.50276954419945
 20
197.05394091830046
 41
1
 42
1
 50
0
  0
INSERT
  2
-034-$$BALLOON$$2
  8
_0-3_A0
 10
277.06061562507022
 20
157.77501787786508
 41
1
 42
1
 50
0
  0
INSERT
  2
-037-$$BALLOON$$3
  8
_0-3_A0
 10
62.892429075404322
 20
148.39281072993696
 41
1
 42
1
 50
0
  0
INSERT
  2
-040-$$BALLOON$$4
  8
_0-3_A0
 10
132.08886716499713
 20
124.60566402103046
 41
1
 42
1
 50
0
  0
LINE
  8
_0-3_A0
  6
CENTER
 62
    3
 10
277.28944952309461
 20
131.24296004148257
 11
277.28944952309461
 21
128.20416195892707
  0
LINE
  8
_0-3_A0
  6
CENTER
 62
    3
 10
277.28944952309461
 20
209.55747658166828
 11
277.28944952309461
 21
206.70177405400337
  0
LINE
  8
_0-3_A0
  6
CENTER
 62
    3
 10
198.28944952309464
 20
131.24296004148257
 11
198.28944952309464
 21
128.44555320173716
  0
LINE
  8
_0-3_A0
  6
CENTER
 62
    3
 10
198.28944952309464
 20
209.09973257068267
 11
198.28944952309464
 21
206.59648288153675
  0
LINE
  8
_0-3_A0
  6
CONTINUOUS
 62
    3
 10
196.53944952309453
 20
209.49296004148237
 11
197.03944952309464
 21
209.99296004148237
  0
LINE
  8
_0-3_A0
  6
CONTINUOUS
 62
    3
 10
196.53944952309453
 20
127.99296004148247
 11
197.03944952309464
 21
127.49296004148247
  0
LINE
  8
_0-3_A0
  6
CONTINUOUS
 62
    3
 10
279.03944952309461
 20
127.99296004148247
 11
278.53944952309461
 21
127.49296004148247
  0
LINE
  8
_0-3_A0
  6
CONTINUOUS
 62
    3
 10
278.53944952309456
 20
209.99296004148246
 11
279.03944952309456
 21
209.49296004148246
  0
LINE
  8
_0-3_A0
  6
CONTINUOUS
 62
    3
 10
200.13944952309464
 20
206.24296004148246
 11
200.13944952309464
 21
209.99296004148246
  0
LINE
  8
_0-3_A0
  6
CONTINUOUS
 62
    3
 10
275.43944952309453
 20
209.99296004148246
 11
278.53944952309461
 21
209.99296004148246
  0
LINE
  8
_0-3_A0
  6
CONTINUOUS
 62
    3
 10
275.43944952309453
 20
206.24296004148257
 11
275.43944952309453
 21
209.99296004148246
  0
LINE
  8
_0-3_A0
  6
CONTINUOUS
 62
    3
 10
200.13944952309464
 20
127.49296004148257
 11
200.13944952309464
 21
131.24296004148257
  0
LINE
  8
_0-3_A0
  6
DASHED
 62
    3
 10
200.13944952309464
 20
131.24296004148257
 11
200.13944952309464
 21
206.24296004148246
  0
LINE
  8
_0-3_A0
  6
CONTINUOUS
 62
    3
 10
275.43944952309453
 20
127.49296004148257
 11
275.43944952309453
 21
131.24296004148257
  0
LINE
  8
_0-3_A0
  6
DASHED
 62
    3
 10
275.43944952309453
 20
131.24296004148257
 11
275.43944952309453
 21
206.24296004148257
  0
LINE
  8
_0-3_A0
  6
CONTINUOUS
 62
    3
 10
136.78924569336334
 20
209.99296004148257
 11
136.78924569323405
 21
127.49296004148247
  0
LINE
  8
_0-3_A0
  6
CONTINUOUS
 62
    3
 10
197.03944952309464
 20
209.99296004148246
 11
200.13944952309464
 21
209.99296004148246
  0
LINE
  8
_0-3_A0
  6
CONTINUOUS
 62
    3
 10
278.53944952309461
 20
118.74296004148247
 11
279.03944952309461
 21
119.24296004148247
  0
LINE
  8
_0-3_A0
  6
CONTINUOUS
 62
    3
 10
196.53944952309453
 20
119.24296004148247
 11
197.03944952309464
 21
118.74296004148257
  0
LINE
  8
_0-3_A0
  6
CONTINUOUS
 62
    3
 10
126.63924569322034
 20
118.74296004148257
 11
126.78924569322035
 21
118.74296004148257
  0
LINE
  8
_0-3_A0
  6
CONTINUOUS
 62
    3
 10
197.03944952309464
 20
118.74296004148257
 11
278.53944952309461
 21
118.74296004148257
  0
LINE
  8
_0-3_A0
  6
CONTINUOUS
 62
    3
 10
126.63924569322435
 20
121.32543030897537
 11
126.63924569322034
 21
118.74296004148257
  0
LINE
  8
_0-3_A0
  6
CONTINUOUS
 62
    3
 10
196.53944952309453
 20
121.24296004148257
 11
279.03944952309461
 21
121.24296004148257
  0
LINE
  8
_0-3_A0
  6
CONTINUOUS
 62
    3
 10
136.63924569323404
 20
127.49296004148257
 11
136.78924569323405
 21
127.49296004148257
  0
LINE
  8
_0-3_A0
  6
CONTINUOUS
 62
    3
 10
126.78924569322424
 20
121.24296004148226
 11
126.78924569322035
 21
118.74296004148226
  0
LINE
  8
_0-3_A0
  6
CONTINUOUS
 62
    3
 10
136.48924569323983
 20
131.24296004148257
 11
136.48924569323415
 21
127.57543030897565
  0
LINE
  8
_0-3_A0
  6
CONTINUOUS
 62
    3
 10
126.78924569322424
 20
121.24296004148226
 11
136.63924569323404
 21
127.49296004148257
  0
LINE
  8
_0-3_A0
  6
CONTINUOUS
 62
    3
 10
126.63924569322435
 20
121.32543030897537
 11
136.48924569323415
 21
127.57543030897565
  0
LINE
  8
_0-3_A0
  6
CONTINUOUS
 62
    3
 10
136.48924569323995
 20
131.24296004148257
 11
136.63924569323995
 21
131.24296004148257
  0
LINE
  8
_0-3_A0
  6
CONTINUOUS
 62
    3
 10
61.638931584055114
 20
143.76806259812985
 11
136.63924569323995
 21
131.24296004148257
  0
LINE
  8
_0-3_A0
  6
CENTER
 62
    3
 10
101.82137695942464
 20
202.12616735010448
 11
102.45292327655802
 21
198.58319251095406
  0
LINE
  8
_0-3_A0
  6
CENTER
 62
    3
 10
65.466370790052081
 20
147.73901134518658
 11
60.754591895891564
 21
149.42178952168637
  0
LINE
  8
_0-3_A0
  6
CENTER
 62
    3
 10
75.556462700070994
 20
175.99126869300528
 11
70.844683805910506
 21
177.67404686950516
  0
LINE
  8
_0-3_A0
  6
CONTINUOUS
 62
    3
 10
203.28944952309464
 20
206.09296004148248
 11
203.28944952309464
 21
143.89296004148258
  0
LINE
  8
_0-3_A0
  6
CONTINUOUS
 62
    3
 10
272.28944952309461
 20
206.09296004148248
 11
272.28944952309461
 21
143.89296004148258
  0
LINE
  8
_0-3_A0
  6
CONTINUOUS
 62
    3
 10
136.63924569336333
 20
209.99296004148246
 11
136.78924569336334
 21
209.99296004148246
  0
LINE
  8
_0-3_A0
  6
CONTINUOUS
 62
    3
 10
200.28944952309464
 20
209.99296004148246
 11
275.28944952309461
 21
209.99296004148246
  0
LINE
  8
_0-3_A0
  6
CONTINUOUS
 62
    3
 10
94.82634435880638
 20
198.78288869311995
 11
136.63924569335745
 21
206.21629337481587
  0
LINE
  8
_0-3_A0
  6
CONTINUOUS
 62
    3
 10
75.658629936883272
 20
182.57723592345865
 11
61.789245693259488
 21
143.74296004148257
  0
LINE
  8
_0-3_A0
  6
CONTINUOUS
 62
    3
 10
75.546652344682911
 20
182.70968072771677
 11
61.638931584055086
 21
143.76806259812985
  0
LINE
  8
_0-3_A0
  6
CONTINUOUS
 62
    3
 10
94.714366766605877
 20
198.91533349737807
 11
136.63924569335773
 21
206.36864530657626
  0
ARC
  8
_0-3_A0
  6
CONTINUOUS
 62
    3
 10
99.202177726742547
 20
174.16882599847187
 40
25
 50
100.0805979875396
 51
160.34617594186698
  0
ARC
  8
_0-3_A0
  6
CONTINUOUS
 62
    3
 10
99.090200134542143
 20
174.30127080273007
 40
25
 50
100.0805979875396
 51
160.34617594186698
  0
LINE
  8
_0-3_A0
  6
CONTINUOUS
 62
    3
 10
94.817593442124504
 20
198.78812006800276
 11
80.539245693341769
 21
196.24296004148246
  0
LINE
  8
_0-3_A0
  6
CONTINUOUS
 62
    3
 10
75.661219263020768
 20
182.58448603664376
 11
80.539245693341797
 21
196.24296004148246
  0
LINE
  8
_0-3_A0
  6
DASHED
 62
    3
 10
200.28944952309464
 20
206.36864530677027
 11
275.28944952309461
 21
206.36864530677027
  0
LINE
  8
_0-3_A0
  6
CENTER
 62
    3
 10
131.38084122765954
 20
207.38118321994656
 11
132.01075501721174
 21
203.83791815367058
  0
LINE
  8
_0-3_A0
  6
CONTINUOUS
 62
    3
 10
200.13944952309464
 20
206.09296004148248
 11
203.28944952309464
 21
206.09296004148248
  0
LINE
  8
_0-3_A0
  6
CONTINUOUS
 62
    3
 10
272.28944952309461
 20
206.09296004148248
 11
275.28944952309461
 21
206.09296004148248
  0
LINE
  8
_0-3_A0
  6
CONTINUOUS
 62
    3
 10
275.28944952309461
 20
209.99296004148246
 11
275.28944952309461
 21
206.24296004148246
  0
LINE
  8
_0-3_A0
  6
CONTINUOUS
 62
    3
 10
200.28944952309464
 20
131.24296004148257
 11
200.28944952309464
 21
206.09296004148248
  0
LINE
  8
_0-3_A0
  6
CONTINUOUS
 62
    3
 10
200.28944952309464
 20
206.09296004148248
 11
200.28944952309464
 21
209.99296004148246
  0
LINE
  8
_0-3_A0
  6
CONTINUOUS
 62
    3
 10
200.13944952309464
 20
206.24296004148246
 11
200.28944952309464
 21
206.24296004148246
  0
LINE
  8
_0-3_A0
  6
CONTINUOUS
 62
    3
 10
200.28944952309464
 20
206.24296004148246
 11
275.43944952309453
 21
206.24296004148246
  0
LINE
  8
_0-3_A0
  6
CONTINUOUS
 62
    3
 10
275.28944952309461
 20
131.24296004148257
 11
275.28944952309461
 21
206.09296004148248
  0
LINE
  8
_0-3_A0
  6
CONTINUOUS
 62
    3
 10
275.28944952309461
 20
206.09296004148248
 11
275.28944952309461
 21
206.36864530677027
  0
LINE
  8
_0-3_A0
  6
CONTINUOUS
 62
    3
 10
196.53944952309453
 20
119.24296004148257
 11
196.53944952309453
 21
127.99296004148247
  0
LINE
  8
_0-3_A0
  6
CONTINUOUS
 62
    3
 10
196.53944952309453
 20
127.99296004148247
 11
196.53944952309453
 21
209.49296004148246
  0
LINE
  8
_0-3_A0
  6
CONTINUOUS
 62
    3
 10
279.03944952309461
 20
119.24296004148257
 11
279.03944952309461
 21
127.49296004148257
  0
LINE
  8
_0-3_A0
  6
CONTINUOUS
 62
    3
 10
275.43944952309453
 20
127.49296004148257
 11
278.53944952309461
 21
127.49296004148257
  0
LINE
  8
_0-3_A0
  6
CONTINUOUS
 62
    3
 10
278.53944952309461
 20
127.49296004148257
 11
279.03944952309461
 21
127.49296004148257
  0
LINE
  8
_0-3_A0
  6
CONTINUOUS
 62
    3
 10
279.03944952309461
 20
127.49296004148257
 11
279.03944952309461
 21
127.99296004148257
  0
LINE
  8
_0-3_A0
  6
CONTINUOUS
 62
    3
 10
279.03944952309461
 20
127.99296004148257
 11
279.03944952309461
 21
209.49296004148246
  0
LINE
  8
_0-3_A0
  6
CONTINUOUS
 62
    3
 10
200.13944952309464
 20
131.24296004148257
 11
200.28944952309464
 21
131.24296004148257
  0
LINE
  8
_0-3_A0
  6
CONTINUOUS
 62
    3
 10
200.28944952309464
 20
131.24296004148257
 11
275.43944952309453
 21
131.24296004148257
  0
LINE
  8
_0-3_A0
  6
CONTINUOUS
 62
    3
 10
200.28944952309464
 20
143.89296004148258
 11
203.28944952309464
 21
143.89296004148258
  0
LINE
  8
_0-3_A0
  6
CONTINUOUS
 62
    3
 10
203.28944952309464
 20
143.89296004148258
 11
272.28944952309461
 21
143.89296004148258
  0
LINE
  8
_0-3_A0
  6
CONTINUOUS
 62
    3
 10
272.28944952309461
 20
143.89296004148258
 11
275.28944952309461
 21
143.89296004148258
  0
LINE
  8
_0-3_A0
  6
CONTINUOUS
 62
    3
 10
200.13944952309464
 20
127.49296004148257
 11
275.43944952309453
 21
127.49296004148257
  0
LINE
  8
_0-3_A0
  6
CONTINUOUS
 62
    3
 10
196.53944952309453
 20
127.49296004148257
 11
197.03944952309464
 21
127.49296004148257
  0
LINE
  8
_0-3_A0
  6
CONTINUOUS
 62
    3
 10
197.03944952309464
 20
127.49296004148257
 11
200.13944952309464
 21
127.49296004148257
  0
LINE
  8
_0-3_A0
  6
CONTINUOUS
 62
    3
 10
131.40465502676624
 20
205.81893123969447
 11
131.89693628065924
 21
205.90644790705317
  0
LINE
  8
_0-3_A0
  6
CONTINUOUS
 62
    3
 10
101.84606047536462
 20
200.56406998611336
 11
102.33834178150884
 21
200.65158666276116
  0
LINE
  8
_0-3_A0
  6
CONTINUOUS
 62
    3
 10
63.060597273904079
 20
148.86368168573417
 11
62.892429075404322
 21
148.39281072993696
  0
LINE
  8
_0-3_A0
  6
CONTINUOUS
 62
    3
 10
136.63924569323404
 20
127.49296004148247
 11
136.63924569323995
 21
131.24296004148257
  0
LINE
  8
_0-3_A0
  6
CONTINUOUS
 62
    3
 10
136.63924569323995
 20
131.24296004148257
 11
136.63924569336333
 21
209.99296004148257
  0
LINE
  8
_0-3_A0
  6
CENTER
 62
    3
 10
237.78944952309464
 20
246.28450335922386
 11
237.78944952309464
 21
250.18591488173117
  0
LINE
  8
_0-3_A0
  6
CENTER
 62
    3
 10
237.78944952309464
 20
237.56946057781388
 11
237.78944952309464
 21
239.28450335922386
  0
LINE
  8
_0-3_A0
  6
CENTER
 62
    3
 10
237.78944952309464
 20
105.61264837676637
 11
237.78944952309464
 21
221.85440927197586
  0
LINE
  8
_0-3_A0
  6
CENTER
 62
    3
 10
237.78944952309464
 20
228.85440927197586
 11
237.78944952309464
 21
230.56946057781388
  0
LINE
  8
_0-3_A0
  6
CENTER
 62
    3
 10
149.50201560519315
 20
168.74296004148246
 11
154.15225448281364
 21
168.74296004148246
  0
LINE
  8
_0-3_A0
  6
CENTER
 62
    3
 10
161.15225448281364
 20
168.74296004148246
 11
165.11821606232223
 21
168.74296004148246
  0
LINE
  8
_0-3_A0
  6
CENTER
 62
    3
 10
172.11821606232223
 20
168.74296004148246
 11
176.22557421439873
 21
168.74296004148246
  0
LINE
  8
_0-3_A0
  6
CENTER
 62
    3
 10
183.22557421439873
 20
168.74296004148246
 11
291.79961942478354
 21
168.74296004148246
  0
ENDSEC
  0
EOF
