  0
SECTION
  2
HEADER
  9
$ACADVER
  1
AC1009
  9
$INSBASE
 10
0
 20
0
 30
0
  9
$EXTMIN
 10
0
 20
0
  9
$EXTMAX
 10
420
 20
297
  9
$LIMMIN
 10
0
 20
0
  9
$LIMMAX
 10
420
 20
297
  9
$LTSCALE
 40
1
  0
ENDSEC
  0
SECTION
  2
TABLES
  0
TABLE
  2
LTYPE
 70
     9
  0
LTYPE
  2
CONTINUOUS
 70
    64
  3
Ä└É³
 72
    65
 73
     0
 40
0.0
  0
LTYPE
  2
DASHED1
 70
    64
  3
--  --  --  --  --  --  --  --  
 72
    65
 73
     2
 40
2.5
 49
1.25
 49
-1.25
  0
LTYPE
  2
DASHED2
 70
    64
  3
----    ----    ----    ----    
 72
    65
 73
     2
 40
5.0
 49
2.5
 49
-2.5
  0
LTYPE
  2
DASHED3
 70
    64
  3
------  ------  ------  ------  
 72
    65
 73
     2
 40
5.0
 49
3.75
 49
-1.25
  0
LTYPE
  2
CENTER1
 70
    64
  3
----- - ----- - ----- - ----- - 
 72
    65
 73
     4
 40
10.0
 49
6.25
 49
-1.25
 49
1.25
 49
-1.25
  0
LTYPE
  2
CENTER2
 70
    64
  3
----------  --  ----------  --  
 72
    65
 73
     4
 40
20.0
 49
12.5
 49
-2.5
 49
2.5
 49
-2.5
  0
LTYPE
  2
PHANTOM1
 70
    64
  3
--- - - --- - - --- - - --- - - 
 72
    65
 73
     6
 40
10.0
 49
3.25
 49
-1.25
 49
1.25
 49
-1.25
 49
1.25
 49
-1.25
  0
LTYPE
  2
PHANTOM2
 70
    64
  3
--------  -  -  --------  -  -  
 72
    65
 73
     6
 40
20.0
 49
10.0
 49
-2.5
 49
1.25
 49
-2.5
 49
1.25
 49
-2.5
  0
LTYPE
  2
DOT
 70
    64
  3
-   -   -   -   -   -   -   -   
 72
    65
 73
     2
 40
2.5
 49
0.625
 49
-1.875
  0
LTYPE
  2
DUMMY
 70
    64
  3
â_â~ü[
 72
    65
 73
     0
 40
0.0
  0
LTYPE
  2
RAND1
 70
    64
  3
âëâôâ_âÇÉ³1
 72
    65
 73
     4
 40
10.0
 49
1.0
 49
-2.0
 49
3.0
 49
-4.0
  0
LTYPE
  2
RAND2
 70
    64
  3
âëâôâ_âÇÉ³2
 72
    65
 73
     4
 40
14.0
 49
2.0
 49
-3.0
 49
4.0
 49
-5.0
  0
LTYPE
  2
RAND3
 70
    64
  3
âëâôâ_âÇÉ³3
 72
    65
 73
     4
 40
18.0
 49
3.0
 49
-4.0
 49
5.0
 49
-6.0
  0
LTYPE
  2
RAND4
 70
    64
  3
âëâôâ_âÇÉ³4
 72
    65
 73
     4
 40
22.0
 49
4.0
 49
-5.0
 49
6.0
 49
-7.0
  0
LTYPE
  2
RAND5
 70
    64
  3
âëâôâ_âÇÉ³5
 72
    65
 73
     4
 40
26.0
 49
5.0
 49
-6.0
 49
7.0
 49
-8.0
  0
LTYPE
  2
LONG1
 70
    64
  3
----------  --  ----------  --  
 72
    65
 73
     4
 40
40.0
 49
32.5
 49
-2.5
 49
2.5
 49
-2.5
  0
LTYPE
  2
LONG2
 70
    64
  3
--------  -  -  --------  -  -  
 72
    65
 73
     6
 40
40.0
 49
30.0
 49
-2.5
 49
1.25
 49
-2.5
 49
1.25
 49
-2.5
  0
LTYPE
  2
LONG3
 70
    64
  3
+++++++++++++++..+++++++++++++++
 72
    65
 73
     2
 40
40.0
 49
37.5
 49
-2.5
  0
LTYPE
  2
LONG4
 70
    64
  3
+++++++++++++++..+++++++++++++++
 72
    65
 73
     2
 40
80.0
 49
75.0
 49
-5.0
  0
LTYPE
  2
LONG5
 70
    64
  3
----------  --  ----------  --  
 72
    65
 73
     4
 40
60.0
 49
37.5
 49
-7.5
 49
7.5
 49
-7.5
  0
LTYPE
  2
dashed
 70
   64
  3
-------   -------------   ------
 72
   65
 73
    2
 40
7.5
 49
6
 49
-1.5
  0
LTYPE
  2
dashed_spaced
 70
   64
  3
----        --------        ----
 72
   65
 73
    2
 40
12
 49
6
 49
-6
  0
LTYPE
  2
long_dashed_dotted
 70
   64
  3
------------- --- --------------
 72
   65
 73
    4
 40
15.25
 49
12
 49
-1.5
 49
0.25
 49
-1.5
  0
LTYPE
  2
long_dashed_double-dotted
 70
   64
  3
----------- --- --- ------------
 72
   65
 73
    6
 40
17
 49
12
 49
-1.5
 49
0.25
 49
-1.5
 49
0.25
 49
-1.5
  0
LTYPE
  2
long_dashed_triplicate-dotted
 70
   64
  3
--------- --- --- --- ----------
 72
   65
 73
    8
 40
18.75
 49
12
 49
-1.5
 49
0.25
 49
-1.5
 49
0.25
 49
-1.5
 49
0.25
 49
-1.5
  0
LTYPE
  2
dotted
 70
   64
  3
   -       -       -       -    
 72
   65
 73
    2
 40
1.75
 49
0.25
 49
-1.5
  0
LTYPE
  2
chain
 70
   64
  3
-------------- -- --------------
 72
   65
 73
    4
 40
18.5
 49
12
 49
-1.5
 49
3.5
 49
-1.5
  0
LTYPE
  2
chain_double_dash
 70
   64
  3
------------ -- -- -------------
 72
   65
 73
    6
 40
23.5
 49
12
 49
-1.5
 49
3.5
 49
-1.5
 49
3.5
 49
-1.5
  0
LTYPE
  2
dashed_dotted
 70
   64
  3
-----------     -     ----------
 72
   65
 73
    4
 40
9.25
 49
6
 49
-1.5
 49
0.25
 49
-1.5
  0
LTYPE
  2
double-dashed_dotted
 70
   64
  3
------   -----------   -   -----
 72
   65
 73
    6
 40
16.75
 49
6
 49
-1.5
 49
6
 49
-1.5
 49
0.25
 49
-1.5
  0
LTYPE
  2
dashed_double-dotted
 70
   64
  3
---------    -    -    ---------
 72
   65
 73
    6
 40
11
 49
6
 49
-1.5
 49
0.25
 49
-1.5
 49
0.25
 49
-1.5
  0
LTYPE
  2
double-dashed_double-dotted
 70
   64
  3
-----   ---------   -   -   ----
 72
   65
 73
    8
 40
18.5
 49
6
 49
-1.5
 49
6
 49
-1.5
 49
0.25
 49
-1.5
 49
0.25
 49
-1.5
  0
LTYPE
  2
dashed_triplicate-dotted
 70
   64
  3
-------    -    -    -    ------
 72
   65
 73
    8
 40
12.75
 49
6
 49
-1.5
 49
0.25
 49
-1.5
 49
0.25
 49
-1.5
 49
0.25
 49
-1.5
  0
LTYPE
  2
double-dashed_triplicate-dotted
 70
   64
  3
-----  ---------  -  -  -  -----
 72
   65
 73
   10
 40
20.25
 49
6
 49
-1.5
 49
6
 49
-1.5
 49
0.25
 49
-1.5
 49
0.25
 49
-1.5
 49
0.25
 49
-1.5
  0
LTYPE
  2
undefined
 70
   64
  3
--------------------------------
 72
   65
 73
    0
 40
0
  0
LTYPE
  2
DASHED
 70
   64
  3
------     -----------     -----
 72
   65
 73
    2
 40
0.75
 49
0.5
 49
-0.25
  0
LTYPE
  2
HIDDEN
 70
   64
  3
------     -----------     -----
 72
   65
 73
    2
 40
0.375
 49
0.25
 49
-0.125
  0
LTYPE
  2
CENTER
 70
   64
  3
----------    ----    ----------
 72
   65
 73
    4
 40
2
 49
1.25
 49
-0.25
 49
0.25
 49
-0.25
  0
LTYPE
  2
PHANTOM
 70
   64
  3
---------   ---   ---   --------
 72
   65
 73
    6
 40
2.5
 49
1.25
 49
-0.25
 49
0.25
 49
-0.25
 49
0.25
 49
-0.25
  0
LTYPE
  2
_
 70
   64
  3
                                
 72
   65
 73
    0
 40
0
  0
LTYPE
  2
__22
 70
   64
  3
                                
 72
   65
 73
    0
 40
0
  0
LTYPE
  2
__23
 70
   64
  3
                                
 72
   65
 73
    0
 40
0
  0
LTYPE
  2
__24
 70
   64
  3
                                
 72
   65
 73
    0
 40
0
  0
LTYPE
  2
__25
 70
   64
  3
                                
 72
   65
 73
    0
 40
0
  0
LTYPE
  2
__26
 70
   64
  3
                                
 72
   65
 73
    0
 40
0
  0
LTYPE
  2
__27
 70
   64
  3
                                
 72
   65
 73
    0
 40
0
  0
LTYPE
  2
__28
 70
   64
  3
                                
 72
   65
 73
    0
 40
0
  0
LTYPE
  2
__29
 70
   64
  3
                                
 72
   65
 73
    0
 40
0
  0
LTYPE
  2
__30
 70
   64
  3
                                
 72
   65
 73
    0
 40
0
  0
LTYPE
  2
__31
 70
   64
  3
                                
 72
   65
 73
    0
 40
0
  0
LTYPE
  2
__32
 70
   64
  3
                                
 72
   65
 73
    0
 40
0
  0
ENDTAB
  0
TABLE
  2
STYLE
  5
3
100
AcDbSymbolTable
 70
     1
  0
STYLE
  5
10
100
AcDbSymbolTableRecord
100
AcDbTextStyleTableRecord
  2
STANDARD
 70
     0
 40
0.0
 41
1.0
 50
0.0
 71
     0
 42
0.2
  3
txt
  4
bigfont.shx
  0
STYLE
  5
26
100
AcDbSymbolTableRecord
100
AcDbTextStyleTableRecord
  2
TATEGAKI
 70
    68
 40
0.0
 41
1.0
 50
0.0
 71
     0
 42
1.0
  3
txt
  4
bigfont.shx
  0
ENDTAB
  0
TABLE
  2
LAYER
 70
   10
  0
LAYER
  2
_0-0_0
 70
   64
 62
    7
  6
CONTINUOUS
  0
LAYER
  2
_0-1_H0
 70
   64
 62
    7
  6
CONTINUOUS
  0
LAYER
  2
_0-4_A0
 70
   64
 62
    7
  6
CONTINUOUS
  0
LAYER
  2
_0-6_A2
 70
   64
 62
    7
  6
CONTINUOUS
  0
LAYER
  2
_0-9_A10
 70
   64
 62
    7
  6
CONTINUOUS
  0
LAYER
  2
_0-e_A20
 70
   64
 62
    7
  6
CONTINUOUS
  0
LAYER
  2
_1-1_A30
 70
   64
 62
    7
  6
CONTINUOUS
  0
LAYER
  2
_1-3_A50
 70
   64
 62
    7
  6
CONTINUOUS
  0
LAYER
  2
_1-4_A60
 70
   64
 62
    7
  6
CONTINUOUS
  0
LAYER
  2
ADD_LINE
 70
   64
 62
    7
  6
CONTINUOUS
  0
ENDTAB
  0
ENDSEC
  0
SECTION
  2
BLOCKS
  0
BLOCK
  2
-000-_OPEN
 70
   64
 10
0
 20
0
 30
0
  0
LINE
  8
_0-0_0
  6
CONTINUOUS
 62
    7
 10
-1
 20
0.166667
 11
0
 21
0
  0
LINE
  8
_0-0_0
  6
CONTINUOUS
 62
    7
 10
0
 20
0
 11
-1
 21
-0.166667
  0
LINE
  8
_0-0_0
  6
CONTINUOUS
 62
    7
 10
0
 20
0
 11
-1
 21
0
  0
ENDBLK
  0
BLOCK
  2
-001-_D2
 70
   64
 10
0
 20
0
 30
0
  0
LINE
  8
_0-1_H0
  6
CONTINUOUS
 62
    7
 10
364.69760126643359
 20
144.2719018972131
 11
372.81626395161209
 21
144.2719018972131
  0
LINE
  8
_0-1_H0
  6
CONTINUOUS
 62
    7
 10
371.81626395161209
 20
141.2719018972131
 11
371.81626395161209
 21
137.2719018972131
  0
INSERT
  2
-000-_OPEN
  8
_0-1_H0
 10
371.81626395161209
 20
144.2719018972131
 41
3
 42
3
 50
90
  0
INSERT
  2
-000-_OPEN
  8
_0-1_H0
 10
371.81626395161209
 20
134.2719018972131
 41
3
 42
3
 50
270
  0
LINE
  8
_0-1_H0
  6
CONTINUOUS
 62
    7
 10
368.34943832593513
 20
134.2719018972131
 11
372.81626395161209
 21
134.2719018972131
  0
TEXT
  8
_0-1_H0
 62
    7
 10
371.31626395161209
 20
137.2719018972131
 40
4
 41
1
 50
90
  1
10
  0
ENDBLK
  0
BLOCK
  2
-002-$$BALLOON$$0
 70
   64
 10
0
 20
0
 30
0
  0
TEXT
  8
_0-4_A0
 62
    7
 10
-4.6588789014386585
 20
-0.5309034927701024
 40
3.2400000000000002
 41
1
 50
0
  1
2
  0
CIRCLE
  8
_0-4_A0
  6
CONTINUOUS
 62
    7
 10
-3.8488789014386597
 20
1.0890965072298977
 40
4
  0
ENDBLK
  0
BLOCK
  2
-003-$$BALLOON$$1
 70
   64
 10
0
 20
0
 30
0
  0
TEXT
  8
_0-4_A0
 62
    7
 10
2.9085448938880614
 20
-3.0939144724640544
 40
3.2400000000000002
 41
1
 50
0
  1
1
  0
CIRCLE
  8
_0-4_A0
  6
CONTINUOUS
 62
    7
 10
3.7185448938880601
 20
-1.4739144724640543
 40
4
  0
ENDBLK
  0
BLOCK
  2
-004-_D3
 70
   64
 10
0
 20
0
 30
0
  0
LINE
  8
_0-4_A0
  6
CONTINUOUS
 62
    7
 10
214.09204482058399
 20
117.1381281321535
 11
214.09204482058399
 21
95.606631330596528
  0
LINE
  8
_0-4_A0
  6
CONTINUOUS
 62
    7
 10
211.09204482058399
 20
96.606631330596528
 11
159.51979373230981
 21
96.606631330596528
  0
INSERT
  2
-000-_OPEN
  8
_0-4_A0
 10
214.09204482058399
 20
96.606631330596528
 41
3
 42
3
 50
360
  0
INSERT
  2
-000-_OPEN
  8
_0-4_A0
 10
156.51979373230981
 20
96.606631330596528
 41
3
 42
3
 50
180
  0
LINE
  8
_0-4_A0
  6
CONTINUOUS
 62
    7
 10
156.51979373230981
 20
121.91056584354359
 11
156.51979373230981
 21
95.606631330596528
  0
TEXT
  8
_0-4_A0
 62
    7
 10
182.3059192764469
 20
97.106631330596528
 40
4
 41
1
 50
0
  1
575
  0
ENDBLK
  0
BLOCK
  2
-005-_D4
 70
   64
 10
0
 20
0
 30
0
  0
LINE
  8
_0-4_A0
  6
CONTINUOUS
 62
    7
 10
175.69204481373561
 20
117.4381281440745
 11
147.541874133145
 21
117.4381281440745
  0
LINE
  8
_0-4_A0
  6
CONTINUOUS
 62
    7
 10
148.541874133145
 20
117.4381281440745
 11
148.541874133145
 21
122.21056585546449
  0
INSERT
  2
-000-_OPEN
  8
_0-4_A0
 10
148.541874133145
 20
117.4381281440745
 41
3
 42
3
 50
90
  0
INSERT
  2
-000-_OPEN
  8
_0-4_A0
 10
148.541874133145
 20
122.21056585546449
 41
3
 42
3
 50
270
  0
LINE
  8
_0-4_A0
  6
CONTINUOUS
 62
    7
 10
148.541874133145
 20
114.4381281440745
 11
148.541874133145
 21
112.4381281440745
  0
LINE
  8
_0-4_A0
  6
CONTINUOUS
 62
    7
 10
148.541874133145
 20
125.21056585546449
 11
148.541874133145
 21
127.21056585546449
  0
LINE
  8
_0-4_A0
  6
CONTINUOUS
 62
    7
 10
156.21979372038879
 20
122.21056585546449
 11
147.541874133145
 21
122.21056585546449
  0
TEXT
  8
_0-4_A0
 62
    7
 10
148.041874133145
 20
117.8243469997695
 40
4
 41
1
 50
90
  1
48
  0
ENDBLK
  0
BLOCK
  2
-006-_D5
 70
   64
 10
0
 20
0
 30
0
  0
LINE
  8
_0-4_A0
  6
CONTINUOUS
 62
    7
 10
170.09031650197889
 20
177.7381281540934
 11
170.09031650197889
 21
194.2107646262144
  0
LINE
  8
_0-4_A0
  6
CONTINUOUS
 62
    7
 10
170.09031650197889
 20
193.2107646262144
 11
176.092044825665
 21
193.2107646262144
  0
INSERT
  2
-000-_OPEN
  8
_0-4_A0
 10
170.09031650197889
 20
193.2107646262144
 41
3
 42
3
 50
0
  0
INSERT
  2
-000-_OPEN
  8
_0-4_A0
 10
176.092044825665
 20
193.2107646262144
 41
3
 42
3
 50
180
  0
LINE
  8
_0-4_A0
  6
CONTINUOUS
 62
    7
 10
167.09031650197889
 20
193.2107646262144
 11
165.09031650197889
 21
193.2107646262144
  0
LINE
  8
_0-4_A0
  6
CONTINUOUS
 62
    7
 10
179.092044825665
 20
193.2107646262144
 11
181.092044825665
 21
193.2107646262144
  0
LINE
  8
_0-4_A0
  6
CONTINUOUS
 62
    7
 10
176.092044825665
 20
177.73812815599541
 11
176.092044825665
 21
194.2107646262144
  0
TEXT
  8
_0-4_A0
 62
    7
 10
171.09118066382189
 20
193.7107646262144
 40
4
 41
1
 50
0
  1
60
  0
ENDBLK
  0
BLOCK
  2
-007-_D6
 70
   64
 10
0
 20
0
 30
0
  0
LINE
  8
_0-4_A0
  6
CONTINUOUS
 62
    7
 10
246.09885342365419
 20
177.63812816492501
 11
246.09885342365419
 21
185.94892298347671
  0
LINE
  8
_0-4_A0
  6
CONTINUOUS
 62
    7
 10
246.09885342365419
 20
184.94892298347671
 11
251.0988534236933
 21
184.94892298347671
  0
INSERT
  2
-000-_OPEN
  8
_0-4_A0
 10
246.09885342365419
 20
184.94892298347671
 41
3
 42
3
 50
0
  0
INSERT
  2
-000-_OPEN
  8
_0-4_A0
 10
251.0988534236933
 20
184.94892298347671
 41
3
 42
3
 50
180
  0
LINE
  8
_0-4_A0
  6
CONTINUOUS
 62
    7
 10
243.09885342365419
 20
184.94892298347671
 11
241.09885342365419
 21
184.94892298347671
  0
LINE
  8
_0-4_A0
  6
CONTINUOUS
 62
    7
 10
254.0988534236933
 20
184.94892298347671
 11
256.0988534236933
 21
184.94892298347671
  0
LINE
  8
_0-4_A0
  6
CONTINUOUS
 62
    7
 10
251.0988534236933
 20
174.63346788493121
 11
251.0988534236933
 21
185.94892298347671
  0
TEXT
  8
_0-4_A0
 62
    7
 10
246.5988534236738
 20
185.44892298347671
 40
4
 41
1
 50
0
  1
50
  0
ENDBLK
  0
BLOCK
  2
-008-_D7
 70
   64
 10
0
 20
0
 30
0
  0
LINE
  8
_0-4_A0
  6
CONTINUOUS
 62
    7
 10
316.09885342365419
 20
177.63812816492501
 11
316.09885342365419
 21
185.94892298347671
  0
LINE
  8
_0-4_A0
  6
CONTINUOUS
 62
    7
 10
316.09885342365419
 20
184.94892298347671
 11
311.09885342369341
 21
184.94892298347671
  0
INSERT
  2
-000-_OPEN
  8
_0-4_A0
 10
316.09885342365419
 20
184.94892298347671
 41
3
 42
3
 50
180
  0
INSERT
  2
-000-_OPEN
  8
_0-4_A0
 10
311.09885342369341
 20
184.94892298347671
 41
3
 42
3
 50
360
  0
LINE
  8
_0-4_A0
  6
CONTINUOUS
 62
    7
 10
319.09885342365419
 20
184.94892298347671
 11
321.09885342365419
 21
184.94892298347671
  0
LINE
  8
_0-4_A0
  6
CONTINUOUS
 62
    7
 10
308.09885342369341
 20
184.94892298347671
 11
306.09885342369341
 21
184.94892298347671
  0
LINE
  8
_0-4_A0
  6
CONTINUOUS
 62
    7
 10
311.09885342369341
 20
174.63346788493121
 11
311.09885342369341
 21
185.94892298347671
  0
TEXT
  8
_0-4_A0
 62
    7
 10
311.5988534236738
 20
185.44892298347671
 40
4
 41
1
 50
0
  1
50
  0
ENDBLK
  0
BLOCK
  2
-009-_D8
 70
   64
 10
0
 20
0
 30
0
  0
LINE
  8
_0-4_A0
  6
CONTINUOUS
 62
    7
 10
314.46149262801862
 20
172.43812814231671
 11
326.69228867208011
 21
172.43812814231671
  0
LINE
  8
_0-4_A0
  6
CONTINUOUS
 62
    7
 10
325.69228867208011
 20
169.43812814231671
 11
325.69228867208011
 21
140.43812814231671
  0
INSERT
  2
-000-_OPEN
  8
_0-4_A0
 10
325.69228867208011
 20
172.43812814231671
 41
3
 42
3
 50
90
  0
INSERT
  2
-000-_OPEN
  8
_0-4_A0
 10
325.69228867208011
 20
137.43812814231671
 41
3
 42
3
 50
270
  0
LINE
  8
_0-4_A0
  6
CONTINUOUS
 62
    7
 10
313.90867498500359
 20
137.43812814231671
 11
326.69228867208011
 21
137.43812814231671
  0
TEXT
  8
_0-4_A0
 62
    7
 10
325.19228867208011
 20
151.93812814231671
 40
4
 41
1
 50
90
  1
350
  0
ENDBLK
  0
BLOCK
  2
-010-_D9
 70
   64
 10
0
 20
0
 30
0
  0
LINE
  8
_0-4_A0
  6
CONTINUOUS
 62
    7
 10
59.707484017054377
 20
117.2881281321535
 11
59.707484017054377
 21
105.63471331189891
  0
LINE
  8
_0-4_A0
  6
CONTINUOUS
 62
    7
 10
62.707484017054377
 20
106.63471331189891
 11
126.6074840170544
 21
106.63471331189891
  0
INSERT
  2
-000-_OPEN
  8
_0-4_A0
 10
59.707484017054377
 20
106.63471331189891
 41
3
 42
3
 50
180
  0
INSERT
  2
-000-_OPEN
  8
_0-4_A0
 10
129.60748401705439
 20
106.63471331189891
 41
3
 42
3
 50
0
  0
LINE
  8
_0-4_A0
  6
CONTINUOUS
 62
    7
 10
129.60748401705439
 20
117.18812813215349
 11
129.60748401705439
 21
105.63471331189891
  0
TEXT
  8
_0-4_A0
 62
    7
 10
91.657484017054387
 20
107.13471331189891
 40
4
 41
1
 50
0
  1
700
  0
ENDBLK
  0
BLOCK
  2
-011-_D10
 70
   64
 10
0
 20
0
 30
0
  0
LINE
  8
_0-4_A0
  6
CONTINUOUS
 62
    7
 10
179.09204482371729
 20
169.32391459201341
 11
179.09204482371729
 21
185.94892298347671
  0
LINE
  8
_0-4_A0
  6
CONTINUOUS
 62
    7
 10
182.09204482371729
 20
184.94892298347671
 11
208.09204482371729
 21
184.94892298347671
  0
INSERT
  2
-000-_OPEN
  8
_0-4_A0
 10
179.09204482371729
 20
184.94892298347671
 41
3
 42
3
 50
180
  0
INSERT
  2
-000-_OPEN
  8
_0-4_A0
 10
211.09204482371729
 20
184.94892298347671
 41
3
 42
3
 50
0
  0
LINE
  8
_0-4_A0
  6
CONTINUOUS
 62
    7
 10
211.09204482371729
 20
169.3239145920133
 11
211.09204482371729
 21
185.94892298347671
  0
TEXT
  8
_0-4_A0
 62
    7
 10
192.09204482371729
 20
185.44892298347671
 40
4
 41
1
 50
0
  1
320
  0
ENDBLK
  0
BLOCK
  2
-012-_D11
 70
   64
 10
0
 20
0
 30
0
  0
LINE
  8
_0-4_A0
  6
CONTINUOUS
 62
    7
 10
195.09204482371729
 20
174.73385962771391
 11
195.09204482371729
 21
194.2107646262144
  0
LINE
  8
_0-4_A0
  6
CONTINUOUS
 62
    7
 10
198.09204482371729
 20
193.2107646262144
 11
211.092044825665
 21
193.2107646262144
  0
INSERT
  2
-000-_OPEN
  8
_0-4_A0
 10
195.09204482371729
 20
193.2107646262144
 41
3
 42
3
 50
180
  0
INSERT
  2
-000-_OPEN
  8
_0-4_A0
 10
214.092044825665
 20
193.2107646262144
 41
3
 42
3
 50
0
  0
LINE
  8
_0-4_A0
  6
CONTINUOUS
 62
    7
 10
214.092044825665
 20
177.73812815277751
 11
214.092044825665
 21
194.2107646262144
  0
TEXT
  8
_0-4_A0
 62
    7
 10
201.5920448246911
 20
193.7107646262144
 40
4
 41
1
 50
0
  1
190
  0
ENDBLK
  0
BLOCK
  2
-013-_D12
 70
   64
 10
0
 20
0
 30
0
  0
LINE
  8
_0-4_A0
  6
CONTINUOUS
 62
    7
 10
214.3920448375859
 20
177.43812814085661
 11
228.99240021058819
 21
177.43812814085661
  0
LINE
  8
_0-4_A0
  6
CONTINUOUS
 62
    7
 10
227.99240021058819
 20
174.43812814085661
 11
227.99240021058819
 21
157.43812814254059
  0
INSERT
  2
-000-_OPEN
  8
_0-4_A0
 10
227.99240021058819
 20
177.43812814085661
 41
3
 42
3
 50
90
  0
INSERT
  2
-000-_OPEN
  8
_0-4_A0
 10
227.99240021058819
 20
154.43812814254059
 41
3
 42
3
 50
270
  0
TEXT
  8
_0-4_A0
 62
    7
 10
227.49240021058819
 20
162.9381281416986
 40
4
 41
1
 50
90
  1
230
  0
ENDBLK
  0
BLOCK
  2
-014-_D13
 70
   64
 10
0
 20
0
 30
0
  0
LINE
  8
_0-4_A0
  6
CONTINUOUS
 62
    7
 10
156.51979373230981
 20
121.91056584354359
 11
156.51979373230981
 21
105.7347133018319
  0
LINE
  8
_0-4_A0
  6
CONTINUOUS
 62
    7
 10
159.51979373230981
 20
106.7347133018319
 11
173.09204482327209
 21
106.7347133018319
  0
INSERT
  2
-000-_OPEN
  8
_0-4_A0
 10
156.51979373230981
 20
106.7347133018319
 41
3
 42
3
 50
180
  0
INSERT
  2
-000-_OPEN
  8
_0-4_A0
 10
176.09204482327209
 20
106.7347133018319
 41
3
 42
3
 50
0
  0
LINE
  8
_0-4_A0
  6
CONTINUOUS
 62
    7
 10
176.09204482327209
 20
117.1981281345377
 11
176.09204482327209
 21
105.7347133018319
  0
TEXT
  8
_0-4_A0
 62
    7
 10
163.30591927779091
 20
107.2347133018319
 40
4
 41
1
 50
0
  1
195
  0
ENDBLK
  0
BLOCK
  2
-015-_D14
 70
   64
 10
0
 20
0
 30
0
  0
LINE
  8
_0-4_A0
  6
CONTINUOUS
 62
    7
 10
176.09204482327209
 20
117.1981281345377
 11
176.09204482327209
 21
105.7347133018319
  0
LINE
  8
_0-4_A0
  6
CONTINUOUS
 62
    7
 10
179.09204482327209
 20
106.7347133018319
 11
211.09204482058399
 21
106.7347133018319
  0
INSERT
  2
-000-_OPEN
  8
_0-4_A0
 10
176.09204482327209
 20
106.7347133018319
 41
3
 42
3
 50
180
  0
INSERT
  2
-000-_OPEN
  8
_0-4_A0
 10
214.09204482058399
 20
106.7347133018319
 41
3
 42
3
 50
0
  0
LINE
  8
_0-4_A0
  6
CONTINUOUS
 62
    7
 10
214.09204482058399
 20
117.1381281321535
 11
214.09204482058399
 21
105.7347133018319
  0
TEXT
  8
_0-4_A0
 62
    7
 10
192.092044821928
 20
107.2347133018319
 40
4
 41
1
 50
0
  1
380
  0
ENDBLK
  0
BLOCK
  2
-016-_D17
 70
   64
 10
0
 20
0
 30
0
  0
LINE
  8
_0-4_A0
  6
CONTINUOUS
 62
    7
 10
59.85748401768889
 20
196.1573683791853
 11
59.857484017688883
 21
184.8230330144147
  0
LINE
  8
_0-4_A0
  6
CONTINUOUS
 62
    7
 10
62.857484017688883
 20
185.8230330144147
 11
126.45748401677341
 21
185.8230330144147
  0
INSERT
  2
-000-_OPEN
  8
_0-4_A0
 10
59.857484017688883
 20
185.8230330144147
 41
3
 42
3
 50
180
  0
INSERT
  2
-000-_OPEN
  8
_0-4_A0
 10
129.45748401677341
 20
185.8230330144147
 41
3
 42
3
 50
0
  0
LINE
  8
_0-4_A0
  6
CONTINUOUS
 62
    7
 10
129.45748401677341
 20
196.15736837603509
 11
129.45748401677341
 21
184.8230330144147
  0
TEXT
  8
_0-4_A0
 62
    7
 10
91.657484017231155
 20
186.3230330144147
 40
4
 41
1
 50
0
  1
696
  0
ENDBLK
  0
BLOCK
  2
-017-_D18
 70
   64
 10
0
 20
0
 30
0
  0
LINE
  8
_0-4_A0
  6
CONTINUOUS
 62
    7
 10
209.97783127326511
 20
170.4381281424655
 11
222.5409457721122
 21
170.4381281424655
  0
LINE
  8
_0-4_A0
  6
CONTINUOUS
 62
    7
 10
221.5409457721122
 20
167.4381281424655
 11
221.5409457721122
 21
141.4381281424655
  0
INSERT
  2
-000-_OPEN
  8
_0-4_A0
 10
221.5409457721122
 20
170.4381281424655
 41
3
 42
3
 50
90
  0
INSERT
  2
-000-_OPEN
  8
_0-4_A0
 10
221.5409457721122
 20
138.4381281424655
 41
3
 42
3
 50
270
  0
LINE
  8
_0-4_A0
  6
CONTINUOUS
 62
    7
 10
209.9778312732652
 20
138.4381281424655
 11
222.5409457721122
 21
138.4381281424655
  0
TEXT
  8
_0-4_A0
 62
    7
 10
221.0409457721122
 20
151.4381281424655
 40
4
 41
1
 50
90
  1
320
  0
ENDBLK
  0
BLOCK
  2
-018-_D19
 70
   64
 10
0
 20
0
 30
0
  0
LINE
  8
_0-4_A0
  6
CONTINUOUS
 62
    7
 10
316.39885343557512
 20
177.4381281423162
 11
326.69228867208011
 21
177.4381281423162
  0
LINE
  8
_0-4_A0
  6
CONTINUOUS
 62
    7
 10
325.69228867208011
 20
177.4381281423162
 11
325.69228867208011
 21
172.43812814231671
  0
INSERT
  2
-000-_OPEN
  8
_0-4_A0
 10
325.69228867208011
 20
177.4381281423162
 41
3
 42
3
 50
270
  0
INSERT
  2
-000-_OPEN
  8
_0-4_A0
 10
325.69228867208011
 20
172.43812814231671
 41
3
 42
3
 50
90
  0
LINE
  8
_0-4_A0
  6
CONTINUOUS
 62
    7
 10
325.69228867208011
 20
180.4381281423162
 11
325.69228867208011
 21
182.4381281423162
  0
LINE
  8
_0-4_A0
  6
CONTINUOUS
 62
    7
 10
325.69228867208011
 20
169.43812814231671
 11
325.69228867208011
 21
167.43812814231671
  0
LINE
  8
_0-4_A0
  6
CONTINUOUS
 62
    7
 10
314.46149262801862
 20
172.43812814231671
 11
326.69228867208011
 21
172.43812814231671
  0
TEXT
  8
_0-4_A0
 62
    7
 10
325.19228867208011
 20
172.9381281423164
 40
4
 41
1
 50
90
  1
50
  0
ENDBLK
  0
BLOCK
  2
-019-_D20
 70
   64
 10
0
 20
0
 30
0
  0
LINE
  8
_0-4_A0
  6
CONTINUOUS
 62
    7
 10
129.89283936803471
 20
250.53812813400739
 11
137.3915060378875
 21
250.53812813400739
  0
LINE
  8
_0-4_A0
  6
CONTINUOUS
 62
    7
 10
136.3915060378875
 20
250.53812813400739
 11
136.3915060378875
 21
244.48812813633359
  0
INSERT
  2
-000-_OPEN
  8
_0-4_A0
 10
136.3915060378875
 20
250.53812813400739
 41
3
 42
3
 50
270
  0
INSERT
  2
-000-_OPEN
  8
_0-4_A0
 10
136.3915060378875
 20
244.48812813633359
 41
3
 42
3
 50
90
  0
LINE
  8
_0-4_A0
  6
CONTINUOUS
 62
    7
 10
136.3915060378875
 20
253.53812813400739
 11
136.3915060378875
 21
255.53812813400739
  0
LINE
  8
_0-4_A0
  6
CONTINUOUS
 62
    7
 10
136.3915060378875
 20
241.48812813633359
 11
136.3915060378875
 21
239.48812813633359
  0
LINE
  8
_0-4_A0
  6
CONTINUOUS
 62
    7
 10
124.2762966631358
 20
244.48812813633359
 11
137.3915060378875
 21
244.48812813633359
  0
TEXT
  8
_0-4_A0
 62
    7
 10
135.8915060378875
 20
243.51312813517049
 40
4
 41
1
 50
90
  1
(60)
  0
ENDBLK
  0
BLOCK
  2
-020-_D21
 70
   64
 10
0
 20
0
 30
0
  0
LINE
  8
_0-4_A0
  6
CONTINUOUS
 62
    7
 10
59.407484005133462
 20
250.53812813400739
 11
55.481937220733627
 21
250.53812813400739
  0
LINE
  8
_0-4_A0
  6
CONTINUOUS
 62
    7
 10
56.481937220733627
 20
250.53812813400739
 11
56.481937220733627
 21
244.48812813633359
  0
INSERT
  2
-000-_OPEN
  8
_0-4_A0
 10
56.481937220733627
 20
250.53812813400739
 41
3
 42
3
 50
270
  0
INSERT
  2
-000-_OPEN
  8
_0-4_A0
 10
56.481937220733627
 20
244.48812813633359
 41
3
 42
3
 50
90
  0
LINE
  8
_0-4_A0
  6
CONTINUOUS
 62
    7
 10
56.481937220733627
 20
253.53812813400739
 11
56.481937220733627
 21
255.53812813400739
  0
LINE
  8
_0-4_A0
  6
CONTINUOUS
 62
    7
 10
56.481937220733627
 20
241.48812813633359
 11
56.481937220733627
 21
239.48812813633359
  0
LINE
  8
_0-4_A0
  6
CONTINUOUS
 62
    7
 10
65.038671370973574
 20
244.48812813633359
 11
55.481937220733627
 21
244.48812813633359
  0
TEXT
  8
_0-4_A0
 62
    7
 10
55.981937220733627
 20
243.51312813517049
 40
4
 41
1
 50
90
  1
(60)
  0
ENDBLK
  0
BLOCK
  2
-021-_D22
 70
   64
 10
0
 20
0
 30
0
  0
LINE
  8
_0-4_A0
  6
CONTINUOUS
 62
    7
 10
129.90748402897529
 20
177.43812814407451
 11
141.0141522203449
 21
177.43812814407451
  0
LINE
  8
_0-4_A0
  6
CONTINUOUS
 62
    7
 10
140.0141522203449
 20
174.43812814407451
 11
140.0141522203449
 21
120.4381281440745
  0
INSERT
  2
-000-_OPEN
  8
_0-4_A0
 10
140.0141522203449
 20
177.43812814407451
 41
3
 42
3
 50
90
  0
INSERT
  2
-000-_OPEN
  8
_0-4_A0
 10
140.0141522203449
 20
117.4381281440745
 41
3
 42
3
 50
270
  0
LINE
  8
_0-4_A0
  6
CONTINUOUS
 62
    7
 10
129.85748402897531
 20
117.4381281440745
 11
141.0141522203449
 21
117.4381281440745
  0
TEXT
  8
_0-4_A0
 62
    7
 10
139.5141522203449
 20
144.43812814407451
 40
4
 41
1
 50
90
  1
600
  0
ENDBLK
  0
ENDSEC
  0
SECTION
  2
ENTITIES
  0
LINE
  8
_0-1_H0
  6
HIDDEN
 62
    3
 10
380.68082130715504
 20
234.34798843477054
 11
369.95940055796234
 21
234.34798843477054
  0
LINE
  8
_0-1_H0
  6
CONTINUOUS
 62
    3
 10
320.82089167968604
 20
241.34798843477054
 11
345.52302305267312
 21
241.34798843477054
  0
LINE
  8
_0-1_H0
  6
CONTINUOUS
 62
    3
 10
369.36847414048771
 20
241.34798843477054
 11
393.8050851894879
 21
241.34798843477054
  0
LINE
  8
_0-1_H0
  6
CONTINUOUS
 62
    3
 10
320.82089167968604
 20
241.34798843477054
 11
320.82089167968604
 21
228.32181151554116
  0
LINE
  8
_0-1_H0
  6
CONTINUOUS
 62
    3
 10
393.8050851894879
 20
241.34798843477054
 11
393.8050851894879
 21
228.32181151554116
  0
LINE
  8
_0-1_H0
  6
CONTINUOUS
 62
    3
 10
406.67777698533712
 20
9.5201897073821442
 11
406.67777698533712
 21
286.52018970738214
  0
LINE
  8
_0-1_H0
  6
CONTINUOUS
 62
    3
 10
11.677776985337118
 20
286.52018970738214
 11
11.677776985337118
 21
9.5201897073821442
  0
LINE
  8
_0-1_H0
  6
CONTINUOUS
 62
    3
 10
406.67777698533712
 20
286.52018970738214
 11
11.677776985337118
 21
286.52018970738214
  0
LINE
  8
_0-1_H0
  6
CONTINUOUS
 62
    3
 10
11.677776985337118
 20
9.5201897073821442
 11
406.67777698533712
 21
9.5201897073821442
  0
LINE
  8
_0-1_H0
  6
CONTINUOUS
 62
    3
 10
337.14313532498903
 20
113.08795523932424
 11
373.19409263038051
 21
113.08795523932424
  0
LINE
  8
_0-1_H0
  6
CENTER
 62
    3
 10
361.07537823984984
 20
143.79209160459524
 11
347.03674298713781
 21
143.79209160459524
  0
LINE
  8
_0-1_H0
  6
CENTER
 62
    3
 10
353.6766435156822
 20
153.08795523932434
 11
353.6766435156822
 21
120.41881985656094
  0
LINE
  8
_0-1_H0
  6
CENTER
 62
    3
 10
364.7272152993512
 20
133.79209160459524
 11
342.16191330852661
 21
133.79209160459524
  0
ARC
  8
_0-1_H0
  6
CONTINUOUS
 62
    3
 10
353.6766435156822
 20
143.79209160459524
 40
2.6000000000000001
 50
0
 51
180
  0
ARC
  8
_0-1_H0
  6
CONTINUOUS
 62
    3
 10
353.6766435156822
 20
133.79209160459524
 40
8
 50
108.9655749888488
 51
71.034425011151313
  0
LINE
  8
_0-1_H0
  6
CONTINUOUS
 62
    3
 10
356.27664351568222
 20
143.79209160459524
 11
356.27664351568222
 21
141.35780373234635
  0
LINE
  8
_0-1_H0
  6
CONTINUOUS
 62
    3
 10
351.07664351568224
 20
143.79209160459524
 11
351.07664351568224
 21
141.35780373234635
  0
INSERT
  2
-001-_D2
  8
_0-1_H0
 10
-3.3222230146628817
 20
-0.4798102926178557
 41
1
 42
1
 50
0
  0
LINE
  8
_0-1_H0
  6
CONTINUOUS
 62
    3
 10
320.82089167968604
 20
228.32181151554116
 11
393.8050851894879
 21
228.32181151554116
  0
LINE
  8
_0-1_H0
  6
CONTINUOUS
 62
    3
 10
309.13815275053213
 20
170.00388369232775
 11
344.06154868631404
 21
143.17384956317923
  0
LINE
  8
_0-1_H0
  6
CONTINUOUS
 62
    3
 10
342.04808841358243
 20
145.47732037018815
 11
344.06154868631404
 21
143.17384956317923
  0
LINE
  8
_0-1_H0
  6
CONTINUOUS
 62
    3
 10
344.06154868631404
 20
143.17384956317923
 11
341.3170196419743
 21
144.52572246896074
  0
LINE
  8
_0-1_H0
  6
CONTINUOUS
 62
    3
 10
368.4940409369492
 20
143.79209160459524
 11
368.4940409369492
 21
155.66968953375945
  0
LINE
  8
_0-1_H0
  6
CONTINUOUS
 62
    3
 10
367.8940409131074
 20
146.79209160459524
 11
368.4940409369492
 21
143.79209160459524
  0
LINE
  8
_0-1_H0
  6
CONTINUOUS
 62
    3
 10
368.4940409369492
 20
143.79209160459524
 11
369.09404096079112
 21
146.79209160459524
  0
TEXT
  8
_0-1_H0
 62
    7
 10
366.51294177106541
 20
148.51870434268525
 40
2.7999999999999998
 41
1
 50
90
  1
50
  0
LINE
  8
_0-1_H0
  6
CONTINUOUS
 62
    3
 10
246.67777698533712
 20
33.520189707382144
 11
406.677776985337
 21
33.520189707382144
  0
LINE
  8
_0-1_H0
  6
CONTINUOUS
 62
    3
 10
335.677776985337
 20
33.520189707382116
 11
335.677776985337
 21
9.5201897073821442
  0
LINE
  8
_0-1_H0
  6
CONTINUOUS
 62
    3
 10
330.677776985337
 20
33.520189707382116
 11
330.677776985337
 21
9.5201897073821442
  0
LINE
  8
_0-1_H0
  6
CONTINUOUS
 62
    3
 10
246.677776985337
 20
38.520189707382144
 11
406.677776985337
 21
38.520189707382144
  0
LINE
  8
_0-1_H0
  6
CONTINUOUS
 62
    3
 10
246.67777698533712
 20
43.520189707382144
 11
406.677776985337
 21
43.520189707382144
  0
LINE
  8
_0-1_H0
  6
CONTINUOUS
 62
    3
 10
288.677776985337
 20
48.520189707382144
 11
288.677776985337
 21
33.520189707382116
  0
LINE
  8
_0-1_H0
  6
CONTINUOUS
 62
    3
 10
246.677776985337
 20
16.520189707382144
 11
406.677776985337
 21
16.520189707382144
  0
LINE
  8
_0-1_H0
  6
CONTINUOUS
 62
    3
 10
330.677776985337
 20
23.520189707382144
 11
406.677776985337
 21
23.520189707382144
  0
LINE
  8
_0-1_H0
  6
CONTINUOUS
 62
    3
 10
394.677776985337
 20
9.5201897073821442
 11
394.677776985337
 21
16.520189707382144
  0
LINE
  8
_0-1_H0
  6
CONTINUOUS
 62
    3
 10
398.677776985337
 20
9.5201897073821442
 11
398.677776985337
 21
16.520189707382144
  0
LINE
  8
_0-1_H0
  6
CONTINUOUS
 62
    3
 10
316.677776985337
 20
9.5201897073821442
 11
316.677776985337
 21
48.520189707382116
  0
LINE
  8
_0-1_H0
  6
CONTINUOUS
 62
    3
 10
302.677776985337
 20
9.5201897073821442
 11
302.677776985337
 21
33.520189707382116
  0
LINE
  8
_0-1_H0
  6
CONTINUOUS
 62
    3
 10
288.677776985337
 20
16.520189707382144
 11
288.677776985337
 21
33.520189707382116
  0
LINE
  8
_0-1_H0
  6
CONTINUOUS
 62
    3
 10
274.677776985337
 20
16.520189707382144
 11
274.677776985337
 21
33.520189707382116
  0
LINE
  8
_0-1_H0
  6
CONTINUOUS
 62
    3
 10
260.677776985337
 20
16.520189707382144
 11
260.677776985337
 21
33.520189707382116
  0
LINE
  8
_0-1_H0
  6
CONTINUOUS
 62
    3
 10
246.677776985337
 20
9.5201897073821442
 11
246.677776985337
 21
48.520189707382144
  0
LINE
  8
_0-1_H0
  6
CONTINUOUS
 62
    3
 10
246.677776985337
 20
30.520189707382144
 11
330.677776985337
 21
30.520189707382144
  0
LINE
  8
_0-1_H0
  6
CONTINUOUS
 62
    3
 10
323.67777698533712
 20
11.020189707382116
 11
327.677776985337
 21
15.020189707379046
  0
TEXT
  8
_0-1_H0
 62
    7
 10
325.94577700631783
 20
10.188189728362971
 40
2.4639999580383303
 41
1
 50
0
  1
10
  0
TEXT
  8
_0-1_H0
 62
    7
 10
323.60377699511241
 20
13.472189726929457
 40
2.2959999608993531
 41
1
 50
0
  1
1
  0
LINE
  8
_0-1_H0
  6
CONTINUOUS
 62
    3
 10
320.677776985337
 20
9.5201897073821442
 11
320.677776985337
 21
16.520189707382144
  0
TEXT
  8
_0-1_H0
 62
    7
 10
337.67777698523042
 20
27.820189707382156
 40
4.3499999999999996
 41
1
 50
0
  1
FAN-700F
  0
LINE
  8
_0-1_H0
  6
CONTINUOUS
 62
    3
 10
337.677776985337
 20
27.520189707382144
 11
404.677776985337
 21
27.520189707382144
  0
LINE
  8
_0-1_H0
  6
CONTINUOUS
 62
    3
 10
246.677776985337
 20
9.5201897073821442
 11
246.67777698533712
 21
43.520189707382144
  0
LINE
  8
_0-1_H0
  6
CONTINUOUS
 62
    3
 10
386.677776985337
 20
33.520189707382144
 11
386.677776985337
 21
48.520189707382116
  0
LINE
  8
_0-1_H0
  6
CONTINUOUS
 62
    3
 10
358.677776985337
 20
33.520189707382144
 11
358.677776985337
 21
48.520189707382116
  0
LINE
  8
_0-1_H0
  6
CONTINUOUS
 62
    3
 10
406.67777698533712
 20
276.52018970738214
 11
266.677776985337
 21
276.52018970738214
  0
LINE
  8
_0-1_H0
  6
CONTINUOUS
 62
    3
 10
406.67777698533712
 20
276.52018970738214
 11
266.677776985337
 21
276.52018970738214
  0
TEXT
  8
_0-1_H0
 62
    7
 10
270.94777698533699
 20
267.56018970738216
 40
2.9199999999999999
 41
1
 50
0
  1
2
  0
TEXT
  8
_0-1_H0
 62
    7
 10
270.94777698533699
 20
272.56018970738216
 40
2.9199999999999999
 41
1
 50
0
  1
1
  0
LINE
  8
_0-1_H0
  6
CONTINUOUS
 62
    3
 10
266.677776985337
 20
276.52018970738214
 11
406.67777698533712
 21
276.52018970738214
  0
LINE
  8
_0-1_H0
  6
CONTINUOUS
 62
    3
 10
406.67777698533712
 20
271.52018970738214
 11
266.677776985337
 21
271.52018970738214
  0
LINE
  8
_0-1_H0
  6
CONTINUOUS
 62
    3
 10
266.677776985337
 20
266.52018970738214
 11
406.67777698533712
 21
266.52018970738214
  0
LINE
  8
_0-1_H0
  6
CONTINUOUS
 62
    3
 10
266.677776985337
 20
281.52018970738214
 11
406.67777698533712
 21
281.52018970738214
  0
LINE
  8
_0-1_H0
  6
CONTINUOUS
 62
    3
 10
266.677776985337
 20
266.52018970738214
 11
266.677776985337
 21
286.52018970738214
  0
LINE
  8
_0-1_H0
  6
CONTINUOUS
 62
    3
 10
276.677776985337
 20
266.52018970738214
 11
276.677776985337
 21
281.52018970738214
  0
LINE
  8
_0-1_H0
  6
CONTINUOUS
 62
    3
 10
311.677776985337
 20
266.52018970738214
 11
311.677776985337
 21
281.52018970738214
  0
LINE
  8
_0-1_H0
  6
CONTINUOUS
 62
    3
 10
346.67777698533712
 20
281.52018970738214
 11
346.67777698533712
 21
266.52018970738214
  0
LINE
  8
_0-1_H0
  6
CONTINUOUS
 62
    3
 10
376.67777698533712
 20
281.52018970738214
 11
376.67777698533712
 21
266.52018970738214
  0
LINE
  8
_0-1_H0
  6
CONTINUOUS
 62
    3
 10
83.677776985337132
 20
281.52018970738214
 11
11.677776985337118
 21
281.52018970738214
  0
LINE
  8
_0-1_H0
  6
CONTINUOUS
 62
    3
 10
52.677776985337118
 20
286.52018970738214
 11
52.677776985337118
 21
268.02018970738214
  0
LINE
  8
_0-1_H0
  6
CONTINUOUS
 62
    3
 10
83.677776985337132
 20
277.02018970738214
 11
11.677776985337118
 21
277.02018970738214
  0
LINE
  8
_0-1_H0
  6
CONTINUOUS
 62
    3
 10
83.677776985337132
 20
268.02018970738214
 11
11.677776985337118
 21
268.02018970738214
  0
TEXT
  8
_0-1_H0
 62
    7
 10
52.655777139832367
 20
283.18318973313137
 40
1.6739999485015868
 41
1
 50
0
  1
µèÇÚÇúþò¬ÕÅÀ
  0
TEXT
  8
_0-1_H0
 62
    7
 10
64.648027140070781
 20
283.10568973551551
 40
1.828999943733215
 41
1
 50
0
  1
Õ╣┤ µ£ê µùÑ
  0
TEXT
  8
_0-1_H0
 62
    7
 10
76.081777095963361
 20
283.12118973503868
 40
1.7979999446868893
 41
1
 50
0
  1
µïà Õ¢ô}
  0
LINE
  8
_0-1_H0
  6
CONTINUOUS
 62
    3
 10
11.677776985337118
 20
272.52018970738214
 11
83.677776985337132
 21
272.52018970738214
  0
LINE
  8
_0-1_H0
  6
CONTINUOUS
 62
    3
 10
17.677776985337118
 20
286.52018970738214
 11
17.677776985337118
 21
268.02018970738214
  0
TEXT
  8
_0-1_H0
 62
    7
 10
11.655277078320353
 20
283.01268973837659
 40
2.0149999380111692
 41
1
 50
0
  1
Þ¿ÿÕÅÀ
  0
TEXT
  8
_0-1_H0
 62
    7
 10
24.099027310778496
 20
283.01268973837659
 40
2.0149999380111692
 41
1
 50
0
  1
ÕñëÒÇÇµø┤ÒÇÇÕ▒ÑÒÇÇµ¡┤
  0
LINE
  8
_0-1_H0
  6
CONTINUOUS
 62
    3
 10
62.677776985337118
 20
286.52018970738214
 11
62.677776985337118
 21
268.02018970738214
  0
LINE
  8
_0-1_H0
  6
CONTINUOUS
 62
    3
 10
12.477776985337073
 20
268.42018970738212
 11
16.877776985337107
 21
268.42018970738212
  0
LINE
  8
_0-1_H0
  6
CONTINUOUS
 62
    3
 10
16.877776985337107
 20
268.42018970738224
 11
14.677776985337118
 21
272.23070148403355
  0
LINE
  8
_0-1_H0
  6
CONTINUOUS
 62
    3
 10
14.677776985337061
 20
272.23070148403343
 11
12.477776985337073
 21
268.42018970738212
  0
LINE
  8
_0-1_H0
  6
CONTINUOUS
 62
    3
 10
12.477776985337073
 20
272.92018970738212
 11
16.877776985337107
 21
272.92018970738212
  0
LINE
  8
_0-1_H0
  6
CONTINUOUS
 62
    3
 10
16.877776985337107
 20
272.92018970738212
 11
14.677776985337061
 21
276.73070148403355
  0
LINE
  8
_0-1_H0
  6
CONTINUOUS
 62
    3
 10
14.677776985337118
 20
276.73070148403355
 11
12.477776985337073
 21
272.92018970738212
  0
TEXT
  8
_0-1_H0
 62
    7
 10
13.877776985337107
 20
273.45836033011682
 40
1.6639999389648434
 41
1
 50
0
  1
B
  0
LINE
  8
_0-1_H0
  6
CONTINUOUS
 62
    3
 10
12.477776985337073
 20
277.42018970738212
 11
16.877776985337107
 21
277.42018970738212
  0
LINE
  8
_0-1_H0
  6
CONTINUOUS
 62
    3
 10
16.877776985337107
 20
277.42018970738224
 11
14.677776985337061
 21
281.23070148403355
  0
LINE
  8
_0-1_H0
  6
CONTINUOUS
 62
    3
 10
14.677776985337061
 20
281.23070148403355
 11
12.477776985337073
 21
277.42018970738224
  0
TEXT
  8
_0-1_H0
 62
    7
 10
13.877776985337107
 20
277.95836033011682
 40
1.6639999389648434
 41
1
 50
0
  1
A
  0
LINE
  8
_0-1_H0
  6
CONTINUOUS
 62
    3
 10
75.677776985337118
 20
286.52018970738214
 11
75.677776985337118
 21
268.02018970738214
  0
LINE
  8
_0-1_H0
  6
CONTINUOUS
 62
    3
 10
83.677776985337132
 20
286.52018970738214
 11
83.677776985337132
 21
268.02018970738214
  0
TEXT
  8
_0-1_H0
 62
    7
 10
13.877776985337107
 20
268.95818973789972
 40
1.6639999389648434
 41
1
 50
0
  1
C
  0
LINE
  8
_0-1_H0
  6
CONTINUOUS
 62
    3
 10
266.25318269508062
 20
260.97681192826246
 11
359.34778635324392
 21
260.97681192826246
  0
LINE
  8
_0-1_H0
  6
CONTINUOUS
 62
    3
 10
272.20952795405384
 20
254.97681192826244
 11
337.79179036258813
 21
254.97681192826244
  0
LINE
  8
_0-1_H0
  6
CONTINUOUS
 62
    3
 10
246.67777698533712
 20
48.520189707382144
 11
406.677776985337
 21
48.520189707382144
  0
TEXT
  8
_0-1_H0
 62
    7
 10
247.67777698533712
 20
39.560189707382136
 40
2.9199999999999999
 41
1
 50
0
  1
FAN-700F-BK
  0
TEXT
  8
_0-1_H0
 62
    7
 10
296.83777698533714
 20
39.560189707382136
 40
2.9199999999999999
 41
1
 50
0
  1
179N01SW
  0
TEXT
  8
_0-1_H0
 62
    7
 10
247.67777698533712
 20
44.560189707382136
 40
2.9199999999999999
 41
1
 50
0
  1
FAN-700F-W
  0
TEXT
  8
_0-1_H0
 62
    7
 10
296.83777698533714
 20
44.560189707382136
 40
2.9199999999999999
 41
1
 50
0
  1
179N01XP
  0
LINE
  8
_0-1_H0
  6
CONTINUOUS
 62
    3
 10
389.38078978751963
 20
46.020189707382144
 11
404.0557736174336
 21
46.020189707382144
  0
LINE
  8
_0-1_H0
  6
CONTINUOUS
 62
    3
 10
389.38078978751963
 20
41.020189707382144
 11
404.0557736174336
 21
41.020189707382144
  0
LINE
  8
_0-1_H0
  6
CONTINUOUS
 62
    3
 10
61.42215012155205
 20
63.848373420683771
 11
61.42215012155205
 21
43.348373420683799
  0
LINE
  8
_0-1_H0
  6
CONTINUOUS
 62
    3
 10
45.42215012155205
 20
63.848373420683771
 11
45.42215012155205
 21
43.348373420683799
  0
LINE
  8
_0-1_H0
  6
CONTINUOUS
 62
    3
 10
17.42215012155205
 20
63.848373420683828
 11
17.42215012155205
 21
43.348373420683799
  0
TEXT
  8
_0-1_H0
 62
    7
 10
51.18015014968546
 20
55.227373434750518
 40
2.2419999718666075
 41
1
 50
0
  1
(kg)
  0
LINE
  8
_0-1_H0
  6
CONTINUOUS
 62
    3
 10
17.42215012155205
 20
53.848373420683828
 11
61.42215012155205
 21
53.848373420683828
  0
LINE
  8
_0-1_H0
  6
CONTINUOUS
 62
    3
 10
17.42215012155205
 20
63.848373420683828
 11
61.42215012155205
 21
63.848373420683828
  0
LINE
  8
_0-1_H0
  6
CONTINUOUS
 62
    3
 10
17.422150121552107
 20
43.348373420683799
 11
61.42215012155205
 21
43.348373420683799
  0
TEXT
  8
_0-1_H0
 62
    7
 10
51.472150121552033
 20
47.298373420683816
 40
2.6000000000000001
 41
1
 50
0
  1
8.5
  0
LINE
  8
_0-4_A0
  6
CONTINUOUS
 62
    3
 10
172.66982181099365
 20
116.95831785145664
 11
210.76982180592125
 21
116.95831785145664
  0
LINE
  8
_0-4_A0
  6
DASHED
 62
    3
 10
172.76982180862672
 20
117.45831785145664
 11
210.76982180596355
 21
117.45831785145664
  0
LINE
  8
_0-4_A0
  6
CONTINUOUS
 62
    3
 10
242.77663040899131
 20
176.85831786038614
 11
242.77663040899131
 21
116.95831785207494
  0
LINE
  8
_0-4_A0
  6
CONTINUOUS
 62
    3
 10
312.77663040899131
 20
176.85831786038625
 11
312.77663040899131
 21
116.95831785207494
  0
ARC
  8
_0-4_A0
  6
CONTINUOUS
 62
    3
 10
242.89663040899131
 20
157.02831785207493
 40
0.0699999999999999
 50
179.99999999999639
 51
269.99999999999483
  0
LINE
  8
_0-9_A10
  6
HIDDEN
 62
    3
 10
172.76982180860932
 20
118.15831785145234
 11
172.76982180860932
 21
117.02741012263414
  0
LINE
  8
_0-9_A10
  6
HIDDEN
 62
    3
 10
172.76982180602283
 20
118.15831785145234
 11
172.76982180592705
 21
117.02741012263414
  0
LINE
  8
_0-4_A0
  6
HIDDEN
 62
    3
 10
172.76982180602283
 20
118.15831785145664
 11
172.76982180592114
 21
116.95748936989185
  0
LINE
  8
_0-4_A0
  6
CONTINUOUS
 62
    6
 10
56.435261002391485
 20
116.95831785145664
 11
126.23526100239154
 21
116.95831785145664
  0
LINE
  8
_0-4_A0
  6
CONTINUOUS
 62
    6
 10
56.38526100239153
 20
176.95831785145666
 11
56.38526100239153
 21
117.01831785145664
  0
ARC
  8
_0-4_A0
  6
CONTINUOUS
 62
    6
 10
56.435261002391513
 20
117.00831785145664
 40
0.05
 50
179.99999999999639
 51
269.99999999999483
  0
LINE
  8
_0-4_A0
  6
CONTINUOUS
 62
    6
 10
124.73526099737855
 20
117.55831785145665
 11
57.985261002391496
 21
117.55831785145665
  0
LINE
  8
_0-4_A0
  6
CONTINUOUS
 62
    6
 10
126.28526100239152
 20
176.95831785145666
 11
126.28526100239152
 21
117.00831785145664
  0
ARC
  8
_0-4_A0
  6
CONTINUOUS
 62
    6
 10
126.23526100239154
 20
117.00831785145664
 40
0.05
 50
269.99999999999801
 51
359.99999999999642
  0
LINE
  8
_0-4_A0
  6
CONTINUOUS
 62
    6
 10
126.28526100239152
 20
117.01831785145664
 11
124.64526100239154
 21
117.01831785145664
  0
LINE
  8
_0-4_A0
  6
CONTINUOUS
 62
    6
 10
124.58526100239153
 20
117.55831785145665
 11
124.64526100239154
 21
117.55831785145665
  0
LINE
  8
_0-4_A0
  6
DASHED
 62
    6
 10
124.63526100239153
 20
120.90831785145654
 11
124.63526100239153
 21
120.70831785145654
  0
LINE
  8
_0-4_A0
  6
CONTINUOUS
 62
    6
 10
124.43526100239153
 20
120.95831785145664
 11
124.43526100239153
 21
120.95831785145664
  0
LINE
  8
_0-4_A0
  6
CONTINUOUS
 62
    6
 10
124.43526100239153
 20
120.95831785145664
 11
124.36580173132475
 21
120.95725439416751
  0
LINE
  8
_0-4_A0
  6
CONTINUOUS
 62
    6
 10
124.36580173132475
 20
120.95725439416751
 11
124.29845294506126
 21
120.95409633491167
  0
LINE
  8
_0-4_A0
  6
CONTINUOUS
 62
    6
 10
124.29845294506126
 20
120.95409633491167
 11
124.23526100239152
 21
120.94893962972156
  0
LINE
  8
_0-4_A0
  6
CONTINUOUS
 62
    6
 10
124.23526100239152
 20
120.94893962972156
 11
124.17814595851691
 21
120.94194096247497
  0
LINE
  8
_0-4_A0
  6
CONTINUOUS
 62
    6
 10
124.17814595851691
 20
120.94194096247497
 11
124.12884322514394
 21
120.9333129841347
  0
LINE
  8
_0-4_A0
  6
CONTINUOUS
 62
    6
 10
124.12884322514394
 20
120.9333129841347
 11
124.08885084087775
 21
120.92331785145664
  0
LINE
  8
_0-4_A0
  6
CONTINUOUS
 62
    6
 10
124.08885084087775
 20
120.92331785145664
 11
124.05938395407716
 21
120.91225926148944
  0
LINE
  8
_0-4_A0
  6
CONTINUOUS
 62
    6
 10
124.05938395407716
 20
120.91225926148944
 11
124.04133790118665
 21
120.90047322389333
  0
LINE
  8
_0-4_A0
  6
CONTINUOUS
 62
    6
 10
124.04133790118665
 20
120.90047322389333
 11
124.03526100239152
 21
120.88831785145665
  0
LINE
  8
_0-4_A0
  6
CONTINUOUS
 62
    6
 10
124.03526100239152
 20
120.88831785145665
 11
124.03526100239152
 21
120.88831785145665
  0
LINE
  8
_0-4_A0
  6
CONTINUOUS
 62
    6
 10
124.03526100239152
 20
120.77831785145655
 11
124.03526100239152
 21
120.77831785145655
  0
LINE
  8
_0-4_A0
  6
CONTINUOUS
 62
    6
 10
124.03526100239152
 20
120.77831785145655
 11
124.04133790118665
 21
120.76616247901987
  0
LINE
  8
_0-4_A0
  6
CONTINUOUS
 62
    6
 10
124.04133790118665
 20
120.76616247901987
 11
124.05938395407716
 21
120.75437644142376
  0
LINE
  8
_0-4_A0
  6
CONTINUOUS
 62
    6
 10
124.05938395407716
 20
120.75437644142376
 11
124.08885084087775
 21
120.74331785145655
  0
LINE
  8
_0-4_A0
  6
CONTINUOUS
 62
    6
 10
124.08885084087775
 20
120.74331785145655
 11
124.12884322514394
 21
120.7333227187785
  0
LINE
  8
_0-4_A0
  6
CONTINUOUS
 62
    6
 10
124.12884322514394
 20
120.7333227187785
 11
124.17814595851691
 21
120.72469474043822
  0
LINE
  8
_0-4_A0
  6
CONTINUOUS
 62
    6
 10
124.17814595851691
 20
120.72469474043822
 11
124.23526100239152
 21
120.71769607319163
  0
LINE
  8
_0-4_A0
  6
CONTINUOUS
 62
    6
 10
124.23526100239152
 20
120.71769607319163
 11
124.29845294506126
 21
120.71253936800153
  0
LINE
  8
_0-4_A0
  6
CONTINUOUS
 62
    6
 10
124.29845294506126
 20
120.71253936800153
 11
124.36580173132475
 21
120.70938130874569
  0
LINE
  8
_0-4_A0
  6
CONTINUOUS
 62
    6
 10
124.36580173132475
 20
120.70938130874569
 11
124.43526100239153
 21
120.70831785145656
  0
LINE
  8
_0-4_A0
  6
CONTINUOUS
 62
    6
 10
124.03526100239152
 20
120.67831785145654
 11
124.03526100239152
 21
120.67831785145654
  0
LINE
  8
_0-4_A0
  6
CONTINUOUS
 62
    6
 10
124.03526100239152
 20
120.67831785145654
 11
124.04133790118665
 21
120.66616247901986
  0
LINE
  8
_0-4_A0
  6
CONTINUOUS
 62
    6
 10
124.04133790118665
 20
120.66616247901986
 11
124.05938395407716
 21
120.65437644142375
  0
LINE
  8
_0-4_A0
  6
CONTINUOUS
 62
    6
 10
124.05938395407716
 20
120.65437644142375
 11
124.08885084087775
 21
120.64331785145654
  0
LINE
  8
_0-4_A0
  6
CONTINUOUS
 62
    6
 10
124.08885084087775
 20
120.64331785145654
 11
124.12884322514394
 21
120.63332271877849
  0
LINE
  8
_0-4_A0
  6
CONTINUOUS
 62
    6
 10
124.12884322514394
 20
120.63332271877849
 11
124.17814595851691
 21
120.62469474043822
  0
LINE
  8
_0-4_A0
  6
CONTINUOUS
 62
    6
 10
124.17814595851691
 20
120.62469474043822
 11
124.23526100239152
 21
120.61769607319162
  0
LINE
  8
_0-4_A0
  6
CONTINUOUS
 62
    6
 10
124.23526100239152
 20
120.61769607319162
 11
124.29845294506126
 21
120.61253936800152
  0
LINE
  8
_0-4_A0
  6
CONTINUOUS
 62
    6
 10
124.29845294506126
 20
120.61253936800152
 11
124.36580173132475
 21
120.60938130874568
  0
LINE
  8
_0-4_A0
  6
CONTINUOUS
 62
    6
 10
124.36580173132475
 20
120.60938130874568
 11
124.43526100239153
 21
120.60831785145655
  0
LINE
  8
_0-4_A0
  6
CONTINUOUS
 62
    6
 10
124.43526098506493
 20
120.95831785145654
 11
124.53526100239154
 21
120.95831785145654
  0
LINE
  8
_0-4_A0
  6
DASHED
 62
    6
 10
124.63526100239153
 20
120.95831785145654
 11
124.63526100239153
 21
120.90831785145654
  0
LINE
  8
_0-4_A0
  6
CONTINUOUS
 62
    6
 10
124.03526100239164
 20
120.67831785145644
 11
124.03526100239154
 21
120.88831785145655
  0
LINE
  8
_0-4_A0
  6
CONTINUOUS
 62
    6
 10
124.53526100239154
 20
120.90831785145654
 11
124.58526100239153
 21
120.90831785145654
  0
LINE
  8
_0-4_A0
  6
DASHED
 62
    6
 10
124.58526100239153
 20
120.90831785145654
 11
124.63526100239153
 21
120.90831785145654
  0
LINE
  8
_0-4_A0
  6
CONTINUOUS
 62
    6
 10
124.43526098629063
 20
120.70831785145654
 11
124.58526100239153
 21
120.70831785145654
  0
LINE
  8
_0-4_A0
  6
DASHED
 62
    6
 10
124.58526100239153
 20
120.70831785145654
 11
124.63526100239153
 21
120.70831785145654
  0
LINE
  8
_0-4_A0
  6
CONTINUOUS
 62
    6
 10
124.43526098629063
 20
120.60831785145665
 11
124.58526100239153
 21
120.60831785145665
  0
LINE
  8
_0-4_A0
  6
DASHED
 62
    6
 10
124.58526100239153
 20
120.60831785145665
 11
124.63526100239153
 21
120.60831785145665
  0
LINE
  8
_0-4_A0
  6
CONTINUOUS
 62
    3
 10
64.38526100239153
 20
116.83831785145665
 11
64.88526100239153
 21
116.83831785145665
  0
LINE
  8
_0-4_A0
  6
CONTINUOUS
 62
    3
 10
64.780261002391512
 20
116.95831785145664
 11
64.985261002391496
 21
116.95831785145664
  0
LINE
  8
_0-4_A0
  6
CONTINUOUS
 62
    3
 10
64.985261002391496
 20
116.95831785145664
 11
64.985261002391496
 21
116.93831785145665
  0
ARC
  8
_0-4_A0
  6
CONTINUOUS
 62
    3
 10
64.88526100239153
 20
116.93831785145665
 40
0.1
 50
269.99999999999528
 51
359.99999999999341
  0
LINE
  8
_0-4_A0
  6
CONTINUOUS
 62
    3
 10
64.38526100239153
 20
116.83831785145665
 11
63.88526100239153
 21
116.83831785145665
  0
LINE
  8
_0-4_A0
  6
CONTINUOUS
 62
    3
 10
63.990261002391492
 20
116.95831785145664
 11
63.785261002391508
 21
116.95831785145664
  0
LINE
  8
_0-4_A0
  6
CONTINUOUS
 62
    3
 10
63.785261002391508
 20
116.95831785145664
 11
63.785261002391508
 21
116.93831785145665
  0
ARC
  8
_0-4_A0
  6
CONTINUOUS
 62
    3
 10
63.88526100239153
 20
116.93831785145665
 40
0.1
 50
180
 51
269.99999999999812
  0
ARC
  8
_0-4_A0
  6
CONTINUOUS
 62
    3
 10
118.78526100239154
 20
116.93831785145665
 40
0.1
 50
269.99999999999528
 51
359.99999999999341
  0
LINE
  8
_0-4_A0
  6
CONTINUOUS
 62
    3
 10
118.88526100239153
 20
116.95831785145664
 11
118.88526100239153
 21
116.93831785145665
  0
LINE
  8
_0-4_A0
  6
CONTINUOUS
 62
    3
 10
118.28526100239154
 20
116.83831785145665
 11
118.78526100239154
 21
116.83831785145665
  0
LINE
  8
_0-4_A0
  6
CONTINUOUS
 62
    3
 10
118.28526100239154
 20
116.83831785145665
 11
117.78526100239154
 21
116.83831785145665
  0
ARC
  8
_0-4_A0
  6
CONTINUOUS
 62
    3
 10
117.78526100239154
 20
116.93831785145665
 40
0.1
 50
180
 51
269.99999999999812
  0
LINE
  8
_0-4_A0
  6
CONTINUOUS
 62
    3
 10
117.68526100239153
 20
116.95831785145664
 11
117.68526100239153
 21
116.93831785145665
  0
LINE
  8
_0-4_A0
  6
CONTINUOUS
 62
    3
 10
126.27061634145083
 20
250.05831784138954
 11
56.38526100239153
 21
250.05831784138954
  0
LINE
  8
_0-4_A0
  6
CONTINUOUS
 62
    3
 10
56.38526100239153
 20
250.00831784287163
 11
56.38526100239153
 21
212.05831784138954
  0
LINE
  8
_0-4_A0
  6
CONTINUOUS
 62
    3
 10
57.88526100239153
 20
248.55831784138954
 11
124.78526100239152
 21
248.55831784138954
  0
LINE
  8
_0-4_A0
  6
CONTINUOUS
 62
    3
 10
56.399905663332163
 20
250.04367318044893
 11
57.885261002391474
 21
248.55831784138954
  0
LINE
  8
_0-4_A0
  6
CONTINUOUS
 62
    3
 10
124.78526100239152
 20
248.55831784138965
 11
126.27061634145083
 21
250.04367318044885
  0
ARC
  8
_0-4_A0
  6
CONTINUOUS
 62
    3
 10
56.435261002391513
 20
250.00831784138956
 40
0.05
 50
89.999999999425526
 51
179.99999999999639
  0
ARC
  8
_0-4_A0
  6
CONTINUOUS
 62
    3
 10
126.23526100239154
 20
250.00831784138956
 40
0.05
 50
0
 51
89.999999999425526
  0
ARC
  8
_0-4_A0
  6
CONTINUOUS
 62
    3
 10
56.435261002391513
 20
250.00831784138956
 40
0.05
 50
89.999999999425526
 51
179.99999999999639
  0
ARC
  8
_0-4_A0
  6
CONTINUOUS
 62
    3
 10
126.23526100239154
 20
250.00831784138956
 40
0.05
 50
0
 51
89.999999999425526
  0
LINE
  8
_1-3_A50
  6
CONTINUOUS
 62
    3
 10
124.66526100230874
 20
116.97991581003114
 11
126.10526100230872
 21
116.97991580990924
  0
ARC
  8
_1-3_A50
  6
CONTINUOUS
 62
    3
 10
126.10526100231134
 20
117.00991580990934
 40
0.0299999999999999
 50
269.99999999515171
 51
359.99999999515171
  0
ARC
  8
_1-3_A50
  6
CONTINUOUS
 62
    3
 10
124.66526100231133
 20
117.00991581003115
 40
0.0299999999999999
 50
179.99999999515191
 51
269.99999999515171
  0
ARC
  8
_0-4_A0
  6
CONTINUOUS
 62
    3
 10
56.455261002391524
 20
157.02831785313305
 40
0.0699999999999999
 50
179.99999999999639
 51
269.99999999999483
  0
LINE
  8
_0-4_A0
  6
CONTINUOUS
 62
    3
 10
56.385261002555069
 20
220.11831784138954
 11
56.385261002555069
 21
212.16831784138955
  0
LINE
  8
_0-4_A0
  6
CONTINUOUS
 62
    3
 10
126.28526100255503
 20
220.11831784138954
 11
126.28526100255503
 21
212.05831784138954
  0
LINE
  8
_0-4_A0
  6
CONTINUOUS
 62
    3
 10
124.53526100239154
 20
121.08373882624005
 11
124.53526100239154
 21
120.90831785145654
  0
LINE
  8
_0-4_A0
  6
CONTINUOUS
 62
    3
 10
57.88526100239153
 20
212.05831784138954
 11
57.88526100239153
 21
248.55831784138954
  0
LINE
  8
_0-4_A0
  6
CONTINUOUS
 62
    3
 10
56.38526100239153
 20
176.95831785145666
 11
126.28526100239152
 21
176.95831785145666
  0
LINE
  8
_1-1_A30
  6
CONTINUOUS
 62
    3
 10
124.68526099732794
 20
116.95831785644815
 11
126.08526099732792
 21
116.95831785633004
  0
LINE
  8
_1-1_A30
  6
CONTINUOUS
 62
    3
 10
124.63526099737003
 20
117.45831785645234
 11
124.63526099733214
 21
117.00831785645235
  0
LINE
  8
_1-1_A30
  6
CONTINUOUS
 62
    3
 10
124.63526099737003
 20
117.45831785645234
 11
124.68526099737004
 21
117.45831785644815
  0
LINE
  8
_1-1_A30
  6
CONTINUOUS
 62
    3
 10
124.68526099737004
 20
117.45831785644815
 11
124.68526099733212
 21
117.00831785644814
  0
LINE
  8
_1-1_A30
  6
CONTINUOUS
 62
    3
 10
124.73526099737855
 20
117.55831785644395
 11
124.73526099733213
 21
117.00831785644394
  0
LINE
  8
_1-1_A30
  6
CONTINUOUS
 62
    3
 10
124.63526099738694
 20
117.65831785645234
 11
124.73526099737855
 21
117.55831785644395
  0
LINE
  8
_1-1_A30
  6
CONTINUOUS
 62
    3
 10
124.68526099733212
 20
117.00831785644814
 11
124.73526099733213
 21
117.00831785644394
  0
LINE
  8
_1-1_A30
  6
CONTINUOUS
 62
    3
 10
124.73526099733213
 20
117.00831785644394
 11
126.13526099733214
 21
117.00831785632585
  0
ARC
  8
_1-1_A30
  6
CONTINUOUS
 62
    3
 10
124.68526099733212
 20
117.00831785644814
 40
0.05
 50
179.99999999457441
 51
269.99999999514529
  0
ARC
  8
_1-1_A30
  6
CONTINUOUS
 62
    3
 10
126.08526099733224
 20
117.00831785633004
 40
0.05
 50
269.99999999514529
 51
359.99999999514222
  0
LINE
  8
_0-4_A0
  6
CONTINUOUS
 62
    3
 10
121.13526100237843
 20
176.85831785649313
 11
91.33526100239169
 21
176.85831785145663
  0
LINE
  8
_0-4_A0
  6
CONTINUOUS
 62
    3
 10
91.335261000643527
 20
176.85831785976745
 11
126.28526100239152
 21
176.85831785976745
  0
LINE
  8
_1-1_A30
  6
CONTINUOUS
 62
    3
 10
57.985260997326122
 20
116.95831786124225
 11
56.585260997326088
 21
116.95831786136094
  0
LINE
  8
_1-1_A30
  6
CONTINUOUS
 62
    3
 10
126.13526099784924
 20
123.14270525680675
 11
126.13526099791675
 21
123.94270525687415
  0
LINE
  8
_0-4_A0
  6
CONTINUOUS
 62
    3
 10
277.7766304090303
 20
176.95831784969843
 11
247.77663040728311
 21
176.95831784969835
  0
LINE
  8
_0-4_A0
  6
CONTINUOUS
 62
    3
 10
277.77663040553603
 20
176.95831784969843
 11
312.77663040899131
 21
176.95831784969835
  0
LINE
  8
_0-4_A0
  6
CONTINUOUS
 62
    3
 10
242.77663040899131
 20
176.95831784138744
 11
307.5766304072709
 21
176.95831784138744
  0
LINE
  8
_0-4_A0
  6
CONTINUOUS
 62
    3
 10
247.97663040729543
 20
176.95831784642405
 11
307.5766304072709
 21
176.95831784642405
  0
LINE
  8
_0-4_A0
  6
CONTINUOUS
 62
    3
 10
172.76982181100215
 20
176.95831785145666
 11
210.76982181100203
 21
176.95831784823875
  0
LINE
  8
_0-4_A0
  6
CONTINUOUS
 62
    3
 10
210.76982180592114
 20
116.95831785145664
 11
210.76982181100215
 21
176.95831784823875
  0
LINE
  8
_0-4_A0
  6
CENTER
 62
    3
 10
191.76982180905441
 20
173.95404932317504
 11
191.76982180905441
 21
131.64345061689863
  0
LINE
  8
_0-4_A0
  6
CONTINUOUS
 62
    3
 10
242.77663040899131
 20
116.95831784969864
 11
312.77663040899131
 21
116.95831784969835
  0
LINE
  8
_0-4_A0
  6
CENTER
 62
    3
 10
91.335261002391562
 20
100.64313192256094
 11
91.335261002391576
 21
105.12046148432954
  0
LINE
  8
_0-4_A0
  6
CONTINUOUS
 62
    3
 10
153.19757071764695
 20
121.73075556284664
 11
172.61982183050441
 21
116.95831785145594
  0
LINE
  8
_0-4_A0
  6
CONTINUOUS
 62
    3
 10
166.76809348731604
 20
176.95831784955465
 11
153.19757071764695
 21
121.73075556284664
  0
LINE
  8
_0-4_A0
  6
CONTINUOUS
 62
    3
 10
123.19434364879815
 20
206.4571886751142
 11
123.19434364879815
 21
206.4571886751142
  0
LINE
  8
_0-4_A0
  6
CONTINUOUS
 62
    3
 10
123.19434364879815
 20
206.4571886751142
 11
123.71428954650675
 21
206.51467685712052
  0
LINE
  8
_0-4_A0
  6
CONTINUOUS
 62
    3
 10
123.71428954650675
 20
206.51467685712052
 11
124.21664195488702
 21
206.66426508665685
  0
LINE
  8
_0-4_A0
  6
CONTINUOUS
 62
    3
 10
124.21664195488702
 20
206.66426508665685
 11
124.68613715021297
 21
206.90140820106399
  0
LINE
  8
_0-4_A0
  6
CONTINUOUS
 62
    3
 10
124.68613715021297
 20
206.90140820106399
 11
125.10850975855061
 21
207.21890072681092
  0
LINE
  8
_0-4_A0
  6
CONTINUOUS
 62
    3
 10
125.10850975855061
 20
207.21890072681092
 11
125.47092620192649
 21
207.60709581416174
  0
LINE
  8
_0-4_A0
  6
CONTINUOUS
 62
    3
 10
125.47092620192649
 20
207.60709581416174
 11
125.76237464010016
 21
208.05419835182352
  0
LINE
  8
_0-4_A0
  6
CONTINUOUS
 62
    3
 10
125.76237464010016
 20
208.05419835182352
 11
125.97399955975777
 21
208.54662335543421
  0
LINE
  8
_0-4_A0
  6
CONTINUOUS
 62
    3
 10
125.97399955975777
 20
208.54662335543421
 11
126.09937084480289
 21
209.06940874043815
  0
LINE
  8
_0-4_A0
  6
CONTINUOUS
 62
    3
 10
126.09937084480289
 20
209.06940874043815
 11
126.13526100180123
 21
209.54582977360465
  0
LINE
  8
_0-4_A0
  6
CONTINUOUS
 62
    3
 10
124.63526100183383
 20
212.05831784102364
 11
126.13526100183374
 21
212.05831784100425
  0
LINE
  8
_0-4_A0
  6
CONTINUOUS
 62
    3
 10
126.13526100205392
 20
176.95831785145666
 11
126.13526099698375
 21
116.95831785529144
  0
LINE
  8
_0-4_A0
  6
CONTINUOUS
 62
    3
 10
123.13526100205394
 20
176.95831785145666
 11
123.13526099738203
 21
121.67110009445645
  0
LINE
  8
_0-4_A0
  6
CONTINUOUS
 62
    3
 10
167.02553017533666
 20
176.95831784963823
 11
153.44034885655765
 21
121.67110009145425
  0
LINE
  8
_0-4_A0
  6
CONTINUOUS
 62
    3
 10
124.63526100183303
 20
211.99831784102363
 11
126.13526100183294
 21
211.99831784100425
  0
ARC
  8
_0-4_A0
  6
CONTINUOUS
 62
    3
 10
123.07526100169534
 20
206.26658951735763
 40
0.0599999999999999
 50
269.99999999925808
 51
359.99999999999341
  0
ARC
  8
_0-4_A0
  6
CONTINUOUS
 62
    3
 10
123.19526100169973
 20
206.39658951735706
 40
0.0599999999999999
 50
89.999999999425526
 51
179.99999999999639
  0
LINE
  8
_0-4_A0
  6
CONTINUOUS
 62
    3
 10
91.335261002082476
 20
206.20658951961735
 11
123.13526100168373
 21
206.20658951693014
  0
LINE
  8
_0-4_A0
  6
CONTINUOUS
 62
    3
 10
172.76982181100215
 20
176.95831785150534
 11
166.76809348731604
 21
176.95831784955465
  0
LINE
  8
_0-4_A0
  6
HIDDEN
 62
    3
 10
154.91128449632242
 20
121.37138485786895
 11
155.04014031448565
 21
121.89578563792695
  0
ARC
  8
_0-4_A0
  6
HIDDEN
 62
    3
 10
154.85301774298262
 20
121.38570217099814
 40
0.0599999999999999
 50
256.19478279910521
 51
346.19478279967672
  0
LINE
  8
_0-4_A0
  6
CONTINUOUS
 62
    3
 10
91.335260999450483
 20
121.31317616977525
 11
123.13526099732503
 21
121.31317616977525
  0
LINE
  8
_0-4_A0
  6
CONTINUOUS
 62
    3
 10
91.335260999472581
 20
121.73075556474855
 11
123.13526099738203
 21
121.73075556474855
  0
LINE
  8
_0-4_A0
  6
CONTINUOUS
 62
    3
 10
124.63526099732154
 20
120.95523484798035
 11
124.63526099704283
 21
117.65831785679644
  0
LINE
  8
_0-4_A0
  6
CONTINUOUS
 62
    3
 10
126.13526099732154
 20
120.95523443664754
 11
126.13526099732154
 21
120.95523443664754
  0
LINE
  8
_0-4_A0
  6
CONTINUOUS
 62
    3
 10
126.13526099732154
 20
120.95523443664754
 11
126.08968425635817
 21
121.07954395759397
  0
LINE
  8
_0-4_A0
  6
CONTINUOUS
 62
    3
 10
126.08968425635817
 20
121.07954395759397
 11
125.95433885967927
 21
121.20007639665009
  0
LINE
  8
_0-4_A0
  6
CONTINUOUS
 62
    3
 10
125.95433885967927
 20
121.20007639665009
 11
125.73333720867485
 21
121.31316943664754
  0
LINE
  8
_0-4_A0
  6
CONTINUOUS
 62
    3
 10
125.73333720867485
 20
121.31316943664754
 11
125.43339432667847
 21
121.41538680279385
  0
LINE
  8
_0-4_A0
  6
CONTINUOUS
 62
    3
 10
125.43339432667847
 20
121.41538680279385
 11
125.06362382638116
 21
121.50362267214312
  0
LINE
  8
_0-4_A0
  6
CONTINUOUS
 62
    3
 10
125.06362382638116
 20
121.50362267214312
 11
124.63526099732154
 21
121.57519604245471
  0
LINE
  8
_0-4_A0
  6
CONTINUOUS
 62
    3
 10
124.63526099732154
 20
121.57519604245471
 11
124.16132142729855
 21
121.62793219308955
  0
LINE
  8
_0-4_A0
  6
CONTINUOUS
 62
    3
 10
124.16132142729855
 20
121.62793219308955
 11
123.65620553032232
 21
121.66022876279639
  0
LINE
  8
_0-4_A0
  6
CONTINUOUS
 62
    3
 10
123.65620553032232
 20
121.66022876279639
 11
123.13526099732154
 21
121.67110443664754
  0
LINE
  8
_0-4_A0
  6
CONTINUOUS
 62
    3
 10
123.13526099732154
 20
121.67110443664754
 11
123.13526099732154
 21
121.67110443664754
  0
LINE
  8
_0-4_A0
  6
CONTINUOUS
 62
    3
 10
124.63526099732154
 20
120.95523443664754
 11
124.63526099732154
 21
120.95523443664754
  0
LINE
  8
_0-4_A0
  6
CONTINUOUS
 62
    3
 10
124.63526099732154
 20
120.95523443664754
 11
124.61247262683985
 21
121.01739006536164
  0
LINE
  8
_0-4_A0
  6
CONTINUOUS
 62
    3
 10
124.61247262683985
 20
121.01739006536164
 11
124.5447999285004
 21
121.07765712674953
  0
LINE
  8
_0-4_A0
  6
CONTINUOUS
 62
    3
 10
124.5447999285004
 20
121.07765712674953
 11
124.4342991029982
 21
121.13420443664755
  0
LINE
  8
_0-4_A0
  6
CONTINUOUS
 62
    3
 10
124.4342991029982
 20
121.13420443664755
 11
124.28432766200001
 21
121.18531383365874
  0
LINE
  8
_0-4_A0
  6
CONTINUOUS
 62
    3
 10
124.28432766200001
 20
121.18531383365874
 11
124.09944241185134
 21
121.22943238461755
  0
LINE
  8
_0-4_A0
  6
CONTINUOUS
 62
    3
 10
124.09944241185134
 20
121.22943238461755
 11
123.88526099732154
 21
121.26521956967815
  0
LINE
  8
_0-4_A0
  6
CONTINUOUS
 62
    3
 10
123.88526099732154
 20
121.26521956967815
 11
123.64829121231004
 21
121.29158801333165
  0
LINE
  8
_0-4_A0
  6
CONTINUOUS
 62
    3
 10
123.64829121231004
 20
121.29158801333165
 11
123.39573326382194
 21
121.30773652376074
  0
LINE
  8
_0-4_A0
  6
CONTINUOUS
 62
    3
 10
123.39573326382194
 20
121.30773652376074
 11
123.13526099732154
 21
121.31317443664754
  0
LINE
  8
_0-4_A0
  6
CONTINUOUS
 62
    3
 10
123.13526099732154
 20
121.31317443664754
 11
123.13526099732154
 21
121.31317443664754
  0
LINE
  8
_0-4_A0
  6
CONTINUOUS
 62
    3
 10
56.535261002716709
 20
209.54582977643778
 11
56.535261002716709
 21
209.54582977643778
  0
LINE
  8
_0-4_A0
  6
CONTINUOUS
 62
    3
 10
56.535261002716709
 20
209.54582977643778
 11
56.580837743680085
 21
209.00938883556503
  0
LINE
  8
_0-4_A0
  6
CONTINUOUS
 62
    3
 10
56.580837743680085
 20
209.00938883556503
 11
56.716183140358979
 21
208.48924738122849
  0
LINE
  8
_0-4_A0
  6
CONTINUOUS
 62
    3
 10
56.716183140358979
 20
208.48924738122849
 11
56.937184791363386
 21
208.0012096483139
  0
LINE
  8
_0-4_A0
  6
CONTINUOUS
 62
    3
 10
56.937184791363386
 20
208.0012096483139
 11
57.237127673359765
 21
207.56010441637684
  0
LINE
  8
_0-4_A0
  6
CONTINUOUS
 62
    3
 10
57.237127673359765
 20
207.56010441637684
 11
57.606898173657079
 21
207.17933444467974
  0
LINE
  8
_0-4_A0
  6
CONTINUOUS
 62
    3
 10
57.606898173657079
 20
207.17933444467974
 11
58.035261002716695
 21
206.87046923613366
  0
LINE
  8
_0-4_A0
  6
CONTINUOUS
 62
    3
 10
58.035261002716695
 20
206.87046923613366
 11
58.509200572739687
 21
206.64289350380699
  0
LINE
  8
_0-4_A0
  6
CONTINUOUS
 62
    3
 10
58.509200572739687
 20
206.64289350380699
 11
59.014316469715901
 21
206.50352202116756
  0
LINE
  8
_0-4_A0
  6
CONTINUOUS
 62
    3
 10
59.014316469715901
 20
206.50352202116756
 11
59.476178355718368
 21
206.45718867794733
  0
LINE
  8
_0-4_A0
  6
CONTINUOUS
 62
    3
 10
58.03526100294971
 20
212.05831784401533
 11
56.535261002949881
 21
212.05831784415443
  0
ARC
  8
_0-4_A0
  6
CONTINUOUS
 62
    3
 10
59.595261002475894
 20
206.26658952018445
 40
0.0599999999999999
 50
179.9999999939364
 51
269.99999999467161
  0
ARC
  8
_0-4_A0
  6
CONTINUOUS
 62
    3
 10
59.475261002485297
 20
206.39658952019656
 40
0.0599999999999999
 50
359.99999999393339
 51
89.999999994504336
  0
LINE
  8
_0-4_A0
  6
CONTINUOUS
 62
    3
 10
91.335261002082476
 20
206.20658951961735
 11
59.535261002481263
 21
206.20658952029174
  0
LINE
  8
_0-4_A0
  6
HIDDEN
 62
    3
 10
155.04017666392321
 20
121.89577718036165
 11
172.76982180863001
 21
117.53930862360444
  0
LINE
  8
_0-4_A0
  6
CONTINUOUS
 62
    3
 10
126.28526100255503
 20
212.05831784138954
 11
56.385261002555069
 21
212.05831784138954
  0
LINE
  8
_0-4_A0
  6
CONTINUOUS
 62
    3
 10
123.19434364910747
 20
192.88891699688648
 11
123.19434364910747
 21
192.88891699688648
  0
LINE
  8
_0-4_A0
  6
CONTINUOUS
 62
    3
 10
123.19434364910747
 20
192.88891699688648
 11
123.71428954681606
 21
192.9464051788928
  0
LINE
  8
_0-4_A0
  6
CONTINUOUS
 62
    3
 10
123.71428954681606
 20
192.9464051788928
 11
124.21664195519634
 21
193.09599340842914
  0
LINE
  8
_0-4_A0
  6
CONTINUOUS
 62
    3
 10
124.21664195519634
 20
193.09599340842914
 11
124.68613715052228
 21
193.33313652283627
  0
LINE
  8
_0-4_A0
  6
CONTINUOUS
 62
    3
 10
124.68613715052228
 20
193.33313652283627
 11
125.10850975885992
 21
193.6506290485832
  0
LINE
  8
_0-4_A0
  6
CONTINUOUS
 62
    3
 10
125.10850975885992
 20
193.6506290485832
 11
125.4709262022358
 21
194.03882413593402
  0
LINE
  8
_0-4_A0
  6
CONTINUOUS
 62
    3
 10
125.4709262022358
 20
194.03882413593402
 11
125.76237464040948
 21
194.4859266735958
  0
LINE
  8
_0-4_A0
  6
CONTINUOUS
 62
    3
 10
125.76237464040948
 20
194.4859266735958
 11
125.97399956006709
 21
194.97835167720649
  0
LINE
  8
_0-4_A0
  6
CONTINUOUS
 62
    3
 10
125.97399956006709
 20
194.97835167720649
 11
126.0993708451122
 21
195.50113706221043
  0
LINE
  8
_0-4_A0
  6
CONTINUOUS
 62
    3
 10
126.0993708451122
 20
195.50113706221043
 11
126.13526100211054
 21
195.97755809537693
  0
ARC
  8
_0-4_A0
  6
CONTINUOUS
 62
    3
 10
123.07526100200464
 20
192.69831783912994
 40
0.0599999999999999
 50
269.99999999925808
 51
359.99999999999341
  0
ARC
  8
_0-4_A0
  6
CONTINUOUS
 62
    3
 10
123.19526100200903
 20
192.82831783912926
 40
0.0599999999999999
 50
89.999999999425526
 51
179.99999999999639
  0
LINE
  8
_0-4_A0
  6
CONTINUOUS
 62
    3
 10
91.335261002391789
 20
192.63831784138955
 11
123.13526100199964
 21
192.63831783870233
  0
LINE
  8
_0-4_A0
  6
CONTINUOUS
 62
    3
 10
56.535261003025994
 20
195.97755809821007
 11
56.535261003025994
 21
195.97755809821007
  0
LINE
  8
_0-4_A0
  6
CONTINUOUS
 62
    3
 10
56.535261003025994
 20
195.97755809821007
 11
56.58083774398937
 21
195.44111715733732
  0
LINE
  8
_0-4_A0
  6
CONTINUOUS
 62
    3
 10
56.58083774398937
 20
195.44111715733732
 11
56.716183140668264
 21
194.92097570300078
  0
LINE
  8
_0-4_A0
  6
CONTINUOUS
 62
    3
 10
56.716183140668264
 20
194.92097570300078
 11
56.937184791672671
 21
194.43293797008619
  0
LINE
  8
_0-4_A0
  6
CONTINUOUS
 62
    3
 10
56.937184791672671
 20
194.43293797008619
 11
57.23712767366905
 21
193.99183273814913
  0
LINE
  8
_0-4_A0
  6
CONTINUOUS
 62
    3
 10
57.23712767366905
 20
193.99183273814913
 11
57.606898173966364
 21
193.61106276645202
  0
LINE
  8
_0-4_A0
  6
CONTINUOUS
 62
    3
 10
57.606898173966364
 20
193.61106276645202
 11
58.03526100302598
 21
193.30219755790594
  0
LINE
  8
_0-4_A0
  6
CONTINUOUS
 62
    3
 10
58.03526100302598
 20
193.30219755790594
 11
58.509200573048972
 21
193.07462182557927
  0
LINE
  8
_0-4_A0
  6
CONTINUOUS
 62
    3
 10
58.509200573048972
 20
193.07462182557927
 11
59.014316470025186
 21
192.93525034293984
  0
LINE
  8
_0-4_A0
  6
CONTINUOUS
 62
    3
 10
59.014316470025186
 20
192.93525034293984
 11
59.476178356027653
 21
192.88891699971961
  0
ARC
  8
_0-4_A0
  6
CONTINUOUS
 62
    3
 10
59.595261002785207
 20
192.69831784195665
 40
0.0599999999999999
 50
179.9999999939364
 51
269.99999999467161
  0
ARC
  8
_0-4_A0
  6
CONTINUOUS
 62
    3
 10
59.475261002794582
 20
192.82831784196875
 40
0.0599999999999999
 50
359.99999999393339
 51
89.999999994504336
  0
LINE
  8
_0-4_A0
  6
CONTINUOUS
 62
    3
 10
91.335261002391775
 20
192.63831784138955
 11
59.535261002783983
 21
192.63831784206405
  0
LINE
  8
_0-4_A0
  6
CONTINUOUS
 62
    3
 10
126.13526100211054
 20
195.97755809533814
 11
126.13526100183374
 21
212.05831784100425
  0
LINE
  8
_0-4_A0
  6
CONTINUOUS
 62
    3
 10
56.535261003026022
 20
195.97755809848834
 11
56.535261002949795
 21
212.05831784415443
  0
LINE
  8
_0-4_A0
  6
CONTINUOUS
 62
    3
 10
59.535261002785262
 20
192.69831784196106
 11
59.535261002485299
 21
206.39658952019215
  0
LINE
  8
_0-4_A0
  6
CONTINUOUS
 62
    3
 10
123.13526100200463
 20
192.69831783912795
 11
123.13526100169973
 21
206.39658951735905
  0
INSERT
  2
-004-_D3
  8
_0-4_A0
 10
-3.3222230146628817
 20
-0.4798102926178557
 41
1
 42
1
 50
0
  0
INSERT
  2
-005-_D4
  8
_0-4_A0
 10
-3.3222230146628817
 20
-0.4798102926178557
 41
1
 42
1
 50
0
  0
INSERT
  2
-006-_D5
  8
_0-4_A0
 10
-3.3222230146628817
 20
-0.4798102926178557
 41
1
 42
1
 50
0
  0
LINE
  8
_0-4_A0
  6
CONTINUOUS
 62
    3
 10
124.78526100239152
 20
212.05831784138954
 11
124.78526100239152
 21
248.55831784138954
  0
LINE
  8
_0-4_A0
  6
CONTINUOUS
 62
    3
 10
126.28526100239152
 20
212.10831784138955
 11
126.28526100239152
 21
250.00831750587204
  0
ARC
  8
_0-4_A0
  6
CONTINUOUS
 62
    3
 10
56.455261002391524
 20
156.92831786305274
 40
0.0699999999999999
 50
179.99999999999639
 51
269.99999999999483
  0
LINE
  8
_0-4_A0
  6
PHANTOM
 62
    3
 10
75.335261004139795
 20
168.54410428738694
 11
75.335261004139852
 21
139.37253141213316
  0
LINE
  8
_0-4_A0
  6
PHANTOM
 62
    3
 10
76.749474566512902
 20
169.95831784976005
 11
91.33526100413988
 21
169.95831784976005
  0
LINE
  8
_0-4_A0
  6
PHANTOM
 62
    3
 10
76.749474566512902
 20
137.95831784976005
 11
91.335261004139824
 21
137.95831784976005
  0
LINE
  8
_0-4_A0
  6
PHANTOM
 62
    3
 10
76.042367785326377
 20
138.25121106857355
 11
75.628154222953299
 21
138.66542463094663
  0
LINE
  8
_0-4_A0
  6
PHANTOM
 62
    3
 10
75.628154222953242
 20
169.25121106857355
 11
76.042367785326377
 21
169.66542463094663
  0
ARC
  8
_0-4_A0
  6
PHANTOM
 62
    3
 10
76.749474566512902
 20
138.95831784976005
 40
1
 50
224.9999999999998
 51
270
  0
ARC
  8
_0-4_A0
  6
PHANTOM
 62
    3
 10
76.335261004139795
 20
139.37253141213316
 40
1
 50
180
 51
225
  0
ARC
  8
_0-4_A0
  6
PHANTOM
 62
    3
 10
76.335261004139795
 20
168.54410428738694
 40
1
 50
134.9999999999996
 51
180
  0
ARC
  8
_0-4_A0
  6
PHANTOM
 62
    3
 10
76.749474566512902
 20
168.95831784976005
 40
1
 50
90
 51
134.99999999999909
  0
LINE
  8
_0-4_A0
  6
PHANTOM
 62
    3
 10
207.76982180905441
 20
168.54410428747445
 11
207.76982180905441
 21
139.37253141222084
  0
LINE
  8
_0-4_A0
  6
PHANTOM
 62
    3
 10
175.76982180905441
 20
168.54410428747465
 11
175.76982180905441
 21
139.37253141222075
  0
LINE
  8
_0-4_A0
  6
PHANTOM
 62
    3
 10
177.18403537142751
 20
169.95831784984765
 11
206.35560824668124
 21
169.95831784984765
  0
LINE
  8
_0-4_A0
  6
PHANTOM
 62
    3
 10
177.18403537142751
 20
137.95831784984765
 11
206.35560824668136
 21
137.95831784984765
  0
LINE
  8
_0-4_A0
  6
PHANTOM
 62
    3
 10
207.06271502786785
 20
169.66542463103426
 11
207.47692859024096
 21
169.25121106866104
  0
LINE
  8
_0-4_A0
  6
PHANTOM
 62
    3
 10
207.47692859024102
 20
138.66542463103426
 11
207.06271502786791
 21
138.25121106866115
  0
LINE
  8
_0-4_A0
  6
PHANTOM
 62
    3
 10
176.47692859024096
 20
138.25121106866115
 11
176.06271502786785
 21
138.66542463103426
  0
LINE
  8
_0-4_A0
  6
PHANTOM
 62
    3
 10
176.06271502786785
 20
169.25121106866115
 11
176.47692859024096
 21
169.66542463103426
  0
ARC
  8
_0-4_A0
  6
PHANTOM
 62
    3
 10
206.35560824668124
 20
168.95831784984765
 40
1
 50
44.999999999999545
 51
90
  0
ARC
  8
_0-4_A0
  6
PHANTOM
 62
    3
 10
206.76982180905441
 20
168.54410428747454
 40
1
 50
0
 51
44.999999999999083
  0
ARC
  8
_0-4_A0
  6
PHANTOM
 62
    3
 10
206.76982180905441
 20
139.37253141222084
 40
1
 50
315.00000000000011
 51
0
  0
ARC
  8
_0-4_A0
  6
PHANTOM
 62
    3
 10
206.35560824668136
 20
138.95831784984765
 40
1
 50
270
 51
315
  0
ARC
  8
_0-4_A0
  6
PHANTOM
 62
    3
 10
177.18403537142751
 20
138.95831784984765
 40
1
 50
224.9999999999998
 51
270
  0
ARC
  8
_0-4_A0
  6
PHANTOM
 62
    3
 10
176.76982180905441
 20
139.37253141222075
 40
1
 50
180
 51
225
  0
ARC
  8
_0-4_A0
  6
PHANTOM
 62
    3
 10
176.76982180905441
 20
168.54410428747465
 40
1
 50
134.9999999999996
 51
180
  0
ARC
  8
_0-4_A0
  6
PHANTOM
 62
    3
 10
177.18403537142751
 20
168.95831784984773
 40
1
 50
90
 51
134.99999999999909
  0
LINE
  8
_0-4_A0
  6
CENTER
 62
    3
 10
277.77663040903053
 20
183.34918471735534
 11
277.77663040903053
 21
110.27924385414974
  0
LINE
  8
_0-4_A0
  6
CENTER
 62
    3
 10
69.652836939044704
 20
154.05831784808365
 11
91.335261002391675
 21
154.05831784808365
  0
ARC
  8
_0-4_A0
  6
CONTINUOUS
 62
    3
 10
242.89663040903054
 20
157.02831785132963
 40
0.0699999999999999
 50
179.99999999999639
 51
269.99999999999483
  0
LINE
  8
_0-4_A0
  6
PHANTOM
 62
    3
 10
293.77663040903053
 20
168.54410428732535
 11
293.77663040903053
 21
139.37253141207165
  0
LINE
  8
_0-4_A0
  6
PHANTOM
 62
    3
 10
261.77663040903053
 20
168.54410428732544
 11
261.77663040903053
 21
139.37253141207154
  0
LINE
  8
_0-4_A0
  6
PHANTOM
 62
    3
 10
263.19084397140364
 20
169.95831784969843
 11
292.36241684665731
 21
169.95831784969843
  0
LINE
  8
_0-4_A0
  6
PHANTOM
 62
    3
 10
263.19084397140364
 20
137.95831784969843
 11
292.36241684665742
 21
137.95831784969843
  0
LINE
  8
_0-4_A0
  6
CENTER
 62
    3
 10
303.96628505128945
 20
171.95831784969886
 11
310.83926960143481
 21
171.95831784969886
  0
LINE
  8
_0-4_A0
  6
CENTER
 62
    3
 10
307.77663040903053
 20
173.85365758039245
 11
307.77663040903053
 21
135.13201258852445
  0
LINE
  8
_0-4_A0
  6
CENTER
 62
    3
 10
305.09914988204804
 20
136.95831784969886
 11
310.28645195841983
 21
136.95831784969886
  0
ARC
  8
_0-4_A0
  6
CONTINUOUS
 62
    3
 10
307.77663040903053
 20
171.95831784969886
 40
0.26
 50
0
 51
180
  0
LINE
  8
_0-4_A0
  6
CENTER
 62
    3
 10
306.33300091711612
 20
170.95831784969886
 11
309.21528153152883
 21
170.95831784969886
  0
LINE
  8
_0-4_A0
  6
CONTINUOUS
 62
    3
 10
308.03663040903052
 20
171.95831784969886
 11
308.03663040903052
 21
171.71488906247396
  0
LINE
  8
_0-4_A0
  6
CONTINUOUS
 62
    3
 10
307.51663040903054
 20
171.95831784969886
 11
307.51663040903054
 21
171.71488906247396
  0
ARC
  8
_0-4_A0
  6
CONTINUOUS
 62
    3
 10
307.77663040903053
 20
170.95831784969886
 40
0.8
 50
108.96557498884789
 51
71.034425011152052
  0
CIRCLE
  8
_0-4_A0
  6
CONTINUOUS
 62
    3
 10
307.77663040903053
 20
136.95831784969886
 40
0.2999999999999999
  0
LINE
  8
_0-4_A0
  6
CENTER
 62
    3
 10
251.58697576677156
 20
171.95831784969886
 11
244.71399121662614
 21
171.95831784969886
  0
LINE
  8
_0-4_A0
  6
CENTER
 62
    3
 10
247.77663040903042
 20
173.85365758039245
 11
247.77663040903053
 21
135.13201258852445
  0
LINE
  8
_0-4_A0
  6
CENTER
 62
    3
 10
250.45411093601302
 20
136.95831784969886
 11
245.26680885964123
 21
136.95831784969886
  0
ARC
  8
_0-4_A0
  6
CONTINUOUS
 62
    3
 10
247.77663040903042
 20
171.95831784969886
 40
0.26
 50
0.0000000000000254
 51
180
  0
LINE
  8
_0-4_A0
  6
CENTER
 62
    3
 10
249.22025990094494
 20
170.95831784969886
 11
246.33797928653212
 21
170.95831784969886
  0
LINE
  8
_0-4_A0
  6
CONTINUOUS
 62
    3
 10
247.51663040903043
 20
171.95831784969886
 11
247.51663040903043
 21
171.71488906247396
  0
LINE
  8
_0-4_A0
  6
CONTINUOUS
 62
    3
 10
248.03663040903041
 20
171.95831784969886
 11
248.03663040903041
 21
171.71488906247396
  0
ARC
  8
_0-4_A0
  6
CONTINUOUS
 62
    3
 10
247.77663040903053
 20
170.95831784969886
 40
0.8
 50
108.96557498884789
 51
71.034425011152223
  0
CIRCLE
  8
_0-4_A0
  6
CONTINUOUS
 62
    3
 10
247.77663040903053
 20
136.95831784969886
 40
0.2999999999999999
  0
LINE
  8
_0-4_A0
  6
PHANTOM
 62
    3
 10
293.06952362784392
 20
169.66542463088504
 11
293.48373719021714
 21
169.25121106851185
  0
LINE
  8
_0-4_A0
  6
PHANTOM
 62
    3
 10
293.48373719021714
 20
138.66542463088504
 11
293.06952362784403
 21
138.25121106851194
  0
LINE
  8
_0-4_A0
  6
PHANTOM
 62
    3
 10
262.48373719021703
 20
138.25121106851194
 11
262.06952362784403
 21
138.66542463088504
  0
LINE
  8
_0-4_A0
  6
PHANTOM
 62
    3
 10
262.06952362784403
 20
169.25121106851194
 11
262.48373719021714
 21
169.66542463088504
  0
ARC
  8
_0-4_A0
  6
PHANTOM
 62
    3
 10
292.36241684665731
 20
168.95831784969843
 40
1
 50
44.999999999999545
 51
90
  0
ARC
  8
_0-4_A0
  6
PHANTOM
 62
    3
 10
292.77663040903053
 20
168.54410428732535
 40
1
 50
0
 51
44.999999999999083
  0
ARC
  8
_0-4_A0
  6
PHANTOM
 62
    3
 10
292.77663040903053
 20
139.37253141207165
 40
1
 50
315.00000000000011
 51
0
  0
ARC
  8
_0-4_A0
  6
PHANTOM
 62
    3
 10
292.36241684665742
 20
138.95831784969843
 40
1
 50
270
 51
315
  0
ARC
  8
_0-4_A0
  6
PHANTOM
 62
    3
 10
263.19084397140364
 20
138.95831784969843
 40
1
 50
224.9999999999998
 51
270
  0
ARC
  8
_0-4_A0
  6
PHANTOM
 62
    3
 10
262.77663040903053
 20
139.37253141207154
 40
1
 50
180
 51
225
  0
ARC
  8
_0-4_A0
  6
PHANTOM
 62
    3
 10
262.77663040903053
 20
168.54410428732544
 40
1
 50
134.9999999999996
 51
180
  0
ARC
  8
_0-4_A0
  6
PHANTOM
 62
    3
 10
263.19084397140364
 20
168.95831784969843
 40
1
 50
90
 51
134.99999999999909
  0
INSERT
  2
-007-_D6
  8
_0-4_A0
 10
-3.3222230146628817
 20
-0.4798102926178557
 41
1
 42
1
 50
0
  0
INSERT
  2
-008-_D7
  8
_0-4_A0
 10
-3.3222230146628817
 20
-0.4798102926178557
 41
1
 42
1
 50
0
  0
INSERT
  2
-009-_D8
  8
_0-4_A0
 10
-3.3222230146628817
 20
-0.4798102926178557
 41
1
 42
1
 50
0
  0
LINE
  8
_0-4_A0
  6
CENTER
 62
    3
 10
323.37006565741723
 20
153.95831784968945
 11
327.31752197056142
 21
153.95831784968854
  0
INSERT
  2
-010-_D9
  8
_0-4_A0
 10
-3.3222230146628817
 20
-0.4798102926178557
 41
1
 42
1
 50
0
  0
INSERT
  2
-011-_D10
  8
_0-4_A0
 10
-3.3222230146628817
 20
-0.4798102926178557
 41
1
 42
1
 50
0
  0
INSERT
  2
-012-_D11
  8
_0-4_A0
 10
-3.3222230146628817
 20
-0.4798102926178557
 41
1
 42
1
 50
0
  0
INSERT
  2
-013-_D12
  8
_0-4_A0
 10
-3.3222230146628817
 20
-0.4798102926178557
 41
1
 42
1
 50
0
  0
LINE
  8
_0-4_A0
  6
CONTINUOUS
 62
    3
 10
172.76982180860921
 20
117.01831785384074
 11
172.76982181100215
 21
176.95831785145666
  0
INSERT
  2
-014-_D13
  8
_0-4_A0
 10
-3.3222230146628817
 20
-0.4798102926178557
 41
1
 42
1
 50
0
  0
INSERT
  2
-015-_D14
  8
_0-4_A0
 10
-3.3222230146628817
 20
-0.4798102926178557
 41
1
 42
1
 50
0
  0
LINE
  8
_0-4_A0
  6
CONTINUOUS
 62
    3
 10
62.835261001470599
 20
242.50831784371573
 11
64.835261001470599
 21
242.50831784371573
  0
LINE
  8
_0-4_A0
  6
CENTER
 62
    3
 10
63.835261001470599
 20
246.23979403402345
 11
63.835261001470599
 21
241.49883404403565
  0
LINE
  8
_0-4_A0
  6
CONTINUOUS
 62
    3
 10
62.835261001470599
 20
245.50831784371573
 11
62.835261001470599
 21
242.50831784371573
  0
LINE
  8
_0-4_A0
  6
CONTINUOUS
 62
    3
 10
64.835261001470599
 20
245.50831784371573
 11
62.835261001470599
 21
245.50831784371573
  0
LINE
  8
_0-4_A0
  6
CONTINUOUS
 62
    3
 10
64.835261001470599
 20
242.50831784371573
 11
64.835261001470599
 21
245.50831784371573
  0
LINE
  8
_0-4_A0
  6
CENTER
 62
    3
 10
65.651183623746306
 20
244.00831784371573
 11
62.016448368231636
 21
244.00831784371573
  0
LINE
  8
_0-4_A0
  6
CONTINUOUS
 62
    3
 10
119.83526100331304
 20
242.50831784371564
 11
117.83526100331304
 21
242.50831784371573
  0
LINE
  8
_0-4_A0
  6
CENTER
 62
    3
 10
118.83526100331304
 20
246.23979403402333
 11
118.83526100331304
 21
241.49883404403553
  0
LINE
  8
_0-4_A0
  6
CONTINUOUS
 62
    3
 10
119.83526100331304
 20
245.50831784371564
 11
119.83526100331304
 21
242.50831784371564
  0
LINE
  8
_0-4_A0
  6
CONTINUOUS
 62
    3
 10
117.83526100331304
 20
245.50831784371573
 11
119.83526100331304
 21
245.50831784371564
  0
LINE
  8
_0-4_A0
  6
CONTINUOUS
 62
    3
 10
117.83526100331304
 20
242.50831784371573
 11
117.83526100331304
 21
245.50831784371573
  0
LINE
  8
_0-4_A0
  6
CENTER
 62
    3
 10
117.01933838103733
 20
244.00831784371573
 11
120.65407363655203
 21
244.00831784371573
  0
INSERT
  2
-016-_D17
  8
_0-4_A0
 10
-3.3222230146628817
 20
-0.4798102926178557
 41
1
 42
1
 50
0
  0
LINE
  8
_0-4_A0
  6
CENTER
 62
    3
 10
91.33526100239159
 20
112.01935436579704
 11
91.335261002391704
 21
184.18600610966504
  0
LINE
  8
_0-4_A0
  6
CENTER
 62
    3
 10
91.335261002391718
 20
190.88528873709805
 11
91.335261002391846
 21
263.89502014913012
  0
INSERT
  2
-017-_D18
  8
_0-4_A0
 10
-3.3222230146628817
 20
-0.4798102926178557
 41
1
 42
1
 50
0
  0
INSERT
  2
-018-_D19
  8
_0-4_A0
 10
-3.3222230146628817
 20
-0.4798102926178557
 41
1
 42
1
 50
0
  0
LINE
  8
_0-4_A0
  6
HIDDEN
 62
    3
 10
172.82982180836115
 20
129.21831785157545
 11
172.94982180836121
 21
129.21831785157553
  0
LINE
  8
_0-4_A0
  6
HIDDEN
 62
    3
 10
172.22982180836391
 20
122.07831785149365
 11
172.84982180836403
 21
122.07831785149365
  0
LINE
  8
_0-4_A0
  6
HIDDEN
 62
    3
 10
172.22982180837232
 20
121.95831785150574
 11
172.82982180836404
 21
121.95831785150584
  0
LINE
  8
_0-4_A0
  6
HIDDEN
 62
    3
 10
172.22982180837215
 20
122.07831785149365
 11
172.22982180837221
 21
121.95831785150574
  0
ARC
  8
_0-4_A0
  6
HIDDEN
 62
    3
 10
172.84982180836403
 20
121.97831785149364
 40
0.1
 50
0
 51
90
  0
LINE
  8
_0-4_A0
  6
HIDDEN
 62
    3
 10
172.22982180836112
 20
121.01831785149454
 11
172.82982180836433
 21
121.01831785149415
  0
LINE
  8
_0-4_A0
  6
HIDDEN
 62
    3
 10
172.22982180836112
 20
120.89831785149615
 11
172.84982180836442
 21
120.89831785149654
  0
LINE
  8
_0-4_A0
  6
HIDDEN
 62
    3
 10
172.22982180836124
 20
121.01831785149454
 11
172.22982180836124
 21
120.89831785149615
  0
LINE
  8
_0-4_A0
  6
HIDDEN
 62
    3
 10
172.82982180836433
 20
121.01831785149415
 11
172.82982180836353
 21
123.31831785151545
  0
ARC
  8
_0-4_A0
  6
HIDDEN
 62
    3
 10
172.84982180836442
 20
120.99831785149654
 40
0.1
 50
270
 51
0
  0
LINE
  8
_0-4_A0
  6
HIDDEN
 62
    3
 10
172.70982180298523
 20
128.21831785156954
 11
172.58982180298523
 21
128.21831785156965
  0
LINE
  8
_0-4_A0
  6
HIDDEN
 62
    3
 10
172.76982180598372
 20
126.21831785150674
 11
172.76982180598372
 21
126.11831785151224
  0
LINE
  8
_0-4_A0
  6
HIDDEN
 62
    3
 10
172.45982180831146
 20
126.01831785152095
 11
172.45982180831203
 21
122.71831785152095
  0
LINE
  8
_0-4_A0
  6
HIDDEN
 62
    3
 10
173.09982180833003
 20
126.01831785152095
 11
173.09982180833066
 21
122.71831785152095
  0
ARC
  8
_0-4_A0
  6
HIDDEN
 62
    3
 10
172.43982180836144
 20
125.99831785150235
 40
0.1
 50
11.536959121900388
 51
89.999999999999986
  0
ARC
  8
_0-4_A0
  6
HIDDEN
 62
    3
 10
173.11982180828005
 20
125.99831785150225
 40
0.1
 50
90
 51
168.46304087808679
  0
LINE
  8
_0-4_A0
  6
HIDDEN
 62
    3
 10
172.45982180831203
 20
123.31831785151564
 11
173.09982180833066
 21
123.31831785151554
  0
LINE
  8
_0-4_A0
  6
HIDDEN
 62
    3
 10
172.53982180836675
 20
122.70533563887155
 11
172.53982180836596
 21
123.31831785151564
  0
LINE
  8
_0-4_A0
  6
HIDDEN
 62
    3
 10
173.01982180834932
 20
122.70421169301744
 11
173.01982180834932
 21
123.31831785151554
  0
LINE
  8
_0-4_A0
  6
HIDDEN
 62
    3
 10
173.09982180833066
 20
122.71831785152824
 11
173.24982180833354
 21
122.45851023038784
  0
LINE
  8
_0-4_A0
  6
HIDDEN
 62
    3
 10
173.24982180833365
 20
122.45851023038794
 11
173.18053977603086
 21
122.41851023038794
  0
LINE
  8
_0-4_A0
  6
HIDDEN
 62
    3
 10
173.01982180834921
 20
122.69688191610145
 11
173.18053977603086
 21
122.41851023038774
  0
LINE
  8
_0-4_A0
  6
HIDDEN
 62
    3
 10
172.45982180838553
 20
122.71831785152725
 11
172.30982180838356
 21
122.45851023038644
  0
LINE
  8
_0-4_A0
  6
HIDDEN
 62
    3
 10
172.30982180838362
 20
122.45851023038644
 11
172.37910384068653
 21
122.41851023038664
  0
LINE
  8
_0-4_A0
  6
HIDDEN
 62
    3
 10
172.53982180836715
 20
122.69688191610085
 11
172.37910384068653
 21
122.41851023038664
  0
ARC
  8
_0-4_A0
  6
HIDDEN
 62
    3
 10
172.16482180836624
 20
123.01831785151325
 40
0.4250000000000013
 50
331.92751306422628
 51
28.07248693593208
  0
ARC
  8
_0-4_A0
  6
HIDDEN
 62
    3
 10
173.39482180834904
 20
123.01831785151515
 40
0.4250000000000013
 50
151.92751306425731
 51
208.07248693596301
  0
LINE
  8
_0-4_A0
  6
HIDDEN
 62
    3
 10
172.94982180836234
 20
126.01831785165464
 11
172.94982180836115
 21
129.21831785157553
  0
LINE
  8
_0-4_A0
  6
HIDDEN
 62
    3
 10
172.58982180298511
 20
128.21831785156954
 11
172.58982180298534
 21
126.01831785165464
  0
LINE
  8
_0-4_A0
  6
HIDDEN
 62
    3
 10
172.42982180831154
 20
125.58831785152084
 11
172.45982180831152
 21
125.58831785152084
  0
LINE
  8
_0-4_A0
  6
HIDDEN
 62
    3
 10
172.45982180831152
 20
124.64831785152084
 11
172.42982180831154
 21
124.64831785152084
  0
LINE
  8
_0-4_A0
  6
HIDDEN
 62
    3
 10
172.42982180831154
 20
125.58831785152084
 11
172.42982180831154
 21
124.64831785152084
  0
LINE
  8
_0-4_A0
  6
HIDDEN
 62
    3
 10
172.45982180831152
 20
125.58831785152084
 11
172.45982180831152
 21
124.64831785152084
  0
ARC
  8
_0-4_A0
  6
HIDDEN
 62
    3
 10
172.82186726285704
 20
125.11831785152084
 40
0.6120454545454544
 50
129.8328119876146
 51
230.16718801237826
  0
LINE
  8
_0-4_A0
  6
HIDDEN
 62
    3
 10
173.81982180834865
 20
126.01831785165464
 11
173.81982180834865
 21
126.09831785150224
  0
LINE
  8
_0-4_A0
  6
HIDDEN
 62
    3
 10
171.73982180836265
 20
126.09831785150224
 11
172.43982180836144
 21
126.09831785150224
  0
LINE
  8
_0-4_A0
  6
HIDDEN
 62
    3
 10
173.11982180828005
 20
126.09831785150224
 11
173.81982180834865
 21
126.09831785150224
  0
LINE
  8
_0-4_A0
  6
HIDDEN
 62
    3
 10
171.73982180836265
 20
126.01831785165464
 11
171.73982180836265
 21
126.09831785150224
  0
LINE
  8
_0-4_A0
  6
HIDDEN
 62
    3
 10
171.73982180836265
 20
126.01831785165464
 11
172.45982180831135
 21
126.01831785165464
  0
LINE
  8
_0-4_A0
  6
HIDDEN
 62
    3
 10
172.45982180831135
 20
126.01831785165464
 11
173.81982180834865
 21
126.01831785165464
  0
LINE
  8
_0-4_A0
  6
HIDDEN
 62
    3
 10
172.70982180687685
 20
128.21831785155845
 11
172.60982180687694
 21
128.21831785156684
  0
LINE
  8
_0-4_A0
  6
HIDDEN
 62
    3
 10
172.94982180836405
 20
121.97831785149364
 11
172.94982180836445
 21
120.99831785149654
  0
LINE
  8
_0-e_A20
  6
CONTINUOUS
 62
    3
 10
86.335261000786986
 20
176.95831784892573
 11
56.38526100239153
 21
176.95831785145666
  0
LINE
  8
_0-e_A20
  6
CONTINUOUS
 62
    3
 10
58.085261002205584
 20
174.75831785131354
 11
58.08526099750722
 21
119.15831785145724
  0
LINE
  8
_0-e_A20
  6
CONTINUOUS
 62
    3
 10
58.808497829983139
 20
176.95831785125185
 11
116.28526099657083
 21
176.95831784639483
  0
LINE
  8
_0-e_A20
  6
CONTINUOUS
 62
    3
 10
57.985261002214031
 20
174.85831785132143
 11
57.985261002369498
 21
176.69831785132143
  0
LINE
  8
_0-e_A20
  6
CONTINUOUS
 62
    3
 10
58.085261002205584
 20
174.75831785131354
 11
57.985261002214031
 21
174.85831785132135
  0
LINE
  8
_0-e_A20
  6
CONTINUOUS
 62
    3
 10
57.785261002386449
 20
176.89831785133825
 11
57.985261002369498
 21
176.69831785132143
  0
LINE
  8
_0-e_A20
  6
CONTINUOUS
 62
    3
 10
86.335261002386432
 20
176.89831784892576
 11
56.385261002386443
 21
176.89831784892644
  0
LINE
  8
_0-e_A20
  6
CONTINUOUS
 62
    3
 10
91.33526100239169
 20
176.89831784892576
 11
56.445261002386417
 21
176.89831784892576
  0
LINE
  8
_0-4_A0
  6
CONTINUOUS
 62
    3
 10
58.835260997483658
 20
120.95831785145545
 11
59.435260997485727
 21
120.95831785145505
  0
LINE
  8
_0-4_A0
  6
CONTINUOUS
 62
    3
 10
58.33526099748309
 20
122.01831785145575
 11
58.83526099748309
 21
122.01831785145545
  0
LINE
  8
_0-4_A0
  6
CONTINUOUS
 62
    3
 10
58.23526099748301
 20
121.89831785145574
 11
58.935260997482999
 21
121.89831785145535
  0
LINE
  8
_0-4_A0
  6
CONTINUOUS
 62
    3
 10
58.835260997483033
 20
122.01831785145545
 11
58.835260997482919
 21
121.89831785145545
  0
LINE
  8
_0-4_A0
  6
CONTINUOUS
 62
    3
 10
58.335260997483033
 20
122.01831785145575
 11
58.335260997482919
 21
121.89831785145574
  0
LINE
  8
_0-4_A0
  6
CONTINUOUS
 62
    3
 10
59.035260997483391
 20
122.49831785145524
 11
59.035260997483022
 21
121.99831785145534
  0
LINE
  8
_0-4_A0
  6
CONTINUOUS
 62
    3
 10
58.335260997483545
 20
122.69831785145574
 11
58.835260997483545
 21
122.69831785145544
  0
LINE
  8
_0-4_A0
  6
CONTINUOUS
 62
    3
 10
58.135260997483385
 20
122.49831785145595
 11
58.135260997482987
 21
121.99831785145584
  0
ARC
  8
_0-4_A0
  6
CONTINUOUS
 62
    3
 10
58.835260997483374
 20
122.49831785145544
 40
0.2
 50
0
 51
90
  0
ARC
  8
_0-4_A0
  6
CONTINUOUS
 62
    3
 10
58.335260997483374
 20
122.49831785145574
 40
0.2
 50
90
 51
180
  0
ARC
  8
_0-4_A0
  6
CONTINUOUS
 62
    3
 10
58.23526099748301
 20
121.99831785145574
 40
0.1
 50
180
 51
270
  0
ARC
  8
_0-4_A0
  6
CONTINUOUS
 62
    3
 10
58.935260997483056
 20
121.99831785145534
 40
0.1
 50
270
 51
0
  0
LINE
  8
_0-4_A0
  6
CENTER
 62
    3
 10
58.835260997481839
 20
123.63448502253945
 11
58.835260997480532
 21
126.64573710488254
  0
LINE
  8
_0-4_A0
  6
CENTER
 62
    3
 10
57.825580773103979
 20
125.05831785147784
 11
60.212912591874897
 21
125.05831785147704
  0
LINE
  8
_0-4_A0
  6
CENTER
 62
    3
 10
58.58526099748309
 20
123.05132514305694
 11
58.585260997483232
 21
121.46121493875924
  0
LINE
  8
_0-4_A0
  6
CONTINUOUS
 62
    3
 10
59.03526099748558
 20
120.83482090058655
 11
59.335260997485648
 21
120.83482090058665
  0
LINE
  8
_0-4_A0
  6
CONTINUOUS
 62
    3
 10
59.035260997485466
 20
120.71874901361865
 11
59.335260997485534
 21
120.71874901361875
  0
LINE
  8
_0-4_A0
  6
CONTINUOUS
 62
    3
 10
59.335260997485591
 20
120.83482090058665
 11
59.335260997485591
 21
120.83482090058665
  0
LINE
  8
_0-4_A0
  6
CONTINUOUS
 62
    3
 10
59.335260997485591
 20
120.83482090058665
 11
59.3178961797189
 21
120.83508605388296
  0
LINE
  8
_0-4_A0
  6
CONTINUOUS
 62
    3
 10
59.3178961797189
 20
120.83508605388296
 11
59.301058983153027
 21
120.83587345722314
  0
LINE
  8
_0-4_A0
  6
CONTINUOUS
 62
    3
 10
59.301058983153027
 20
120.83587345722314
 11
59.285260997485594
 21
120.83715918575516
  0
LINE
  8
_0-4_A0
  6
CONTINUOUS
 62
    3
 10
59.285260997485594
 20
120.83715918575516
 11
59.270982236516936
 21
120.83890417326818
  0
LINE
  8
_0-4_A0
  6
CONTINUOUS
 62
    3
 10
59.270982236516936
 20
120.83890417326818
 11
59.258656553173694
 21
120.8410553991996
  0
LINE
  8
_0-4_A0
  6
CONTINUOUS
 62
    3
 10
59.258656553173694
 20
120.8410553991996
 11
59.248658457107148
 21
120.84354749963811
  0
LINE
  8
_0-4_A0
  6
CONTINUOUS
 62
    3
 10
59.248658457107148
 20
120.84354749963811
 11
59.241291735407003
 21
120.84630475337291
  0
LINE
  8
_0-4_A0
  6
CONTINUOUS
 62
    3
 10
59.241291735407003
 20
120.84630475337291
 11
59.236780222184372
 21
120.84924338264452
  0
LINE
  8
_0-4_A0
  6
CONTINUOUS
 62
    3
 10
59.236780222184372
 20
120.84924338264452
 11
59.235260997485589
 21
120.85227409868955
  0
LINE
  8
_0-4_A0
  6
CONTINUOUS
 62
    3
 10
59.235260997485589
 20
120.85227409868955
 11
59.236780222184372
 21
120.85530481473458
  0
LINE
  8
_0-4_A0
  6
CONTINUOUS
 62
    3
 10
59.236780222184372
 20
120.85530481473458
 11
59.241291735407003
 21
120.85824344400619
  0
LINE
  8
_0-4_A0
  6
CONTINUOUS
 62
    3
 10
59.241291735407003
 20
120.85824344400619
 11
59.248658457107148
 21
120.86100069774099
  0
LINE
  8
_0-4_A0
  6
CONTINUOUS
 62
    3
 10
59.248658457107148
 20
120.86100069774099
 11
59.258656553173694
 21
120.86349279817949
  0
LINE
  8
_0-4_A0
  6
CONTINUOUS
 62
    3
 10
59.258656553173694
 20
120.86349279817949
 11
59.270982236516936
 21
120.86564402411092
  0
LINE
  8
_0-4_A0
  6
CONTINUOUS
 62
    3
 10
59.270982236516936
 20
120.86564402411092
 11
59.285260997485594
 21
120.86738901162394
  0
LINE
  8
_0-4_A0
  6
CONTINUOUS
 62
    3
 10
59.285260997485594
 20
120.86738901162394
 11
59.301058983153027
 21
120.86867474015595
  0
LINE
  8
_0-4_A0
  6
CONTINUOUS
 62
    3
 10
59.301058983153027
 20
120.86867474015595
 11
59.3178961797189
 21
120.86946214349614
  0
LINE
  8
_0-4_A0
  6
CONTINUOUS
 62
    3
 10
59.3178961797189
 20
120.86946214349614
 11
59.335260997485591
 21
120.86972729679245
  0
LINE
  8
_0-4_A0
  6
CONTINUOUS
 62
    3
 10
59.335260997485591
 20
120.86972729679245
 11
59.352625815252281
 21
120.86946214349614
  0
LINE
  8
_0-4_A0
  6
CONTINUOUS
 62
    3
 10
59.352625815252281
 20
120.86946214349614
 11
59.369463011818155
 21
120.86867474015595
  0
LINE
  8
_0-4_A0
  6
CONTINUOUS
 62
    3
 10
59.369463011818155
 20
120.86867474015595
 11
59.385260997485588
 21
120.86738901162394
  0
LINE
  8
_0-4_A0
  6
CONTINUOUS
 62
    3
 10
59.385260997485588
 20
120.86738901162394
 11
59.399539758454246
 21
120.86564402411092
  0
LINE
  8
_0-4_A0
  6
CONTINUOUS
 62
    3
 10
59.399539758454246
 20
120.86564402411092
 11
59.411865441797488
 21
120.86349279817949
  0
LINE
  8
_0-4_A0
  6
CONTINUOUS
 62
    3
 10
59.411865441797488
 20
120.86349279817949
 11
59.421863537864034
 21
120.86100069774099
  0
LINE
  8
_0-4_A0
  6
CONTINUOUS
 62
    3
 10
59.421863537864034
 20
120.86100069774099
 11
59.429230259564179
 21
120.85824344400619
  0
LINE
  8
_0-4_A0
  6
CONTINUOUS
 62
    3
 10
59.429230259564179
 20
120.85824344400619
 11
59.43374177278681
 21
120.85530481473458
  0
LINE
  8
_0-4_A0
  6
CONTINUOUS
 62
    3
 10
59.43374177278681
 20
120.85530481473458
 11
59.435260997485592
 21
120.85227409868955
  0
LINE
  8
_0-4_A0
  6
CONTINUOUS
 62
    3
 10
59.435260997485592
 20
120.85227409868955
 11
59.435260997485592
 21
120.85227409868955
  0
LINE
  8
_0-4_A0
  6
CONTINUOUS
 62
    3
 10
59.335260997485477
 20
120.71874901361865
 11
59.335260997485477
 21
120.71874901361865
  0
LINE
  8
_0-4_A0
  6
CONTINUOUS
 62
    3
 10
59.335260997485477
 20
120.71874901361865
 11
59.317896179718787
 21
120.71901416691496
  0
LINE
  8
_0-4_A0
  6
CONTINUOUS
 62
    3
 10
59.317896179718787
 20
120.71901416691496
 11
59.301058983152913
 21
120.71980157025514
  0
LINE
  8
_0-4_A0
  6
CONTINUOUS
 62
    3
 10
59.301058983152913
 20
120.71980157025514
 11
59.28526099748548
 21
120.72108729878715
  0
LINE
  8
_0-4_A0
  6
CONTINUOUS
 62
    3
 10
59.28526099748548
 20
120.72108729878715
 11
59.270982236516822
 21
120.72283228630018
  0
LINE
  8
_0-4_A0
  6
CONTINUOUS
 62
    3
 10
59.270982236516822
 20
120.72283228630018
 11
59.25865655317358
 21
120.7249835122316
  0
LINE
  8
_0-4_A0
  6
CONTINUOUS
 62
    3
 10
59.25865655317358
 20
120.7249835122316
 11
59.248658457107034
 21
120.7274756126701
  0
LINE
  8
_0-4_A0
  6
CONTINUOUS
 62
    3
 10
59.248658457107034
 20
120.7274756126701
 11
59.24129173540689
 21
120.7302328664049
  0
LINE
  8
_0-4_A0
  6
CONTINUOUS
 62
    3
 10
59.24129173540689
 20
120.7302328664049
 11
59.236780222184258
 21
120.73317149567652
  0
LINE
  8
_0-4_A0
  6
CONTINUOUS
 62
    3
 10
59.236780222184258
 20
120.73317149567652
 11
59.235260997485476
 21
120.73620221172155
  0
LINE
  8
_0-4_A0
  6
CONTINUOUS
 62
    3
 10
59.235260997485476
 20
120.73620221172155
 11
59.236780222184258
 21
120.73923292776658
  0
LINE
  8
_0-4_A0
  6
CONTINUOUS
 62
    3
 10
59.236780222184258
 20
120.73923292776658
 11
59.24129173540689
 21
120.74217155703819
  0
LINE
  8
_0-4_A0
  6
CONTINUOUS
 62
    3
 10
59.24129173540689
 20
120.74217155703819
 11
59.248658457107034
 21
120.74492881077299
  0
LINE
  8
_0-4_A0
  6
CONTINUOUS
 62
    3
 10
59.248658457107034
 20
120.74492881077299
 11
59.25865655317358
 21
120.74742091121149
  0
LINE
  8
_0-4_A0
  6
CONTINUOUS
 62
    3
 10
59.25865655317358
 20
120.74742091121149
 11
59.270982236516822
 21
120.74957213714292
  0
LINE
  8
_0-4_A0
  6
CONTINUOUS
 62
    3
 10
59.270982236516822
 20
120.74957213714292
 11
59.28526099748548
 21
120.75131712465594
  0
LINE
  8
_0-4_A0
  6
CONTINUOUS
 62
    3
 10
59.28526099748548
 20
120.75131712465594
 11
59.301058983152913
 21
120.75260285318795
  0
LINE
  8
_0-4_A0
  6
CONTINUOUS
 62
    3
 10
59.301058983152913
 20
120.75260285318795
 11
59.317896179718787
 21
120.75339025652814
  0
LINE
  8
_0-4_A0
  6
CONTINUOUS
 62
    3
 10
59.317896179718787
 20
120.75339025652814
 11
59.335260997485477
 21
120.75365540982445
  0
LINE
  8
_0-4_A0
  6
CONTINUOUS
 62
    3
 10
59.335260997485477
 20
120.75365540982445
 11
59.352625815252168
 21
120.75339025652814
  0
LINE
  8
_0-4_A0
  6
CONTINUOUS
 62
    3
 10
59.352625815252168
 20
120.75339025652814
 11
59.369463011818041
 21
120.75260285318795
  0
LINE
  8
_0-4_A0
  6
CONTINUOUS
 62
    3
 10
59.369463011818041
 20
120.75260285318795
 11
59.385260997485474
 21
120.75131712465594
  0
LINE
  8
_0-4_A0
  6
CONTINUOUS
 62
    3
 10
59.385260997485474
 20
120.75131712465594
 11
59.399539758454132
 21
120.74957213714292
  0
LINE
  8
_0-4_A0
  6
CONTINUOUS
 62
    3
 10
59.399539758454132
 20
120.74957213714292
 11
59.411865441797374
 21
120.74742091121149
  0
LINE
  8
_0-4_A0
  6
CONTINUOUS
 62
    3
 10
59.411865441797374
 20
120.74742091121149
 11
59.421863537863921
 21
120.74492881077299
  0
LINE
  8
_0-4_A0
  6
CONTINUOUS
 62
    3
 10
59.421863537863921
 20
120.74492881077299
 11
59.429230259564065
 21
120.74217155703819
  0
LINE
  8
_0-4_A0
  6
CONTINUOUS
 62
    3
 10
59.429230259564065
 20
120.74217155703819
 11
59.433741772786696
 21
120.73923292776658
  0
LINE
  8
_0-4_A0
  6
CONTINUOUS
 62
    3
 10
59.433741772786696
 20
120.73923292776658
 11
59.435260997485479
 21
120.73620221172155
  0
LINE
  8
_0-4_A0
  6
CONTINUOUS
 62
    3
 10
59.435260997485479
 20
120.73620221172155
 11
59.435260997485479
 21
120.73620221172155
  0
LINE
  8
_0-4_A0
  6
CONTINUOUS
 62
    3
 10
58.935260997485557
 20
120.73620221172195
 11
58.93526099748567
 21
120.95831785145545
  0
LINE
  8
_0-4_A0
  6
CONTINUOUS
 62
    3
 10
58.935260997485578
 20
120.85227409868985
 11
58.935260997485578
 21
120.85227409868985
  0
LINE
  8
_0-4_A0
  6
CONTINUOUS
 62
    3
 10
58.935260997485578
 20
120.85227409868985
 11
58.93678022218436
 21
120.85530481473488
  0
LINE
  8
_0-4_A0
  6
CONTINUOUS
 62
    3
 10
58.93678022218436
 20
120.85530481473488
 11
58.941291735406992
 21
120.85824344400649
  0
LINE
  8
_0-4_A0
  6
CONTINUOUS
 62
    3
 10
58.941291735406992
 20
120.85824344400649
 11
58.948658457107136
 21
120.86100069774129
  0
LINE
  8
_0-4_A0
  6
CONTINUOUS
 62
    3
 10
58.948658457107136
 20
120.86100069774129
 11
58.958656553173682
 21
120.86349279817979
  0
LINE
  8
_0-4_A0
  6
CONTINUOUS
 62
    3
 10
58.958656553173682
 20
120.86349279817979
 11
58.970982236516925
 21
120.86564402411122
  0
LINE
  8
_0-4_A0
  6
CONTINUOUS
 62
    3
 10
58.970982236516925
 20
120.86564402411122
 11
58.985260997485582
 21
120.86738901162424
  0
LINE
  8
_0-4_A0
  6
CONTINUOUS
 62
    3
 10
58.985260997485582
 20
120.86738901162424
 11
59.001058983153015
 21
120.86867474015625
  0
LINE
  8
_0-4_A0
  6
CONTINUOUS
 62
    3
 10
59.001058983153015
 20
120.86867474015625
 11
59.017896179718889
 21
120.86946214349643
  0
LINE
  8
_0-4_A0
  6
CONTINUOUS
 62
    3
 10
59.017896179718889
 20
120.86946214349643
 11
59.03526099748558
 21
120.86972729679275
  0
LINE
  8
_0-4_A0
  6
CONTINUOUS
 62
    3
 10
59.03526099748558
 20
120.86972729679275
 11
59.05262581525227
 21
120.86946214349643
  0
LINE
  8
_0-4_A0
  6
CONTINUOUS
 62
    3
 10
59.05262581525227
 20
120.86946214349643
 11
59.069463011818144
 21
120.86867474015625
  0
LINE
  8
_0-4_A0
  6
CONTINUOUS
 62
    3
 10
59.069463011818144
 20
120.86867474015625
 11
59.085260997485577
 21
120.86738901162424
  0
LINE
  8
_0-4_A0
  6
CONTINUOUS
 62
    3
 10
59.085260997485577
 20
120.86738901162424
 11
59.099539758454235
 21
120.86564402411122
  0
LINE
  8
_0-4_A0
  6
CONTINUOUS
 62
    3
 10
59.099539758454235
 20
120.86564402411122
 11
59.111865441797477
 21
120.86349279817979
  0
LINE
  8
_0-4_A0
  6
CONTINUOUS
 62
    3
 10
59.111865441797477
 20
120.86349279817979
 11
59.121863537864023
 21
120.86100069774129
  0
LINE
  8
_0-4_A0
  6
CONTINUOUS
 62
    3
 10
59.121863537864023
 20
120.86100069774129
 11
59.129230259564167
 21
120.85824344400649
  0
LINE
  8
_0-4_A0
  6
CONTINUOUS
 62
    3
 10
59.129230259564167
 20
120.85824344400649
 11
59.133741772786799
 21
120.85530481473488
  0
LINE
  8
_0-4_A0
  6
CONTINUOUS
 62
    3
 10
59.133741772786799
 20
120.85530481473488
 11
59.135260997485581
 21
120.85227409868985
  0
LINE
  8
_0-4_A0
  6
CONTINUOUS
 62
    3
 10
59.135260997485581
 20
120.85227409868985
 11
59.133741772786799
 21
120.84924338264481
  0
LINE
  8
_0-4_A0
  6
CONTINUOUS
 62
    3
 10
59.133741772786799
 20
120.84924338264481
 11
59.129230259564167
 21
120.8463047533732
  0
LINE
  8
_0-4_A0
  6
CONTINUOUS
 62
    3
 10
59.129230259564167
 20
120.8463047533732
 11
59.121863537864023
 21
120.8435474996384
  0
LINE
  8
_0-4_A0
  6
CONTINUOUS
 62
    3
 10
59.121863537864023
 20
120.8435474996384
 11
59.111865441797477
 21
120.8410553991999
  0
LINE
  8
_0-4_A0
  6
CONTINUOUS
 62
    3
 10
59.111865441797477
 20
120.8410553991999
 11
59.099539758454235
 21
120.83890417326847
  0
LINE
  8
_0-4_A0
  6
CONTINUOUS
 62
    3
 10
59.099539758454235
 20
120.83890417326847
 11
59.085260997485577
 21
120.83715918575545
  0
LINE
  8
_0-4_A0
  6
CONTINUOUS
 62
    3
 10
59.085260997485577
 20
120.83715918575545
 11
59.069463011818144
 21
120.83587345722344
  0
LINE
  8
_0-4_A0
  6
CONTINUOUS
 62
    3
 10
59.069463011818144
 20
120.83587345722344
 11
59.05262581525227
 21
120.83508605388326
  0
LINE
  8
_0-4_A0
  6
CONTINUOUS
 62
    3
 10
59.05262581525227
 20
120.83508605388326
 11
59.03526099748558
 21
120.83482090058695
  0
LINE
  8
_0-4_A0
  6
CONTINUOUS
 62
    3
 10
59.03526099748558
 20
120.83482090058695
 11
59.03526099748558
 21
120.83482090058695
  0
LINE
  8
_0-4_A0
  6
CONTINUOUS
 62
    3
 10
58.935260997485493
 20
120.73620221172185
 11
58.935260997485493
 21
120.73620221172185
  0
LINE
  8
_0-4_A0
  6
CONTINUOUS
 62
    3
 10
58.935260997485493
 20
120.73620221172185
 11
58.936780222184275
 21
120.73923292776688
  0
LINE
  8
_0-4_A0
  6
CONTINUOUS
 62
    3
 10
58.936780222184275
 20
120.73923292776688
 11
58.941291735406907
 21
120.74217155703849
  0
LINE
  8
_0-4_A0
  6
CONTINUOUS
 62
    3
 10
58.941291735406907
 20
120.74217155703849
 11
58.948658457107051
 21
120.74492881077329
  0
LINE
  8
_0-4_A0
  6
CONTINUOUS
 62
    3
 10
58.948658457107051
 20
120.74492881077329
 11
58.958656553173597
 21
120.74742091121179
  0
LINE
  8
_0-4_A0
  6
CONTINUOUS
 62
    3
 10
58.958656553173597
 20
120.74742091121179
 11
58.970982236516839
 21
120.74957213714322
  0
LINE
  8
_0-4_A0
  6
CONTINUOUS
 62
    3
 10
58.970982236516839
 20
120.74957213714322
 11
58.985260997485497
 21
120.75131712465624
  0
LINE
  8
_0-4_A0
  6
CONTINUOUS
 62
    3
 10
58.985260997485497
 20
120.75131712465624
 11
59.00105898315293
 21
120.75260285318825
  0
LINE
  8
_0-4_A0
  6
CONTINUOUS
 62
    3
 10
59.00105898315293
 20
120.75260285318825
 11
59.017896179718804
 21
120.75339025652843
  0
LINE
  8
_0-4_A0
  6
CONTINUOUS
 62
    3
 10
59.017896179718804
 20
120.75339025652843
 11
59.035260997485494
 21
120.75365540982474
  0
LINE
  8
_0-4_A0
  6
CONTINUOUS
 62
    3
 10
59.035260997485494
 20
120.75365540982474
 11
59.052625815252185
 21
120.75339025652843
  0
LINE
  8
_0-4_A0
  6
CONTINUOUS
 62
    3
 10
59.052625815252185
 20
120.75339025652843
 11
59.069463011818058
 21
120.75260285318825
  0
LINE
  8
_0-4_A0
  6
CONTINUOUS
 62
    3
 10
59.069463011818058
 20
120.75260285318825
 11
59.085260997485491
 21
120.75131712465624
  0
LINE
  8
_0-4_A0
  6
CONTINUOUS
 62
    3
 10
59.085260997485491
 20
120.75131712465624
 11
59.099539758454149
 21
120.74957213714322
  0
LINE
  8
_0-4_A0
  6
CONTINUOUS
 62
    3
 10
59.099539758454149
 20
120.74957213714322
 11
59.111865441797391
 21
120.74742091121179
  0
LINE
  8
_0-4_A0
  6
CONTINUOUS
 62
    3
 10
59.111865441797391
 20
120.74742091121179
 11
59.121863537863938
 21
120.74492881077329
  0
LINE
  8
_0-4_A0
  6
CONTINUOUS
 62
    3
 10
59.121863537863938
 20
120.74492881077329
 11
59.129230259564082
 21
120.74217155703849
  0
LINE
  8
_0-4_A0
  6
CONTINUOUS
 62
    3
 10
59.129230259564082
 20
120.74217155703849
 11
59.133741772786713
 21
120.73923292776688
  0
LINE
  8
_0-4_A0
  6
CONTINUOUS
 62
    3
 10
59.133741772786713
 20
120.73923292776688
 11
59.135260997485496
 21
120.73620221172185
  0
LINE
  8
_0-4_A0
  6
CONTINUOUS
 62
    3
 10
59.135260997485496
 20
120.73620221172185
 11
59.133741772786713
 21
120.73317149567681
  0
LINE
  8
_0-4_A0
  6
CONTINUOUS
 62
    3
 10
59.133741772786713
 20
120.73317149567681
 11
59.129230259564082
 21
120.7302328664052
  0
LINE
  8
_0-4_A0
  6
CONTINUOUS
 62
    3
 10
59.129230259564082
 20
120.7302328664052
 11
59.121863537863938
 21
120.7274756126704
  0
LINE
  8
_0-4_A0
  6
CONTINUOUS
 62
    3
 10
59.121863537863938
 20
120.7274756126704
 11
59.111865441797391
 21
120.7249835122319
  0
LINE
  8
_0-4_A0
  6
CONTINUOUS
 62
    3
 10
59.111865441797391
 20
120.7249835122319
 11
59.099539758454149
 21
120.72283228630047
  0
LINE
  8
_0-4_A0
  6
CONTINUOUS
 62
    3
 10
59.099539758454149
 20
120.72283228630047
 11
59.085260997485491
 21
120.72108729878745
  0
LINE
  8
_0-4_A0
  6
CONTINUOUS
 62
    3
 10
59.085260997485491
 20
120.72108729878745
 11
59.069463011818058
 21
120.71980157025544
  0
LINE
  8
_0-4_A0
  6
CONTINUOUS
 62
    3
 10
59.069463011818058
 20
120.71980157025544
 11
59.052625815252185
 21
120.71901416691526
  0
LINE
  8
_0-4_A0
  6
CONTINUOUS
 62
    3
 10
59.052625815252185
 20
120.71901416691526
 11
59.035260997485501
 21
120.71874901361895
  0
ARC
  8
_0-4_A0
  6
CONTINUOUS
 62
    3
 10
58.835260997482976
 20
120.15831785145545
 40
0.8
 50
90
 51
159.63586519390401
  0
ARC
  8
_0-4_A0
  6
CONTINUOUS
 62
    3
 10
58.185260997481976
 20
126.20831785144775
 40
0.1499999999999999
 50
228.18968510396772
 51
270
  0
LINE
  8
_0-4_A0
  6
CONTINUOUS
 62
    3
 10
58.385260997476934
 20
123.40831785147765
 11
59.165260997466589
 21
123.40831785147745
  0
LINE
  8
_0-4_A0
  6
CENTER
 62
    3
 10
58.377351119044874
 20
126.15831785147765
 11
59.291987862960639
 21
126.15831785147735
  0
ARC
  8
_0-4_A0
  6
CONTINUOUS
 62
    3
 10
58.835260997479139
 20
126.15831785147755
 40
0.25
 50
0
 51
180
  0
LINE
  8
_0-4_A0
  6
CONTINUOUS
 62
    3
 10
58.18526099747811
 20
127.05831785147774
 11
59.565260997466908
 21
127.05831785147724
  0
ARC
  8
_0-4_A0
  6
CONTINUOUS
 62
    3
 10
58.385260997476962
 20
123.60831785147765
 40
0.2
 50
180
 51
270
  0
LINE
  8
_0-4_A0
  6
CONTINUOUS
 62
    3
 10
59.565260997466851
 20
127.05831785147724
 11
59.565260997466595
 21
124.35831785147734
  0
LINE
  8
_0-4_A0
  6
CONTINUOUS
 62
    3
 10
58.585260997478599
 20
125.45631282631854
 11
58.585260997479168
 21
126.15831785147755
  0
LINE
  8
_0-4_A0
  6
CONTINUOUS
 62
    3
 10
59.085260997478542
 20
125.45631282632185
 11
59.085260997479111
 21
126.15831785147745
  0
LINE
  8
_0-4_A0
  6
CONTINUOUS
 62
    3
 10
58.185260997478167
 20
127.13831785147775
 11
59.365260997466976
 21
127.13831785147734
  0
LINE
  8
_0-4_A0
  6
CONTINUOUS
 62
    3
 10
59.365260997466919
 20
127.13831785147734
 11
59.365260997466919
 21
127.05831785147734
  0
LINE
  8
_0-4_A0
  6
CONTINUOUS
 62
    3
 10
58.18526099747703
 20
123.75831785147774
 11
59.365260997466635
 21
123.75831785147734
  0
LINE
  8
_0-4_A0
  6
CONTINUOUS
 62
    3
 10
59.365260997466578
 20
124.25831785147734
 11
59.365260997466578
 21
123.60831785147744
  0
ARC
  8
_0-4_A0
  6
CONTINUOUS
 62
    3
 10
59.165260997466589
 20
123.60831785147744
 40
0.2
 50
270
 51
0
  0
LINE
  8
_0-4_A0
  6
CONTINUOUS
 62
    3
 10
59.465260997466601
 20
124.35831785147734
 11
59.565260997466623
 21
124.35831785147734
  0
ARC
  8
_0-4_A0
  6
CONTINUOUS
 62
    3
 10
59.465260997466572
 20
124.25831785147734
 40
0.1
 50
90
 51
180
  0
CIRCLE
  8
_0-4_A0
  6
CONTINUOUS
 62
    3
 10
58.835260997480589
 20
124.05831785147635
 40
0.1
  0
LINE
  8
_0-4_A0
  6
CENTER
 62
    3
 10
58.407981573373206
 20
124.05831785147645
 11
59.169711054983793
 21
124.05831785147635
  0
LINE
  8
_0-4_A0
  6
CONTINUOUS
 62
    3
 10
58.185260997476917
 20
123.60831785147775
 11
58.18526099747811
 21
127.13831785147775
  0
CIRCLE
  8
_0-4_A0
  6
CONTINUOUS
 62
    3
 10
58.835260997481214
 20
125.05831785147754
 40
0.4699999999999999
  0
CIRCLE
  8
_0-4_A0
  6
CONTINUOUS
 62
    3
 10
58.835260997481214
 20
125.05831785147754
 40
0.4699999999999999
  0
LINE
  8
_0-4_A0
  6
CONTINUOUS
 62
    3
 10
59.04526099748125
 20
125.11831785147754
 11
59.04526099748125
 21
124.99831785147754
  0
LINE
  8
_0-4_A0
  6
CONTINUOUS
 62
    3
 10
58.625260997481234
 20
125.11831785147754
 11
58.625260997481234
 21
124.99831785147754
  0
LINE
  8
_0-4_A0
  6
CONTINUOUS
 62
    3
 10
58.775260997481212
 20
125.26831785147755
 11
58.895260997481216
 21
125.26831785147755
  0
LINE
  8
_0-4_A0
  6
CONTINUOUS
 62
    3
 10
58.775260997481212
 20
124.84831785147755
 11
58.895260997481216
 21
124.84831785147755
  0
LINE
  8
_0-4_A0
  6
CONTINUOUS
 62
    3
 10
58.895260997481216
 20
124.89831785147754
 11
58.895260997481216
 21
124.84831785147755
  0
LINE
  8
_0-4_A0
  6
CONTINUOUS
 62
    3
 10
58.895260997481216
 20
125.26831785147755
 11
58.895260997481216
 21
125.21831785147755
  0
LINE
  8
_0-4_A0
  6
CONTINUOUS
 62
    3
 10
58.625260997481234
 20
125.11831785147754
 11
58.675260997481246
 21
125.11831785147754
  0
LINE
  8
_0-4_A0
  6
CONTINUOUS
 62
    3
 10
58.995260997481239
 20
125.11831785147754
 11
59.04526099748125
 21
125.11831785147754
  0
LINE
  8
_0-4_A0
  6
CONTINUOUS
 62
    3
 10
58.625260997481234
 20
124.99831785147754
 11
58.675260997481246
 21
124.99831785147754
  0
LINE
  8
_0-4_A0
  6
CONTINUOUS
 62
    3
 10
58.995260997481239
 20
124.99831785147754
 11
59.04526099748125
 21
124.99831785147754
  0
LINE
  8
_0-4_A0
  6
CONTINUOUS
 62
    3
 10
58.775260997481212
 20
124.89831785147754
 11
58.775260997481212
 21
124.84831785147755
  0
LINE
  8
_0-4_A0
  6
CONTINUOUS
 62
    3
 10
58.775260997481212
 20
125.26831785147755
 11
58.775260997481212
 21
125.21831785147755
  0
ARC
  8
_0-4_A0
  6
CONTINUOUS
 62
    3
 10
58.995260997481239
 20
125.21831785147755
 40
0.1
 50
179.99999999999639
 51
269.99999999999483
  0
ARC
  8
_0-4_A0
  6
CONTINUOUS
 62
    3
 10
58.995260997481239
 20
124.89831785147754
 40
0.1
 50
89.999999999425526
 51
179.99999999999639
  0
ARC
  8
_0-4_A0
  6
CONTINUOUS
 62
    3
 10
58.675260997481246
 20
124.89831785147754
 40
0.1
 50
0
 51
89.999999999425526
  0
ARC
  8
_0-4_A0
  6
CONTINUOUS
 62
    3
 10
58.675260997481246
 20
125.21831785147755
 40
0.1
 50
269.99999999999488
 51
359.99999999999346
  0
LINE
  8
_0-4_A0
  6
CONTINUOUS
 62
    3
 10
59.435260997485472
 20
120.73620221172165
 11
59.435260997488115
 21
124.35371177162584
  0
LINE
  8
_0-4_A0
  6
CONTINUOUS
 62
    3
 10
59.365260997466578
 20
124.25831785147564
 11
59.435260997488172
 21
124.25831785147564
  0
LINE
  8
_0-4_A0
  6
CONTINUOUS
 62
    3
 10
58.585260997479054
 20
126.05831785144825
 11
59.085260997479025
 21
126.05831785144885
  0
LINE
  8
_0-4_A0
  6
CONTINUOUS
 62
    3
 10
58.505261001335271
 20
176.35831785137145
 11
62.185261001339484
 21
176.35831785136963
  0
LINE
  8
_0-4_A0
  6
CONTINUOUS
 62
    3
 10
58.185261001336528
 20
174.45831785138503
 11
58.305261001336532
 21
174.45831785138503
  0
LINE
  8
_0-4_A0
  6
CONTINUOUS
 62
    3
 10
58.185261001337778
 20
172.85831785137185
 11
58.305261001337925
 21
172.85831785137185
  0
ARC
  8
_0-4_A0
  6
CONTINUOUS
 62
    3
 10
58.505261001335185
 20
176.15831785137144
 40
0.2
 50
90
 51
180
  0
LINE
  8
_0-4_A0
  6
CONTINUOUS
 62
    3
 10
59.385261001336204
 20
174.85831785139496
 11
59.385261001339245
 21
170.95831785137256
  0
LINE
  8
_0-4_A0
  6
CONTINUOUS
 62
    3
 10
58.185261001339882
 20
170.15831785137183
 11
58.585261001339234
 21
170.15831785137183
  0
LINE
  8
_0-4_A0
  6
DASHED
 62
    3
 10
60.385261001336289
 20
174.95831785139515
 11
61.385261001328615
 21
174.95831785139515
  0
LINE
  8
_0-4_A0
  6
CONTINUOUS
 62
    3
 10
60.385261001336289
 20
175.00802347886264
 11
61.385261001336289
 21
175.00802347886264
  0
LINE
  8
_0-4_A0
  6
CONTINUOUS
 62
    3
 10
61.38526100132853
 20
175.05831785139515
 11
61.385261001328672
 21
174.30979242646376
  0
LINE
  8
_0-4_A0
  6
CONTINUOUS
 62
    3
 10
59.585261001336193
 20
175.05831785139515
 11
60.385261001336289
 21
175.05831785139515
  0
LINE
  8
_0-4_A0
  6
CONTINUOUS
 62
    3
 10
61.385261001336289
 20
175.05831785139515
 11
62.185261001339398
 21
175.05831785139515
  0
ARC
  8
_0-4_A0
  6
CONTINUOUS
 62
    3
 10
59.585261001336193
 20
174.85831785139516
 40
0.2
 50
90
 51
180
  0
LINE
  8
_0-4_A0
  6
CONTINUOUS
 62
    3
 10
58.185261001336528
 20
174.45831785138503
 11
58.185261001337778
 21
172.85831785137174
  0
LINE
  8
_0-4_A0
  6
DASHED
 62
    3
 10
58.305261001339886
 20
170.15831785137183
 11
58.305261001337954
 21
172.60831785137185
  0
ARC
  8
_0-4_A0
  6
CONTINUOUS
 62
    3
 10
58.585261001339234
 20
170.95831785137185
 40
0.8
 50
270
 51
0
  0
LINE
  8
_0-4_A0
  6
CONTINUOUS
 62
    3
 10
60.585261001328604
 20
174.19464524020665
 11
61.185261001328627
 21
174.19464524020665
  0
LINE
  8
_0-4_A0
  6
CONTINUOUS
 62
    3
 10
60.585261001328661
 20
174.10979242646366
 11
61.185261001328684
 21
174.10979242646366
  0
ARC
  8
_0-4_A0
  6
CONTINUOUS
 62
    3
 10
60.585261001328604
 20
174.39464524020664
 40
0.2
 50
180
 51
270
  0
ARC
  8
_0-4_A0
  6
CONTINUOUS
 62
    3
 10
61.185261001328627
 20
174.39464524020664
 40
0.2
 50
270
 51
0
  0
ARC
  8
_0-4_A0
  6
CONTINUOUS
 62
    3
 10
61.185261001328684
 20
174.30979242646364
 40
0.2
 50
270
 51
0
  0
ARC
  8
_0-4_A0
  6
CONTINUOUS
 62
    3
 10
60.585261001328661
 20
174.30979242646364
 40
0.2
 50
180
 51
270
  0
LINE
  8
_0-4_A0
  6
CONTINUOUS
 62
    3
 10
58.305261001336476
 20
174.51692824125413
 11
58.305261001335168
 21
176.15831785137135
  0
LINE
  8
_0-4_A0
  6
CONTINUOUS
 62
    3
 10
58.305261001337954
 20
172.60831785137185
 11
58.305261001337783
 21
172.85831785139183
  0
LINE
  8
_0-4_A0
  6
DASHED
 62
    3
 10
58.305261001337783
 20
172.85831785139194
 11
58.305261001336476
 21
174.51692824125413
  0
LINE
  8
_0-4_A0
  6
CONTINUOUS
 62
    3
 10
58.409248680057374
 20
174.85831785139675
 11
58.842429011903675
 21
174.85831785139683
  0
LINE
  8
_0-4_A0
  6
CONTINUOUS
 62
    3
 10
58.18526100133522
 20
172.85831785139175
 11
58.521035207051455
 21
172.85831785139214
  0
LINE
  8
_0-4_A0
  6
CONTINUOUS
 62
    3
 10
58.185261001335334
 20
173.85831785138984
 11
58.305261001337385
 21
173.85831785138996
  0
LINE
  8
_0-4_A0
  6
DASHED
 62
    3
 10
58.185261001336755
 20
174.12297047894106
 11
58.30526100133676
 21
174.12297047894114
  0
LINE
  8
_0-4_A0
  6
CONTINUOUS
 62
    3
 10
58.819188393933359
 20
174.65831785137135
 11
58.819188393933786
 21
173.55831785139566
  0
LINE
  8
_0-4_A0
  6
CONTINUOUS
 62
    3
 10
58.927945328378939
 20
174.65831785137115
 11
58.927945328378485
 21
173.55831785139566
  0
LINE
  8
_0-4_A0
  6
CONTINUOUS
 62
    3
 10
58.185261001336812
 20
174.12297047894106
 11
58.409248680057374
 21
174.85831785139675
  0
LINE
  8
_0-4_A0
  6
DASHED
 62
    3
 10
58.305261001336817
 20
174.12297047894114
 11
58.529248680057378
 21
174.85831785139683
  0
LINE
  8
_0-4_A0
  6
CONTINUOUS
 62
    3
 10
58.927945328378904
 20
174.65831785137115
 11
58.927945328378904
 21
174.65831785137115
  0
LINE
  8
_0-4_A0
  6
CONTINUOUS
 62
    3
 10
58.927945328378904
 20
174.65831785137115
 11
58.926646143377525
 21
174.69304748690453
  0
LINE
  8
_0-4_A0
  6
CONTINUOUS
 62
    3
 10
58.926646143377525
 20
174.69304748690453
 11
58.922788063452238
 21
174.72672188003631
  0
LINE
  8
_0-4_A0
  6
CONTINUOUS
 62
    3
 10
58.922788063452238
 20
174.72672188003631
 11
58.916488314409285
 21
174.75831785137117
  0
LINE
  8
_0-4_A0
  6
CONTINUOUS
 62
    3
 10
58.916488314409285
 20
174.75831785137117
 11
58.907938310935513
 21
174.78687537330848
  0
LINE
  8
_0-4_A0
  6
CONTINUOUS
 62
    3
 10
58.907938310935513
 20
174.78687537330848
 11
58.897397840559968
 21
174.81152673999497
  0
LINE
  8
_0-4_A0
  6
CONTINUOUS
 62
    3
 10
58.897397840559968
 20
174.81152673999497
 11
58.885187170141258
 21
174.83152293212805
  0
LINE
  8
_0-4_A0
  6
CONTINUOUS
 62
    3
 10
58.885187170141258
 20
174.83152293212805
 11
58.871677314721175
 21
174.84625637552836
  0
LINE
  8
_0-4_A0
  6
CONTINUOUS
 62
    3
 10
58.871677314721175
 20
174.84625637552836
 11
58.857278764420343
 21
174.85527940197363
  0
LINE
  8
_0-4_A0
  6
CONTINUOUS
 62
    3
 10
58.857278764420343
 20
174.85527940197363
 11
58.842429011903619
 21
174.85831785137117
  0
LINE
  8
_0-4_A0
  6
CONTINUOUS
 62
    3
 10
58.842429011903619
 20
174.85831785137117
 11
58.836019995208524
 21
174.85775538578841
  0
LINE
  8
_0-4_A0
  6
CONTINUOUS
 62
    3
 10
58.819188393933324
 20
174.65831785137135
 11
58.819188393933324
 21
174.65831785137135
  0
LINE
  8
_0-4_A0
  6
CONTINUOUS
 62
    3
 10
58.819188393933324
 20
174.65831785137135
 11
58.817889208931945
 21
174.69304748690473
  0
LINE
  8
_0-4_A0
  6
CONTINUOUS
 62
    3
 10
58.817889208931945
 20
174.69304748690473
 11
58.814031129006658
 21
174.72672188003651
  0
LINE
  8
_0-4_A0
  6
CONTINUOUS
 62
    3
 10
58.814031129006658
 20
174.72672188003651
 11
58.807731379963705
 21
174.75831785137137
  0
LINE
  8
_0-4_A0
  6
CONTINUOUS
 62
    3
 10
58.807731379963705
 20
174.75831785137137
 11
58.799181376489933
 21
174.78687537330867
  0
LINE
  8
_0-4_A0
  6
CONTINUOUS
 62
    3
 10
58.799181376489933
 20
174.78687537330867
 11
58.788640906114388
 21
174.81152673999517
  0
LINE
  8
_0-4_A0
  6
CONTINUOUS
 62
    3
 10
58.788640906114388
 20
174.81152673999517
 11
58.776430235695678
 21
174.83152293212825
  0
LINE
  8
_0-4_A0
  6
CONTINUOUS
 62
    3
 10
58.776430235695678
 20
174.83152293212825
 11
58.762920380275595
 21
174.84625637552855
  0
LINE
  8
_0-4_A0
  6
CONTINUOUS
 62
    3
 10
58.762920380275595
 20
174.84625637552855
 11
58.748521829974763
 21
174.85527940197383
  0
LINE
  8
_0-4_A0
  6
CONTINUOUS
 62
    3
 10
58.748521829974763
 20
174.85527940197383
 11
58.733672077458039
 21
174.85831785137137
  0
LINE
  8
_0-4_A0
  6
CONTINUOUS
 62
    3
 10
58.733672077458039
 20
174.85831785137137
 11
58.727263060762944
 21
174.85775538578861
  0
LINE
  8
_0-4_A0
  6
CONTINUOUS
 62
    3
 10
58.521035207051455
 20
172.85831785139948
 11
58.521035207051455
 21
172.85831785139948
  0
LINE
  8
_0-4_A0
  6
CONTINUOUS
 62
    3
 10
58.521035207051455
 20
172.85831785139948
 11
58.591694408094121
 21
172.86895242429088
  0
LINE
  8
_0-4_A0
  6
CONTINUOUS
 62
    3
 10
58.591694408094121
 20
172.86895242429088
 11
58.660206665068387
 21
172.90053301684912
  0
LINE
  8
_0-4_A0
  6
CONTINUOUS
 62
    3
 10
58.660206665068387
 20
172.90053301684912
 11
58.724490267714962
 21
172.95210006874987
  0
LINE
  8
_0-4_A0
  6
CONTINUOUS
 62
    3
 10
58.724490267714962
 20
172.95210006874987
 11
58.782591991296506
 21
173.0220867412153
  0
LINE
  8
_0-4_A0
  6
CONTINUOUS
 62
    3
 10
58.782591991296506
 20
173.0220867412153
 11
58.832746444342881
 21
173.10836652461754
  0
LINE
  8
_0-4_A0
  6
CONTINUOUS
 62
    3
 10
58.832746444342881
 20
173.10836652461754
 11
58.873429709177657
 21
173.20831785139757
  0
LINE
  8
_0-4_A0
  6
CONTINUOUS
 62
    3
 10
58.873429709177657
 20
173.20831785139757
 11
58.903405645385547
 21
173.318903751069
  0
LINE
  8
_0-4_A0
  6
CONTINUOUS
 62
    3
 10
58.903405645385547
 20
173.318903751069
 11
58.921763449313431
 21
173.43676412702948
  0
LINE
  8
_0-4_A0
  6
CONTINUOUS
 62
    3
 10
58.921763449313431
 20
173.43676412702948
 11
58.927945328378463
 21
173.55831785139566
  0
LINE
  8
_0-4_A0
  6
CONTINUOUS
 62
    3
 10
58.927945328378463
 20
173.55831785139566
 11
58.927945328378463
 21
173.55831785139566
  0
LINE
  8
_0-4_A0
  6
CONTINUOUS
 62
    3
 10
58.412278272596041
 20
172.85831785139931
 11
58.412278272596041
 21
172.85831785139931
  0
LINE
  8
_0-4_A0
  6
CONTINUOUS
 62
    3
 10
58.412278272596041
 20
172.85831785139931
 11
58.482937473640568
 21
172.86895242429071
  0
LINE
  8
_0-4_A0
  6
CONTINUOUS
 62
    3
 10
58.482937473640568
 20
172.86895242429071
 11
58.551449730616646
 21
172.90053301684895
  0
LINE
  8
_0-4_A0
  6
CONTINUOUS
 62
    3
 10
58.551449730616646
 20
172.90053301684895
 11
58.61573333326492
 21
172.9521000687497
  0
LINE
  8
_0-4_A0
  6
CONTINUOUS
 62
    3
 10
58.61573333326492
 20
172.9521000687497
 11
58.673835056847999
 21
173.02208674121513
  0
LINE
  8
_0-4_A0
  6
CONTINUOUS
 62
    3
 10
58.673835056847999
 20
173.02208674121513
 11
58.723989509895702
 21
173.1083665246174
  0
LINE
  8
_0-4_A0
  6
CONTINUOUS
 62
    3
 10
58.723989509895702
 20
173.1083665246174
 11
58.764672774731544
 21
173.20831785139742
  0
LINE
  8
_0-4_A0
  6
CONTINUOUS
 62
    3
 10
58.764672774731544
 20
173.20831785139742
 11
58.79464871094023
 21
173.31890375106886
  0
LINE
  8
_0-4_A0
  6
CONTINUOUS
 62
    3
 10
58.79464871094023
 20
173.31890375106886
 11
58.813006514868604
 21
173.43676412702933
  0
LINE
  8
_0-4_A0
  6
CONTINUOUS
 62
    3
 10
58.813006514868604
 20
173.43676412702933
 11
58.8191883939338
 21
173.55831785139554
  0
LINE
  8
_0-4_A0
  6
CONTINUOUS
 62
    3
 10
58.185261001345395
 20
162.55831785137184
 11
58.185261001337949
 21
172.60831785137185
  0
LINE
  8
_0-4_A0
  6
CONTINUOUS
 62
    3
 10
62.385261001339416
 20
175.25831785139513
 11
62.385261001339416
 21
176.15831785136965
  0
ARC
  8
_0-4_A0
  6
CONTINUOUS
 62
    3
 10
62.185261001339398
 20
176.15831785136965
 40
0.2
 50
0
 51
90
  0
ARC
  8
_0-4_A0
  6
CONTINUOUS
 62
    3
 10
62.185261001339398
 20
175.25831785139513
 40
0.2
 50
270
 51
0
  0
LINE
  8
_0-4_A0
  6
CONTINUOUS
 62
    3
 10
60.385261001328701
 20
174.30979242646345
 11
60.385261001328558
 21
174.95831784892573
  0
LINE
  8
_0-4_A0
  6
CONTINUOUS
 62
    3
 10
60.385261001328558
 20
174.95831784892573
 11
60.385261001328558
 21
175.05831785139515
  0
LINE
  8
_0-4_A0
  6
CONTINUOUS
 62
    3
 10
59.412055919153602
 20
174.95831784892573
 11
60.385261001328558
 21
174.95831784892573
  0
LINE
  8
_0-4_A0
  6
HIDDEN
 62
    3
 10
58.305261001336135
 20
174.95831784892573
 11
59.412055919153602
 21
174.95831784892573
  0
LINE
  8
_0-e_A20
  6
CONTINUOUS
 62
    3
 10
58.085261002023913
 20
172.60831785137185
 11
58.085261002205584
 21
174.75831785131345
  0
LINE
  8
_0-4_A0
  6
CONTINUOUS
 62
    3
 10
58.085261002028119
 20
172.60831785137185
 11
58.305261001337925
 21
172.60831785137185
  0
ARC
  8
_0-4_A0
  6
CONTINUOUS
 62
    3
 10
57.98526100134535
 20
162.55831785137175
 40
0.2
 50
299.99999993881931
 51
0.0000000000000127
  0
LINE
  8
_0-4_A0
  6
CENTER
 62
    3
 10
61.385261002068887
 20
173.14019851154475
 11
61.385260998888157
 21
135.50002104605684
  0
LINE
  8
_0-4_A0
  6
CENTER
 62
    3
 10
62.578853165064857
 20
171.95831785093324
 11
60.154236681242025
 21
171.95831785113813
  0
LINE
  8
_0-4_A0
  6
CENTER
 62
    3
 10
62.752306658247107
 20
136.95831785091855
 11
60.003643232354364
 21
136.95831785115084
  0
CIRCLE
  8
_0-4_A0
  6
CONTINUOUS
 62
    3
 10
61.385260998588876
 20
136.95831785103405
 40
0.2999999999999999
  0
LINE
  8
_0-4_A0
  6
CENTER
 62
    3
 10
63.314410017341118
 20
170.95831785087105
 11
59.609379137873191
 21
170.95831785118415
  0
ARC
  8
_0-4_A0
  6
CONTINUOUS
 62
    3
 10
61.385261001969013
 20
171.95831785103414
 40
0.26
 50
0
 51
180
  0
ARC
  8
_0-4_A0
  6
CONTINUOUS
 62
    3
 10
61.385261001884487
 20
170.95831785103405
 40
0.8
 50
108.9655749848764
 51
71.034425005768412
  0
LINE
  8
_0-4_A0
  6
CONTINUOUS
 62
    3
 10
61.645261001955589
 20
171.95831785101214
 11
61.645261001955589
 21
171.71488906378474
  0
LINE
  8
_0-4_A0
  6
CONTINUOUS
 62
    3
 10
61.125261001936963
 20
171.95831785105605
 11
61.125261001936963
 21
171.71488906382726
  0
LINE
  8
_0-4_A0
  6
CONTINUOUS
 62
    3
 10
61.385261001328558
 20
174.95831784892573
 11
91.33526100239169
 21
174.95831784877095
  0
LINE
  8
_0-e_A20
  6
CONTINUOUS
 62
    3
 10
57.985261002568961
 20
119.05831785132145
 11
57.985261002396612
 21
117.01831785132144
  0
LINE
  8
_0-e_A20
  6
CONTINUOUS
 62
    3
 10
58.085261002442195
 20
117.55831785131295
 11
58.025261002442164
 21
117.55831785131804
  0
LINE
  8
_0-e_A20
  6
CONTINUOUS
 62
    3
 10
56.385261002396561
 20
117.01831785145664
 11
58.025261002396576
 21
117.01831785131805
  0
LINE
  8
_0-e_A20
  6
CONTINUOUS
 62
    3
 10
58.085261002577397
 20
119.15831785131235
 11
57.985261002568961
 21
119.05831785132145
  0
LINE
  8
_0-e_A20
  6
CONTINUOUS
 62
    3
 10
58.085261002442223
 20
117.55831785131295
 11
58.085261002396578
 21
117.01831785131294
  0
ARC
  8
_0-e_A20
  6
CONTINUOUS
 62
    3
 10
58.025261002396576
 20
117.01831785131805
 40
0.0599999999999999
 50
269.99999999515103
 51
359.99999999457657
  0
LINE
  8
_0-e_A20
  6
CONTINUOUS
 62
    3
 10
58.025261002442221
 20
117.55831785131804
 11
58.025261002396576
 21
117.01831785131805
  0
LINE
  8
_1-4_A60
  6
CONTINUOUS
 62
    3
 10
58.025261002396576
 20
117.55831785145155
 11
58.025261002396576
 21
117.11831785145155
  0
LINE
  8
_1-4_A60
  6
HIDDEN
 62
    3
 10
56.545261002396558
 20
117.01831785145154
 11
57.925260995325118
 21
117.01831785145154
  0
ARC
  8
_1-4_A60
  6
HIDDEN
 62
    3
 10
57.925261002396581
 20
117.11831785145155
 40
0.1
 50
269.99999999999488
 51
306.86989764704288
  0
ARC
  8
_1-4_A60
  6
CONTINUOUS
 62
    3
 10
57.925261002396581
 20
117.11831785145155
 40
0.1
 50
306.86989764704282
 51
359.99999999999341
  0
LINE
  8
_1-4_A60
  6
CONTINUOUS
 62
    3
 10
58.025261002396576
 20
117.55831785145155
 11
57.985261002442201
 21
117.55831785145155
  0
ARC
  8
_0-4_A0
  6
CONTINUOUS
 62
    6
 10
56.435261002391485
 20
117.00831785145664
 40
0.05
 50
179.99999999999639
 51
269.99999999999483
  0
LINE
  8
_0-e_A20
  6
CONTINUOUS
 62
    3
 10
57.985261002568961
 20
119.05831785132145
 11
57.985261002396584
 21
117.01831785132144
  0
LINE
  8
_0-e_A20
  6
CONTINUOUS
 62
    3
 10
58.085261002442223
 20
117.55831785131295
 11
58.025261002442221
 21
117.55831785131804
  0
LINE
  8
_0-e_A20
  6
CONTINUOUS
 62
    3
 10
58.085261002577425
 20
119.15831785131235
 11
57.985261002568933
 21
119.05831785132155
  0
LINE
  8
_0-e_A20
  6
CONTINUOUS
 62
    3
 10
58.025261002442221
 20
117.55831785131804
 11
58.025261002396576
 21
117.01831785131805
  0
LINE
  8
_1-4_A60
  6
CONTINUOUS
 62
    3
 10
58.025261002396576
 20
117.55831785145155
 11
58.025261002396576
 21
117.11831785145155
  0
ARC
  8
_1-4_A60
  6
HIDDEN
 62
    3
 10
57.925261002396553
 20
117.11831785145155
 40
0.1
 50
269.99999999999488
 51
306.86989764704288
  0
ARC
  8
_1-4_A60
  6
CONTINUOUS
 62
    3
 10
57.925261002396553
 20
117.11831785145155
 40
0.1
 50
306.86989764704282
 51
359.99999999999341
  0
LINE
  8
_1-4_A60
  6
CONTINUOUS
 62
    3
 10
58.025261002396576
 20
117.55831785145155
 11
57.985261002442201
 21
117.55831785145155
  0
LINE
  8
_0-4_A0
  6
CONTINUOUS
 62
    3
 10
57.985261002552079
 20
119.05831785145645
 11
57.985261002552079
 21
117.01831785145664
  0
LINE
  8
_0-4_A0
  6
CONTINUOUS
 62
    3
 10
58.085261002551988
 20
119.15831785145724
 11
57.985261002552022
 21
119.05831785145645
  0
LINE
  8
_0-4_A0
  6
CONTINUOUS
 62
    3
 10
58.025261002552099
 20
117.55831785145665
 11
58.025261002552071
 21
117.01831785145664
  0
LINE
  8
_0-4_A0
  6
CONTINUOUS
 62
    3
 10
58.035261002542654
 20
117.35831785139594
 11
58.03526100254922
 21
119.10831785145395
  0
ARC
  8
_0-4_A0
  6
CONTINUOUS
 62
    3
 10
57.835261002542666
 20
117.35831785139675
 40
0.2
 50
318.59037789480647
 51
0.0000000000000254
  0
LINE
  8
_0-4_A0
  6
CONTINUOUS
 62
    3
 10
58.085260998191956
 20
127.26132785147774
 11
59.435260997455686
 21
127.26132785147735
  0
LINE
  8
_0-4_A0
  6
CONTINUOUS
 62
    3
 10
59.435260997455686
 20
127.05831785147734
 11
59.435260997455686
 21
127.26132785147735
  0
LINE
  8
_0-4_A0
  6
CONTINUOUS
 62
    3
 10
92.473706024628228
 20
172.95831784770473
 11
97.696815980155137
 21
172.95831784770473
  0
LINE
  8
_0-4_A0
  6
CONTINUOUS
 62
    3
 10
92.473706024628228
 20
172.18142780323166
 11
97.696815980155137
 21
172.18142780323166
  0
ARC
  8
_0-4_A0
  6
CONTINUOUS
 62
    3
 10
92.473706024628228
 20
172.56987282546814
 40
0.3884450222365559
 50
90
 51
270
  0
ARC
  8
_0-4_A0
  6
CONTINUOUS
 62
    3
 10
97.696815980155137
 20
172.56987282546814
 40
0.3884450222365559
 50
270
 51
90
  0
LINE
  8
_0-4_A0
  6
CONTINUOUS
 62
    3
 10
99.973706024628228
 20
172.95831784770473
 11
105.19681598015514
 21
172.95831784770473
  0
LINE
  8
_0-4_A0
  6
CONTINUOUS
 62
    3
 10
99.973706024628228
 20
172.18142780323166
 11
105.19681598015514
 21
172.18142780323166
  0
ARC
  8
_0-4_A0
  6
CONTINUOUS
 62
    3
 10
99.973706024628228
 20
172.56987282546814
 40
0.3884450222365559
 50
90
 51
270
  0
ARC
  8
_0-4_A0
  6
CONTINUOUS
 62
    3
 10
105.19681598015514
 20
172.56987282546814
 40
0.3884450222365559
 50
270
 51
90
  0
LINE
  8
_0-4_A0
  6
CONTINUOUS
 62
    3
 10
107.47370602462823
 20
172.95831784770473
 11
112.69681598015514
 21
172.95831784770473
  0
LINE
  8
_0-4_A0
  6
CONTINUOUS
 62
    3
 10
107.47370602462823
 20
172.18142780323166
 11
112.69681598015514
 21
172.18142780323166
  0
ARC
  8
_0-4_A0
  6
CONTINUOUS
 62
    3
 10
107.47370602462823
 20
172.56987282546814
 40
0.3884450222365559
 50
90
 51
270
  0
ARC
  8
_0-4_A0
  6
CONTINUOUS
 62
    3
 10
112.69681598015514
 20
172.56987282546814
 40
0.3884450222365559
 50
270
 51
90
  0
LINE
  8
_0-4_A0
  6
CONTINUOUS
 62
    3
 10
114.97370602462823
 20
172.95831784770473
 11
120.19681598015514
 21
172.95831784770473
  0
LINE
  8
_0-4_A0
  6
CONTINUOUS
 62
    3
 10
114.97370602462823
 20
172.18142780323166
 11
120.19681598015514
 21
172.18142780323166
  0
ARC
  8
_0-4_A0
  6
CONTINUOUS
 62
    3
 10
114.97370602462823
 20
172.56987282546814
 40
0.3884450222365559
 50
90
 51
270
  0
ARC
  8
_0-4_A0
  6
CONTINUOUS
 62
    3
 10
120.19681598015514
 20
172.56987282546814
 40
0.3884450222365559
 50
270
 51
90
  0
LINE
  8
_0-4_A0
  6
CONTINUOUS
 62
    3
 10
114.97370602462823
 20
171.50164901437915
 11
120.19681598015514
 21
171.50164901437915
  0
LINE
  8
_0-4_A0
  6
CONTINUOUS
 62
    3
 10
114.97370602462823
 20
170.72475896990593
 11
120.19681598015514
 21
170.72475896990593
  0
ARC
  8
_0-4_A0
  6
CONTINUOUS
 62
    3
 10
114.97370602462823
 20
171.11320399214253
 40
0.3884450222365559
 50
90
 51
270
  0
ARC
  8
_0-4_A0
  6
CONTINUOUS
 62
    3
 10
120.19681598015514
 20
171.11320399214253
 40
0.3884450222365559
 50
270
 51
90
  0
LINE
  8
_0-4_A0
  6
CONTINUOUS
 62
    3
 10
107.47370602462823
 20
171.50164901438245
 11
112.69681598015514
 21
171.50164901438245
  0
LINE
  8
_0-4_A0
  6
CONTINUOUS
 62
    3
 10
107.47370602462823
 20
170.72475896990935
 11
112.69681598015514
 21
170.72475896990935
  0
ARC
  8
_0-4_A0
  6
CONTINUOUS
 62
    3
 10
107.47370602462823
 20
171.11320399214586
 40
0.3884450222365559
 50
90
 51
270
  0
ARC
  8
_0-4_A0
  6
CONTINUOUS
 62
    3
 10
112.69681598015514
 20
171.11320399214586
 40
0.3884450222365559
 50
270
 51
90
  0
LINE
  8
_0-4_A0
  6
CONTINUOUS
 62
    3
 10
99.973706024628228
 20
171.50164901438575
 11
105.19681598015514
 21
171.50164901438575
  0
LINE
  8
_0-4_A0
  6
CONTINUOUS
 62
    3
 10
99.973706024628228
 20
170.72475896991264
 11
105.19681598015514
 21
170.72475896991264
  0
ARC
  8
_0-4_A0
  6
CONTINUOUS
 62
    3
 10
99.973706024628228
 20
171.11320399214915
 40
0.3884450222365559
 50
90
 51
270
  0
ARC
  8
_0-4_A0
  6
CONTINUOUS
 62
    3
 10
105.19681598015514
 20
171.11320399214915
 40
0.3884450222365559
 50
270
 51
90
  0
LINE
  8
_0-4_A0
  6
CONTINUOUS
 62
    3
 10
92.473706024628228
 20
171.50164901438905
 11
97.696815980155137
 21
171.50164901438905
  0
LINE
  8
_0-4_A0
  6
CONTINUOUS
 62
    3
 10
92.473706024628228
 20
170.72475896991594
 11
97.696815980155137
 21
170.72475896991594
  0
ARC
  8
_0-4_A0
  6
CONTINUOUS
 62
    3
 10
92.473706024628228
 20
171.11320399215253
 40
0.3884450222365559
 50
90
 51
270
  0
ARC
  8
_0-4_A0
  6
CONTINUOUS
 62
    3
 10
97.696815980155137
 20
171.11320399215253
 40
0.3884450222365559
 50
270
 51
90
  0
LINE
  8
_0-4_A0
  6
CONTINUOUS
 62
    3
 10
92.180711002391689
 20
205.25209951954585
 11
97.989811002391733
 21
205.25209951905495
  0
LINE
  8
_0-4_A0
  6
CONTINUOUS
 62
    3
 10
92.180711002383632
 20
205.06119951954585
 11
97.989811002391733
 21
205.06119951905495
  0
ARC
  8
_0-4_A0
  6
CONTINUOUS
 62
    3
 10
92.180711002391689
 20
205.15664951955395
 40
0.0954500000080597
 50
90
 51
270
  0
ARC
  8
_0-4_A0
  6
CONTINUOUS
 62
    3
 10
97.989811002391733
 20
205.15664951904694
 40
0.0954500000080699
 50
270
 51
90
  0
LINE
  8
_0-4_A0
  6
CONTINUOUS
 62
    3
 10
99.680711002391732
 20
205.25209951954255
 11
105.48981100239173
 21
205.25209951905165
  0
LINE
  8
_0-4_A0
  6
CONTINUOUS
 62
    3
 10
99.680711002383632
 20
205.06119951954255
 11
105.48981100239173
 21
205.06119951905166
  0
ARC
  8
_0-4_A0
  6
CONTINUOUS
 62
    3
 10
99.680711002391732
 20
205.15664951955065
 40
0.0954500000080597
 50
90
 51
270
  0
ARC
  8
_0-4_A0
  6
CONTINUOUS
 62
    3
 10
105.48981100239173
 20
205.15664951904355
 40
0.0954500000080699
 50
270
 51
90
  0
LINE
  8
_0-4_A0
  6
CONTINUOUS
 62
    3
 10
107.18071100239163
 20
205.25209951953926
 11
112.98981100239163
 21
205.25209951904836
  0
LINE
  8
_0-4_A0
  6
CONTINUOUS
 62
    3
 10
107.18071100238363
 20
205.06119951953926
 11
112.98981100239163
 21
205.06119951904836
  0
ARC
  8
_0-4_A0
  6
CONTINUOUS
 62
    3
 10
107.18071100239163
 20
205.15664951954736
 40
0.0954500000080597
 50
90
 51
270
  0
ARC
  8
_0-4_A0
  6
CONTINUOUS
 62
    3
 10
112.98981100239163
 20
205.15664951904026
 40
0.0954500000080699
 50
270
 51
90
  0
LINE
  8
_0-4_A0
  6
CONTINUOUS
 62
    3
 10
114.68071100239163
 20
205.25209951953593
 11
120.48981100239163
 21
205.25209951904503
  0
LINE
  8
_0-4_A0
  6
CONTINUOUS
 62
    3
 10
114.68071100238363
 20
205.06119951953585
 11
120.48981100239163
 21
205.06119951904503
  0
ARC
  8
_0-4_A0
  6
CONTINUOUS
 62
    3
 10
114.68071100239163
 20
205.15664951954395
 40
0.0954500000080597
 50
90
 51
270
  0
ARC
  8
_0-4_A0
  6
CONTINUOUS
 62
    3
 10
120.48981100239163
 20
205.15664951903693
 40
0.0954500000080699
 50
270
 51
90
  0
LINE
  8
_0-4_A0
  6
CONTINUOUS
 62
    3
 10
114.68071100239173
 20
204.89415951752704
 11
120.48981100239173
 21
204.89415951703614
  0
LINE
  8
_0-4_A0
  6
CONTINUOUS
 62
    3
 10
114.68071100238363
 20
204.70325951752704
 11
120.48981100239173
 21
204.70325951703614
  0
ARC
  8
_0-4_A0
  6
CONTINUOUS
 62
    3
 10
114.68071100239173
 20
204.79870951753514
 40
0.0954500000080597
 50
90
 51
270
  0
ARC
  8
_0-4_A0
  6
CONTINUOUS
 62
    3
 10
120.48981100239173
 20
204.79870951702816
 40
0.0954500000080699
 50
270
 51
90
  0
LINE
  8
_0-4_A0
  6
CONTINUOUS
 62
    3
 10
107.18071100239173
 20
204.89415951816085
 11
112.98981100239173
 21
204.89415951766995
  0
LINE
  8
_0-4_A0
  6
CONTINUOUS
 62
    3
 10
107.18071100238363
 20
204.70325951816085
 11
112.98981100239173
 21
204.70325951766995
  0
ARC
  8
_0-4_A0
  6
CONTINUOUS
 62
    3
 10
107.18071100239173
 20
204.79870951816895
 40
0.0954500000080597
 50
90
 51
270
  0
ARC
  8
_0-4_A0
  6
CONTINUOUS
 62
    3
 10
112.98981100239173
 20
204.79870951766185
 40
0.0954500000080699
 50
270
 51
90
  0
LINE
  8
_0-4_A0
  6
CONTINUOUS
 62
    3
 10
99.680711002391732
 20
204.89415951879465
 11
105.48981100239173
 21
204.89415951830375
  0
LINE
  8
_0-4_A0
  6
CONTINUOUS
 62
    3
 10
99.680711002383632
 20
204.70325951879465
 11
105.48981100239173
 21
204.70325951830375
  0
ARC
  8
_0-4_A0
  6
CONTINUOUS
 62
    3
 10
99.680711002391732
 20
204.79870951880275
 40
0.0954500000080597
 50
90
 51
270
  0
ARC
  8
_0-4_A0
  6
CONTINUOUS
 62
    3
 10
105.48981100239173
 20
204.79870951829565
 40
0.0954500000080699
 50
270
 51
90
  0
LINE
  8
_0-4_A0
  6
CONTINUOUS
 62
    3
 10
92.180711002391689
 20
204.89415951942834
 11
97.989811002391733
 21
204.89415951893744
  0
LINE
  8
_0-4_A0
  6
CONTINUOUS
 62
    3
 10
92.180711002383632
 20
204.70325951942834
 11
97.989811002391733
 21
204.70325951893756
  0
ARC
  8
_0-4_A0
  6
CONTINUOUS
 62
    3
 10
92.180711002391689
 20
204.79870951943644
 40
0.0954500000080597
 50
90
 51
270
  0
ARC
  8
_0-4_A0
  6
CONTINUOUS
 62
    3
 10
97.989811002391733
 20
204.79870951892946
 40
0.0954500000080699
 50
270
 51
90
  0
LINE
  8
_0-4_A0
  6
CONTINUOUS
 62
    3
 10
90.489811002391789
 20
205.25209951954585
 11
84.680711002391789
 21
205.25209951905504
  0
LINE
  8
_0-4_A0
  6
CONTINUOUS
 62
    3
 10
90.489811002399861
 20
205.06119951954585
 11
84.680711002391789
 21
205.06119951905504
  0
ARC
  8
_0-4_A0
  6
CONTINUOUS
 62
    3
 10
90.489811002391789
 20
205.15664951955395
 40
0.0954500000080597
 50
269.99999999999977
 51
89.999999999999744
  0
ARC
  8
_0-4_A0
  6
CONTINUOUS
 62
    3
 10
84.680711002391789
 20
205.15664951904694
 40
0.0954500000080699
 50
89.999999999999801
 51
269.99999999999977
  0
LINE
  8
_0-4_A0
  6
CONTINUOUS
 62
    3
 10
82.989811002391789
 20
205.25209951954255
 11
77.180711002391774
 21
205.25209951905165
  0
LINE
  8
_0-4_A0
  6
CONTINUOUS
 62
    3
 10
82.989811002399847
 20
205.06119951954255
 11
77.180711002391774
 21
205.06119951905174
  0
ARC
  8
_0-4_A0
  6
CONTINUOUS
 62
    3
 10
82.989811002391789
 20
205.15664951955065
 40
0.0954500000080597
 50
269.99999999999977
 51
89.999999999999744
  0
ARC
  8
_0-4_A0
  6
CONTINUOUS
 62
    3
 10
77.180711002391774
 20
205.15664951904364
 40
0.0954500000080699
 50
89.999999999999801
 51
269.99999999999977
  0
LINE
  8
_0-4_A0
  6
CONTINUOUS
 62
    3
 10
75.489811002391832
 20
205.25209951953926
 11
69.680711002391831
 21
205.25209951904836
  0
LINE
  8
_0-4_A0
  6
CONTINUOUS
 62
    3
 10
75.489811002399875
 20
205.06119951953926
 11
69.680711002391831
 21
205.06119951904844
  0
ARC
  8
_0-4_A0
  6
CONTINUOUS
 62
    3
 10
75.489811002391832
 20
205.15664951954736
 40
0.0954500000080597
 50
269.99999999999977
 51
89.999999999999744
  0
ARC
  8
_0-4_A0
  6
CONTINUOUS
 62
    3
 10
69.680711002391831
 20
205.15664951904034
 40
0.0954500000080699
 50
89.999999999999801
 51
269.99999999999977
  0
LINE
  8
_0-4_A0
  6
CONTINUOUS
 62
    3
 10
67.989811002391832
 20
205.25209951953593
 11
62.180711002391831
 21
205.25209951904503
  0
LINE
  8
_0-4_A0
  6
CONTINUOUS
 62
    3
 10
67.989811002399875
 20
205.06119951953593
 11
62.180711002391831
 21
205.06119951904515
  0
ARC
  8
_0-4_A0
  6
CONTINUOUS
 62
    3
 10
67.989811002391832
 20
205.15664951954403
 40
0.0954500000080597
 50
269.99999999999977
 51
89.999999999999744
  0
ARC
  8
_0-4_A0
  6
CONTINUOUS
 62
    3
 10
62.180711002391831
 20
205.15664951903705
 40
0.0954500000080699
 50
89.999999999999801
 51
269.99999999999977
  0
LINE
  8
_0-4_A0
  6
CONTINUOUS
 62
    3
 10
67.989811002391775
 20
204.89415951752716
 11
62.180711002391774
 21
204.89415951703626
  0
LINE
  8
_0-4_A0
  6
CONTINUOUS
 62
    3
 10
67.989811002399847
 20
204.70325951752716
 11
62.180711002391774
 21
204.70325951703626
  0
ARC
  8
_0-4_A0
  6
CONTINUOUS
 62
    3
 10
67.989811002391775
 20
204.79870951753526
 40
0.0954500000080597
 50
269.99999999999977
 51
89.999999999999744
  0
ARC
  8
_0-4_A0
  6
CONTINUOUS
 62
    3
 10
62.180711002391774
 20
204.79870951702816
 40
0.0954500000080699
 50
89.999999999999801
 51
269.99999999999977
  0
LINE
  8
_0-4_A0
  6
CONTINUOUS
 62
    3
 10
75.489811002391775
 20
204.89415951816085
 11
69.680711002391774
 21
204.89415951767003
  0
LINE
  8
_0-4_A0
  6
CONTINUOUS
 62
    3
 10
75.489811002399847
 20
204.70325951816093
 11
69.680711002391774
 21
204.70325951767003
  0
ARC
  8
_0-4_A0
  6
CONTINUOUS
 62
    3
 10
75.489811002391775
 20
204.79870951816895
 40
0.0954500000080597
 50
269.99999999999977
 51
89.999999999999744
  0
ARC
  8
_0-4_A0
  6
CONTINUOUS
 62
    3
 10
69.680711002391774
 20
204.79870951766193
 40
0.0954500000080699
 50
89.999999999999801
 51
269.99999999999977
  0
LINE
  8
_0-4_A0
  6
CONTINUOUS
 62
    3
 10
82.989811002391789
 20
204.89415951879465
 11
77.180711002391774
 21
204.89415951830375
  0
LINE
  8
_0-4_A0
  6
CONTINUOUS
 62
    3
 10
82.989811002399861
 20
204.70325951879465
 11
77.180711002391774
 21
204.70325951830375
  0
ARC
  8
_0-4_A0
  6
CONTINUOUS
 62
    3
 10
82.989811002391789
 20
204.79870951880275
 40
0.0954500000080597
 50
269.99999999999977
 51
89.999999999999744
  0
ARC
  8
_0-4_A0
  6
CONTINUOUS
 62
    3
 10
77.180711002391774
 20
204.79870951829574
 40
0.0954500000080699
 50
89.999999999999801
 51
269.99999999999977
  0
LINE
  8
_0-4_A0
  6
CONTINUOUS
 62
    3
 10
90.489811002391789
 20
204.89415951942834
 11
84.680711002391789
 21
204.89415951893756
  0
LINE
  8
_0-4_A0
  6
CONTINUOUS
 62
    3
 10
90.489811002399861
 20
204.70325951942834
 11
84.680711002391789
 21
204.70325951893756
  0
ARC
  8
_0-4_A0
  6
CONTINUOUS
 62
    3
 10
90.489811002391789
 20
204.79870951943644
 40
0.0954500000080597
 50
269.99999999999977
 51
89.999999999999744
  0
ARC
  8
_0-4_A0
  6
CONTINUOUS
 62
    3
 10
84.680711002391789
 20
204.79870951892946
 40
0.0954500000080699
 50
89.999999999999801
 51
269.99999999999977
  0
LINE
  8
_0-4_A0
  6
CENTER
 62
    3
 10
172.76982180905441
 20
153.95831785145666
 11
212.21872275744931
 21
153.95831785093523
  0
LINE
  8
_0-4_A0
  6
CENTER
 62
    3
 10
219.21872275744931
 20
153.95831785084275
 11
316.75290810621993
 21
153.95831784955385
  0
INSERT
  2
-019-_D20
  8
_0-4_A0
 10
-3.3222230146628817
 20
-0.4798102926178557
 41
1
 42
1
 50
0
  0
INSERT
  2
-020-_D21
  8
_0-4_A0
 10
-3.3222230146628817
 20
-0.4798102926178557
 41
1
 42
1
 50
0
  0
CIRCLE
  8
_0-4_A0
  6
CONTINUOUS
 62
    3
 10
117.52526100222764
 20
230.51831784635974
 40
0.4699999999999999
  0
LINE
  8
_0-4_A0
  6
CONTINUOUS
 62
    3
 10
117.73526100222763
 20
230.57831784635974
 11
117.73526100222763
 21
230.45831784635973
  0
LINE
  8
_0-4_A0
  6
CONTINUOUS
 62
    3
 10
117.31526100222763
 20
230.57831784635974
 11
117.31526100222763
 21
230.45831784635973
  0
LINE
  8
_0-4_A0
  6
CONTINUOUS
 62
    3
 10
117.46526100222763
 20
230.72831784635974
 11
117.58526100222764
 21
230.72831784635974
  0
LINE
  8
_0-4_A0
  6
CONTINUOUS
 62
    3
 10
117.46526100222763
 20
230.30831784635976
 11
117.58526100222764
 21
230.30831784635976
  0
LINE
  8
_0-4_A0
  6
CONTINUOUS
 62
    3
 10
117.58526100222764
 20
230.35831784635974
 11
117.58526100222764
 21
230.30831784635976
  0
LINE
  8
_0-4_A0
  6
CONTINUOUS
 62
    3
 10
117.58526100222764
 20
230.72831784635974
 11
117.58526100222764
 21
230.67831784635973
  0
LINE
  8
_0-4_A0
  6
CONTINUOUS
 62
    3
 10
117.31526100222763
 20
230.57831784635974
 11
117.36526100222763
 21
230.57831784635974
  0
LINE
  8
_0-4_A0
  6
CONTINUOUS
 62
    3
 10
117.68526100222763
 20
230.57831784635974
 11
117.73526100222763
 21
230.57831784635974
  0
LINE
  8
_0-4_A0
  6
CONTINUOUS
 62
    3
 10
117.31526100222763
 20
230.45831784635973
 11
117.36526100222763
 21
230.45831784635973
  0
LINE
  8
_0-4_A0
  6
CONTINUOUS
 62
    3
 10
117.68526100222763
 20
230.45831784635973
 11
117.73526100222763
 21
230.45831784635973
  0
LINE
  8
_0-4_A0
  6
CONTINUOUS
 62
    3
 10
117.46526100222763
 20
230.35831784635974
 11
117.46526100222763
 21
230.30831784635976
  0
LINE
  8
_0-4_A0
  6
CONTINUOUS
 62
    3
 10
117.46526100222763
 20
230.72831784635974
 11
117.46526100222763
 21
230.67831784635973
  0
ARC
  8
_0-4_A0
  6
CONTINUOUS
 62
    3
 10
117.68526100222763
 20
230.67831784635973
 40
0.1
 50
179.99999999999639
 51
269.99999999999483
  0
ARC
  8
_0-4_A0
  6
CONTINUOUS
 62
    3
 10
117.68526100222763
 20
230.35831784635974
 40
0.1
 50
89.999999999425526
 51
179.99999999999639
  0
ARC
  8
_0-4_A0
  6
CONTINUOUS
 62
    3
 10
117.36526100222763
 20
230.35831784635974
 40
0.1
 50
0
 51
89.999999999425526
  0
ARC
  8
_0-4_A0
  6
CONTINUOUS
 62
    3
 10
117.36526100222763
 20
230.67831784635973
 40
0.1
 50
269.99999999999488
 51
359.99999999999346
  0
INSERT
  2
-021-_D22
  8
_0-4_A0
 10
-3.3222230146628817
 20
-0.4798102926178557
 41
1
 42
1
 50
0
  0
LINE
  8
_0-4_A0
  6
CENTER
 62
    3
 10
115.71927938981183
 20
230.51831784635974
 11
119.33124261464343
 21
230.51831784635974
  0
LINE
  8
_0-4_A0
  6
CENTER
 62
    3
 10
117.52526100222764
 20
228.71233623394394
 11
117.52526100222764
 21
232.32429945877556
  0
CIRCLE
  8
_0-4_A0
  6
PHANTOM
 62
    3
 10
62.22916588054585
 20
122.56506286165575
 40
10.644284385536119
  0
CIRCLE
  8
_0-4_A0
  6
PHANTOM
 62
    3
 10
47.654777385617024
 20
94.150356281321322
 40
10.644284385536119
  0
LINE
  8
_0-4_A0
  6
CONTINUOUS
 62
    6
 10
56.702716402521901
 20
88.543611269593171
 11
41.860872506515307
 21
88.543611272101543
  0
LINE
  8
_0-4_A0
  6
CONTINUOUS
 62
    6
 10
57.048035311763783
 20
89.143611269534802
 11
43.36087251162968
 21
89.14361127184803
  0
LINE
  8
_0-4_A0
  6
CONTINUOUS
 62
    6
 10
41.810872506523765
 20
88.593611272109996
 11
41.81087250896644
 21
103.04696045779384
  0
LINE
  8
_0-4_A0
  6
CONTINUOUS
 62
    3
 10
41.960872511923043
 20
88.54361127591946
 11
41.960872513156801
 21
103.14370034143275
  0
LINE
  8
_0-4_A0
  6
CONTINUOUS
 62
    3
 10
44.960872512321316
 20
93.256393514577411
 11
44.960872513267077
 21
104.44810684243404
  0
LINE
  8
_0-4_A0
  6
CONTINUOUS
 62
    3
 10
58.225187490546148
 20
92.898469587654446
 11
44.960872512317735
 21
92.898469589896209
  0
LINE
  8
_0-4_A0
  6
CONTINUOUS
 62
    3
 10
58.26631456980968
 20
93.316048982620856
 11
44.960872512331377
 21
93.316048984869568
  0
ARC
  8
_0-4_A0
  6
CONTINUOUS
 62
    6
 10
41.860872506523776
 20
88.593611272101555
 40
0.05
 50
179.99999999032016
 51
269.99999999031871
  0
LINE
  8
_0-4_A0
  6
CONTINUOUS
 62
    6
 10
41.810872506525413
 20
88.603611272110001
 11
43.4508725065254
 21
88.603611271832833
  0
LINE
  8
_0-4_A0
  6
CONTINUOUS
 62
    6
 10
43.510872506616693
 20
89.143611271822678
 11
43.45087250661669
 21
89.143611271832825
  0
LINE
  8
_0-4_A0
  6
DASHED
 62
    6
 10
43.460872507182842
 20
92.493611271831099
 11
43.460872507149077
 21
92.293611271831111
  0
LINE
  8
_0-4_A0
  6
CONTINUOUS
 62
    6
 10
44.060872507179475
 20
92.473611265896764
 11
44.060872507179475
 21
92.473611265896764
  0
LINE
  8
_0-4_A0
  6
CONTINUOUS
 62
    6
 10
44.060872507179475
 20
92.473611265896764
 11
44.054795602529381
 21
92.461455893549726
  0
LINE
  8
_0-4_A0
  6
CONTINUOUS
 62
    6
 10
44.054795602529381
 20
92.461455893549726
 11
44.036749543961783
 21
92.449669856219813
  0
LINE
  8
_0-4_A0
  6
CONTINUOUS
 62
    6
 10
44.036749543961783
 20
92.449669856219813
 11
44.007282651834508
 21
92.438611266687289
  0
LINE
  8
_0-4_A0
  6
CONTINUOUS
 62
    6
 10
44.007282651834508
 20
92.438611266687289
 11
43.967290262753892
 21
92.428616134599181
  0
LINE
  8
_0-4_A0
  6
CONTINUOUS
 62
    6
 10
43.967290262753892
 20
92.428616134599181
 11
43.917987525225001
 21
92.419988156986193
  0
LINE
  8
_0-4_A0
  6
CONTINUOUS
 62
    6
 10
43.917987525225001
 20
92.419988156986193
 11
43.860872477979285
 21
92.412989490582135
  0
LINE
  8
_0-4_A0
  6
CONTINUOUS
 62
    6
 10
43.860872477979285
 20
92.412989490582135
 11
43.79768053282568
 21
92.407832786324207
  0
LINE
  8
_0-4_A0
  6
CONTINUOUS
 62
    6
 10
43.79768053282568
 20
92.407832786324207
 11
43.730331745041013
 21
92.404674728061849
  0
LINE
  8
_0-4_A0
  6
CONTINUOUS
 62
    6
 10
43.730331745041013
 20
92.404674728061849
 11
43.660872473462
 21
92.403611271797331
  0
LINE
  8
_0-4_A0
  6
CONTINUOUS
 62
    6
 10
43.660872473462
 20
92.403611271797331
 11
43.591413202907468
 21
92.404674730111097
  0
LINE
  8
_0-4_A0
  6
CONTINUOUS
 62
    6
 10
43.591413202907468
 20
92.404674730111097
 11
43.524064418165146
 21
92.407832790360416
  0
LINE
  8
_0-4_A0
  6
CONTINUOUS
 62
    6
 10
43.524064418165146
 20
92.407832790360416
 11
43.460872477979287
 21
92.412989496482695
  0
LINE
  8
_0-4_A0
  6
CONTINUOUS
 62
    6
 10
43.460872477979287
 20
92.412989496482695
 11
43.403757437475775
 21
92.419988164571805
  0
LINE
  8
_0-4_A0
  6
CONTINUOUS
 62
    6
 10
43.403757437475775
 20
92.419988164571805
 11
43.354454708258707
 21
92.42861614363936
  0
LINE
  8
_0-4_A0
  6
CONTINUOUS
 62
    6
 10
43.354454708258707
 20
92.42861614363936
 11
43.314462328806961
 21
92.438611276907352
  0
LINE
  8
_0-4_A0
  6
CONTINUOUS
 62
    6
 10
43.314462328806961
 20
92.438611276907352
 11
43.28499544733306
 21
92.44966986730924
  0
LINE
  8
_0-4_A0
  6
CONTINUOUS
 62
    6
 10
43.28499544733306
 20
92.44966986730924
 11
43.266949400119614
 21
92.461455905171562
  0
LINE
  8
_0-4_A0
  6
CONTINUOUS
 62
    6
 10
43.266949400119614
 20
92.461455905171562
 11
43.260872507179478
 21
92.473611277697884
  0
LINE
  8
_0-4_A0
  6
CONTINUOUS
 62
    6
 10
43.260872507179478
 20
92.473611277697884
 11
43.266949411829572
 21
92.485766650044923
  0
LINE
  8
_0-4_A0
  6
CONTINUOUS
 62
    6
 10
43.266949411829572
 20
92.485766650044923
 11
43.28499547039717
 21
92.497552687374835
  0
LINE
  8
_0-4_A0
  6
CONTINUOUS
 62
    6
 10
43.28499547039717
 20
92.497552687374835
 11
43.314462362524438
 21
92.508611276907359
  0
LINE
  8
_0-4_A0
  6
CONTINUOUS
 62
    6
 10
43.314462362524438
 20
92.508611276907359
 11
43.354454751605061
 21
92.518606408995467
  0
LINE
  8
_0-4_A0
  6
CONTINUOUS
 62
    6
 10
43.354454751605061
 20
92.518606408995467
 11
43.403757489133952
 21
92.527234386608455
  0
LINE
  8
_0-4_A0
  6
CONTINUOUS
 62
    6
 10
43.403757489133952
 20
92.527234386608455
 11
43.460872536379668
 21
92.534233053012514
  0
LINE
  8
_0-4_A0
  6
CONTINUOUS
 62
    6
 10
43.460872536379668
 20
92.534233053012514
 11
43.524064481533273
 21
92.539389757270442
  0
LINE
  8
_0-4_A0
  6
CONTINUOUS
 62
    6
 10
43.524064481533273
 20
92.539389757270442
 11
43.59141326931794
 21
92.542547815532799
  0
LINE
  8
_0-4_A0
  6
CONTINUOUS
 62
    6
 10
43.59141326931794
 20
92.542547815532799
 11
43.660872507179484
 21
92.543611271797317
  0
LINE
  8
_0-4_A0
  6
CONTINUOUS
 62
    6
 10
43.66087250716086
 20
92.293611271797317
 11
43.66087250716086
 21
92.293611271797317
  0
LINE
  8
_0-4_A0
  6
CONTINUOUS
 62
    6
 10
43.66087250716086
 20
92.293611271797317
 11
43.730331778227637
 21
92.294674729086452
  0
LINE
  8
_0-4_A0
  6
CONTINUOUS
 62
    6
 10
43.730331778227637
 20
92.294674729086452
 11
43.797680564491131
 21
92.297832788342291
  0
LINE
  8
_0-4_A0
  6
CONTINUOUS
 62
    6
 10
43.797680564491131
 20
92.297832788342291
 11
43.860872507160863
 21
92.302989493532394
  0
LINE
  8
_0-4_A0
  6
CONTINUOUS
 62
    6
 10
43.860872507160863
 20
92.302989493532394
 11
43.91798755103548
 21
92.309988160778985
  0
LINE
  8
_0-4_A0
  6
CONTINUOUS
 62
    6
 10
43.91798755103548
 20
92.309988160778985
 11
43.967290284408456
 21
92.318616139119257
  0
LINE
  8
_0-4_A0
  6
CONTINUOUS
 62
    6
 10
43.967290284408456
 20
92.318616139119257
 11
44.007282668674634
 21
92.328611271797314
  0
LINE
  8
_0-4_A0
  6
CONTINUOUS
 62
    6
 10
44.007282668674634
 20
92.328611271797314
 11
44.036749555475225
 21
92.33966986176452
  0
LINE
  8
_0-4_A0
  6
CONTINUOUS
 62
    6
 10
44.036749555475225
 20
92.33966986176452
 11
44.054795608365744
 21
92.35145589936063
  0
LINE
  8
_0-4_A0
  6
CONTINUOUS
 62
    6
 10
44.054795608365744
 20
92.35145589936063
 11
44.060872507160859
 21
92.363611271797311
  0
LINE
  8
_0-4_A0
  6
CONTINUOUS
 62
    6
 10
43.660872507143942
 20
92.193611271797309
 11
43.660872507143942
 21
92.193611271797309
  0
LINE
  8
_0-4_A0
  6
CONTINUOUS
 62
    6
 10
43.660872507143942
 20
92.193611271797309
 11
43.730331778210719
 21
92.194674729086444
  0
LINE
  8
_0-4_A0
  6
CONTINUOUS
 62
    6
 10
43.730331778210719
 20
92.194674729086444
 11
43.797680564474213
 21
92.197832788342282
  0
LINE
  8
_0-4_A0
  6
CONTINUOUS
 62
    6
 10
43.797680564474213
 20
92.197832788342282
 11
43.860872507143945
 21
92.202989493532385
  0
LINE
  8
_0-4_A0
  6
CONTINUOUS
 62
    6
 10
43.860872507143945
 20
92.202989493532385
 11
43.917987551018562
 21
92.209988160778977
  0
LINE
  8
_0-4_A0
  6
CONTINUOUS
 62
    6
 10
43.917987551018562
 20
92.209988160778977
 11
43.967290284391538
 21
92.218616139119248
  0
LINE
  8
_0-4_A0
  6
CONTINUOUS
 62
    6
 10
43.967290284391538
 20
92.218616139119248
 11
44.007282668657723
 21
92.228611271797305
  0
LINE
  8
_0-4_A0
  6
CONTINUOUS
 62
    6
 10
44.007282668657723
 20
92.228611271797305
 11
44.036749555458314
 21
92.239669861764511
  0
LINE
  8
_0-4_A0
  6
CONTINUOUS
 62
    6
 10
44.036749555458314
 20
92.239669861764511
 11
44.054795608348833
 21
92.251455899360622
  0
LINE
  8
_0-4_A0
  6
CONTINUOUS
 62
    6
 10
44.054795608348833
 20
92.251455899360622
 11
44.060872507143948
 21
92.263611265896742
  0
LINE
  8
_0-4_A0
  6
CONTINUOUS
 62
    6
 10
43.660872524517913
 20
92.543611271797303
 11
43.560872507191306
 21
92.5436112718142
  0
LINE
  8
_0-4_A0
  6
DASHED
 62
    6
 10
43.460872507191254
 20
92.543611271831111
 11
43.460872507182842
 21
92.493611271831099
  0
LINE
  8
_0-4_A0
  6
CONTINUOUS
 62
    6
 10
44.060872507143955
 20
92.263611271729573
 11
44.060872507179454
 21
92.473611271729624
  0
LINE
  8
_0-4_A0
  6
CONTINUOUS
 62
    6
 10
43.560872507182864
 20
92.493611271814203
 11
43.510872507182853
 21
92.493611271822658
  0
LINE
  8
_0-4_A0
  6
DASHED
 62
    6
 10
43.510872507182853
 20
92.493611271822658
 11
43.460872507182842
 21
92.493611271831099
  0
LINE
  8
_0-4_A0
  6
CONTINUOUS
 62
    6
 10
43.660872523249992
 20
92.293611271797303
 11
43.510872507149031
 21
92.293611271822655
  0
LINE
  8
_0-4_A0
  6
DASHED
 62
    6
 10
43.510872507149088
 20
92.293611271822655
 11
43.460872507149077
 21
92.293611271831111
  0
LINE
  8
_0-4_A0
  6
CONTINUOUS
 62
    6
 10
43.660872523233081
 20
92.193611271797309
 11
43.510872507132206
 21
92.193611271822647
  0
LINE
  8
_0-4_A0
  6
DASHED
 62
    6
 10
43.510872507132149
 20
92.193611271822647
 11
43.460872507132137
 21
92.193611271831102
  0
ARC
  8
_0-4_A0
  6
CONTINUOUS
 62
    3
 10
49.310872506511913
 20
88.523611270842451
 40
0.1
 50
179.99999999032329
 51
269.99999999032133
  0
LINE
  8
_0-4_A0
  6
CONTINUOUS
 62
    3
 10
49.210872506515273
 20
88.543611270859344
 11
49.210872506511919
 21
88.523611270859362
  0
LINE
  8
_0-4_A0
  6
CONTINUOUS
 62
    3
 10
49.810872506495002
 20
88.423611270757959
 11
49.310872506495002
 21
88.423611270842457
  0
LINE
  8
_0-4_A0
  6
CONTINUOUS
 62
    3
 10
49.810872506495002
 20
88.423611270757959
 11
50.310872506495002
 21
88.423611270673447
  0
ARC
  8
_0-4_A0
  6
CONTINUOUS
 62
    3
 10
50.310872506511913
 20
88.523611270673442
 40
0.1
 50
269.99999999031849
 51
359.99999999031661
  0
LINE
  8
_0-4_A0
  6
CONTINUOUS
 62
    3
 10
50.41087250651529
 20
88.543611270656527
 11
50.410872506511907
 21
88.523611270656545
  0
LINE
  8
_1-3_A50
  6
CONTINUOUS
 62
    3
 10
43.430872506601702
 20
88.565209230410716
 11
41.990872506601704
 21
88.565209230532247
  0
ARC
  8
_1-3_A50
  6
CONTINUOUS
 62
    3
 10
41.990872506604262
 20
88.595209230532262
 40
0.0299999999999999
 50
179.9999999951649
 51
269.9999999951649
  0
ARC
  8
_1-3_A50
  6
CONTINUOUS
 62
    3
 10
43.43087250660426
 20
88.595209230410745
 40
0.0299999999999999
 50
269.9999999951649
 51
359.99999999516461
  0
LINE
  8
_0-4_A0
  6
CONTINUOUS
 62
    3
 10
43.560872507212537
 20
92.669032246597624
 11
43.560872507182864
 21
92.493611271814203
  0
LINE
  8
_1-1_A30
  6
CONTINUOUS
 62
    3
 10
43.41087251157893
 20
88.543611276831101
 11
42.010872511578924
 21
88.543611276949662
  0
LINE
  8
_1-1_A30
  6
CONTINUOUS
 62
    3
 10
43.460872511621233
 20
89.04361127682688
 11
43.460872511583148
 21
88.593611276826877
  0
LINE
  8
_1-1_A30
  6
CONTINUOUS
 62
    3
 10
43.460872511621261
 20
89.043611276826866
 11
43.410872511621278
 21
89.043611276831101
  0
LINE
  8
_1-1_A30
  6
CONTINUOUS
 62
    3
 10
43.41087251162125
 20
89.043611276831101
 11
43.410872511583136
 21
88.593611276831098
  0
LINE
  8
_1-1_A30
  6
CONTINUOUS
 62
    3
 10
43.360872511629736
 20
89.143611276835315
 11
43.360872511583125
 21
88.593611276835318
  0
LINE
  8
_1-1_A30
  6
CONTINUOUS
 62
    3
 10
43.460872511638172
 20
89.243611276826854
 11
43.36087251162968
 21
89.143611276835315
  0
LINE
  8
_1-1_A30
  6
CONTINUOUS
 62
    3
 10
43.410872511583136
 20
88.593611276831098
 11
43.360872511583125
 21
88.593611276835333
  0
LINE
  8
_1-1_A30
  6
CONTINUOUS
 62
    3
 10
43.360872511583153
 20
88.593611276835333
 11
41.960872511583148
 21
88.593611276953908
  0
ARC
  8
_1-1_A30
  6
CONTINUOUS
 62
    3
 10
43.410872511583136
 20
88.593611276831098
 40
0.05
 50
269.99999999517132
 51
359.99999999574209
  0
ARC
  8
_1-1_A30
  6
CONTINUOUS
 62
    3
 10
42.010872511583102
 20
88.593611276949659
 40
0.05
 50
179.99999999517442
 51
269.99999999517138
  0
LINE
  8
_1-1_A30
  6
CONTINUOUS
 62
    3
 10
41.960872512102725
 20
94.727998677434726
 11
41.960872512170482
 21
95.527998677502183
  0
LINE
  8
_0-4_A0
  6
CONTINUOUS
 62
    3
 10
43.460872512260835
 20
92.540528268354848
 11
43.460872511982245
 21
89.243611277170942
  0
LINE
  8
_0-4_A0
  6
CONTINUOUS
 62
    3
 10
44.960872512260835
 20
93.256397856768558
 11
44.960872512260835
 21
93.256397856768558
  0
LINE
  8
_0-4_A0
  6
CONTINUOUS
 62
    3
 10
44.960872512260835
 20
93.256397856768558
 11
44.439927979260041
 21
93.245522182917412
  0
LINE
  8
_0-4_A0
  6
CONTINUOUS
 62
    3
 10
44.439927979260041
 20
93.245522182917412
 11
43.934812082283827
 21
93.213225613210568
  0
LINE
  8
_0-4_A0
  6
CONTINUOUS
 62
    3
 10
43.934812082283827
 20
93.213225613210568
 11
43.460872512260835
 21
93.160489462575725
  0
LINE
  8
_0-4_A0
  6
CONTINUOUS
 62
    3
 10
43.460872512260835
 20
93.160489462575725
 11
43.032509683201212
 21
93.088916092264142
  0
LINE
  8
_0-4_A0
  6
CONTINUOUS
 62
    3
 10
43.032509683201212
 20
93.088916092264142
 11
42.662739182903898
 21
93.000680222914866
  0
LINE
  8
_0-4_A0
  6
CONTINUOUS
 62
    3
 10
42.662739182903898
 20
93.000680222914866
 11
42.362796300907519
 21
92.89846285676856
  0
LINE
  8
_0-4_A0
  6
CONTINUOUS
 62
    3
 10
42.362796300907519
 20
92.89846285676856
 11
42.141794649903112
 21
92.785369816771109
  0
LINE
  8
_0-4_A0
  6
CONTINUOUS
 62
    3
 10
42.141794649903112
 20
92.785369816771109
 11
42.006449253224211
 21
92.664837377714989
  0
LINE
  8
_0-4_A0
  6
CONTINUOUS
 62
    3
 10
42.006449253224211
 20
92.664837377714989
 11
41.960872512260835
 21
92.540527856768563
  0
LINE
  8
_0-4_A0
  6
CONTINUOUS
 62
    3
 10
44.960872512260828
 20
92.898467856768562
 11
44.960872512260828
 21
92.898467856768562
  0
LINE
  8
_0-4_A0
  6
CONTINUOUS
 62
    3
 10
44.960872512260828
 20
92.898467856768562
 11
44.700400245760434
 21
92.893029943881757
  0
LINE
  8
_0-4_A0
  6
CONTINUOUS
 62
    3
 10
44.700400245760434
 20
92.893029943881757
 11
44.447842297272324
 21
92.876881433452667
  0
LINE
  8
_0-4_A0
  6
CONTINUOUS
 62
    3
 10
44.447842297272324
 20
92.876881433452667
 11
44.210872512260828
 21
92.850512989799171
  0
LINE
  8
_0-4_A0
  6
CONTINUOUS
 62
    3
 10
44.210872512260828
 20
92.850512989799171
 11
43.996691097731023
 21
92.814725804738572
  0
LINE
  8
_0-4_A0
  6
CONTINUOUS
 62
    3
 10
43.996691097731023
 20
92.814725804738572
 11
43.811805847582363
 21
92.770607253779758
  0
LINE
  8
_0-4_A0
  6
CONTINUOUS
 62
    3
 10
43.811805847582363
 20
92.770607253779758
 11
43.661834406584177
 21
92.719497856768555
  0
LINE
  8
_0-4_A0
  6
CONTINUOUS
 62
    3
 10
43.661834406584177
 20
92.719497856768555
 11
43.55133358108197
 21
92.662950546870547
  0
LINE
  8
_0-4_A0
  6
CONTINUOUS
 62
    3
 10
43.55133358108197
 20
92.662950546870547
 11
43.48366088274252
 21
92.602683485482657
  0
LINE
  8
_0-4_A0
  6
CONTINUOUS
 62
    3
 10
43.48366088274252
 20
92.602683485482657
 11
43.460872512260835
 21
92.540527856768563
  0
POINT
  8
_0-4_A0
 62
    7
 10
46.460872512482013
 20
95.158274104067615
  0
LINE
  8
_0-4_A0
  6
CONTINUOUS
 62
    3
 10
46.660872512482001
 20
95.158274104067615
 11
50.860872512482047
 21
95.158274104067615
  0
LINE
  8
_0-4_A0
  6
CONTINUOUS
 62
    3
 10
46.660872512482001
 20
96.158274104067615
 11
50.860872512482047
 21
96.158274104067615
  0
LINE
  8
_0-4_A0
  6
CONTINUOUS
 62
    3
 10
51.060872512482035
 20
95.958274104067613
 11
51.060872512482035
 21
95.358274104067618
  0
LINE
  8
_0-4_A0
  6
CONTINUOUS
 62
    3
 10
46.460872512482013
 20
95.958274104067613
 11
46.460872512482013
 21
95.358274104067618
  0
ARC
  8
_0-4_A0
  6
CONTINUOUS
 62
    3
 10
46.660872512482001
 20
95.958274104067613
 40
0.2
 50
90
 51
180
  0
ARC
  8
_0-4_A0
  6
CONTINUOUS
 62
    3
 10
46.660872512482001
 20
95.358274104067618
 40
0.2
 50
180
 51
270
  0
ARC
  8
_0-4_A0
  6
CONTINUOUS
 62
    3
 10
50.860872512482047
 20
95.358274104067618
 40
0.2
 50
270
 51
0
  0
ARC
  8
_0-4_A0
  6
CONTINUOUS
 62
    3
 10
50.860872512482047
 20
95.958274104067613
 40
0.2
 50
0
 51
90
  0
LINE
  8
_0-6_A2
  6
CONTINUOUS
 62
    7
 10
47.735183523186123
 20
95.912054552688403
 11
47.871026120603176
 21
95.912054552688403
  0
LINE
  8
_0-6_A2
  6
CONTINUOUS
 62
    7
 10
48.163588098814841
 20
95.912054552688403
 11
48.245683008109694
 21
95.912054552688403
  0
LINE
  8
_0-6_A2
  6
CONTINUOUS
 62
    7
 10
48.836987483905091
 20
95.420196088833322
 11
48.971794558947153
 21
95.420196088833322
  0
LINE
  8
_0-6_A2
  6
CONTINUOUS
 62
    7
 10
48.971794558947153
 20
95.420196088833322
 11
48.971794558947153
 21
95.912054552688403
  0
LINE
  8
_0-6_A2
  6
CONTINUOUS
 62
    7
 10
48.971794558947153
 20
95.912054552688403
 11
48.836987483905091
 21
95.912054552688403
  0
LINE
  8
_0-6_A2
  6
CONTINUOUS
 62
    7
 10
48.836987483905091
 20
95.912054552688403
 11
48.836987483905091
 21
95.420196088833322
  0
LINE
  8
_0-6_A2
  6
CONTINUOUS
 62
    7
 10
48.311773796793148
 20
95.463448310322974
 11
48.311773796793148
 21
95.406642975957681
  0
LINE
  8
_0-6_A2
  6
CONTINUOUS
 62
    7
 10
48.683340424613618
 20
95.912054552688403
 11
48.547514134635549
 21
95.912054552688403
  0
LINE
  8
_0-6_A2
  6
CONTINUOUS
 62
    7
 10
47.63673388334189
 20
95.84833812551031
 11
47.63673388334189
 21
95.912054552688403
  0
LINE
  8
_0-6_A2
  6
CONTINUOUS
 62
    7
 10
47.63673388334189
 20
95.912054552688403
 11
47.146427900102765
 21
95.912054552688403
  0
LINE
  8
_0-6_A2
  6
CONTINUOUS
 62
    7
 10
47.146427900102765
 20
95.912054552688403
 11
47.146427900102765
 21
95.699286498757033
  0
LINE
  8
_0-6_A2
  6
CONTINUOUS
 62
    7
 10
47.146427900102765
 20
95.699286498757033
 11
47.23586441842474
 21
95.699286498757033
  0
LINE
  8
_0-6_A2
  6
CONTINUOUS
 62
    7
 10
47.23586441842474
 20
95.699286498757033
 11
47.23586441842474
 21
95.638260799078012
  0
LINE
  8
_0-6_A2
  6
CONTINUOUS
 62
    7
 10
47.23586441842474
 20
95.638260799078012
 11
47.146427900102765
 21
95.638260799078012
  0
LINE
  8
_0-6_A2
  6
CONTINUOUS
 62
    7
 10
47.146427900102765
 20
95.638260799078012
 11
47.146427900102765
 21
95.418094059896163
  0
LINE
  8
_0-6_A2
  6
CONTINUOUS
 62
    7
 10
47.146427900102765
 20
95.418094059896163
 11
47.287955270746977
 21
95.418094059896163
  0
LINE
  8
_0-6_A2
  6
CONTINUOUS
 62
    7
 10
47.287955270746977
 20
95.418094059896163
 11
47.287955270746977
 21
95.638260799078012
  0
LINE
  8
_0-6_A2
  6
CONTINUOUS
 62
    7
 10
47.287955270746977
 20
95.638260799078012
 11
47.580804259884644
 21
95.638260799078012
  0
LINE
  8
_0-6_A2
  6
CONTINUOUS
 62
    7
 10
47.580804259884644
 20
95.638260799078012
 11
47.580804259884644
 21
95.699286498757033
  0
LINE
  8
_0-6_A2
  6
CONTINUOUS
 62
    7
 10
47.580804259884644
 20
95.699286498757033
 11
47.287955270746977
 21
95.699286498757033
  0
LINE
  8
_0-6_A2
  6
CONTINUOUS
 62
    7
 10
47.287955270746977
 20
95.699286498757033
 11
47.287955270746977
 21
95.84833812551031
  0
LINE
  8
_0-6_A2
  6
CONTINUOUS
 62
    7
 10
47.287955270746977
 20
95.84833812551031
 11
47.63673388334189
 21
95.84833812551031
  0
LINE
  8
_0-6_A2
  6
CONTINUOUS
 62
    7
 10
50.810872512482888
 20
95.699286498757033
 11
50.454338081910805
 21
95.699286498757033
  0
LINE
  8
_0-6_A2
  6
CONTINUOUS
 62
    7
 10
50.454338081910805
 20
95.699286498757033
 11
50.454338081910805
 21
95.638260799078012
  0
LINE
  8
_0-6_A2
  6
CONTINUOUS
 62
    7
 10
50.454338081910805
 20
95.638260799078012
 11
50.810872512482888
 21
95.638260799078012
  0
LINE
  8
_0-6_A2
  6
CONTINUOUS
 62
    7
 10
50.810872512482888
 20
95.638260799078012
 11
50.810872512482888
 21
95.699286498757033
  0
LINE
  8
_0-6_A2
  6
CONTINUOUS
 62
    7
 10
47.067423250493903
 20
95.699286498757033
 11
46.710872512482865
 21
95.699286498757033
  0
LINE
  8
_0-6_A2
  6
CONTINUOUS
 62
    7
 10
46.710872512482865
 20
95.699286498757033
 11
46.710872512482865
 21
95.638260799078012
  0
LINE
  8
_0-6_A2
  6
CONTINUOUS
 62
    7
 10
46.710872512482865
 20
95.638260799078012
 11
47.067423250493903
 21
95.638260799078012
  0
LINE
  8
_0-6_A2
  6
CONTINUOUS
 62
    7
 10
47.067423250493903
 20
95.638260799078012
 11
47.067423250493903
 21
95.699286498757033
  0
LINE
  8
_0-6_A2
  6
CONTINUOUS
 62
    7
 10
50.375333432302
 20
95.699286498757033
 11
50.375333432302
 21
95.912054552688403
  0
LINE
  8
_0-6_A2
  6
CONTINUOUS
 62
    7
 10
50.375333432302
 20
95.912054552688403
 11
50.233806061657759
 21
95.912054552688403
  0
LINE
  8
_0-6_A2
  6
CONTINUOUS
 62
    7
 10
50.233806061657759
 20
95.912054552688403
 11
50.233806061657759
 21
95.699286498757033
  0
LINE
  8
_0-6_A2
  6
CONTINUOUS
 62
    7
 10
50.233806061657759
 20
95.699286498757033
 11
49.972647318682903
 21
95.699286498757033
  0
LINE
  8
_0-6_A2
  6
CONTINUOUS
 62
    7
 10
49.972647318682903
 20
95.699286498757033
 11
49.972647318682903
 21
95.912054552688403
  0
LINE
  8
_0-6_A2
  6
CONTINUOUS
 62
    7
 10
49.972647318682903
 20
95.912054552688403
 11
49.837044440618797
 21
95.912054552688403
  0
LINE
  8
_0-6_A2
  6
CONTINUOUS
 62
    7
 10
49.837044440618797
 20
95.912054552688403
 11
49.837044440618797
 21
95.420196088833322
  0
LINE
  8
_0-6_A2
  6
CONTINUOUS
 62
    7
 10
49.837044440618797
 20
95.420196088833322
 11
49.972647318682903
 21
95.420196088833322
  0
LINE
  8
_0-6_A2
  6
CONTINUOUS
 62
    7
 10
49.972647318682903
 20
95.420196088833322
 11
49.972647318682903
 21
95.638260799078012
  0
LINE
  8
_0-6_A2
  6
CONTINUOUS
 62
    7
 10
49.972647318682903
 20
95.638260799078012
 11
50.233806061657759
 21
95.638260799078012
  0
LINE
  8
_0-6_A2
  6
CONTINUOUS
 62
    7
 10
50.233806061657759
 20
95.638260799078012
 11
50.233806061657759
 21
95.420196088833322
  0
LINE
  8
_0-6_A2
  6
CONTINUOUS
 62
    7
 10
50.233806061657759
 20
95.420196088833322
 11
50.375333432302
 21
95.420196088833322
  0
LINE
  8
_0-6_A2
  6
CONTINUOUS
 62
    7
 10
50.375333432302
 20
95.420196088833322
 11
50.375333432302
 21
95.638260799078012
  0
LINE
  8
_0-6_A2
  6
CONTINUOUS
 62
    7
 10
50.375333432302
 20
95.638260799078012
 11
50.285896913979968
 21
95.638260799078012
  0
LINE
  8
_0-6_A2
  6
CONTINUOUS
 62
    7
 10
50.285896913979968
 20
95.638260799078012
 11
50.285896913979968
 21
95.699286498757033
  0
LINE
  8
_0-6_A2
  6
CONTINUOUS
 62
    7
 10
50.285896913979968
 20
95.699286498757033
 11
50.375333432302
 21
95.699286498757033
  0
POINT
  8
_0-4_A0
 62
    7
 10
46.460872512482013
 20
95.158274104067615
  0
TEXT
  8
_0-1_H0
 62
    7
 10
303.37777698533711
 20
282.54018970738213
 40
2.96
 41
1
 50
0
  1
ÄÕü@ùvü@ü@òöü@òiü@êÛü@ùùü@ò\
  0
TEXT
  8
_0-1_H0
 62
    7
 10
268.62273699514895
 20
277.180208580895
 40
3.5600000000000001
 41
1
 50
0
  1
òiöÈ
  0
TEXT
  8
_0-1_H0
 62
    7
 10
288.65777698533702
 20
277.18018970738217
 40
3.6800000000000002
 41
1
 50
0
  1
òöòiû╝
  0
TEXT
  8
_0-1_H0
 62
    7
 10
325.49777698533711
 20
277.18018970738217
 40
3.6800000000000002
 41
1
 50
0
  1
ìÌÄ┐
  0
TEXT
  8
_0-1_H0
 62
    7
 10
354.23777698533712
 20
277.16018970738213
 40
3.7200000000000002
 41
1
 50
0
  1
ò\û╩ÅêùØ
  0
TEXT
  8
_0-1_H0
 62
    7
 10
387.99777698533717
 20
277.18018970738217
 40
3.6800000000000002
 41
1
 50
0
  1
ÉFÆ▓
  0
TEXT
  8
_0-1_H0
 62
    7
 10
286.04027698533702
 20
272.39268970738215
 40
3.2550000000000003
 41
1
 50
0
  1
û{ü@ü@ü@æ╠
  0
TEXT
  8
_0-1_H0
 62
    7
 10
286.04027698533702
 20
267.39268970738215
 40
3.2550000000000003
 41
1
 50
0
  1
æOü@ü@ü@ö┬
  0
TEXT
  8
_0-1_H0
 62
    7
 10
318.25777698533699
 20
272.66018970738213
 40
3.3599999999999999
 41
1
 50
0
  1
êƒëöé▀é┴é½ì|ö┬
  0
TEXT
  8
_0-1_H0
 62
    7
 10
317.7992016048986
 20
267.13435496498022
 40
3.3599999999999999
 41
1
 50
0
  1
êƒëöé▀é┴é½ì|ö┬
  0
TEXT
  8
_0-1_H0
 62
    7
 10
350.15994820427505
 20
272.84830856551707
 40
2.8799999999999999
 41
1
 50
0
  1
â|âèâGâXâeâïôhæò
  0
TEXT
  8
_0-1_H0
 62
    7
 10
350.26323034768143
 20
267.4776371083866
 40
2.8799999999999999
 41
1
 50
0
  1
â|âèâGâXâeâïôhæò
  0
TEXT
  8
_0-1_H0
 62
    7
 10
382.48130908277528
 20
272.19517999189162
 40
3.3599999999999999
 41
1
 50
0
  1
ò\æÞùôé╔éµéÚ
  0
TEXT
  8
_0-1_H0
 62
    7
 10
382.27474479596253
 20
267.34091925179291
 40
3.3599999999999999
 41
1
 50
0
  1
ò\æÞùôé╔éµéÚ
  0
TEXT
  8
_0-1_H0
 62
    7
 10
267.22089415777776
 20
261.44070850400522
 40
2.5600000000000001
 41
1
 50
0
  1
ÆìüjéPüD
  0
TEXT
  8
_0-1_H0
 62
    7
 10
277.23826222197368
 20
261.55055493422429
 40
2.96
 41
1
 50
0
  1
û{É╗òié═èÀïCÉ¯ùpâtü[âhé┼èÀïCÉ¯é═ò╩ÄÞözéãéÀéÚüB
  0
TEXT
  8
_0-1_H0
 62
    7
 10
273.29771740123681
 20
255.47681192826244
 40
2.2000000000000002
 41
1
 50
0
  1
éQüD
  0
TEXT
  8
_0-1_H0
 62
    7
 10
278.43454061875269
 20
255.47690847324935
 40
2.9199999999999999
 41
1
 50
0
  1
èÀïCÉ¯é═éQéTcmé╠ïÓæ«É╗é­ÄgùpéÀéÚüB
  0
TEXT
  8
_0-1_H0
 62
    7
 10
347.65298843458697
 20
239.73798843477056
 40
3.2200000000000002
 41
1
 50
0
  1
òtü@æ«ü@òi
  0
TEXT
  8
_0-1_H0
 62
    7
 10
327.11931103066621
 20
232.84798843477054
 40
3
 41
1
 50
0
  1
ì└òté╦éÂüiâËéTüDéPü~éSéTüj
  0
TEXT
  8
_0-1_H0
 62
    7
 10
381.763759809595
 20
233.38441123086227
 40
3.0800000000000001
 41
1
 50
0
  1
éSû{
  0
TEXT
  8
_0-1_H0
 62
    7
 10
143.3980686695279
 20
228.78806866952789
 40
3.2200000000000002
 41
1
 50
0
  1
ôdî╣âRü[âhÄµÅoî¹ânü[âtâJâbâgüiéQéOü~éRéOüj
  0
LINE
  8
_0-0_0
  6
CONTINUOUS
 62
    7
 10
141.80472103004291
 20
228.16738197424894
 11
213.82403433476395
 21
228.16738197424894
  0
LINE
  8
_0-0_0
  6
CONTINUOUS
 62
    7
 10
141.80472103004291
 20
228.16738197424894
 11
120.16733362191236
 21
242.59846147470023
  0
LINE
  8
_0-0_0
  6
CONTINUOUS
 62
    7
 10
120.16733362191236
 20
242.59846147470023
 11
123.00894181217593
 21
241.63655560974928
  0
LINE
  8
_0-0_0
  6
CONTINUOUS
 62
    7
 10
120.16733362191236
 20
242.59846147470023
 11
122.14728556980707
 21
240.34462246447168
  0
LINE
  8
_0-0_0
  6
CONTINUOUS
 62
    7
 10
140.32515164723219
 20
214.15133421297321
 11
118.68776423910163
 21
228.5824137134245
  0
LINE
  8
_0-0_0
  6
CONTINUOUS
 62
    7
 10
118.68776423910163
 20
228.5824137134245
 11
121.5293724293652
 21
227.62050784847358
  0
LINE
  8
_0-0_0
  6
CONTINUOUS
 62
    7
 10
118.68776423910163
 20
228.5824137134245
 11
120.66771618699633
 21
226.32857470319595
  0
TEXT
  8
_0-1_H0
 62
    7
 10
142.22323122547846
 20
214.57239882849194
 40
3.2200000000000002
 41
1
 50
0
  1
âAü[âXÆ[Äq
  0
LINE
  8
_0-0_0
  6
CONTINUOUS
 62
    7
 10
140.32515164723219
 20
214.15133421297321
 11
158.12661865202895
 21
214.15133421297321
  0
TEXT
  8
_0-4_A0
 62
    7
 10
44.886395495215311
 20
130.46997785211465
 40
3.6000000000000001
 41
1
 50
0
  1
âCòö
  0
TEXT
  8
_0-4_A0
 62
    7
 10
35.21841756803974
 20
76.929622345198851
 40
3.7599999999999998
 41
1
 50
0
  1
âCòöüiæOö┬ÄµòtÅ¾æÈüj
  0
TEXT
  8
_0-1_H0
 62
    7
 10
24.943150202852792
 20
57.670373435465791
 40
2.3559999704360961
 41
1
 50
0
  1
î^ü@ü@û╝
  0
TEXT
  8
_0-1_H0
 62
    7
 10
50.914150153023314
 20
60.09437343641946
 40
2.5079999685287477
 41
1
 50
0
  1
Ä┐ù╩
  0
INSERT
  2
-002-$$BALLOON$$0
  8
_0-4_A0
 10
153.91416309012874
 20
154.55472103004291
 41
1
 42
1
 50
0
  0
INSERT
  2
-003-$$BALLOON$$1
  8
_0-4_A0
 10
220.19742489270385
 20
114.40236051502146
 41
1
 42
1
 50
0
  0
LINE
  8
_0-0_0
  6
CONTINUOUS
 62
    7
 10
164.42205142846618
 20
146.82322385750336
 11
161.56508581069164
 21
147.73850930961876
  0
LINE
  8
_0-0_0
  6
CONTINUOUS
 62
    7
 10
164.42205142846618
 20
146.82322385750336
 11
162.4054893517924
 21
149.04436711963689
  0
LINE
  8
_0-0_0
  6
CONTINUOUS
 62
    7
 10
153.60648466837972
 20
153.78373711894514
 11
164.42205142846618
 21
146.82322385750336
  0
LINE
  8
_0-0_0
  6
CONTINUOUS
 62
    7
 10
208.70001980143306
 20
121.43873413582862
 11
211.59888926142099
 21
120.66636385290126
  0
LINE
  8
_0-0_0
  6
CONTINUOUS
 62
    7
 10
208.70001980143306
 20
121.43873413582862
 11
210.8243292545738
 21
119.32040711969138
  0
LINE
  8
_0-0_0
  6
CONTINUOUS
 62
    7
 10
220.34760926909351
 20
114.73587604594854
 11
208.70001980143306
 21
121.43873413582862
  0
TEXT
  8
_0-1_H0
 62
    7
 10
233.6171244635193
 20
210.31356223175965
 40
3.2200000000000002
 41
1
 50
0
  1
èÀïCÉ¯Äµòtùpânü[âtâJâbâgüiéRé®Åèüj
  0
LINE
  8
_0-0_0
  6
CONTINUOUS
 62
    7
 10
232.3068669527897
 20
209.0555364806867
 11
287.11802575107299
 21
209.0555364806867
  0
LINE
  8
_0-0_0
  6
CONTINUOUS
 62
    7
 10
232.3068669527897
 20
209.0555364806867
 11
199.16523605150215
 21
170.8068669527897
  0
LINE
  8
_0-0_0
  6
CONTINUOUS
 62
    7
 10
199.16523605150215
 20
170.8068669527897
 11
200.47602808727046
 21
173.50535249823298
  0
LINE
  8
_0-0_0
  6
CONTINUOUS
 62
    7
 10
199.16523605150215
 20
170.8068669527897
 11
201.64965802627748
 21
172.48842796900453
  0
LINE
  8
_0-0_0
  6
CONTINUOUS
 62
    7
 10
232.3068669527897
 20
209.0555364806867
 11
270.54721030042919
 21
170.8068669527897
  0
LINE
  8
_0-0_0
  6
CONTINUOUS
 62
    7
 10
270.54721030042919
 20
170.8068669527897
 11
267.949297386355
 21
172.30714975642593
  0
LINE
  8
_0-0_0
  6
CONTINUOUS
 62
    7
 10
270.54721030042919
 20
170.8068669527897
 11
269.04749312183941
 21
173.40510643063672
  0
TEXT
  8
_0-4_A0
 62
    7
 10
255.19350646788635
 20
103.40160309224333
 40
3.7599999999999998
 41
1
 50
0
  1
û{æ╠ÄµòtîèüiéQü|âËéUüj
  0
LINE
  8
_0-0_0
  6
CONTINUOUS
 62
    7
 10
254.61373390557941
 20
102.29291845493563
 11
293.17274678111585
 21
102.29291845493563
  0
LINE
  8
_0-0_0
  6
CONTINUOUS
 62
    7
 10
293.17274678111585
 20
102.29291845493563
 11
307.3292644458362
 21
136.26712478586822
  0
LINE
  8
_0-0_0
  6
CONTINUOUS
 62
    7
 10
307.3292644458362
 20
136.26712478586822
 11
306.93141968699598
 21
133.29362187719914
  0
LINE
  8
_0-0_0
  6
CONTINUOUS
 62
    7
 10
307.3292644458362
 20
136.26712478586822
 11
305.49796932358356
 21
133.89091810815398
  0
TEXT
  8
_0-1_H0
 62
    7
 10
339.6166435156822
 20
114.08795523932424
 40
2.9199999999999999
 41
1
 50
0
  1
é¥éÚé▄îèÅ┌ìÎüiéQé®Åèüj
  0
LINE
  8
_0-1_H0
  6
CONTINUOUS
 62
    7
 10
353.67664351568214
 20
143.79209160459516
 11
355.41223845684982
 21
145.72799196365114
  0
INSERT
  2
-000-_OPEN
  8
_0-1_H0
 10
355.41223845684982
 20
145.72799196365114
 41
3
 42
3
 50
228.12278454073663
  0
LINE
  8
_0-1_H0
  6
CONTINUOUS
 62
    7
 10
357.41484800435092
 20
147.96172314717734
 11
364.87792491684843
 21
156.28611551078154
  0
LINE
  8
_0-1_H0
  6
CONTINUOUS
 62
    7
 10
353.6766435156822
 20
133.79209160459524
 11
349.97405942402571
 21
130.43190246643474
  0
INSERT
  2
-000-_OPEN
  8
_0-1_H0
 10
347.75250896903179
 20
128.41578898353845
 41
3
 42
3
 50
222.22454081302661
  0
LINE
  8
_0-1_H0
  6
CONTINUOUS
 62
    7
 10
347.75250896903179
 20
128.41578898353845
 11
342.85299992311263
 21
123.96936003800404
  0
TEXT
  8
_0-1_H0
 62
    7
 10
358.27084523982245
 20
149.66553391862621
 40
4
 41
1
 50
48.122784540000048
  1
R2.6
  0
TEXT
  8
_0-1_H0
 62
    7
 10
343.01312737770957
 20
124.78988388269717
 40
4
 41
1
 50
42.224540810000022
  1
R8
  0
TEXT
  8
_0-1_H0
 62
    7
 10
323.1977769853371
 20
45.100189707382157
 40
1.8400000000000001
 41
1
 50
0
  1
âzâÅâCâgüiébü|éQéOéQüj
  0
TEXT
  8
_0-1_H0
 62
    7
 10
323.65777698533714
 20
40.100189707382157
 40
1.8400000000000001
 41
1
 50
0
  1
âuâëâbâNüiâuâëâbâNéeéiüj
  0
TEXT
  8
_0-1_H0
 62
    7
 10
258.57777698533715
 20
34.200189707382094
 40
3.6400000000000001
 41
1
 50
0
  1
î^ü@ü@ü@û╝
  0
TEXT
  8
_0-1_H0
 62
    7
 10
293.57777698533704
 20
34.200189707382094
 40
3.6400000000000001
 41
1
 50
0
  1
É╗òiâRü[âh
  0
TEXT
  8
_0-1_H0
 62
    7
 10
330.39777698533703
 20
34.200189707382151
 40
3.6400000000000001
 41
1
 50
0
  1
ÉFü@ü@Æ▓
  0
TEXT
  8
_0-1_H0
 62
    7
 10
390.03777698533713
 20
34.360189707382148
 40
3.3199999999999998
 41
1
 50
0
  1
ïµò¬éméÅ
  0
TEXT
  8
_0-1_H0
 62
    7
 10
344.96277676111174
 20
23.820189707382156
 40
2.9139999103546135
 41
1
 50
0
  1
âÅâôâhèöÄ«ë´Äðôaî³é»
  0
TEXT
  8
_0-1_H0
 62
    7
 10
330.32577707307507
 20
27.094189751251122
 40
2.8519999122619626
 41
1
 50
0
  1
î^û╝
  0
TEXT
  8
_0-1_H0
 62
    7
 10
330.32577707307507
 20
18.59418975125115
 40
2.8519999122619626
 41
1
 50
0
  1
É}öÈ
  0
TEXT
  8
_0-1_H0
 62
    7
 10
351.64777698533703
 20
17.230189707382152
 40
5.5800000000000001
 41
1
 50
0
  1
éPéVéXéOéRéOéT
  0
TEXT
  8
_0-1_H0
 62
    7
 10
315.55677707212135
 20
11.709689750774317
 40
2.8209999132156369
 41
1
 50
0
  1
Ä┌ôx
  0
TEXT
  8
_0-1_H0
 62
    7
 10
330.29477707402873
 20
11.578689751728007
 40
2.8829999113082883
 41
1
 50
0
  1
É}û╝
  0
TEXT
  8
_0-1_H0
 62
    7
 10
345.64777698533703
 20
10.230189707382152
 40
5.5800000000000001
 41
1
 50
0
  1
É╗ü@òiü@Äpü@É}
  0
LINE
  8
_0-4_A0
  6
CONTINUOUS
 62
    7
 10
56.385261002391502
 20
250.30831785479253
 11
56.385261002391502
 21
258.69696015569946
  0
LINE
  8
_0-4_A0
  6
CONTINUOUS
 62
    7
 10
56.385261002391502
 20
257.69696015569946
 11
63.835261001470599
 21
257.69696015569946
  0
INSERT
  2
-000-_OPEN
  8
_0-4_A0
 10
56.385261002391502
 20
257.69696015569946
 41
3
 42
3
 50
0
  0
INSERT
  2
-000-_OPEN
  8
_0-4_A0
 10
63.835261001470599
 20
257.69696015569946
 41
3
 42
3
 50
180
  0
LINE
  8
_0-4_A0
  6
CONTINUOUS
 62
    7
 10
53.385261002391502
 20
257.69696015569946
 11
51.385261002391502
 21
257.69696015569946
  0
LINE
  8
_0-4_A0
  6
CONTINUOUS
 62
    7
 10
66.835261001470599
 20
257.69696015569946
 11
68.835261001470599
 21
257.69696015569946
  0
LINE
  8
_0-4_A0
  6
CONTINUOUS
 62
    7
 10
63.835261001470599
 20
246.53979404594435
 11
63.835261001470599
 21
258.69696015569946
  0
LINE
  8
_0-4_A0
  6
CONTINUOUS
 62
    7
 10
118.83526100331302
 20
246.53979404594435
 11
118.83526100331302
 21
258.69696015569946
  0
LINE
  8
_0-4_A0
  6
CONTINUOUS
 62
    7
 10
118.83526100331302
 20
257.69696015569946
 11
126.28526100239151
 21
257.69696015569946
  0
INSERT
  2
-000-_OPEN
  8
_0-4_A0
 10
118.83526100331302
 20
257.69696015569946
 41
3
 42
3
 50
0
  0
INSERT
  2
-000-_OPEN
  8
_0-4_A0
 10
126.28526100239151
 20
257.69696015569946
 41
3
 42
3
 50
180
  0
LINE
  8
_0-4_A0
  6
CONTINUOUS
 62
    7
 10
115.83526100331302
 20
257.69696015569946
 11
113.83526100331302
 21
257.69696015569946
  0
LINE
  8
_0-4_A0
  6
CONTINUOUS
 62
    7
 10
129.28526100239151
 20
257.69696015569946
 11
131.28526100239151
 21
257.69696015569946
  0
LINE
  8
_0-4_A0
  6
CONTINUOUS
 62
    7
 10
126.28526100239151
 20
250.30831751779306
 11
126.28526100239151
 21
258.69696015569946
  0
TEXT
  8
_0-4_A0
 62
    7
 10
56.110261001931065
 20
258.19696015569946
 40
4
 41
1
 50
0
  1
(75)
  0
TEXT
  8
_0-4_A0
 62
    7
 10
118.56026100285222
 20
258.19696015569946
 40
4
 41
1
 50
0
  1
(75)
  0
TEXT
  8
_0-1_H0
 62
    7
 10
25.707725321888432
 20
46.819098712446362
 40
2.6000000000000001
 41
1
 50
0
  1
FAN-700F
  0
ENDSEC
  0
EOF
