  0
SECTION
  2
HEADER
  9
$ACADVER
  1
AC1009
  9
$INSBASE
 10
0
 20
0
 30
0
  9
$EXTMIN
 10
0
 20
0
  9
$EXTMAX
 10
420
 20
297
  9
$LIMMIN
 10
0
 20
0
  9
$LIMMAX
 10
420
 20
297
  9
$LTSCALE
 40
1
  0
ENDSEC
  0
SECTION
  2
TABLES
  0
TABLE
  2
LTYPE
 70
     9
  0
LTYPE
  2
CONTINUOUS
 70
    64
  3
実線
 72
    65
 73
     0
 40
0.0
  0
LTYPE
  2
DASHED1
 70
    64
  3
--  --  --  --  --  --  --  --  
 72
    65
 73
     2
 40
2.5
 49
1.25
 49
-1.25
  0
LTYPE
  2
DASHED2
 70
    64
  3
----    ----    ----    ----    
 72
    65
 73
     2
 40
5.0
 49
2.5
 49
-2.5
  0
LTYPE
  2
DASHED3
 70
    64
  3
------  ------  ------  ------  
 72
    65
 73
     2
 40
5.0
 49
3.75
 49
-1.25
  0
LTYPE
  2
CENTER1
 70
    64
  3
----- - ----- - ----- - ----- - 
 72
    65
 73
     4
 40
10.0
 49
6.25
 49
-1.25
 49
1.25
 49
-1.25
  0
LTYPE
  2
CENTER2
 70
    64
  3
----------  --  ----------  --  
 72
    65
 73
     4
 40
20.0
 49
12.5
 49
-2.5
 49
2.5
 49
-2.5
  0
LTYPE
  2
PHANTOM1
 70
    64
  3
--- - - --- - - --- - - --- - - 
 72
    65
 73
     6
 40
10.0
 49
3.25
 49
-1.25
 49
1.25
 49
-1.25
 49
1.25
 49
-1.25
  0
LTYPE
  2
PHANTOM2
 70
    64
  3
--------  -  -  --------  -  -  
 72
    65
 73
     6
 40
20.0
 49
10.0
 49
-2.5
 49
1.25
 49
-2.5
 49
1.25
 49
-2.5
  0
LTYPE
  2
DOT
 70
    64
  3
-   -   -   -   -   -   -   -   
 72
    65
 73
     2
 40
2.5
 49
0.625
 49
-1.875
  0
LTYPE
  2
DUMMY
 70
    64
  3
ダミー
 72
    65
 73
     0
 40
0.0
  0
LTYPE
  2
RAND1
 70
    64
  3
ランダム線1
 72
    65
 73
     4
 40
10.0
 49
1.0
 49
-2.0
 49
3.0
 49
-4.0
  0
LTYPE
  2
RAND2
 70
    64
  3
ランダム線2
 72
    65
 73
     4
 40
14.0
 49
2.0
 49
-3.0
 49
4.0
 49
-5.0
  0
LTYPE
  2
RAND3
 70
    64
  3
ランダム線3
 72
    65
 73
     4
 40
18.0
 49
3.0
 49
-4.0
 49
5.0
 49
-6.0
  0
LTYPE
  2
RAND4
 70
    64
  3
ランダム線4
 72
    65
 73
     4
 40
22.0
 49
4.0
 49
-5.0
 49
6.0
 49
-7.0
  0
LTYPE
  2
RAND5
 70
    64
  3
ランダム線5
 72
    65
 73
     4
 40
26.0
 49
5.0
 49
-6.0
 49
7.0
 49
-8.0
  0
LTYPE
  2
LONG1
 70
    64
  3
----------  --  ----------  --  
 72
    65
 73
     4
 40
40.0
 49
32.5
 49
-2.5
 49
2.5
 49
-2.5
  0
LTYPE
  2
LONG2
 70
    64
  3
--------  -  -  --------  -  -  
 72
    65
 73
     6
 40
40.0
 49
30.0
 49
-2.5
 49
1.25
 49
-2.5
 49
1.25
 49
-2.5
  0
LTYPE
  2
LONG3
 70
    64
  3
+++++++++++++++..+++++++++++++++
 72
    65
 73
     2
 40
40.0
 49
37.5
 49
-2.5
  0
LTYPE
  2
LONG4
 70
    64
  3
+++++++++++++++..+++++++++++++++
 72
    65
 73
     2
 40
80.0
 49
75.0
 49
-5.0
  0
LTYPE
  2
LONG5
 70
    64
  3
----------  --  ----------  --  
 72
    65
 73
     4
 40
60.0
 49
37.5
 49
-7.5
 49
7.5
 49
-7.5
  0
LTYPE
  2
dashed
 70
   64
  3
-------   -------------   ------
 72
   65
 73
    2
 40
7.5
 49
6
 49
-1.5
  0
LTYPE
  2
dashed_spaced
 70
   64
  3
----        --------        ----
 72
   65
 73
    2
 40
12
 49
6
 49
-6
  0
LTYPE
  2
long_dashed_dotted
 70
   64
  3
------------- --- --------------
 72
   65
 73
    4
 40
15.25
 49
12
 49
-1.5
 49
0.25
 49
-1.5
  0
LTYPE
  2
long_dashed_double-dotted
 70
   64
  3
----------- --- --- ------------
 72
   65
 73
    6
 40
17
 49
12
 49
-1.5
 49
0.25
 49
-1.5
 49
0.25
 49
-1.5
  0
LTYPE
  2
long_dashed_triplicate-dotted
 70
   64
  3
--------- --- --- --- ----------
 72
   65
 73
    8
 40
18.75
 49
12
 49
-1.5
 49
0.25
 49
-1.5
 49
0.25
 49
-1.5
 49
0.25
 49
-1.5
  0
LTYPE
  2
dotted
 70
   64
  3
   -       -       -       -    
 72
   65
 73
    2
 40
1.75
 49
0.25
 49
-1.5
  0
LTYPE
  2
chain
 70
   64
  3
-------------- -- --------------
 72
   65
 73
    4
 40
18.5
 49
12
 49
-1.5
 49
3.5
 49
-1.5
  0
LTYPE
  2
chain_double_dash
 70
   64
  3
------------ -- -- -------------
 72
   65
 73
    6
 40
23.5
 49
12
 49
-1.5
 49
3.5
 49
-1.5
 49
3.5
 49
-1.5
  0
LTYPE
  2
dashed_dotted
 70
   64
  3
-----------     -     ----------
 72
   65
 73
    4
 40
9.25
 49
6
 49
-1.5
 49
0.25
 49
-1.5
  0
LTYPE
  2
double-dashed_dotted
 70
   64
  3
------   -----------   -   -----
 72
   65
 73
    6
 40
16.75
 49
6
 49
-1.5
 49
6
 49
-1.5
 49
0.25
 49
-1.5
  0
LTYPE
  2
dashed_double-dotted
 70
   64
  3
---------    -    -    ---------
 72
   65
 73
    6
 40
11
 49
6
 49
-1.5
 49
0.25
 49
-1.5
 49
0.25
 49
-1.5
  0
LTYPE
  2
double-dashed_double-dotted
 70
   64
  3
-----   ---------   -   -   ----
 72
   65
 73
    8
 40
18.5
 49
6
 49
-1.5
 49
6
 49
-1.5
 49
0.25
 49
-1.5
 49
0.25
 49
-1.5
  0
LTYPE
  2
dashed_triplicate-dotted
 70
   64
  3
-------    -    -    -    ------
 72
   65
 73
    8
 40
12.75
 49
6
 49
-1.5
 49
0.25
 49
-1.5
 49
0.25
 49
-1.5
 49
0.25
 49
-1.5
  0
LTYPE
  2
double-dashed_triplicate-dotted
 70
   64
  3
-----  ---------  -  -  -  -----
 72
   65
 73
   10
 40
20.25
 49
6
 49
-1.5
 49
6
 49
-1.5
 49
0.25
 49
-1.5
 49
0.25
 49
-1.5
 49
0.25
 49
-1.5
  0
LTYPE
  2
undefined
 70
   64
  3
--------------------------------
 72
   65
 73
    0
 40
0
  0
LTYPE
  2
CENTER-S
 70
   64
  3
----------    ----    ----------
 72
   65
 73
    4
 40
2
 49
1.25
 49
-0.25
 49
0.25
 49
-0.25
  0
LTYPE
  2
PHANTOM-S
 70
   64
  3
---------   ---   ---   --------
 72
   65
 73
    6
 40
2.5
 49
1.25
 49
-0.25
 49
0.25
 49
-0.25
 49
0.25
 49
-0.25
  0
LTYPE
  2
_
 70
   64
  3
                                
 72
   65
 73
    0
 40
0
  0
LTYPE
  2
__20
 70
   64
  3
                                
 72
   65
 73
    0
 40
0
  0
LTYPE
  2
__21
 70
   64
  3
                                
 72
   65
 73
    0
 40
0
  0
LTYPE
  2
__22
 70
   64
  3
                                
 72
   65
 73
    0
 40
0
  0
LTYPE
  2
__23
 70
   64
  3
                                
 72
   65
 73
    0
 40
0
  0
LTYPE
  2
__24
 70
   64
  3
                                
 72
   65
 73
    0
 40
0
  0
LTYPE
  2
__25
 70
   64
  3
                                
 72
   65
 73
    0
 40
0
  0
LTYPE
  2
__26
 70
   64
  3
                                
 72
   65
 73
    0
 40
0
  0
LTYPE
  2
__27
 70
   64
  3
                                
 72
   65
 73
    0
 40
0
  0
LTYPE
  2
__28
 70
   64
  3
                                
 72
   65
 73
    0
 40
0
  0
LTYPE
  2
__29
 70
   64
  3
                                
 72
   65
 73
    0
 40
0
  0
LTYPE
  2
__30
 70
   64
  3
                                
 72
   65
 73
    0
 40
0
  0
LTYPE
  2
__31
 70
   64
  3
                                
 72
   65
 73
    0
 40
0
  0
LTYPE
  2
__32
 70
   64
  3
                                
 72
   65
 73
    0
 40
0
  0
ENDTAB
  0
TABLE
  2
STYLE
  5
3
100
AcDbSymbolTable
 70
     1
  0
STYLE
  5
10
100
AcDbSymbolTableRecord
100
AcDbTextStyleTableRecord
  2
STANDARD
 70
     0
 40
0.0
 41
1.0
 50
0.0
 71
     0
 42
0.2
  3
txt
  4
bigfont.shx
  0
STYLE
  5
26
100
AcDbSymbolTableRecord
100
AcDbTextStyleTableRecord
  2
TATEGAKI
 70
    68
 40
0.0
 41
1.0
 50
0.0
 71
     0
 42
1.0
  3
txt
  4
bigfont.shx
  0
ENDTAB
  0
TABLE
  2
LAYER
 70
   12
  0
LAYER
  2
_0-1_DEFPOINTS
 70
   64
 62
    7
  6
CONTINUOUS
  0
LAYER
  2
_0-2_BALN
 70
   64
 62
    7
  6
CONTINUOUS
  0
LAYER
  2
_0-3_003259
 70
   64
 62
    7
  6
CONTINUOUS
  0
LAYER
  2
_0-4_042385
 70
   64
 62
    7
  6
CONTINUOUS
  0
LAYER
  2
_0-5_042493
 70
   64
 62
    7
  6
CONTINUOUS
  0
LAYER
  2
_0-6_004981
 70
   64
 62
    7
  6
CONTINUOUS
  0
LAYER
  2
_0-7_004044
 70
   64
 62
    7
  6
CONTINUOUS
  0
LAYER
  2
_0-8_043123
 70
   64
 62
    7
  6
CONTINUOUS
  0
LAYER
  2
_0-9_004834
 70
   64
 62
    7
  6
CONTINUOUS
  0
LAYER
  2
_1-0_
 70
   64
 62
    7
  6
CONTINUOUS
  0
LAYER
  2
_e-0_
 70
   64
 62
    7
  6
CONTINUOUS
  0
LAYER
  2
ADD_LINE
 70
   64
 62
    7
  6
CONTINUOUS
  0
ENDTAB
  0
ENDSEC
  0
SECTION
  2
BLOCKS
  0
BLOCK
  2
-000-_OPEN
 70
   64
 10
0
 20
0
 30
0
  0
LINE
  8
_0-0_0
  6
CONTINUOUS
 62
    7
 10
-1
 20
0.1666666666666666
 11
0
 21
0
  0
LINE
  8
_0-0_0
  6
CONTINUOUS
 62
    7
 10
0
 20
0
 11
-1
 21
-0.1666666666666666
  0
LINE
  8
_0-0_0
  6
CONTINUOUS
 62
    7
 10
0
 20
0
 11
-1
 21
0
  0
ENDBLK
  0
BLOCK
  2
-001-_D7
 70
   64
 10
0
 20
0
 30
0
  0
LINE
  8
_0-2_BALN
  6
CONTINUOUS
 62
    7
 10
84.141100892666543
 20
64.896005032128073
 11
129.20855269757259
 21
64.896005032128044
  0
LINE
  8
_0-2_BALN
  6
CONTINUOUS
 62
    7
 10
104.1411008926665
 20
-22.015994967871929
 11
129.20855269757259
 21
-22.015994967871939
  0
LINE
  8
_0-2_BALN
  6
CONTINUOUS
 62
    7
 10
127.20855269757269
 20
63.396005032128073
 11
127.20855269757259
 21
-20.515994967871929
  0
INSERT
  2
-000-_OPEN
  8
_0-2_BALN
 10
127.20855269757269
 20
64.896005032128044
 41
1.5
 42
1.5
 50
90
  0
INSERT
  2
-000-_OPEN
  8
_0-2_BALN
 10
127.20855269757259
 20
-22.015994967871939
 41
1.5
 42
1.5
 50
270
  0
TEXT
  8
_0-2_BALN
 62
    7
 10
126.6085526975727
 20
6.6741532193932116
 40
3
 41
1
 50
90
  1
87（リフト3min）
  0
POINT
  8
_0-1_DEFPOINTS
 62
    7
 10
84.141100892666543
 20
64.896005032128073
  0
POINT
  8
_0-1_DEFPOINTS
 62
    7
 10
104.1411008926665
 20
-22.015994967871929
  0
POINT
  8
_0-1_DEFPOINTS
 62
    7
 10
127.20855269757259
 20
-22.015994967871939
  0
ENDBLK
  0
BLOCK
  2
-002-_D8
 70
   64
 10
0
 20
0
 30
0
  0
LINE
  8
_0-2_BALN
  6
CONTINUOUS
 62
    7
 10
9.1411008926665431
 20
2.9840050321280671
 11
-4.9524712962405939
 21
2.9840050321280697
  0
LINE
  8
_0-2_BALN
  6
CONTINUOUS
 62
    7
 10
64.141100892666528
 20
-22.015994967871929
 11
-4.9524712962405921
 21
-22.015994967871918
  0
LINE
  8
_0-2_BALN
  6
CONTINUOUS
 62
    7
 10
-2.9524712962405939
 20
1.48400503212807
 11
-2.9524712962405978
 21
-20.515994967871918
  0
INSERT
  2
-000-_OPEN
  8
_0-2_BALN
 10
-2.9524712962405939
 20
2.9840050321280697
 41
1.5
 42
1.5
 50
90
  0
INSERT
  2
-000-_OPEN
  8
_0-2_BALN
 10
-2.9524712962405978
 20
-22.015994967871918
 41
1.5
 42
1.5
 50
270
  0
TEXT
  8
_0-2_BALN
 62
    7
 10
-3.5524712962405962
 20
-10.053240578103947
 40
3
 41
1
 50
90
  1
25
  0
POINT
  8
_0-1_DEFPOINTS
 62
    7
 10
9.1411008926665431
 20
2.9840050321280671
  0
POINT
  8
_0-1_DEFPOINTS
 62
    7
 10
64.141100892666528
 20
-22.015994967871929
  0
POINT
  8
_0-1_DEFPOINTS
 62
    7
 10
-2.9524712962405978
 20
-22.015994967871918
  0
ENDBLK
  0
BLOCK
  2
-003-_D9
 70
   64
 10
0
 20
0
 30
0
  0
LINE
  8
_0-2_BALN
  6
CONTINUOUS
 62
    7
 10
9.1411008926665431
 20
2.9836405469329307
 11
9.1411008926665395
 21
-48.774054130919992
  0
LINE
  8
_0-2_BALN
  6
CONTINUOUS
 62
    7
 10
84.141100892666543
 20
-52.219533391967381
 11
84.141100892666543
 21
-44.774054130919978
  0
LINE
  8
_0-2_BALN
  6
CONTINUOUS
 62
    7
 10
10.641100892666539
 20
-46.774054130919992
 11
82.641100892666543
 21
-46.774054130919992
  0
INSERT
  2
-000-_OPEN
  8
_0-2_BALN
 10
9.1411008926665395
 20
-46.774054130919992
 41
1.5
 42
1.5
 50
180
  0
INSERT
  2
-000-_OPEN
  8
_0-2_BALN
 10
84.141100892666543
 20
-46.774054130919992
 41
1.5
 42
1.5
 50
0
  0
TEXT
  8
_0-2_BALN
 62
    7
 10
46.842512843088762
 20
-46.174054130919977
 40
3
 41
1
 50
0
  1
75
  0
POINT
  8
_0-1_DEFPOINTS
 62
    7
 10
9.1411008926665431
 20
2.9836405469329307
  0
POINT
  8
_0-1_DEFPOINTS
 62
    7
 10
84.141100892666543
 20
-52.219533391967381
  0
POINT
  8
_0-1_DEFPOINTS
 62
    7
 10
84.141100892666543
 20
-46.774054130919992
  0
ENDBLK
  0
BLOCK
  2
-004-_D10
 70
   64
 10
0
 20
0
 30
0
  0
LINE
  8
_0-2_BALN
  6
CONTINUOUS
 62
    4
 10
9.1411008926665502
 20
-22.015994967871918
 11
-4.9524712962405876
 21
-22.015994967871918
  0
LINE
  8
_0-2_BALN
  6
CONTINUOUS
 62
    4
 10
73.230100892666541
 20
-84.518994967871947
 11
-4.9524712962406072
 21
-84.518994967871932
  0
LINE
  8
_0-2_BALN
  6
CONTINUOUS
 62
    4
 10
-2.9524712962405881
 20
-23.515994967871918
 11
-2.9524712962406018
 21
-83.018994967871932
  0
INSERT
  2
-000-_OPEN
  8
_0-2_BALN
 10
-2.9524712962405881
 20
-22.015994967871918
 41
1.5
 42
1.5
 50
90
  0
INSERT
  2
-000-_OPEN
  8
_0-2_BALN
 10
-2.9524712962406018
 20
-84.518994967871932
 41
1.5
 42
1.5
 50
270
  0
TEXT
  8
_0-2_BALN
 62
    7
 10
-3.5524712962405873
 20
-56.359938025791969
 40
3
 41
1
 50
90
  1
62.5
  0
POINT
  8
_0-1_DEFPOINTS
 62
    7
 10
9.1411008926665502
 20
-22.015994967871918
  0
POINT
  8
_0-1_DEFPOINTS
 62
    7
 10
73.230100892666541
 20
-84.518994967871947
  0
POINT
  8
_0-1_DEFPOINTS
 62
    7
 10
-2.9524712962406018
 20
-84.518994967871932
  0
ENDBLK
  0
BLOCK
  2
-005-open
 70
   64
 10
0
 20
0
 30
0
  0
LINE
  8
_0-0_0
  6
CONTINUOUS
 62
    4
 10
0
 20
0
 11
-1
 21
0
  0
LINE
  8
_0-0_0
  6
CONTINUOUS
 62
    4
 10
0
 20
0
 11
-1
 21
-0.1666666666666661
  0
LINE
  8
_0-0_0
  6
CONTINUOUS
 62
    4
 10
-1
 20
0.1666666666666661
 11
0
 21
0
  0
ENDBLK
  0
BLOCK
  2
-006-HIKI-001
 70
   64
 10
0
 20
0
 30
0
  0
LINE
  8
_0-2_BALN
  6
CONTINUOUS
 62
    4
 10
0
 20
0
 11
15.32385819302482
 21
-16.306398963527609
  0
INSERT
  2
-005-open
  8
_0-2_BALN
 10
0
 20
0
 41
1.5000000000000031
 42
1.5
 50
133.2207750478305
  0
TEXT
  8
_0-2_BALN
 62
    7
 10
16.573858193024818
 20
-15.70639896352762
 40
3
 41
0.8329999999999998
 50
0
  1
ＰＪ１３
  0
LINE
  8
_0-2_BALN
  6
CONTINUOUS
 62
    4
 10
15.32385819302482
 20
-16.306398963527609
 11
30.2439143021241
 21
-16.306398963527609
  0
ENDBLK
  0
ENDSEC
  0
SECTION
  2
ENTITIES
  0
POINT
  8
_0-1_DEFPOINTS
 62
    7
 10
209.97971814304764
 20
148.5122500964708
  0
LINE
  8
_0-3_003259
  6
PHANTOM-S
 62
    3
 10
304.62081903571419
 20
114.58125512859888
 11
342.13881903571416
 21
114.58125512859888
  0
LINE
  8
_0-3_003259
  6
PHANTOM-S
 62
    3
 10
347.15781903571416
 20
118.08325512859887
 11
336.08481903571413
 21
115.77825512859888
  0
LINE
  8
_0-3_003259
  6
PHANTOM-S
 62
    3
 10
342.13881903571416
 20
114.58125512859888
 11
336.08481903571413
 21
115.77825512859888
  0
LINE
  8
_0-3_003259
  6
PHANTOM-S
 62
    3
 10
336.17381903571413
 20
120.34325512859888
 11
347.15781903571416
 21
118.08325512859887
  0
LINE
  8
_0-3_003259
  6
PHANTOM-S
 62
    3
 10
343.25981903571414
 20
121.36225512859888
 11
336.17381903571413
 21
120.34325512859888
  0
LINE
  8
_0-3_003259
  6
PHANTOM-S
 62
    3
 10
339.80581903571413
 20
124.90825512859888
 11
343.25981903571414
 21
121.36225512859888
  0
LINE
  8
_0-3_003259
  6
PHANTOM-S
 62
    3
 10
304.62081903571419
 20
124.99625512859887
 11
339.71981903571418
 21
124.99625512859887
  0
LINE
  8
_0-3_003259
  6
PHANTOM-S
 62
    3
 10
283.62081903571419
 20
124.99625512859887
 11
242.8728190357142
 21
124.99625512859887
  0
LINE
  8
_0-3_003259
  6
PHANTOM-S
 62
    3
 10
283.62081903571419
 20
114.58125512859888
 11
241.49881903571417
 21
114.58125512859888
  0
LINE
  8
_0-3_003259
  6
PHANTOM-S
 62
    3
 10
241.49881903571417
 20
114.58125512859888
 11
244.0038190357142
 21
116.53225512859887
  0
LINE
  8
_0-3_003259
  6
PHANTOM-S
 62
    3
 10
236.03181903571419
 20
118.08325512859887
 11
244.0038190357142
 21
116.53225512859887
  0
LINE
  8
_0-3_003259
  6
PHANTOM-S
 62
    3
 10
244.40281903571417
 20
120.43225512859888
 11
236.03181903571419
 21
118.08325512859887
  0
LINE
  8
_0-3_003259
  6
PHANTOM-S
 62
    3
 10
237.13981903571419
 20
121.71725512859887
 11
244.40281903571417
 21
120.43225512859888
  0
LINE
  8
_0-3_003259
  6
PHANTOM-S
 62
    3
 10
242.8728190357142
 20
124.99625512859887
 11
237.13981903571419
 21
121.71725512859887
  0
LINE
  8
_0-3_003259
  6
CENTER-S
 62
    3
 10
294.12081903571419
 20
221.08925512859886
 11
294.12081903571419
 21
56.488255128598893
  0
LINE
  8
_0-3_003259
  6
CONTINUOUS
 62
    3
 10
303.5048190357142
 20
114.58125512859888
 11
303.5048190357142
 21
124.99625512859887
  0
LINE
  8
_0-3_003259
  6
CONTINUOUS
 62
    3
 10
284.7358190357142
 20
114.58125512859888
 11
284.7358190357142
 21
124.99625512859887
  0
LINE
  8
_0-3_003259
  6
CENTER-S
 62
    3
 10
231.9098190357142
 20
126.49625512859887
 11
283.62081903571419
 21
126.49625512859887
  0
LINE
  8
_0-3_003259
  6
CENTER-S
 62
    3
 10
213.41681903571418
 20
170.34025512859886
 11
301.03881903571419
 21
138.44825512859887
  0
LINE
  8
_0-3_003259
  6
CONTINUOUS
 62
    2
 10
283.62081903571419
 20
126.49625512859887
 11
274.12081903571419
 21
126.49625512859887
  0
ARC
  8
_0-3_003259
  6
CONTINUOUS
 62
    2
 10
264.12081903571419
 20
127.30625512859887
 40
10
 50
0
 51
44.996999999999992
  0
LINE
  8
_0-3_003259
  6
CONTINUOUS
 62
    2
 10
274.12081903571419
 20
127.30625512859887
 11
274.12081903571419
 21
126.49625512859887
  0
ARC
  8
_0-3_003259
  6
CONTINUOUS
 62
    2
 10
277.12081903571419
 20
158.32825512859886
 40
5
 50
249.99999999999997
 51
0
  0
ARC
  8
_0-3_003259
  6
CENTER-S
 62
    3
 10
232.03181903571419
 20
151.85925512859887
 40
11
 50
70
 51
150.001
  0
LINE
  8
_0-3_003259
  6
CONTINUOUS
 62
    2
 10
282.12081903571419
 20
161.49425512859889
 11
282.12081903571419
 21
158.32825512859886
  0
ARC
  8
_0-3_003259
  6
CONTINUOUS
 62
    2
 10
218.15681903571419
 20
81.347255128598888
 40
75
 50
44.996999999999992
 51
76.37899999999999
  0
LINE
  8
_0-3_003259
  6
CONTINUOUS
 62
    2
 10
283.62081903571413
 20
75.993255128598875
 11
283.62081903571419
 21
106.58125512859888
  0
LINE
  8
_0-3_003259
  6
CONTINUOUS
 62
    2
 10
213.94581903571418
 20
160.03325512859888
 11
211.54281903571418
 21
155.87125512859887
  0
ARC
  8
_0-3_003259
  6
CONTINUOUS
 62
    2
 10
233.8788190357142
 20
149.55825512859888
 40
5
 50
77.019999999999996
 51
150.001
  0
LINE
  8
_0-3_003259
  6
CONTINUOUS
 62
    2
 10
229.54881903571418
 20
152.05825512859888
 11
226.69881903571419
 21
147.12125512859887
  0
ARC
  8
_0-3_003259
  6
CONTINUOUS
 62
    2
 10
229.60081903571418
 20
151.14825512859889
 40
18
 50
70
 51
150.001
  0
LINE
  8
_0-3_003259
  6
CONTINUOUS
 62
    2
 10
235.75681903571418
 20
168.06225512859887
 11
275.40981903571417
 21
153.62925512859888
  0
LINE
  8
_0-3_003259
  6
CONTINUOUS
 62
    2
 10
235.81881903571419
 20
154.23725512859888
 11
235.00881903571419
 21
154.34425512859888
  0
LINE
  8
_0-3_003259
  6
CENTER-S
 62
    3
 10
211.34581903571418
 20
138.03025512859886
 11
223.23381903571419
 21
158.61925512859889
  0
LINE
  8
_0-3_003259
  6
CENTER-S
 62
    3
 10
219.12081903571419
 20
138.33825512859888
 11
219.12081903571419
 21
162.98825512859886
  0
LINE
  8
_0-3_003259
  6
CONTINUOUS
 62
    2
 10
306.12081903571419
 20
161.49625512859887
 11
314.12081903571413
 21
126.49625512859887
  0
LINE
  8
_0-3_003259
  6
CONTINUOUS
 62
    2
 10
314.12081903571413
 20
126.49625512859887
 11
304.62081903571419
 21
126.49625512859887
  0
LINE
  8
_0-3_003259
  6
CONTINUOUS
 62
    2
 10
304.62081903571419
 20
75.993255128598875
 11
304.62081903571419
 21
106.58125512859888
  0
LINE
  8
_0-3_003259
  6
CENTER-S
 62
    3
 10
304.62081903571419
 20
126.49625512859887
 11
341.56581903571418
 21
126.49625512859887
  0
LINE
  8
_0-3_003259
  6
CONTINUOUS
 62
    2
 10
283.62081903571419
 20
126.49625512859887
 11
274.08781903571417
 21
126.49625512859887
  0
LINE
  8
_0-3_003259
  6
CONTINUOUS
 62
    2
 10
304.62081903571419
 20
126.49625512859887
 11
314.12081903571413
 21
126.49625512859887
  0
LINE
  8
_0-3_003259
  6
CONTINUOUS
 62
    2
 10
226.69881903571419
 20
147.12125512859887
 11
211.54281903571418
 21
155.87125512859887
  0
LINE
  8
_0-3_003259
  6
CONTINUOUS
 62
    3
 10
284.7358190357142
 20
75.993255128598875
 11
284.7358190357142
 21
106.55025512859887
  0
LINE
  8
_0-3_003259
  6
CONTINUOUS
 62
    3
 10
303.5048190357142
 20
75.993255128598875
 11
303.5048190357142
 21
106.55025512859887
  0
LINE
  8
_0-5_042493
  6
CONTINUOUS
 62
    2
 10
272.17381903571418
 20
161.49425512859889
 11
294.12081903571419
 21
161.49425512859889
  0
LINE
  8
_0-5_042493
  6
CONTINUOUS
 62
    2
 10
294.12081903571419
 20
161.49425512859889
 11
319.06681903571416
 21
161.49425512859889
  0
LINE
  8
_0-6_004981
  6
CONTINUOUS
 62
    2
 10
276.12081903571413
 20
126.49625512859887
 11
276.12081903571413
 21
124.99625512859887
  0
LINE
  8
_0-6_004981
  6
CONTINUOUS
 62
    2
 10
312.12081903571413
 20
126.49625512859887
 11
312.12081903571413
 21
124.99625512859887
  0
LINE
  8
_0-6_004981
  6
CONTINUOUS
 62
    2
 10
276.12081903571413
 20
126.49625512859887
 11
294.12081903571419
 21
126.49625512859887
  0
LINE
  8
_0-6_004981
  6
CONTINUOUS
 62
    2
 10
294.12081903571419
 20
126.49625512859887
 11
312.12081903571413
 21
126.49625512859887
  0
LINE
  8
_0-6_004981
  6
CONTINUOUS
 62
    2
 10
276.12081903571413
 20
124.99625512859887
 11
294.12081903571419
 21
124.99625512859887
  0
LINE
  8
_0-6_004981
  6
CONTINUOUS
 62
    2
 10
294.12081903571419
 20
124.99625512859887
 11
312.12081903571413
 21
124.99625512859887
  0
LINE
  8
_0-3_003259
  6
CENTER-S
 62
    3
 10
294.12081903571419
 20
277.849258039711
 11
294.12081903571419
 21
225.17125803971106
  0
LINE
  8
_0-3_003259
  6
CENTER-S
 62
    3
 10
320.75281903571413
 20
252.040258039711
 11
207.28281903571419
 21
252.040258039711
  0
ARC
  8
_0-3_003259
  6
CONTINUOUS
 62
    2
 10
227.07081903571418
 20
252.040258039711
 40
16.876999999999998
 50
157.1519999999997
 51
202.84800000000021
  0
LINE
  8
_0-3_003259
  6
CONTINUOUS
 62
    2
 10
215.20381903571419
 20
261.04025803971103
 11
238.3018190357142
 21
261.04025803971103
  0
ARC
  8
_0-3_003259
  6
CONTINUOUS
 62
    2
 10
215.20381903571416
 20
257.04025803971103
 40
4
 50
90
 51
157.1519999999997
  0
LINE
  8
_0-3_003259
  6
CONTINUOUS
 62
    2
 10
215.20381903571419
 20
243.04025803971106
 11
238.3018190357142
 21
243.04025803971106
  0
ARC
  8
_0-3_003259
  6
CONTINUOUS
 62
    2
 10
215.20381903571416
 20
247.04025803971106
 40
4
 50
202.84800000000021
 51
270
  0
ARC
  8
_0-3_003259
  6
CONTINUOUS
 62
    2
 10
225.38781903571418
 20
252.040258039711
 40
15.194
 50
156.29799999999988
 51
203.70300000000031
  0
LINE
  8
_0-3_003259
  6
CONTINUOUS
 62
    2
 10
215.13781903571418
 20
260.54025803971103
 11
239.25181903571419
 21
260.54025803971103
  0
ARC
  8
_0-3_003259
  6
CONTINUOUS
 62
    2
 10
215.13781903571418
 20
256.54025803971103
 40
4
 50
90
 51
156.29799999999988
  0
LINE
  8
_0-3_003259
  6
CONTINUOUS
 62
    2
 10
215.13781903571418
 20
243.54025803971106
 11
239.25181903571419
 21
243.54025803971106
  0
ARC
  8
_0-3_003259
  6
CONTINUOUS
 62
    2
 10
215.13781903571418
 20
247.54025803971106
 40
4
 50
203.70300000000028
 51
270
  0
LINE
  8
_0-3_003259
  6
CONTINUOUS
 62
    2
 10
250.71381903571418
 20
261.19925803971102
 11
273.81254406607507
 21
263.86497654619267
  0
ARC
  8
_0-3_003259
  6
CONTINUOUS
 62
    2
 10
239.25181903571419
 20
360.54025803971114
 40
100
 50
270
 51
276.58199999999942
  0
LINE
  8
_0-3_003259
  6
CONTINUOUS
 62
    2
 10
251.64281903571418
 20
261.93425803971103
 11
259.69781903571418
 21
263.01825803971098
  0
ARC
  8
_0-3_003259
  6
CONTINUOUS
 62
    2
 10
238.3018190357142
 20
361.04025803971103
 40
100
 50
270
 51
277.66700000000071
  0
LINE
  8
_0-3_003259
  6
CONTINUOUS
 62
    2
 10
250.71381903571418
 20
242.88125803971107
 11
273.81254406607502
 21
240.21553953322947
  0
ARC
  8
_0-3_003259
  6
CONTINUOUS
 62
    2
 10
239.25181903571416
 20
143.54025803971109
 40
100
 50
83.418000000000603
 51
90
  0
LINE
  8
_0-3_003259
  6
CONTINUOUS
 62
    2
 10
251.64281903571418
 20
242.14625803971108
 11
259.69781903571418
 21
241.06225803971108
  0
ARC
  8
_0-3_003259
  6
CONTINUOUS
 62
    2
 10
238.30181903571417
 20
143.04025803971109
 40
100
 50
82.332999999999174
 51
90
  0
ARC
  8
_0-3_003259
  6
CONTINUOUS
 62
    2
 10
246.35681903571421
 20
362.12425803971098
 40
100
 50
277.66700000000071
 51
286.87325543082181
  0
ARC
  8
_0-3_003259
  6
CONTINUOUS
 62
    2
 10
246.35681903571418
 20
141.95625803971108
 40
100
 50
73.126744569178285
 51
82.332999999999174
  0
ARC
  8
_0-5_042493
  6
CONTINUOUS
 62
    2
 10
271.67181903571417
 20
267.92325803971101
 40
4
 50
324.71999999999979
 51
26.311999999999962
  0
ARC
  8
_0-5_042493
  6
CONTINUOUS
 62
    2
 10
291.58981903571418
 20
279.42325803971101
 40
4
 50
213.68899999999993
 51
275.27999999999997
  0
ARC
  8
_0-5_042493
  6
CONTINUOUS
 62
    2
 10
291.58981903571418
 20
224.65725803971105
 40
4
 50
84.719999999999927
 51
146.31199999999981
  0
ARC
  8
_0-5_042493
  6
CONTINUOUS
 62
    2
 10
271.67181903571417
 20
236.15725803971105
 40
4
 50
333.68900000000013
 51
35.2800000000002
  0
ARC
  8
_0-5_042493
  6
CONTINUOUS
 62
    2
 10
319.10081903571415
 20
263.54025803971103
 40
4
 50
204.72099999999983
 51
266.31200000000001
  0
ARC
  8
_0-5_042493
  6
CONTINUOUS
 62
    2
 10
319.10081903571415
 20
240.54025803971106
 40
4
 50
93.688999999999921
 51
155.28100000000009
  0
LINE
  8
_0-5_042493
  6
CENTER-S
 62
    3
 10
294.12081903571419
 20
252.040258039711
 11
278.86681903571417
 21
225.61925803971104
  0
ARC
  8
_0-5_042493
  6
CONTINUOUS
 62
    2
 10
315.77181903571414
 20
214.54025803971106
 40
30
 50
89.999999999999985
 51
150.00100000000023
  0
ARC
  8
_0-5_042493
  6
CONTINUOUS
 62
    2
 10
287.4208190357142
 20
227.43625803971104
 40
1
 50
254.7679999999998
 51
329.99999999999988
  0
LINE
  8
_0-5_042493
  6
CONTINUOUS
 62
    2
 10
288.28681903571418
 20
226.93625803971104
 11
289.7908190357142
 21
229.54025803971106
  0
ARC
  8
_0-5_042493
  6
CONTINUOUS
 62
    2
 10
318.77881903571415
 20
245.54025803971106
 40
1
 50
270
 51
345.23299999999977
  0
LINE
  8
_0-5_042493
  6
CONTINUOUS
 62
    2
 10
318.77881903571415
 20
244.54025803971103
 11
315.77181903571414
 21
244.54025803971103
  0
ARC
  8
_0-5_042493
  6
CONTINUOUS
 62
    2
 10
294.12081903571419
 20
252.040258039711
 40
23.5
 50
264.71999999999991
 51
335.28100000000011
  0
ARC
  8
_0-5_042493
  6
CONTINUOUS
 62
    2
 10
294.12081903571419
 20
252.040258039711
 40
26.5
 50
240.00000000000014
 51
254.7679999999998
  0
ARC
  8
_0-5_042493
  6
CONTINUOUS
 62
    2
 10
294.12081903571419
 20
252.040258039711
 40
24.5
 50
240.00000000000014
 51
254.7679999999998
  0
ARC
  8
_0-5_042493
  6
CONTINUOUS
 62
    2
 10
294.12081903571419
 20
252.040258039711
 40
24.5
 50
345.23299999999977
 51
0.0000000000000286
  0
ARC
  8
_0-5_042493
  6
CONTINUOUS
 62
    2
 10
294.12081903571419
 20
252.040258039711
 40
21.5
 50
264.71999999999991
 51
335.28100000000011
  0
ARC
  8
_0-5_042493
  6
CONTINUOUS
 62
    2
 10
294.12081903571419
 20
252.040258039711
 40
21.5
 50
24.720000000000048
 51
95.280999999999835
  0
ARC
  8
_0-5_042493
  6
CONTINUOUS
 62
    2
 10
294.12081903571419
 20
252.040258039711
 40
24.5
 50
105.23299999999971
 51
120.00099999999962
  0
ARC
  8
_0-5_042493
  6
CONTINUOUS
 62
    2
 10
294.12081903571419
 20
252.040258039711
 40
24.5
 50
0
 51
14.767999999999979
  0
ARC
  8
_0-5_042493
  6
CONTINUOUS
 62
    2
 10
294.12081903571419
 20
252.040258039711
 40
26.5
 50
105.23299999999971
 51
120.00099999999962
  0
ARC
  8
_0-5_042493
  6
CONTINUOUS
 62
    2
 10
294.12081903571419
 20
252.040258039711
 40
23.5
 50
24.720000000000048
 51
95.280999999999835
  0
LINE
  8
_0-5_042493
  6
CONTINUOUS
 62
    2
 10
288.28681903571418
 20
277.14425803971101
 11
289.7908190357142
 21
274.54025803971103
  0
ARC
  8
_0-5_042493
  6
CONTINUOUS
 62
    2
 10
287.4208190357142
 20
276.64425803971101
 40
1
 50
30.000000000000028
 51
105.2329999999997
  0
LINE
  8
_0-5_042493
  6
CONTINUOUS
 62
    2
 10
318.77881903571415
 20
259.54025803971103
 11
315.77181903571414
 21
259.54025803971103
  0
ARC
  8
_0-5_042493
  6
CONTINUOUS
 62
    2
 10
318.77881903571415
 20
258.54025803971103
 40
1
 50
14.767999999999979
 51
89.999999999999971
  0
ARC
  8
_0-5_042493
  6
CONTINUOUS
 62
    2
 10
315.77181903571414
 20
289.54025803971103
 40
30
 50
210.00100000000009
 51
270
  0
ARC
  8
_0-5_042493
  6
CONTINUOUS
 62
    2
 10
294.12081903571419
 20
252.040258039711
 40
21.5
 50
144.71999999999979
 51
215.28099999999969
  0
ARC
  8
_0-5_042493
  6
CONTINUOUS
 62
    2
 10
294.12081903571419
 20
252.040258039711
 40
24.5
 50
225.233
 51
240.00000000000014
  0
ARC
  8
_0-5_042493
  6
CONTINUOUS
 62
    2
 10
294.12081903571419
 20
252.040258039711
 40
24.5
 50
120.00099999999959
 51
134.76799999999968
  0
ARC
  8
_0-5_042493
  6
CONTINUOUS
 62
    2
 10
294.12081903571419
 20
252.040258039711
 40
26.5
 50
225.233
 51
240.00000000000014
  0
ARC
  8
_0-5_042493
  6
CONTINUOUS
 62
    2
 10
294.12081903571419
 20
252.040258039711
 40
26.5
 50
120.00099999999959
 51
134.76799999999968
  0
ARC
  8
_0-5_042493
  6
CONTINUOUS
 62
    2
 10
294.12081903571419
 20
252.040258039711
 40
23.5
 50
144.71999999999979
 51
215.28099999999969
  0
LINE
  8
_0-5_042493
  6
CONTINUOUS
 62
    2
 10
275.29681903571417
 20
234.43625803971104
 11
276.79981903571416
 21
237.04025803971106
  0
ARC
  8
_0-5_042493
  6
CONTINUOUS
 62
    2
 10
276.16281903571416
 20
233.93625803971104
 40
1
 50
150.0010000000002
 51
225.23299999999997
  0
LINE
  8
_0-5_042493
  6
CONTINUOUS
 62
    2
 10
275.29681903571417
 20
269.64425803971101
 11
276.79981903571422
 21
267.04025803971103
  0
ARC
  8
_0-5_042493
  6
CONTINUOUS
 62
    2
 10
276.16281903571416
 20
270.14425803971101
 40
1
 50
134.76799999999971
 51
210.00100000000009
  0
ARC
  8
_0-5_042493
  6
CONTINUOUS
 62
    2
 10
250.8198190357142
 20
252.040258039711
 40
30
 50
330.0010000000002
 51
30.000000000000028
  0
LINE
  8
_0-5_042493
  6
CENTER-S
 62
    3
 10
294.12081903571419
 20
252.040258039711
 11
278.86681903571422
 21
278.46125803971096
  0
ARC
  8
_0-5_042493
  6
CONTINUOUS
 62
    2
 10
294.12107499775805
 20
252.03992410487461
 40
26.5
 50
0
 51
14.767999999999979
  0
ARC
  8
_0-5_042493
  6
CONTINUOUS
 62
    2
 10
294.12107499775805
 20
252.03992410487461
 40
26.5
 50
345.23299999999977
 51
0.0000000000000286
  0
ARC
  8
_0-5_042493
  6
CONTINUOUS
 62
    2
 10
149.76198190375467
 20
201.19425512859888
 40
10
 50
2.20999999999994
 51
87.22699999999989
  0
ARC
  8
_0-5_042493
  6
CONTINUOUS
 62
    2
 10
144.31298190375468
 20
204.40725512859887
 40
4
 50
1.3239999999999489
 51
88.32199999999969
  0
ARC
  8
_0-5_042493
  6
CONTINUOUS
 62
    2
 10
144.31298190375468
 20
204.40725512859887
 40
7
 50
1.3239999999999489
 51
88.32199999999969
  0
ARC
  8
_0-5_042493
  6
CONTINUOUS
 62
    2
 10
135.73298190375467
 20
-88.46674487140109
 40
297
 50
88.321999999999718
 51
90.000000000000014
  0
ARC
  8
_0-5_042493
  6
CONTINUOUS
 62
    2
 10
135.73298190375467
 20
-88.46674487140109
 40
300
 50
87.226999999999875
 51
92.792820700896626
  0
ARC
  8
_0-5_042493
  6
CONTINUOUS
 62
    2
 10
159.74298190375466
 20
162.99425512859889
 40
1.5
 50
270
 51
2.2099999999999386
  0
LINE
  8
_0-5_042493
  6
CONTINUOUS
 62
    2
 10
161.24198190375469
 20
163.05225512859888
 11
159.75498190375469
 21
201.57925512859887
  0
LINE
  8
_0-5_042493
  6
CONTINUOUS
 62
    2
 10
159.74298190375466
 20
161.49425512859889
 11
145.01936335157739
 21
161.49425512859889
  0
ARC
  8
_0-5_042493
  6
CONTINUOUS
 62
    2
 10
150.77098190375468
 20
162.99425512859889
 40
1.5
 50
270
 51
1.3230000000000372
  0
LINE
  8
_0-5_042493
  6
CONTINUOUS
 62
    2
 10
152.27098190375468
 20
163.02925512859886
 11
151.31098190375467
 21
204.56925512859888
  0
ARC
  8
_0-5_042493
  6
CONTINUOUS
 62
    2
 10
147.77098190375468
 20
162.99425512859889
 40
1.5
 50
270
 51
1.3230000000000372
  0
LINE
  8
_0-5_042493
  6
CONTINUOUS
 62
    2
 10
149.26998190375468
 20
163.02925512859886
 11
148.31198190375468
 21
204.50025512859886
  0
LINE
  8
_0-5_042493
  6
CONTINUOUS
 62
    2
 10
122.19598190375469
 20
163.02925512859886
 11
123.15398190375466
 21
204.50025512859886
  0
ARC
  8
_0-5_042493
  6
CONTINUOUS
 62
    2
 10
123.69498190375472
 20
162.99425512859889
 40
1.5
 50
178.6769999999999
 51
270
  0
LINE
  8
_0-5_042493
  6
CONTINUOUS
 62
    2
 10
119.19498190375466
 20
163.02925512859886
 11
120.1549819037547
 21
204.56925512859888
  0
ARC
  8
_0-5_042493
  6
CONTINUOUS
 62
    2
 10
120.69498190375472
 20
162.99425512859889
 40
1.5
 50
178.6769999999999
 51
270
  0
LINE
  8
_0-5_042493
  6
CONTINUOUS
 62
    2
 10
110.22398190375464
 20
163.05225512859888
 11
111.71098190375468
 21
201.57925512859887
  0
ARC
  8
_0-5_042493
  6
CONTINUOUS
 62
    2
 10
111.72298190375467
 20
162.99425512859889
 40
1.5
 50
177.79000000000002
 51
270
  0
ARC
  8
_0-5_042493
  6
CONTINUOUS
 62
    2
 10
127.15298190375469
 20
204.40725512859887
 40
7
 50
91.678000000000324
 51
178.67599999999998
  0
ARC
  8
_0-5_042493
  6
CONTINUOUS
 62
    2
 10
127.15298190375469
 20
204.40725512859887
 40
4
 50
91.678000000000324
 51
178.67599999999998
  0
ARC
  8
_0-5_042493
  6
CONTINUOUS
 62
    2
 10
121.70398190375469
 20
201.19425512859888
 40
10
 50
92.773000000000124
 51
177.78999999999999
  0
ARC
  8
_0-5_042493
  6
CONTINUOUS
 62
    2
 10
135.73298190375558
 20
-88.46674487140109
 40
297
 50
90.00000000000017
 51
91.678000000000466
  0
LINE
  8
_0-5_042493
  6
CONTINUOUS
 62
    2
 10
288.15781903571416
 20
162.51175512859887
 11
288.91731903571417
 21
206.58025512859887
  0
ARC
  8
_0-5_042493
  6
CONTINUOUS
 62
    2
 10
289.15731903571418
 20
162.49425512859889
 40
1
 50
179.01399999999981
 51
270
  0
LINE
  8
_0-5_042493
  6
CONTINUOUS
 62
    2
 10
312.63281903571413
 20
201.26125512859888
 11
314.25581903571412
 21
161.49425512859889
  0
LINE
  8
_0-5_042493
  6
CONTINUOUS
 62
    2
 10
275.22531903571416
 20
163.05425512859889
 11
276.92381903571418
 21
205.52075512859889
  0
ARC
  8
_0-5_042493
  6
CONTINUOUS
 62
    2
 10
279.23281903571421
 20
201.65575512859888
 40
7
 50
101.23199999999978
 51
177.7119999999999
  0
ARC
  8
_0-5_042493
  6
CONTINUOUS
 62
    2
 10
276.7238190357142
 20
162.99425512859889
 40
1.5
 50
177.71099999999972
 51
270
  0
ARC
  8
_0-5_042493
  6
CONTINUOUS
 62
    2
 10
282.91931903571418
 20
205.28075512859888
 40
6
 50
92.184999999999959
 51
177.71099999999972
  0
LINE
  8
_0-5_042493
  6
CONTINUOUS
 62
    2
 10
295.46631903571415
 20
208.36675512859889
 11
305.6228190357142
 21
208.36675512859889
  0
LINE
  8
_0-5_042493
  6
CONTINUOUS
 62
    2
 10
290.46781903571422
 20
203.48375512859888
 11
289.48731903571422
 21
161.49425512859889
  0
ARC
  8
_0-5_042493
  6
CONTINUOUS
 62
    2
 10
295.46631903571415
 20
203.36675512859889
 40
5
 50
90
 51
178.66399999999995
  0
LINE
  8
_0-5_042493
  6
CONTINUOUS
 62
    2
 10
317.36631903571412
 20
163.05525512859887
 11
315.80131903571412
 21
201.39025512859888
  0
ARC
  8
_0-5_042493
  6
CONTINUOUS
 62
    2
 10
315.86731903571416
 20
162.99425512859889
 40
1.5
 50
270
 51
2.3370000000002311
  0
ARC
  8
_0-5_042493
  6
CONTINUOUS
 62
    2
 10
305.6228190357142
 20
201.36675512859889
 40
7
 50
2.3370000000002222
 51
90
  0
ARC
  8
_0-5_042493
  6
CONTINUOUS
 62
    2
 10
305.7983190357142
 20
201.25925512859888
 40
10
 50
2.3370000000002222
 51
87.692000000000106
  0
ARC
  8
_0-5_042493
  6
CONTINUOUS
 62
    2
 10
319.05831903571413
 20
162.99425512859889
 40
1.5
 50
270
 51
2.3370000000002311
  0
LINE
  8
_0-5_042493
  6
CONTINUOUS
 62
    2
 10
319.05831903571413
 20
161.49425512859889
 11
294.12081903571419
 21
161.49425512859889
  0
ARC
  8
_0-5_042493
  6
CONTINUOUS
 62
    2
 10
308.9953190357142
 20
201.11275512859887
 40
10
 50
2.3370000000002222
 51
87.059999999999874
  0
LINE
  8
_0-5_042493
  6
CONTINUOUS
 62
    2
 10
318.98681903571412
 20
201.52025512859887
 11
320.55731903571415
 21
163.05525512859887
  0
ARC
  8
_0-5_042493
  6
CONTINUOUS
 62
    2
 10
272.18181903571417
 20
162.99425512859889
 40
1.5
 50
177.7119999999999
 51
270
  0
LINE
  8
_0-5_042493
  6
CONTINUOUS
 62
    2
 10
272.18181903571417
 20
161.49425512859889
 11
294.12081903571419
 21
161.49425512859889
  0
LINE
  8
_0-5_042493
  6
CONTINUOUS
 62
    2
 10
272.23831903571419
 20
201.93525512859886
 11
270.68331903571419
 21
163.05425512859889
  0
ARC
  8
_0-5_042493
  6
CONTINUOUS
 62
    2
 10
294.12081903571419
 20
-88.505744871401105
 40
300
 50
91.374000000000037
 51
92.184999999999959
  0
ARC
  8
_0-5_042493
  6
CONTINUOUS
 62
    2
 10
294.12081903571419
 20
-88.505744871401105
 40
300
 50
87.059999999999874
 51
88.626999999999654
  0
ARC
  8
_0-5_042493
  6
CONTINUOUS
 62
    2
 10
293.91631903571419
 20
206.49425512859889
 40
5
 50
100.64199999999991
 51
179.01399999999981
  0
ARC
  8
_0-4_042385
  6
CONTINUOUS
 62
    2
 10
302.12081903571419
 20
212.25725512859887
 40
0.5
 50
0
 51
80.698999999999912
  0
LINE
  8
_0-4_042385
  6
CONTINUOUS
 62
    2
 10
302.62081903571419
 20
211.40825512859888
 11
302.62081903571419
 21
212.25725512859887
  0
ARC
  8
_0-4_042385
  6
CONTINUOUS
 62
    2
 10
294.12081903571419
 20
163.40825512859888
 40
50
 50
80.698999999999912
 51
90
  0
ARC
  8
_0-4_042385
  6
CONTINUOUS
 62
    2
 10
294.12081903571419
 20
163.40825512859888
 40
50
 50
90
 51
99.302999999999912
  0
LINE
  8
_0-4_042385
  6
CONTINUOUS
 62
    2
 10
285.62081903571419
 20
211.40825512859888
 11
285.62081903571419
 21
212.25725512859887
  0
ARC
  8
_0-4_042385
  6
CONTINUOUS
 62
    2
 10
286.12081903571419
 20
212.25725512859887
 40
0.5
 50
99.302999999999926
 51
180.00199999999972
  0
LINE
  8
_0-4_042385
  6
CONTINUOUS
 62
    2
 10
294.12081903571419
 20
211.40825512859888
 11
285.62081903571419
 21
211.40825512859888
  0
LINE
  8
_0-4_042385
  6
CONTINUOUS
 62
    2
 10
294.12081903571419
 20
211.40825512859888
 11
302.62081903571419
 21
211.40825512859888
  0
LINE
  8
_0-3_003259
  6
CONTINUOUS
 62
    2
 10
123.73298190375467
 20
161.4962551285989
 11
115.73298190375467
 21
126.4962551285989
  0
LINE
  8
_0-3_003259
  6
CENTER-S
 62
    3
 10
85.755981903754644
 20
126.4962551285989
 11
115.73298190375467
 21
126.4962551285989
  0
LINE
  8
_0-3_003259
  6
CONTINUOUS
 62
    2
 10
115.73298190375467
 20
126.4962551285989
 11
135.73298190375467
 21
126.4962551285989
  0
LINE
  8
_0-3_003259
  6
CENTER-S
 62
    3
 10
135.73298190375467
 20
63.016255128598871
 11
135.73298190375467
 21
221.08925512859886
  0
LINE
  8
_0-3_003259
  6
CONTINUOUS
 62
    2
 10
146.23298190375467
 20
75.99325512859886
 11
146.23298190375467
 21
106.58125512859888
  0
LINE
  8
_0-3_003259
  6
CONTINUOUS
 62
    3
 10
145.11698190375469
 20
75.99325512859886
 11
145.11698190375466
 21
106.58125512859888
  0
LINE
  8
_0-3_003259
  6
CONTINUOUS
 62
    3
 10
126.34898190375466
 20
75.99325512859886
 11
126.34898190375466
 21
106.58125512859888
  0
LINE
  8
_0-3_003259
  6
CONTINUOUS
 62
    2
 10
125.23298190375469
 20
75.99325512859886
 11
125.23298190375469
 21
106.58125512859888
  0
LINE
  8
_0-3_003259
  6
CONTINUOUS
 62
    2
 10
155.73298190375467
 20
126.4962551285989
 11
135.73298190375467
 21
126.4962551285989
  0
LINE
  8
_0-3_003259
  6
CONTINUOUS
 62
    2
 10
147.73298190375467
 20
161.4962551285989
 11
155.73298190375467
 21
126.4962551285989
  0
LINE
  8
_0-3_003259
  6
CENTER-S
 62
    3
 10
185.70998190375468
 20
126.4962551285989
 11
155.73298190375467
 21
126.4962551285989
  0
ARC
  8
_0-3_003259
  6
CONTINUOUS
 62
    2
 10
135.73298190375467
 20
154.22191629332704
 40
14.872123409928919
 50
64.691179092977705
 51
115.30882090702237
  0
ARC
  8
_0-3_003259
  6
CONTINUOUS
 62
    2
 10
135.73298190375467
 20
128.07725947568727
 40
27.796116601965579
 50
78.553797775658139
 51
101.4462022243418
  0
ARC
  8
_0-3_003259
  6
CONTINUOUS
 62
    2
 10
135.73298190375467
 20
206.38659146345858
 40
59.265380269691206
 50
263.11344633746551
 51
276.88655366253448
  0
ARC
  8
_0-3_003259
  6
CONTINUOUS
 62
    2
 10
131.01069615252268
 20
151.4001062705802
 40
4.0000000000000017
 50
101.4462022243416
 51
126.58148492723431
  0
ARC
  8
_0-3_003259
  6
CONTINUOUS
 62
    2
 10
140.45526765498681
 20
151.40010627058038
 40
3.999999999999797
 50
53.41851507276597
 51
78.553797775659703
  0
ARC
  8
_0-3_003259
  6
CONTINUOUS
 62
    2
 10
128.86664220055033
 20
149.53435178451067
 40
2
 50
175.75312224788171
 51
263.11344633746517
  0
ARC
  8
_0-3_003259
  6
CONTINUOUS
 62
    2
 10
142.59932160695902
 20
149.53435178451067
 40
2
 50
276.88655366253391
 51
4.2468777521183049
  0
LINE
  8
_0-3_003259
  6
CONTINUOUS
 62
    2
 10
123.81766542437938
 20
149.22603474573085
 11
127.17397361611003
 21
164.88862361718716
  0
LINE
  8
_0-3_003259
  6
CONTINUOUS
 62
    2
 10
122.23104629752042
 20
137.32833557884666
 11
127.02897744791157
 21
157.65407250634487
  0
ARC
  8
_0-3_003259
  6
CONTINUOUS
 62
    2
 10
131.08518126954831
 20
164.05049791558505
 40
4
 50
115.30882090702259
 51
167.90510600233639
  0
ARC
  8
_0-3_003259
  6
CONTINUOUS
 62
    2
 10
140.38078253796106
 20
164.05049791558505
 40
4
 50
12.094893997663541
 51
64.691179092977421
  0
LINE
  8
_0-3_003259
  6
CONTINUOUS
 62
    2
 10
147.64829838312996
 20
149.22603474573085
 11
144.29199019139932
 21
164.88862361718716
  0
LINE
  8
_0-3_003259
  6
CONTINUOUS
 62
    2
 10
127.11802850926451
 20
162.09725512859895
 11
126.86704376851358
 21
149.5744280941723
  0
LINE
  8
_0-3_003259
  6
CONTINUOUS
 62
    2
 10
144.3479352982448
 20
162.09725512859895
 11
144.59892003899577
 21
149.5744280941723
  0
LINE
  8
_0-3_003259
  6
CONTINUOUS
 62
    2
 10
149.23491750998894
 20
137.32833557884666
 11
144.43698635959779
 21
157.65407250634487
  0
LINE
  8
_0-3_003259
  6
CONTINUOUS
 62
    2
 10
130.23298190375467
 20
151.49622068847568
 11
130.23298190375467
 21
151.49622068847568
  0
LINE
  8
_0-3_003259
  6
CONTINUOUS
 62
    2
 10
130.23298190375467
 20
151.49622068847568
 11
130.31653926218751
 21
151.01869418035627
  0
LINE
  8
_0-3_003259
  6
CONTINUOUS
 62
    2
 10
130.31653926218751
 20
151.01869418035627
 11
130.56467248943218
 21
150.55567707354597
  0
LINE
  8
_0-3_003259
  6
CONTINUOUS
 62
    2
 10
130.56467248943218
 20
150.55567707354597
 11
130.96984218294025
 21
150.12123790853729
  0
LINE
  8
_0-3_003259
  6
CONTINUOUS
 62
    2
 10
130.96984218294025
 20
150.12123790853729
 11
131.5197374666003
 21
149.72857689952218
  0
LINE
  8
_0-3_003259
  6
CONTINUOUS
 62
    2
 10
131.5197374666003
 20
149.72857689952218
 11
132.19765005047869
 21
149.38962485256351
  0
LINE
  8
_0-3_003259
  6
CONTINUOUS
 62
    2
 10
132.19765005047869
 20
149.38962485256351
 11
132.98298190375467
 21
149.1146806540901
  0
LINE
  8
_0-3_003259
  6
CONTINUOUS
 62
    2
 10
132.98298190375467
 20
149.1146806540901
 11
133.85187111546349
 21
148.91209834444407
  0
LINE
  8
_0-3_003259
  6
CONTINUOUS
 62
    2
 10
133.85187111546349
 20
148.91209834444407
 11
134.77791692658655
 21
148.78803328459247
  0
LINE
  8
_0-3_003259
  6
CONTINUOUS
 62
    2
 10
134.77791692658655
 20
148.78803328459247
 11
135.73298190375467
 21
148.7462551285989
  0
LINE
  8
_0-3_003259
  6
CONTINUOUS
 62
    2
 10
135.73298190375467
 20
148.7462551285989
 11
136.68804688092279
 21
148.78803328459247
  0
LINE
  8
_0-3_003259
  6
CONTINUOUS
 62
    2
 10
136.68804688092279
 20
148.78803328459247
 11
137.61409269204585
 21
148.91209834444407
  0
LINE
  8
_0-3_003259
  6
CONTINUOUS
 62
    2
 10
137.61409269204585
 20
148.91209834444407
 11
138.48298190375467
 21
149.1146806540901
  0
LINE
  8
_0-3_003259
  6
CONTINUOUS
 62
    2
 10
138.48298190375467
 20
149.1146806540901
 11
139.26831375703065
 21
149.38962485256351
  0
LINE
  8
_0-3_003259
  6
CONTINUOUS
 62
    2
 10
139.26831375703065
 20
149.38962485256351
 11
139.94622634090904
 21
149.72857689952218
  0
LINE
  8
_0-3_003259
  6
CONTINUOUS
 62
    2
 10
139.94622634090904
 20
149.72857689952218
 11
140.49612162456909
 21
150.12123790853729
  0
LINE
  8
_0-3_003259
  6
CONTINUOUS
 62
    2
 10
140.49612162456909
 20
150.12123790853729
 11
140.90129131807717
 21
150.55567707354597
  0
LINE
  8
_0-3_003259
  6
CONTINUOUS
 62
    2
 10
140.90129131807717
 20
150.55567707354597
 11
141.1494245453218
 21
151.01869418035624
  0
LINE
  8
_0-3_003259
  6
CONTINUOUS
 62
    2
 10
141.1494245453218
 20
151.01869418035624
 11
141.23298190375467
 21
151.49622068847568
  0
LINE
  8
_0-3_003259
  6
CONTINUOUS
 62
    2
 10
141.23298190375467
 20
151.49622068847568
 11
141.14942454532183
 21
151.97374719659509
  0
LINE
  8
_0-3_003259
  6
CONTINUOUS
 62
    2
 10
141.14942454532183
 20
151.97374719659509
 11
140.90129131807717
 21
152.43676430340539
  0
LINE
  8
_0-3_003259
  6
CONTINUOUS
 62
    2
 10
140.90129131807717
 20
152.43676430340539
 11
140.49612162456909
 21
152.87120346841408
  0
LINE
  8
_0-3_003259
  6
CONTINUOUS
 62
    2
 10
140.49612162456909
 20
152.87120346841408
 11
139.94622634090904
 21
153.26386447742919
  0
LINE
  8
_0-3_003259
  6
CONTINUOUS
 62
    2
 10
139.94622634090904
 20
153.26386447742919
 11
139.26831375703065
 21
153.60281652438786
  0
LINE
  8
_0-3_003259
  6
CONTINUOUS
 62
    2
 10
139.26831375703065
 20
153.60281652438786
 11
138.48298190375467
 21
153.87776072286126
  0
LINE
  8
_0-3_003259
  6
CONTINUOUS
 62
    2
 10
138.48298190375467
 20
153.87776072286126
 11
137.61409269204585
 21
154.0803430325073
  0
LINE
  8
_0-3_003259
  6
CONTINUOUS
 62
    2
 10
137.61409269204585
 20
154.0803430325073
 11
136.68804688092279
 21
154.2044080923589
  0
LINE
  8
_0-3_003259
  6
CONTINUOUS
 62
    2
 10
136.68804688092279
 20
154.2044080923589
 11
135.7329819037547
 21
154.24618624835247
  0
LINE
  8
_0-3_003259
  6
CONTINUOUS
 62
    2
 10
135.7329819037547
 20
154.24618624835247
 11
134.77791692658658
 21
154.2044080923589
  0
LINE
  8
_0-3_003259
  6
CONTINUOUS
 62
    2
 10
134.77791692658658
 20
154.2044080923589
 11
133.85187111546352
 21
154.0803430325073
  0
LINE
  8
_0-3_003259
  6
CONTINUOUS
 62
    2
 10
133.85187111546352
 20
154.0803430325073
 11
132.9829819037547
 21
153.87776072286129
  0
LINE
  8
_0-3_003259
  6
CONTINUOUS
 62
    2
 10
132.9829819037547
 20
153.87776072286129
 11
132.19765005047872
 21
153.60281652438786
  0
LINE
  8
_0-3_003259
  6
CONTINUOUS
 62
    2
 10
132.19765005047872
 20
153.60281652438786
 11
131.5197374666003
 21
153.26386447742919
  0
LINE
  8
_0-3_003259
  6
CONTINUOUS
 62
    2
 10
131.5197374666003
 20
153.26386447742919
 11
130.96984218294028
 21
152.87120346841408
  0
LINE
  8
_0-3_003259
  6
CONTINUOUS
 62
    2
 10
130.96984218294028
 20
152.87120346841408
 11
130.56467248943218
 21
152.43676430340539
  0
LINE
  8
_0-3_003259
  6
CONTINUOUS
 62
    2
 10
130.56467248943218
 20
152.43676430340539
 11
130.31653926218754
 21
151.97374719659512
  0
LINE
  8
_0-3_003259
  6
CONTINUOUS
 62
    2
 10
130.31653926218754
 20
151.97374719659512
 11
130.23298190375467
 21
151.49622068847568
  0
LINE
  8
_0-3_003259
  6
CONTINUOUS
 62
    2
 10
130.23298190375467
 20
151.49622068847568
 11
130.23298190375467
 21
151.49622068847568
  0
LINE
  8
_0-3_003259
  6
CENTER-S
 62
    3
 10
156.62365507677145
 20
151.49622068847568
 11
117.72797561719356
 21
151.49622068847568
  0
LINE
  8
_0-5_042493
  6
CONTINUOUS
 62
    2
 10
126.44660045593192
 20
161.49425512859889
 11
111.72298190375467
 21
161.49425512859889
  0
ARC
  8
_0-4_042385
  6
CONTINUOUS
 62
    2
 10
127.73298190375469
 20
212.25725512859887
 40
0.5
 50
99.302999999999926
 51
180.00199999999972
  0
LINE
  8
_0-4_042385
  6
CONTINUOUS
 62
    2
 10
127.23298190375467
 20
211.40825512859888
 11
127.23298190375467
 21
212.25725512859887
  0
ARC
  8
_0-4_042385
  6
CONTINUOUS
 62
    2
 10
135.73298190375467
 20
163.40825512859888
 40
50
 50
90
 51
99.302999999999912
  0
ARC
  8
_0-4_042385
  6
CONTINUOUS
 62
    2
 10
135.73298190375467
 20
163.40825512859888
 40
50
 50
80.698999999999912
 51
90
  0
LINE
  8
_0-4_042385
  6
CONTINUOUS
 62
    2
 10
144.23298190375467
 20
211.40825512859888
 11
144.23298190375467
 21
212.25725512859887
  0
ARC
  8
_0-4_042385
  6
CONTINUOUS
 62
    2
 10
143.73298190375467
 20
212.25725512859887
 40
0.5
 50
0
 51
80.698999999999912
  0
LINE
  8
_0-6_004981
  6
CONTINUOUS
 62
    2
 10
135.73298190375467
 20
124.99625512859888
 11
153.73298190375467
 21
124.9962551285989
  0
LINE
  8
_0-6_004981
  6
CONTINUOUS
 62
    2
 10
117.73298190375469
 20
124.9962551285989
 11
135.73298190375467
 21
124.9962551285989
  0
LINE
  8
_0-6_004981
  6
CONTINUOUS
 62
    2
 10
135.73298190375467
 20
126.49625512859888
 11
153.73298190375467
 21
126.4962551285989
  0
LINE
  8
_0-6_004981
  6
CONTINUOUS
 62
    2
 10
117.73298190375469
 20
126.4962551285989
 11
135.73298190375467
 21
126.4962551285989
  0
LINE
  8
_0-6_004981
  6
CONTINUOUS
 62
    2
 10
153.73298190375467
 20
126.4962551285989
 11
153.73298190375467
 21
124.9962551285989
  0
LINE
  8
_0-6_004981
  6
CONTINUOUS
 62
    2
 10
117.73298190375469
 20
126.4962551285989
 11
117.73298190375469
 21
124.9962551285989
  0
CIRCLE
  8
_0-4_042385
  6
CONTINUOUS
 62
    2
 10
294.12081903571419
 20
252.040258039711
 40
8.5
  0
LINE
  8
_0-9_004834
  6
CONTINUOUS
 62
    2
 10
299.26959666524493
 20
69.993255128598875
 11
299.26959666524493
 21
69.993255128598875
  0
LINE
  8
_0-9_004834
  6
CONTINUOUS
 62
    2
 10
299.26959666524493
 20
69.993255128598875
 11
299.19137509821774
 21
70.845520384588169
  0
LINE
  8
_0-9_004834
  6
CONTINUOUS
 62
    2
 10
299.19137509821774
 20
70.845520384588169
 11
298.95908711986828
 21
71.671889992041258
  0
LINE
  8
_0-9_004834
  6
CONTINUOUS
 62
    2
 10
298.95908711986828
 20
71.671889992041258
 11
298.57979068287534
 21
72.447255128598868
  0
LINE
  8
_0-9_004834
  6
CONTINUOUS
 62
    2
 10
298.57979068287534
 20
72.447255128598868
 11
298.06501051754366
 21
73.148056716940416
  0
LINE
  8
_0-9_004834
  6
CONTINUOUS
 62
    2
 10
298.06501051754366
 20
73.148056716940416
 11
297.43038795870546
 21
73.753001255426823
  0
LINE
  8
_0-9_004834
  6
CONTINUOUS
 62
    2
 10
297.43038795870546
 20
73.753001255426823
 11
296.69520569167667
 21
74.243707810372896
  0
LINE
  8
_0-9_004834
  6
CONTINUOUS
 62
    2
 10
296.69520569167667
 20
74.243707810372896
 11
295.88180185762064
 21
74.605266511416118
  0
LINE
  8
_0-9_004834
  6
CONTINUOUS
 62
    2
 10
295.88180185762064
 20
74.605266511416118
 11
295.01489132043303
 21
74.826691580382799
  0
LINE
  8
_0-9_004834
  6
CONTINUOUS
 62
    2
 10
295.01489132043303
 20
74.826691580382799
 11
294.12081471810836
 21
74.901255128598876
  0
LINE
  8
_0-9_004834
  6
CONTINUOUS
 62
    2
 10
294.12081471810836
 20
74.901255128598876
 11
293.22673811578368
 21
74.826691580382799
  0
LINE
  8
_0-9_004834
  6
CONTINUOUS
 62
    2
 10
293.22673811578368
 20
74.826691580382799
 11
292.35982757859608
 21
74.605266511416118
  0
LINE
  8
_0-9_004834
  6
CONTINUOUS
 62
    2
 10
292.35982757859608
 20
74.605266511416118
 11
291.54642374454004
 21
74.243707810372896
  0
LINE
  8
_0-9_004834
  6
CONTINUOUS
 62
    2
 10
291.54642374454004
 20
74.243707810372896
 11
290.81124147751125
 21
73.753001255426823
  0
LINE
  8
_0-9_004834
  6
CONTINUOUS
 62
    2
 10
290.81124147751125
 20
73.753001255426823
 11
290.17661891867305
 21
73.148056716940416
  0
LINE
  8
_0-9_004834
  6
CONTINUOUS
 62
    2
 10
290.17661891867305
 20
73.148056716940416
 11
289.66183875334138
 21
72.447255128598882
  0
LINE
  8
_0-9_004834
  6
CONTINUOUS
 62
    2
 10
289.66183875334138
 20
72.447255128598882
 11
289.28254231634844
 21
71.671889992041258
  0
LINE
  8
_0-9_004834
  6
CONTINUOUS
 62
    2
 10
289.28254231634844
 20
71.671889992041258
 11
289.05025433799897
 21
70.845520384588169
  0
LINE
  8
_0-9_004834
  6
CONTINUOUS
 62
    2
 10
289.05025433799897
 20
70.845520384588169
 11
288.97203277097179
 21
69.993255128598889
  0
LINE
  8
_0-9_004834
  6
CONTINUOUS
 62
    2
 10
288.97203277097179
 20
69.993255128598889
 11
289.05025433799897
 21
69.140989872609594
  0
LINE
  8
_0-9_004834
  6
CONTINUOUS
 62
    2
 10
289.05025433799897
 20
69.140989872609594
 11
289.28254231634844
 21
68.314620265156506
  0
LINE
  8
_0-9_004834
  6
CONTINUOUS
 62
    2
 10
289.28254231634844
 20
68.314620265156506
 11
289.66183875334138
 21
67.539255128598881
  0
LINE
  8
_0-9_004834
  6
CONTINUOUS
 62
    2
 10
289.66183875334138
 20
67.539255128598881
 11
290.17661891867305
 21
66.838453540257347
  0
LINE
  8
_0-9_004834
  6
CONTINUOUS
 62
    2
 10
290.17661891867305
 20
66.838453540257347
 11
290.8112414775112
 21
66.23350900177094
  0
LINE
  8
_0-9_004834
  6
CONTINUOUS
 62
    2
 10
290.8112414775112
 20
66.23350900177094
 11
291.54642374454004
 21
65.742802446824853
  0
LINE
  8
_0-9_004834
  6
CONTINUOUS
 62
    2
 10
291.54642374454004
 20
65.742802446824853
 11
292.35982757859608
 21
65.381243745781645
  0
LINE
  8
_0-9_004834
  6
CONTINUOUS
 62
    2
 10
292.35982757859608
 20
65.381243745781645
 11
293.22673811578368
 21
65.159818676814964
  0
LINE
  8
_0-9_004834
  6
CONTINUOUS
 62
    2
 10
293.22673811578368
 20
65.159818676814964
 11
294.12081471810836
 21
65.085255128598873
  0
LINE
  8
_0-9_004834
  6
CONTINUOUS
 62
    2
 10
294.12081471810836
 20
65.085255128598873
 11
295.01489132043298
 21
65.15981867681495
  0
LINE
  8
_0-9_004834
  6
CONTINUOUS
 62
    2
 10
295.01489132043298
 20
65.15981867681495
 11
295.88180185762064
 21
65.381243745781631
  0
LINE
  8
_0-9_004834
  6
CONTINUOUS
 62
    2
 10
295.88180185762064
 20
65.381243745781631
 11
296.69520569167661
 21
65.742802446824839
  0
LINE
  8
_0-9_004834
  6
CONTINUOUS
 62
    2
 10
296.69520569167661
 20
65.742802446824839
 11
297.43038795870546
 21
66.233509001770912
  0
LINE
  8
_0-9_004834
  6
CONTINUOUS
 62
    2
 10
297.43038795870546
 20
66.233509001770912
 11
298.06501051754366
 21
66.838453540257319
  0
LINE
  8
_0-9_004834
  6
CONTINUOUS
 62
    2
 10
298.06501051754366
 20
66.838453540257319
 11
298.57979068287534
 21
67.539255128598853
  0
LINE
  8
_0-9_004834
  6
CONTINUOUS
 62
    2
 10
298.57979068287534
 20
67.539255128598853
 11
298.95908711986828
 21
68.314620265156477
  0
LINE
  8
_0-9_004834
  6
CONTINUOUS
 62
    2
 10
298.95908711986828
 20
68.314620265156477
 11
299.19137509821774
 21
69.140989872609551
  0
LINE
  8
_0-9_004834
  6
CONTINUOUS
 62
    2
 10
299.19137509821774
 20
69.140989872609551
 11
299.26959666524493
 21
69.993255128598846
  0
LINE
  8
_0-9_004834
  6
CONTINUOUS
 62
    2
 10
299.26959666524493
 20
69.993255128598846
 11
299.26959666524493
 21
69.993255128598875
  0
LINE
  8
_0-9_004834
  6
CONTINUOUS
 62
    2
 10
284.1613190357142
 20
65.085255128598873
 11
284.1613190357142
 21
65.085255128598873
  0
LINE
  8
_0-9_004834
  6
CONTINUOUS
 62
    2
 10
284.1613190357142
 20
65.085255128598873
 11
284.60837626911768
 21
65.15981867681495
  0
LINE
  8
_0-9_004834
  6
CONTINUOUS
 62
    2
 10
284.60837626911768
 20
65.15981867681495
 11
285.04184989470616
 21
65.381243745781631
  0
LINE
  8
_0-9_004834
  6
CONTINUOUS
 62
    2
 10
285.04184989470616
 20
65.381243745781631
 11
285.44856903571417
 21
65.742802446824853
  0
LINE
  8
_0-9_004834
  6
CONTINUOUS
 62
    2
 10
285.44856903571417
 20
65.742802446824853
 11
285.81617573685218
 21
66.233509001770926
  0
LINE
  8
_0-9_004834
  6
CONTINUOUS
 62
    2
 10
285.81617573685218
 20
66.233509001770926
 11
286.13350045452398
 21
66.838453540257333
  0
LINE
  8
_0-9_004834
  6
CONTINUOUS
 62
    2
 10
286.13350045452398
 20
66.838453540257333
 11
286.39090143775723
 21
67.539255128598867
  0
LINE
  8
_0-9_004834
  6
CONTINUOUS
 62
    2
 10
286.39090143775723
 20
67.539255128598867
 11
286.58055768792752
 21
68.314620265156491
  0
LINE
  8
_0-9_004834
  6
CONTINUOUS
 62
    2
 10
286.58055768792752
 20
68.314620265156491
 11
286.69670659584414
 21
69.14098987260958
  0
LINE
  8
_0-9_004834
  6
CONTINUOUS
 62
    2
 10
286.69670659584414
 20
69.14098987260958
 11
286.7358190357142
 21
69.993255128598875
  0
LINE
  8
_0-9_004834
  6
CONTINUOUS
 62
    2
 10
286.7358190357142
 20
69.993255128598875
 11
286.69670659584414
 21
70.845520384588169
  0
LINE
  8
_0-9_004834
  6
CONTINUOUS
 62
    2
 10
286.69670659584414
 20
70.845520384588169
 11
286.58055768792752
 21
71.671889992041258
  0
LINE
  8
_0-9_004834
  6
CONTINUOUS
 62
    2
 10
286.58055768792752
 20
71.671889992041258
 11
286.39090143775723
 21
72.447255128598868
  0
LINE
  8
_0-9_004834
  6
CONTINUOUS
 62
    2
 10
286.39090143775723
 20
72.447255128598868
 11
286.13350045452398
 21
73.148056716940402
  0
LINE
  8
_0-9_004834
  6
CONTINUOUS
 62
    2
 10
286.13350045452398
 20
73.148056716940402
 11
285.81617573685218
 21
73.753001255426823
  0
LINE
  8
_0-9_004834
  6
CONTINUOUS
 62
    2
 10
285.81617573685218
 20
73.753001255426823
 11
285.44856903571422
 21
74.243707810372896
  0
LINE
  8
_0-9_004834
  6
CONTINUOUS
 62
    2
 10
285.44856903571422
 20
74.243707810372896
 11
285.04184989470616
 21
74.605266511416118
  0
LINE
  8
_0-9_004834
  6
CONTINUOUS
 62
    2
 10
285.04184989470616
 20
74.605266511416118
 11
284.60837626911774
 21
74.826691580382785
  0
LINE
  8
_0-9_004834
  6
CONTINUOUS
 62
    2
 10
284.60837626911774
 20
74.826691580382785
 11
284.1613190357142
 21
74.901255128598876
  0
LINE
  8
_0-9_004834
  6
CONTINUOUS
 62
    2
 10
284.1613190357142
 20
74.901255128598876
 11
283.71426180231071
 21
74.826691580382799
  0
LINE
  8
_0-9_004834
  6
CONTINUOUS
 62
    2
 10
283.71426180231071
 20
74.826691580382799
 11
283.28078817672229
 21
74.605266511416118
  0
LINE
  8
_0-9_004834
  6
CONTINUOUS
 62
    2
 10
283.28078817672229
 20
74.605266511416118
 11
282.87406903571422
 21
74.24370781037291
  0
LINE
  8
_0-9_004834
  6
CONTINUOUS
 62
    2
 10
282.87406903571422
 20
74.24370781037291
 11
282.50646233457621
 21
73.753001255426823
  0
LINE
  8
_0-9_004834
  6
CONTINUOUS
 62
    2
 10
282.50646233457621
 20
73.753001255426823
 11
282.18913761690441
 21
73.148056716940416
  0
LINE
  8
_0-9_004834
  6
CONTINUOUS
 62
    2
 10
282.18913761690441
 20
73.148056716940416
 11
281.93173663367116
 21
72.447255128598882
  0
LINE
  8
_0-9_004834
  6
CONTINUOUS
 62
    2
 10
281.93173663367116
 20
72.447255128598882
 11
281.74208038350087
 21
71.671889992041272
  0
LINE
  8
_0-9_004834
  6
CONTINUOUS
 62
    2
 10
281.74208038350087
 20
71.671889992041272
 11
281.62593147558425
 21
70.845520384588184
  0
LINE
  8
_0-9_004834
  6
CONTINUOUS
 62
    2
 10
281.62593147558425
 20
70.845520384588184
 11
281.58681903571419
 21
69.993255128598889
  0
LINE
  8
_0-9_004834
  6
CONTINUOUS
 62
    2
 10
281.58681903571419
 20
69.993255128598889
 11
281.62593147558425
 21
69.140989872609594
  0
LINE
  8
_0-9_004834
  6
CONTINUOUS
 62
    2
 10
281.62593147558425
 20
69.140989872609594
 11
281.74208038350087
 21
68.314620265156506
  0
LINE
  8
_0-9_004834
  6
CONTINUOUS
 62
    2
 10
281.74208038350087
 20
68.314620265156506
 11
281.93173663367116
 21
67.539255128598895
  0
LINE
  8
_0-9_004834
  6
CONTINUOUS
 62
    2
 10
281.93173663367116
 20
67.539255128598895
 11
282.18913761690436
 21
66.838453540257347
  0
LINE
  8
_0-9_004834
  6
CONTINUOUS
 62
    2
 10
282.18913761690436
 20
66.838453540257347
 11
282.50646233457621
 21
66.23350900177094
  0
LINE
  8
_0-9_004834
  6
CONTINUOUS
 62
    2
 10
282.50646233457621
 20
66.23350900177094
 11
282.87406903571417
 21
65.742802446824853
  0
LINE
  8
_0-9_004834
  6
CONTINUOUS
 62
    2
 10
282.87406903571417
 20
65.742802446824853
 11
283.28078817672223
 21
65.381243745781645
  0
LINE
  8
_0-9_004834
  6
CONTINUOUS
 62
    2
 10
283.28078817672223
 20
65.381243745781645
 11
283.71426180231065
 21
65.159818676814964
  0
LINE
  8
_0-9_004834
  6
CONTINUOUS
 62
    2
 10
283.71426180231065
 20
65.159818676814964
 11
284.1613190357142
 21
65.085255128598873
  0
LINE
  8
_0-9_004834
  6
CONTINUOUS
 62
    2
 10
284.1613190357142
 20
65.085255128598873
 11
284.1613190357142
 21
65.085255128598873
  0
ARC
  8
_0-9_004834
  6
CONTINUOUS
 62
    2
 10
295.22081903571415
 20
69.993255128598875
 40
11.5
 50
328.55100000000038
 51
31.448999999999585
  0
LINE
  8
_0-9_004834
  6
CONTINUOUS
 62
    2
 10
305.03181903571419
 20
63.99325512859886
 11
294.12081903571419
 21
63.99325512859886
  0
LINE
  8
_0-9_004834
  6
CONTINUOUS
 62
    2
 10
305.03181903571419
 20
75.99325512859886
 11
294.12081903571419
 21
75.99325512859886
  0
LINE
  8
_0-9_004834
  6
CONTINUOUS
 62
    2
 10
283.20981903571419
 20
63.99325512859886
 11
294.12081903571419
 21
63.99325512859886
  0
ARC
  8
_0-9_004834
  6
CONTINUOUS
 62
    2
 10
293.02081903571422
 20
69.993255128598875
 40
11.5
 50
148.55100000000044
 51
211.44899999999952
  0
LINE
  8
_0-9_004834
  6
CONTINUOUS
 62
    2
 10
283.20981903571419
 20
75.99325512859886
 11
294.12081903571419
 21
75.99325512859886
  0
LINE
  8
_0-9_004834
  6
CONTINUOUS
 62
    2
 10
124.82198190375468
 20
75.99325512859886
 11
135.73298190375467
 21
75.99325512859886
  0
ARC
  8
_0-9_004834
  6
CONTINUOUS
 62
    2
 10
134.63298190375465
 20
69.993255128598875
 40
11.5
 50
148.55100000000044
 51
154.73645100002343
  0
LINE
  8
_0-9_004834
  6
CONTINUOUS
 62
    2
 10
124.82198190375468
 20
63.99325512859886
 11
135.73298190375467
 21
63.99325512859886
  0
LINE
  8
_0-4_042385
  6
CONTINUOUS
 62
    2
 10
124.2329080578622
 20
65.085255128600579
 11
124.2329080578622
 21
74.901255128597142
  0
LINE
  8
_0-4_042385
  6
CONTINUOUS
 62
    2
 10
129.98296705002061
 20
65.085255128600593
 11
129.98296705002061
 21
65.085255128600593
  0
LINE
  8
_0-4_042385
  6
CONTINUOUS
 62
    2
 10
129.98296705002061
 20
65.085255128600593
 11
130.7572616949136
 21
65.159818676816655
  0
LINE
  8
_0-4_042385
  6
CONTINUOUS
 62
    2
 10
130.7572616949136
 20
65.159818676816655
 11
131.50802978883351
 21
65.381243745783251
  0
LINE
  8
_0-4_042385
  6
CONTINUOUS
 62
    2
 10
131.50802978883351
 20
65.381243745783251
 11
132.21245962315359
 21
65.742802446826331
  0
LINE
  8
_0-4_042385
  6
CONTINUOUS
 62
    2
 10
132.21245962315359
 20
65.742802446826331
 11
132.84914745381669
 21
66.233509001772247
  0
LINE
  8
_0-4_042385
  6
CONTINUOUS
 62
    2
 10
132.84914745381669
 20
66.233509001772247
 11
133.39874784326769
 21
66.838453540258441
  0
LINE
  8
_0-4_042385
  6
CONTINUOUS
 62
    2
 10
133.39874784326769
 20
66.838453540258441
 11
133.84456146178439
 21
67.539255128599734
  0
LINE
  8
_0-4_042385
  6
CONTINUOUS
 62
    2
 10
133.84456146178439
 20
67.539255128599734
 11
134.17304248816068
 21
68.314620265157074
  0
LINE
  8
_0-4_042385
  6
CONTINUOUS
 62
    2
 10
134.17304248816068
 20
68.314620265157074
 11
134.37421019262959
 21
69.140989872609878
  0
LINE
  8
_0-4_042385
  6
CONTINUOUS
 62
    2
 10
134.37421019262959
 20
69.140989872609878
 11
134.44195219628656
 21
69.993255128598875
  0
LINE
  8
_0-4_042385
  6
CONTINUOUS
 62
    2
 10
134.44195219628656
 20
69.993255128598875
 11
134.37421019262959
 21
70.845520384587871
  0
LINE
  8
_0-4_042385
  6
CONTINUOUS
 62
    2
 10
134.37421019262959
 20
70.845520384587871
 11
134.17304248816068
 21
71.671889992040661
  0
LINE
  8
_0-4_042385
  6
CONTINUOUS
 62
    2
 10
134.17304248816068
 20
71.671889992040661
 11
133.84456146178439
 21
72.447255128598015
  0
LINE
  8
_0-4_042385
  6
CONTINUOUS
 62
    2
 10
133.84456146178439
 20
72.447255128598015
 11
133.39874784326769
 21
73.148056716939308
  0
LINE
  8
_0-4_042385
  6
CONTINUOUS
 62
    2
 10
133.39874784326769
 20
73.148056716939308
 11
132.84914745381669
 21
73.753001255425502
  0
LINE
  8
_0-4_042385
  6
CONTINUOUS
 62
    2
 10
132.84914745381669
 20
73.753001255425502
 11
132.21245962315359
 21
74.243707810371404
  0
LINE
  8
_0-4_042385
  6
CONTINUOUS
 62
    2
 10
132.21245962315359
 20
74.243707810371404
 11
131.50802978883353
 21
74.605266511414498
  0
LINE
  8
_0-4_042385
  6
CONTINUOUS
 62
    2
 10
131.50802978883353
 20
74.605266511414498
 11
130.7572616949136
 21
74.826691580381094
  0
LINE
  8
_0-4_042385
  6
CONTINUOUS
 62
    2
 10
130.7572616949136
 20
74.826691580381094
 11
129.98296705002061
 21
74.901255128597156
  0
LINE
  8
_0-4_042385
  6
CONTINUOUS
 62
    2
 10
129.98296705002061
 20
74.901255128597156
 11
129.20867240512762
 21
74.826691580381094
  0
LINE
  8
_0-4_042385
  6
CONTINUOUS
 62
    2
 10
129.20867240512762
 20
74.826691580381094
 11
128.45790431120772
 21
74.605266511414498
  0
LINE
  8
_0-4_042385
  6
CONTINUOUS
 62
    2
 10
128.45790431120772
 20
74.605266511414498
 11
127.75347447688766
 21
74.243707810371418
  0
LINE
  8
_0-4_042385
  6
CONTINUOUS
 62
    2
 10
127.75347447688766
 20
74.243707810371418
 11
127.11678664622455
 21
73.753001255425516
  0
LINE
  8
_0-4_042385
  6
CONTINUOUS
 62
    2
 10
127.11678664622455
 20
73.753001255425516
 11
126.56718625677353
 21
73.148056716939308
  0
LINE
  8
_0-4_042385
  6
CONTINUOUS
 62
    2
 10
126.56718625677353
 20
73.148056716939308
 11
126.12137263825684
 21
72.44725512859803
  0
LINE
  8
_0-4_042385
  6
CONTINUOUS
 62
    2
 10
126.12137263825684
 20
72.44725512859803
 11
125.79289161188054
 21
71.671889992040675
  0
LINE
  8
_0-4_042385
  6
CONTINUOUS
 62
    2
 10
125.79289161188054
 20
71.671889992040675
 11
125.59172390741164
 21
70.845520384587885
  0
LINE
  8
_0-4_042385
  6
CONTINUOUS
 62
    2
 10
125.59172390741164
 20
70.845520384587885
 11
125.52398190375467
 21
69.993255128598889
  0
LINE
  8
_0-4_042385
  6
CONTINUOUS
 62
    2
 10
125.52398190375467
 20
69.993255128598889
 11
125.59172390741164
 21
69.140989872609893
  0
LINE
  8
_0-4_042385
  6
CONTINUOUS
 62
    2
 10
125.59172390741164
 20
69.140989872609893
 11
125.79289161188053
 21
68.314620265157103
  0
LINE
  8
_0-4_042385
  6
CONTINUOUS
 62
    2
 10
125.79289161188053
 20
68.314620265157103
 11
126.12137263825682
 21
67.539255128599748
  0
LINE
  8
_0-4_042385
  6
CONTINUOUS
 62
    2
 10
126.12137263825682
 20
67.539255128599748
 11
126.56718625677352
 21
66.838453540258456
  0
LINE
  8
_0-4_042385
  6
CONTINUOUS
 62
    2
 10
126.56718625677352
 20
66.838453540258456
 11
127.11678664622453
 21
66.233509001772262
  0
LINE
  8
_0-4_042385
  6
CONTINUOUS
 62
    2
 10
127.11678664622453
 20
66.233509001772262
 11
127.75347447688763
 21
65.742802446826345
  0
LINE
  8
_0-4_042385
  6
CONTINUOUS
 62
    2
 10
127.75347447688763
 20
65.742802446826345
 11
128.45790431120769
 21
65.381243745783265
  0
LINE
  8
_0-4_042385
  6
CONTINUOUS
 62
    2
 10
128.45790431120769
 20
65.381243745783265
 11
129.2086724051276
 21
65.159818676816655
  0
LINE
  8
_0-4_042385
  6
CONTINUOUS
 62
    2
 10
129.2086724051276
 20
65.159818676816655
 11
129.98296705002059
 21
65.085255128600593
  0
LINE
  8
_0-4_042385
  6
CONTINUOUS
 62
    2
 10
129.98296705002059
 20
65.085255128600593
 11
129.98296705002061
 21
65.085255128600593
  0
ARC
  8
_0-9_004834
  6
CONTINUOUS
 62
    2
 10
134.63298190375465
 20
69.993255128598875
 40
11.5
 50
205.26354899997662
 51
211.4489999999995
  0
ARC
  8
_0-9_004834
  6
CONTINUOUS
 62
    2
 10
136.83298190375464
 20
69.993255128598875
 40
11.5
 50
328.55100000000038
 51
334.7364510000234
  0
LINE
  8
_0-4_042385
  6
CONTINUOUS
 62
    2
 10
141.48299675748873
 20
65.085255128600593
 11
141.48299675748873
 21
65.085255128600593
  0
LINE
  8
_0-4_042385
  6
CONTINUOUS
 62
    2
 10
141.48299675748873
 20
65.085255128600593
 11
142.25729140238172
 21
65.159818676816655
  0
LINE
  8
_0-4_042385
  6
CONTINUOUS
 62
    2
 10
142.25729140238172
 20
65.159818676816655
 11
143.00805949630162
 21
65.381243745783251
  0
LINE
  8
_0-4_042385
  6
CONTINUOUS
 62
    2
 10
143.00805949630162
 20
65.381243745783251
 11
143.7124893306217
 21
65.742802446826331
  0
LINE
  8
_0-4_042385
  6
CONTINUOUS
 62
    2
 10
143.7124893306217
 20
65.742802446826331
 11
144.34917716128481
 21
66.233509001772247
  0
LINE
  8
_0-4_042385
  6
CONTINUOUS
 62
    2
 10
144.34917716128481
 20
66.233509001772247
 11
144.89877755073581
 21
66.838453540258441
  0
LINE
  8
_0-4_042385
  6
CONTINUOUS
 62
    2
 10
144.89877755073581
 20
66.838453540258441
 11
145.34459116925251
 21
67.539255128599734
  0
LINE
  8
_0-4_042385
  6
CONTINUOUS
 62
    2
 10
145.34459116925251
 20
67.539255128599734
 11
145.6730721956288
 21
68.314620265157074
  0
LINE
  8
_0-4_042385
  6
CONTINUOUS
 62
    2
 10
145.6730721956288
 20
68.314620265157074
 11
145.8742399000977
 21
69.140989872609878
  0
LINE
  8
_0-4_042385
  6
CONTINUOUS
 62
    2
 10
145.8742399000977
 20
69.140989872609878
 11
145.94198190375468
 21
69.993255128598875
  0
LINE
  8
_0-4_042385
  6
CONTINUOUS
 62
    2
 10
145.94198190375468
 20
69.993255128598875
 11
145.8742399000977
 21
70.845520384587871
  0
LINE
  8
_0-4_042385
  6
CONTINUOUS
 62
    2
 10
145.8742399000977
 20
70.845520384587871
 11
145.6730721956288
 21
71.671889992040661
  0
LINE
  8
_0-4_042385
  6
CONTINUOUS
 62
    2
 10
145.6730721956288
 20
71.671889992040661
 11
145.34459116925251
 21
72.447255128598015
  0
LINE
  8
_0-4_042385
  6
CONTINUOUS
 62
    2
 10
145.34459116925251
 20
72.447255128598015
 11
144.89877755073581
 21
73.148056716939308
  0
LINE
  8
_0-4_042385
  6
CONTINUOUS
 62
    2
 10
144.89877755073581
 20
73.148056716939308
 11
144.34917716128481
 21
73.753001255425502
  0
LINE
  8
_0-4_042385
  6
CONTINUOUS
 62
    2
 10
144.34917716128481
 20
73.753001255425502
 11
143.7124893306217
 21
74.243707810371404
  0
LINE
  8
_0-4_042385
  6
CONTINUOUS
 62
    2
 10
143.7124893306217
 20
74.243707810371404
 11
143.00805949630165
 21
74.605266511414498
  0
LINE
  8
_0-4_042385
  6
CONTINUOUS
 62
    2
 10
143.00805949630165
 20
74.605266511414498
 11
142.25729140238172
 21
74.826691580381094
  0
LINE
  8
_0-4_042385
  6
CONTINUOUS
 62
    2
 10
142.25729140238172
 20
74.826691580381094
 11
141.48299675748873
 21
74.901255128597156
  0
LINE
  8
_0-4_042385
  6
CONTINUOUS
 62
    2
 10
141.48299675748873
 20
74.901255128597156
 11
140.70870211259574
 21
74.826691580381094
  0
LINE
  8
_0-4_042385
  6
CONTINUOUS
 62
    2
 10
140.70870211259574
 20
74.826691580381094
 11
139.95793401867584
 21
74.605266511414498
  0
LINE
  8
_0-4_042385
  6
CONTINUOUS
 62
    2
 10
139.95793401867584
 20
74.605266511414498
 11
139.25350418435576
 21
74.243707810371418
  0
LINE
  8
_0-4_042385
  6
CONTINUOUS
 62
    2
 10
139.25350418435576
 20
74.243707810371418
 11
138.61681635369268
 21
73.753001255425516
  0
LINE
  8
_0-4_042385
  6
CONTINUOUS
 62
    2
 10
138.61681635369268
 20
73.753001255425516
 11
138.06721596424165
 21
73.148056716939308
  0
LINE
  8
_0-4_042385
  6
CONTINUOUS
 62
    2
 10
138.06721596424165
 20
73.148056716939308
 11
137.62140234572495
 21
72.44725512859803
  0
LINE
  8
_0-4_042385
  6
CONTINUOUS
 62
    2
 10
137.62140234572495
 20
72.44725512859803
 11
137.29292131934866
 21
71.671889992040675
  0
LINE
  8
_0-4_042385
  6
CONTINUOUS
 62
    2
 10
137.29292131934866
 20
71.671889992040675
 11
137.09175361487976
 21
70.845520384587885
  0
LINE
  8
_0-4_042385
  6
CONTINUOUS
 62
    2
 10
137.09175361487976
 20
70.845520384587885
 11
137.02401161122278
 21
69.993255128598889
  0
LINE
  8
_0-4_042385
  6
CONTINUOUS
 62
    2
 10
137.02401161122278
 20
69.993255128598889
 11
137.09175361487976
 21
69.140989872609893
  0
LINE
  8
_0-4_042385
  6
CONTINUOUS
 62
    2
 10
137.09175361487976
 20
69.140989872609893
 11
137.29292131934863
 21
68.314620265157103
  0
LINE
  8
_0-4_042385
  6
CONTINUOUS
 62
    2
 10
137.29292131934863
 20
68.314620265157103
 11
137.62140234572495
 21
67.539255128599748
  0
LINE
  8
_0-4_042385
  6
CONTINUOUS
 62
    2
 10
137.62140234572495
 20
67.539255128599748
 11
138.06721596424162
 21
66.838453540258456
  0
LINE
  8
_0-4_042385
  6
CONTINUOUS
 62
    2
 10
138.06721596424162
 20
66.838453540258456
 11
138.61681635369265
 21
66.233509001772262
  0
LINE
  8
_0-4_042385
  6
CONTINUOUS
 62
    2
 10
138.61681635369265
 20
66.233509001772262
 11
139.25350418435573
 21
65.742802446826345
  0
LINE
  8
_0-4_042385
  6
CONTINUOUS
 62
    2
 10
139.25350418435573
 20
65.742802446826345
 11
139.95793401867581
 21
65.381243745783265
  0
LINE
  8
_0-4_042385
  6
CONTINUOUS
 62
    2
 10
139.95793401867581
 20
65.381243745783265
 11
140.70870211259571
 21
65.159818676816655
  0
LINE
  8
_0-4_042385
  6
CONTINUOUS
 62
    2
 10
140.70870211259571
 20
65.159818676816655
 11
141.4829967574887
 21
65.085255128600593
  0
LINE
  8
_0-4_042385
  6
CONTINUOUS
 62
    2
 10
141.4829967574887
 20
65.085255128600593
 11
141.48299675748873
 21
65.085255128600593
  0
LINE
  8
_0-4_042385
  6
CONTINUOUS
 62
    2
 10
147.23305574964714
 20
65.085255128600579
 11
147.23305574964714
 21
74.901255128597142
  0
LINE
  8
_0-9_004834
  6
CONTINUOUS
 62
    2
 10
146.64398190375467
 20
63.99325512859886
 11
135.73298190375467
 21
63.99325512859886
  0
ARC
  8
_0-9_004834
  6
CONTINUOUS
 62
    2
 10
136.83298190375464
 20
69.993255128598875
 40
11.5
 50
25.263548999976631
 51
31.448999999999553
  0
LINE
  8
_0-9_004834
  6
CONTINUOUS
 62
    2
 10
146.64398190375467
 20
75.99325512859886
 11
135.73298190375467
 21
75.99325512859886
  0
LINE
  8
_0-9_004834
  6
CONTINUOUS
 62
    2
 10
304.08031903571418
 20
65.085255128598873
 11
304.08031903571418
 21
65.085255128598873
  0
LINE
  8
_0-9_004834
  6
CONTINUOUS
 62
    2
 10
304.08031903571418
 20
65.085255128598873
 11
304.52737626911766
 21
65.15981867681495
  0
LINE
  8
_0-9_004834
  6
CONTINUOUS
 62
    2
 10
304.52737626911766
 20
65.15981867681495
 11
304.96084989470614
 21
65.381243745781631
  0
LINE
  8
_0-9_004834
  6
CONTINUOUS
 62
    2
 10
304.96084989470614
 20
65.381243745781631
 11
305.36756903571415
 21
65.742802446824853
  0
LINE
  8
_0-9_004834
  6
CONTINUOUS
 62
    2
 10
305.36756903571415
 20
65.742802446824853
 11
305.73517573685217
 21
66.233509001770926
  0
LINE
  8
_0-9_004834
  6
CONTINUOUS
 62
    2
 10
305.73517573685217
 20
66.233509001770926
 11
306.05250045452396
 21
66.838453540257333
  0
LINE
  8
_0-9_004834
  6
CONTINUOUS
 62
    2
 10
306.05250045452396
 20
66.838453540257333
 11
306.30990143775721
 21
67.539255128598867
  0
LINE
  8
_0-9_004834
  6
CONTINUOUS
 62
    2
 10
306.30990143775721
 20
67.539255128598867
 11
306.4995576879275
 21
68.314620265156491
  0
LINE
  8
_0-9_004834
  6
CONTINUOUS
 62
    2
 10
306.4995576879275
 20
68.314620265156491
 11
306.61570659584413
 21
69.14098987260958
  0
LINE
  8
_0-9_004834
  6
CONTINUOUS
 62
    2
 10
306.61570659584413
 20
69.14098987260958
 11
306.65481903571418
 21
69.993255128598875
  0
LINE
  8
_0-9_004834
  6
CONTINUOUS
 62
    2
 10
306.65481903571418
 20
69.993255128598875
 11
306.61570659584413
 21
70.845520384588169
  0
LINE
  8
_0-9_004834
  6
CONTINUOUS
 62
    2
 10
306.61570659584413
 20
70.845520384588169
 11
306.4995576879275
 21
71.671889992041258
  0
LINE
  8
_0-9_004834
  6
CONTINUOUS
 62
    2
 10
306.4995576879275
 20
71.671889992041258
 11
306.30990143775721
 21
72.447255128598868
  0
LINE
  8
_0-9_004834
  6
CONTINUOUS
 62
    2
 10
306.30990143775721
 20
72.447255128598868
 11
306.05250045452396
 21
73.148056716940402
  0
LINE
  8
_0-9_004834
  6
CONTINUOUS
 62
    2
 10
306.05250045452396
 20
73.148056716940402
 11
305.73517573685217
 21
73.753001255426823
  0
LINE
  8
_0-9_004834
  6
CONTINUOUS
 62
    2
 10
305.73517573685217
 20
73.753001255426823
 11
305.36756903571421
 21
74.243707810372896
  0
LINE
  8
_0-9_004834
  6
CONTINUOUS
 62
    2
 10
305.36756903571421
 20
74.243707810372896
 11
304.96084989470614
 21
74.605266511416118
  0
LINE
  8
_0-9_004834
  6
CONTINUOUS
 62
    2
 10
304.96084989470614
 20
74.605266511416118
 11
304.52737626911772
 21
74.826691580382785
  0
LINE
  8
_0-9_004834
  6
CONTINUOUS
 62
    2
 10
304.52737626911772
 20
74.826691580382785
 11
304.08031903571418
 21
74.901255128598876
  0
LINE
  8
_0-9_004834
  6
CONTINUOUS
 62
    2
 10
304.08031903571418
 20
74.901255128598876
 11
303.63326180231069
 21
74.826691580382799
  0
LINE
  8
_0-9_004834
  6
CONTINUOUS
 62
    2
 10
303.63326180231069
 20
74.826691580382799
 11
303.19978817672227
 21
74.605266511416118
  0
LINE
  8
_0-9_004834
  6
CONTINUOUS
 62
    2
 10
303.19978817672227
 20
74.605266511416118
 11
302.79306903571421
 21
74.24370781037291
  0
LINE
  8
_0-9_004834
  6
CONTINUOUS
 62
    2
 10
302.79306903571421
 20
74.24370781037291
 11
302.42546233457619
 21
73.753001255426823
  0
LINE
  8
_0-9_004834
  6
CONTINUOUS
 62
    2
 10
302.42546233457619
 20
73.753001255426823
 11
302.1081376169044
 21
73.148056716940416
  0
LINE
  8
_0-9_004834
  6
CONTINUOUS
 62
    2
 10
302.1081376169044
 20
73.148056716940416
 11
301.85073663367114
 21
72.447255128598882
  0
LINE
  8
_0-9_004834
  6
CONTINUOUS
 62
    2
 10
301.85073663367114
 20
72.447255128598882
 11
301.66108038350085
 21
71.671889992041272
  0
LINE
  8
_0-9_004834
  6
CONTINUOUS
 62
    2
 10
301.66108038350085
 20
71.671889992041272
 11
301.54493147558423
 21
70.845520384588184
  0
LINE
  8
_0-9_004834
  6
CONTINUOUS
 62
    2
 10
301.54493147558423
 20
70.845520384588184
 11
301.50581903571418
 21
69.993255128598889
  0
LINE
  8
_0-9_004834
  6
CONTINUOUS
 62
    2
 10
301.50581903571418
 20
69.993255128598889
 11
301.54493147558423
 21
69.140989872609594
  0
LINE
  8
_0-9_004834
  6
CONTINUOUS
 62
    2
 10
301.54493147558423
 20
69.140989872609594
 11
301.66108038350085
 21
68.314620265156506
  0
LINE
  8
_0-9_004834
  6
CONTINUOUS
 62
    2
 10
301.66108038350085
 20
68.314620265156506
 11
301.85073663367114
 21
67.539255128598895
  0
LINE
  8
_0-9_004834
  6
CONTINUOUS
 62
    2
 10
301.85073663367114
 20
67.539255128598895
 11
302.10813761690434
 21
66.838453540257347
  0
LINE
  8
_0-9_004834
  6
CONTINUOUS
 62
    2
 10
302.10813761690434
 20
66.838453540257347
 11
302.42546233457619
 21
66.23350900177094
  0
LINE
  8
_0-9_004834
  6
CONTINUOUS
 62
    2
 10
302.42546233457619
 20
66.23350900177094
 11
302.79306903571415
 21
65.742802446824853
  0
LINE
  8
_0-9_004834
  6
CONTINUOUS
 62
    2
 10
302.79306903571415
 20
65.742802446824853
 11
303.19978817672222
 21
65.381243745781645
  0
LINE
  8
_0-9_004834
  6
CONTINUOUS
 62
    2
 10
303.19978817672222
 20
65.381243745781645
 11
303.63326180231064
 21
65.159818676814964
  0
LINE
  8
_0-9_004834
  6
CONTINUOUS
 62
    2
 10
303.63326180231064
 20
65.159818676814964
 11
304.08031903571418
 21
65.085255128598873
  0
LINE
  8
_0-9_004834
  6
CONTINUOUS
 62
    2
 10
304.08031903571418
 20
65.085255128598873
 11
304.08031903571418
 21
65.085255128598873
  0
LINE
  8
_0-7_004044
  6
CONTINUOUS
 62
    2
 10
147.73298190375467
 20
106.58125512859888
 11
123.73298190375467
 21
106.58125512859888
  0
LINE
  8
_0-7_004044
  6
CONTINUOUS
 62
    2
 10
147.73298190375467
 20
112.58125512859888
 11
123.73298190375467
 21
112.58125512859888
  0
LINE
  8
_0-7_004044
  6
CONTINUOUS
 62
    2
 10
135.73298190375467
 20
107.80225512859888
 11
135.73298190375467
 21
112.58125512859888
  0
ARC
  8
_0-7_004044
  6
CONTINUOUS
 62
    2
 10
129.73298190375467
 20
121.93425512859889
 40
15.352999999999999
 50
246.99600000000071
 51
293.00399999999933
  0
ARC
  8
_0-7_004044
  6
CONTINUOUS
 62
    2
 10
141.7329819037547
 20
121.93525512859886
 40
15.353999999999999
 50
246.99699999999918
 51
293.0029999999993
  0
LINE
  8
_0-7_004044
  6
CONTINUOUS
 62
    2
 10
147.73298190375467
 20
106.58125512859888
 11
147.73298190375467
 21
112.58125512859888
  0
LINE
  8
_0-7_004044
  6
CONTINUOUS
 62
    2
 10
123.73298190375467
 20
106.58125512859888
 11
123.73298190375467
 21
112.58125512859888
  0
LINE
  8
_0-7_004044
  6
CONTINUOUS
 62
    2
 10
280.26481903571419
 20
112.58125512859888
 11
307.97681903571418
 21
112.58125512859886
  0
ARC
  8
_0-7_004044
  6
CONTINUOUS
 62
    2
 10
294.12081903571419
 20
129.50925512859888
 40
22.928
 50
270
 51
287.5880000000003
  0
ARC
  8
_0-7_004044
  6
CONTINUOUS
 62
    2
 10
304.51281903571418
 20
112.71525512859886
 40
6.1339999999999985
 50
235.6159999999995
 51
270
  0
LINE
  8
_0-7_004044
  6
CONTINUOUS
 62
    2
 10
307.97681903571418
 20
107.65325512859888
 11
307.97681903571418
 21
112.58125512859886
  0
LINE
  8
_0-7_004044
  6
CONTINUOUS
 62
    2
 10
282.12081903571419
 20
106.58125512859888
 11
306.12081903571419
 21
106.58125512859888
  0
LINE
  8
_0-7_004044
  6
CONTINUOUS
 62
    2
 10
307.97681903571418
 20
107.65325512859888
 11
306.12081903571419
 21
106.58125512859888
  0
LINE
  8
_0-7_004044
  6
CONTINUOUS
 62
    2
 10
301.04881903571418
 20
107.65325512859888
 11
301.04881903571418
 21
112.58125512859886
  0
LINE
  8
_0-8_043123
  6
CONTINUOUS
 62
    2
 10
294.12081903571419
 20
114.58125512859888
 11
283.49581903571419
 21
114.58125512859888
  0
LINE
  8
_0-8_043123
  6
CONTINUOUS
 62
    2
 10
294.12081903571419
 20
112.58125512859888
 11
283.12081903571419
 21
112.58125512859888
  0
LINE
  8
_0-8_043123
  6
CONTINUOUS
 62
    2
 10
278.12081903571419
 20
113.08125512859888
 11
283.12081903571419
 21
112.58125512859888
  0
LINE
  8
_0-8_043123
  6
CONTINUOUS
 62
    2
 10
274.12081903571419
 20
114.08125512859888
 11
274.12081903571419
 21
113.08125512859888
  0
LINE
  8
_0-8_043123
  6
CONTINUOUS
 62
    2
 10
274.12081903571419
 20
114.08125512859888
 11
294.12081903571419
 21
114.08125512859888
  0
LINE
  8
_0-8_043123
  6
CONTINUOUS
 62
    2
 10
274.12081903571419
 20
113.08125512859888
 11
294.12081903571419
 21
113.08125512859888
  0
LINE
  8
_0-8_043123
  6
CONTINUOUS
 62
    2
 10
292.69681903571421
 20
114.08125512859888
 11
291.27381903571415
 21
114.58125512859888
  0
LINE
  8
_0-8_043123
  6
CONTINUOUS
 62
    2
 10
292.69681903571421
 20
113.08125512859888
 11
294.12081903571419
 21
112.58125512859888
  0
LINE
  8
_0-8_043123
  6
CONTINUOUS
 62
    2
 10
289.94681903571421
 20
113.08125512859888
 11
288.62081903571419
 21
112.58125512859888
  0
LINE
  8
_0-8_043123
  6
CONTINUOUS
 62
    2
 10
287.48181903571418
 20
113.08125512859888
 11
288.62081903571419
 21
112.58125512859888
  0
LINE
  8
_0-8_043123
  6
CONTINUOUS
 62
    2
 10
285.4688190357142
 20
113.08125512859888
 11
284.59481903571418
 21
112.58125512859888
  0
LINE
  8
_0-8_043123
  6
CONTINUOUS
 62
    2
 10
284.04481903571422
 20
113.08125512859888
 11
284.59481903571418
 21
112.58125512859888
  0
LINE
  8
_0-8_043123
  6
CONTINUOUS
 62
    2
 10
283.3078190357142
 20
113.08125512859888
 11
283.12081903571419
 21
112.58125512859888
  0
LINE
  8
_0-8_043123
  6
CONTINUOUS
 62
    2
 10
284.04481903571422
 20
114.08125512859888
 11
283.49581903571419
 21
114.58125512859888
  0
LINE
  8
_0-8_043123
  6
CONTINUOUS
 62
    2
 10
285.4688190357142
 20
114.08125512859888
 11
286.34281903571422
 21
114.58125512859888
  0
LINE
  8
_0-8_043123
  6
CONTINUOUS
 62
    2
 10
287.48181903571418
 20
114.08125512859888
 11
286.34281903571422
 21
114.58125512859888
  0
LINE
  8
_0-8_043123
  6
CONTINUOUS
 62
    2
 10
289.94681903571421
 20
114.08125512859888
 11
291.27381903571415
 21
114.58125512859888
  0
LINE
  8
_0-8_043123
  6
CONTINUOUS
 62
    2
 10
283.3078190357142
 20
114.08125512859888
 11
283.49581903571419
 21
114.58125512859888
  0
LINE
  8
_0-8_043123
  6
CONTINUOUS
 62
    2
 10
283.12081903571419
 20
113.08125512859888
 11
283.12081903571419
 21
112.58125512859888
  0
LINE
  8
_0-8_043123
  6
CONTINUOUS
 62
    2
 10
305.12081903571419
 20
113.08125512859888
 11
305.12081903571419
 21
112.58125512859888
  0
LINE
  8
_0-8_043123
  6
CONTINUOUS
 62
    2
 10
304.93381903571417
 20
114.08125512859888
 11
304.74581903571419
 21
114.58125512859888
  0
LINE
  8
_0-8_043123
  6
CONTINUOUS
 62
    2
 10
298.29481903571416
 20
114.08125512859888
 11
296.96781903571417
 21
114.58125512859888
  0
LINE
  8
_0-8_043123
  6
CONTINUOUS
 62
    2
 10
300.75981903571414
 20
114.08125512859888
 11
301.89881903571415
 21
114.58125512859888
  0
LINE
  8
_0-8_043123
  6
CONTINUOUS
 62
    2
 10
302.77281903571417
 20
114.08125512859888
 11
301.89881903571415
 21
114.58125512859888
  0
LINE
  8
_0-8_043123
  6
CONTINUOUS
 62
    2
 10
304.19681903571421
 20
114.08125512859888
 11
304.74581903571419
 21
114.58125512859888
  0
LINE
  8
_0-8_043123
  6
CONTINUOUS
 62
    2
 10
304.93381903571417
 20
113.08125512859888
 11
305.12081903571419
 21
112.58125512859888
  0
LINE
  8
_0-8_043123
  6
CONTINUOUS
 62
    2
 10
304.19681903571421
 20
113.08125512859888
 11
303.6468190357142
 21
112.58125512859888
  0
LINE
  8
_0-8_043123
  6
CONTINUOUS
 62
    2
 10
302.77281903571417
 20
113.08125512859888
 11
303.6468190357142
 21
112.58125512859888
  0
LINE
  8
_0-8_043123
  6
CONTINUOUS
 62
    2
 10
300.75981903571414
 20
113.08125512859888
 11
299.62081903571419
 21
112.58125512859888
  0
LINE
  8
_0-8_043123
  6
CONTINUOUS
 62
    2
 10
298.29481903571416
 20
113.08125512859888
 11
299.62081903571419
 21
112.58125512859888
  0
LINE
  8
_0-8_043123
  6
CONTINUOUS
 62
    2
 10
295.54481903571422
 20
113.08125512859888
 11
294.12081903571419
 21
112.58125512859888
  0
LINE
  8
_0-8_043123
  6
CONTINUOUS
 62
    2
 10
295.54481903571422
 20
114.08125512859888
 11
296.96781903571417
 21
114.58125512859888
  0
LINE
  8
_0-8_043123
  6
CONTINUOUS
 62
    2
 10
314.12081903571413
 20
113.08125512859888
 11
294.12081903571419
 21
113.08125512859888
  0
LINE
  8
_0-8_043123
  6
CONTINUOUS
 62
    2
 10
314.12081903571413
 20
114.08125512859888
 11
294.12081903571419
 21
114.08125512859888
  0
LINE
  8
_0-8_043123
  6
CONTINUOUS
 62
    2
 10
314.12081903571413
 20
114.08125512859888
 11
314.12081903571413
 21
113.08125512859888
  0
LINE
  8
_0-8_043123
  6
CONTINUOUS
 62
    2
 10
310.12081903571413
 20
113.08125512859888
 11
305.12081903571419
 21
112.58125512859888
  0
LINE
  8
_0-8_043123
  6
CONTINUOUS
 62
    2
 10
294.12081903571419
 20
112.58125512859888
 11
305.12081903571419
 21
112.58125512859888
  0
LINE
  8
_0-8_043123
  6
CONTINUOUS
 62
    2
 10
294.12081903571419
 20
114.58125512859888
 11
304.74581903571419
 21
114.58125512859888
  0
LINE
  8
_0-7_004044
  6
CONTINUOUS
 62
    2
 10
287.19281903571419
 20
107.65325512859888
 11
287.19281903571419
 21
112.58125512859886
  0
ARC
  8
_0-7_004044
  6
CONTINUOUS
 62
    2
 10
283.72881903571419
 20
112.71525512859886
 40
6.1339999999999985
 50
270
 51
304.38400000000052
  0
ARC
  8
_0-7_004044
  6
CONTINUOUS
 62
    2
 10
294.12081903571419
 20
129.50925512859888
 40
22.928
 50
252.4119999999998
 51
270
  0
LINE
  8
_0-7_004044
  6
CONTINUOUS
 62
    2
 10
280.26481903571419
 20
107.65325512859888
 11
280.26481903571419
 21
112.58125512859886
  0
LINE
  8
_0-7_004044
  6
CONTINUOUS
 62
    2
 10
280.26481903571419
 20
107.65325512859888
 11
282.12081903571419
 21
106.58125512859888
  0
LINE
  8
_0-8_043123
  6
CONTINUOUS
 62
    2
 10
146.73298190375464
 20
113.08125512859888
 11
146.73298190375464
 21
112.58125512859888
  0
LINE
  8
_0-8_043123
  6
CONTINUOUS
 62
    2
 10
135.73298190375467
 20
114.58125512859888
 11
146.35798190375464
 21
114.58125512859888
  0
LINE
  8
_0-8_043123
  6
CONTINUOUS
 62
    2
 10
135.73298190375467
 20
112.58125512859888
 11
146.73298190375464
 21
112.58125512859888
  0
LINE
  8
_0-8_043123
  6
CONTINUOUS
 62
    2
 10
151.73298190375464
 20
113.08125512859888
 11
146.73298190375464
 21
112.58125512859888
  0
LINE
  8
_0-8_043123
  6
CONTINUOUS
 62
    2
 10
155.73298190375464
 20
114.08125512859888
 11
155.73298190375464
 21
113.08125512859888
  0
LINE
  8
_0-8_043123
  6
CONTINUOUS
 62
    2
 10
155.73298190375464
 20
114.08125512859888
 11
135.73298190375467
 21
114.08125512859888
  0
LINE
  8
_0-8_043123
  6
CONTINUOUS
 62
    2
 10
155.73298190375464
 20
113.08125512859888
 11
135.73298190375467
 21
113.08125512859888
  0
LINE
  8
_0-8_043123
  6
CONTINUOUS
 62
    2
 10
137.15698190375465
 20
114.08125512859888
 11
138.57998190375465
 21
114.58125512859888
  0
LINE
  8
_0-8_043123
  6
CONTINUOUS
 62
    2
 10
137.15698190375465
 20
113.08125512859888
 11
135.73298190375467
 21
112.58125512859888
  0
LINE
  8
_0-8_043123
  6
CONTINUOUS
 62
    2
 10
139.90698190375465
 20
113.08125512859888
 11
141.23298190375464
 21
112.58125512859888
  0
LINE
  8
_0-8_043123
  6
CONTINUOUS
 62
    2
 10
142.37198190375465
 20
113.08125512859888
 11
141.23298190375464
 21
112.58125512859888
  0
LINE
  8
_0-8_043123
  6
CONTINUOUS
 62
    2
 10
144.38498190375466
 20
113.08125512859888
 11
145.25898190375465
 21
112.58125512859888
  0
LINE
  8
_0-8_043123
  6
CONTINUOUS
 62
    2
 10
145.80898190375467
 20
113.08125512859888
 11
145.25898190375465
 21
112.58125512859888
  0
LINE
  8
_0-8_043123
  6
CONTINUOUS
 62
    2
 10
146.54598190375466
 20
113.08125512859888
 11
146.73298190375464
 21
112.58125512859888
  0
LINE
  8
_0-8_043123
  6
CONTINUOUS
 62
    2
 10
145.80898190375467
 20
114.08125512859888
 11
146.35798190375464
 21
114.58125512859888
  0
LINE
  8
_0-8_043123
  6
CONTINUOUS
 62
    2
 10
144.38498190375466
 20
114.08125512859888
 11
143.51098190375466
 21
114.58125512859888
  0
LINE
  8
_0-8_043123
  6
CONTINUOUS
 62
    2
 10
142.37198190375465
 20
114.08125512859888
 11
143.51098190375466
 21
114.58125512859888
  0
LINE
  8
_0-8_043123
  6
CONTINUOUS
 62
    2
 10
139.90698190375465
 20
114.08125512859888
 11
138.57998190375465
 21
114.58125512859888
  0
LINE
  8
_0-8_043123
  6
CONTINUOUS
 62
    2
 10
146.54598190375466
 20
114.08125512859888
 11
146.35798190375464
 21
114.58125512859888
  0
LINE
  8
_0-8_043123
  6
CONTINUOUS
 62
    2
 10
124.73298190375467
 20
113.08125512859888
 11
124.73298190375467
 21
112.58125512859888
  0
LINE
  8
_0-8_043123
  6
CONTINUOUS
 62
    2
 10
124.91998190375463
 20
114.08125512859888
 11
125.10798190375467
 21
114.58125512859888
  0
LINE
  8
_0-8_043123
  6
CONTINUOUS
 62
    2
 10
131.55898190375464
 20
114.08125512859888
 11
132.88598190375464
 21
114.58125512859888
  0
LINE
  8
_0-8_043123
  6
CONTINUOUS
 62
    2
 10
129.09398190375469
 20
114.08125512859888
 11
127.95498190375467
 21
114.58125512859888
  0
LINE
  8
_0-8_043123
  6
CONTINUOUS
 62
    2
 10
127.08098190375463
 20
114.08125512859888
 11
127.95498190375467
 21
114.58125512859888
  0
LINE
  8
_0-8_043123
  6
CONTINUOUS
 62
    2
 10
125.65698190375465
 20
114.08125512859888
 11
125.10798190375467
 21
114.58125512859888
  0
LINE
  8
_0-8_043123
  6
CONTINUOUS
 62
    2
 10
124.91998190375463
 20
113.08125512859888
 11
124.73298190375467
 21
112.58125512859888
  0
LINE
  8
_0-8_043123
  6
CONTINUOUS
 62
    2
 10
125.65698190375465
 20
113.08125512859888
 11
126.20698190375466
 21
112.58125512859888
  0
LINE
  8
_0-8_043123
  6
CONTINUOUS
 62
    2
 10
127.08098190375463
 20
113.08125512859888
 11
126.20698190375466
 21
112.58125512859888
  0
LINE
  8
_0-8_043123
  6
CONTINUOUS
 62
    2
 10
129.09398190375469
 20
113.08125512859888
 11
130.23298190375467
 21
112.58125512859888
  0
LINE
  8
_0-8_043123
  6
CONTINUOUS
 62
    2
 10
131.55898190375464
 20
113.08125512859888
 11
130.23298190375467
 21
112.58125512859888
  0
LINE
  8
_0-8_043123
  6
CONTINUOUS
 62
    2
 10
134.30898190375464
 20
113.08125512859888
 11
135.73298190375467
 21
112.58125512859888
  0
LINE
  8
_0-8_043123
  6
CONTINUOUS
 62
    2
 10
134.30898190375464
 20
114.08125512859888
 11
132.88598190375464
 21
114.58125512859888
  0
LINE
  8
_0-8_043123
  6
CONTINUOUS
 62
    2
 10
115.73298190375467
 20
113.08125512859888
 11
135.73298190375467
 21
113.08125512859888
  0
LINE
  8
_0-8_043123
  6
CONTINUOUS
 62
    2
 10
115.73298190375467
 20
114.08125512859888
 11
135.73298190375467
 21
114.08125512859888
  0
LINE
  8
_0-8_043123
  6
CONTINUOUS
 62
    2
 10
115.73298190375467
 20
114.08125512859888
 11
115.73298190375467
 21
113.08125512859888
  0
LINE
  8
_0-8_043123
  6
CONTINUOUS
 62
    2
 10
119.73298190375467
 20
113.08125512859888
 11
124.73298190375467
 21
112.58125512859888
  0
LINE
  8
_0-8_043123
  6
CONTINUOUS
 62
    2
 10
135.73298190375467
 20
112.58125512859888
 11
124.73298190375467
 21
112.58125512859888
  0
LINE
  8
_0-8_043123
  6
CONTINUOUS
 62
    2
 10
135.73298190375467
 20
114.58125512859888
 11
125.10798190375467
 21
114.58125512859888
  0
LINE
  8
_0-3_003259
  6
CONTINUOUS
 62
    2
 10
304.62081903571419
 20
114.58125512859888
 11
304.62081903571419
 21
124.99625512859887
  0
LINE
  8
_0-3_003259
  6
CONTINUOUS
 62
    2
 10
283.62081903571419
 20
114.58125512859888
 11
283.62081903571419
 21
124.99625512859887
  0
LINE
  8
_0-3_003259
  6
PHANTOM-S
 62
    3
 10
125.23298190375469
 20
114.58125512859888
 11
83.110981903754648
 21
114.58125512859888
  0
LINE
  8
_0-3_003259
  6
PHANTOM-S
 62
    3
 10
125.23298190375469
 20
124.99625512859887
 11
84.484981903754743
 21
124.99625512859887
  0
LINE
  8
_0-3_003259
  6
PHANTOM-S
 62
    3
 10
146.23298190375467
 20
124.99625512859887
 11
181.33198190375466
 21
124.99625512859887
  0
LINE
  8
_0-3_003259
  6
PHANTOM-S
 62
    3
 10
146.23298190375467
 20
114.58125512859888
 11
183.75098190375467
 21
114.58125512859888
  0
LINE
  8
_0-3_003259
  6
PHANTOM-S
 62
    3
 10
181.41798190375467
 20
124.90825512859888
 11
184.87198190375468
 21
121.36225512859888
  0
LINE
  8
_0-3_003259
  6
PHANTOM-S
 62
    3
 10
184.87198190375468
 20
121.36225512859888
 11
177.78598190375467
 21
120.34325512859888
  0
LINE
  8
_0-3_003259
  6
PHANTOM-S
 62
    3
 10
177.78598190375467
 20
120.34325512859888
 11
188.76998190375468
 21
118.08325512859887
  0
LINE
  8
_0-3_003259
  6
PHANTOM-S
 62
    3
 10
183.75098190375467
 20
114.58125512859888
 11
177.69698190375467
 21
115.77825512859888
  0
LINE
  8
_0-3_003259
  6
PHANTOM-S
 62
    3
 10
188.76998190375468
 20
118.08325512859887
 11
177.69698190375467
 21
115.77825512859888
  0
LINE
  8
_0-3_003259
  6
PHANTOM-S
 62
    3
 10
84.484981903754743
 20
124.99625512859887
 11
78.751981903754739
 21
121.71725512859887
  0
LINE
  8
_0-3_003259
  6
PHANTOM-S
 62
    3
 10
78.751981903754739
 20
121.71725512859887
 11
86.014981903754645
 21
120.43225512859888
  0
LINE
  8
_0-3_003259
  6
PHANTOM-S
 62
    3
 10
86.014981903754645
 20
120.43225512859888
 11
77.643981903754649
 21
118.08325512859887
  0
LINE
  8
_0-3_003259
  6
PHANTOM-S
 62
    3
 10
77.643981903754649
 20
118.08325512859887
 11
85.615981903754644
 21
116.53225512859887
  0
LINE
  8
_0-3_003259
  6
PHANTOM-S
 62
    3
 10
83.110981903754648
 20
114.58125512859888
 11
85.615981903754644
 21
116.53225512859887
  0
LINE
  8
_0-3_003259
  6
CONTINUOUS
 62
    2
 10
146.23298190375467
 20
114.58125512859888
 11
146.23298190375467
 21
124.9962551285989
  0
LINE
  8
_0-3_003259
  6
CONTINUOUS
 62
    3
 10
145.11698190375469
 20
114.58125512859888
 11
145.11698190375466
 21
124.9962551285989
  0
LINE
  8
_0-3_003259
  6
CONTINUOUS
 62
    3
 10
126.34898190375471
 20
114.58125512859888
 11
126.34898190375466
 21
124.9962551285989
  0
LINE
  8
_0-3_003259
  6
CONTINUOUS
 62
    2
 10
125.23298190375473
 20
114.58125512859888
 11
125.23298190375469
 21
124.9962551285989
  0
INSERT
  2
-001-_D7
  8
_0-2_BALN
 10
209.97971814304764
 20
148.5122500964708
 41
1
 42
1
 50
0
  0
INSERT
  2
-002-_D8
  8
_0-2_BALN
 10
209.97971814304764
 20
148.5122500964708
 41
1
 42
1
 50
0
  0
INSERT
  2
-003-_D9
  8
_0-2_BALN
 10
209.97971814304764
 20
148.5122500964708
 41
1
 42
1
 50
0
  0
INSERT
  2
-004-_D10
  8
_0-2_BALN
 10
209.97971814304764
 20
148.5122500964708
 41
1
 42
1
 50
0
  0
INSERT
  2
-006-HIKI-001
  8
_0-2_BALN
 10
304.62081903571419
 20
93.185126190824263
 41
1
 42
1
 50
0
  0
LINE
  8
ADD_LINE
  6
DOT
 62
    9
 10
14.417515258040054
 20
12.033216888456706
 11
14.417515258040054
 21
8.5332168884567067
  0
LINE
  8
ADD_LINE
  6
DOT
 62
    9
 10
14.417515258040054
 20
8.5332168884567067
 11
17.417515258040054
 21
8.5332169530572627
  0
LINE
  8
ADD_LINE
  6
DOT
 62
    9
 10
17.417515258040054
 20
12.033216888456706
 11
17.417515258040054
 21
8.5332169530572627
  0
LINE
  8
ADD_LINE
  6
DOT
 62
    9
 10
14.42051525804004
 20
8.5332168884567067
 11
11.422015258040062
 21
8.5332168884567067
  0
LINE
  8
ADD_LINE
  6
DOT
 62
    9
 10
6.9175152580400549
 20
7.5332168884567067
 11
413.91751525804005
 21
7.5332168884567067
  0
LINE
  8
ADD_LINE
  6
DOT
 62
    9
 10
412.41901525804007
 20
12.033216888456706
 11
412.41901525804007
 21
8.5332172114596573
  0
LINE
  8
ADD_LINE
  6
DOT
 62
    9
 10
409.41901525804007
 20
12.033216888456706
 11
409.41901525804007
 21
8.5332172114596573
  0
LINE
  8
ADD_LINE
  6
DOT
 62
    9
 10
406.41901525804007
 20
12.033216888456706
 11
406.41901525804007
 21
8.5332172114596573
  0
LINE
  8
ADD_LINE
  6
DOT
 62
    9
 10
403.41901525804007
 20
12.033216888456706
 11
403.41901525804007
 21
8.5332172114596573
  0
LINE
  8
ADD_LINE
  6
DOT
 62
    9
 10
400.41901525804007
 20
12.033216888456706
 11
400.41901525804007
 21
8.5332172114596573
  0
LINE
  8
ADD_LINE
  6
DOT
 62
    9
 10
397.41901525804007
 20
12.033216888456706
 11
397.41901525804007
 21
8.5332168884567067
  0
LINE
  8
ADD_LINE
  6
DOT
 62
    9
 10
6.9175152580400549
 20
289.53321688845664
 11
6.9175152580400549
 21
7.5332168884567067
  0
LINE
  8
ADD_LINE
  6
DOT
 62
    9
 10
11.422015258040062
 20
8.5332168884567067
 11
11.422015258040062
 21
288.03321688845664
  0
LINE
  8
ADD_LINE
  6
DOT
 62
    9
 10
413.91751525804005
 20
289.53321688845664
 11
6.9175152580400549
 21
289.53321688845664
  0
LINE
  8
ADD_LINE
  6
DOT
 62
    9
 10
413.91751525804005
 20
7.5332168884567067
 11
413.91751525804005
 21
289.53321688845664
  0
LINE
  8
_1-0_
  6
CONTINUOUS
 62
    7
 10
62.419015258040076
 20
14.033216888456706
 11
62.419015258040076
 21
24.033216888456692
  0
LINE
  8
ADD_LINE
  6
DOT
 62
    9
 10
16.419015258040076
 20
14.033216888456706
 11
16.419015258040076
 21
24.033216888456692
  0
LINE
  8
ADD_LINE
  6
DOT
 62
    9
 10
60.419015258040076
 20
14.033216888456706
 11
60.419015258040076
 21
24.033216888456692
  0
LINE
  8
_1-0_
  6
CONTINUOUS
 62
    7
 10
16.419015258040076
 20
14.033216888456706
 11
60.419015258040076
 21
14.033216888456706
  0
LINE
  8
_1-0_
  6
CONTINUOUS
 62
    7
 10
16.419015258040076
 20
24.033216888456692
 11
60.419015258040076
 21
24.033216888456692
  0
LINE
  8
_1-0_
  6
CONTINUOUS
 62
    7
 10
141.41901525804007
 20
14.033216888456706
 11
141.41901525804007
 21
24.033216888456692
  0
LINE
  8
_1-0_
  6
CONTINUOUS
 62
    7
 10
220.41901525804004
 20
14.033216888456706
 11
220.41901525804004
 21
24.033216888456692
  0
LINE
  8
_1-0_
  6
CONTINUOUS
 62
    7
 10
221.41901525804004
 20
14.033216888456706
 11
221.41901525804004
 21
24.033216888456692
  0
LINE
  8
_1-0_
  6
CONTINUOUS
 62
    7
 10
62.419015258040076
 20
14.033216888456706
 11
220.41901525804004
 21
14.033216888456706
  0
LINE
  8
_1-0_
  6
CONTINUOUS
 62
    7
 10
62.419015258040076
 20
24.033216888456692
 11
220.41901525804004
 21
24.033216888456692
  0
LINE
  8
_1-0_
  6
CONTINUOUS
 62
    7
 10
270.41901525804007
 20
14.033216888456706
 11
270.41901525804007
 21
24.033216888456692
  0
LINE
  8
_1-0_
  6
CONTINUOUS
 62
    7
 10
271.41901525804007
 20
14.033216888456706
 11
271.41901525804007
 21
24.033216888456692
  0
LINE
  8
_1-0_
  6
CONTINUOUS
 62
    7
 10
221.41901525804004
 20
14.033216888456706
 11
270.41901525804007
 21
14.033216888456706
  0
LINE
  8
_1-0_
  6
CONTINUOUS
 62
    7
 10
221.41901525804004
 20
24.033216888456692
 11
270.41901525804007
 21
24.033216888456692
  0
LINE
  8
_1-0_
  6
CONTINUOUS
 62
    7
 10
301.41901525804007
 20
14.033216888456706
 11
301.41901525804007
 21
24.033216888456692
  0
LINE
  8
_1-0_
  6
CONTINUOUS
 62
    7
 10
331.41901525804007
 20
14.033216888456706
 11
331.41901525804007
 21
24.033216888456692
  0
LINE
  8
_1-0_
  6
CONTINUOUS
 62
    7
 10
369.41901525804007
 20
14.033216888456706
 11
369.41901525804007
 21
24.033216888456692
  0
LINE
  8
_1-0_
  6
CONTINUOUS
 62
    7
 10
271.41901525804007
 20
14.033216888456706
 11
410.41901525804007
 21
14.033216888456706
  0
LINE
  8
_1-0_
  6
CONTINUOUS
 62
    7
 10
410.41901525804007
 20
14.033216888456706
 11
410.41901525804007
 21
24.033216888456692
  0
LINE
  8
_1-0_
  6
CONTINUOUS
 62
    7
 10
271.41901525804007
 20
24.033216888456692
 11
410.41901525804007
 21
24.033216888456692
  0
LINE
  8
_1-0_
  6
CONTINUOUS
 62
    1
 10
412.41901525804007
 20
288.03321688845664
 11
412.41901525804007
 21
12.033216888456706
  0
LINE
  8
_1-0_
  6
CONTINUOUS
 62
    1
 10
14.419015258040076
 20
288.03321688845664
 11
412.41901525804007
 21
288.03321688845664
  0
LINE
  8
_1-0_
  6
CONTINUOUS
 62
    1
 10
14.419015258040076
 20
12.033216888456706
 11
412.41901525804007
 21
12.033216888456706
  0
LINE
  8
_1-0_
  6
CONTINUOUS
 62
    1
 10
14.419015258040076
 20
12.033216888456706
 11
14.419015258040076
 21
288.03321688845664
  0
LINE
  8
ADD_LINE
  6
DOT
 62
    9
 10
62.419015258040076
 20
22.033216888456692
 11
220.41901525804004
 21
22.033216888456692
  0
LINE
  8
ADD_LINE
  6
DOT
 62
    9
 10
271.41901525804007
 20
22.033216888456692
 11
410.41901525804007
 21
22.033216888456692
  0
LINE
  8
ADD_LINE
  6
DOT
 62
    9
 10
273.41901525804007
 20
14.033216888456706
 11
273.41901525804007
 21
24.033216888456692
  0
LINE
  8
ADD_LINE
  6
DOT
 62
    9
 10
303.41901525804007
 20
14.033216888456706
 11
303.41901525804007
 21
24.033216888456692
  0
LINE
  8
ADD_LINE
  6
DOT
 62
    9
 10
333.41901525804007
 20
14.033216888456706
 11
333.41901525804007
 21
24.033216888456692
  0
LINE
  8
ADD_LINE
  6
DOT
 62
    9
 10
371.41901525804007
 20
14.033216888456706
 11
371.41901525804007
 21
24.033216888456692
  0
LINE
  8
ADD_LINE
  6
DOT
 62
    9
 10
143.91901525804007
 20
14.033216888456706
 11
143.91901525804007
 21
24.033216888456692
  0
LINE
  8
ADD_LINE
  6
DOT
 62
    9
 10
64.919015258040076
 20
14.033216888456706
 11
64.919015258040076
 21
24.033216888456692
  0
LINE
  8
ADD_LINE
  6
DOT
 62
    9
 10
365.41901525804007
 20
14.033216888456706
 11
365.41901525804007
 21
24.033216888456692
  0
LINE
  8
ADD_LINE
  6
DOT
 62
    9
 10
271.41901525804007
 20
18.033216888456706
 11
410.41901525804007
 21
18.033216888456706
  0
LINE
  8
ADD_LINE
  6
DOT
 62
    9
 10
12.919015258040076
 20
8.5332168884567067
 11
12.919015258040076
 21
288.03321688845664
  0
LINE
  8
_1-0_
  6
CONTINUOUS
 62
    7
 10
16.419015258040076
 20
19.033216888456706
 11
60.419015258040076
 21
19.033216888456706
  0
LINE
  8
ADD_LINE
  6
DOT
 62
    9
 10
290.41901525804007
 20
14.033216888456706
 11
290.41901525804007
 21
24.033216888456692
  0
LINE
  8
ADD_LINE
  6
DOT
 62
    9
 10
316.41901525804007
 20
14.033216888456706
 11
316.41901525804007
 21
24.033216888456692
  0
LINE
  8
ADD_LINE
  6
DOT
 62
    9
 10
349.41901525804007
 20
24.033216888456692
 11
349.41901525804007
 21
14.033216888456706
  0
LINE
  8
ADD_LINE
  6
DOT
 62
    9
 10
62.419015258040076
 20
18.033216888456706
 11
220.41901525804004
 21
18.033216888456706
  0
LINE
  8
ADD_LINE
  6
DOT
 62
    9
 10
101.91901525804006
 20
24.033216888456692
 11
101.91901525804006
 21
14.033216888456706
  0
LINE
  8
ADD_LINE
  6
DOT
 62
    9
 10
180.91901525804004
 20
14.033216888456706
 11
180.91901525804004
 21
24.033216888456692
  0
LINE
  8
_1-0_
  6
CONTINUOUS
 62
    7
 10
215.91901525804004
 20
289.23321688845669
 11
216.03401525804005
 21
289.43321688845674
  0
LINE
  8
_1-0_
  6
CONTINUOUS
 62
    7
 10
215.28301525804005
 20
289.73321688845669
 11
215.91901525804004
 21
288.63321688845667
  0
LINE
  8
_1-0_
  6
CONTINUOUS
 62
    7
 10
215.91901525804004
 20
288.63321688845667
 11
216.55401525804003
 21
289.73321688845669
  0
LINE
  8
_1-0_
  6
CONTINUOUS
 62
    7
 10
215.91901525804004
 20
288.03321688845664
 11
217.07301525804004
 21
290.03321688845664
  0
LINE
  8
_1-0_
  6
CONTINUOUS
 62
    7
 10
214.76401525804004
 20
290.03321688845664
 11
215.91901525804004
 21
288.03321688845664
  0
LINE
  8
_1-0_
  6
CONTINUOUS
 62
    7
 10
217.07301525804004
 20
290.03321688845664
 11
214.76401525804004
 21
290.03321688845664
  0
LINE
  8
_1-0_
  6
CONTINUOUS
 62
    7
 10
215.80301525804006
 20
289.43321688845674
 11
215.91901525804004
 21
289.23321688845669
  0
LINE
  8
_1-0_
  6
CONTINUOUS
 62
    7
 10
216.03401525804005
 20
289.43321688845674
 11
215.80301525804006
 21
289.43321688845674
  0
LINE
  8
_1-0_
  6
CONTINUOUS
 62
    7
 10
216.55401525804003
 20
289.73321688845669
 11
215.28301525804005
 21
289.73321688845669
  0
LINE
  8
_1-0_
  6
CONTINUOUS
 62
    7
 10
11.419015258040076
 20
148.30116608088781
 11
11.419015258040076
 21
151.76526769602554
  0
LINE
  8
_1-0_
  6
CONTINUOUS
 62
    7
 10
11.419015258040076
 20
151.76526769602554
 11
14.419015258040076
 21
150.0332168884567
  0
LINE
  8
_1-0_
  6
CONTINUOUS
 62
    7
 10
14.419015258040076
 20
150.0332168884567
 11
11.419015258040076
 21
148.30116608088781
  0
LINE
  8
_1-0_
  6
CONTINUOUS
 62
    7
 10
11.919015258040076
 20
149.16719148467223
 11
11.919015258040076
 21
150.89924229224112
  0
LINE
  8
_1-0_
  6
CONTINUOUS
 62
    7
 10
11.919015258040076
 20
150.89924229224112
 11
13.419015258040076
 21
150.0332168884567
  0
LINE
  8
_1-0_
  6
CONTINUOUS
 62
    7
 10
13.419015258040076
 20
150.0332168884567
 11
11.919015258040076
 21
149.16719148467223
  0
LINE
  8
_1-0_
  6
CONTINUOUS
 62
    7
 10
12.319015258040053
 20
149.86001180769977
 11
12.319015258040053
 21
150.20642196921357
  0
LINE
  8
_1-0_
  6
CONTINUOUS
 62
    7
 10
12.319015258040053
 20
150.20642196921357
 11
12.619015258040121
 21
150.0332168884567
  0
LINE
  8
_1-0_
  6
CONTINUOUS
 62
    7
 10
12.619015258040121
 20
150.0332168884567
 11
12.319015258040053
 21
149.86001180769977
  0
LINE
  8
_1-0_
  6
CONTINUOUS
 62
    7
 10
415.41901525804007
 20
148.30116608088781
 11
415.41901525804007
 21
151.76526769602554
  0
LINE
  8
_1-0_
  6
CONTINUOUS
 62
    7
 10
415.41901525804007
 20
151.76526769602554
 11
412.41901525804007
 21
150.0332168884567
  0
LINE
  8
_1-0_
  6
CONTINUOUS
 62
    7
 10
412.41901525804007
 20
150.0332168884567
 11
415.41901525804007
 21
148.30116608088781
  0
LINE
  8
_1-0_
  6
CONTINUOUS
 62
    7
 10
414.91901525804007
 20
149.16719148467223
 11
414.91901525804007
 21
150.89924229224112
  0
LINE
  8
_1-0_
  6
CONTINUOUS
 62
    7
 10
414.91901525804007
 20
150.89924229224112
 11
413.41901525804007
 21
150.0332168884567
  0
LINE
  8
_1-0_
  6
CONTINUOUS
 62
    7
 10
413.41901525804007
 20
150.0332168884567
 11
414.91901525804007
 21
149.16719148467223
  0
LINE
  8
_1-0_
  6
CONTINUOUS
 62
    7
 10
414.51901525804004
 20
149.86001180769977
 11
414.51901525804004
 21
150.20642196921357
  0
LINE
  8
_1-0_
  6
CONTINUOUS
 62
    7
 10
414.51901525804004
 20
150.20642196921357
 11
414.21901525804003
 21
150.0332168884567
  0
LINE
  8
_1-0_
  6
CONTINUOUS
 62
    7
 10
414.21901525804003
 20
150.0332168884567
 11
414.51901525804004
 21
149.86001180769977
  0
LINE
  8
ADD_LINE
  6
DOT
 62
    9
 10
106.91901525804006
 20
24.033216888456692
 11
106.91901525804006
 21
14.033216888456706
  0
LINE
  8
ADD_LINE
  6
DOT
 62
    9
 10
185.91901525804004
 20
14.033216888456706
 11
185.91901525804004
 21
24.033216888456692
  0
LINE
  8
ADD_LINE
  6
DOT
 62
    9
 10
397.41901525804007
 20
8.5332168884567067
 11
412.41901525804007
 21
8.5332172114596573
  0
TEXT
  8
_1-0_
 62
    7
 10
64.919015258040076
 20
20.783216888456692
 40
2.5
 41
0.8
 50
0
  1
名　称
  0
TEXT
  8
_1-0_
 62
    7
 10
143.91901525804007
 20
20.783216888456692
 40
2.5
 41
0.8
 50
0
  1
図面名称
  0
TEXT
  8
_1-0_
 62
    7
 10
273.45641366658213
 20
20.780154187941676
 40
2.5
 41
0.64
 50
0
  1
ＳＣＡＬＥ
  0
TEXT
  8
_1-0_
 62
    7
 10
285.51901525804004
 20
16.283216888456706
 40
3.5
 41
0.5714285714285713
 50
0
  1
ＦＲＥＥ
  0
TEXT
  8
_1-0_
 62
    7
 10
303.41901525804007
 20
20.783216888456692
 40
2.5
 41
0.64
 50
0
  1
ＤＡＴＡ
  0
TEXT
  8
_1-0_
 62
    7
 10
333.41901525804007
 20
20.783216888456692
 40
2.5
 41
0.64
 50
0
  1
ＣＨＥＣＫＥＤ
  0
TEXT
  8
_1-0_
 62
    7
 10
333.41901525804007
 20
16.533216888456706
 40
3
 41
0.7333333333333333
 50
0
  1
Ｔ．Ｋ
  0
TEXT
  8
_1-0_
 62
    7
 10
353.61901525804006
 20
20.783216888456692
 40
2.5
 41
0.64
 50
0
  1
ＤＲＡＷＩＮＧ
  0
TEXT
  8
_1-0_
 62
    7
 10
357.61901525804006
 20
16.533216888456706
 40
3
 41
0.7333333333333333
 50
0
  1
Ｙ．Ｔ
  0
TEXT
  8
_1-0_
 62
    7
 10
371.41901525804007
 20
20.783216888456692
 40
2.5
 41
0.64
 50
0
  1
ＳＨＥＥＴ　ＮＯ．
  0
LINE
  8
_e-0_
  6
CONTINUOUS
 62
    7
 10
223.79760828494869
 20
21.985182368817291
 11
226.71240810502536
 21
23.046082742169673
  0
LINE
  8
_e-0_
  6
CONTINUOUS
 62
    7
 10
223.18238140856874
 20
21.229169212256451
 11
228.1743103051067
 21
23.046082742169588
  0
LINE
  8
_e-0_
  6
CONTINUOUS
 62
    7
 10
222.8396890159388
 20
20.572350495591948
 11
225.80544955855373
 21
21.651799055064955
  0
LINE
  8
_e-0_
  6
CONTINUOUS
 62
    7
 10
222.64021096175702
 20
19.967657535242494
 11
224.81488108513309
 21
20.759172729499354
  0
LINE
  8
_e-0_
  6
CONTINUOUS
 62
    7
 10
222.53926039921438
 20
19.398825649106584
 11
224.36476113760471
 21
20.063253580511627
  0
LINE
  8
_e-0_
  6
CONTINUOUS
 62
    7
 10
222.51550614679541
 20
18.858090922050507
 11
224.35649628192393
 21
19.528156532814989
  0
LINE
  8
_e-0_
  6
CONTINUOUS
 62
    7
 10
222.55739023242631
 20
18.341246596271673
 11
224.40188166572289
 21
19.01258657535061
  0
LINE
  8
_e-0_
  6
CONTINUOUS
 62
    7
 10
222.6585159474576
 20
17.845964460224195
 11
224.54597213986676
 21
18.53294233274255
  0
LINE
  8
_e-0_
  6
CONTINUOUS
 62
    7
 10
222.81577076368969
 20
17.371111646289705
 11
224.78526693482703
 21
18.08794962908496
  0
LINE
  8
_e-0_
  6
CONTINUOUS
 62
    7
 10
223.02856827823188
 20
16.916474721270901
 11
225.12900630685027
 21
17.680971642608824
  0
LINE
  8
_e-0_
  6
CONTINUOUS
 62
    7
 10
223.29871615068304
 20
16.482711619455528
 11
225.6070268583137
 21
17.322868008471004
  0
LINE
  8
_e-0_
  6
CONTINUOUS
 62
    7
 10
223.63083403229705
 20
16.071503756392587
 11
226.31369914789257
 21
17.047986801020499
  0
LINE
  8
_e-0_
  6
CONTINUOUS
 62
    7
 10
224.03357217628362
 20
15.685999566769339
 11
227.87552931332209
 21
17.08435760597797
  0
LINE
  8
_e-0_
  6
CONTINUOUS
 62
    7
 10
224.522525735068
 20
15.331875221867676
 11
227.33746348380498
 21
16.356428773720267
  0
LINE
  8
_e-0_
  6
CONTINUOUS
 62
    7
 10
227.37750847987678
 20
22.223981708939206
 11
229.63621250518809
 21
23.046082742169758
  0
LINE
  8
_e-0_
  6
CONTINUOUS
 62
    7
 10
225.47526068891301
 20
20.999531248591793
 11
230.72412824968643
 21
22.909962804318737
  0
LINE
  8
_e-0_
  6
CONTINUOUS
 62
    7
 10
226.7259771429874
 20
20.922665923143867
 11
230.72412824968643
 21
22.377873918080794
  0
LINE
  8
_e-0_
  6
CONTINUOUS
 62
    7
 10
228.18787934306894
 20
20.922665923143867
 11
230.72412824968643
 21
21.845785031842851
  0
LINE
  8
_e-0_
  6
CONTINUOUS
 62
    7
 10
228.60652989229492
 20
20.542953375383362
 11
230.72412824968643
 21
21.313696145604907
  0
LINE
  8
_e-0_
  6
CONTINUOUS
 62
    7
 10
228.60652989229492
 20
20.010864489145433
 11
230.72412824968643
 21
20.781607259366907
  0
LINE
  8
_e-0_
  6
CONTINUOUS
 62
    7
 10
228.60652989229492
 20
19.478775602907489
 11
230.7241282496864
 21
20.249518373128978
  0
LINE
  8
_e-0_
  6
CONTINUOUS
 62
    7
 10
228.60652989229492
 20
18.946686716669546
 11
230.72412824968643
 21
19.717429486891035
  0
LINE
  8
_e-0_
  6
CONTINUOUS
 62
    7
 10
228.59910001500458
 20
18.411893576253646
 11
230.72412824968643
 21
19.185340600653091
  0
LINE
  8
_e-0_
  6
CONTINUOUS
 62
    7
 10
228.4844143516737
 20
17.83806252226617
 11
230.72412824968643
 21
18.653251714415091
  0
LINE
  8
_e-0_
  6
CONTINUOUS
 62
    7
 10
228.25851488661828
 20
17.223752954811402
 11
230.72412824968643
 21
18.121162828177148
  0
LINE
  8
_e-0_
  6
CONTINUOUS
 62
    7
 10
227.85905387631635
 20
16.546272151073594
 11
230.60510192171182
 21
17.545751901462438
  0
LINE
  8
_e-0_
  6
CONTINUOUS
 62
    7
 10
226.99364994669156
 20
15.699201993835231
 11
230.32289238717658
 21
16.910947144827559
  0
LINE
  8
_e-0_
  6
CONTINUOUS
 62
    7
 10
226.11692727282212
 20
14.848012150602528
 11
229.83605306625821
 21
16.201663236904948
  0
LINE
  8
_e-0_
  6
CONTINUOUS
 62
    7
 10
227.63277940373671
 20
14.867648319566455
 11
228.6914610967718
 21
15.252976943393775
  0
LINE
  8
_e-0_
  6
CONTINUOUS
 62
    3
 10
226.06366198538904
 20
21.789829708134973
 11
226.06366198538904
 21
21.789829708134973
  0
LINE
  8
_e-0_
  6
CONTINUOUS
 62
    3
 10
226.06366198538904
 20
21.789829708134973
 11
225.65146260397256
 21
21.508897552836828
  0
LINE
  8
_e-0_
  6
CONTINUOUS
 62
    3
 10
227.65769947723438
 20
14.848012150602357
 11
226.11105536205707
 21
14.848012150602357
  0
ARC
  8
_e-0_
  6
CONTINUOUS
 62
    3
 10
227.65769947723438
 20
15.348012150602357
 40
0.5
 50
270
 51
286.20399351045659
  0
LINE
  8
_e-0_
  6
CONTINUOUS
 62
    3
 10
230.74190134216618
 20
23.046082742169588
 11
230.74190134216618
 21
18.010563619023628
  0
ARC
  8
_e-0_
  6
CONTINUOUS
 62
    3
 10
226.61123183570452
 20
18.949040541941542
 40
4.25
 50
286.20399351045648
 51
345.50707147989851
  0
ARC
  8
_e-0_
  6
CONTINUOUS
 62
    3
 10
230.24190134216618
 20
18.010563619023628
 40
0.5
 50
345.50707147989879
 51
0
  0
ARC
  8
_e-0_
  6
CONTINUOUS
 62
    3
 10
224.4282891318121
 20
19.082777734746287
 40
4
 50
279.71265316664215
 51
332.69093929010892
  0
ARC
  8
_e-0_
  6
CONTINUOUS
 62
    3
 10
225.01876383353723
 20
15.632945908899898
 40
0.5
 50
241.94526281180003
 51
279.71265316664226
  0
ARC
  8
_e-0_
  6
CONTINUOUS
 62
    3
 10
225.74544648770185
 20
22.546082742169588
 40
0.5
 50
90
 51
106.05338143786269
  0
LINE
  8
_e-0_
  6
CONTINUOUS
 62
    3
 10
228.26236514956227
 20
23.046082742169588
 11
228.26236514956227
 21
23.046082742169588
  0
LINE
  8
_e-0_
  6
CONTINUOUS
 62
    3
 10
228.26236514956227
 20
23.046082742169588
 11
227.24083515355917
 21
22.557284579678764
  0
LINE
  8
_e-0_
  6
CONTINUOUS
 62
    3
 10
227.24083515355917
 20
22.557284579678764
 11
226.64896109179824
 21
22.17766586744073
  0
LINE
  8
_e-0_
  6
CONTINUOUS
 62
    3
 10
226.06366198538904
 20
21.789829708134945
 11
226.64896109179824
 21
22.177665867440722
  0
ARC
  8
_e-0_
  6
CONTINUOUS
 62
    3
 10
225.74544648770185
 20
22.546082742169588
 40
0.5
 50
90
 51
106.05338143786269
  0
ARC
  8
_e-0_
  6
CONTINUOUS
 62
    3
 10
225.74544648770185
 20
22.546082742169588
 40
0.5
 50
90
 51
106.05338143786269
  0
LINE
  8
_e-0_
  6
CONTINUOUS
 62
    3
 10
228.26236514956224
 20
23.046082742169588
 11
225.74544648770185
 21
23.046082742169588
  0
ARC
  8
_e-0_
  6
CONTINUOUS
 62
    3
 10
226.78244458569645
 20
18.942315970477011
 40
4.25
 50
106.05338143786269
 51
241.94526281180051
  0
ARC
  8
_e-0_
  6
CONTINUOUS
 62
    3
 10
225.74544648770185
 20
22.546082742169588
 40
0.5
 50
90
 51
106.05338143786269
  0
LINE
  8
_e-0_
  6
CONTINUOUS
 62
    3
 10
229.33621355262559
 20
23.046082742169588
 11
230.74190134216618
 21
23.046082742169588
  0
ARC
  8
_e-0_
  6
CONTINUOUS
 62
    3
 10
229.33621355262559
 20
22.546082742169588
 40
0.5
 50
90
 51
112.84552721528329
  0
LINE
  8
_e-0_
  6
CONTINUOUS
 62
    3
 10
228.62430298477471
 20
20.922665923143696
 11
226.32075071833679
 21
20.922665923143696
  0
ARC
  8
_e-0_
  6
CONTINUOUS
 62
    3
 10
226.32075071833679
 20
20.422665923143711
 40
0.5
 50
90
 51
110.93110431809542
  0
ARC
  8
_e-0_
  6
CONTINUOUS
 62
    3
 10
224.84194188606579
 20
19.803603340674101
 40
0.05
 50
165.368776721252
 51
224.67319701305797
  0
LINE
  8
_e-0_
  6
CONTINUOUS
 62
    3
 10
224.80638546384631
 20
19.768450234994077
 11
224.78739108543277
 21
19.787662538590154
  0
ARC
  8
_e-0_
  6
CONTINUOUS
 62
    3
 10
227.0352409201188
 20
18.554644576489067
 40
2.5
 50
110.93110431809527
 51
150.17701829297229
  0
ARC
  8
_e-0_
  6
CONTINUOUS
 62
    3
 10
224.82294750765225
 20
19.822815644270178
 40
0.05
 50
224.67319701305652
 51
330.17701829297561
  0
LINE
  8
_e-0_
  6
CONTINUOUS
 62
    3
 10
229.14208956446566
 20
23.006860212561619
 11
227.77135466961556
 21
22.429374242442676
  0
LINE
  8
_e-0_
  6
CONTINUOUS
 62
    3
 10
227.77135466961556
 20
22.429374242442676
 11
227.13046809658436
 21
22.079353680262713
  0
ARC
  8
_e-0_
  6
CONTINUOUS
 62
    3
 10
227.21249245759753
 20
19.184741491946454
 40
2.5
 50
126.05682261028304
 51
165.36877672125814
  0
ARC
  8
_e-0_
  6
CONTINUOUS
 62
    3
 10
231.62189449324796
 20
13.144753021959445
 40
10
 50
116.6886898974924
 51
126.03335467187628
  0
LINE
  8
_e-0_
  6
CONTINUOUS
 62
    3
 10
225.65146260397256
 20
21.508897552836835
 11
225.65146260397256
 21
21.508897552836835
  0
LINE
  8
_e-0_
  6
CONTINUOUS
 62
    3
 10
225.65146260397256
 20
21.508897552836835
 11
224.85461940215392
 21
20.783402782392144
  0
LINE
  8
_e-0_
  6
CONTINUOUS
 62
    3
 10
224.85461940215392
 20
20.783402782392144
 11
224.67010485850545
 21
20.570080652732205
  0
ARC
  8
_e-0_
  6
CONTINUOUS
 62
    3
 10
226.87395355547451
 20
19.488419963957596
 40
2.5
 50
169.07329675873063
 51
296.32138326661799
  0
LINE
  8
_e-0_
  6
CONTINUOUS
 62
    3
 10
224.67010485850545
 20
20.570080652732162
 11
224.67010485850545
 21
20.570080652732162
  0
LINE
  8
_e-0_
  6
CONTINUOUS
 62
    3
 10
224.67010485850545
 20
20.570080652732162
 11
224.41927736465135
 21
19.962302647969025
  0
LINE
  8
_e-0_
  6
CONTINUOUS
 62
    3
 10
228.62430298477471
 20
20.922665923143696
 11
228.62430298477471
 21
18.47564277428836
  0
ARC
  8
_e-0_
  6
CONTINUOUS
 62
    3
 10
227.14742451034513
 20
16.446307871763906
 40
0.5
 50
311.4163090429962
 51
326.13300916724881
  0
ARC
  8
_e-0_
  6
CONTINUOUS
 62
    3
 10
224.64760936689333
 20
18.906813122876542
 40
4
 50
316.78132524618342
 51
353.81191653224226
  0
ARC
  8
_e-0_
  6
CONTINUOUS
 62
    3
 10
223.50903505774058
 20
20.570883267022892
 40
6
 50
294.69555798319504
 51
311.41630904299643
  0
ARC
  8
_e-0_
  6
CONTINUOUS
 62
    3
 10
226.61169679122707
 20
22.331284039248302
 40
7.5
 50
264.68313230529076
 51
266.17253517307824
  0
ARC
  8
_e-0_
  6
CONTINUOUS
 62
    3
 10
225.92135206520163
 20
14.91333795160051
 40
0.05
 50
174.02086603460466
 51
264.68313230528985
  0
ARC
  8
_e-0_
  6
CONTINUOUS
 62
    3
 10
226.12026404454113
 20
14.892504697528579
 40
0.25
 50
114.69555798319522
 51
174.02086603461154
  0
LINE
  8
_e-0_
  6
CONTINUOUS
 62
    7
 10
237.10801444899948
 20
18.976248912518713
 11
238.24520435551966
 21
19.390152189200023
  0
LINE
  8
_e-0_
  6
CONTINUOUS
 62
    3
 10
243.04486760268275
 20
18.296529380976096
 11
243.04486760268275
 21
15.682235511286251
  0
CIRCLE
  8
_e-0_
  6
CONTINUOUS
 62
    3
 10
235.9706895631439
 20
18.279510337587225
 40
1.333773795583065
  0
CIRCLE
  8
_e-0_
  6
CONTINUOUS
 62
    3
 10
235.94231781840642
 20
18.251138592849713
 40
2.5691707563897665
  0
LINE
  8
_e-0_
  6
CONTINUOUS
 62
    3
 10
239.36841143056582
 20
20.85946727057167
 11
239.36841143056582
 21
15.682235511286251
  0
LINE
  8
_e-0_
  6
CONTINUOUS
 62
    3
 10
239.36841143056582
 20
15.682235511286251
 11
240.90470833340697
 21
15.682235511286251
  0
LINE
  8
_e-0_
  6
CONTINUOUS
 62
    3
 10
240.90470833340697
 20
15.682235511286251
 11
240.90470833340697
 21
19.296529380976096
  0
LINE
  8
_e-0_
  6
CONTINUOUS
 62
    3
 10
244.53676286093309
 20
15.682235511286251
 11
243.04486760268275
 21
15.682235511286251
  0
LINE
  8
_e-0_
  6
CONTINUOUS
 62
    3
 10
242.04486760268275
 20
19.296529380976096
 11
240.90470833340697
 21
19.296529380976096
  0
ARC
  8
_e-0_
  6
CONTINUOUS
 62
    3
 10
242.04486760268275
 20
18.296529380976096
 40
1
 50
0
 51
90
  0
LINE
  8
_e-0_
  6
CONTINUOUS
 62
    3
 10
242.03676286093309
 20
20.85946727057167
 11
239.36841143056582
 21
20.85946727057167
  0
LINE
  8
_e-0_
  6
CONTINUOUS
 62
    3
 10
244.53676286093309
 20
18.359467270571656
 11
244.53676286093309
 21
15.682235511286251
  0
ARC
  8
_e-0_
  6
CONTINUOUS
 62
    3
 10
242.03676286093309
 20
18.359467270571656
 40
2.5
 50
0
 51
90
  0
ARC
  8
_e-0_
  6
CONTINUOUS
 62
    3
 10
248.04354131979238
 20
18.250870650863134
 40
1.333773795583065
 50
23.422555400004952
 51
97.191484740792631
  0
LINE
  8
_e-0_
  6
CONTINUOUS
 62
    3
 10
246.81967287114636
 20
18.781057936822378
 11
249.26740976843842
 21
18.781057936822378
  0
ARC
  8
_e-0_
  6
CONTINUOUS
 62
    3
 10
248.04354131979238
 20
18.250870650863134
 40
1.333773795583065
 50
92.530763017635266
 51
156.57744459999506
  0
ARC
  8
_e-0_
  6
CONTINUOUS
 62
    3
 10
248.04354131979238
 20
18.250870650863134
 40
1.333773795583065
 50
204.21097500392608
 51
316.0067678116265
  0
LINE
  8
_e-0_
  6
CONTINUOUS
 62
    3
 10
246.82708416163876
 20
17.70389302777346
 11
250.57102279366392
 21
17.70389302777346
  0
LINE
  8
_e-0_
  6
CONTINUOUS
 62
    3
 10
249.00308732966632
 20
17.324466855145999
 11
250.28993937902896
 21
17.012160361121175
  0
ARC
  8
_e-0_
  6
CONTINUOUS
 62
    3
 10
248.07557393481857
 20
18.314935880915527
 40
2.5691707563897665
 50
346.24110979921471
 51
329.53046432565105
  0
ARC
  8
_e-0_
  6
CONTINUOUS
 62
    3
 10
254.07037116227408
 20
18.247526733810616
 40
1.1089756641867942
 50
94.502189492040685
 51
357.22978420280037
  0
LINE
  8
_e-0_
  6
CONTINUOUS
 62
    3
 10
255.07805087315475
 20
19.353080470362272
 11
253.98331968695507
 21
19.353080470362272
  0
LINE
  8
_e-0_
  6
CONTINUOUS
 62
    3
 10
255.17805087315474
 20
19.253080470362306
 11
255.17805087315474
 21
18.193929328445449
  0
ARC
  8
_e-0_
  6
CONTINUOUS
 62
    3
 10
255.07805087315475
 20
19.253080470362306
 40
0.1
 50
0
 51
90
  0
LINE
  8
_e-0_
  6
CONTINUOUS
 62
    3
 10
254.31604983159522
 20
20.862275631192787
 11
255.15832301262179
 21
20.862275631192787
  0
ARC
  8
_e-0_
  6
CONTINUOUS
 62
    3
 10
254.11564382416048
 20
18.300933052061225
 40
2.5691707563897665
 50
85.526146014136969
 51
347.40557840019874
  0
LINE
  8
_e-0_
  6
CONTINUOUS
 62
    3
 10
255.15832301262179
 20
22.946082742169593
 11
255.15832301262179
 21
20.862275631192787
  0
ARC
  8
_e-0_
  6
CONTINUOUS
 62
    3
 10
255.25832301262178
 20
22.946082742169593
 40
0.1
 50
90
 51
180
  0
LINE
  8
_e-0_
  6
CONTINUOUS
 62
    3
 10
256.6229951836762
 20
22.946082742169593
 11
256.6229951836762
 21
17.740729932270767
  0
LINE
  8
_e-0_
  6
CONTINUOUS
 62
    3
 10
256.52299518367624
 20
23.046082742169588
 11
255.25832301262178
 21
23.046082742169588
  0
ARC
  8
_e-0_
  6
CONTINUOUS
 62
    3
 10
256.52299518367624
 20
22.946082742169593
 40
0.1
 50
0
 51
90
  0
CIRCLE
  8
_e-0_
  6
CONTINUOUS
 62
    3
 10
260.16834371599838
 20
18.295075659599262
 40
1.333773795583065
  0
CIRCLE
  8
_e-0_
  6
CONTINUOUS
 62
    3
 10
260.13997197126093
 20
18.266703914861807
 40
2.5691707563897665
  0
ARC
  8
_e-0_
  6
CONTINUOUS
 62
    3
 10
235.54957971592693
 20
20.389325848969122
 40
0.5
 50
90
 51
106.05338143786269
  0
ARC
  8
_e-0_
  6
CONTINUOUS
 62
    3
 10
235.54957971592693
 20
20.389325848969122
 40
0.5
 50
90
 51
106.05338143786269
  0
ARC
  8
_e-0_
  6
CONTINUOUS
 62
    3
 10
235.54957971592693
 20
20.389325848969122
 40
0.5
 50
90
 51
106.05338143786269
  0
ARC
  8
_e-0_
  6
CONTINUOUS
 62
    3
 10
235.54957971592693
 20
20.389325848969122
 40
0.5
 50
90
 51
106.05338143786269
  0
LINE
  8
_e-0_
  6
CONTINUOUS
 62
    7
 10
234.0537233013502
 20
19.992933392943484
 11
236.26946103738558
 21
20.79939597580072
  0
LINE
  8
_e-0_
  6
CONTINUOUS
 62
    7
 10
235.54316588880149
 20
20.002957274186201
 11
237.07107371417308
 21
20.559070243323859
  0
LINE
  8
_e-0_
  6
CONTINUOUS
 62
    7
 10
233.59413076788837
 20
19.293566504634384
 11
235.54316588880149
 21
20.002957274186201
  0
LINE
  8
_e-0_
  6
CONTINUOUS
 62
    7
 10
233.41179932240095
 20
18.695114399468309
 11
235.14258195037172
 21
19.325067758034663
  0
LINE
  8
_e-0_
  6
CONTINUOUS
 62
    7
 10
233.37515092356278
 20
18.149686586919756
 11
234.68258793355823
 21
18.625554741736095
  0
LINE
  8
_e-0_
  6
CONTINUOUS
 62
    7
 10
233.4460605565188
 20
17.643406696400518
 11
234.65159323115665
 21
18.082184706404007
  0
LINE
  8
_e-0_
  6
CONTINUOUS
 62
    7
 10
233.61106349302946
 20
17.171373967618933
 11
234.81696097339698
 21
17.610284756049338
  0
LINE
  8
_e-0_
  6
CONTINUOUS
 62
    7
 10
233.86942815545074
 20
16.733322128088559
 11
235.17550962515718
 21
17.208696906588386
  0
LINE
  8
_e-0_
  6
CONTINUOUS
 62
    7
 10
234.23263173478014
 20
16.333428533705443
 11
235.91781480460804
 21
16.946785010412156
  0
LINE
  8
_e-0_
  6
CONTINUOUS
 62
    7
 10
234.7340281785807
 20
15.983833028577862
 11
236.94436279753131
 21
16.788329037643961
  0
LINE
  8
_e-0_
  6
CONTINUOUS
 62
    7
 10
235.48119105605269
 20
15.723689189888375
 11
236.94972555953842
 21
16.258192037150081
  0
LINE
  8
_e-0_
  6
CONTINUOUS
 62
    7
 10
236.94972555953842
 20
16.258192037150081
 11
237.92017457261408
 21
16.611406591782611
  0
LINE
  8
_e-0_
  6
CONTINUOUS
 62
    7
 10
236.85903064002349
 20
16.757270672285415
 11
238.32531730676043
 21
17.290955373879057
  0
LINE
  8
_e-0_
  6
CONTINUOUS
 62
    7
 10
236.86785330552513
 20
17.292570746152875
 11
238.48469360723532
 21
17.881052489537353
  0
LINE
  8
_e-0_
  6
CONTINUOUS
 62
    7
 10
237.26813834165031
 20
17.970351470762579
 11
238.50587704323902
 21
18.420851515940171
  0
LINE
  8
_e-0_
  6
CONTINUOUS
 62
    7
 10
237.28466685008481
 20
18.508456242087504
 11
238.42222156233464
 21
18.922492297195674
  0
LINE
  8
_e-0_
  6
CONTINUOUS
 62
    7
 10
235.93298544313313
 20
19.612751102459867
 11
237.5954253029862
 21
20.217829727704042
  0
LINE
  8
_e-0_
  6
CONTINUOUS
 62
    7
 10
236.73499960327228
 20
19.372571497972614
 11
237.97409384515003
 21
19.823564919466718
  0
LINE
  8
_e-0_
  6
CONTINUOUS
 62
    7
 10
239.36841143056582
 20
20.331055017671985
 11
240.82021216357091
 21
20.85946727057167
  0
LINE
  8
_e-0_
  6
CONTINUOUS
 62
    7
 10
239.36841143056582
 20
19.798966131434042
 11
242.25571968676132
 21
20.849860393840216
  0
LINE
  8
_e-0_
  6
CONTINUOUS
 62
    7
 10
239.36841143056582
 20
19.266877245196099
 11
243.09644623784674
 21
20.623770947354657
  0
LINE
  8
_e-0_
  6
CONTINUOUS
 62
    7
 10
239.36841143056582
 20
18.734788358958155
 11
243.63011557885062
 21
20.285921816182565
  0
LINE
  8
_e-0_
  6
CONTINUOUS
 62
    7
 10
239.36841143056582
 20
18.202699472720212
 11
240.90470833340697
 21
18.761865816349711
  0
LINE
  8
_e-0_
  6
CONTINUOUS
 62
    7
 10
242.28991608590246
 20
19.266040206532807
 11
244.01145612006592
 21
19.892629536065896
  0
LINE
  8
_e-0_
  6
CONTINUOUS
 62
    7
 10
239.36841143056582
 20
17.670610586482268
 11
240.90470833340697
 21
18.229776930111768
  0
LINE
  8
_e-0_
  6
CONTINUOUS
 62
    7
 10
239.75300461038463
 20
15.682235511286251
 11
240.90470833340697
 21
16.101421385159937
  0
LINE
  8
_e-0_
  6
CONTINUOUS
 62
    7
 10
239.36841143056582
 20
16.074343927768381
 11
240.90470833340697
 21
16.633510271397881
  0
LINE
  8
_e-0_
  6
CONTINUOUS
 62
    7
 10
239.36841143056582
 20
16.606432814006325
 11
240.90470833340697
 21
17.165599157635824
  0
LINE
  8
_e-0_
  6
CONTINUOUS
 62
    7
 10
239.36841143056582
 20
17.138521700244268
 11
240.90470833340697
 21
17.697688043873824
  0
LINE
  8
_e-0_
  6
CONTINUOUS
 62
    7
 10
243.04486760268275
 20
17.944553428241079
 11
244.53676286093309
 21
18.487558894887058
  0
LINE
  8
_e-0_
  6
CONTINUOUS
 62
    7
 10
243.04486760268275
 20
17.412464542003192
 11
244.53676286093309
 21
17.955470008649172
  0
LINE
  8
_e-0_
  6
CONTINUOUS
 62
    7
 10
243.02952001457919
 20
18.471056249241598
 11
244.45588705180256
 21
18.990211393929314
  0
LINE
  8
_e-0_
  6
CONTINUOUS
 62
    7
 10
243.04486760268275
 20
16.880375655765249
 11
244.53676286093309
 21
17.423381122411228
  0
LINE
  8
_e-0_
  6
CONTINUOUS
 62
    7
 10
243.04486760268275
 20
16.348286769527248
 11
244.53676286093309
 21
16.891292236173228
  0
LINE
  8
_e-0_
  6
CONTINUOUS
 62
    7
 10
243.04486760268275
 20
15.816197883289305
 11
244.53676286093309
 21
16.359203349935285
  0
LINE
  8
_e-0_
  6
CONTINUOUS
 62
    7
 10
244.13871121062936
 20
15.682235511286251
 11
244.53676286093309
 21
15.827114463697341
  0
LINE
  8
_e-0_
  6
CONTINUOUS
 62
    7
 10
242.82090549860163
 20
18.927215661227876
 11
244.28198388235452
 21
19.459004702843685
  0
LINE
  8
_e-0_
  6
CONTINUOUS
 62
    7
 10
246.33785368367347
 20
20.207280116050469
 11
248.19036944929717
 21
20.881540713246337
  0
LINE
  8
_e-0_
  6
CONTINUOUS
 62
    7
 10
245.78217914741833
 20
19.472942238676012
 11
249.08806412887798
 21
20.676185969834946
  0
LINE
  8
_e-0_
  6
CONTINUOUS
 62
    7
 10
245.56530516669926
 20
18.861917678869474
 11
249.64695825292272
 21
20.347517908855536
  0
LINE
  8
_e-0_
  6
CONTINUOUS
 62
    7
 10
245.56893945674639
 20
18.331151566031394
 11
246.81796197524028
 21
18.785758584691336
  0
LINE
  8
_e-0_
  6
CONTINUOUS
 62
    7
 10
248.63409842114549
 20
19.446778192366821
 11
250.04787205380887
 21
19.961349712646722
  0
LINE
  8
_e-0_
  6
CONTINUOUS
 62
    7
 10
249.08828804399257
 20
19.080000809557816
 11
250.33686444563261
 21
19.534445454961939
  0
LINE
  8
_e-0_
  6
CONTINUOUS
 62
    7
 10
245.73994952840922
 20
17.861305255638455
 11
248.26694925144499
 21
18.781057936822378
  0
LINE
  8
_e-0_
  6
CONTINUOUS
 62
    7
 10
245.7079032040026
 20
17.317552461198829
 11
250.5304206455963
 21
19.072805264168493
  0
LINE
  8
_e-0_
  6
CONTINUOUS
 62
    7
 10
245.94904443118329
 20
16.873231803909106
 11
247.11184956434948
 21
17.296458260633528
  0
LINE
  8
_e-0_
  6
CONTINUOUS
 62
    7
 10
248.23126738696726
 20
17.70389302777346
 11
250.63129956174128
 21
18.577433300672339
  0
LINE
  8
_e-0_
  6
CONTINUOUS
 62
    7
 10
249.69316958704885
 20
17.70389302777346
 11
250.63053146930965
 21
18.045064851652114
  0
LINE
  8
_e-0_
  6
CONTINUOUS
 62
    7
 10
246.29183266694059
 20
16.465907632143398
 11
247.6745166677941
 21
16.969163451850192
  0
LINE
  8
_e-0_
  6
CONTINUOUS
 62
    7
 10
246.764101065683
 20
16.105710385632278
 11
249.66875140356449
 21
17.162916649572366
  0
LINE
  8
_e-0_
  6
CONTINUOUS
 62
    7
 10
247.44971021402278
 20
15.823162821730591
 11
250.15669420887877
 21
16.808424420493111
  0
LINE
  8
_e-0_
  6
CONTINUOUS
 62
    7
 10
254.68133216725723
 20
15.794813526984114
 11
255.29320399150702
 21
16.017516658197166
  0
LINE
  8
_e-0_
  6
CONTINUOUS
 62
    7
 10
253.35914201818835
 20
15.845664554920972
 11
256.2733739972503
 21
16.906358251046185
  0
LINE
  8
_e-0_
  6
CONTINUOUS
 62
    7
 10
252.71878326708738
 20
16.144681916506328
 11
256.57171260502559
 21
17.547033510246762
  0
LINE
  8
_e-0_
  6
CONTINUOUS
 62
    7
 10
251.62720169351757
 20
18.939912032881125
 11
256.6229951836762
 21
20.758232159839693
  0
LINE
  8
_e-0_
  6
CONTINUOUS
 62
    7
 10
251.87798355599613
 20
19.563278052355144
 11
256.6229951836762
 21
21.290321046077636
  0
LINE
  8
_e-0_
  6
CONTINUOUS
 62
    7
 10
255.15832301262179
 20
22.885579517807613
 11
255.59930199730604
 21
23.046082742169588
  0
LINE
  8
_e-0_
  6
CONTINUOUS
 62
    7
 10
255.15832301262179
 20
22.35349063156967
 11
256.6229951836762
 21
22.886587704791494
  0
LINE
  8
_e-0_
  6
CONTINUOUS
 62
    7
 10
255.15832301262179
 20
21.821401745331698
 11
256.6229951836762
 21
22.354498818553551
  0
LINE
  8
_e-0_
  6
CONTINUOUS
 62
    7
 10
255.15832301262179
 20
21.289312859093726
 11
256.6229951836762
 21
21.822409932315608
  0
LINE
  8
_e-0_
  6
CONTINUOUS
 62
    7
 10
252.55501845606571
 20
20.3417874897778
 11
253.99931626944203
 21
20.867468903262519
  0
LINE
  8
_e-0_
  6
CONTINUOUS
 62
    7
 10
254.22427484600993
 20
19.353080470362272
 11
256.6229951836762
 21
20.226143273601735
  0
LINE
  8
_e-0_
  6
CONTINUOUS
 62
    7
 10
251.54765548710344
 20
18.378870695259649
 11
253.2565361022109
 21
19.000852373073314
  0
LINE
  8
_e-0_
  6
CONTINUOUS
 62
    7
 10
251.58455633540336
 20
17.860212619422043
 11
252.96748217129362
 21
18.363556459883795
  0
LINE
  8
_e-0_
  6
CONTINUOUS
 62
    7
 10
251.71841640413532
 20
17.376844813759362
 11
253.03306043789774
 21
17.855336110704513
  0
LINE
  8
_e-0_
  6
CONTINUOUS
 62
    7
 10
251.94464961592052
 20
16.927098082613667
 11
253.32256409565403
 21
17.428617938601064
  0
LINE
  8
_e-0_
  6
CONTINUOUS
 62
    7
 10
252.27018838131806
 20
16.513495617080195
 11
253.9946289653609
 21
17.14114066043237
  0
LINE
  8
_e-0_
  6
CONTINUOUS
 62
    7
 10
254.83956431082631
 20
17.448671976061234
 11
256.6229951836762
 21
18.097787728649961
  0
LINE
  8
_e-0_
  6
CONTINUOUS
 62
    7
 10
255.16960903720755
 20
18.100887318678474
 11
256.6229951836762
 21
18.629876614887905
  0
LINE
  8
_e-0_
  6
CONTINUOUS
 62
    7
 10
255.17805087315474
 20
18.636048781923761
 11
256.6229951836762
 21
19.161965501125848
  0
LINE
  8
_e-0_
  6
CONTINUOUS
 62
    7
 10
255.17805087315474
 20
19.168137668161705
 11
256.6229951836762
 21
19.694054387363792
  0
LINE
  8
_e-0_
  6
CONTINUOUS
 62
    7
 10
258.93369153992608
 20
20.535079081466093
 11
259.60595294131428
 21
20.779762221217467
  0
LINE
  8
_e-0_
  6
CONTINUOUS
 62
    7
 10
257.97837986238289
 20
19.655285180155487
 11
260.90328476218314
 21
20.719863501742096
  0
LINE
  8
_e-0_
  6
CONTINUOUS
 62
    7
 10
260.27082700777611
 20
15.700867728565583
 11
261.68901890672077
 21
16.217047366258896
  0
LINE
  8
_e-0_
  6
CONTINUOUS
 62
    7
 10
259.2434628728717
 20
15.85902664994569
 11
262.37436289829952
 21
16.998581065664666
  0
LINE
  8
_e-0_
  6
CONTINUOUS
 62
    7
 10
257.68232447065531
 20
19.0154409436347
 11
261.54136029723633
 21
20.420015117477021
  0
LINE
  8
_e-0_
  6
CONTINUOUS
 62
    7
 10
258.64869711609412
 20
16.174638504355812
 11
262.62710851175154
 21
17.622661832040478
  0
LINE
  8
_e-0_
  6
CONTINUOUS
 62
    7
 10
258.22597021716842
 20
16.552867382161139
 11
259.64362645206767
 21
17.068852054086335
  0
LINE
  8
_e-0_
  6
CONTINUOUS
 62
    7
 10
257.91995819623537
 20
16.973577001451815
 11
259.15810860919827
 21
17.424226897314724
  0
LINE
  8
_e-0_
  6
CONTINUOUS
 62
    7
 10
257.71099825640931
 20
17.429610689439073
 11
258.9059670586771
 21
17.864543764341249
  0
LINE
  8
_e-0_
  6
CONTINUOUS
 62
    7
 10
257.59440274495909
 20
17.919262280060081
 11
258.83675795892025
 21
18.371442598327348
  0
LINE
  8
_e-0_
  6
CONTINUOUS
 62
    7
 10
257.5769965046411
 20
18.445015812931785
 11
259.01754916954814
 21
18.969334103850769
  0
LINE
  8
_e-0_
  6
CONTINUOUS
 62
    7
 10
260.61649850978687
 20
19.551304069797254
 11
261.98870840657627
 21
20.050747627394059
  0
LINE
  8
_e-0_
  6
CONTINUOUS
 62
    7
 10
261.13930986374043
 20
19.209502954534798
 11
262.31332230958389
 21
19.636808539479829
  0
LINE
  8
_e-0_
  6
CONTINUOUS
 62
    7
 10
261.41212090730914
 20
18.776709167734964
 11
262.53874694145929
 21
19.186767509314961
  0
LINE
  8
_e-0_
  6
CONTINUOUS
 62
    7
 10
261.50199950011369
 20
18.277333413975611
 11
262.67180714495896
 21
18.703108576516285
  0
LINE
  8
_e-0_
  6
CONTINUOUS
 62
    7
 10
261.35850180056996
 20
17.693015636418067
 11
262.70781526735152
 21
18.184125575021027
  0
LINE
  8
ADD_LINE
  6
DOT
 62
    9
 10
233.37515092356278
 20
14.033216888456706
 11
233.37515092356278
 21
24.033216888456692
  0
LINE
  8
ADD_LINE
  6
DOT
 62
    9
 10
248.04148309545715
 20
24.033216888456692
 11
248.04148309545715
 21
14.033216888456706
  0
LINE
  8
ADD_LINE
  6
DOT
 62
    9
 10
262.70781526735152
 20
14.033216888456706
 11
262.70781526735152
 21
24.033216888456692
  0
LINE
  8
ADD_LINE
  6
DOT
 62
    9
 10
221.41901525804007
 20
24.033216888456692
 11
221.41901525804007
 21
14.033216888456706
  0
LINE
  8
ADD_LINE
  6
DOT
 62
    9
 10
270.41901525804007
 20
24.033216888456692
 11
270.41901525804007
 21
14.033216888456706
  0
TEXT
  8
_e-0_
 62
    7
 10
263.70488351554183
 20
20.089463945906231
 40
3.5
 41
0.5714285714285713
 50
0
  1
ワンド
  0
TEXT
  8
_e-0_
 62
    7
 10
264.38946625953047
 20
16.735008500361686
 40
3
 41
0.6666666666666666
 50
0
  1
株式
  0
TEXT
  8
_e-0_
 62
    7
 10
264.32100798513158
 20
13.928219250008055
 40
3
 41
0.6666666666666666
 50
0
  1
会社
  0
TEXT
  8
_1-0_
 62
    7
 10
303.71901525804003
 20
16.283216888456706
 40
3.5
 41
0.5714285714285713
 50
0
  1
２０２３．０５．０１
  0
TEXT
  8
_1-0_
 62
    7
 10
174.94635193133046
 20
15.61480686695279
 40
4.5
 41
0.6666666666666666
 50
0
  1
Ｋ５ＥＤ
  0
TEXT
  8
_1-0_
 62
    7
 10
94.641630901287555
 20
15.933476394849776
 40
4.5
 41
0.8
 50
0
  1
立水栓
  0
ENDSEC
  0
EOF
