  0
SECTION
  2
HEADER
  9
$ACADVER
  1
AC1009
  9
$INSBASE
 10
0
 20
0
 30
0
  9
$EXTMIN
 10
0
 20
0
  9
$EXTMAX
 10
840
 20
594
  9
$LIMMIN
 10
0
 20
0
  9
$LIMMAX
 10
840
 20
594
  9
$LTSCALE
 40
2
  0
ENDSEC
  0
SECTION
  2
TABLES
  0
TABLE
  2
LTYPE
 70
     9
  0
LTYPE
  2
CONTINUOUS
 70
    64
  3
実線
 72
    65
 73
     0
 40
0.0
  0
LTYPE
  2
DASHED1
 70
    64
  3
--  --  --  --  --  --  --  --  
 72
    65
 73
     2
 40
2.5
 49
1.25
 49
-1.25
  0
LTYPE
  2
DASHED2
 70
    64
  3
----    ----    ----    ----    
 72
    65
 73
     2
 40
5.0
 49
2.5
 49
-2.5
  0
LTYPE
  2
DASHED3
 70
    64
  3
------  ------  ------  ------  
 72
    65
 73
     2
 40
5.0
 49
3.75
 49
-1.25
  0
LTYPE
  2
CENTER1
 70
    64
  3
----- - ----- - ----- - ----- - 
 72
    65
 73
     4
 40
10.0
 49
6.25
 49
-1.25
 49
1.25
 49
-1.25
  0
LTYPE
  2
CENTER2
 70
    64
  3
----------  --  ----------  --  
 72
    65
 73
     4
 40
20.0
 49
12.5
 49
-2.5
 49
2.5
 49
-2.5
  0
LTYPE
  2
PHANTOM1
 70
    64
  3
--- - - --- - - --- - - --- - - 
 72
    65
 73
     6
 40
10.0
 49
3.25
 49
-1.25
 49
1.25
 49
-1.25
 49
1.25
 49
-1.25
  0
LTYPE
  2
PHANTOM2
 70
    64
  3
--------  -  -  --------  -  -  
 72
    65
 73
     6
 40
20.0
 49
10.0
 49
-2.5
 49
1.25
 49
-2.5
 49
1.25
 49
-2.5
  0
LTYPE
  2
DOT
 70
    64
  3
-   -   -   -   -   -   -   -   
 72
    65
 73
     2
 40
2.5
 49
0.625
 49
-1.875
  0
LTYPE
  2
DUMMY
 70
    64
  3
ダミー
 72
    65
 73
     0
 40
0.0
  0
LTYPE
  2
RAND1
 70
    64
  3
ランダム線1
 72
    65
 73
     4
 40
10.0
 49
1.0
 49
-2.0
 49
3.0
 49
-4.0
  0
LTYPE
  2
RAND2
 70
    64
  3
ランダム線2
 72
    65
 73
     4
 40
14.0
 49
2.0
 49
-3.0
 49
4.0
 49
-5.0
  0
LTYPE
  2
RAND3
 70
    64
  3
ランダム線3
 72
    65
 73
     4
 40
18.0
 49
3.0
 49
-4.0
 49
5.0
 49
-6.0
  0
LTYPE
  2
RAND4
 70
    64
  3
ランダム線4
 72
    65
 73
     4
 40
22.0
 49
4.0
 49
-5.0
 49
6.0
 49
-7.0
  0
LTYPE
  2
RAND5
 70
    64
  3
ランダム線5
 72
    65
 73
     4
 40
26.0
 49
5.0
 49
-6.0
 49
7.0
 49
-8.0
  0
LTYPE
  2
LONG1
 70
    64
  3
----------  --  ----------  --  
 72
    65
 73
     4
 40
40.0
 49
32.5
 49
-2.5
 49
2.5
 49
-2.5
  0
LTYPE
  2
LONG2
 70
    64
  3
--------  -  -  --------  -  -  
 72
    65
 73
     6
 40
40.0
 49
30.0
 49
-2.5
 49
1.25
 49
-2.5
 49
1.25
 49
-2.5
  0
LTYPE
  2
LONG3
 70
    64
  3
+++++++++++++++..+++++++++++++++
 72
    65
 73
     2
 40
40.0
 49
37.5
 49
-2.5
  0
LTYPE
  2
LONG4
 70
    64
  3
+++++++++++++++..+++++++++++++++
 72
    65
 73
     2
 40
80.0
 49
75.0
 49
-5.0
  0
LTYPE
  2
LONG5
 70
    64
  3
----------  --  ----------  --  
 72
    65
 73
     4
 40
60.0
 49
37.5
 49
-7.5
 49
7.5
 49
-7.5
  0
LTYPE
  2
dashed
 70
   64
  3
-------   -------------   ------
 72
   65
 73
    2
 40
7.5
 49
6
 49
-1.5
  0
LTYPE
  2
dashed_spaced
 70
   64
  3
----        --------        ----
 72
   65
 73
    2
 40
12
 49
6
 49
-6
  0
LTYPE
  2
long_dashed_dotted
 70
   64
  3
------------- --- --------------
 72
   65
 73
    4
 40
15.25
 49
12
 49
-1.5
 49
0.25
 49
-1.5
  0
LTYPE
  2
long_dashed_double-dotted
 70
   64
  3
----------- --- --- ------------
 72
   65
 73
    6
 40
17
 49
12
 49
-1.5
 49
0.25
 49
-1.5
 49
0.25
 49
-1.5
  0
LTYPE
  2
long_dashed_triplicate-dotted
 70
   64
  3
--------- --- --- --- ----------
 72
   65
 73
    8
 40
18.75
 49
12
 49
-1.5
 49
0.25
 49
-1.5
 49
0.25
 49
-1.5
 49
0.25
 49
-1.5
  0
LTYPE
  2
dotted
 70
   64
  3
   -       -       -       -    
 72
   65
 73
    2
 40
1.75
 49
0.25
 49
-1.5
  0
LTYPE
  2
chain
 70
   64
  3
-------------- -- --------------
 72
   65
 73
    4
 40
18.5
 49
12
 49
-1.5
 49
3.5
 49
-1.5
  0
LTYPE
  2
chain_double_dash
 70
   64
  3
------------ -- -- -------------
 72
   65
 73
    6
 40
23.5
 49
12
 49
-1.5
 49
3.5
 49
-1.5
 49
3.5
 49
-1.5
  0
LTYPE
  2
dashed_dotted
 70
   64
  3
-----------     -     ----------
 72
   65
 73
    4
 40
9.25
 49
6
 49
-1.5
 49
0.25
 49
-1.5
  0
LTYPE
  2
double-dashed_dotted
 70
   64
  3
------   -----------   -   -----
 72
   65
 73
    6
 40
16.75
 49
6
 49
-1.5
 49
6
 49
-1.5
 49
0.25
 49
-1.5
  0
LTYPE
  2
dashed_double-dotted
 70
   64
  3
---------    -    -    ---------
 72
   65
 73
    6
 40
11
 49
6
 49
-1.5
 49
0.25
 49
-1.5
 49
0.25
 49
-1.5
  0
LTYPE
  2
double-dashed_double-dotted
 70
   64
  3
-----   ---------   -   -   ----
 72
   65
 73
    8
 40
18.5
 49
6
 49
-1.5
 49
6
 49
-1.5
 49
0.25
 49
-1.5
 49
0.25
 49
-1.5
  0
LTYPE
  2
dashed_triplicate-dotted
 70
   64
  3
-------    -    -    -    ------
 72
   65
 73
    8
 40
12.75
 49
6
 49
-1.5
 49
0.25
 49
-1.5
 49
0.25
 49
-1.5
 49
0.25
 49
-1.5
  0
LTYPE
  2
double-dashed_triplicate-dotted
 70
   64
  3
-----  ---------  -  -  -  -----
 72
   65
 73
   10
 40
20.25
 49
6
 49
-1.5
 49
6
 49
-1.5
 49
0.25
 49
-1.5
 49
0.25
 49
-1.5
 49
0.25
 49
-1.5
  0
LTYPE
  2
undefined
 70
   64
  3
--------------------------------
 72
   65
 73
    0
 40
0
  0
LTYPE
  2
CENTER
 70
   64
  3
----------    ----    ----------
 72
   65
 73
    4
 40
2
 49
1.25
 49
-0.25
 49
0.25
 49
-0.25
  0
LTYPE
  2
PHANTOM-S
 70
   64
  3
---------   ---   ---   --------
 72
   65
 73
    6
 40
2.5
 49
1.25
 49
-0.25
 49
0.25
 49
-0.25
 49
0.25
 49
-0.25
  0
LTYPE
  2
DASHED-S
 70
   64
  3
------     -----------     -----
 72
   65
 73
    2
 40
0.75
 49
0.5
 49
-0.25
  0
LTYPE
  2
_
 70
   64
  3
                                
 72
   65
 73
    0
 40
0
  0
LTYPE
  2
__21
 70
   64
  3
                                
 72
   65
 73
    0
 40
0
  0
LTYPE
  2
__22
 70
   64
  3
                                
 72
   65
 73
    0
 40
0
  0
LTYPE
  2
__23
 70
   64
  3
                                
 72
   65
 73
    0
 40
0
  0
LTYPE
  2
__24
 70
   64
  3
                                
 72
   65
 73
    0
 40
0
  0
LTYPE
  2
__25
 70
   64
  3
                                
 72
   65
 73
    0
 40
0
  0
LTYPE
  2
__26
 70
   64
  3
                                
 72
   65
 73
    0
 40
0
  0
LTYPE
  2
__27
 70
   64
  3
                                
 72
   65
 73
    0
 40
0
  0
LTYPE
  2
__28
 70
   64
  3
                                
 72
   65
 73
    0
 40
0
  0
LTYPE
  2
__29
 70
   64
  3
                                
 72
   65
 73
    0
 40
0
  0
LTYPE
  2
__30
 70
   64
  3
                                
 72
   65
 73
    0
 40
0
  0
LTYPE
  2
__31
 70
   64
  3
                                
 72
   65
 73
    0
 40
0
  0
LTYPE
  2
__32
 70
   64
  3
                                
 72
   65
 73
    0
 40
0
  0
ENDTAB
  0
TABLE
  2
STYLE
  5
3
100
AcDbSymbolTable
 70
     1
  0
STYLE
  5
10
100
AcDbSymbolTableRecord
100
AcDbTextStyleTableRecord
  2
STANDARD
 70
     0
 40
0.0
 41
1.0
 50
0.0
 71
     0
 42
0.2
  3
txt
  4
bigfont.shx
  0
STYLE
  5
26
100
AcDbSymbolTableRecord
100
AcDbTextStyleTableRecord
  2
TATEGAKI
 70
    68
 40
0.0
 41
1.0
 50
0.0
 71
     0
 42
1.0
  3
txt
  4
bigfont.shx
  0
ENDTAB
  0
TABLE
  2
LAYER
 70
   19
  0
LAYER
  2
_0-1_DEFPOINTS
 70
   64
 62
    7
  6
CONTINUOUS
  0
LAYER
  2
_0-2_BALN
 70
   64
 62
    7
  6
CONTINUOUS
  0
LAYER
  2
_0-3_T31474
 70
   64
 62
    7
  6
CONTINUOUS
  0
LAYER
  2
_0-4_024226
 70
   64
 62
    7
  6
CONTINUOUS
  0
LAYER
  2
_0-5_042385
 70
   64
 62
    7
  6
CONTINUOUS
  0
LAYER
  2
_0-6_042493
 70
   64
 62
    7
  6
CONTINUOUS
  0
LAYER
  2
_0-7_024272
 70
   64
 62
    7
  6
CONTINUOUS
  0
LAYER
  2
_0-8_653058
 70
   64
 62
    7
  6
CONTINUOUS
  0
LAYER
  2
_0-9_410748
 70
   64
 62
    7
  6
CONTINUOUS
  0
LAYER
  2
_0-a_004834
 70
   64
 62
    7
  6
CONTINUOUS
  0
LAYER
  2
_0-b_654294
 70
   64
 62
    7
  6
CONTINUOUS
  0
LAYER
  2
_0-c_004044
 70
   64
 62
    7
  6
CONTINUOUS
  0
LAYER
  2
_0-d_043123
 70
   64
 62
    7
  6
CONTINUOUS
  0
LAYER
  2
_0-e_004981
 70
   64
 62
    7
  6
CONTINUOUS
  0
LAYER
  2
_0-f_410872
 70
   64
 62
    7
  6
CONTINUOUS
  0
LAYER
  2
_1-0_036085
 70
   64
 62
    7
  6
CONTINUOUS
  0
LAYER
  2
_2-0_
 70
   64
 62
    7
  6
CONTINUOUS
  0
LAYER
  2
_e-0_
 70
   64
 62
    7
  6
CONTINUOUS
  0
LAYER
  2
ADD_LINE
 70
   64
 62
    7
  6
CONTINUOUS
  0
ENDTAB
  0
ENDSEC
  0
SECTION
  2
BLOCKS
  0
BLOCK
  2
-000-_OPEN
 70
   64
 10
0
 20
0
 30
0
  0
LINE
  8
_0-0_0
  6
CONTINUOUS
 62
    7
 10
-1
 20
0.1666666666666666
 11
0
 21
0
  0
LINE
  8
_0-0_0
  6
CONTINUOUS
 62
    7
 10
0
 20
0
 11
-1
 21
-0.1666666666666666
  0
LINE
  8
_0-0_0
  6
CONTINUOUS
 62
    7
 10
0
 20
0
 11
-1
 21
0
  0
ENDBLK
  0
BLOCK
  2
-001-ATP0
 70
   64
 10
0
 20
0
 30
0
  0
LINE
  8
_0-0_0
  6
CONTINUOUS
 62
    7
 10
0
 20
0
 11
-0.75
 21
0.125
  0
LINE
  8
_0-0_0
  6
CONTINUOUS
 62
    7
 10
0
 20
0
 11
-0.75
 21
-0.125
  0
ENDBLK
  0
BLOCK
  2
-002-BDT13
 70
   64
 10
0
 20
0
 30
0
  0
INSERT
  2
-001-ATP0
  8
_0-2_BALN
 10
-88.522000000000005
 20
6
 41
4
 42
4
 50
204.13600000000002
  0
LINE
  8
_0-2_BALN
  6
CONTINUOUS
 62
    4
 10
-61.438999999999992
 20
18.135000000000001
 11
-88.522000000000005
 21
6
  0
LINE
  8
_0-2_BALN
  6
CONTINUOUS
 62
    4
 10
-61.438999999999992
 20
18.135000000000001
 11
-0.7229999999999999
 21
18.135000000000001
  0
TEXT
  8
_0-2_BALN
 62
    7
 10
-56.438999999999992
 20
20.135000000000001
 40
10
 41
0.8329999999999999
 50
0
  1
ＰＪ１／２
  0
ENDBLK
  0
BLOCK
  2
-003-BDT16
 70
   64
 10
0
 20
0
 30
0
  0
LINE
  8
_0-3_T31474
  6
CONTINUOUS
 62
    2
 10
-150
 20
88.694999999999993
 11
-150.38900000000001
 21
88.694000000000002
  0
LINE
  8
_0-3_T31474
  6
CONTINUOUS
 62
    2
 10
-150.38900000000001
 20
88.694000000000002
 11
-150.78499999999999
 21
88.689999999999983
  0
LINE
  8
_0-3_T31474
  6
CONTINUOUS
 62
    2
 10
-150.78499999999999
 20
88.689999999999983
 11
-151.197
 21
88.682999999999992
  0
LINE
  8
_0-3_T31474
  6
CONTINUOUS
 62
    2
 10
-151.197
 20
88.682999999999992
 11
-151.631
 21
88.672000000000025
  0
LINE
  8
_0-3_T31474
  6
CONTINUOUS
 62
    2
 10
-151.631
 20
88.672000000000025
 11
-152.09999999999999
 21
88.657000000000024
  0
LINE
  8
_0-3_T31474
  6
CONTINUOUS
 62
    2
 10
-152.09999999999999
 20
88.657000000000024
 11
-152.615
 21
88.636000000000009
  0
LINE
  8
_0-3_T31474
  6
CONTINUOUS
 62
    2
 10
-152.615
 20
88.636000000000009
 11
-153.19399999999998
 21
88.606000000000008
  0
LINE
  8
_0-3_T31474
  6
CONTINUOUS
 62
    2
 10
-153.19399999999998
 20
88.606000000000008
 11
-153.86199999999999
 21
88.563999999999978
  0
LINE
  8
_0-3_T31474
  6
CONTINUOUS
 62
    2
 10
-153.86199999999999
 20
88.563999999999978
 11
-154.65100000000001
 21
88.503999999999976
  0
LINE
  8
_0-3_T31474
  6
CONTINUOUS
 62
    2
 10
-154.65100000000001
 20
88.503999999999976
 11
-155.60699999999999
 21
88.412999999999996
  0
LINE
  8
_0-3_T31474
  6
CONTINUOUS
 62
    2
 10
-155.60699999999999
 20
88.412999999999996
 11
-156.799
 21
88.272999999999996
  0
LINE
  8
_0-3_T31474
  6
CONTINUOUS
 62
    2
 10
-156.799
 20
88.272999999999996
 11
-158.31200000000001
 21
88.043999999999996
  0
LINE
  8
_0-3_T31474
  6
CONTINUOUS
 62
    2
 10
-158.31200000000001
 20
88.043999999999996
 11
-160.228
 21
87.652000000000001
  0
LINE
  8
_0-3_T31474
  6
CONTINUOUS
 62
    2
 10
-160.228
 20
87.652000000000001
 11
-162.44300000000001
 21
86.981000000000008
  0
ENDBLK
  0
BLOCK
  2
-004-BDT21
 70
   64
 10
0
 20
0
 30
0
  0
LINE
  8
_0-3_T31474
  6
CONTINUOUS
 62
    2
 10
-150
 20
77.676999999999992
 11
-150.43
 21
77.676000000000001
  0
LINE
  8
_0-3_T31474
  6
CONTINUOUS
 62
    2
 10
-150.43
 20
77.676000000000001
 11
-150.86899999999999
 21
77.673999999999992
  0
LINE
  8
_0-3_T31474
  6
CONTINUOUS
 62
    2
 10
-150.86899999999999
 20
77.673999999999992
 11
-151.32499999999998
 21
77.668999999999996
  0
LINE
  8
_0-3_T31474
  6
CONTINUOUS
 62
    2
 10
-151.32499999999998
 20
77.668999999999996
 11
-151.80899999999999
 21
77.662999999999996
  0
LINE
  8
_0-3_T31474
  6
CONTINUOUS
 62
    2
 10
-151.80899999999999
 20
77.662999999999996
 11
-152.33199999999999
 21
77.653999999999996
  0
LINE
  8
_0-3_T31474
  6
CONTINUOUS
 62
    2
 10
-152.33199999999999
 20
77.653999999999996
 11
-152.912
 21
77.641000000000005
  0
LINE
  8
_0-3_T31474
  6
CONTINUOUS
 62
    2
 10
-152.912
 20
77.641000000000005
 11
-153.56999999999999
 21
77.623000000000004
  0
LINE
  8
_0-3_T31474
  6
CONTINUOUS
 62
    2
 10
-153.56999999999999
 20
77.623000000000004
 11
-154.33699999999998
 21
77.596000000000003
  0
LINE
  8
_0-3_T31474
  6
CONTINUOUS
 62
    2
 10
-154.33699999999998
 20
77.596000000000003
 11
-155.25999999999999
 21
77.558000000000006
  0
LINE
  8
_0-3_T31474
  6
CONTINUOUS
 62
    2
 10
-155.25999999999999
 20
77.558000000000006
 11
-156.40899999999999
 21
77.498999999999995
  0
LINE
  8
_0-3_T31474
  6
CONTINUOUS
 62
    2
 10
-156.40899999999999
 20
77.498999999999995
 11
-157.89799999999999
 21
77.403999999999996
  0
LINE
  8
_0-3_T31474
  6
CONTINUOUS
 62
    2
 10
-157.89799999999999
 20
77.403999999999996
 11
-159.91300000000001
 21
77.237999999999999
  0
LINE
  8
_0-3_T31474
  6
CONTINUOUS
 62
    2
 10
-159.91300000000001
 20
77.237999999999999
 11
-162.74399999999999
 21
76.921999999999997
  0
LINE
  8
_0-3_T31474
  6
CONTINUOUS
 62
    2
 10
-162.74399999999999
 20
76.921999999999997
 11
-165.417
 21
76.511000000000009
  0
ENDBLK
  0
BLOCK
  2
-005-BDT22
 70
   64
 10
0
 20
0
 30
0
  0
LINE
  8
_0-3_T31474
  6
CONTINUOUS
 62
    2
 10
-150
 20
69.302999999999983
 11
-150.39199999999999
 21
69.301999999999992
  0
LINE
  8
_0-3_T31474
  6
CONTINUOUS
 62
    2
 10
-150.39199999999999
 20
69.301999999999992
 11
-150.792
 21
69.299999999999982
  0
LINE
  8
_0-3_T31474
  6
CONTINUOUS
 62
    2
 10
-150.792
 20
69.299999999999982
 11
-151.20699999999999
 21
69.296000000000006
  0
LINE
  8
_0-3_T31474
  6
CONTINUOUS
 62
    2
 10
-151.20699999999999
 20
69.296000000000006
 11
-151.64799999999999
 21
69.290000000000006
  0
LINE
  8
_0-3_T31474
  6
CONTINUOUS
 62
    2
 10
-151.64799999999999
 20
69.290000000000006
 11
-152.125
 21
69.281999999999996
  0
LINE
  8
_0-3_T31474
  6
CONTINUOUS
 62
    2
 10
-152.125
 20
69.281999999999996
 11
-152.65299999999999
 21
69.269999999999996
  0
LINE
  8
_0-3_T31474
  6
CONTINUOUS
 62
    2
 10
-152.65299999999999
 20
69.269999999999996
 11
-153.25299999999998
 21
69.253
  0
LINE
  8
_0-3_T31474
  6
CONTINUOUS
 62
    2
 10
-153.25299999999998
 20
69.253
 11
-153.95199999999999
 21
69.230000000000003
  0
LINE
  8
_0-3_T31474
  6
CONTINUOUS
 62
    2
 10
-153.95199999999999
 20
69.230000000000003
 11
-154.792
 21
69.194999999999993
  0
LINE
  8
_0-3_T31474
  6
CONTINUOUS
 62
    2
 10
-154.792
 20
69.194999999999993
 11
-155.83899999999999
 21
69.141000000000005
  0
LINE
  8
_0-3_T31474
  6
CONTINUOUS
 62
    2
 10
-155.83899999999999
 20
69.141000000000005
 11
-157.19599999999999
 21
69.054000000000002
  0
LINE
  8
_0-3_T31474
  6
CONTINUOUS
 62
    2
 10
-157.19599999999999
 20
69.054000000000002
 11
-159.03200000000001
 21
68.903000000000005
  0
LINE
  8
_0-3_T31474
  6
CONTINUOUS
 62
    2
 10
-159.03200000000001
 20
68.903000000000005
 11
-161.61099999999998
 21
68.614999999999994
  0
LINE
  8
_0-3_T31474
  6
CONTINUOUS
 62
    2
 10
-161.61099999999998
 20
68.614999999999994
 11
-164.05000000000001
 21
68.239999999999994
  0
ENDBLK
  0
BLOCK
  2
-006-BDT23
 70
   64
 10
0
 20
0
 30
0
  0
LINE
  8
_0-3_T31474
  6
CONTINUOUS
 62
    2
 10
-150
 20
69.685000000000002
 11
-150.43
 21
69.683999999999983
  0
LINE
  8
_0-3_T31474
  6
CONTINUOUS
 62
    2
 10
-150.43
 20
69.683999999999983
 11
-150.86899999999999
 21
69.680999999999983
  0
LINE
  8
_0-3_T31474
  6
CONTINUOUS
 62
    2
 10
-150.86899999999999
 20
69.680999999999983
 11
-151.32499999999998
 21
69.676999999999992
  0
LINE
  8
_0-3_T31474
  6
CONTINUOUS
 62
    2
 10
-151.32499999999998
 20
69.676999999999992
 11
-151.80899999999999
 21
69.671000000000006
  0
LINE
  8
_0-3_T31474
  6
CONTINUOUS
 62
    2
 10
-151.80899999999999
 20
69.671000000000006
 11
-152.33199999999999
 21
69.661000000000001
  0
LINE
  8
_0-3_T31474
  6
CONTINUOUS
 62
    2
 10
-152.33199999999999
 20
69.661000000000001
 11
-152.912
 21
69.647999999999996
  0
LINE
  8
_0-3_T31474
  6
CONTINUOUS
 62
    2
 10
-152.912
 20
69.647999999999996
 11
-153.56999999999999
 21
69.629999999999995
  0
LINE
  8
_0-3_T31474
  6
CONTINUOUS
 62
    2
 10
-153.56999999999999
 20
69.629999999999995
 11
-154.33699999999998
 21
69.603999999999984
  0
LINE
  8
_0-3_T31474
  6
CONTINUOUS
 62
    2
 10
-154.33699999999998
 20
69.603999999999984
 11
-155.25999999999999
 21
69.566000000000002
  0
LINE
  8
_0-3_T31474
  6
CONTINUOUS
 62
    2
 10
-155.25999999999999
 20
69.566000000000002
 11
-156.40899999999999
 21
69.507000000000005
  0
LINE
  8
_0-3_T31474
  6
CONTINUOUS
 62
    2
 10
-156.40899999999999
 20
69.507000000000005
 11
-157.89799999999999
 21
69.411000000000001
  0
LINE
  8
_0-3_T31474
  6
CONTINUOUS
 62
    2
 10
-157.89799999999999
 20
69.411000000000001
 11
-159.91300000000001
 21
69.245000000000004
  0
LINE
  8
_0-3_T31474
  6
CONTINUOUS
 62
    2
 10
-159.91300000000001
 20
69.245000000000004
 11
-162.74399999999999
 21
68.929000000000002
  0
LINE
  8
_0-3_T31474
  6
CONTINUOUS
 62
    2
 10
-162.74399999999999
 20
68.929000000000002
 11
-165.69300000000001
 21
68.468000000000003
  0
ENDBLK
  0
BLOCK
  2
-007-BDT24
 70
   64
 10
0
 20
0
 30
0
  0
LINE
  8
_0-3_T31474
  6
CONTINUOUS
 62
    2
 10
-134.30600000000001
 20
68.468000000000003
 11
-137.99100000000001
 21
69.021999999999991
  0
LINE
  8
_0-3_T31474
  6
CONTINUOUS
 62
    2
 10
-137.99100000000001
 20
69.021999999999991
 11
-140.60499999999998
 21
69.292000000000001
  0
LINE
  8
_0-3_T31474
  6
CONTINUOUS
 62
    2
 10
-140.60499999999998
 20
69.292000000000001
 11
-142.47899999999989
 21
69.438000000000002
  0
LINE
  8
_0-3_T31474
  6
CONTINUOUS
 62
    2
 10
-142.47899999999989
 20
69.438000000000002
 11
-143.877
 21
69.522999999999996
  0
LINE
  8
_0-3_T31474
  6
CONTINUOUS
 62
    2
 10
-143.877
 20
69.522999999999996
 11
-144.966
 21
69.576000000000007
  0
LINE
  8
_0-3_T31474
  6
CONTINUOUS
 62
    2
 10
-144.966
 20
69.576000000000007
 11
-145.84899999999998
 21
69.611000000000004
  0
LINE
  8
_0-3_T31474
  6
CONTINUOUS
 62
    2
 10
-145.84899999999998
 20
69.611000000000004
 11
-146.58699999999998
 21
69.635000000000005
  0
LINE
  8
_0-3_T31474
  6
CONTINUOUS
 62
    2
 10
-146.58699999999998
 20
69.635000000000005
 11
-147.22499999999999
 21
69.652000000000001
  0
LINE
  8
_0-3_T31474
  6
CONTINUOUS
 62
    2
 10
-147.22499999999999
 20
69.652000000000001
 11
-147.78999999999999
 21
69.664000000000001
  0
LINE
  8
_0-3_T31474
  6
CONTINUOUS
 62
    2
 10
-147.78999999999999
 20
69.664000000000001
 11
-148.30299999999999
 21
69.671999999999997
  0
LINE
  8
_0-3_T31474
  6
CONTINUOUS
 62
    2
 10
-148.30299999999999
 20
69.671999999999997
 11
-148.78
 21
69.677999999999997
  0
LINE
  8
_0-3_T31474
  6
CONTINUOUS
 62
    2
 10
-148.78
 20
69.677999999999997
 11
-149.23099999999999
 21
69.682000000000002
  0
LINE
  8
_0-3_T31474
  6
CONTINUOUS
 62
    2
 10
-149.23099999999999
 20
69.682000000000002
 11
-149.667
 21
69.683999999999983
  0
LINE
  8
_0-3_T31474
  6
CONTINUOUS
 62
    2
 10
-149.667
 20
69.683999999999983
 11
-150
 21
69.685000000000002
  0
ENDBLK
  0
BLOCK
  2
-008-BDT25
 70
   64
 10
0
 20
0
 30
0
  0
LINE
  8
_0-3_T31474
  6
CONTINUOUS
 62
    2
 10
-135.94900000000001
 20
68.239999999999994
 11
-139.23699999999999
 21
68.721000000000003
  0
LINE
  8
_0-3_T31474
  6
CONTINUOUS
 62
    2
 10
-139.23699999999999
 20
68.721000000000003
 11
-141.567
 21
68.956999999999993
  0
LINE
  8
_0-3_T31474
  6
CONTINUOUS
 62
    2
 10
-141.567
 20
68.956999999999993
 11
-143.24
 21
69.084000000000003
  0
LINE
  8
_0-3_T31474
  6
CONTINUOUS
 62
    2
 10
-143.24
 20
69.084000000000003
 11
-144.49199999999999
 21
69.158999999999991
  0
LINE
  8
_0-3_T31474
  6
CONTINUOUS
 62
    2
 10
-144.49199999999999
 20
69.158999999999991
 11
-145.46999999999999
 21
69.206000000000003
  0
LINE
  8
_0-3_T31474
  6
CONTINUOUS
 62
    2
 10
-145.46999999999999
 20
69.206000000000003
 11
-146.26400000000001
 21
69.236999999999994
  0
LINE
  8
_0-3_T31474
  6
CONTINUOUS
 62
    2
 10
-146.26400000000001
 20
69.236999999999994
 11
-146.93
 21
69.259
  0
LINE
  8
_0-3_T31474
  6
CONTINUOUS
 62
    2
 10
-146.93
 20
69.259
 11
-147.507
 21
69.274
  0
LINE
  8
_0-3_T31474
  6
CONTINUOUS
 62
    2
 10
-147.507
 20
69.274
 11
-148.018
 21
69.284999999999996
  0
LINE
  8
_0-3_T31474
  6
CONTINUOUS
 62
    2
 10
-148.018
 20
69.284999999999996
 11
-148.483
 21
69.292000000000001
  0
LINE
  8
_0-3_T31474
  6
CONTINUOUS
 62
    2
 10
-148.483
 20
69.292000000000001
 11
-148.91499999999999
 21
69.296999999999997
  0
LINE
  8
_0-3_T31474
  6
CONTINUOUS
 62
    2
 10
-148.91499999999999
 20
69.296999999999997
 11
-149.32499999999998
 21
69.301000000000001
  0
LINE
  8
_0-3_T31474
  6
CONTINUOUS
 62
    2
 10
-149.32499999999998
 20
69.301000000000001
 11
-149.722
 21
69.302999999999983
  0
LINE
  8
_0-3_T31474
  6
CONTINUOUS
 62
    2
 10
-149.722
 20
69.302999999999983
 11
-150
 21
69.302999999999983
  0
ENDBLK
  0
BLOCK
  2
-009-BDT26
 70
   64
 10
0
 20
0
 30
0
  0
LINE
  8
_0-3_T31474
  6
CONTINUOUS
 62
    2
 10
-134.58199999999999
 20
76.511000000000009
 11
-138.191
 21
77.037999999999996
  0
LINE
  8
_0-3_T31474
  6
CONTINUOUS
 62
    2
 10
-138.191
 20
77.037999999999996
 11
-140.746
 21
77.296999999999997
  0
LINE
  8
_0-3_T31474
  6
CONTINUOUS
 62
    2
 10
-140.746
 20
77.296999999999997
 11
-142.58199999999999
 21
77.436999999999997
  0
LINE
  8
_0-3_T31474
  6
CONTINUOUS
 62
    2
 10
-142.58199999999999
 20
77.436999999999997
 11
-143.95599999999998
 21
77.518999999999991
  0
LINE
  8
_0-3_T31474
  6
CONTINUOUS
 62
    2
 10
-143.95599999999998
 20
77.518999999999991
 11
-145.02899999999999
 21
77.570999999999997
  0
LINE
  8
_0-3_T31474
  6
CONTINUOUS
 62
    2
 10
-145.02899999999999
 20
77.570999999999997
 11
-145.90100000000001
 21
77.605000000000003
  0
LINE
  8
_0-3_T31474
  6
CONTINUOUS
 62
    2
 10
-145.90100000000001
 20
77.605000000000003
 11
-146.632
 21
77.62899999999999
  0
LINE
  8
_0-3_T31474
  6
CONTINUOUS
 62
    2
 10
-146.632
 20
77.62899999999999
 11
-147.26400000000001
 21
77.644999999999996
  0
LINE
  8
_0-3_T31474
  6
CONTINUOUS
 62
    2
 10
-147.26400000000001
 20
77.644999999999996
 11
-147.82499999999998
 21
77.656999999999996
  0
LINE
  8
_0-3_T31474
  6
CONTINUOUS
 62
    2
 10
-147.82499999999998
 20
77.656999999999996
 11
-148.33600000000001
 21
77.665000000000006
  0
LINE
  8
_0-3_T31474
  6
CONTINUOUS
 62
    2
 10
-148.33600000000001
 20
77.665000000000006
 11
-148.81
 21
77.671000000000006
  0
LINE
  8
_0-3_T31474
  6
CONTINUOUS
 62
    2
 10
-148.81
 20
77.671000000000006
 11
-149.25999999999999
 21
77.674999999999997
  0
LINE
  8
_0-3_T31474
  6
CONTINUOUS
 62
    2
 10
-149.25999999999999
 20
77.674999999999997
 11
-149.69599999999999
 21
77.676999999999992
  0
LINE
  8
_0-3_T31474
  6
CONTINUOUS
 62
    2
 10
-149.69599999999999
 20
77.676999999999992
 11
-150
 21
77.676999999999992
  0
ENDBLK
  0
BLOCK
  2
-010-BDT27
 70
   64
 10
0
 20
0
 30
0
  0
LINE
  8
_0-3_T31474
  6
CONTINUOUS
 62
    2
 10
-137.55600000000001
 20
86.981000000000008
 11
-139.80699999999998
 21
87.660999999999987
  0
LINE
  8
_0-3_T31474
  6
CONTINUOUS
 62
    2
 10
-139.80699999999998
 20
87.660999999999987
 11
-141.716
 21
88.048999999999992
  0
LINE
  8
_0-3_T31474
  6
CONTINUOUS
 62
    2
 10
-141.716
 20
88.048999999999992
 11
-143.22300000000001
 21
88.276000000000024
  0
LINE
  8
_0-3_T31474
  6
CONTINUOUS
 62
    2
 10
-143.22300000000001
 20
88.276000000000024
 11
-144.40999999999999
 21
88.415000000000006
  0
LINE
  8
_0-3_T31474
  6
CONTINUOUS
 62
    2
 10
-144.40999999999999
 20
88.415000000000006
 11
-145.36299999999999
 21
88.504999999999995
  0
LINE
  8
_0-3_T31474
  6
CONTINUOUS
 62
    2
 10
-145.36299999999999
 20
88.504999999999995
 11
-146.149
 21
88.564999999999997
  0
LINE
  8
_0-3_T31474
  6
CONTINUOUS
 62
    2
 10
-146.149
 20
88.564999999999997
 11
-146.81499999999999
 21
88.607000000000013
  0
LINE
  8
_0-3_T31474
  6
CONTINUOUS
 62
    2
 10
-146.81499999999999
 20
88.607000000000013
 11
-147.394
 21
88.636000000000009
  0
LINE
  8
_0-3_T31474
  6
CONTINUOUS
 62
    2
 10
-147.394
 20
88.636000000000009
 11
-147.90799999999998
 21
88.657000000000024
  0
LINE
  8
_0-3_T31474
  6
CONTINUOUS
 62
    2
 10
-147.90799999999998
 20
88.657000000000024
 11
-148.376
 21
88.672000000000025
  0
LINE
  8
_0-3_T31474
  6
CONTINUOUS
 62
    2
 10
-148.376
 20
88.672000000000025
 11
-148.81
 21
88.682999999999992
  0
LINE
  8
_0-3_T31474
  6
CONTINUOUS
 62
    2
 10
-148.81
 20
88.682999999999992
 11
-149.221
 21
88.689999999999983
  0
LINE
  8
_0-3_T31474
  6
CONTINUOUS
 62
    2
 10
-149.221
 20
88.689999999999983
 11
-149.61699999999999
 21
88.694000000000002
  0
LINE
  8
_0-3_T31474
  6
CONTINUOUS
 62
    2
 10
-149.61699999999999
 20
88.694000000000002
 11
-150
 21
88.694999999999993
  0
ENDBLK
  0
BLOCK
  2
-011-BDT42
 70
   64
 10
0
 20
0
 30
0
  0
LINE
  8
_0-3_T31474
  6
CONTINUOUS
 62
    2
 10
159.674
 20
88.465000000000003
 11
158.31200000000001
 21
88.636999999999986
  0
LINE
  8
_0-3_T31474
  6
CONTINUOUS
 62
    2
 10
158.31200000000001
 20
88.636999999999986
 11
157.031
 21
88.694000000000002
  0
LINE
  8
_0-3_T31474
  6
CONTINUOUS
 62
    2
 10
157.031
 20
88.694000000000002
 11
155.83699999999998
 21
88.667999999999992
  0
LINE
  8
_0-3_T31474
  6
CONTINUOUS
 62
    2
 10
155.83699999999998
 20
88.667999999999992
 11
154.72599999999999
 21
88.581000000000003
  0
LINE
  8
_0-3_T31474
  6
CONTINUOUS
 62
    2
 10
154.72599999999999
 20
88.581000000000003
 11
153.68999999999999
 21
88.447999999999993
  0
LINE
  8
_0-3_T31474
  6
CONTINUOUS
 62
    2
 10
153.68999999999999
 20
88.447999999999993
 11
152.71700000000001
 21
88.280000000000015
  0
LINE
  8
_0-3_T31474
  6
CONTINUOUS
 62
    2
 10
152.71700000000001
 20
88.280000000000015
 11
151.798
 21
88.084000000000003
  0
LINE
  8
_0-3_T31474
  6
CONTINUOUS
 62
    2
 10
151.798
 20
88.084000000000003
 11
150.92099999999999
 21
87.861999999999994
  0
LINE
  8
_0-3_T31474
  6
CONTINUOUS
 62
    2
 10
150.92099999999999
 20
87.861999999999994
 11
150.07599999999999
 21
87.617000000000004
  0
LINE
  8
_0-3_T31474
  6
CONTINUOUS
 62
    2
 10
150.07599999999999
 20
87.617000000000004
 11
149.25299999999998
 21
87.347999999999984
  0
LINE
  8
_0-3_T31474
  6
CONTINUOUS
 62
    2
 10
149.25299999999998
 20
87.347999999999984
 11
148.44399999999998
 21
87.052999999999983
  0
LINE
  8
_0-3_T31474
  6
CONTINUOUS
 62
    2
 10
148.44399999999998
 20
87.052999999999983
 11
147.64099999999999
 21
86.730000000000003
  0
LINE
  8
_0-3_T31474
  6
CONTINUOUS
 62
    2
 10
147.64099999999999
 20
86.730000000000003
 11
146.83600000000001
 21
86.375000000000014
  0
LINE
  8
_0-3_T31474
  6
CONTINUOUS
 62
    2
 10
146.83600000000001
 20
86.375000000000014
 11
146.02099999999998
 21
85.980000000000003
  0
LINE
  8
_0-3_T31474
  6
CONTINUOUS
 62
    2
 10
146.02099999999998
 20
85.980000000000003
 11
145.191
 21
85.540000000000006
  0
LINE
  8
_0-3_T31474
  6
CONTINUOUS
 62
    2
 10
145.191
 20
85.540000000000006
 11
144.33799999999999
 21
85.042999999999977
  0
LINE
  8
_0-3_T31474
  6
CONTINUOUS
 62
    2
 10
144.33799999999999
 20
85.042999999999977
 11
143.459
 21
84.477999999999994
  0
LINE
  8
_0-3_T31474
  6
CONTINUOUS
 62
    2
 10
143.459
 20
84.477999999999994
 11
142.55199999999999
 21
83.831000000000003
  0
LINE
  8
_0-3_T31474
  6
CONTINUOUS
 62
    2
 10
142.55199999999999
 20
83.831000000000003
 11
141.62
 21
83.082000000000007
  0
LINE
  8
_0-3_T31474
  6
CONTINUOUS
 62
    2
 10
141.62
 20
83.082000000000007
 11
140.67500000000001
 21
82.213999999999998
  0
LINE
  8
_0-3_T31474
  6
CONTINUOUS
 62
    2
 10
140.67500000000001
 20
82.213999999999998
 11
139.74199999999999
 21
81.206000000000003
  0
LINE
  8
_0-3_T31474
  6
CONTINUOUS
 62
    2
 10
139.74199999999999
 20
81.206000000000003
 11
138.86699999999999
 21
80.045000000000001
  0
LINE
  8
_0-3_T31474
  6
CONTINUOUS
 62
    2
 10
138.86699999999999
 20
80.045000000000001
 11
138.11899999999999
 21
78.728999999999999
  0
LINE
  8
_0-3_T31474
  6
CONTINUOUS
 62
    2
 10
138.11899999999999
 20
78.728999999999999
 11
137.59299999999998
 21
77.283999999999991
  0
LINE
  8
_0-3_T31474
  6
CONTINUOUS
 62
    2
 10
137.59299999999998
 20
77.283999999999991
 11
137.58799999999999
 21
77.266000000000005
  0
ENDBLK
  0
BLOCK
  2
-012-BDT8
 70
   64
 10
0
 20
0
 30
0
  0
INSERT
  2
-001-ATP0
  8
_0-2_BALN
 10
-200.98099999999999
 20
97.918999999999996
 41
4
 42
4
 50
296.137
  0
LINE
  8
_0-2_BALN
  6
CONTINUOUS
 62
    4
 10
-224.12299999999999
 20
145.08199999999999
 11
-200.98099999999999
 21
97.918999999999996
  0
LINE
  8
_0-2_BALN
  6
CONTINUOUS
 62
    4
 10
-224.12299999999999
 20
145.08199999999999
 11
-284.12299999999999
 21
145.08199999999999
  0
TEXT
  8
_0-2_BALN
 62
    7
 10
-279.12299999999999
 20
147.08199999999999
 40
10
 41
0.8329999999999999
 50
0
  1
湯側（赤）
  0
ENDBLK
  0
BLOCK
  2
-013-BDT9
 70
   64
 10
0
 20
0
 30
0
  0
INSERT
  2
-001-ATP0
  8
_0-2_BALN
 10
-99.022999999999996
 20
97.918000000000006
 41
4
 42
4
 50
234.60300000000003
  0
LINE
  8
_0-2_BALN
  6
CONTINUOUS
 62
    4
 10
-65.509
 20
145.08199999999999
 11
-99.022999999999996
 21
97.918000000000006
  0
LINE
  8
_0-2_BALN
  6
CONTINUOUS
 62
    4
 10
-65.509
 20
145.08199999999999
 11
-5.5089999999999985
 21
145.08199999999999
  0
TEXT
  8
_0-2_BALN
 62
    7
 10
-60.508999999999993
 20
147.08199999999999
 40
10
 41
0.8329999999999999
 50
0
  1
水側（青）
  0
ENDBLK
  0
BLOCK
  2
-014-BDT114
 70
   64
 10
0
 20
0
 30
0
  0
ARC
  8
_0-8_653058
  6
CONTINUOUS
 62
    3
 10
17.518
 20
-52.843999999999979
 40
0.1079999999999999
 50
193.138
 51
312.87099999999981
  0
ARC
  8
_0-8_653058
  6
CONTINUOUS
 62
    3
 10
17.306999999999998
 20
-52.893
 40
0.1079999999999999
 50
13.137
 51
132.87399999999999
  0
ARC
  8
_0-8_653058
  6
CONTINUOUS
 62
    3
 10
17.16
 20
-52.73399999999998
 40
0.1079999999999999
 50
193.138
 51
312.87099999999981
  0
ARC
  8
_0-8_653058
  6
CONTINUOUS
 62
    3
 10
16.949000000000001
 20
-52.783000000000001
 40
0.1079999999999999
 50
13.137
 51
132.87399999999999
  0
ARC
  8
_0-8_653058
  6
CONTINUOUS
 62
    3
 10
16.801999999999999
 20
-52.625
 40
0.1079999999999999
 50
193.138
 51
312.87099999999981
  0
ENDBLK
  0
BLOCK
  2
-015-BDT115
 70
   64
 10
0
 20
0
 30
0
  0
ARC
  8
_0-8_653058
  6
CONTINUOUS
 62
    3
 10
-5.8970000000000002
 20
-30.06199999999999
 40
0.1039999999999999
 50
30.632000000000005
 51
150.411
  0
ARC
  8
_0-8_653058
  6
CONTINUOUS
 62
    3
 10
-5.717999999999999
 20
-29.955999999999999
 40
0.1039999999999999
 50
210.63399999999998
 51
330.40899999999999
  0
ARC
  8
_0-8_653058
  6
CONTINUOUS
 62
    3
 10
-5.5369999999999999
 20
-30.059000000000001
 40
0.1039999999999999
 50
30.632000000000005
 51
150.411
  0
ARC
  8
_0-8_653058
  6
CONTINUOUS
 62
    3
 10
-5.3579999999999978
 20
-29.952999999999999
 40
0.1039999999999999
 50
210.63399999999998
 51
330.40899999999999
  0
ARC
  8
_0-8_653058
  6
CONTINUOUS
 62
    3
 10
-5.1769999999999996
 20
-30.05599999999999
 40
0.1039999999999999
 50
30.632000000000005
 51
150.411
  0
ENDBLK
  0
BLOCK
  2
-016-_D22
 70
   64
 10
0
 20
0
 30
0
  0
LINE
  8
_0-2_BALN
  6
CONTINUOUS
 62
    4
 10
-200.99899999999999
 20
-181.6506368495628
 11
-200.99899999999999
 21
-197.43492726996689
  0
LINE
  8
_0-2_BALN
  6
CONTINUOUS
 62
    4
 10
-99
 20
-181.6506368495628
 11
-99
 21
-197.43492726996689
  0
LINE
  8
_0-2_BALN
  6
CONTINUOUS
 62
    4
 10
-197.99899999999999
 20
-193.43492726996689
 11
-102
 21
-193.43492726996689
  0
INSERT
  2
-000-_OPEN
  8
_0-2_BALN
 10
-200.99899999999999
 20
-193.43492726996689
 41
3
 42
3
 50
180
  0
INSERT
  2
-000-_OPEN
  8
_0-2_BALN
 10
-99
 20
-193.43492726996689
 41
3
 42
3
 50
0
  0
TEXT
  8
_0-2_BALN
 62
    7
 10
-152.04493808913139
 20
-192.2349272699669
 40
6
 41
1
 50
0
  1
102
  0
POINT
  8
_0-1_DEFPOINTS
 62
    7
 10
-200.99899999999999
 20
-181.6506368495628
  0
POINT
  8
_0-1_DEFPOINTS
 62
    7
 10
-99
 20
-181.6506368495628
  0
POINT
  8
_0-1_DEFPOINTS
 62
    7
 10
-99
 20
-193.43492726996689
  0
ENDBLK
  0
BLOCK
  2
-017-_D23
 70
   64
 10
0
 20
0
 30
0
  0
LINE
  8
_0-2_BALN
  6
CONTINUOUS
 62
    4
 10
-221
 20
-119.09663684956279
 11
-221
 21
-223.81289648615731
  0
LINE
  8
_0-2_BALN
  6
CONTINUOUS
 62
    4
 10
-79
 20
-119.09663684956279
 11
-79
 21
-223.81289648615731
  0
LINE
  8
_0-2_BALN
  6
CONTINUOUS
 62
    4
 10
-218
 20
-219.81289648615731
 11
-82
 21
-219.81289648615731
  0
INSERT
  2
-000-_OPEN
  8
_0-2_BALN
 10
-221
 20
-219.81289648615731
 41
3
 42
3
 50
180
  0
INSERT
  2
-000-_OPEN
  8
_0-2_BALN
 10
-79
 20
-219.81289648615731
 41
3
 42
3
 50
0
  0
TEXT
  8
_0-2_BALN
 62
    7
 10
-152.09379541238868
 20
-218.61289648615741
 40
6
 41
1
 50
0
  1
142
  0
POINT
  8
_0-1_DEFPOINTS
 62
    7
 10
-221
 20
-119.09663684956279
  0
POINT
  8
_0-1_DEFPOINTS
 62
    7
 10
-79
 20
-119.09663684956279
  0
POINT
  8
_0-1_DEFPOINTS
 62
    7
 10
-79
 20
-219.81289648615731
  0
ENDBLK
  0
BLOCK
  2
-018-_D24
 70
   64
 10
0
 20
0
 30
0
  0
LINE
  8
_0-2_BALN
  6
CONTINUOUS
 62
    4
 10
-219.49899999999999
 20
-122.09663684956279
 11
-247.0468800011736
 21
-122.09663684956279
  0
LINE
  8
_0-2_BALN
  6
CONTINUOUS
 62
    4
 10
-211.90999999999999
 20
-176.59663684956279
 11
-247.0468800011736
 21
-176.59663684956279
  0
LINE
  8
_0-2_BALN
  6
CONTINUOUS
 62
    4
 10
-243.0468800011736
 20
-125.09663684956279
 11
-243.0468800011736
 21
-173.59663684956279
  0
INSERT
  2
-000-_OPEN
  8
_0-2_BALN
 10
-243.0468800011736
 20
-122.09663684956279
 41
3
 42
3
 50
90
  0
INSERT
  2
-000-_OPEN
  8
_0-2_BALN
 10
-243.0468800011736
 20
-176.59663684956279
 41
3
 42
3
 50
270
  0
TEXT
  8
_0-2_BALN
 62
    7
 10
-244.24688000117359
 20
-152.82702849881928
 40
6
 41
1
 50
90
  1
54.5
  0
POINT
  8
_0-1_DEFPOINTS
 62
    7
 10
-219.49899999999999
 20
-122.09663684956279
  0
POINT
  8
_0-1_DEFPOINTS
 62
    7
 10
-211.90999999999999
 20
-176.59663684956279
  0
POINT
  8
_0-1_DEFPOINTS
 62
    7
 10
-243.0468800011736
 20
-176.59663684956279
  0
ENDBLK
  0
BLOCK
  2
-019-_D25
 70
   64
 10
0
 20
0
 30
0
  0
LINE
  8
_0-2_BALN
  6
CONTINUOUS
 62
    4
 10
153.13647767102509
 20
58.051872014430792
 11
134.29829245895189
 21
58.051872014430799
  0
LINE
  8
_0-2_BALN
  6
CONTINUOUS
 62
    4
 10
223.99991970036001
 20
15
 11
134.29829245895189
 21
15.000000000000019
  0
LINE
  8
_0-2_BALN
  6
CONTINUOUS
 62
    4
 10
138.29829245895189
 20
55.051872014430799
 11
138.29829245895189
 21
18.000000000000021
  0
INSERT
  2
-000-_OPEN
  8
_0-2_BALN
 10
138.29829245895189
 20
58.051872014430799
 41
3
 42
3
 50
90
  0
INSERT
  2
-000-_OPEN
  8
_0-2_BALN
 10
138.29829245895189
 20
15.000000000000019
 41
3
 42
3
 50
270
  0
TEXT
  8
_0-2_BALN
 62
    7
 10
137.0982924589519
 20
32.531667401007318
 40
6
 41
1
 50
90
  1
43.1
  0
POINT
  8
_0-1_DEFPOINTS
 62
    7
 10
153.13647767102509
 20
58.051872014430792
  0
POINT
  8
_0-1_DEFPOINTS
 62
    7
 10
223.99991970036001
 20
15
  0
POINT
  8
_0-1_DEFPOINTS
 62
    7
 10
138.29829245895189
 20
15.000000000000019
  0
ENDBLK
  0
BLOCK
  2
-020-_D26
 70
   64
 10
0
 20
0
 30
0
  0
LINE
  8
_0-2_BALN
  6
CONTINUOUS
 62
    4
 10
249.97999999999998
 20
97.918999999999996
 11
302.02552869956662
 21
97.918999999999982
  0
LINE
  8
_0-2_BALN
  6
CONTINUOUS
 62
    4
 10
276.77100000000001
 20
15
 11
302.02552869956662
 21
14.999999999999989
  0
LINE
  8
_0-2_BALN
  6
CONTINUOUS
 62
    4
 10
298.02552869956662
 20
94.918999999999996
 11
298.02552869956662
 21
17.999999999999989
  0
INSERT
  2
-000-_OPEN
  8
_0-2_BALN
 10
298.02552869956662
 20
97.918999999999982
 41
3
 42
3
 50
90
  0
INSERT
  2
-000-_OPEN
  8
_0-2_BALN
 10
298.02552869956662
 20
14.999999999999989
 41
3
 42
3
 50
270
  0
TEXT
  8
_0-2_BALN
 62
    7
 10
296.82552869956657
 20
51.495903248924612
 40
6
 41
1
 50
90
  1
83
  0
POINT
  8
_0-1_DEFPOINTS
 62
    7
 10
249.97999999999998
 20
97.918999999999996
  0
POINT
  8
_0-1_DEFPOINTS
 62
    7
 10
276.77100000000001
 20
15
  0
POINT
  8
_0-1_DEFPOINTS
 62
    7
 10
298.02552869956662
 20
14.999999999999989
  0
ENDBLK
  0
BLOCK
  2
-021-_D27
 70
   64
 10
0
 20
0
 30
0
  0
LINE
  8
_0-2_BALN
  6
CONTINUOUS
 62
    4
 10
153.13599999999999
 20
58.051999999999999
 11
153.13599999999999
 21
133.54571697172309
  0
LINE
  8
_0-2_BALN
  6
CONTINUOUS
 62
    4
 10
249.97999999999998
 20
97.919000000000011
 11
249.97999999999998
 21
133.54571697172309
  0
LINE
  8
_0-2_BALN
  6
CONTINUOUS
 62
    4
 10
156.13599999999999
 20
129.54571697172309
 11
246.97999999999998
 21
129.54571697172309
  0
INSERT
  2
-000-_OPEN
  8
_0-2_BALN
 10
153.13599999999999
 20
129.54571697172309
 41
3
 42
3
 50
180
  0
INSERT
  2
-000-_OPEN
  8
_0-2_BALN
 10
249.97999999999998
 20
129.54571697172309
 41
3
 42
3
 50
0
  0
TEXT
  8
_0-2_BALN
 62
    7
 10
199.65109996108549
 20
130.74571697172311
 40
6
 41
1
 50
0
  1
97
  0
POINT
  8
_0-1_DEFPOINTS
 62
    7
 10
153.13599999999999
 20
58.051999999999999
  0
POINT
  8
_0-1_DEFPOINTS
 62
    7
 10
249.97999999999998
 20
97.919000000000011
  0
POINT
  8
_0-1_DEFPOINTS
 62
    7
 10
249.97999999999998
 20
129.54571697172309
  0
ENDBLK
  0
ENDSEC
  0
SECTION
  2
ENTITIES
  0
POINT
  8
_0-1_DEFPOINTS
 62
    7
 10
420
 20
297
  0
LINE
  8
_0-2_BALN
  6
DASHED-S
 62
    3
 10
225.501
 20
120.4033631504372
 11
225.501
 21
174.9033631504372
  0
LINE
  8
_0-2_BALN
  6
DASHED-S
 62
    3
 10
212.501
 20
120.4033631504372
 11
212.501
 21
174.9033631504372
  0
LINE
  8
_0-2_BALN
  6
DASHED-S
 62
    3
 10
314.5
 20
120.4033631504372
 11
314.5
 21
174.9033631504372
  0
LINE
  8
_0-2_BALN
  6
DASHED-S
 62
    3
 10
327.5
 20
120.4033631504372
 11
327.5
 21
174.9033631504372
  0
INSERT
  2
-012-BDT8
  8
_0-2_BALN
 10
420
 20
162.9033631504372
 41
1
 42
1
 50
0
  0
INSERT
  2
-013-BDT9
  8
_0-2_BALN
 10
420
 20
162.9033631504372
 41
1
 42
1
 50
0
  0
INSERT
  2
-002-BDT13
  8
_0-2_BALN
 10
420
 20
162.9033631504372
 41
1
 42
1
 50
0
  0
LINE
  8
_1-0_036085
  6
CONTINUOUS
 62
    2
 10
259
 20
220.95536315043713
 11
259
 21
229.80936315043715
  0
INSERT
  2
-003-BDT16
  8
_0-3_T31474
 10
420
 20
162.9033631504372
 41
1
 42
1
 50
0
  0
LINE
  8
_0-c_004044
  6
CONTINUOUS
 62
    2
 10
219.001
 20
155.4033631504372
 11
207.001
 21
155.4033631504372
  0
LINE
  8
_0-c_004044
  6
CONTINUOUS
 62
    2
 10
219.001
 20
161.4033631504372
 11
205.14500000000001
 21
161.4033631504372
  0
ARC
  8
_0-c_004044
  6
CONTINUOUS
 62
    2
 10
219.001
 20
178.33136315043719
 40
22.928
 50
252.41199999999989
 51
270
  0
ARC
  8
_0-c_004044
  6
CONTINUOUS
 62
    2
 10
208.609
 20
161.5373631504371
 40
6.1339999999999985
 50
270
 51
304.3839999999999
  0
LINE
  8
_0-c_004044
  6
CONTINUOUS
 62
    2
 10
205.14500000000001
 20
156.4753631504372
 11
205.14500000000001
 21
161.4033631504372
  0
LINE
  8
_0-c_004044
  6
CONTINUOUS
 62
    2
 10
205.14500000000001
 20
156.4753631504372
 11
207.001
 21
155.4033631504372
  0
LINE
  8
_0-c_004044
  6
CONTINUOUS
 62
    2
 10
212.073
 20
156.4753631504372
 11
212.073
 21
161.4033631504372
  0
LINE
  8
_0-c_004044
  6
CONTINUOUS
 62
    2
 10
225.929
 20
156.4753631504372
 11
225.929
 21
161.4033631504372
  0
LINE
  8
_0-c_004044
  6
CONTINUOUS
 62
    2
 10
232.85699999999999
 20
156.4753631504372
 11
231.001
 21
155.4033631504372
  0
LINE
  8
_0-c_004044
  6
CONTINUOUS
 62
    2
 10
232.85699999999999
 20
156.4753631504372
 11
232.85699999999999
 21
161.4033631504372
  0
ARC
  8
_0-c_004044
  6
CONTINUOUS
 62
    2
 10
229.393
 20
161.5373631504371
 40
6.1339999999999985
 50
235.61600000000009
 51
270
  0
ARC
  8
_0-c_004044
  6
CONTINUOUS
 62
    2
 10
219.001
 20
178.33136315043719
 40
22.928
 50
270
 51
287.58800000000002
  0
LINE
  8
_0-c_004044
  6
CONTINUOUS
 62
    2
 10
219.001
 20
161.4033631504372
 11
232.85699999999999
 21
161.4033631504372
  0
LINE
  8
_0-c_004044
  6
CONTINUOUS
 62
    2
 10
219.001
 20
155.4033631504372
 11
231.001
 21
155.4033631504372
  0
LINE
  8
_0-f_410872
  6
CONTINUOUS
 62
    2
 10
200.501
 20
174.9033631504372
 11
200.501
 21
177.9033631504372
  0
LINE
  8
_0-f_410872
  6
CONTINUOUS
 62
    2
 10
270
 20
174.9033631504372
 11
200.501
 21
174.9033631504372
  0
LINE
  8
_0-e_004981
  6
CONTINUOUS
 62
    2
 10
219.001
 20
163.4033631504372
 11
229.626
 21
163.4033631504372
  0
LINE
  8
_0-d_043123
  6
CONTINUOUS
 62
    2
 10
219.001
 20
161.4033631504372
 11
230.001
 21
161.4033631504372
  0
LINE
  8
_0-d_043123
  6
CONTINUOUS
 62
    2
 10
235.001
 20
161.9033631504372
 11
230.001
 21
161.4033631504372
  0
LINE
  8
_0-d_043123
  6
CONTINUOUS
 62
    2
 10
239.001
 20
162.9033631504372
 11
239.001
 21
161.9033631504372
  0
LINE
  8
_0-d_043123
  6
CONTINUOUS
 62
    2
 10
239.001
 20
162.9033631504372
 11
219.001
 21
162.9033631504372
  0
LINE
  8
_0-d_043123
  6
CONTINUOUS
 62
    2
 10
239.001
 20
161.9033631504372
 11
219.001
 21
161.9033631504372
  0
LINE
  8
_0-d_043123
  6
CONTINUOUS
 62
    2
 10
220.424
 20
162.9033631504372
 11
221.84800000000001
 21
163.4033631504372
  0
LINE
  8
_0-d_043123
  6
CONTINUOUS
 62
    2
 10
220.424
 20
161.9033631504372
 11
219.001
 21
161.4033631504372
  0
LINE
  8
_0-d_043123
  6
CONTINUOUS
 62
    2
 10
223.174
 20
161.9033631504372
 11
224.501
 21
161.4033631504372
  0
LINE
  8
_0-d_043123
  6
CONTINUOUS
 62
    2
 10
225.63999999999998
 20
161.9033631504372
 11
224.501
 21
161.4033631504372
  0
LINE
  8
_0-d_043123
  6
CONTINUOUS
 62
    2
 10
227.65299999999999
 20
161.9033631504372
 11
228.52699999999998
 21
161.4033631504372
  0
LINE
  8
_0-d_043123
  6
CONTINUOUS
 62
    2
 10
229.07699999999999
 20
161.9033631504372
 11
228.52699999999998
 21
161.4033631504372
  0
LINE
  8
_0-d_043123
  6
CONTINUOUS
 62
    2
 10
229.81399999999999
 20
161.9033631504372
 11
230.001
 21
161.4033631504372
  0
LINE
  8
_0-d_043123
  6
CONTINUOUS
 62
    2
 10
229.07699999999999
 20
162.9033631504372
 11
229.626
 21
163.4033631504372
  0
LINE
  8
_0-d_043123
  6
CONTINUOUS
 62
    2
 10
227.65299999999999
 20
162.9033631504372
 11
226.77900000000011
 21
163.4033631504372
  0
LINE
  8
_0-d_043123
  6
CONTINUOUS
 62
    2
 10
225.63999999999998
 20
162.9033631504372
 11
226.77900000000011
 21
163.4033631504372
  0
LINE
  8
_0-d_043123
  6
CONTINUOUS
 62
    2
 10
223.174
 20
162.9033631504372
 11
221.84800000000001
 21
163.4033631504372
  0
LINE
  8
_0-d_043123
  6
CONTINUOUS
 62
    2
 10
229.81399999999999
 20
162.9033631504372
 11
229.626
 21
163.4033631504372
  0
LINE
  8
_0-d_043123
  6
CONTINUOUS
 62
    2
 10
230.001
 20
161.9033631504372
 11
230.001
 21
161.4033631504372
  0
LINE
  8
_0-d_043123
  6
CONTINUOUS
 62
    2
 10
208.001
 20
161.9033631504372
 11
208.001
 21
161.4033631504372
  0
LINE
  8
_0-d_043123
  6
CONTINUOUS
 62
    2
 10
208.18799999999998
 20
162.9033631504372
 11
208.376
 21
163.4033631504372
  0
LINE
  8
_0-d_043123
  6
CONTINUOUS
 62
    2
 10
214.82699999999999
 20
162.9033631504372
 11
216.15399999999999
 21
163.4033631504372
  0
LINE
  8
_0-d_043123
  6
CONTINUOUS
 62
    2
 10
212.36199999999999
 20
162.9033631504372
 11
211.22300000000001
 21
163.4033631504372
  0
LINE
  8
_0-d_043123
  6
CONTINUOUS
 62
    2
 10
210.34899999999998
 20
162.9033631504372
 11
211.22300000000001
 21
163.4033631504372
  0
LINE
  8
_0-d_043123
  6
CONTINUOUS
 62
    2
 10
208.92500000000001
 20
162.9033631504372
 11
208.376
 21
163.4033631504372
  0
LINE
  8
_0-d_043123
  6
CONTINUOUS
 62
    2
 10
208.18799999999998
 20
161.9033631504372
 11
208.001
 21
161.4033631504372
  0
LINE
  8
_0-d_043123
  6
CONTINUOUS
 62
    2
 10
208.92500000000001
 20
161.9033631504372
 11
209.47499999999999
 21
161.4033631504372
  0
LINE
  8
_0-d_043123
  6
CONTINUOUS
 62
    2
 10
210.34899999999998
 20
161.9033631504372
 11
209.47499999999999
 21
161.4033631504372
  0
LINE
  8
_0-d_043123
  6
CONTINUOUS
 62
    2
 10
212.36199999999999
 20
161.9033631504372
 11
213.501
 21
161.4033631504372
  0
LINE
  8
_0-d_043123
  6
CONTINUOUS
 62
    2
 10
214.82699999999999
 20
161.9033631504372
 11
213.501
 21
161.4033631504372
  0
LINE
  8
_0-d_043123
  6
CONTINUOUS
 62
    2
 10
217.57699999999999
 20
161.9033631504372
 11
219.001
 21
161.4033631504372
  0
LINE
  8
_0-d_043123
  6
CONTINUOUS
 62
    2
 10
217.57699999999999
 20
162.9033631504372
 11
216.15399999999999
 21
163.4033631504372
  0
LINE
  8
_0-d_043123
  6
CONTINUOUS
 62
    2
 10
199.001
 20
161.9033631504372
 11
219.001
 21
161.9033631504372
  0
LINE
  8
_0-d_043123
  6
CONTINUOUS
 62
    2
 10
199.001
 20
162.9033631504372
 11
219.001
 21
162.9033631504372
  0
LINE
  8
_0-d_043123
  6
CONTINUOUS
 62
    2
 10
199.001
 20
162.9033631504372
 11
199.001
 21
161.9033631504372
  0
LINE
  8
_0-d_043123
  6
CONTINUOUS
 62
    2
 10
203.001
 20
161.9033631504372
 11
208.001
 21
161.4033631504372
  0
LINE
  8
_0-d_043123
  6
CONTINUOUS
 62
    2
 10
219.001
 20
161.4033631504372
 11
208.001
 21
161.4033631504372
  0
LINE
  8
_0-e_004981
  6
CONTINUOUS
 62
    2
 10
219.001
 20
163.4033631504372
 11
208.376
 21
163.4033631504372
  0
LINE
  8
_0-e_004981
  6
CONTINUOUS
 62
    2
 10
237.001
 20
164.9033631504372
 11
201.001
 21
164.9033631504372
  0
LINE
  8
_0-e_004981
  6
CONTINUOUS
 62
    2
 10
237.001
 20
163.4033631504372
 11
201.001
 21
163.4033631504372
  0
LINE
  8
_0-e_004981
  6
CONTINUOUS
 62
    2
 10
237.001
 20
164.1533631504372
 11
201.001
 21
164.1533631504372
  0
LINE
  8
_0-e_004981
  6
CONTINUOUS
 62
    2
 10
237.001
 20
163.4033631504372
 11
237.001
 21
164.9033631504372
  0
LINE
  8
_0-e_004981
  6
CONTINUOUS
 62
    2
 10
201.001
 20
163.4033631504372
 11
201.001
 21
164.9033631504372
  0
LINE
  8
_0-b_654294
  6
CONTINUOUS
 62
    2
 10
208.52299999999999
 20
164.9033631504372
 11
208.52299999999999
 21
174.9033631504372
  0
LINE
  8
_0-b_654294
  6
CONTINUOUS
 62
    2
 10
208.52299999999999
 20
132.4033631504372
 11
208.52299999999999
 21
155.4033631504372
  0
LINE
  8
_0-b_654294
  6
CONTINUOUS
 62
    3
 10
209.685
 20
164.9033631504372
 11
209.685
 21
174.9033631504372
  0
LINE
  8
_0-b_654294
  6
CONTINUOUS
 62
    3
 10
209.685
 20
132.4033631504372
 11
209.685
 21
155.4033631504372
  0
LINE
  8
_0-b_654294
  6
CONTINUOUS
 62
    2
 10
229.478
 20
164.9033631504372
 11
229.478
 21
174.9033631504372
  0
LINE
  8
_0-b_654294
  6
CONTINUOUS
 62
    2
 10
229.478
 20
132.4033631504372
 11
229.478
 21
155.4033631504372
  0
LINE
  8
_0-b_654294
  6
CONTINUOUS
 62
    3
 10
228.316
 20
164.9033631504372
 11
228.316
 21
174.9033631504372
  0
LINE
  8
_0-b_654294
  6
CONTINUOUS
 62
    3
 10
228.316
 20
132.4033631504372
 11
228.316
 21
155.4033631504372
  0
LINE
  8
_0-a_004834
  6
CONTINUOUS
 62
    2
 10
208.09
 20
120.4033631504372
 11
219.001
 21
120.4033631504372
  0
ARC
  8
_0-a_004834
  6
CONTINUOUS
 62
    2
 10
217.90100000000001
 20
126.4033631504372
 40
11.5
 50
148.55100000000061
 51
211.44899999999938
  0
LINE
  8
_0-a_004834
  6
CONTINUOUS
 62
    2
 10
208.09
 20
132.4033631504372
 11
219.001
 21
132.4033631504372
  0
LINE
  8
_0-a_004834
  6
CONTINUOUS
 62
    2
 10
229.911
 20
132.4033631504372
 11
219.001
 21
132.4033631504372
  0
ARC
  8
_0-a_004834
  6
CONTINUOUS
 62
    2
 10
220.10099999999999
 20
126.4033631504372
 40
11.5
 50
328.5490000000006
 51
31.447000000000276
  0
LINE
  8
_0-a_004834
  6
CONTINUOUS
 62
    2
 10
229.911
 20
120.4033631504372
 11
219.001
 21
120.4033631504372
  0
LINE
  8
_0-3_T31474
  6
CONTINUOUS
 62
    2
 10
270
 20
177.9033631504372
 11
199
 21
177.9033631504372
  0
LINE
  8
_0-3_T31474
  6
CONTINUOUS
 62
    2
 10
199
 20
177.9033631504372
 11
199
 21
195.6593631504372
  0
ARC
  8
_0-3_T31474
  6
CONTINUOUS
 62
    2
 10
238.501
 20
208.80036315043713
 40
4
 50
180
 51
274.70499999999998
  0
LINE
  8
_0-3_T31474
  6
CONTINUOUS
 62
    2
 10
203.501
 20
208.90336315043714
 11
203.501
 21
203.15936315043714
  0
ARC
  8
_0-3_T31474
  6
CONTINUOUS
 62
    2
 10
203.5
 20
195.6593631504372
 40
4.5
 50
100.20099999999989
 51
180
  0
ARC
  8
_0-3_T31474
  6
CONTINUOUS
 62
    2
 10
199.501
 20
203.15936315043714
 40
4
 50
298.07000000000016
 51
0.0000000000000254
  0
ARC
  8
_0-3_T31474
  6
CONTINUOUS
 62
    2
 10
241.39699999999999
 20
215.04436315043716
 40
10
 50
274.2059999999999
 51
357.58000000000049
  0
ARC
  8
_0-3_T31474
  6
CONTINUOUS
 62
    2
 10
270
 20
-173.90463684956279
 40
380
 50
94.206000000000059
 51
100.20099999999989
  0
LINE
  8
_0-3_T31474
  6
CONTINUOUS
 62
    2
 10
254.02099999999998
 20
244.15736315043713
 11
253.006
 21
238.03136315043713
  0
LINE
  8
_0-3_T31474
  6
CONTINUOUS
 62
    2
 10
255.33299999999999
 20
247.47036315043715
 11
254.02099999999998
 21
244.15736315043713
  0
LINE
  8
_0-3_T31474
  6
CONTINUOUS
 62
    2
 10
257.47300000000001
 20
249.81736315043715
 11
255.33299999999999
 21
247.47036315043715
  0
LINE
  8
_0-3_T31474
  6
CONTINUOUS
 62
    2
 10
252.585
 20
235.44436315043714
 11
251.322
 21
214.55136315043716
  0
INSERT
  2
-004-BDT21
  8
_0-3_T31474
 10
420
 20
162.9033631504372
 41
1
 42
1
 50
0
  0
LINE
  8
_0-3_T31474
  6
CONTINUOUS
 62
    2
 10
254.30699999999998
 20
239.17236315043714
 11
253.006
 21
238.03136315043713
  0
LINE
  8
_0-3_T31474
  6
CONTINUOUS
 62
    2
 10
252.79499999999998
 20
236.74236315043714
 11
253.006
 21
238.03136315043713
  0
LINE
  8
_0-3_T31474
  6
CONTINUOUS
 62
    2
 10
252.585
 20
235.44436315043714
 11
252.79499999999998
 21
236.74236315043714
  0
LINE
  8
_0-3_T31474
  6
CONTINUOUS
 62
    2
 10
249.88999999999998
 20
177.9033631504372
 11
250.05799999999999
 21
184.6593631504372
  0
LINE
  8
_0-3_T31474
  6
CONTINUOUS
 62
    2
 10
251.88900000000001
 20
177.85336315043718
 11
252.05799999999999
 21
184.60936315043721
  0
LINE
  8
_0-3_T31474
  6
CONTINUOUS
 62
    2
 10
250.05799999999999
 20
184.6593631504372
 11
251.322
 21
214.55136315043716
  0
LINE
  8
_0-3_T31474
  6
CONTINUOUS
 62
    2
 10
252.585
 20
227.64336315043715
 11
252.79499999999998
 21
228.94136315043715
  0
LINE
  8
_0-3_T31474
  6
CONTINUOUS
 62
    2
 10
252.79499999999998
 20
228.94136315043715
 11
253.006
 21
230.23136315043714
  0
LINE
  8
_0-3_T31474
  6
CONTINUOUS
 62
    2
 10
254.30699999999998
 20
231.37136315043716
 11
253.006
 21
230.23136315043714
  0
LINE
  8
_0-3_T31474
  6
CONTINUOUS
 62
    2
 10
252.05699999999998
 20
184.57436315043719
 11
253.31999999999999
 21
214.46736315043716
  0
LINE
  8
_0-3_T31474
  6
CONTINUOUS
 62
    2
 10
254.55900000000011
 20
227.32336315043716
 11
254.769
 21
228.62136315043716
  0
LINE
  8
_0-3_T31474
  6
CONTINUOUS
 62
    2
 10
254.769
 20
228.61936315043715
 11
254.97999999999998
 21
229.90836315043713
  0
LINE
  8
_0-3_T31474
  6
CONTINUOUS
 62
    2
 10
255.94999999999998
 20
231.14336315043715
 11
254.97999999999998
 21
229.90836315043713
  0
INSERT
  2
-005-BDT22
  8
_0-3_T31474
 10
420
 20
162.9033631504372
 41
1
 42
1
 50
0
  0
INSERT
  2
-006-BDT23
  8
_0-3_T31474
 10
420
 20
162.9033631504372
 41
1
 42
1
 50
0
  0
LINE
  8
_0-3_T31474
  6
CONTINUOUS
 62
    2
 10
252.584
 20
227.63136315043715
 11
251.322
 21
214.55136315043716
  0
LINE
  8
_0-3_T31474
  6
CONTINUOUS
 62
    2
 10
255.15899999999999
 20
223.08336315043715
 11
254.15399999999999
 21
223.08336315043715
  0
LINE
  8
_0-3_T31474
  6
CONTINUOUS
 62
    2
 10
253.31200000000001
 20
214.35936315043716
 11
253.8020000000001
 21
219.43236315043714
  0
LINE
  8
_0-3_T31474
  6
CONTINUOUS
 62
    2
 10
254.15399999999999
 20
223.08336315043715
 11
254.57499999999998
 21
227.45136315043714
  0
LINE
  8
_0-3_T31474
  6
CONTINUOUS
 62
    2
 10
253.8020000000001
 20
219.43236315043714
 11
254.80600000000001
 21
219.43236315043714
  0
LINE
  8
_0-3_T31474
  6
CONTINUOUS
 62
    2
 10
254.80600000000001
 20
219.43236315043714
 11
255.15899999999999
 21
223.08336315043715
  0
LINE
  8
_0-6_042493
  6
CENTER
 62
    3
 10
219.001
 20
115.34936315043719
 11
219.001
 21
268.80936315043715
  0
LINE
  8
_0-6_042493
  6
CENTER
 62
    3
 10
321
 20
115.34936315043719
 11
321
 21
268.80936315043715
  0
LINE
  8
_1-0_036085
  6
CENTER
 62
    3
 10
270
 20
167.28036315043721
 11
270
 21
259.47336315043713
  0
LINE
  8
_0-3_T31474
  6
CONTINUOUS
 62
    2
 10
285.19499999999999
 20
219.43236315043714
 11
284.84199999999998
 21
223.08336315043715
  0
LINE
  8
_0-3_T31474
  6
CONTINUOUS
 62
    2
 10
286.19900000000001
 20
219.43236315043714
 11
285.19499999999999
 21
219.43236315043714
  0
LINE
  8
_0-3_T31474
  6
CONTINUOUS
 62
    2
 10
285.84699999999997
 20
223.08336315043715
 11
285.42500000000001
 21
227.45136315043714
  0
LINE
  8
_0-3_T31474
  6
CONTINUOUS
 62
    2
 10
286.68899999999996
 20
214.35936315043716
 11
286.19900000000001
 21
219.43236315043714
  0
LINE
  8
_0-3_T31474
  6
CONTINUOUS
 62
    2
 10
284.84199999999998
 20
223.08336315043715
 11
285.84699999999997
 21
223.08336315043715
  0
LINE
  8
_0-3_T31474
  6
CONTINUOUS
 62
    2
 10
287.41700000000003
 20
227.63136315043715
 11
288.67899999999997
 21
214.55136315043716
  0
INSERT
  2
-007-BDT24
  8
_0-3_T31474
 10
420
 20
162.9033631504372
 41
1
 42
1
 50
0
  0
INSERT
  2
-008-BDT25
  8
_0-3_T31474
 10
420
 20
162.9033631504372
 41
1
 42
1
 50
0
  0
LINE
  8
_0-3_T31474
  6
CONTINUOUS
 62
    2
 10
284.05099999999998
 20
231.14336315043715
 11
285.02099999999995
 21
229.90836315043713
  0
LINE
  8
_0-3_T31474
  6
CONTINUOUS
 62
    2
 10
285.23199999999997
 20
228.61936315043715
 11
285.02099999999995
 21
229.90836315043713
  0
LINE
  8
_0-3_T31474
  6
CONTINUOUS
 62
    2
 10
285.442
 20
227.32336315043716
 11
285.23199999999997
 21
228.62136315043716
  0
LINE
  8
_0-3_T31474
  6
CONTINUOUS
 62
    2
 10
287.94399999999995
 20
184.57436315043719
 11
286.68100000000004
 21
214.46736315043716
  0
LINE
  8
_0-3_T31474
  6
CONTINUOUS
 62
    2
 10
285.69399999999995
 20
231.37136315043716
 11
286.995
 21
230.23136315043714
  0
LINE
  8
_0-3_T31474
  6
CONTINUOUS
 62
    2
 10
287.20600000000001
 20
228.94136315043715
 11
286.995
 21
230.23136315043714
  0
LINE
  8
_0-3_T31474
  6
CONTINUOUS
 62
    2
 10
287.41599999999999
 20
227.64336315043715
 11
287.20600000000001
 21
228.94136315043715
  0
LINE
  8
_0-3_T31474
  6
CONTINUOUS
 62
    2
 10
289.94299999999998
 20
184.6593631504372
 11
288.67899999999997
 21
214.55136315043716
  0
LINE
  8
_0-3_T31474
  6
CONTINUOUS
 62
    2
 10
288.11199999999996
 20
177.85336315043718
 11
287.94299999999998
 21
184.60936315043721
  0
LINE
  8
_0-3_T31474
  6
CONTINUOUS
 62
    2
 10
290.11099999999998
 20
177.9033631504372
 11
289.94299999999998
 21
184.6593631504372
  0
LINE
  8
_0-3_T31474
  6
CONTINUOUS
 62
    2
 10
287.41599999999999
 20
235.44436315043714
 11
287.20600000000001
 21
236.74236315043714
  0
LINE
  8
_0-3_T31474
  6
CONTINUOUS
 62
    2
 10
287.20600000000001
 20
236.74236315043714
 11
286.995
 21
238.03136315043713
  0
LINE
  8
_0-3_T31474
  6
CONTINUOUS
 62
    2
 10
285.69399999999995
 20
239.17236315043714
 11
286.995
 21
238.03136315043713
  0
INSERT
  2
-009-BDT26
  8
_0-3_T31474
 10
420
 20
162.9033631504372
 41
1
 42
1
 50
0
  0
LINE
  8
_0-3_T31474
  6
CONTINUOUS
 62
    2
 10
287.41599999999999
 20
235.44436315043714
 11
288.67899999999997
 21
214.55136315043716
  0
INSERT
  2
-010-BDT27
  8
_0-3_T31474
 10
420
 20
162.9033631504372
 41
1
 42
1
 50
0
  0
LINE
  8
_0-3_T31474
  6
CONTINUOUS
 62
    2
 10
282.52800000000002
 20
249.81736315043715
 11
284.668
 21
247.47036315043715
  0
LINE
  8
_0-3_T31474
  6
CONTINUOUS
 62
    2
 10
284.668
 20
247.47036315043715
 11
285.98000000000001
 21
244.15736315043713
  0
LINE
  8
_0-3_T31474
  6
CONTINUOUS
 62
    2
 10
285.98000000000001
 20
244.15736315043713
 11
286.995
 21
238.03136315043713
  0
ARC
  8
_0-3_T31474
  6
CONTINUOUS
 62
    2
 10
270
 20
-173.90463684956279
 40
380
 50
79.799000000000035
 51
85.793999999999954
  0
ARC
  8
_0-3_T31474
  6
CONTINUOUS
 62
    2
 10
298.60399999999998
 20
215.04436315043716
 40
10
 50
182.41999999999939
 51
265.79399999999998
  0
ARC
  8
_0-3_T31474
  6
CONTINUOUS
 62
    2
 10
340.5
 20
203.15936315043714
 40
4
 50
180
 51
241.92999999999986
  0
ARC
  8
_0-3_T31474
  6
CONTINUOUS
 62
    2
 10
336.5
 20
195.6593631504372
 40
4.5
 50
0
 51
79.799000000000035
  0
LINE
  8
_0-3_T31474
  6
CONTINUOUS
 62
    2
 10
336.5
 20
208.90336315043714
 11
336.5
 21
203.15936315043714
  0
ARC
  8
_0-3_T31474
  6
CONTINUOUS
 62
    2
 10
301.5
 20
208.80036315043713
 40
4
 50
265.29500000000001
 51
0
  0
LINE
  8
_0-3_T31474
  6
CONTINUOUS
 62
    2
 10
305.50099999999997
 20
208.80036315043713
 11
305.50099999999997
 21
208.90336315043714
  0
LINE
  8
_0-3_T31474
  6
CONTINUOUS
 62
    2
 10
341
 20
177.9033631504372
 11
341
 21
195.6593631504372
  0
LINE
  8
_0-3_T31474
  6
CONTINUOUS
 62
    2
 10
270
 20
177.9033631504372
 11
341
 21
177.9033631504372
  0
LINE
  8
_1-0_036085
  6
CONTINUOUS
 62
    2
 10
281
 20
220.95536315043713
 11
281
 21
229.80936315043715
  0
LINE
  8
_0-a_004834
  6
CONTINUOUS
 62
    2
 10
310.09000000000003
 20
120.4033631504372
 11
321
 21
120.4033631504372
  0
ARC
  8
_0-a_004834
  6
CONTINUOUS
 62
    2
 10
319.89999999999997
 20
126.4033631504372
 40
11.5
 50
148.55299999999971
 51
211.4520000000007
  0
LINE
  8
_0-a_004834
  6
CONTINUOUS
 62
    2
 10
310.09000000000003
 20
132.4033631504372
 11
321
 21
132.4033631504372
  0
LINE
  8
_0-a_004834
  6
CONTINUOUS
 62
    2
 10
331.911
 20
132.4033631504372
 11
321
 21
132.4033631504372
  0
ARC
  8
_0-a_004834
  6
CONTINUOUS
 62
    2
 10
322.10000000000002
 20
126.4033631504372
 40
11.5
 50
328.55100000000078
 51
31.448999999999383
  0
LINE
  8
_0-a_004834
  6
CONTINUOUS
 62
    2
 10
331.911
 20
120.4033631504372
 11
321
 21
120.4033631504372
  0
LINE
  8
_0-b_654294
  6
CONTINUOUS
 62
    3
 10
311.685
 20
132.4033631504372
 11
311.68399999999996
 21
155.4033631504372
  0
LINE
  8
_0-b_654294
  6
CONTINUOUS
 62
    3
 10
311.68399999999996
 20
164.9033631504372
 11
311.68399999999996
 21
174.9033631504372
  0
LINE
  8
_0-b_654294
  6
CONTINUOUS
 62
    2
 10
310.52300000000002
 20
132.4033631504372
 11
310.52199999999999
 21
155.4033631504372
  0
LINE
  8
_0-b_654294
  6
CONTINUOUS
 62
    2
 10
310.52199999999999
 20
164.9033631504372
 11
310.52199999999999
 21
174.9033631504372
  0
LINE
  8
_0-b_654294
  6
CONTINUOUS
 62
    3
 10
330.31600000000003
 20
132.4033631504372
 11
330.31600000000003
 21
155.4033631504372
  0
LINE
  8
_0-b_654294
  6
CONTINUOUS
 62
    3
 10
330.31600000000003
 20
164.9033631504372
 11
330.31499999999999
 21
174.9033631504372
  0
LINE
  8
_0-b_654294
  6
CONTINUOUS
 62
    2
 10
331.478
 20
132.4033631504372
 11
331.478
 21
155.4033631504372
  0
LINE
  8
_0-b_654294
  6
CONTINUOUS
 62
    2
 10
331.478
 20
164.9033631504372
 11
331.478
 21
174.9033631504372
  0
LINE
  8
_0-e_004981
  6
CONTINUOUS
 62
    2
 10
339
 20
163.4033631504372
 11
339
 21
164.9033631504372
  0
LINE
  8
_0-e_004981
  6
CONTINUOUS
 62
    2
 10
303
 20
163.4033631504372
 11
303
 21
164.9033631504372
  0
LINE
  8
_0-e_004981
  6
CONTINUOUS
 62
    2
 10
303
 20
164.1533631504372
 11
339
 21
164.1533631504372
  0
LINE
  8
_0-e_004981
  6
CONTINUOUS
 62
    2
 10
303
 20
163.4033631504372
 11
339
 21
163.4033631504372
  0
LINE
  8
_0-e_004981
  6
CONTINUOUS
 62
    2
 10
303
 20
164.9033631504372
 11
339
 21
164.9033631504372
  0
LINE
  8
_0-e_004981
  6
CONTINUOUS
 62
    2
 10
321
 20
163.4033631504372
 11
331.625
 21
163.4033631504372
  0
LINE
  8
_0-d_043123
  6
CONTINUOUS
 62
    2
 10
321
 20
161.4033631504372
 11
332
 21
161.4033631504372
  0
LINE
  8
_0-d_043123
  6
CONTINUOUS
 62
    2
 10
337
 20
161.9033631504372
 11
332
 21
161.4033631504372
  0
LINE
  8
_0-d_043123
  6
CONTINUOUS
 62
    2
 10
341
 20
162.9033631504372
 11
341
 21
161.9033631504372
  0
LINE
  8
_0-d_043123
  6
CONTINUOUS
 62
    2
 10
341
 20
162.9033631504372
 11
321
 21
162.9033631504372
  0
LINE
  8
_0-d_043123
  6
CONTINUOUS
 62
    2
 10
341
 20
161.9033631504372
 11
321
 21
161.9033631504372
  0
LINE
  8
_0-d_043123
  6
CONTINUOUS
 62
    2
 10
322.423
 20
162.9033631504372
 11
323.84699999999997
 21
163.4033631504372
  0
LINE
  8
_0-d_043123
  6
CONTINUOUS
 62
    2
 10
322.423
 20
161.9033631504372
 11
321
 21
161.4033631504372
  0
LINE
  8
_0-d_043123
  6
CONTINUOUS
 62
    2
 10
325.173
 20
161.9033631504372
 11
326.5
 21
161.4033631504372
  0
LINE
  8
_0-d_043123
  6
CONTINUOUS
 62
    2
 10
327.63900000000001
 20
161.9033631504372
 11
326.5
 21
161.4033631504372
  0
LINE
  8
_0-d_043123
  6
CONTINUOUS
 62
    2
 10
329.65199999999998
 20
161.9033631504372
 11
330.52600000000001
 21
161.4033631504372
  0
LINE
  8
_0-d_043123
  6
CONTINUOUS
 62
    2
 10
331.07600000000002
 20
161.9033631504372
 11
330.52600000000001
 21
161.4033631504372
  0
LINE
  8
_0-d_043123
  6
CONTINUOUS
 62
    2
 10
331.81299999999998
 20
161.9033631504372
 11
332
 21
161.4033631504372
  0
LINE
  8
_0-d_043123
  6
CONTINUOUS
 62
    2
 10
331.07600000000002
 20
162.9033631504372
 11
331.625
 21
163.4033631504372
  0
LINE
  8
_0-d_043123
  6
CONTINUOUS
 62
    2
 10
329.65199999999998
 20
162.9033631504372
 11
328.77800000000002
 21
163.4033631504372
  0
LINE
  8
_0-d_043123
  6
CONTINUOUS
 62
    2
 10
327.63900000000001
 20
162.9033631504372
 11
328.77800000000002
 21
163.4033631504372
  0
LINE
  8
_0-d_043123
  6
CONTINUOUS
 62
    2
 10
325.173
 20
162.9033631504372
 11
323.84699999999997
 21
163.4033631504372
  0
LINE
  8
_0-d_043123
  6
CONTINUOUS
 62
    2
 10
331.81299999999998
 20
162.9033631504372
 11
331.625
 21
163.4033631504372
  0
LINE
  8
_0-d_043123
  6
CONTINUOUS
 62
    2
 10
332
 20
161.9033631504372
 11
332
 21
161.4033631504372
  0
LINE
  8
_0-d_043123
  6
CONTINUOUS
 62
    2
 10
310
 20
161.9033631504372
 11
310
 21
161.4033631504372
  0
LINE
  8
_0-d_043123
  6
CONTINUOUS
 62
    2
 10
310.18700000000001
 20
162.9033631504372
 11
310.375
 21
163.4033631504372
  0
LINE
  8
_0-d_043123
  6
CONTINUOUS
 62
    2
 10
316.82600000000002
 20
162.9033631504372
 11
318.15300000000002
 21
163.4033631504372
  0
LINE
  8
_0-d_043123
  6
CONTINUOUS
 62
    2
 10
314.36099999999998
 20
162.9033631504372
 11
313.22199999999997
 21
163.4033631504372
  0
LINE
  8
_0-d_043123
  6
CONTINUOUS
 62
    2
 10
312.34800000000001
 20
162.9033631504372
 11
313.22199999999997
 21
163.4033631504372
  0
LINE
  8
_0-d_043123
  6
CONTINUOUS
 62
    2
 10
310.92399999999997
 20
162.9033631504372
 11
310.375
 21
163.4033631504372
  0
LINE
  8
_0-d_043123
  6
CONTINUOUS
 62
    2
 10
310.18700000000001
 20
161.9033631504372
 11
310
 21
161.4033631504372
  0
LINE
  8
_0-d_043123
  6
CONTINUOUS
 62
    2
 10
310.92399999999997
 20
161.9033631504372
 11
311.47399999999998
 21
161.4033631504372
  0
LINE
  8
_0-d_043123
  6
CONTINUOUS
 62
    2
 10
312.34800000000001
 20
161.9033631504372
 11
311.47399999999998
 21
161.4033631504372
  0
LINE
  8
_0-d_043123
  6
CONTINUOUS
 62
    2
 10
314.36099999999998
 20
161.9033631504372
 11
315.5
 21
161.4033631504372
  0
LINE
  8
_0-d_043123
  6
CONTINUOUS
 62
    2
 10
316.82600000000002
 20
161.9033631504372
 11
315.5
 21
161.4033631504372
  0
LINE
  8
_0-d_043123
  6
CONTINUOUS
 62
    2
 10
319.57600000000002
 20
161.9033631504372
 11
321
 21
161.4033631504372
  0
LINE
  8
_0-d_043123
  6
CONTINUOUS
 62
    2
 10
319.57600000000002
 20
162.9033631504372
 11
318.15300000000002
 21
163.4033631504372
  0
LINE
  8
_0-d_043123
  6
CONTINUOUS
 62
    2
 10
301
 20
161.9033631504372
 11
321
 21
161.9033631504372
  0
LINE
  8
_0-d_043123
  6
CONTINUOUS
 62
    2
 10
301
 20
162.9033631504372
 11
321
 21
162.9033631504372
  0
LINE
  8
_0-d_043123
  6
CONTINUOUS
 62
    2
 10
301
 20
162.9033631504372
 11
301
 21
161.9033631504372
  0
LINE
  8
_0-d_043123
  6
CONTINUOUS
 62
    2
 10
305
 20
161.9033631504372
 11
310
 21
161.4033631504372
  0
LINE
  8
_0-d_043123
  6
CONTINUOUS
 62
    2
 10
321
 20
161.4033631504372
 11
310
 21
161.4033631504372
  0
LINE
  8
_0-e_004981
  6
CONTINUOUS
 62
    2
 10
321
 20
163.4033631504372
 11
310.375
 21
163.4033631504372
  0
LINE
  8
_0-f_410872
  6
CONTINUOUS
 62
    2
 10
270
 20
174.9033631504372
 11
339.5
 21
174.9033631504372
  0
LINE
  8
_0-f_410872
  6
CONTINUOUS
 62
    2
 10
339.5
 20
174.9033631504372
 11
339.5
 21
177.9033631504372
  0
LINE
  8
_0-6_042493
  6
CONTINUOUS
 62
    2
 10
315.03700000000003
 20
209.92036315043714
 11
315.79700000000002
 21
253.98936315043715
  0
ARC
  8
_0-6_042493
  6
CONTINUOUS
 62
    2
 10
316.03700000000003
 20
209.90336315043714
 40
1
 50
179.01400000000063
 51
270
  0
LINE
  8
_0-6_042493
  6
CONTINUOUS
 62
    2
 10
339.512
 20
248.67036315043716
 11
341.13499999999999
 21
208.90336315043714
  0
LINE
  8
_0-6_042493
  6
CONTINUOUS
 62
    2
 10
302.10500000000001
 20
210.46336315043714
 11
303.80299999999999
 21
252.92936315043715
  0
ARC
  8
_0-6_042493
  6
CONTINUOUS
 62
    2
 10
306.11199999999996
 20
249.06436315043714
 40
7
 50
101.23200000000009
 51
177.71200000000081
  0
ARC
  8
_0-6_042493
  6
CONTINUOUS
 62
    2
 10
303.603
 20
210.40336315043714
 40
1.5
 50
177.71100000000049
 51
270
  0
ARC
  8
_0-6_042493
  6
CONTINUOUS
 62
    2
 10
309.798
 20
252.68936315043714
 40
6
 50
92.184999999999959
 51
177.71100000000049
  0
LINE
  8
_0-6_042493
  6
CONTINUOUS
 62
    2
 10
322.346
 20
255.77536315043715
 11
332.502
 21
255.77536315043715
  0
LINE
  8
_0-6_042493
  6
CONTINUOUS
 62
    2
 10
317.34699999999997
 20
250.89236315043714
 11
316.36599999999998
 21
208.90336315043714
  0
ARC
  8
_0-6_042493
  6
CONTINUOUS
 62
    2
 10
322.346
 20
250.77536315043715
 40
5
 50
90
 51
178.66399999999995
  0
LINE
  8
_0-6_042493
  6
CONTINUOUS
 62
    2
 10
344.245
 20
210.46436315043715
 11
342.68099999999998
 21
248.79936315043715
  0
ARC
  8
_0-6_042493
  6
CONTINUOUS
 62
    2
 10
342.74700000000001
 20
210.40336315043714
 40
1.5
 50
270
 51
2.3369999999994295
  0
ARC
  8
_0-6_042493
  6
CONTINUOUS
 62
    2
 10
332.502
 20
248.77536315043715
 40
7
 50
2.3369999999994188
 51
90
  0
ARC
  8
_0-6_042493
  6
CONTINUOUS
 62
    2
 10
332.67799999999999
 20
248.66836315043713
 40
10
 50
2.3369999999994188
 51
87.692000000000021
  0
ARC
  8
_0-6_042493
  6
CONTINUOUS
 62
    2
 10
345.93799999999998
 20
210.40336315043714
 40
1.5
 50
270
 51
2.3369999999994295
  0
LINE
  8
_0-6_042493
  6
CONTINUOUS
 62
    2
 10
345.93799999999998
 20
208.90336315043714
 11
321
 21
208.90336315043714
  0
ARC
  8
_0-6_042493
  6
CONTINUOUS
 62
    2
 10
335.875
 20
248.52136315043713
 40
10
 50
2.3369999999994188
 51
87.060000000000044
  0
LINE
  8
_0-6_042493
  6
CONTINUOUS
 62
    2
 10
345.86599999999998
 20
248.92936315043715
 11
347.43600000000003
 21
210.46436315043715
  0
ARC
  8
_0-6_042493
  6
CONTINUOUS
 62
    2
 10
299.06100000000003
 20
210.40336315043714
 40
1.5
 50
177.71200000000081
 51
270
  0
LINE
  8
_0-6_042493
  6
CONTINUOUS
 62
    2
 10
299.06100000000003
 20
208.90336315043714
 11
321
 21
208.90336315043714
  0
LINE
  8
_0-6_042493
  6
CONTINUOUS
 62
    2
 10
299.11799999999999
 20
249.34436315043714
 11
297.56299999999998
 21
210.46336315043714
  0
ARC
  8
_0-6_042493
  6
CONTINUOUS
 62
    2
 10
321
 20
-41.096636849562912
 40
300
 50
91.374000000000009
 51
92.184999999999973
  0
ARC
  8
_0-6_042493
  6
CONTINUOUS
 62
    2
 10
321
 20
-41.096636849562912
 40
300
 50
87.06000000000003
 51
88.627000000000023
  0
ARC
  8
_0-6_042493
  6
CONTINUOUS
 62
    2
 10
320.79599999999999
 20
253.90336315043714
 40
5
 50
100.6429999999998
 51
179.0140000000006
  0
LINE
  8
_0-c_004044
  6
CONTINUOUS
 62
    2
 10
321
 20
155.4033631504372
 11
309
 21
155.4033631504372
  0
LINE
  8
_0-c_004044
  6
CONTINUOUS
 62
    2
 10
321
 20
161.4033631504372
 11
307.144
 21
161.4033631504372
  0
ARC
  8
_0-c_004044
  6
CONTINUOUS
 62
    2
 10
321
 20
178.33136315043719
 40
22.928
 50
252.41199999999989
 51
270
  0
ARC
  8
_0-c_004044
  6
CONTINUOUS
 62
    2
 10
310.608
 20
161.5373631504371
 40
6.1339999999999985
 50
270
 51
304.3839999999999
  0
LINE
  8
_0-c_004044
  6
CONTINUOUS
 62
    2
 10
307.144
 20
156.4753631504372
 11
307.144
 21
161.4033631504372
  0
LINE
  8
_0-c_004044
  6
CONTINUOUS
 62
    2
 10
307.144
 20
156.4753631504372
 11
309
 21
155.4033631504372
  0
LINE
  8
_0-c_004044
  6
CONTINUOUS
 62
    2
 10
314.072
 20
156.4753631504372
 11
314.072
 21
161.4033631504372
  0
LINE
  8
_0-c_004044
  6
CONTINUOUS
 62
    2
 10
327.92799999999999
 20
156.4753631504372
 11
327.92799999999999
 21
161.4033631504372
  0
LINE
  8
_0-c_004044
  6
CONTINUOUS
 62
    2
 10
334.85599999999999
 20
156.4753631504372
 11
333
 21
155.4033631504372
  0
LINE
  8
_0-c_004044
  6
CONTINUOUS
 62
    2
 10
334.85599999999999
 20
156.4753631504372
 11
334.85599999999999
 21
161.4033631504372
  0
ARC
  8
_0-c_004044
  6
CONTINUOUS
 62
    2
 10
331.39199999999999
 20
161.5373631504371
 40
6.1339999999999985
 50
235.61600000000009
 51
270
  0
ARC
  8
_0-c_004044
  6
CONTINUOUS
 62
    2
 10
321
 20
178.33136315043719
 40
22.928
 50
270
 51
287.58800000000002
  0
LINE
  8
_0-c_004044
  6
CONTINUOUS
 62
    2
 10
321
 20
161.4033631504372
 11
334.85599999999999
 21
161.4033631504372
  0
LINE
  8
_0-c_004044
  6
CONTINUOUS
 62
    2
 10
321
 20
155.4033631504372
 11
333
 21
155.4033631504372
  0
LINE
  8
_0-5_042385
  6
CONTINUOUS
 62
    2
 10
321
 20
258.82236315043712
 11
329.5
 21
258.82236315043712
  0
LINE
  8
_0-5_042385
  6
CONTINUOUS
 62
    2
 10
329.5
 20
258.82236315043712
 11
329.5
 21
259.67136315043711
  0
ARC
  8
_0-5_042385
  6
CONTINUOUS
 62
    2
 10
321
 20
210.82236315043712
 40
50
 50
80.69900000000004
 51
90.000000000000014
  0
ARC
  8
_0-5_042385
  6
CONTINUOUS
 62
    2
 10
329
 20
259.67136315043711
 40
0.5
 50
0
 51
80.69900000000004
  0
ARC
  8
_0-5_042385
  6
CONTINUOUS
 62
    2
 10
313
 20
259.67136315043711
 40
0.5
 50
99.30200000000002
 51
180.00199999999972
  0
ARC
  8
_0-5_042385
  6
CONTINUOUS
 62
    2
 10
321
 20
210.82236315043712
 40
50
 50
90
 51
99.30200000000002
  0
LINE
  8
_0-5_042385
  6
CONTINUOUS
 62
    2
 10
312.5
 20
258.82236315043712
 11
312.5
 21
259.67136315043711
  0
LINE
  8
_0-5_042385
  6
CONTINUOUS
 62
    2
 10
321
 20
258.82236315043712
 11
312.5
 21
258.82236315043712
  0
LINE
  8
_0-9_410748
  6
CONTINUOUS
 62
    2
 10
273
 20
182.20436315043718
 11
273
 21
185.99036315043719
  0
LINE
  8
_0-9_410748
  6
CONTINUOUS
 62
    2
 10
267
 20
182.20436315043718
 11
267
 21
185.99036315043719
  0
LINE
  8
_0-5_042385
  6
CONTINUOUS
 62
    2
 10
219.001
 20
258.82236315043712
 11
210.501
 21
258.82236315043712
  0
LINE
  8
_0-5_042385
  6
CONTINUOUS
 62
    2
 10
210.501
 20
258.82236315043712
 11
210.501
 21
259.67136315043711
  0
ARC
  8
_0-5_042385
  6
CONTINUOUS
 62
    2
 10
219.001
 20
210.82236315043712
 40
50
 50
90
 51
99.30200000000002
  0
ARC
  8
_0-5_042385
  6
CONTINUOUS
 62
    2
 10
211.001
 20
259.67136315043711
 40
0.5
 50
99.30200000000002
 51
180.00199999999972
  0
ARC
  8
_0-5_042385
  6
CONTINUOUS
 62
    2
 10
227.001
 20
259.67136315043711
 40
0.5
 50
0
 51
80.69900000000004
  0
ARC
  8
_0-5_042385
  6
CONTINUOUS
 62
    2
 10
219.001
 20
210.82236315043712
 40
50
 50
80.69900000000004
 51
90.000000000000014
  0
LINE
  8
_0-5_042385
  6
CONTINUOUS
 62
    2
 10
227.501
 20
258.82236315043712
 11
227.501
 21
259.67136315043711
  0
LINE
  8
_0-5_042385
  6
CONTINUOUS
 62
    2
 10
219.001
 20
258.82236315043712
 11
227.501
 21
258.82236315043712
  0
ARC
  8
_0-6_042493
  6
CONTINUOUS
 62
    2
 10
218.79699999999999
 20
253.90336315043714
 40
5
 50
100.6429999999998
 51
179.0140000000006
  0
ARC
  8
_0-6_042493
  6
CONTINUOUS
 62
    2
 10
219.001
 20
-41.096636849562912
 40
300
 50
87.06000000000003
 51
88.627000000000023
  0
ARC
  8
_0-6_042493
  6
CONTINUOUS
 62
    2
 10
219.001
 20
-41.096636849562912
 40
300
 50
91.374000000000009
 51
92.184999999999973
  0
LINE
  8
_0-6_042493
  6
CONTINUOUS
 62
    2
 10
197.11899999999999
 20
249.34436315043714
 11
195.56299999999998
 21
210.46336315043714
  0
LINE
  8
_0-6_042493
  6
CONTINUOUS
 62
    2
 10
197.06200000000001
 20
208.90336315043714
 11
219.001
 21
208.90336315043714
  0
ARC
  8
_0-6_042493
  6
CONTINUOUS
 62
    2
 10
197.06200000000001
 20
210.40336315043714
 40
1.5
 50
177.71200000000081
 51
270
  0
LINE
  8
_0-6_042493
  6
CONTINUOUS
 62
    2
 10
243.86699999999999
 20
248.92936315043715
 11
245.43700000000001
 21
210.46436315043715
  0
ARC
  8
_0-6_042493
  6
CONTINUOUS
 62
    2
 10
233.876
 20
248.52136315043713
 40
10
 50
2.3369999999994188
 51
87.060000000000044
  0
LINE
  8
_0-6_042493
  6
CONTINUOUS
 62
    2
 10
243.9390000000001
 20
208.90336315043714
 11
219.001
 21
208.90336315043714
  0
ARC
  8
_0-6_042493
  6
CONTINUOUS
 62
    2
 10
243.9390000000001
 20
210.40336315043714
 40
1.5
 50
270
 51
2.3369999999994295
  0
ARC
  8
_0-6_042493
  6
CONTINUOUS
 62
    2
 10
230.679
 20
248.66836315043713
 40
10
 50
2.3369999999994188
 51
87.692000000000021
  0
ARC
  8
_0-6_042493
  6
CONTINUOUS
 62
    2
 10
230.50299999999998
 20
248.77536315043715
 40
7
 50
2.3369999999994188
 51
90
  0
ARC
  8
_0-6_042493
  6
CONTINUOUS
 62
    2
 10
240.74799999999999
 20
210.40336315043714
 40
1.5
 50
270
 51
2.3369999999994295
  0
LINE
  8
_0-6_042493
  6
CONTINUOUS
 62
    2
 10
242.246
 20
210.46436315043715
 11
240.6820000000001
 21
248.79936315043715
  0
ARC
  8
_0-6_042493
  6
CONTINUOUS
 62
    2
 10
220.346
 20
250.77536315043715
 40
5
 50
90
 51
178.66399999999995
  0
LINE
  8
_0-6_042493
  6
CONTINUOUS
 62
    2
 10
215.34800000000001
 20
250.89236315043714
 11
214.36699999999999
 21
208.90336315043714
  0
LINE
  8
_0-6_042493
  6
CONTINUOUS
 62
    2
 10
220.346
 20
255.77536315043715
 11
230.50299999999998
 21
255.77536315043715
  0
ARC
  8
_0-6_042493
  6
CONTINUOUS
 62
    2
 10
207.799
 20
252.68936315043714
 40
6
 50
92.184999999999959
 51
177.71100000000049
  0
ARC
  8
_0-6_042493
  6
CONTINUOUS
 62
    2
 10
201.60400000000001
 20
210.40336315043714
 40
1.5
 50
177.71100000000049
 51
270
  0
ARC
  8
_0-6_042493
  6
CONTINUOUS
 62
    2
 10
204.11299999999999
 20
249.06436315043714
 40
7
 50
101.23200000000009
 51
177.71200000000081
  0
LINE
  8
_0-6_042493
  6
CONTINUOUS
 62
    2
 10
200.10499999999998
 20
210.46336315043714
 11
201.804
 21
252.92936315043715
  0
LINE
  8
_0-6_042493
  6
CONTINUOUS
 62
    2
 10
237.513
 20
248.67036315043716
 11
239.13599999999999
 21
208.90336315043714
  0
ARC
  8
_0-6_042493
  6
CONTINUOUS
 62
    2
 10
214.03800000000001
 20
209.90336315043714
 40
1
 50
179.01400000000063
 51
270
  0
LINE
  8
_0-6_042493
  6
CONTINUOUS
 62
    2
 10
213.03800000000001
 20
209.92036315043714
 11
213.798
 21
253.98936315043715
  0
LINE
  8
_0-3_T31474
  6
CONTINUOUS
 62
    2
 10
203.502
 20
208.80036315043713
 11
203.502
 21
208.90336315043714
  0
ARC
  8
_0-3_T31474
  6
CONTINUOUS
 62
    2
 10
669.98000000000001
 20
434.05099999999998
 40
101.051
 50
261.38999999999998
 51
278.33699999999998
  0
LINE
  8
_0-5_042385
  6
CONTINUOUS
 62
    2
 10
669.98000000000001
 20
392.91899999999998
 11
678.48000000000001
 21
392.91899999999998
  0
LINE
  8
_0-5_042385
  6
CONTINUOUS
 62
    2
 10
678.48000000000001
 20
392.91899999999998
 11
678.48000000000001
 21
393.76800000000002
  0
ARC
  8
_0-5_042385
  6
CONTINUOUS
 62
    2
 10
669.98000000000001
 20
344.91899999999998
 40
50
 50
80.698999999999998
 51
90
  0
ARC
  8
_0-5_042385
  6
CONTINUOUS
 62
    2
 10
677.98000000000001
 20
393.76800000000002
 40
0.5
 50
0
 51
80.698999999999998
  0
ARC
  8
_0-5_042385
  6
CONTINUOUS
 62
    2
 10
661.98000000000001
 20
393.76800000000002
 40
0.5
 50
99.30200000000002
 51
180.002
  0
ARC
  8
_0-5_042385
  6
CONTINUOUS
 62
    2
 10
669.98000000000001
 20
344.91899999999998
 40
50
 50
90
 51
99.30200000000002
  0
LINE
  8
_0-5_042385
  6
CONTINUOUS
 62
    2
 10
661.48000000000001
 20
392.91899999999998
 11
661.48000000000001
 21
393.76800000000002
  0
LINE
  8
_0-5_042385
  6
CONTINUOUS
 62
    2
 10
669.98000000000001
 20
392.91899999999998
 11
661.48000000000001
 21
392.91899999999998
  0
LINE
  8
_0-c_004044
  6
CONTINUOUS
 62
    2
 10
669.98400000000003
 20
290.57799999999997
 11
670
 21
295.5
  0
LINE
  8
_0-c_004044
  6
CONTINUOUS
 62
    2
 10
658
 20
295.5
 11
658
 21
289.5
  0
LINE
  8
_0-c_004044
  6
CONTINUOUS
 62
    2
 10
682
 20
289.5
 11
658
 21
289.5
  0
LINE
  8
_0-c_004044
  6
CONTINUOUS
 62
    2
 10
682
 20
295.5
 11
682
 21
289.5
  0
LINE
  8
_0-c_004044
  6
CONTINUOUS
 62
    2
 10
682
 20
295.5
 11
658
 21
295.5
  0
ARC
  8
_0-6_042493
  6
CONTINUOUS
 62
    2
 10
669.95900000000006
 20
93.038999999999987
 40
300
 50
91.623999999999995
 51
92.772999999999967
  0
ARC
  8
_0-6_042493
  6
CONTINUOUS
 62
    2
 10
669.95900000000006
 20
93.038999999999987
 40
297
 50
90
 51
91.677999999999968
  0
ARC
  8
_0-6_042493
  6
CONTINUOUS
 62
    2
 10
645.43000000000006
 20
344
 40
1
 50
177.79000000000002
 51
270
  0
ARC
  8
_0-6_042493
  6
CONTINUOUS
 62
    2
 10
655.93000000000006
 20
382.69900000000001
 40
10
 50
92.772999999999996
 51
177.79000000000002
  0
LINE
  8
_0-6_042493
  6
CONTINUOUS
 62
    2
 10
645.93799999999998
 20
383.08499999999997
 11
644.43100000000004
 21
344.03800000000001
  0
ARC
  8
_0-6_042493
  6
CONTINUOUS
 62
    2
 10
661.37900000000001
 20
385.91300000000001
 40
4
 50
91.677999999999983
 51
178.67599999999998
  0
ARC
  8
_0-6_042493
  6
CONTINUOUS
 62
    2
 10
661.37900000000001
 20
385.91300000000001
 40
7
 50
91.677999999999983
 51
178.67599999999998
  0
ARC
  8
_0-6_042493
  6
CONTINUOUS
 62
    2
 10
654.40899999999999
 20
344
 40
1
 50
178.67699999999996
 51
270
  0
LINE
  8
_0-6_042493
  6
CONTINUOUS
 62
    2
 10
653.40899999999999
 20
344.02300000000002
 11
654.38099999999997
 21
386.07499999999998
  0
ARC
  8
_0-6_042493
  6
CONTINUOUS
 62
    2
 10
657.40999999999996
 20
344
 40
1
 50
178.67699999999996
 51
270
  0
LINE
  8
_0-6_042493
  6
CONTINUOUS
 62
    2
 10
656.40999999999996
 20
344.02300000000002
 11
657.37999999999999
 21
386.00499999999999
  0
LINE
  8
_0-6_042493
  6
CONTINUOUS
 62
    2
 10
669.98000000000001
 20
343
 11
645.43000000000006
 21
343
  0
LINE
  8
_0-6_042493
  6
CONTINUOUS
 62
    2
 10
669.98000000000001
 20
343
 11
694.52999999999997
 21
343
  0
LINE
  8
_0-6_042493
  6
CONTINUOUS
 62
    2
 10
683.54999999999995
 20
344.02300000000002
 11
682.57999999999992
 21
386.00499999999999
  0
ARC
  8
_0-6_042493
  6
CONTINUOUS
 62
    2
 10
682.54999999999995
 20
344
 40
1
 50
270
 51
1.3229999999999737
  0
LINE
  8
_0-6_042493
  6
CONTINUOUS
 62
    2
 10
686.55099999999993
 20
344.02300000000002
 11
685.57899999999995
 21
386.07499999999998
  0
ARC
  8
_0-6_042493
  6
CONTINUOUS
 62
    2
 10
685.55099999999993
 20
344
 40
1
 50
270
 51
1.3229999999999737
  0
ARC
  8
_0-6_042493
  6
CONTINUOUS
 62
    2
 10
678.5809999999999
 20
385.91300000000001
 40
7
 50
1.3240000000000002
 51
88.322000000000016
  0
ARC
  8
_0-6_042493
  6
CONTINUOUS
 62
    2
 10
678.5809999999999
 20
385.91300000000001
 40
4
 50
1.3240000000000002
 51
88.322000000000016
  0
LINE
  8
_0-6_042493
  6
CONTINUOUS
 62
    2
 10
694.02199999999993
 20
383.08499999999997
 11
695.52899999999999
 21
344.03800000000001
  0
ARC
  8
_0-6_042493
  6
CONTINUOUS
 62
    2
 10
684.02999999999997
 20
382.69900000000001
 40
10
 50
2.2099999999999999
 51
87.227000000000018
  0
ARC
  8
_0-6_042493
  6
CONTINUOUS
 62
    2
 10
694.52999999999997
 20
344
 40
1
 50
270
 51
2.2099999999999897
  0
ARC
  8
_0-6_042493
  6
CONTINUOUS
 62
    2
 10
670
 20
93.038999999999987
 40
297
 50
88.322000000000016
 51
90
  0
ARC
  8
_0-6_042493
  6
CONTINUOUS
 62
    2
 10
670
 20
93.038999999999987
 40
300
 50
87.227000000000003
 51
88.376000000000004
  0
LINE
  8
_0-f_410872
  6
CONTINUOUS
 62
    2
 10
644.5
 20
309
 11
644.5
 21
312
  0
LINE
  8
_0-f_410872
  6
CONTINUOUS
 62
    2
 10
695.5
 20
309
 11
644.5
 21
309
  0
LINE
  8
_0-f_410872
  6
CONTINUOUS
 62
    2
 10
695.5
 20
309
 11
695.5
 21
312
  0
LINE
  8
_0-3_T31474
  6
CONTINUOUS
 62
    2
 10
689.5
 20
312
 11
650.5
 21
312
  0
LINE
  8
_0-e_004981
  6
CONTINUOUS
 62
    2
 10
670
 20
297.5
 11
680.625
 21
297.5
  0
LINE
  8
_0-d_043123
  6
CONTINUOUS
 62
    2
 10
670
 20
295.5
 11
681
 21
295.5
  0
LINE
  8
_0-d_043123
  6
CONTINUOUS
 62
    2
 10
686
 20
296
 11
681
 21
295.5
  0
LINE
  8
_0-d_043123
  6
CONTINUOUS
 62
    2
 10
690
 20
297
 11
690
 21
296
  0
LINE
  8
_0-d_043123
  6
CONTINUOUS
 62
    2
 10
690
 20
297
 11
670
 21
297
  0
LINE
  8
_0-d_043123
  6
CONTINUOUS
 62
    2
 10
690
 20
296
 11
670
 21
296
  0
LINE
  8
_0-d_043123
  6
CONTINUOUS
 62
    2
 10
671.42399999999997
 20
297
 11
672.84699999999997
 21
297.5
  0
LINE
  8
_0-d_043123
  6
CONTINUOUS
 62
    2
 10
671.42399999999997
 20
296
 11
670
 21
295.5
  0
LINE
  8
_0-d_043123
  6
CONTINUOUS
 62
    2
 10
674.17399999999997
 20
296
 11
675.5
 21
295.5
  0
LINE
  8
_0-d_043123
  6
CONTINUOUS
 62
    2
 10
676.63900000000001
 20
296
 11
675.5
 21
295.5
  0
LINE
  8
_0-d_043123
  6
CONTINUOUS
 62
    2
 10
678.65200000000004
 20
296
 11
679.52600000000006
 21
295.5
  0
LINE
  8
_0-d_043123
  6
CONTINUOUS
 62
    2
 10
680.07600000000002
 20
296
 11
679.52600000000006
 21
295.5
  0
LINE
  8
_0-d_043123
  6
CONTINUOUS
 62
    2
 10
680.81299999999998
 20
296
 11
681
 21
295.5
  0
LINE
  8
_0-d_043123
  6
CONTINUOUS
 62
    2
 10
680.07600000000002
 20
297
 11
680.625
 21
297.5
  0
LINE
  8
_0-d_043123
  6
CONTINUOUS
 62
    2
 10
678.65200000000004
 20
297
 11
677.77800000000002
 21
297.5
  0
LINE
  8
_0-d_043123
  6
CONTINUOUS
 62
    2
 10
676.63900000000001
 20
297
 11
677.77800000000002
 21
297.5
  0
LINE
  8
_0-d_043123
  6
CONTINUOUS
 62
    2
 10
674.17399999999997
 20
297
 11
672.84699999999997
 21
297.5
  0
LINE
  8
_0-d_043123
  6
CONTINUOUS
 62
    2
 10
680.81299999999998
 20
297
 11
680.625
 21
297.5
  0
LINE
  8
_0-d_043123
  6
CONTINUOUS
 62
    2
 10
681
 20
296
 11
681
 21
295.5
  0
LINE
  8
_0-d_043123
  6
CONTINUOUS
 62
    2
 10
659
 20
296
 11
659
 21
295.5
  0
LINE
  8
_0-d_043123
  6
CONTINUOUS
 62
    2
 10
659.18799999999998
 20
297
 11
659.375
 21
297.5
  0
LINE
  8
_0-d_043123
  6
CONTINUOUS
 62
    2
 10
665.82699999999999
 20
297
 11
667.15300000000002
 21
297.5
  0
LINE
  8
_0-d_043123
  6
CONTINUOUS
 62
    2
 10
663.36099999999998
 20
297
 11
662.22199999999997
 21
297.5
  0
LINE
  8
_0-d_043123
  6
CONTINUOUS
 62
    2
 10
661.34799999999995
 20
297
 11
662.22199999999997
 21
297.5
  0
LINE
  8
_0-d_043123
  6
CONTINUOUS
 62
    2
 10
659.92399999999997
 20
297
 11
659.375
 21
297.5
  0
LINE
  8
_0-d_043123
  6
CONTINUOUS
 62
    2
 10
659.18799999999998
 20
296
 11
659
 21
295.5
  0
LINE
  8
_0-d_043123
  6
CONTINUOUS
 62
    2
 10
659.92399999999997
 20
296
 11
660.47399999999993
 21
295.5
  0
LINE
  8
_0-d_043123
  6
CONTINUOUS
 62
    2
 10
661.34799999999995
 20
296
 11
660.47399999999993
 21
295.5
  0
LINE
  8
_0-d_043123
  6
CONTINUOUS
 62
    2
 10
663.36099999999998
 20
296
 11
664.5
 21
295.5
  0
LINE
  8
_0-d_043123
  6
CONTINUOUS
 62
    2
 10
665.82699999999999
 20
296
 11
664.5
 21
295.5
  0
LINE
  8
_0-d_043123
  6
CONTINUOUS
 62
    2
 10
668.57699999999999
 20
296
 11
670
 21
295.5
  0
LINE
  8
_0-d_043123
  6
CONTINUOUS
 62
    2
 10
668.57699999999999
 20
297
 11
667.15300000000002
 21
297.5
  0
LINE
  8
_0-d_043123
  6
CONTINUOUS
 62
    2
 10
650
 20
296
 11
670
 21
296
  0
LINE
  8
_0-d_043123
  6
CONTINUOUS
 62
    2
 10
650
 20
297
 11
670
 21
297
  0
LINE
  8
_0-d_043123
  6
CONTINUOUS
 62
    2
 10
650
 20
297
 11
650
 21
296
  0
LINE
  8
_0-d_043123
  6
CONTINUOUS
 62
    2
 10
654
 20
296
 11
659
 21
295.5
  0
LINE
  8
_0-d_043123
  6
CONTINUOUS
 62
    2
 10
670
 20
295.5
 11
659
 21
295.5
  0
LINE
  8
_0-e_004981
  6
CONTINUOUS
 62
    2
 10
670
 20
297.5
 11
659.375
 21
297.5
  0
LINE
  8
_0-e_004981
  6
CONTINUOUS
 62
    2
 10
688
 20
299
 11
652
 21
299
  0
LINE
  8
_0-e_004981
  6
CONTINUOUS
 62
    2
 10
688
 20
297.5
 11
652
 21
297.5
  0
LINE
  8
_0-e_004981
  6
CONTINUOUS
 62
    2
 10
688
 20
298.25
 11
652
 21
298.25
  0
LINE
  8
_0-e_004981
  6
CONTINUOUS
 62
    2
 10
688
 20
297.5
 11
688
 21
299
  0
LINE
  8
_0-e_004981
  6
CONTINUOUS
 62
    2
 10
652
 20
297.5
 11
652
 21
299
  0
LINE
  8
_0-b_654294
  6
CONTINUOUS
 62
    2
 10
659.52300000000002
 20
299
 11
659.52300000000002
 21
309
  0
LINE
  8
_0-b_654294
  6
CONTINUOUS
 62
    2
 10
659.52300000000002
 20
266.5
 11
659.52300000000002
 21
289.5
  0
LINE
  8
_0-b_654294
  6
CONTINUOUS
 62
    3
 10
660.68499999999994
 20
299
 11
660.68499999999994
 21
309
  0
LINE
  8
_0-b_654294
  6
CONTINUOUS
 62
    3
 10
660.68499999999994
 20
266.5
 11
660.68499999999994
 21
289.5
  0
LINE
  8
_0-b_654294
  6
CONTINUOUS
 62
    2
 10
680.47800000000006
 20
299
 11
680.47800000000006
 21
309
  0
LINE
  8
_0-b_654294
  6
CONTINUOUS
 62
    2
 10
680.47800000000006
 20
266.5
 11
680.47800000000006
 21
289.5
  0
LINE
  8
_0-b_654294
  6
CONTINUOUS
 62
    3
 10
679.31600000000003
 20
299
 11
679.31600000000003
 21
309
  0
LINE
  8
_0-b_654294
  6
CONTINUOUS
 62
    3
 10
679.31600000000003
 20
266.5
 11
679.31600000000003
 21
289.5
  0
LINE
  8
_0-a_004834
  6
CONTINUOUS
 62
    2
 10
658.5
 20
265.40800000000001
 11
658.5
 21
255.59199999999998
  0
ARC
  8
_0-a_004834
  6
CONTINUOUS
 62
    2
 10
668.89999999999997
 20
260.5
 40
11.5
 50
148.55299999999999
 51
154.73699999999999
  0
ARC
  8
_0-a_004834
  6
CONTINUOUS
 62
    2
 10
668.89999999999997
 20
260.5
 40
11.5
 50
205.2659999999999
 51
211.45100000000002
  0
LINE
  8
_0-a_004834
  6
CONTINUOUS
 62
    2
 10
670
 20
266.5
 11
659.09000000000003
 21
266.5
  0
LINE
  8
_0-a_004834
  6
CONTINUOUS
 62
    2
 10
670
 20
254.5
 11
659.09000000000003
 21
254.5
  0
LINE
  8
_0-a_004834
  6
CONTINUOUS
 62
    2
 10
670
 20
254.5
 11
680.91100000000005
 21
254.5
  0
LINE
  8
_0-a_004834
  6
CONTINUOUS
 62
    2
 10
670
 20
266.5
 11
680.91100000000005
 21
266.5
  0
ARC
  8
_0-a_004834
  6
CONTINUOUS
 62
    2
 10
671.10000000000002
 20
260.5
 40
11.5
 50
328.55099999999993
 51
334.73699999999996
  0
ARC
  8
_0-a_004834
  6
CONTINUOUS
 62
    2
 10
671.10000000000002
 20
260.5
 40
11.5
 50
25.263999999999988
 51
31.448
  0
LINE
  8
_0-a_004834
  6
CONTINUOUS
 62
    2
 10
681.5
 20
265.40800000000001
 11
681.5
 21
255.59199999999998
  0
LINE
  8
_1-0_036085
  6
CONTINUOUS
 62
    2
 10
564.54399999999998
 20
365.48500000000001
 11
562.76999999999998
 21
358.865
  0
LINE
  8
_1-0_036085
  6
CONTINUOUS
 62
    2
 10
585.83400000000006
 20
359.942
 11
584.01999999999998
 21
353.17099999999999
  0
LINE
  8
_1-0_036085
  6
CONTINUOUS
 62
    2
 10
582.79499999999995
 20
352.46399999999999
 11
573.13599999999996
 21
355.05200000000002
  0
ARC
  8
_1-0_036085
  6
CONTINUOUS
 62
    2
 10
583.05399999999997
 20
353.43
 40
1
 50
255
 51
345
  0
LINE
  8
_1-0_036085
  6
CONTINUOUS
 62
    2
 10
563.47699999999997
 20
357.63999999999998
 11
573.13599999999996
 21
355.05200000000002
  0
ARC
  8
_1-0_036085
  6
CONTINUOUS
 62
    2
 10
563.73599999999998
 20
358.60599999999999
 40
1
 50
165
 51
255.00000000000002
  0
LINE
  8
_1-0_036085
  6
CENTER
 62
    3
 10
580.91899999999998
 20
384.09899999999998
 11
572.20600000000001
 21
351.579
  0
ARC
  8
_0-3_T31474
  6
CONTINUOUS
 62
    2
 10
556.01700000000005
 20
264.471
 40
100
 50
28.37800000000001
 51
70.965000000000003
  0
ARC
  8
_0-3_T31474
  6
CONTINUOUS
 62
    2
 10
529.92600000000004
 20
188.84499999999999
 40
180
 50
70.965000000000003
 51
81.432000000000002
  0
ARC
  8
_0-3_T31474
  6
CONTINUOUS
 62
    2
 10
556.27899999999999
 20
206.99200000000001
 40
180
 50
60.402000000000001
 51
82.937999999999988
  0
ARC
  8
_0-3_T31474
  6
CONTINUOUS
 62
    2
 10
670
 20
289.5
 40
50
 50
60.693999999999995
 51
68.832000000000007
  0
ARC
  8
_0-3_T31474
  6
CONTINUOUS
 62
    2
 10
670.77099999999995
 20
289.5
 40
50
 50
111.16799999999999
 51
119.30599999999999
  0
LINE
  8
_0-3_T31474
  6
CONTINUOUS
 62
    2
 10
644
 20
312
 11
644
 21
329.17700000000002
  0
LINE
  8
_0-3_T31474
  6
CONTINUOUS
 62
    2
 10
655.27199999999993
 20
339.85599999999999
 11
655.27199999999993
 21
343
  0
ARC
  8
_0-3_T31474
  6
CONTINUOUS
 62
    2
 10
648.5
 20
329.17700000000002
 40
4.5
 50
119.30599999999999
 51
180
  0
ARC
  8
_0-3_T31474
  6
CONTINUOUS
 62
    2
 10
651.27199999999993
 20
339.85599999999999
 40
4
 50
291.168
 51
0.0000000000000381
  0
LINE
  8
_0-3_T31474
  6
CONTINUOUS
 62
    2
 10
696.77099999999995
 20
312
 11
696.77099999999995
 21
329.17700000000002
  0
LINE
  8
_0-3_T31474
  6
CONTINUOUS
 62
    2
 10
685.5
 20
339.85599999999999
 11
685.5
 21
343
  0
ARC
  8
_0-3_T31474
  6
CONTINUOUS
 62
    2
 10
692.27099999999995
 20
329.17700000000002
 40
4.5
 50
0
 51
60.693999999999995
  0
ARC
  8
_0-3_T31474
  6
CONTINUOUS
 62
    2
 10
689.5
 20
339.85599999999999
 40
4
 50
180
 51
248.83200000000002
  0
INSERT
  2
-011-BDT42
  8
_0-3_T31474
 10
420
 20
297
 41
1
 42
1
 50
0
  0
ARC
  8
_0-3_T31474
  6
CONTINUOUS
 62
    2
 10
556.89099999999996
 20
367.82499999999998
 40
1
 50
165
 51
261.43200000000001
  0
LINE
  8
_0-3_T31474
  6
CONTINUOUS
 62
    2
 10
555.92499999999995
 20
368.084
 11
557.60199999999997
 21
374.341
  0
LINE
  8
_0-3_T31474
  6
CONTINUOUS
 62
    2
 10
644
 20
312
 11
696.77099999999995
 21
312
  0
ARC
  8
_0-3_T31474
  6
CONTINUOUS
 62
    2
 10
529.92600000000004
 20
188.84499999999999
 40
180
 50
70.965000000000003
 51
71.903999999999996
  0
LINE
  8
_0-6_042493
  6
CENTER
 62
    3
 10
669.98000000000001
 20
248.86199999999999
 11
669.98000000000001
 21
401.73900000000003
  0
LINE
  8
_0-2_BALN
  6
CONTINUOUS
 62
    4
 10
580.91899999999998
 20
384.09899999999998
 11
589.18299999999999
 21
414.93999999999999
  0
INSERT
  2
-001-ATP0
  8
_0-2_BALN
 10
573.13599999999996
 20
411.05200000000002
 41
4
 42
4
 50
180
  0
INSERT
  2
-001-ATP0
  8
_0-2_BALN
 10
587.62999999999999
 20
409.144
 41
4
 42
4
 50
345
  0
ARC
  8
_0-2_BALN
  6
CONTINUOUS
 62
    4
 10
573.13599999999996
 20
355.05200000000002
 40
56
 50
75
 51
90
  0
TEXT
  8
_0-2_BALN
 62
    7
 10
574.10260388031633
 20
413.94931232770557
 40
6
 41
1
 50
-11.808000000000051
  1
15°
  0
LINE
  8
_0-2_BALN
  6
CONTINUOUS
 62
    4
 10
644
 20
312
 11
542
 21
312
  0
ARC
  8
_0-4_024226
  6
CONTINUOUS
 62
    2
 10
269.98599999999987
 20
445.3777303930878
 40
21.25
 50
358.87700000000029
 51
89.999999999999985
  0
ARC
  8
_0-4_024226
  6
CONTINUOUS
 62
    2
 10
270
 20
183.89973039308779
 40
300
 50
82.342876919480858
 51
90
  0
ARC
  8
_0-4_024226
  6
CONTINUOUS
 62
    2
 10
300.69499999999999
 20
421.94673039308781
 40
10
 50
95.969999999999672
 51
178.10500000000351
  0
LINE
  8
_0-4_024226
  6
CENTER
 62
    3
 10
270
 20
457.1277303930878
 11
347.52599999999995
 21
457.1277303930878
  0
LINE
  8
_0-4_024226
  6
CENTER
 62
    3
 10
320.99999999999994
 20
485.52473039308779
 11
320.99999999999994
 21
428.18573039308779
  0
ARC
  8
_0-4_024226
  6
CONTINUOUS
 62
    2
 10
260.13300000000003
 20
809.83173039308769
 40
380
 50
275.96999999999968
 51
277.51512146546309
  0
ARC
  8
_0-4_024226
  6
PHANTOM-S
 62
    3
 10
270.01499999999987
 20
445.3777303930878
 40
21.25
 50
90
 51
90.037999999998746
  0
ARC
  8
_0-4_024226
  6
CONTINUOUS
 62
    2
 10
279.86699999999996
 20
809.83173039308769
 40
380
 50
261.45758940558459
 51
264.03000000000031
  0
LINE
  8
_0-4_024226
  6
CENTER
 62
    3
 10
219
 20
485.52473039308779
 11
219
 21
428.18573039308779
  0
LINE
  8
_0-4_024226
  6
CENTER
 62
    3
 10
270
 20
457.1277303930878
 11
192.4749999999999
 21
457.1277303930878
  0
ARC
  8
_0-4_024226
  6
CONTINUOUS
 62
    2
 10
239.30599999999989
 20
421.94673039308781
 40
10
 50
1.8949999999964992
 51
84.030000000000313
  0
ARC
  8
_0-4_024226
  6
CONTINUOUS
 62
    2
 10
270
 20
183.89973039308779
 40
300
 50
90
 51
98.962027372932681
  0
LINE
  8
_0-4_024226
  6
CENTER
 62
    3
 10
270
 20
335.12673039308788
 11
270
 21
487.63773039308779
  0
ARC
  8
_0-4_024226
  6
CONTINUOUS
 62
    2
 10
-1208.48
 20
471.87273039308769
 40
1500
 50
355.49178112928484
 51
358.97200000000123
  0
ARC
  8
_0-4_024226
  6
CONTINUOUS
 62
    2
 10
270
 20
365.26173039308787
 40
22.5
 50
270
 51
303.60100000000159
  0
ARC
  8
_0-4_024226
  6
CONTINUOUS
 62
    2
 10
276.91799999999989
 20
354.85073039308781
 40
10
 50
303.60100000000159
 51
355.49499999999801
  0
ARC
  8
_0-4_024226
  6
CONTINUOUS
 62
    2
 10
270.01399999999989
 20
445.3777303930878
 40
21.25
 50
90
 51
181.12299999999973
  0
ARC
  8
_0-4_024226
  6
CONTINUOUS
 62
    2
 10
1748.48
 20
471.87273039308769
 40
1500
 50
181.02799999999874
 51
184.50821887071512
  0
ARC
  8
_0-4_024226
  6
CONTINUOUS
 62
    2
 10
263.08199999999987
 20
354.85073039308781
 40
10
 50
184.50500000000192
 51
236.39899999999835
  0
ARC
  8
_0-4_024226
  6
CONTINUOUS
 62
    2
 10
270
 20
365.26173039308787
 40
22.5
 50
236.39899999999835
 51
270.00000000000005
  0
ARC
  8
_0-6_042493
  6
CONTINUOUS
 62
    2
 10
298.55099999999998
 20
473.01073039308789
 40
4
 50
324.72000000000252
 51
26.311999999998612
  0
ARC
  8
_0-6_042493
  6
CONTINUOUS
 62
    2
 10
318.47000000000002
 20
484.51073039308789
 40
4
 50
213.69000000000201
 51
275.27999999999667
  0
ARC
  8
_0-6_042493
  6
CONTINUOUS
 62
    2
 10
318.47000000000002
 20
429.74473039308782
 40
4
 50
84.720000000003267
 51
146.3119999999964
  0
ARC
  8
_0-6_042493
  6
CONTINUOUS
 62
    2
 10
298.55099999999998
 20
441.24473039308782
 40
4
 50
333.68900000000309
 51
35.279999999997464
  0
ARC
  8
_0-6_042493
  6
CONTINUOUS
 62
    2
 10
345.97999999999996
 20
468.6277303930878
 40
4
 50
204.72099999999781
 51
266.3120000000008
  0
ARC
  8
_0-6_042493
  6
CONTINUOUS
 62
    2
 10
345.97999999999996
 20
445.6277303930878
 40
4
 50
93.688999999999111
 51
155.28100000000009
  0
LINE
  8
_0-6_042493
  6
CENTER
 62
    3
 10
320.99999999999994
 20
457.1277303930878
 11
305.74599999999998
 21
430.7067303930878
  0
ARC
  8
_0-6_042493
  6
CONTINUOUS
 62
    2
 10
342.65099999999995
 20
419.6277303930878
 40
30
 50
90
 51
150.00099999999758
  0
ARC
  8
_0-6_042493
  6
CONTINUOUS
 62
    2
 10
314.30099999999998
 20
432.52373039308781
 40
1
 50
254.76799999999917
 51
329.99999999999948
  0
LINE
  8
_0-6_042493
  6
CONTINUOUS
 62
    2
 10
315.16700000000003
 20
432.02373039308781
 11
316.67000000000001
 21
434.6277303930878
  0
ARC
  8
_0-6_042493
  6
CONTINUOUS
 62
    2
 10
345.65799999999995
 20
450.6277303930878
 40
1
 50
270
 51
345.23299999999687
  0
LINE
  8
_0-6_042493
  6
CONTINUOUS
 62
    2
 10
345.65799999999995
 20
449.6277303930878
 11
342.65099999999995
 21
449.6277303930878
  0
ARC
  8
_0-6_042493
  6
CONTINUOUS
 62
    2
 10
320.99999999999994
 20
457.1277303930878
 40
23.5
 50
264.71999999999661
 51
335.28100000000011
  0
ARC
  8
_0-6_042493
  6
CONTINUOUS
 62
    2
 10
320.99999999999994
 20
457.1277303930878
 40
26.5
 50
239.99999999999948
 51
254.76799999999917
  0
ARC
  8
_0-6_042493
  6
CONTINUOUS
 62
    2
 10
320.99999999999994
 20
457.1277303930878
 40
26.5
 50
345.23299999999687
 51
0.0000000000000254
  0
ARC
  8
_0-6_042493
  6
CONTINUOUS
 62
    2
 10
320.99999999999994
 20
457.1277303930878
 40
24.5
 50
239.99999999999948
 51
254.76799999999917
  0
ARC
  8
_0-6_042493
  6
CONTINUOUS
 62
    2
 10
320.99999999999994
 20
457.1277303930878
 40
24.5
 50
345.23299999999687
 51
0.0000000000000254
  0
ARC
  8
_0-6_042493
  6
CONTINUOUS
 62
    2
 10
320.99999999999994
 20
457.1277303930878
 40
21.5
 50
264.71999999999661
 51
335.28100000000011
  0
ARC
  8
_0-6_042493
  6
CONTINUOUS
 62
    2
 10
320.99999999999994
 20
457.1277303930878
 40
21.5
 50
24.72000000000024
 51
95.28100000000154
  0
ARC
  8
_0-6_042493
  6
CONTINUOUS
 62
    2
 10
320.99999999999994
 20
457.1277303930878
 40
24.5
 50
105.2329999999974
 51
120.00099999999929
  0
ARC
  8
_0-6_042493
  6
CONTINUOUS
 62
    2
 10
320.99999999999994
 20
457.1277303930878
 40
24.5
 50
0
 51
14.768000000003349
  0
ARC
  8
_0-6_042493
  6
CONTINUOUS
 62
    2
 10
320.99999999999994
 20
457.1277303930878
 40
26.5
 50
105.2329999999974
 51
120.00099999999929
  0
ARC
  8
_0-6_042493
  6
CONTINUOUS
 62
    2
 10
320.99999999999994
 20
457.1277303930878
 40
26.5
 50
0
 51
14.768000000003349
  0
ARC
  8
_0-6_042493
  6
CONTINUOUS
 62
    2
 10
320.99999999999994
 20
457.1277303930878
 40
23.5
 50
24.72000000000024
 51
95.28100000000154
  0
LINE
  8
_0-6_042493
  6
CONTINUOUS
 62
    2
 10
315.16700000000003
 20
482.2317303930879
 11
316.67000000000001
 21
479.6277303930878
  0
ARC
  8
_0-6_042493
  6
CONTINUOUS
 62
    2
 10
314.30099999999998
 20
481.7317303930879
 40
1
 50
30.0000000000005
 51
105.23299999999741
  0
LINE
  8
_0-6_042493
  6
CONTINUOUS
 62
    2
 10
345.65799999999995
 20
464.6277303930878
 11
342.65099999999995
 21
464.6277303930878
  0
ARC
  8
_0-6_042493
  6
CONTINUOUS
 62
    2
 10
345.65799999999995
 20
463.6277303930878
 40
1
 50
14.768000000003349
 51
89.999999999999985
  0
ARC
  8
_0-6_042493
  6
CONTINUOUS
 62
    2
 10
342.65099999999995
 20
494.6277303930878
 40
30
 50
210.00099999999574
 51
270
  0
ARC
  8
_0-6_042493
  6
CONTINUOUS
 62
    2
 10
320.99999999999994
 20
457.1277303930878
 40
21.5
 50
144.72100000000278
 51
215.28100000000151
  0
ARC
  8
_0-6_042493
  6
CONTINUOUS
 62
    2
 10
320.99999999999994
 20
457.1277303930878
 40
24.5
 50
225.23300000000241
 51
239.99999999999948
  0
ARC
  8
_0-6_042493
  6
CONTINUOUS
 62
    2
 10
320.99999999999994
 20
457.1277303930878
 40
24.5
 50
120.00099999999929
 51
134.7680000000017
  0
ARC
  8
_0-6_042493
  6
CONTINUOUS
 62
    2
 10
320.99999999999994
 20
457.1277303930878
 40
26.5
 50
225.23300000000241
 51
239.99999999999948
  0
ARC
  8
_0-6_042493
  6
CONTINUOUS
 62
    2
 10
320.99999999999994
 20
457.1277303930878
 40
26.5
 50
120.00099999999929
 51
134.7680000000017
  0
ARC
  8
_0-6_042493
  6
CONTINUOUS
 62
    2
 10
320.99999999999994
 20
457.1277303930878
 40
23.5
 50
144.72100000000278
 51
215.28100000000151
  0
LINE
  8
_0-6_042493
  6
CONTINUOUS
 62
    2
 10
302.17599999999998
 20
439.52373039308781
 11
303.68
 21
442.1277303930878
  0
ARC
  8
_0-6_042493
  6
CONTINUOUS
 62
    2
 10
303.04200000000003
 20
439.02373039308781
 40
1
 50
150.00099999999758
 51
225.23300000000241
  0
LINE
  8
_0-6_042493
  6
CONTINUOUS
 62
    2
 10
302.17599999999998
 20
474.7317303930879
 11
303.68
 21
472.1277303930878
  0
ARC
  8
_0-6_042493
  6
CONTINUOUS
 62
    2
 10
303.04200000000003
 20
475.2317303930879
 40
1
 50
134.7680000000017
 51
210.00099999999571
  0
ARC
  8
_0-6_042493
  6
CONTINUOUS
 62
    2
 10
277.69900000000001
 20
457.1277303930878
 40
30
 50
330.0009999999977
 51
30.00000000000054
  0
LINE
  8
_0-6_042493
  6
CENTER
 62
    3
 10
320.99999999999994
 20
457.1277303930878
 11
305.74599999999998
 21
483.5487303930879
  0
CIRCLE
  8
_0-5_042385
  6
CONTINUOUS
 62
    2
 10
320.99999999999994
 20
457.1277303930878
 40
8.4999999999999857
  0
CIRCLE
  8
_0-5_042385
  6
CONTINUOUS
 62
    2
 10
320.99999999999994
 20
457.1277303930878
 40
8.4999999999999857
  0
ARC
  8
_0-6_042493
  6
CONTINUOUS
 62
    2
 10
320.99999999999994
 20
457.1277303930878
 40
26.5
 50
345.23299999999687
 51
0.0000000000000254
  0
ARC
  8
_0-6_042493
  6
CONTINUOUS
 62
    2
 10
320.99999999999994
 20
457.1277303930878
 40
26.5
 50
239.99999999999948
 51
254.76799999999917
  0
ARC
  8
_0-6_042493
  6
CONTINUOUS
 62
    2
 10
320.99999999999994
 20
457.1277303930878
 40
23.5
 50
264.71999999999661
 51
335.28100000000011
  0
LINE
  8
_0-6_042493
  6
CONTINUOUS
 62
    2
 10
345.65799999999995
 20
449.6277303930878
 11
342.65099999999995
 21
449.6277303930878
  0
ARC
  8
_0-6_042493
  6
CONTINUOUS
 62
    2
 10
345.65799999999995
 20
450.6277303930878
 40
1
 50
270
 51
345.23299999999687
  0
LINE
  8
_0-6_042493
  6
CONTINUOUS
 62
    2
 10
315.16700000000003
 20
432.02373039308781
 11
316.67000000000001
 21
434.6277303930878
  0
ARC
  8
_0-6_042493
  6
CONTINUOUS
 62
    2
 10
314.30099999999998
 20
432.52373039308781
 40
1
 50
254.76799999999917
 51
329.99999999999948
  0
ARC
  8
_0-6_042493
  6
CONTINUOUS
 62
    2
 10
342.65099999999995
 20
419.6277303930878
 40
30
 50
90
 51
150.00099999999758
  0
LINE
  8
_0-6_042493
  6
CENTER
 62
    3
 10
320.99999999999994
 20
457.1277303930878
 11
305.74599999999998
 21
430.7067303930878
  0
ARC
  8
_0-6_042493
  6
CONTINUOUS
 62
    2
 10
345.97999999999996
 20
445.6277303930878
 40
4
 50
93.688999999999111
 51
155.28100000000009
  0
ARC
  8
_0-6_042493
  6
CONTINUOUS
 62
    2
 10
345.97999999999996
 20
468.6277303930878
 40
4
 50
204.72099999999781
 51
266.3120000000008
  0
ARC
  8
_0-6_042493
  6
CONTINUOUS
 62
    2
 10
298.55099999999998
 20
441.24473039308782
 40
4
 50
333.68900000000309
 51
35.279999999997464
  0
ARC
  8
_0-6_042493
  6
CONTINUOUS
 62
    2
 10
318.47000000000002
 20
429.74473039308782
 40
4
 50
84.720000000003267
 51
146.3119999999964
  0
ARC
  8
_0-6_042493
  6
CONTINUOUS
 62
    2
 10
318.47000000000002
 20
484.51073039308789
 40
4
 50
213.69000000000201
 51
275.27999999999667
  0
ARC
  8
_0-6_042493
  6
CONTINUOUS
 62
    2
 10
298.55099999999998
 20
473.01073039308789
 40
4
 50
324.72000000000252
 51
26.311999999998612
  0
LINE
  8
_0-6_042493
  6
CENTER
 62
    3
 10
320.99999999999994
 20
457.1277303930878
 11
305.74599999999998
 21
483.5487303930879
  0
ARC
  8
_0-6_042493
  6
CONTINUOUS
 62
    2
 10
277.69900000000001
 20
457.1277303930878
 40
30
 50
330.0009999999977
 51
30.00000000000054
  0
ARC
  8
_0-6_042493
  6
CONTINUOUS
 62
    2
 10
303.04200000000003
 20
475.2317303930879
 40
1
 50
134.7680000000017
 51
210.00099999999571
  0
LINE
  8
_0-6_042493
  6
CONTINUOUS
 62
    2
 10
302.17599999999998
 20
474.7317303930879
 11
303.68
 21
472.1277303930878
  0
ARC
  8
_0-6_042493
  6
CONTINUOUS
 62
    2
 10
303.04200000000003
 20
439.02373039308781
 40
1
 50
150.00099999999758
 51
225.23300000000241
  0
LINE
  8
_0-6_042493
  6
CONTINUOUS
 62
    2
 10
302.17599999999998
 20
439.52373039308781
 11
303.68
 21
442.1277303930878
  0
ARC
  8
_0-6_042493
  6
CONTINUOUS
 62
    2
 10
320.99999999999994
 20
457.1277303930878
 40
26.5
 50
120.00099999999929
 51
134.7680000000017
  0
ARC
  8
_0-6_042493
  6
CONTINUOUS
 62
    2
 10
320.99999999999994
 20
457.1277303930878
 40
26.5
 50
225.23300000000241
 51
239.99999999999948
  0
ARC
  8
_0-6_042493
  6
CONTINUOUS
 62
    2
 10
320.99999999999994
 20
457.1277303930878
 40
24.5
 50
120.00099999999929
 51
134.7680000000017
  0
ARC
  8
_0-6_042493
  6
CONTINUOUS
 62
    2
 10
320.99999999999994
 20
457.1277303930878
 40
24.5
 50
225.23300000000241
 51
239.99999999999948
  0
ARC
  8
_0-6_042493
  6
CONTINUOUS
 62
    2
 10
320.99999999999994
 20
457.1277303930878
 40
21.5
 50
144.72100000000278
 51
215.28100000000151
  0
ARC
  8
_0-6_042493
  6
CONTINUOUS
 62
    2
 10
342.65099999999995
 20
494.6277303930878
 40
30
 50
210.00099999999574
 51
270
  0
ARC
  8
_0-6_042493
  6
CONTINUOUS
 62
    2
 10
345.65799999999995
 20
463.6277303930878
 40
1
 50
14.768000000003349
 51
89.999999999999985
  0
LINE
  8
_0-6_042493
  6
CONTINUOUS
 62
    2
 10
345.65799999999995
 20
464.6277303930878
 11
342.65099999999995
 21
464.6277303930878
  0
ARC
  8
_0-6_042493
  6
CONTINUOUS
 62
    2
 10
314.30099999999998
 20
481.7317303930879
 40
1
 50
30.0000000000005
 51
105.23299999999741
  0
LINE
  8
_0-6_042493
  6
CONTINUOUS
 62
    2
 10
315.16700000000003
 20
482.2317303930879
 11
316.67000000000001
 21
479.6277303930878
  0
ARC
  8
_0-6_042493
  6
CONTINUOUS
 62
    2
 10
320.99999999999994
 20
457.1277303930878
 40
23.5
 50
24.72000000000024
 51
95.28100000000154
  0
ARC
  8
_0-6_042493
  6
CONTINUOUS
 62
    2
 10
320.99999999999994
 20
457.1277303930878
 40
26.5
 50
0
 51
14.768000000003349
  0
ARC
  8
_0-6_042493
  6
CONTINUOUS
 62
    2
 10
320.99999999999994
 20
457.1277303930878
 40
26.5
 50
105.2329999999974
 51
120.00099999999929
  0
ARC
  8
_0-6_042493
  6
CONTINUOUS
 62
    2
 10
320.99999999999994
 20
457.1277303930878
 40
24.5
 50
0
 51
14.768000000003349
  0
ARC
  8
_0-6_042493
  6
CONTINUOUS
 62
    2
 10
320.99999999999994
 20
457.1277303930878
 40
24.5
 50
105.2329999999974
 51
120.00099999999929
  0
ARC
  8
_0-6_042493
  6
CONTINUOUS
 62
    2
 10
320.99999999999994
 20
457.1277303930878
 40
21.5
 50
24.72000000000024
 51
95.28100000000154
  0
ARC
  8
_0-6_042493
  6
CONTINUOUS
 62
    2
 10
320.99999999999994
 20
457.1277303930878
 40
21.5
 50
264.71999999999661
 51
335.28100000000011
  0
ARC
  8
_0-6_042493
  6
CONTINUOUS
 62
    2
 10
320.99999999999994
 20
457.1277303930878
 40
24.5
 50
345.23299999999687
 51
0.0000000000000254
  0
ARC
  8
_0-6_042493
  6
CONTINUOUS
 62
    2
 10
320.99999999999994
 20
457.1277303930878
 40
24.5
 50
239.99999999999948
 51
254.76799999999917
  0
ARC
  8
_0-6_042493
  6
CONTINUOUS
 62
    2
 10
320.99999999999994
 20
457.1277303930878
 40
23.5
 50
144.72100000000278
 51
215.28100000000151
  0
ARC
  8
_0-6_042493
  6
CONTINUOUS
 62
    2
 10
219
 20
457.1277303930878
 40
24.5
 50
239.99999999999948
 51
254.76799999999917
  0
ARC
  8
_0-6_042493
  6
CONTINUOUS
 62
    2
 10
219
 20
457.1277303930878
 40
24.5
 50
345.23299999999687
 51
0.0000000000000254
  0
ARC
  8
_0-6_042493
  6
CONTINUOUS
 62
    2
 10
219
 20
457.1277303930878
 40
21.5
 50
264.71999999999661
 51
335.28100000000011
  0
ARC
  8
_0-6_042493
  6
CONTINUOUS
 62
    2
 10
219
 20
457.1277303930878
 40
21.5
 50
24.72000000000024
 51
95.28100000000154
  0
ARC
  8
_0-6_042493
  6
CONTINUOUS
 62
    2
 10
219
 20
457.1277303930878
 40
24.5
 50
105.2329999999974
 51
120.00099999999929
  0
ARC
  8
_0-6_042493
  6
CONTINUOUS
 62
    2
 10
219
 20
457.1277303930878
 40
24.5
 50
0
 51
14.768000000003349
  0
ARC
  8
_0-6_042493
  6
CONTINUOUS
 62
    2
 10
219
 20
457.1277303930878
 40
26.5
 50
105.2329999999974
 51
120.00099999999929
  0
ARC
  8
_0-6_042493
  6
CONTINUOUS
 62
    2
 10
219
 20
457.1277303930878
 40
26.5
 50
0
 51
14.768000000003349
  0
ARC
  8
_0-6_042493
  6
CONTINUOUS
 62
    2
 10
219
 20
457.1277303930878
 40
23.5
 50
24.72000000000024
 51
95.28100000000154
  0
LINE
  8
_0-6_042493
  6
CONTINUOUS
 62
    2
 10
213.16699999999988
 20
482.2317303930879
 11
214.6699999999999
 21
479.6277303930878
  0
ARC
  8
_0-6_042493
  6
CONTINUOUS
 62
    2
 10
212.3009999999999
 20
481.7317303930879
 40
1
 50
30.0000000000005
 51
105.23299999999741
  0
LINE
  8
_0-6_042493
  6
CONTINUOUS
 62
    2
 10
243.6579999999999
 20
464.6277303930878
 11
240.65100000000001
 21
464.6277303930878
  0
ARC
  8
_0-6_042493
  6
CONTINUOUS
 62
    2
 10
243.6579999999999
 20
463.6277303930878
 40
1
 50
14.768000000003349
 51
89.999999999999985
  0
ARC
  8
_0-6_042493
  6
CONTINUOUS
 62
    2
 10
240.65100000000001
 20
494.6277303930878
 40
30
 50
210.00099999999574
 51
270
  0
ARC
  8
_0-6_042493
  6
CONTINUOUS
 62
    2
 10
219
 20
457.1277303930878
 40
24.5
 50
225.23300000000241
 51
239.99999999999948
  0
ARC
  8
_0-6_042493
  6
CONTINUOUS
 62
    2
 10
219
 20
457.1277303930878
 40
24.5
 50
120.00099999999929
 51
134.7680000000017
  0
ARC
  8
_0-6_042493
  6
CONTINUOUS
 62
    2
 10
219
 20
457.1277303930878
 40
26.5
 50
225.23300000000241
 51
239.99999999999948
  0
ARC
  8
_0-6_042493
  6
CONTINUOUS
 62
    2
 10
219
 20
457.1277303930878
 40
26.5
 50
120.00099999999929
 51
134.7680000000017
  0
LINE
  8
_0-6_042493
  6
CONTINUOUS
 62
    2
 10
200.1759999999999
 20
439.52373039308781
 11
201.67999999999989
 21
442.1277303930878
  0
ARC
  8
_0-6_042493
  6
CONTINUOUS
 62
    2
 10
201.04199999999988
 20
439.02373039308781
 40
1
 50
150.00099999999758
 51
225.23300000000241
  0
LINE
  8
_0-6_042493
  6
CONTINUOUS
 62
    2
 10
200.1759999999999
 20
474.7317303930879
 11
201.67999999999989
 21
472.1277303930878
  0
ARC
  8
_0-6_042493
  6
CONTINUOUS
 62
    2
 10
201.04199999999988
 20
475.2317303930879
 40
1
 50
134.7680000000017
 51
210.00099999999571
  0
ARC
  8
_0-6_042493
  6
CONTINUOUS
 62
    2
 10
175.69900000000009
 20
457.1277303930878
 40
30
 50
330.0009999999977
 51
30.00000000000054
  0
LINE
  8
_0-6_042493
  6
CENTER
 62
    3
 10
219
 20
457.1277303930878
 11
203.74599999999989
 21
483.5487303930879
  0
ARC
  8
_0-6_042493
  6
CONTINUOUS
 62
    2
 10
196.55099999999998
 20
473.01073039308789
 40
4
 50
324.72000000000252
 51
26.311999999998612
  0
ARC
  8
_0-6_042493
  6
CONTINUOUS
 62
    2
 10
216.46999999999999
 20
484.51073039308789
 40
4
 50
213.69000000000201
 51
275.27999999999667
  0
ARC
  8
_0-6_042493
  6
CONTINUOUS
 62
    2
 10
196.55099999999998
 20
441.24473039308782
 40
4
 50
333.68900000000309
 51
35.279999999997464
  0
ARC
  8
_0-6_042493
  6
CONTINUOUS
 62
    2
 10
243.97999999999998
 20
468.6277303930878
 40
4
 50
204.72099999999781
 51
266.3120000000008
  0
ARC
  8
_0-6_042493
  6
CONTINUOUS
 62
    2
 10
243.97999999999998
 20
445.6277303930878
 40
4
 50
93.688999999999111
 51
155.28100000000009
  0
ARC
  8
_0-6_042493
  6
CONTINUOUS
 62
    2
 10
240.65100000000001
 20
419.6277303930878
 40
30
 50
90
 51
150.00099999999758
  0
ARC
  8
_0-6_042493
  6
CONTINUOUS
 62
    2
 10
243.6579999999999
 20
450.6277303930878
 40
1
 50
270
 51
345.23299999999687
  0
LINE
  8
_0-6_042493
  6
CONTINUOUS
 62
    2
 10
243.6579999999999
 20
449.6277303930878
 11
240.65100000000001
 21
449.6277303930878
  0
ARC
  8
_0-6_042493
  6
CONTINUOUS
 62
    2
 10
219
 20
457.1277303930878
 40
23.5
 50
264.71999999999661
 51
335.28100000000011
  0
ARC
  8
_0-6_042493
  6
CONTINUOUS
 62
    2
 10
219
 20
457.1277303930878
 40
26.5
 50
345.23299999999687
 51
0.0000000000000254
  0
CIRCLE
  8
_0-5_042385
  6
CONTINUOUS
 62
    2
 10
219
 20
457.1277303930878
 40
8.4999999999999857
  0
CIRCLE
  8
_0-5_042385
  6
CONTINUOUS
 62
    2
 10
219
 20
457.1277303930878
 40
8.4999999999999857
  0
ARC
  8
_0-6_042493
  6
CONTINUOUS
 62
    2
 10
219
 20
457.1277303930878
 40
26.5
 50
345.23299999999687
 51
0.0000000000000254
  0
ARC
  8
_0-6_042493
  6
CONTINUOUS
 62
    2
 10
219
 20
457.1277303930878
 40
23.5
 50
264.71999999999661
 51
335.28100000000011
  0
LINE
  8
_0-6_042493
  6
CONTINUOUS
 62
    2
 10
243.6579999999999
 20
449.6277303930878
 11
240.65100000000001
 21
449.6277303930878
  0
ARC
  8
_0-6_042493
  6
CONTINUOUS
 62
    2
 10
243.6579999999999
 20
450.6277303930878
 40
1
 50
270
 51
345.23299999999687
  0
ARC
  8
_0-6_042493
  6
CONTINUOUS
 62
    2
 10
240.65100000000001
 20
419.6277303930878
 40
30
 50
90
 51
150.00099999999758
  0
ARC
  8
_0-6_042493
  6
CONTINUOUS
 62
    2
 10
243.97999999999998
 20
445.6277303930878
 40
4
 50
93.688999999999111
 51
155.28100000000009
  0
ARC
  8
_0-6_042493
  6
CONTINUOUS
 62
    2
 10
243.97999999999998
 20
468.6277303930878
 40
4
 50
204.72099999999781
 51
266.3120000000008
  0
ARC
  8
_0-6_042493
  6
CONTINUOUS
 62
    2
 10
196.55099999999998
 20
441.24473039308782
 40
4
 50
333.68900000000309
 51
35.279999999997464
  0
ARC
  8
_0-6_042493
  6
CONTINUOUS
 62
    2
 10
216.46999999999999
 20
484.51073039308789
 40
4
 50
213.69000000000201
 51
275.27999999999667
  0
ARC
  8
_0-6_042493
  6
CONTINUOUS
 62
    2
 10
196.55099999999998
 20
473.01073039308789
 40
4
 50
324.72000000000252
 51
26.311999999998612
  0
LINE
  8
_0-6_042493
  6
CENTER
 62
    3
 10
219
 20
457.1277303930878
 11
203.74599999999989
 21
483.5487303930879
  0
ARC
  8
_0-6_042493
  6
CONTINUOUS
 62
    2
 10
175.69900000000009
 20
457.1277303930878
 40
30
 50
330.0009999999977
 51
30.00000000000054
  0
ARC
  8
_0-6_042493
  6
CONTINUOUS
 62
    2
 10
201.04199999999988
 20
475.2317303930879
 40
1
 50
134.7680000000017
 51
210.00099999999571
  0
LINE
  8
_0-6_042493
  6
CONTINUOUS
 62
    2
 10
200.1759999999999
 20
474.7317303930879
 11
201.67999999999989
 21
472.1277303930878
  0
ARC
  8
_0-6_042493
  6
CONTINUOUS
 62
    2
 10
201.04199999999988
 20
439.02373039308781
 40
1
 50
150.00099999999758
 51
225.23300000000241
  0
LINE
  8
_0-6_042493
  6
CONTINUOUS
 62
    2
 10
200.1759999999999
 20
439.52373039308781
 11
201.67999999999989
 21
442.1277303930878
  0
ARC
  8
_0-6_042493
  6
CONTINUOUS
 62
    2
 10
219
 20
457.1277303930878
 40
26.5
 50
120.00099999999929
 51
134.7680000000017
  0
ARC
  8
_0-6_042493
  6
CONTINUOUS
 62
    2
 10
219
 20
457.1277303930878
 40
26.5
 50
225.23300000000241
 51
239.99999999999948
  0
ARC
  8
_0-6_042493
  6
CONTINUOUS
 62
    2
 10
219
 20
457.1277303930878
 40
24.5
 50
120.00099999999929
 51
134.7680000000017
  0
ARC
  8
_0-6_042493
  6
CONTINUOUS
 62
    2
 10
219
 20
457.1277303930878
 40
24.5
 50
225.23300000000241
 51
239.99999999999948
  0
ARC
  8
_0-6_042493
  6
CONTINUOUS
 62
    2
 10
240.65100000000001
 20
494.6277303930878
 40
30
 50
210.00099999999574
 51
270
  0
ARC
  8
_0-6_042493
  6
CONTINUOUS
 62
    2
 10
243.6579999999999
 20
463.6277303930878
 40
1
 50
14.768000000003349
 51
89.999999999999985
  0
LINE
  8
_0-6_042493
  6
CONTINUOUS
 62
    2
 10
243.6579999999999
 20
464.6277303930878
 11
240.65100000000001
 21
464.6277303930878
  0
ARC
  8
_0-6_042493
  6
CONTINUOUS
 62
    2
 10
212.3009999999999
 20
481.7317303930879
 40
1
 50
30.0000000000005
 51
105.23299999999741
  0
LINE
  8
_0-6_042493
  6
CONTINUOUS
 62
    2
 10
213.16699999999988
 20
482.2317303930879
 11
214.6699999999999
 21
479.6277303930878
  0
ARC
  8
_0-6_042493
  6
CONTINUOUS
 62
    2
 10
219
 20
457.1277303930878
 40
23.5
 50
24.72000000000024
 51
95.28100000000154
  0
ARC
  8
_0-6_042493
  6
CONTINUOUS
 62
    2
 10
219
 20
457.1277303930878
 40
26.5
 50
0
 51
14.768000000003349
  0
ARC
  8
_0-6_042493
  6
CONTINUOUS
 62
    2
 10
219
 20
457.1277303930878
 40
26.5
 50
105.2329999999974
 51
120.00099999999929
  0
ARC
  8
_0-6_042493
  6
CONTINUOUS
 62
    2
 10
219
 20
457.1277303930878
 40
24.5
 50
0
 51
14.768000000003349
  0
ARC
  8
_0-6_042493
  6
CONTINUOUS
 62
    2
 10
219
 20
457.1277303930878
 40
24.5
 50
105.2329999999974
 51
120.00099999999929
  0
ARC
  8
_0-6_042493
  6
CONTINUOUS
 62
    2
 10
219
 20
457.1277303930878
 40
21.5
 50
24.72000000000024
 51
95.28100000000154
  0
ARC
  8
_0-6_042493
  6
CONTINUOUS
 62
    2
 10
219
 20
457.1277303930878
 40
21.5
 50
264.71999999999661
 51
335.28100000000011
  0
ARC
  8
_0-6_042493
  6
CONTINUOUS
 62
    2
 10
219
 20
457.1277303930878
 40
24.5
 50
345.23299999999687
 51
0.0000000000000254
  0
ARC
  8
_0-6_042493
  6
CONTINUOUS
 62
    2
 10
219
 20
457.1277303930878
 40
24.5
 50
239.99999999999948
 51
254.76799999999917
  0
ARC
  8
_0-6_042493
  6
CONTINUOUS
 62
    2
 10
219
 20
457.1277303930878
 40
23.5
 50
144.72100000000278
 51
215.28100000000151
  0
ARC
  8
_0-6_042493
  6
CONTINUOUS
 62
    2
 10
219
 20
457.1277303930878
 40
21.5
 50
144.72100000000278
 51
215.28100000000151
  0
ARC
  8
_0-6_042493
  6
CONTINUOUS
 62
    2
 10
219
 20
457.1277303930878
 40
23.5
 50
144.72100000000278
 51
215.28100000000151
  0
ARC
  8
_0-6_042493
  6
CONTINUOUS
 62
    2
 10
219
 20
457.1277303930878
 40
21.5
 50
144.72100000000278
 51
215.28100000000151
  0
ARC
  8
_0-6_042493
  6
CONTINUOUS
 62
    2
 10
216.46999999999999
 20
429.74473039308782
 40
4
 50
84.720000000003267
 51
146.3119999999964
  0
ARC
  8
_0-6_042493
  6
CONTINUOUS
 62
    2
 10
212.3009999999999
 20
432.52373039308781
 40
1
 50
254.76799999999917
 51
329.99999999999948
  0
LINE
  8
_0-6_042493
  6
CONTINUOUS
 62
    2
 10
213.16699999999988
 20
432.02373039308781
 11
214.6699999999999
 21
434.6277303930878
  0
ARC
  8
_0-6_042493
  6
CONTINUOUS
 62
    2
 10
219
 20
457.1277303930878
 40
26.5
 50
239.99999999999948
 51
254.76799999999917
  0
ARC
  8
_0-6_042493
  6
CONTINUOUS
 62
    2
 10
219
 20
457.1277303930878
 40
26.5
 50
239.99999999999948
 51
254.76799999999917
  0
LINE
  8
_0-6_042493
  6
CONTINUOUS
 62
    2
 10
213.16699999999988
 20
432.02373039308781
 11
214.6699999999999
 21
434.6277303930878
  0
ARC
  8
_0-6_042493
  6
CONTINUOUS
 62
    2
 10
212.3009999999999
 20
432.52373039308781
 40
1
 50
254.76799999999917
 51
329.99999999999948
  0
ARC
  8
_0-6_042493
  6
CONTINUOUS
 62
    2
 10
216.46999999999999
 20
429.74473039308782
 40
4
 50
84.720000000003267
 51
146.3119999999964
  0
LINE
  8
_0-6_042493
  6
CENTER
 62
    3
 10
219
 20
457.1277303930878
 11
203.74599999999989
 21
430.7067303930878
  0
LINE
  8
_0-2_BALN
  6
CENTER
 62
    3
 10
628.67599999999993
 20
318.02199999999999
 11
643.67599999999993
 21
318.02199999999999
  0
LINE
  8
_0-2_BALN
  6
CENTER
 62
    3
 10
636.17599999999993
 20
325.52199999999999
 11
636.17599999999993
 21
310.52199999999999
  0
LINE
  8
_0-7_024272
  6
CENTER
 62
    3
 10
632.69611215929717
 20
315.58500075429742
 11
643.67411215929723
 21
323.27300075429741
  0
LINE
  8
_0-9_410748
  6
CENTER
 62
    3
 10
633.6711121592973
 20
321.60000075429741
 11
638.90211215929741
 21
314.12800075429743
  0
ARC
  8
_0-9_410748
  6
CONTINUOUS
 62
    2
 10
632.69411215929733
 20
318.63600075429741
 40
0.5
 50
125.00200000000342
 51
215.0020000000012
  0
LINE
  8
_0-9_410748
  6
CONTINUOUS
 62
    2
 10
637.32211215929726
 20
322.48700075429741
 11
632.40711215929718
 21
319.04600075429749
  0
ARC
  8
_0-9_410748
  6
CONTINUOUS
 62
    2
 10
636.17611215929719
 20
318.02200075429732
 40
1.5
 50
352.84900000000033
 51
179.92700000000007
  0
LINE
  8
_0-9_410748
  6
CONTINUOUS
 62
    2
 10
636.04611215929742
 20
314.26900075429739
 11
640.76411215929726
 21
317.57200075429739
  0
LINE
  8
_0-9_410748
  6
CONTINUOUS
 62
    2
 10
633.67711215929728
 20
316.36100075429743
 11
632.28411215929736
 21
318.34900075429732
  0
LINE
  8
_0-8_653058
  6
CENTER
 62
    3
 10
627.00811215929729
 20
256.4110007542975
 11
627.91311215929727
 21
308.23600075429743
  0
ARC
  8
_0-8_653058
  6
CONTINUOUS
 62
    2
 10
636.17611215929719
 20
318.02200075429732
 40
1.199999999999999
 50
21.59700000000031
 51
105.9200000000003
  0
LINE
  8
_0-8_653058
  6
CONTINUOUS
 62
    2
 10
628.82611215929739
 20
309.04700075429741
 11
626.62511215929725
 21
304.53500075429735
  0
LINE
  8
_0-8_653058
  6
CONTINUOUS
 62
    2
 10
635.13511215929725
 20
318.78800075429739
 11
627.83011215929718
 21
303.81100075429742
  0
LINE
  8
_0-8_653058
  6
CONTINUOUS
 62
    2
 10
636.39311215929728
 20
318.17400075429742
 11
629.08811215929733
 21
303.19700075429739
  0
LINE
  8
_0-8_653058
  6
CONTINUOUS
 62
    2
 10
637.59811215929732
 20
317.45000075429743
 11
635.39711215929719
 21
312.93800075429737
  0
LINE
  8
_0-8_653058
  6
CONTINUOUS
 62
    2
 10
629.51611215929733
 20
309.4370007542974
 11
635.16611215929719
 21
318.84000075429742
  0
LINE
  8
_0-8_653058
  6
CONTINUOUS
 62
    2
 10
634.70711215929736
 20
312.54800075429739
 11
629.05711215929727
 21
303.14500075429737
  0
ARC
  8
_0-8_653058
  6
CONTINUOUS
 62
    2
 10
629.4551121592973
 20
308.74000075429739
 40
0.6999999999999999
 50
334.00099999999832
 51
154.00299999999901
  0
ARC
  8
_0-8_653058
  6
CONTINUOUS
 62
    2
 10
627.25411215929727
 20
304.22800075429734
 40
0.6999999999999999
 50
154.00299999999899
 51
334.00099999999832
  0
ARC
  8
_0-8_653058
  6
CONTINUOUS
 62
    2
 10
628.45911215929743
 20
303.5040007542974
 40
0.6999999999999999
 50
154.00299999999899
 51
334.00099999999832
  0
ARC
  8
_0-8_653058
  6
CONTINUOUS
 62
    2
 10
634.76811215929728
 20
313.24500075429739
 40
0.6999999999999999
 50
154.00299999999899
 51
334.00099999999832
  0
ARC
  8
_0-8_653058
  6
CONTINUOUS
 62
    2
 10
636.96811215929733
 20
317.75700075429745
 40
0.6999999999999999
 50
334.00099999999832
 51
154.00299999999901
  0
ARC
  8
_0-8_653058
  6
CONTINUOUS
 62
    2
 10
635.76411215929726
 20
318.48100075429738
 40
0.6999999999999999
 50
329.0009999999981
 51
149.00299999999921
  0
LINE
  8
_0-8_653058
  6
CENTER
 62
    3
 10
634.72511215929728
 20
309.42200075429741
 11
629.59711215929723
 21
312.50300075429743
  0
LINE
  8
_0-8_653058
  6
CONTINUOUS
 62
    2
 10
627.15411215929725
 20
301.99800075429743
 11
627.02311215929739
 21
294.49100075429737
  0
LINE
  8
_0-8_653058
  6
CONTINUOUS
 62
    2
 10
628.45411215929732
 20
301.97600075429738
 11
628.32211215929726
 21
294.46800075429746
  0
LINE
  8
_0-8_653058
  6
CONTINUOUS
 62
    2
 10
630.03711215929729
 20
301.02900075429738
 11
629.92211215929728
 21
294.44000075429744
  0
LINE
  8
_0-8_653058
  6
CONTINUOUS
 62
    2
 10
625.53811215929727
 20
301.10800075429733
 11
625.42311215929726
 21
294.51900075429739
  0
LINE
  8
_0-8_653058
  6
CONTINUOUS
 62
    2
 10
625.52811215929727
 20
300.51800075429741
 11
630.02711215929741
 21
300.43900075429735
  0
LINE
  8
_0-8_653058
  6
CONTINUOUS
 62
    2
 10
627.03111215929732
 20
294.99100075429737
 11
628.33111215929716
 21
294.96800075429746
  0
LINE
  8
_0-8_653058
  6
CONTINUOUS
 62
    2
 10
629.92211215929728
 20
294.44000075429744
 11
628.32211215929726
 21
294.46800075429746
  0
LINE
  8
_0-8_653058
  6
CONTINUOUS
 62
    2
 10
627.02311215929739
 20
294.49100075429737
 11
625.42311215929726
 21
294.51900075429739
  0
LINE
  8
_0-8_653058
  6
CENTER
 62
    3
 10
624.41211215929729
 20
297.53700075429742
 11
630.62411215929728
 21
297.42900075429741
  0
LINE
  8
_0-8_653058
  6
CENTER
 62
    3
 10
622.73611215929736
 20
303.96700075429737
 11
632.31411215929733
 21
303.80000075429734
  0
ARC
  8
_0-8_653058
  6
CONTINUOUS
 62
    2
 10
627.83711215929724
 20
303.87800075429743
 40
3.6
 50
307.68300000000374
 51
35.707999999999209
  0
ARC
  8
_0-8_653058
  6
CONTINUOUS
 62
    2
 10
627.83711215929724
 20
303.87800075429743
 40
3.6
 50
86.481999999999686
 51
230.32000000000078
  0
ARC
  8
_0-8_653058
  6
CONTINUOUS
 62
    2
 10
627.83711215929724
 20
303.87800075429743
 40
2
 50
107.4980000000027
 51
13.623000000000956
  0
CIRCLE
  8
_0-8_653058
  6
CONTINUOUS
 62
    2
 10
627.62511215929725
 20
291.7300007542974
 40
1.75
  0
CIRCLE
  8
_0-8_653058
  6
CONTINUOUS
 62
    2
 10
627.53711215929729
 20
286.73100075429738
 40
1.75
  0
CIRCLE
  8
_0-8_653058
  6
CONTINUOUS
 62
    2
 10
627.45011215929741
 20
281.73200075429741
 40
1.75
  0
CIRCLE
  8
_0-8_653058
  6
CONTINUOUS
 62
    2
 10
627.36311215929742
 20
276.73200075429735
 40
1.75
  0
CIRCLE
  8
_0-8_653058
  6
CONTINUOUS
 62
    2
 10
627.27611215929744
 20
271.73300075429733
 40
1.75
  0
LINE
  8
_0-8_653058
  6
CONTINUOUS
 62
    2
 10
628.04511215929733
 20
290.03100075429739
 11
628.01711215929742
 21
288.41400075429737
  0
LINE
  8
_0-8_653058
  6
CONTINUOUS
 62
    2
 10
627.14511215929724
 20
290.04700075429741
 11
627.11711215929733
 21
288.4300007542975
  0
LINE
  8
_0-8_653058
  6
CONTINUOUS
 62
    2
 10
627.78311215929727
 20
275.03400075429738
 11
627.75511215929736
 21
273.41600075429744
  0
LINE
  8
_0-8_653058
  6
CONTINUOUS
 62
    2
 10
626.88311215929741
 20
275.04900075429736
 11
626.85511215929727
 21
273.4320007542974
  0
LINE
  8
_0-8_653058
  6
CONTINUOUS
 62
    2
 10
627.95811215929734
 20
285.03200075429748
 11
627.92911215929734
 21
283.41500075429735
  0
LINE
  8
_0-8_653058
  6
CONTINUOUS
 62
    2
 10
627.87011215929726
 20
280.03300075429746
 11
627.84211215929735
 21
278.41500075429735
  0
LINE
  8
_0-8_653058
  6
CONTINUOUS
 62
    2
 10
627.05811215929725
 20
285.04800075429739
 11
627.03011215929723
 21
283.43000075429745
  0
LINE
  8
_0-8_653058
  6
CONTINUOUS
 62
    2
 10
626.97111215929726
 20
280.04900075429742
 11
626.94211215929726
 21
278.43100075429748
  0
LINE
  8
_0-8_653058
  6
CONTINUOUS
 62
    2
 10
628.13111215929734
 20
294.97200075429742
 11
628.10411215929741
 21
293.41300075429745
  0
LINE
  8
_0-8_653058
  6
CONTINUOUS
 62
    2
 10
627.23111215929725
 20
294.98700075429741
 11
627.20411215929732
 21
293.42900075429741
  0
INSERT
  2
-014-BDT114
  8
_0-8_653058
 10
610.00011215929725
 20
317.00000075429744
 41
1
 42
1
 50
0
  0
LINE
  8
_0-8_653058
  6
CONTINUOUS
 62
    2
 10
626.70911215929743
 20
265.05100075429743
 11
626.6951121592973
 21
264.26700075429744
  0
LINE
  8
_0-8_653058
  6
CONTINUOUS
 62
    2
 10
626.79611215929742
 20
270.05000075429734
 11
626.76811215929728
 21
268.43300075429738
  0
LINE
  8
_0-8_653058
  6
CONTINUOUS
 62
    2
 10
627.60911215929718
 20
265.03500075429741
 11
627.59411215929742
 21
264.19000075429744
  0
LINE
  8
_0-8_653058
  6
CONTINUOUS
 62
    2
 10
627.69611215929717
 20
270.03400075429738
 11
627.66811215929726
 21
268.41700075429747
  0
CIRCLE
  8
_0-8_653058
  6
CONTINUOUS
 62
    2
 10
627.18811215929736
 20
266.73400075429731
 40
1.75
  0
LINE
  8
_0-8_653058
  6
CENTER
 62
    3
 10
603.4641121592972
 20
229.79200075429744
 11
604.54911215929723
 21
291.98400075429742
  0
LINE
  8
_0-8_653058
  6
CENTER
 62
    3
 10
604.54911215929723
 20
291.98400075429742
 11
627.00811215929729
 21
256.4110007542975
  0
LINE
  8
_0-8_653058
  6
CONTINUOUS
 62
    2
 10
586.18011215929732
 20
242.2890007542974
 11
603.67711215929728
 21
241.98400075429734
  0
LINE
  8
_0-8_653058
  6
CONTINUOUS
 62
    2
 10
603.45611215929727
 20
257.99000075429739
 11
604.45611215929727
 21
257.97200075429736
  0
ARC
  8
_0-8_653058
  6
CONTINUOUS
 62
    2
 10
605.07211215929726
 20
264.60800075429733
 40
0.5
 50
105.6029999999972
 51
179.00200000000049
  0
LINE
  8
_0-8_653058
  6
CONTINUOUS
 62
    2
 10
604.57211215929726
 20
264.61700075429735
 11
604.45611215929727
 21
257.97200075429736
  0
ARC
  8
_0-8_653058
  6
CONTINUOUS
 62
    2
 10
604.57911215929732
 20
265.01300075429742
 40
0.5
 50
98.595000000003096
 51
179.00200000000049
  0
ARC
  8
_0-8_653058
  6
CONTINUOUS
 62
    2
 10
603.57911215929721
 20
265.03100075429733
 40
0.5
 50
359.00200000000046
 51
79.407000000002739
  0
ARC
  8
_0-8_653058
  6
CONTINUOUS
 62
    2
 10
603.07211215929726
 20
264.64300075429741
 40
0.5
 50
359.00200000000046
 51
72.398999999998949
  0
LINE
  8
_0-8_653058
  6
CONTINUOUS
 62
    2
 10
603.57211215929726
 20
264.63500075429737
 11
603.45611215929727
 21
257.99000075429739
  0
ARC
  8
_0-8_653058
  6
CONTINUOUS
 62
    2
 10
604.13011215929736
 20
267.9800007542974
 40
2.5
 50
278.5939999999988
 51
259.40600000000125
  0
ARC
  8
_0-8_653058
  6
CONTINUOUS
 62
    2
 10
604.13011215929736
 20
267.9800007542974
 40
3
 50
285.60100000000028
 51
252.39899999999906
  0
CIRCLE
  8
_0-8_653058
  6
CONTINUOUS
 62
    2
 10
604.23111215929725
 20
273.72900075429743
 40
1.75
  0
CIRCLE
  8
_0-8_653058
  6
CONTINUOUS
 62
    2
 10
604.31811215929724
 20
278.72800075429751
 40
1.75
  0
CIRCLE
  8
_0-8_653058
  6
CONTINUOUS
 62
    2
 10
604.40511215929723
 20
283.72700075429736
 40
1.75
  0
LINE
  8
_0-8_653058
  6
CONTINUOUS
 62
    2
 10
604.63211215929732
 20
270.9370007542974
 11
604.65111215929744
 21
272.03000075429736
  0
LINE
  8
_0-8_653058
  6
CONTINUOUS
 62
    2
 10
603.73211215929723
 20
270.95300075429736
 11
603.75111215929723
 21
272.04600075429743
  0
LINE
  8
_0-8_653058
  6
CONTINUOUS
 62
    2
 10
604.71011215929729
 20
275.41200075429742
 11
604.73811215929742
 21
277.02900075429744
  0
LINE
  8
_0-8_653058
  6
CONTINUOUS
 62
    2
 10
603.8101121592972
 20
275.4270007542974
 11
603.8391121592972
 21
277.04500075429746
  0
LINE
  8
_0-8_653058
  6
CONTINUOUS
 62
    2
 10
604.79811215929726
 20
280.4110007542975
 11
604.82611215929728
 21
282.02800075429746
  0
LINE
  8
_0-8_653058
  6
CONTINUOUS
 62
    2
 10
604.88511215929725
 20
285.41000075429741
 11
604.91311215929727
 21
287.0280007542974
  0
LINE
  8
_0-8_653058
  6
CONTINUOUS
 62
    2
 10
603.89811215929728
 20
280.4270007542974
 11
603.92611215929719
 21
282.04400075429737
  0
LINE
  8
_0-8_653058
  6
CONTINUOUS
 62
    2
 10
603.98511215929727
 20
285.42600075429749
 11
604.01311215929717
 21
287.04300075429739
  0
LINE
  8
_0-8_653058
  6
CENTER
 62
    3
 10
593.85711215929723
 20
253.45700075429741
 11
614.38211215929743
 21
253.09800075429737
  0
ARC
  8
_0-8_653058
  6
CONTINUOUS
 62
    2
 10
603.69411215929733
 20
242.98300075429736
 40
5
 50
52.130999999997989
 51
125.87299999999909
  0
LINE
  8
_0-8_653058
  6
CONTINUOUS
 62
    2
 10
600.76411215929726
 20
247.03500075429738
 11
606.76411215929726
 21
246.93000075429748
  0
LINE
  8
_0-8_653058
  6
CONTINUOUS
 62
    2
 10
606.6768519017454
 20
241.93162412640114
 11
606.76411215929726
 21
246.93000075429748
  0
LINE
  8
_0-8_653058
  6
CONTINUOUS
 62
    2
 10
586.18011215929732
 20
242.2890007542974
 11
589.00511215929736
 21
232.23800075429741
  0
LINE
  8
_0-8_653058
  6
CONTINUOUS
 62
    2
 10
589.00511215929736
 20
232.23800075429741
 11
603.50237125309513
 21
231.98500495842014
  0
LINE
  8
_0-8_653058
  6
CONTINUOUS
 62
    2
 10
600.67711215929728
 20
242.03600075429747
 11
600.76411215929726
 21
247.03500075429738
  0
ARC
  8
_0-8_653058
  6
CONTINUOUS
 62
    2
 10
603.87411215929728
 20
253.28200075429745
 40
9
 50
288.47099999999892
 51
85.81500000000112
  0
ARC
  8
_0-8_653058
  6
CONTINUOUS
 62
    2
 10
603.87411215929728
 20
253.28200075429745
 40
7.5999999999999978
 50
292.24999999999681
 51
85.227999999997251
  0
ARC
  8
_0-8_653058
  6
CONTINUOUS
 62
    2
 10
603.87411215929728
 20
253.28200075429745
 40
9
 50
92.185000000000769
 51
249.52900000000082
  0
ARC
  8
_0-8_653058
  6
CONTINUOUS
 62
    2
 10
603.87411215929728
 20
253.28200075429745
 40
7.5999999999999978
 50
92.772000000001767
 51
245.75100000000122
  0
INSERT
  2
-015-BDT115
  8
_0-8_653058
 10
610.00011215929725
 20
317.00000075429744
 41
1
 42
1
 50
0
  0
LINE
  8
_0-8_653058
  6
CONTINUOUS
 62
    2
 10
621.17350616802082
 20
241.67850692069396
 11
603.67651496519215
 21
241.98401117293002
  0
LINE
  8
_0-8_653058
  6
CONTINUOUS
 62
    2
 10
621.17350616802082
 20
241.67850692069396
 11
617.9996330325514
 21
231.73216310399703
  0
LINE
  8
_0-8_653058
  6
CONTINUOUS
 62
    2
 10
617.9996330325514
 20
231.73216310399703
 11
603.50237125309502
 21
231.98500495842012
  0
INSERT
  2
-016-_D22
  8
_0-2_BALN
 10
420
 20
297
 41
1
 42
1
 50
0
  0
INSERT
  2
-017-_D23
  8
_0-2_BALN
 10
420
 20
297
 41
1
 42
1
 50
0
  0
INSERT
  2
-018-_D24
  8
_0-2_BALN
 10
420
 20
297
 41
1
 42
1
 50
0
  0
INSERT
  2
-019-_D25
  8
_0-2_BALN
 10
420
 20
297
 41
1
 42
1
 50
0
  0
INSERT
  2
-020-_D26
  8
_0-2_BALN
 10
420
 20
297
 41
1
 42
1
 50
0
  0
INSERT
  2
-021-_D27
  8
_0-2_BALN
 10
420
 20
297
 41
1
 42
1
 50
0
  0
LINE
  8
_0-9_410748
  6
CONTINUOUS
 62
    2
 10
273
 20
182.20436315043718
 11
272.978
 21
182.50336315043719
  0
LINE
  8
_0-9_410748
  6
CONTINUOUS
 62
    2
 10
272.978
 20
182.50336315043719
 11
272.91300000000001
 21
182.79536315043719
  0
LINE
  8
_0-9_410748
  6
CONTINUOUS
 62
    2
 10
272.91300000000001
 20
182.79536315043719
 11
272.80700000000001
 21
183.07336315043721
  0
LINE
  8
_0-9_410748
  6
CONTINUOUS
 62
    2
 10
272.80700000000001
 20
183.07336315043721
 11
272.66599999999999
 21
183.33136315043719
  0
LINE
  8
_0-9_410748
  6
CONTINUOUS
 62
    2
 10
272.66599999999999
 20
183.33136315043719
 11
272.49599999999998
 21
183.56836315043719
  0
LINE
  8
_0-9_410748
  6
CONTINUOUS
 62
    2
 10
272.49599999999998
 20
183.56836315043719
 11
272.30299999999999
 21
183.78036315043721
  0
LINE
  8
_0-9_410748
  6
CONTINUOUS
 62
    2
 10
272.30299999999999
 20
183.78036315043721
 11
272.09199999999998
 21
183.96636315043718
  0
LINE
  8
_0-9_410748
  6
CONTINUOUS
 62
    2
 10
272.09199999999998
 20
183.96636315043718
 11
271.86799999999999
 21
184.12736315043719
  0
LINE
  8
_0-9_410748
  6
CONTINUOUS
 62
    2
 10
271.86799999999999
 20
184.12736315043719
 11
271.63499999999999
 21
184.26536315043719
  0
LINE
  8
_0-9_410748
  6
CONTINUOUS
 62
    2
 10
271.63499999999999
 20
184.26536315043719
 11
271.3970000000001
 21
184.3793631504372
  0
LINE
  8
_0-9_410748
  6
CONTINUOUS
 62
    2
 10
271.3970000000001
 20
184.3793631504372
 11
271.15499999999997
 21
184.47336315043719
  0
LINE
  8
_0-9_410748
  6
CONTINUOUS
 62
    2
 10
271.15499999999997
 20
184.47336315043719
 11
270.911
 21
184.5463631504372
  0
LINE
  8
_0-9_410748
  6
CONTINUOUS
 62
    2
 10
270.911
 20
184.5463631504372
 11
270.66599999999999
 21
184.60136315043718
  0
LINE
  8
_0-9_410748
  6
CONTINUOUS
 62
    2
 10
270.66599999999999
 20
184.60136315043718
 11
270.41999999999995
 21
184.63836315043721
  0
LINE
  8
_0-9_410748
  6
CONTINUOUS
 62
    2
 10
270.41999999999995
 20
184.63836315043721
 11
270.17399999999997
 21
184.65836315043719
  0
LINE
  8
_0-9_410748
  6
CONTINUOUS
 62
    2
 10
270.17399999999997
 20
184.65836315043719
 11
269.92899999999997
 21
184.66136315043718
  0
LINE
  8
_0-9_410748
  6
CONTINUOUS
 62
    2
 10
269.92899999999997
 20
184.66136315043718
 11
269.68299999999999
 21
184.6483631504372
  0
LINE
  8
_0-9_410748
  6
CONTINUOUS
 62
    2
 10
269.68299999999999
 20
184.6483631504372
 11
269.43700000000001
 21
184.6183631504372
  0
LINE
  8
_0-9_410748
  6
CONTINUOUS
 62
    2
 10
269.43700000000001
 20
184.6183631504372
 11
269.192
 21
184.5713631504372
  0
LINE
  8
_0-9_410748
  6
CONTINUOUS
 62
    2
 10
269.192
 20
184.5713631504372
 11
268.947
 21
184.5053631504372
  0
LINE
  8
_0-9_410748
  6
CONTINUOUS
 62
    2
 10
268.947
 20
184.5053631504372
 11
268.704
 21
184.4213631504372
  0
LINE
  8
_0-9_410748
  6
CONTINUOUS
 62
    2
 10
268.704
 20
184.4213631504372
 11
268.46399999999999
 21
184.31536315043717
  0
LINE
  8
_0-9_410748
  6
CONTINUOUS
 62
    2
 10
268.46399999999999
 20
184.31536315043717
 11
268.22900000000004
 21
184.18736315043719
  0
LINE
  8
_0-9_410748
  6
CONTINUOUS
 62
    2
 10
268.22900000000004
 20
184.18736315043719
 11
268.00099999999997
 21
184.03636315043718
  0
LINE
  8
_0-9_410748
  6
CONTINUOUS
 62
    2
 10
268.00099999999997
 20
184.03636315043718
 11
267.78399999999999
 21
183.86036315043719
  0
LINE
  8
_0-9_410748
  6
CONTINUOUS
 62
    2
 10
267.78399999999999
 20
183.86036315043719
 11
267.58199999999999
 21
183.6593631504372
  0
LINE
  8
_0-9_410748
  6
CONTINUOUS
 62
    2
 10
267.58199999999999
 20
183.6593631504372
 11
267.40199999999998
 21
183.4333631504372
  0
LINE
  8
_0-9_410748
  6
CONTINUOUS
 62
    2
 10
267.40199999999998
 20
183.4333631504372
 11
267.24799999999999
 21
183.1833631504372
  0
LINE
  8
_0-9_410748
  6
CONTINUOUS
 62
    2
 10
267.24799999999999
 20
183.1833631504372
 11
267.12799999999998
 21
182.91236315043721
  0
LINE
  8
_0-9_410748
  6
CONTINUOUS
 62
    2
 10
267.12799999999998
 20
182.91236315043721
 11
267.04499999999995
 21
182.62636315043721
  0
LINE
  8
_0-9_410748
  6
CONTINUOUS
 62
    2
 10
267.04499999999995
 20
182.62636315043721
 11
267.00400000000001
 21
182.32936315043718
  0
LINE
  8
_0-9_410748
  6
CONTINUOUS
 62
    2
 10
267.00400000000001
 20
182.32936315043718
 11
267
 21
182.20436315043718
  0
LINE
  8
_0-9_410748
  6
CONTINUOUS
 62
    2
 10
267
 20
182.20436315043718
 11
267.00800000000003
 21
182.0293631504372
  0
LINE
  8
_0-9_410748
  6
CONTINUOUS
 62
    2
 10
267.00800000000003
 20
182.0293631504372
 11
267.05600000000004
 21
181.73436315043721
  0
LINE
  8
_0-9_410748
  6
CONTINUOUS
 62
    2
 10
267.05600000000004
 20
181.73436315043721
 11
267.14499999999998
 21
181.45036315043719
  0
LINE
  8
_0-9_410748
  6
CONTINUOUS
 62
    2
 10
267.14499999999998
 20
181.45036315043719
 11
267.27199999999999
 21
181.18236315043719
  0
LINE
  8
_0-9_410748
  6
CONTINUOUS
 62
    2
 10
267.27199999999999
 20
181.18236315043719
 11
267.43100000000004
 21
180.93636315043721
  0
LINE
  8
_0-9_410748
  6
CONTINUOUS
 62
    2
 10
267.43100000000004
 20
180.93636315043721
 11
267.615
 21
180.71436315043717
  0
LINE
  8
_0-9_410748
  6
CONTINUOUS
 62
    2
 10
267.615
 20
180.71436315043717
 11
267.81899999999995
 21
180.5173631504372
  0
LINE
  8
_0-9_410748
  6
CONTINUOUS
 62
    2
 10
267.81899999999995
 20
180.5173631504372
 11
268.03800000000001
 21
180.3453631504372
  0
LINE
  8
_0-9_410748
  6
CONTINUOUS
 62
    2
 10
268.03800000000001
 20
180.3453631504372
 11
268.26800000000002
 21
180.19836315043721
  0
LINE
  8
_0-9_410748
  6
CONTINUOUS
 62
    2
 10
268.26800000000002
 20
180.19836315043721
 11
268.50400000000001
 21
180.07436315043719
  0
LINE
  8
_0-9_410748
  6
CONTINUOUS
 62
    2
 10
268.50400000000001
 20
180.07436315043719
 11
268.745
 21
179.97236315043721
  0
LINE
  8
_0-9_410748
  6
CONTINUOUS
 62
    2
 10
268.745
 20
179.97236315043721
 11
268.98799999999999
 21
179.8913631504372
  0
LINE
  8
_0-9_410748
  6
CONTINUOUS
 62
    2
 10
268.98799999999999
 20
179.8913631504372
 11
269.233
 21
179.82936315043718
  0
LINE
  8
_0-9_410748
  6
CONTINUOUS
 62
    2
 10
269.233
 20
179.82936315043718
 11
269.47900000000004
 21
179.7843631504372
  0
LINE
  8
_0-9_410748
  6
CONTINUOUS
 62
    2
 10
269.47900000000004
 20
179.7843631504372
 11
269.72399999999998
 21
179.75736315043718
  0
LINE
  8
_0-9_410748
  6
CONTINUOUS
 62
    2
 10
269.72399999999998
 20
179.75736315043718
 11
269.97000000000002
 21
179.74736315043719
  0
LINE
  8
_0-9_410748
  6
CONTINUOUS
 62
    2
 10
269.97000000000002
 20
179.74736315043719
 11
270.216
 21
179.75336315043719
  0
LINE
  8
_0-9_410748
  6
CONTINUOUS
 62
    2
 10
270.216
 20
179.75336315043719
 11
270.46100000000001
 21
179.77636315043719
  0
LINE
  8
_0-9_410748
  6
CONTINUOUS
 62
    2
 10
270.46100000000001
 20
179.77636315043719
 11
270.70699999999999
 21
179.81636315043721
  0
LINE
  8
_0-9_410748
  6
CONTINUOUS
 62
    2
 10
270.70699999999999
 20
179.81636315043721
 11
270.95199999999999
 21
179.8743631504372
  0
LINE
  8
_0-9_410748
  6
CONTINUOUS
 62
    2
 10
270.95199999999999
 20
179.8743631504372
 11
271.19600000000002
 21
179.95036315043719
  0
LINE
  8
_0-9_410748
  6
CONTINUOUS
 62
    2
 10
271.19600000000002
 20
179.95036315043719
 11
271.43700000000001
 21
180.0473631504372
  0
LINE
  8
_0-9_410748
  6
CONTINUOUS
 62
    2
 10
271.43700000000001
 20
180.0473631504372
 11
271.67500000000001
 21
180.1653631504372
  0
LINE
  8
_0-9_410748
  6
CONTINUOUS
 62
    2
 10
271.67500000000001
 20
180.1653631504372
 11
271.90700000000003
 21
180.30736315043719
  0
LINE
  8
_0-9_410748
  6
CONTINUOUS
 62
    2
 10
271.90700000000003
 20
180.30736315043719
 11
272.12900000000001
 21
180.47236315043721
  0
LINE
  8
_0-9_410748
  6
CONTINUOUS
 62
    2
 10
272.12900000000001
 20
180.47236315043721
 11
272.33699999999998
 21
180.66336315043719
  0
LINE
  8
_0-9_410748
  6
CONTINUOUS
 62
    2
 10
272.33699999999998
 20
180.66336315043719
 11
272.52699999999998
 21
180.8793631504372
  0
LINE
  8
_0-9_410748
  6
CONTINUOUS
 62
    2
 10
272.52699999999998
 20
180.8793631504372
 11
272.692
 21
181.1193631504372
  0
LINE
  8
_0-9_410748
  6
CONTINUOUS
 62
    2
 10
272.692
 20
181.1193631504372
 11
272.82699999999999
 21
181.38236315043718
  0
LINE
  8
_0-9_410748
  6
CONTINUOUS
 62
    2
 10
272.82699999999999
 20
181.38236315043718
 11
272.92700000000002
 21
181.66236315043721
  0
LINE
  8
_0-9_410748
  6
CONTINUOUS
 62
    2
 10
272.92700000000002
 20
181.66236315043721
 11
272.98500000000001
 21
181.95636315043719
  0
LINE
  8
_0-9_410748
  6
CONTINUOUS
 62
    2
 10
272.98500000000001
 20
181.95636315043719
 11
273
 21
182.20436315043718
  0
LINE
  8
_0-9_410748
  6
CONTINUOUS
 62
    2
 10
273
 20
185.99036315043719
 11
272.978
 21
186.28936315043719
  0
LINE
  8
_0-9_410748
  6
CONTINUOUS
 62
    2
 10
272.978
 20
186.28936315043719
 11
272.91300000000001
 21
186.58036315043719
  0
LINE
  8
_0-9_410748
  6
CONTINUOUS
 62
    2
 10
272.91300000000001
 20
186.58036315043719
 11
272.80700000000001
 21
186.85836315043718
  0
LINE
  8
_0-9_410748
  6
CONTINUOUS
 62
    2
 10
272.80700000000001
 20
186.85836315043718
 11
272.66599999999999
 21
187.11736315043719
  0
LINE
  8
_0-9_410748
  6
CONTINUOUS
 62
    2
 10
272.66599999999999
 20
187.11736315043719
 11
272.49599999999998
 21
187.35436315043719
  0
LINE
  8
_0-9_410748
  6
CONTINUOUS
 62
    2
 10
272.49599999999998
 20
187.35436315043719
 11
272.30299999999999
 21
187.56536315043717
  0
LINE
  8
_0-9_410748
  6
CONTINUOUS
 62
    2
 10
272.30299999999999
 20
187.56536315043717
 11
272.09199999999998
 21
187.75236315043719
  0
LINE
  8
_0-9_410748
  6
CONTINUOUS
 62
    2
 10
272.09199999999998
 20
187.75236315043719
 11
271.86799999999999
 21
187.91336315043719
  0
LINE
  8
_0-9_410748
  6
CONTINUOUS
 62
    2
 10
271.86799999999999
 20
187.91336315043719
 11
271.63499999999999
 21
188.05036315043719
  0
LINE
  8
_0-9_410748
  6
CONTINUOUS
 62
    2
 10
271.63499999999999
 20
188.05036315043719
 11
271.3970000000001
 21
188.1653631504372
  0
LINE
  8
_0-9_410748
  6
CONTINUOUS
 62
    2
 10
271.3970000000001
 20
188.1653631504372
 11
271.15499999999997
 21
188.25836315043721
  0
LINE
  8
_0-9_410748
  6
CONTINUOUS
 62
    2
 10
271.15499999999997
 20
188.25836315043721
 11
270.911
 21
188.3323631504372
  0
LINE
  8
_0-9_410748
  6
CONTINUOUS
 62
    2
 10
270.911
 20
188.3323631504372
 11
270.66599999999999
 21
188.3863631504372
  0
LINE
  8
_0-9_410748
  6
CONTINUOUS
 62
    2
 10
270.66599999999999
 20
188.3863631504372
 11
270.41999999999995
 21
188.42336315043718
  0
LINE
  8
_0-9_410748
  6
CONTINUOUS
 62
    2
 10
270.41999999999995
 20
188.42336315043718
 11
270.17399999999997
 21
188.44336315043719
  0
LINE
  8
_0-9_410748
  6
CONTINUOUS
 62
    2
 10
270.17399999999997
 20
188.44336315043719
 11
269.92899999999997
 21
188.44736315043718
  0
LINE
  8
_0-9_410748
  6
CONTINUOUS
 62
    2
 10
269.92899999999997
 20
188.44736315043718
 11
269.68299999999999
 21
188.4343631504372
  0
LINE
  8
_0-9_410748
  6
CONTINUOUS
 62
    2
 10
269.68299999999999
 20
188.4343631504372
 11
269.43700000000001
 21
188.4043631504372
  0
LINE
  8
_0-9_410748
  6
CONTINUOUS
 62
    2
 10
269.43700000000001
 20
188.4043631504372
 11
269.192
 21
188.3573631504372
  0
LINE
  8
_0-9_410748
  6
CONTINUOUS
 62
    2
 10
269.192
 20
188.3573631504372
 11
268.947
 21
188.2913631504372
  0
LINE
  8
_0-9_410748
  6
CONTINUOUS
 62
    2
 10
268.947
 20
188.2913631504372
 11
268.704
 21
188.20636315043719
  0
LINE
  8
_0-9_410748
  6
CONTINUOUS
 62
    2
 10
268.704
 20
188.20636315043719
 11
268.46399999999999
 21
188.10136315043718
  0
LINE
  8
_0-9_410748
  6
CONTINUOUS
 62
    2
 10
268.46399999999999
 20
188.10136315043718
 11
268.22900000000004
 21
187.97336315043719
  0
LINE
  8
_0-9_410748
  6
CONTINUOUS
 62
    2
 10
268.22900000000004
 20
187.97336315043719
 11
268.00099999999997
 21
187.82236315043718
  0
LINE
  8
_0-9_410748
  6
CONTINUOUS
 62
    2
 10
268.00099999999997
 20
187.82236315043718
 11
267.78399999999999
 21
187.64636315043719
  0
LINE
  8
_0-9_410748
  6
CONTINUOUS
 62
    2
 10
267.78399999999999
 20
187.64636315043719
 11
267.58199999999999
 21
187.4453631504372
  0
LINE
  8
_0-9_410748
  6
CONTINUOUS
 62
    2
 10
267.58199999999999
 20
187.4453631504372
 11
267.40199999999998
 21
187.21836315043719
  0
LINE
  8
_0-9_410748
  6
CONTINUOUS
 62
    2
 10
267.40199999999998
 20
187.21836315043719
 11
267.24799999999999
 21
186.96836315043719
  0
LINE
  8
_0-9_410748
  6
CONTINUOUS
 62
    2
 10
267.24799999999999
 20
186.96836315043719
 11
267.12799999999998
 21
186.69836315043721
  0
LINE
  8
_0-9_410748
  6
CONTINUOUS
 62
    2
 10
267.12799999999998
 20
186.69836315043721
 11
267.04499999999995
 21
186.41136315043718
  0
LINE
  8
_0-9_410748
  6
CONTINUOUS
 62
    2
 10
267.04499999999995
 20
186.41136315043718
 11
267.00400000000001
 21
186.11536315043719
  0
LINE
  8
_0-9_410748
  6
CONTINUOUS
 62
    2
 10
267.00400000000001
 20
186.11536315043719
 11
267
 21
185.99036315043719
  0
LINE
  8
_0-a_004834
  6
CONTINUOUS
 62
    2
 10
209.04099999999999
 20
131.31136315043718
 11
208.55799999999999
 21
131.2233631504371
  0
LINE
  8
_0-a_004834
  6
CONTINUOUS
 62
    2
 10
208.55799999999999
 20
131.2233631504371
 11
208.11299999999999
 21
130.9813631504372
  0
LINE
  8
_0-a_004834
  6
CONTINUOUS
 62
    2
 10
208.11299999999999
 20
130.9813631504372
 11
207.734
 21
130.6303631504372
  0
LINE
  8
_0-a_004834
  6
CONTINUOUS
 62
    2
 10
207.734
 20
130.6303631504372
 11
207.42599999999998
 21
130.22436315043719
  0
LINE
  8
_0-a_004834
  6
CONTINUOUS
 62
    2
 10
207.42599999999998
 20
130.22436315043719
 11
207.18399999999999
 21
129.8023631504372
  0
LINE
  8
_0-a_004834
  6
CONTINUOUS
 62
    2
 10
207.18399999999999
 20
129.8023631504372
 11
206.99799999999999
 21
129.38936315043719
  0
LINE
  8
_0-a_004834
  6
CONTINUOUS
 62
    2
 10
206.99799999999999
 20
129.38936315043719
 11
206.85599999999999
 21
128.99736315043719
  0
LINE
  8
_0-a_004834
  6
CONTINUOUS
 62
    2
 10
206.85599999999999
 20
128.99736315043719
 11
206.74799999999999
 21
128.6303631504372
  0
LINE
  8
_0-a_004834
  6
CONTINUOUS
 62
    2
 10
206.74799999999999
 20
128.6303631504372
 11
206.66499999999999
 21
128.2883631504371
  0
LINE
  8
_0-a_004834
  6
CONTINUOUS
 62
    2
 10
206.66499999999999
 20
128.2883631504371
 11
206.602
 21
127.9693631504372
  0
LINE
  8
_0-a_004834
  6
CONTINUOUS
 62
    2
 10
206.602
 20
127.9693631504372
 11
206.554
 21
127.66836315043718
  0
LINE
  8
_0-a_004834
  6
CONTINUOUS
 62
    2
 10
206.554
 20
127.66836315043718
 11
206.519
 21
127.38336315043719
  0
LINE
  8
_0-a_004834
  6
CONTINUOUS
 62
    2
 10
206.519
 20
127.38336315043719
 11
206.49399999999999
 21
127.11036315043719
  0
LINE
  8
_0-a_004834
  6
CONTINUOUS
 62
    2
 10
206.49399999999999
 20
127.11036315043719
 11
206.478
 21
126.8453631504372
  0
LINE
  8
_0-a_004834
  6
CONTINUOUS
 62
    2
 10
206.478
 20
126.8453631504372
 11
206.46899999999999
 21
126.58536315043718
  0
LINE
  8
_0-a_004834
  6
CONTINUOUS
 62
    2
 10
206.46899999999999
 20
126.58536315043718
 11
206.46799999999998
 21
126.3273631504372
  0
LINE
  8
_0-a_004834
  6
CONTINUOUS
 62
    2
 10
206.46799999999998
 20
126.3273631504372
 11
206.47300000000001
 21
126.06936315043719
  0
LINE
  8
_0-a_004834
  6
CONTINUOUS
 62
    2
 10
206.47300000000001
 20
126.06936315043719
 11
206.48599999999998
 21
125.80736315043719
  0
LINE
  8
_0-a_004834
  6
CONTINUOUS
 62
    2
 10
206.48599999999998
 20
125.80736315043719
 11
206.508
 21
125.53736315043718
  0
LINE
  8
_0-a_004834
  6
CONTINUOUS
 62
    2
 10
206.508
 20
125.53736315043718
 11
206.53800000000001
 21
125.2573631504371
  0
LINE
  8
_0-a_004834
  6
CONTINUOUS
 62
    2
 10
206.53800000000001
 20
125.2573631504371
 11
206.58000000000001
 21
124.9633631504372
  0
LINE
  8
_0-a_004834
  6
CONTINUOUS
 62
    2
 10
206.58000000000001
 20
124.9633631504372
 11
206.637
 21
124.65236315043719
  0
LINE
  8
_0-a_004834
  6
CONTINUOUS
 62
    2
 10
206.637
 20
124.65236315043719
 11
206.71
 21
124.3203631504372
  0
LINE
  8
_0-a_004834
  6
CONTINUOUS
 62
    2
 10
206.71
 20
124.3203631504372
 11
206.80699999999998
 21
123.9643631504372
  0
LINE
  8
_0-a_004834
  6
CONTINUOUS
 62
    2
 10
206.80699999999998
 20
123.9643631504372
 11
206.935
 21
123.5833631504372
  0
LINE
  8
_0-a_004834
  6
CONTINUOUS
 62
    2
 10
206.935
 20
123.5833631504372
 11
207.10099999999999
 21
123.1783631504372
  0
LINE
  8
_0-a_004834
  6
CONTINUOUS
 62
    2
 10
207.10099999999999
 20
123.1783631504372
 11
207.31800000000001
 21
122.75736315043718
  0
LINE
  8
_0-a_004834
  6
CONTINUOUS
 62
    2
 10
207.31800000000001
 20
122.75736315043718
 11
207.597
 21
122.34036315043721
  0
LINE
  8
_0-a_004834
  6
CONTINUOUS
 62
    2
 10
207.597
 20
122.34036315043721
 11
207.947
 21
121.96136315043719
  0
LINE
  8
_0-a_004834
  6
CONTINUOUS
 62
    2
 10
207.947
 20
121.96136315043719
 11
208.36600000000001
 21
121.66736315043721
  0
LINE
  8
_0-a_004834
  6
CONTINUOUS
 62
    2
 10
208.36600000000001
 20
121.66736315043721
 11
208.83799999999999
 21
121.5103631504372
  0
LINE
  8
_0-a_004834
  6
CONTINUOUS
 62
    2
 10
208.83799999999999
 20
121.5103631504372
 11
209.04099999999999
 21
121.49536315043721
  0
LINE
  8
_0-a_004834
  6
CONTINUOUS
 62
    2
 10
209.04099999999999
 20
121.49536315043721
 11
209.32599999999999
 21
121.52536315043718
  0
LINE
  8
_0-a_004834
  6
CONTINUOUS
 62
    2
 10
209.32599999999999
 20
121.52536315043718
 11
209.79099999999999
 21
121.7083631504372
  0
LINE
  8
_0-a_004834
  6
CONTINUOUS
 62
    2
 10
209.79099999999999
 20
121.7083631504372
 11
210.19999999999998
 21
122.02036315043719
  0
LINE
  8
_0-a_004834
  6
CONTINUOUS
 62
    2
 10
210.19999999999998
 20
122.02036315043719
 11
210.537
 21
122.4093631504372
  0
LINE
  8
_0-a_004834
  6
CONTINUOUS
 62
    2
 10
210.537
 20
122.4093631504372
 11
210.805
 21
122.82836315043721
  0
LINE
  8
_0-a_004834
  6
CONTINUOUS
 62
    2
 10
210.805
 20
122.82836315043721
 11
211.013
 21
123.24736315043719
  0
LINE
  8
_0-a_004834
  6
CONTINUOUS
 62
    2
 10
211.013
 20
123.24736315043719
 11
211.17199999999999
 21
123.6483631504372
  0
LINE
  8
_0-a_004834
  6
CONTINUOUS
 62
    2
 10
211.17199999999999
 20
123.6483631504372
 11
211.293
 21
124.02636315043719
  0
LINE
  8
_0-a_004834
  6
CONTINUOUS
 62
    2
 10
211.293
 20
124.02636315043719
 11
211.38599999999999
 21
124.37836315043719
  0
LINE
  8
_0-a_004834
  6
CONTINUOUS
 62
    2
 10
211.38599999999999
 20
124.37836315043719
 11
211.45699999999999
 21
124.70636315043719
  0
LINE
  8
_0-a_004834
  6
CONTINUOUS
 62
    2
 10
211.45699999999999
 20
124.70636315043719
 11
211.50999999999999
 21
125.01436315043719
  0
LINE
  8
_0-a_004834
  6
CONTINUOUS
 62
    2
 10
211.50999999999999
 20
125.01436315043719
 11
211.55000000000001
 21
125.30536315043718
  0
LINE
  8
_0-a_004834
  6
CONTINUOUS
 62
    2
 10
211.55000000000001
 20
125.30536315043718
 11
211.579
 21
125.5833631504372
  0
LINE
  8
_0-a_004834
  6
CONTINUOUS
 62
    2
 10
211.579
 20
125.5833631504372
 11
211.59899999999998
 21
125.8513631504372
  0
LINE
  8
_0-a_004834
  6
CONTINUOUS
 62
    2
 10
211.59899999999998
 20
125.8513631504372
 11
211.61099999999998
 21
126.1133631504372
  0
LINE
  8
_0-a_004834
  6
CONTINUOUS
 62
    2
 10
211.61099999999998
 20
126.1133631504372
 11
211.615
 21
126.37136315043719
  0
LINE
  8
_0-a_004834
  6
CONTINUOUS
 62
    2
 10
211.615
 20
126.37136315043719
 11
211.61299999999999
 21
126.6293631504372
  0
LINE
  8
_0-a_004834
  6
CONTINUOUS
 62
    2
 10
211.61299999999999
 20
126.6293631504372
 11
211.603
 21
126.88936315043719
  0
LINE
  8
_0-a_004834
  6
CONTINUOUS
 62
    2
 10
211.603
 20
126.88936315043719
 11
211.585
 21
127.15536315043721
  0
LINE
  8
_0-a_004834
  6
CONTINUOUS
 62
    2
 10
211.585
 20
127.15536315043721
 11
211.55799999999999
 21
127.43036315043718
  0
LINE
  8
_0-a_004834
  6
CONTINUOUS
 62
    2
 10
211.55799999999999
 20
127.43036315043718
 11
211.52099999999998
 21
127.71836315043719
  0
LINE
  8
_0-a_004834
  6
CONTINUOUS
 62
    2
 10
211.52099999999998
 20
127.71836315043719
 11
211.471
 21
128.02136315043719
  0
LINE
  8
_0-a_004834
  6
CONTINUOUS
 62
    2
 10
211.471
 20
128.02136315043719
 11
211.405
 21
128.3443631504372
  0
LINE
  8
_0-a_004834
  6
CONTINUOUS
 62
    2
 10
211.405
 20
128.3443631504372
 11
211.31899999999998
 21
128.6903631504372
  0
LINE
  8
_0-a_004834
  6
CONTINUOUS
 62
    2
 10
211.31899999999998
 20
128.6903631504372
 11
211.20500000000001
 21
129.06136315043718
  0
LINE
  8
_0-a_004834
  6
CONTINUOUS
 62
    2
 10
211.20500000000001
 20
129.06136315043718
 11
211.05600000000001
 21
129.4573631504372
  0
LINE
  8
_0-a_004834
  6
CONTINUOUS
 62
    2
 10
211.05600000000001
 20
129.4573631504372
 11
210.86199999999999
 21
129.87236315043719
  0
LINE
  8
_0-a_004834
  6
CONTINUOUS
 62
    2
 10
210.86199999999999
 20
129.87236315043719
 11
210.61000000000001
 21
130.2943631504371
  0
LINE
  8
_0-a_004834
  6
CONTINUOUS
 62
    2
 10
210.61000000000001
 20
130.2943631504371
 11
210.28999999999999
 21
130.69436315043719
  0
LINE
  8
_0-a_004834
  6
CONTINUOUS
 62
    2
 10
210.28999999999999
 20
130.69436315043719
 11
209.899
 21
131.03036315043721
  0
LINE
  8
_0-a_004834
  6
CONTINUOUS
 62
    2
 10
209.899
 20
131.03036315043721
 11
209.44499999999999
 21
131.2503631504372
  0
LINE
  8
_0-a_004834
  6
CONTINUOUS
 62
    2
 10
209.44499999999999
 20
131.2503631504372
 11
209.04099999999999
 21
131.31136315043718
  0
LINE
  8
_0-a_004834
  6
CONTINUOUS
 62
    2
 10
219.001
 20
131.31136315043718
 11
218.50999999999999
 21
131.28836315043719
  0
LINE
  8
_0-a_004834
  6
CONTINUOUS
 62
    2
 10
218.50999999999999
 20
131.28836315043719
 11
218.024
 21
131.22236315043718
  0
LINE
  8
_0-a_004834
  6
CONTINUOUS
 62
    2
 10
218.024
 20
131.22236315043718
 11
217.54400000000001
 21
131.11036315043719
  0
LINE
  8
_0-a_004834
  6
CONTINUOUS
 62
    2
 10
217.54400000000001
 20
131.11036315043719
 11
217.07599999999999
 21
130.95536315043719
  0
LINE
  8
_0-a_004834
  6
CONTINUOUS
 62
    2
 10
217.07599999999999
 20
130.95536315043719
 11
216.62200000000001
 21
130.7563631504372
  0
LINE
  8
_0-a_004834
  6
CONTINUOUS
 62
    2
 10
216.62200000000001
 20
130.7563631504372
 11
216.18799999999998
 21
130.5143631504371
  0
LINE
  8
_0-a_004834
  6
CONTINUOUS
 62
    2
 10
216.18799999999998
 20
130.5143631504371
 11
215.77699999999998
 21
130.23036315043719
  0
LINE
  8
_0-a_004834
  6
CONTINUOUS
 62
    2
 10
215.77699999999998
 20
130.23036315043719
 11
215.394
 21
129.90536315043721
  0
LINE
  8
_0-a_004834
  6
CONTINUOUS
 62
    2
 10
215.394
 20
129.90536315043721
 11
215.043
 21
129.54336315043718
  0
LINE
  8
_0-a_004834
  6
CONTINUOUS
 62
    2
 10
215.043
 20
129.54336315043718
 11
214.72999999999998
 21
129.14536315043719
  0
LINE
  8
_0-a_004834
  6
CONTINUOUS
 62
    2
 10
214.72999999999998
 20
129.14536315043719
 11
214.459
 21
128.7143631504372
  0
LINE
  8
_0-a_004834
  6
CONTINUOUS
 62
    2
 10
214.459
 20
128.7143631504372
 11
214.233
 21
128.2563631504372
  0
LINE
  8
_0-a_004834
  6
CONTINUOUS
 62
    2
 10
214.233
 20
128.2563631504372
 11
214.05699999999998
 21
127.77536315043718
  0
LINE
  8
_0-a_004834
  6
CONTINUOUS
 62
    2
 10
214.05699999999998
 20
127.77536315043718
 11
213.93399999999999
 21
127.27736315043719
  0
LINE
  8
_0-a_004834
  6
CONTINUOUS
 62
    2
 10
213.93399999999999
 20
127.27736315043719
 11
213.86600000000001
 21
126.7673631504372
  0
LINE
  8
_0-a_004834
  6
CONTINUOUS
 62
    2
 10
213.86600000000001
 20
126.7673631504372
 11
213.852
 21
126.4033631504372
  0
LINE
  8
_0-a_004834
  6
CONTINUOUS
 62
    2
 10
213.852
 20
126.4033631504372
 11
213.85400000000001
 21
126.25236315043719
  0
LINE
  8
_0-a_004834
  6
CONTINUOUS
 62
    2
 10
213.85400000000001
 20
126.25236315043719
 11
213.899
 21
125.74036315043719
  0
LINE
  8
_0-a_004834
  6
CONTINUOUS
 62
    2
 10
213.899
 20
125.74036315043719
 11
213.99899999999999
 21
125.23636315043719
  0
LINE
  8
_0-a_004834
  6
CONTINUOUS
 62
    2
 10
213.99899999999999
 20
125.23636315043719
 11
214.15399999999999
 21
124.74736315043719
  0
LINE
  8
_0-a_004834
  6
CONTINUOUS
 62
    2
 10
214.15399999999999
 20
124.74736315043719
 11
214.359
 21
124.2783631504372
  0
LINE
  8
_0-a_004834
  6
CONTINUOUS
 62
    2
 10
214.359
 20
124.2783631504372
 11
214.61199999999999
 21
123.83636315043719
  0
LINE
  8
_0-a_004834
  6
CONTINUOUS
 62
    2
 10
214.61199999999999
 20
123.83636315043719
 11
214.90799999999998
 21
123.42436315043718
  0
LINE
  8
_0-a_004834
  6
CONTINUOUS
 62
    2
 10
214.90799999999998
 20
123.42436315043718
 11
215.24399999999999
 21
123.0463631504372
  0
LINE
  8
_0-a_004834
  6
CONTINUOUS
 62
    2
 10
215.24399999999999
 20
123.0463631504372
 11
215.614
 21
122.70636315043719
  0
LINE
  8
_0-a_004834
  6
CONTINUOUS
 62
    2
 10
215.614
 20
122.70636315043719
 11
216.01400000000001
 21
122.40536315043721
  0
LINE
  8
_0-a_004834
  6
CONTINUOUS
 62
    2
 10
216.01400000000001
 20
122.40536315043721
 11
216.43899999999999
 21
122.14536315043719
  0
LINE
  8
_0-a_004834
  6
CONTINUOUS
 62
    2
 10
216.43899999999999
 20
122.14536315043719
 11
216.88499999999999
 21
121.9283631504372
  0
LINE
  8
_0-a_004834
  6
CONTINUOUS
 62
    2
 10
216.88499999999999
 20
121.9283631504372
 11
217.34800000000001
 21
121.7543631504372
  0
LINE
  8
_0-a_004834
  6
CONTINUOUS
 62
    2
 10
217.34800000000001
 20
121.7543631504372
 11
217.823
 21
121.6253631504372
  0
LINE
  8
_0-a_004834
  6
CONTINUOUS
 62
    2
 10
217.823
 20
121.6253631504372
 11
218.30699999999998
 21
121.53936315043719
  0
LINE
  8
_0-a_004834
  6
CONTINUOUS
 62
    2
 10
218.30699999999998
 20
121.53936315043719
 11
218.79699999999999
 21
121.4993631504372
  0
LINE
  8
_0-a_004834
  6
CONTINUOUS
 62
    2
 10
218.79699999999999
 20
121.4993631504372
 11
219.001
 21
121.49536315043721
  0
LINE
  8
_0-a_004834
  6
CONTINUOUS
 62
    2
 10
219
 20
121.49536315043721
 11
219.49100000000001
 21
121.5173631504372
  0
LINE
  8
_0-a_004834
  6
CONTINUOUS
 62
    2
 10
219.49100000000001
 20
121.5173631504372
 11
219.977
 21
121.58436315043721
  0
LINE
  8
_0-a_004834
  6
CONTINUOUS
 62
    2
 10
219.977
 20
121.58436315043721
 11
220.45699999999999
 21
121.6953631504372
  0
LINE
  8
_0-a_004834
  6
CONTINUOUS
 62
    2
 10
220.45699999999999
 20
121.6953631504372
 11
220.92500000000001
 21
121.8503631504372
  0
LINE
  8
_0-a_004834
  6
CONTINUOUS
 62
    2
 10
220.92500000000001
 20
121.8503631504372
 11
221.3790000000001
 21
122.04936315043718
  0
LINE
  8
_0-a_004834
  6
CONTINUOUS
 62
    2
 10
221.3790000000001
 20
122.04936315043718
 11
221.81299999999998
 21
122.2913631504372
  0
LINE
  8
_0-a_004834
  6
CONTINUOUS
 62
    2
 10
221.81299999999998
 20
122.2913631504372
 11
222.22399999999998
 21
122.57536315043719
  0
LINE
  8
_0-a_004834
  6
CONTINUOUS
 62
    2
 10
222.22399999999998
 20
122.57536315043719
 11
222.60699999999999
 21
122.90036315043718
  0
LINE
  8
_0-a_004834
  6
CONTINUOUS
 62
    2
 10
222.60699999999999
 20
122.90036315043718
 11
222.95799999999999
 21
123.2623631504372
  0
LINE
  8
_0-a_004834
  6
CONTINUOUS
 62
    2
 10
222.95799999999999
 20
123.2623631504372
 11
223.27099999999998
 21
123.6603631504372
  0
LINE
  8
_0-a_004834
  6
CONTINUOUS
 62
    2
 10
223.27099999999998
 20
123.6603631504372
 11
223.543
 21
124.0913631504371
  0
LINE
  8
_0-a_004834
  6
CONTINUOUS
 62
    2
 10
223.543
 20
124.0913631504371
 11
223.768
 21
124.54936315043718
  0
LINE
  8
_0-a_004834
  6
CONTINUOUS
 62
    2
 10
223.768
 20
124.54936315043718
 11
223.94399999999998
 21
125.03036315043721
  0
LINE
  8
_0-a_004834
  6
CONTINUOUS
 62
    2
 10
223.94399999999998
 20
125.03036315043721
 11
224.067
 21
125.5293631504372
  0
LINE
  8
_0-a_004834
  6
CONTINUOUS
 62
    2
 10
224.067
 20
125.5293631504372
 11
224.13499999999999
 21
126.03836315043719
  0
LINE
  8
_0-a_004834
  6
CONTINUOUS
 62
    2
 10
224.13499999999999
 20
126.03836315043719
 11
224.15
 21
126.40236315043719
  0
LINE
  8
_0-a_004834
  6
CONTINUOUS
 62
    2
 10
224.15
 20
126.40236315043719
 11
224.14699999999999
 21
126.5533631504372
  0
LINE
  8
_0-a_004834
  6
CONTINUOUS
 62
    2
 10
224.14699999999999
 20
126.5533631504372
 11
224.103
 21
127.0653631504372
  0
LINE
  8
_0-a_004834
  6
CONTINUOUS
 62
    2
 10
224.103
 20
127.0653631504372
 11
224.002
 21
127.56936315043719
  0
LINE
  8
_0-a_004834
  6
CONTINUOUS
 62
    2
 10
224.002
 20
127.56936315043719
 11
223.84800000000001
 21
128.0583631504372
  0
LINE
  8
_0-a_004834
  6
CONTINUOUS
 62
    2
 10
223.84800000000001
 20
128.0583631504372
 11
223.64199999999999
 21
128.52736315043719
  0
LINE
  8
_0-a_004834
  6
CONTINUOUS
 62
    2
 10
223.64199999999999
 20
128.52736315043719
 11
223.38900000000001
 21
128.9693631504372
  0
LINE
  8
_0-a_004834
  6
CONTINUOUS
 62
    2
 10
223.38900000000001
 20
128.9693631504372
 11
223.09299999999998
 21
129.3813631504372
  0
LINE
  8
_0-a_004834
  6
CONTINUOUS
 62
    2
 10
223.09299999999998
 20
129.3813631504372
 11
222.757
 21
129.75936315043711
  0
LINE
  8
_0-a_004834
  6
CONTINUOUS
 62
    2
 10
222.757
 20
129.75936315043711
 11
222.387
 21
130.1003631504372
  0
LINE
  8
_0-a_004834
  6
CONTINUOUS
 62
    2
 10
222.387
 20
130.1003631504372
 11
221.98699999999999
 21
130.40136315043719
  0
LINE
  8
_0-a_004834
  6
CONTINUOUS
 62
    2
 10
221.98699999999999
 20
130.40136315043719
 11
221.56200000000001
 21
130.6603631504372
  0
LINE
  8
_0-a_004834
  6
CONTINUOUS
 62
    2
 10
221.56200000000001
 20
130.6603631504372
 11
221.11600000000001
 21
130.87736315043719
  0
LINE
  8
_0-a_004834
  6
CONTINUOUS
 62
    2
 10
221.11600000000001
 20
130.87736315043719
 11
220.65299999999999
 21
131.05136315043719
  0
LINE
  8
_0-a_004834
  6
CONTINUOUS
 62
    2
 10
220.65299999999999
 20
131.05136315043719
 11
220.17799999999999
 21
131.18136315043719
  0
LINE
  8
_0-a_004834
  6
CONTINUOUS
 62
    2
 10
220.17799999999999
 20
131.18136315043719
 11
219.69399999999998
 21
131.2663631504372
  0
LINE
  8
_0-a_004834
  6
CONTINUOUS
 62
    2
 10
219.69399999999998
 20
131.2663631504372
 11
219.20500000000001
 21
131.30736315043719
  0
LINE
  8
_0-a_004834
  6
CONTINUOUS
 62
    2
 10
219.20500000000001
 20
131.30736315043719
 11
219.001
 21
131.31136315043718
  0
LINE
  8
_0-a_004834
  6
CONTINUOUS
 62
    2
 10
228.96
 20
131.31136315043718
 11
228.47599999999999
 21
131.2233631504371
  0
LINE
  8
_0-a_004834
  6
CONTINUOUS
 62
    2
 10
228.47599999999999
 20
131.2233631504371
 11
228.03200000000009
 21
130.9813631504372
  0
LINE
  8
_0-a_004834
  6
CONTINUOUS
 62
    2
 10
228.03200000000009
 20
130.9813631504372
 11
227.6520000000001
 21
130.6303631504372
  0
LINE
  8
_0-a_004834
  6
CONTINUOUS
 62
    2
 10
227.6520000000001
 20
130.6303631504372
 11
227.34499999999999
 21
130.22436315043719
  0
LINE
  8
_0-a_004834
  6
CONTINUOUS
 62
    2
 10
227.34499999999999
 20
130.22436315043719
 11
227.103
 21
129.8023631504372
  0
LINE
  8
_0-a_004834
  6
CONTINUOUS
 62
    2
 10
227.103
 20
129.8023631504372
 11
226.917
 21
129.38936315043719
  0
LINE
  8
_0-a_004834
  6
CONTINUOUS
 62
    2
 10
226.917
 20
129.38936315043719
 11
226.775
 21
128.99736315043719
  0
LINE
  8
_0-a_004834
  6
CONTINUOUS
 62
    2
 10
226.775
 20
128.99736315043719
 11
226.66599999999999
 21
128.6303631504372
  0
LINE
  8
_0-a_004834
  6
CONTINUOUS
 62
    2
 10
226.66599999999999
 20
128.6303631504372
 11
226.584
 21
128.2883631504371
  0
LINE
  8
_0-a_004834
  6
CONTINUOUS
 62
    2
 10
226.584
 20
128.2883631504371
 11
226.52099999999998
 21
127.9693631504372
  0
LINE
  8
_0-a_004834
  6
CONTINUOUS
 62
    2
 10
226.52099999999998
 20
127.9693631504372
 11
226.47300000000001
 21
127.66836315043718
  0
LINE
  8
_0-a_004834
  6
CONTINUOUS
 62
    2
 10
226.47300000000001
 20
127.66836315043718
 11
226.43799999999998
 21
127.38336315043719
  0
LINE
  8
_0-a_004834
  6
CONTINUOUS
 62
    2
 10
226.43799999999998
 20
127.38336315043719
 11
226.41300000000001
 21
127.11036315043719
  0
LINE
  8
_0-a_004834
  6
CONTINUOUS
 62
    2
 10
226.41300000000001
 20
127.11036315043719
 11
226.39699999999999
 21
126.8453631504372
  0
LINE
  8
_0-a_004834
  6
CONTINUOUS
 62
    2
 10
226.39699999999999
 20
126.8453631504372
 11
226.388
 21
126.58536315043718
  0
LINE
  8
_0-a_004834
  6
CONTINUOUS
 62
    2
 10
226.388
 20
126.58536315043718
 11
226.38599999999999
 21
126.3273631504372
  0
LINE
  8
_0-a_004834
  6
CONTINUOUS
 62
    2
 10
226.38599999999999
 20
126.3273631504372
 11
226.39199999999999
 21
126.06936315043719
  0
LINE
  8
_0-a_004834
  6
CONTINUOUS
 62
    2
 10
226.39199999999999
 20
126.06936315043719
 11
226.405
 21
125.80736315043719
  0
LINE
  8
_0-a_004834
  6
CONTINUOUS
 62
    2
 10
226.405
 20
125.80736315043719
 11
226.42599999999998
 21
125.53736315043718
  0
LINE
  8
_0-a_004834
  6
CONTINUOUS
 62
    2
 10
226.42599999999998
 20
125.53736315043718
 11
226.45699999999999
 21
125.2573631504371
  0
LINE
  8
_0-a_004834
  6
CONTINUOUS
 62
    2
 10
226.45699999999999
 20
125.2573631504371
 11
226.49899999999999
 21
124.9633631504372
  0
LINE
  8
_0-a_004834
  6
CONTINUOUS
 62
    2
 10
226.49899999999999
 20
124.9633631504372
 11
226.555
 21
124.65236315043719
  0
LINE
  8
_0-a_004834
  6
CONTINUOUS
 62
    2
 10
226.555
 20
124.65236315043719
 11
226.6290000000001
 21
124.3203631504372
  0
LINE
  8
_0-a_004834
  6
CONTINUOUS
 62
    2
 10
226.6290000000001
 20
124.3203631504372
 11
226.72599999999999
 21
123.9643631504372
  0
LINE
  8
_0-a_004834
  6
CONTINUOUS
 62
    2
 10
226.72599999999999
 20
123.9643631504372
 11
226.853
 21
123.5833631504372
  0
LINE
  8
_0-a_004834
  6
CONTINUOUS
 62
    2
 10
226.853
 20
123.5833631504372
 11
227.02000000000001
 21
123.1783631504372
  0
LINE
  8
_0-a_004834
  6
CONTINUOUS
 62
    2
 10
227.02000000000001
 20
123.1783631504372
 11
227.23699999999999
 21
122.75736315043718
  0
LINE
  8
_0-a_004834
  6
CONTINUOUS
 62
    2
 10
227.23699999999999
 20
122.75736315043718
 11
227.51599999999999
 21
122.34036315043721
  0
LINE
  8
_0-a_004834
  6
CONTINUOUS
 62
    2
 10
227.51599999999999
 20
122.34036315043721
 11
227.865
 21
121.96136315043719
  0
LINE
  8
_0-a_004834
  6
CONTINUOUS
 62
    2
 10
227.865
 20
121.96136315043719
 11
228.28499999999999
 21
121.66736315043721
  0
LINE
  8
_0-a_004834
  6
CONTINUOUS
 62
    2
 10
228.28499999999999
 20
121.66736315043721
 11
228.756
 21
121.5103631504372
  0
LINE
  8
_0-a_004834
  6
CONTINUOUS
 62
    2
 10
228.756
 20
121.5103631504372
 11
228.96
 21
121.49536315043721
  0
LINE
  8
_0-a_004834
  6
CONTINUOUS
 62
    2
 10
228.96
 20
121.49536315043721
 11
229.245
 21
121.52536315043718
  0
LINE
  8
_0-a_004834
  6
CONTINUOUS
 62
    2
 10
229.245
 20
121.52536315043718
 11
229.71
 21
121.7083631504372
  0
LINE
  8
_0-a_004834
  6
CONTINUOUS
 62
    2
 10
229.71
 20
121.7083631504372
 11
230.11799999999999
 21
122.02036315043719
  0
LINE
  8
_0-a_004834
  6
CONTINUOUS
 62
    2
 10
230.11799999999999
 20
122.02036315043719
 11
230.45599999999998
 21
122.4093631504372
  0
LINE
  8
_0-a_004834
  6
CONTINUOUS
 62
    2
 10
230.45599999999998
 20
122.4093631504372
 11
230.7240000000001
 21
122.82836315043721
  0
LINE
  8
_0-a_004834
  6
CONTINUOUS
 62
    2
 10
230.7240000000001
 20
122.82836315043721
 11
230.93100000000001
 21
123.24736315043719
  0
LINE
  8
_0-a_004834
  6
CONTINUOUS
 62
    2
 10
230.93100000000001
 20
123.24736315043719
 11
231.091
 21
123.6483631504372
  0
LINE
  8
_0-a_004834
  6
CONTINUOUS
 62
    2
 10
231.091
 20
123.6483631504372
 11
231.21199999999998
 21
124.02636315043719
  0
LINE
  8
_0-a_004834
  6
CONTINUOUS
 62
    2
 10
231.21199999999998
 20
124.02636315043719
 11
231.305
 21
124.37836315043719
  0
LINE
  8
_0-a_004834
  6
CONTINUOUS
 62
    2
 10
231.305
 20
124.37836315043719
 11
231.375
 21
124.70636315043719
  0
LINE
  8
_0-a_004834
  6
CONTINUOUS
 62
    2
 10
231.375
 20
124.70636315043719
 11
231.429
 21
125.01436315043719
  0
LINE
  8
_0-a_004834
  6
CONTINUOUS
 62
    2
 10
231.429
 20
125.01436315043719
 11
231.46899999999999
 21
125.30536315043718
  0
LINE
  8
_0-a_004834
  6
CONTINUOUS
 62
    2
 10
231.46899999999999
 20
125.30536315043718
 11
231.49799999999999
 21
125.5833631504372
  0
LINE
  8
_0-a_004834
  6
CONTINUOUS
 62
    2
 10
231.49799999999999
 20
125.5833631504372
 11
231.518
 21
125.8513631504372
  0
LINE
  8
_0-a_004834
  6
CONTINUOUS
 62
    2
 10
231.518
 20
125.8513631504372
 11
231.53
 21
126.1133631504372
  0
LINE
  8
_0-a_004834
  6
CONTINUOUS
 62
    2
 10
231.53
 20
126.1133631504372
 11
231.53399999999999
 21
126.37136315043719
  0
LINE
  8
_0-a_004834
  6
CONTINUOUS
 62
    2
 10
231.53399999999999
 20
126.37136315043719
 11
231.531
 21
126.6293631504372
  0
LINE
  8
_0-a_004834
  6
CONTINUOUS
 62
    2
 10
231.531
 20
126.6293631504372
 11
231.52099999999998
 21
126.88936315043719
  0
LINE
  8
_0-a_004834
  6
CONTINUOUS
 62
    2
 10
231.52099999999998
 20
126.88936315043719
 11
231.5040000000001
 21
127.15536315043721
  0
LINE
  8
_0-a_004834
  6
CONTINUOUS
 62
    2
 10
231.5040000000001
 20
127.15536315043721
 11
231.477
 21
127.43036315043718
  0
LINE
  8
_0-a_004834
  6
CONTINUOUS
 62
    2
 10
231.477
 20
127.43036315043718
 11
231.43999999999999
 21
127.71836315043719
  0
LINE
  8
_0-a_004834
  6
CONTINUOUS
 62
    2
 10
231.43999999999999
 20
127.71836315043719
 11
231.38999999999998
 21
128.02136315043719
  0
LINE
  8
_0-a_004834
  6
CONTINUOUS
 62
    2
 10
231.38999999999998
 20
128.02136315043719
 11
231.32400000000001
 21
128.3443631504372
  0
LINE
  8
_0-a_004834
  6
CONTINUOUS
 62
    2
 10
231.32400000000001
 20
128.3443631504372
 11
231.23699999999999
 21
128.6903631504372
  0
LINE
  8
_0-a_004834
  6
CONTINUOUS
 62
    2
 10
231.23699999999999
 20
128.6903631504372
 11
231.1240000000001
 21
129.06136315043718
  0
LINE
  8
_0-a_004834
  6
CONTINUOUS
 62
    2
 10
231.1240000000001
 20
129.06136315043718
 11
230.97499999999999
 21
129.4573631504372
  0
LINE
  8
_0-a_004834
  6
CONTINUOUS
 62
    2
 10
230.97499999999999
 20
129.4573631504372
 11
230.781
 21
129.87236315043719
  0
LINE
  8
_0-a_004834
  6
CONTINUOUS
 62
    2
 10
230.781
 20
129.87236315043719
 11
230.52899999999999
 21
130.2943631504371
  0
LINE
  8
_0-a_004834
  6
CONTINUOUS
 62
    2
 10
230.52899999999999
 20
130.2943631504371
 11
230.209
 21
130.69436315043719
  0
LINE
  8
_0-a_004834
  6
CONTINUOUS
 62
    2
 10
230.209
 20
130.69436315043719
 11
229.817
 21
131.03036315043721
  0
LINE
  8
_0-a_004834
  6
CONTINUOUS
 62
    2
 10
229.817
 20
131.03036315043721
 11
229.364
 21
131.2503631504372
  0
LINE
  8
_0-a_004834
  6
CONTINUOUS
 62
    2
 10
229.364
 20
131.2503631504372
 11
228.96
 21
131.31136315043718
  0
LINE
  8
_0-a_004834
  6
CONTINUOUS
 62
    2
 10
311.04099999999999
 20
131.31136315043718
 11
310.55700000000001
 21
131.2233631504371
  0
LINE
  8
_0-a_004834
  6
CONTINUOUS
 62
    2
 10
310.55700000000001
 20
131.2233631504371
 11
310.11299999999999
 21
130.9813631504372
  0
LINE
  8
_0-a_004834
  6
CONTINUOUS
 62
    2
 10
310.11299999999999
 20
130.9813631504372
 11
309.733
 21
130.6303631504372
  0
LINE
  8
_0-a_004834
  6
CONTINUOUS
 62
    2
 10
309.733
 20
130.6303631504372
 11
309.42500000000001
 21
130.22436315043719
  0
LINE
  8
_0-a_004834
  6
CONTINUOUS
 62
    2
 10
309.42500000000001
 20
130.22436315043719
 11
309.18399999999996
 21
129.8023631504372
  0
LINE
  8
_0-a_004834
  6
CONTINUOUS
 62
    2
 10
309.18399999999996
 20
129.8023631504372
 11
308.99799999999999
 21
129.38936315043719
  0
LINE
  8
_0-a_004834
  6
CONTINUOUS
 62
    2
 10
308.99799999999999
 20
129.38936315043719
 11
308.85599999999999
 21
128.99736315043719
  0
LINE
  8
_0-a_004834
  6
CONTINUOUS
 62
    2
 10
308.85599999999999
 20
128.99736315043719
 11
308.74700000000001
 21
128.6303631504372
  0
LINE
  8
_0-a_004834
  6
CONTINUOUS
 62
    2
 10
308.74700000000001
 20
128.6303631504372
 11
308.66399999999998
 21
128.2883631504371
  0
LINE
  8
_0-a_004834
  6
CONTINUOUS
 62
    2
 10
308.66399999999998
 20
128.2883631504371
 11
308.60099999999999
 21
127.9693631504372
  0
LINE
  8
_0-a_004834
  6
CONTINUOUS
 62
    2
 10
308.60099999999999
 20
127.9693631504372
 11
308.55399999999997
 21
127.66836315043718
  0
LINE
  8
_0-a_004834
  6
CONTINUOUS
 62
    2
 10
308.55399999999997
 20
127.66836315043718
 11
308.519
 21
127.38336315043719
  0
LINE
  8
_0-a_004834
  6
CONTINUOUS
 62
    2
 10
308.519
 20
127.38336315043719
 11
308.49400000000002
 21
127.11036315043719
  0
LINE
  8
_0-a_004834
  6
CONTINUOUS
 62
    2
 10
308.49400000000002
 20
127.11036315043719
 11
308.47699999999997
 21
126.8453631504372
  0
LINE
  8
_0-a_004834
  6
CONTINUOUS
 62
    2
 10
308.47699999999997
 20
126.8453631504372
 11
308.46899999999999
 21
126.58536315043718
  0
LINE
  8
_0-a_004834
  6
CONTINUOUS
 62
    2
 10
308.46899999999999
 20
126.58536315043718
 11
308.46699999999998
 21
126.3273631504372
  0
LINE
  8
_0-a_004834
  6
CONTINUOUS
 62
    2
 10
308.46699999999998
 20
126.3273631504372
 11
308.47300000000001
 21
126.06936315043719
  0
LINE
  8
_0-a_004834
  6
CONTINUOUS
 62
    2
 10
308.47300000000001
 20
126.06936315043719
 11
308.48599999999998
 21
125.80736315043719
  0
LINE
  8
_0-a_004834
  6
CONTINUOUS
 62
    2
 10
308.48599999999998
 20
125.80736315043719
 11
308.507
 21
125.53736315043718
  0
LINE
  8
_0-a_004834
  6
CONTINUOUS
 62
    2
 10
308.507
 20
125.53736315043718
 11
308.53800000000001
 21
125.2573631504371
  0
LINE
  8
_0-a_004834
  6
CONTINUOUS
 62
    2
 10
308.53800000000001
 20
125.2573631504371
 11
308.57999999999998
 21
124.9633631504372
  0
LINE
  8
_0-a_004834
  6
CONTINUOUS
 62
    2
 10
308.57999999999998
 20
124.9633631504372
 11
308.63599999999996
 21
124.65236315043719
  0
LINE
  8
_0-a_004834
  6
CONTINUOUS
 62
    2
 10
308.63599999999996
 20
124.65236315043719
 11
308.70999999999997
 21
124.3203631504372
  0
LINE
  8
_0-a_004834
  6
CONTINUOUS
 62
    2
 10
308.70999999999997
 20
124.3203631504372
 11
308.80700000000001
 21
123.9643631504372
  0
LINE
  8
_0-a_004834
  6
CONTINUOUS
 62
    2
 10
308.80700000000001
 20
123.9643631504372
 11
308.93399999999996
 21
123.5833631504372
  0
LINE
  8
_0-a_004834
  6
CONTINUOUS
 62
    2
 10
308.93399999999996
 20
123.5833631504372
 11
309.10099999999999
 21
123.1783631504372
  0
LINE
  8
_0-a_004834
  6
CONTINUOUS
 62
    2
 10
309.10099999999999
 20
123.1783631504372
 11
309.317
 21
122.75736315043718
  0
LINE
  8
_0-a_004834
  6
CONTINUOUS
 62
    2
 10
309.317
 20
122.75736315043718
 11
309.59699999999997
 21
122.34036315043721
  0
LINE
  8
_0-a_004834
  6
CONTINUOUS
 62
    2
 10
309.59699999999997
 20
122.34036315043721
 11
309.94600000000002
 21
121.96136315043719
  0
LINE
  8
_0-a_004834
  6
CONTINUOUS
 62
    2
 10
309.94600000000002
 20
121.96136315043719
 11
310.36599999999998
 21
121.66736315043721
  0
LINE
  8
_0-a_004834
  6
CONTINUOUS
 62
    2
 10
310.36599999999998
 20
121.66736315043721
 11
310.83699999999998
 21
121.5103631504372
  0
LINE
  8
_0-a_004834
  6
CONTINUOUS
 62
    2
 10
310.83699999999998
 20
121.5103631504372
 11
311.04099999999999
 21
121.49536315043721
  0
LINE
  8
_0-a_004834
  6
CONTINUOUS
 62
    2
 10
311.04099999999999
 20
121.49536315043721
 11
311.32600000000002
 21
121.52536315043718
  0
LINE
  8
_0-a_004834
  6
CONTINUOUS
 62
    2
 10
311.32600000000002
 20
121.52536315043718
 11
311.79099999999999
 21
121.7083631504372
  0
LINE
  8
_0-a_004834
  6
CONTINUOUS
 62
    2
 10
311.79099999999999
 20
121.7083631504372
 11
312.19900000000001
 21
122.02036315043719
  0
LINE
  8
_0-a_004834
  6
CONTINUOUS
 62
    2
 10
312.19900000000001
 20
122.02036315043719
 11
312.53700000000003
 21
122.4093631504372
  0
LINE
  8
_0-a_004834
  6
CONTINUOUS
 62
    2
 10
312.53700000000003
 20
122.4093631504372
 11
312.805
 21
122.82836315043721
  0
LINE
  8
_0-a_004834
  6
CONTINUOUS
 62
    2
 10
312.805
 20
122.82836315043721
 11
313.012
 21
123.24736315043719
  0
LINE
  8
_0-a_004834
  6
CONTINUOUS
 62
    2
 10
313.012
 20
123.24736315043719
 11
313.17099999999999
 21
123.6483631504372
  0
LINE
  8
_0-a_004834
  6
CONTINUOUS
 62
    2
 10
313.17099999999999
 20
123.6483631504372
 11
313.293
 21
124.02636315043719
  0
LINE
  8
_0-a_004834
  6
CONTINUOUS
 62
    2
 10
313.293
 20
124.02636315043719
 11
313.38599999999996
 21
124.37836315043719
  0
LINE
  8
_0-a_004834
  6
CONTINUOUS
 62
    2
 10
313.38599999999996
 20
124.37836315043719
 11
313.45600000000001
 21
124.70636315043719
  0
LINE
  8
_0-a_004834
  6
CONTINUOUS
 62
    2
 10
313.45600000000001
 20
124.70636315043719
 11
313.50999999999999
 21
125.01436315043719
  0
LINE
  8
_0-a_004834
  6
CONTINUOUS
 62
    2
 10
313.50999999999999
 20
125.01436315043719
 11
313.55000000000001
 21
125.30536315043718
  0
LINE
  8
_0-a_004834
  6
CONTINUOUS
 62
    2
 10
313.55000000000001
 20
125.30536315043718
 11
313.579
 21
125.5833631504372
  0
LINE
  8
_0-a_004834
  6
CONTINUOUS
 62
    2
 10
313.579
 20
125.5833631504372
 11
313.59899999999998
 21
125.8513631504372
  0
LINE
  8
_0-a_004834
  6
CONTINUOUS
 62
    2
 10
313.59899999999998
 20
125.8513631504372
 11
313.61000000000001
 21
126.1133631504372
  0
LINE
  8
_0-a_004834
  6
CONTINUOUS
 62
    2
 10
313.61000000000001
 20
126.1133631504372
 11
313.615
 21
126.37136315043719
  0
LINE
  8
_0-a_004834
  6
CONTINUOUS
 62
    2
 10
313.615
 20
126.37136315043719
 11
313.61199999999996
 21
126.6293631504372
  0
LINE
  8
_0-a_004834
  6
CONTINUOUS
 62
    2
 10
313.61199999999996
 20
126.6293631504372
 11
313.60199999999997
 21
126.88936315043719
  0
LINE
  8
_0-a_004834
  6
CONTINUOUS
 62
    2
 10
313.60199999999997
 20
126.88936315043719
 11
313.584
 21
127.15536315043721
  0
LINE
  8
_0-a_004834
  6
CONTINUOUS
 62
    2
 10
313.584
 20
127.15536315043721
 11
313.55799999999999
 21
127.43036315043718
  0
LINE
  8
_0-a_004834
  6
CONTINUOUS
 62
    2
 10
313.55799999999999
 20
127.43036315043718
 11
313.52100000000001
 21
127.71836315043719
  0
LINE
  8
_0-a_004834
  6
CONTINUOUS
 62
    2
 10
313.52100000000001
 20
127.71836315043719
 11
313.471
 21
128.02136315043719
  0
LINE
  8
_0-a_004834
  6
CONTINUOUS
 62
    2
 10
313.471
 20
128.02136315043719
 11
313.40499999999997
 21
128.3443631504372
  0
LINE
  8
_0-a_004834
  6
CONTINUOUS
 62
    2
 10
313.40499999999997
 20
128.3443631504372
 11
313.31799999999998
 21
128.6903631504372
  0
LINE
  8
_0-a_004834
  6
CONTINUOUS
 62
    2
 10
313.31799999999998
 20
128.6903631504372
 11
313.20499999999998
 21
129.06136315043718
  0
LINE
  8
_0-a_004834
  6
CONTINUOUS
 62
    2
 10
313.20499999999998
 20
129.06136315043718
 11
313.05599999999998
 21
129.4573631504372
  0
LINE
  8
_0-a_004834
  6
CONTINUOUS
 62
    2
 10
313.05599999999998
 20
129.4573631504372
 11
312.86099999999998
 21
129.87236315043719
  0
LINE
  8
_0-a_004834
  6
CONTINUOUS
 62
    2
 10
312.86099999999998
 20
129.87236315043719
 11
312.61000000000001
 21
130.2943631504371
  0
LINE
  8
_0-a_004834
  6
CONTINUOUS
 62
    2
 10
312.61000000000001
 20
130.2943631504371
 11
312.29000000000002
 21
130.69436315043719
  0
LINE
  8
_0-a_004834
  6
CONTINUOUS
 62
    2
 10
312.29000000000002
 20
130.69436315043719
 11
311.89800000000002
 21
131.03036315043721
  0
LINE
  8
_0-a_004834
  6
CONTINUOUS
 62
    2
 10
311.89800000000002
 20
131.03036315043721
 11
311.44499999999999
 21
131.2503631504372
  0
LINE
  8
_0-a_004834
  6
CONTINUOUS
 62
    2
 10
311.44499999999999
 20
131.2503631504372
 11
311.04099999999999
 21
131.31136315043718
  0
LINE
  8
_0-a_004834
  6
CONTINUOUS
 62
    2
 10
321
 20
131.31136315043718
 11
320.50999999999999
 21
131.28836315043719
  0
LINE
  8
_0-a_004834
  6
CONTINUOUS
 62
    2
 10
320.50999999999999
 20
131.28836315043719
 11
320.02300000000002
 21
131.22236315043718
  0
LINE
  8
_0-a_004834
  6
CONTINUOUS
 62
    2
 10
320.02300000000002
 20
131.22236315043718
 11
319.54399999999998
 21
131.11036315043719
  0
LINE
  8
_0-a_004834
  6
CONTINUOUS
 62
    2
 10
319.54399999999998
 20
131.11036315043719
 11
319.07499999999998
 21
130.95536315043719
  0
LINE
  8
_0-a_004834
  6
CONTINUOUS
 62
    2
 10
319.07499999999998
 20
130.95536315043719
 11
318.62200000000001
 21
130.7563631504372
  0
LINE
  8
_0-a_004834
  6
CONTINUOUS
 62
    2
 10
318.62200000000001
 20
130.7563631504372
 11
318.18799999999998
 21
130.5143631504371
  0
LINE
  8
_0-a_004834
  6
CONTINUOUS
 62
    2
 10
318.18799999999998
 20
130.5143631504371
 11
317.77699999999998
 21
130.23036315043719
  0
LINE
  8
_0-a_004834
  6
CONTINUOUS
 62
    2
 10
317.77699999999998
 20
130.23036315043719
 11
317.39300000000002
 21
129.90536315043721
  0
LINE
  8
_0-a_004834
  6
CONTINUOUS
 62
    2
 10
317.39300000000002
 20
129.90536315043721
 11
317.043
 21
129.54336315043718
  0
LINE
  8
_0-a_004834
  6
CONTINUOUS
 62
    2
 10
317.043
 20
129.54336315043718
 11
316.73000000000001
 21
129.14536315043719
  0
LINE
  8
_0-a_004834
  6
CONTINUOUS
 62
    2
 10
316.73000000000001
 20
129.14536315043719
 11
316.45799999999996
 21
128.7143631504372
  0
LINE
  8
_0-a_004834
  6
CONTINUOUS
 62
    2
 10
316.45799999999996
 20
128.7143631504372
 11
316.233
 21
128.2563631504372
  0
LINE
  8
_0-a_004834
  6
CONTINUOUS
 62
    2
 10
316.233
 20
128.2563631504372
 11
316.05700000000001
 21
127.77536315043718
  0
LINE
  8
_0-a_004834
  6
CONTINUOUS
 62
    2
 10
316.05700000000001
 20
127.77536315043718
 11
315.93399999999996
 21
127.27636315043719
  0
LINE
  8
_0-a_004834
  6
CONTINUOUS
 62
    2
 10
315.93399999999996
 20
127.27636315043719
 11
315.865
 21
126.7673631504372
  0
LINE
  8
_0-a_004834
  6
CONTINUOUS
 62
    2
 10
315.865
 20
126.7673631504372
 11
315.85099999999999
 21
126.40236315043719
  0
LINE
  8
_0-a_004834
  6
CONTINUOUS
 62
    2
 10
315.85099999999999
 20
126.40236315043719
 11
315.85399999999998
 21
126.25236315043719
  0
LINE
  8
_0-a_004834
  6
CONTINUOUS
 62
    2
 10
315.85399999999998
 20
126.25236315043719
 11
315.89800000000002
 21
125.74036315043719
  0
LINE
  8
_0-a_004834
  6
CONTINUOUS
 62
    2
 10
315.89800000000002
 20
125.74036315043719
 11
315.99900000000002
 21
125.23636315043719
  0
LINE
  8
_0-a_004834
  6
CONTINUOUS
 62
    2
 10
315.99900000000002
 20
125.23636315043719
 11
316.15300000000002
 21
124.74736315043719
  0
LINE
  8
_0-a_004834
  6
CONTINUOUS
 62
    2
 10
316.15300000000002
 20
124.74736315043719
 11
316.35899999999998
 21
124.2783631504372
  0
LINE
  8
_0-a_004834
  6
CONTINUOUS
 62
    2
 10
316.35899999999998
 20
124.2783631504372
 11
316.61199999999996
 21
123.83636315043719
  0
LINE
  8
_0-a_004834
  6
CONTINUOUS
 62
    2
 10
316.61199999999996
 20
123.83636315043719
 11
316.90800000000001
 21
123.42436315043718
  0
LINE
  8
_0-a_004834
  6
CONTINUOUS
 62
    2
 10
316.90800000000001
 20
123.42436315043718
 11
317.24400000000002
 21
123.0463631504372
  0
LINE
  8
_0-a_004834
  6
CONTINUOUS
 62
    2
 10
317.24400000000002
 20
123.0463631504372
 11
317.61400000000003
 21
122.70536315043719
  0
LINE
  8
_0-a_004834
  6
CONTINUOUS
 62
    2
 10
317.61400000000003
 20
122.70536315043719
 11
318.01400000000001
 21
122.40536315043721
  0
LINE
  8
_0-a_004834
  6
CONTINUOUS
 62
    2
 10
318.01400000000001
 20
122.40536315043721
 11
318.43899999999996
 21
122.14536315043719
  0
LINE
  8
_0-a_004834
  6
CONTINUOUS
 62
    2
 10
318.43899999999996
 20
122.14536315043719
 11
318.88499999999999
 21
121.9283631504372
  0
LINE
  8
_0-a_004834
  6
CONTINUOUS
 62
    2
 10
318.88499999999999
 20
121.9283631504372
 11
319.34800000000001
 21
121.7543631504372
  0
LINE
  8
_0-a_004834
  6
CONTINUOUS
 62
    2
 10
319.34800000000001
 20
121.7543631504372
 11
319.82299999999997
 21
121.6253631504372
  0
LINE
  8
_0-a_004834
  6
CONTINUOUS
 62
    2
 10
319.82299999999997
 20
121.6253631504372
 11
320.30700000000001
 21
121.53936315043719
  0
LINE
  8
_0-a_004834
  6
CONTINUOUS
 62
    2
 10
320.30700000000001
 20
121.53936315043719
 11
320.79599999999999
 21
121.4993631504372
  0
LINE
  8
_0-a_004834
  6
CONTINUOUS
 62
    2
 10
320.79599999999999
 20
121.4993631504372
 11
321
 21
121.49536315043721
  0
LINE
  8
_0-a_004834
  6
CONTINUOUS
 62
    2
 10
321
 20
121.49536315043721
 11
321.49
 21
121.5173631504372
  0
LINE
  8
_0-a_004834
  6
CONTINUOUS
 62
    2
 10
321.49
 20
121.5173631504372
 11
321.97699999999997
 21
121.58436315043721
  0
LINE
  8
_0-a_004834
  6
CONTINUOUS
 62
    2
 10
321.97699999999997
 20
121.58436315043721
 11
322.45699999999999
 21
121.6953631504372
  0
LINE
  8
_0-a_004834
  6
CONTINUOUS
 62
    2
 10
322.45699999999999
 20
121.6953631504372
 11
322.92499999999995
 21
121.8503631504372
  0
LINE
  8
_0-a_004834
  6
CONTINUOUS
 62
    2
 10
322.92499999999995
 20
121.8503631504372
 11
323.37799999999998
 21
122.05036315043719
  0
LINE
  8
_0-a_004834
  6
CONTINUOUS
 62
    2
 10
323.37799999999998
 20
122.05036315043719
 11
323.81299999999998
 21
122.29236315043721
  0
LINE
  8
_0-a_004834
  6
CONTINUOUS
 62
    2
 10
323.81299999999998
 20
122.29236315043721
 11
324.22399999999998
 21
122.5763631504372
  0
LINE
  8
_0-a_004834
  6
CONTINUOUS
 62
    2
 10
324.22399999999998
 20
122.5763631504372
 11
324.60700000000002
 21
122.90036315043718
  0
LINE
  8
_0-a_004834
  6
CONTINUOUS
 62
    2
 10
324.60700000000002
 20
122.90036315043718
 11
324.95699999999999
 21
123.2623631504372
  0
LINE
  8
_0-a_004834
  6
CONTINUOUS
 62
    2
 10
324.95699999999999
 20
123.2623631504372
 11
325.27100000000001
 21
123.66136315043721
  0
LINE
  8
_0-a_004834
  6
CONTINUOUS
 62
    2
 10
325.27100000000001
 20
123.66136315043721
 11
325.54200000000003
 21
124.0913631504371
  0
LINE
  8
_0-a_004834
  6
CONTINUOUS
 62
    2
 10
325.54200000000003
 20
124.0913631504371
 11
325.76799999999997
 21
124.54936315043718
  0
LINE
  8
_0-a_004834
  6
CONTINUOUS
 62
    2
 10
325.76799999999997
 20
124.54936315043718
 11
325.94400000000001
 21
125.03036315043721
  0
LINE
  8
_0-a_004834
  6
CONTINUOUS
 62
    2
 10
325.94400000000001
 20
125.03036315043721
 11
326.067
 21
125.5293631504372
  0
LINE
  8
_0-a_004834
  6
CONTINUOUS
 62
    2
 10
326.067
 20
125.5293631504372
 11
326.13499999999999
 21
126.03936315043719
  0
LINE
  8
_0-a_004834
  6
CONTINUOUS
 62
    2
 10
326.13499999999999
 20
126.03936315043719
 11
326.149
 21
126.4033631504372
  0
LINE
  8
_0-a_004834
  6
CONTINUOUS
 62
    2
 10
326.149
 20
126.4033631504372
 11
326.14699999999999
 21
126.5533631504372
  0
LINE
  8
_0-a_004834
  6
CONTINUOUS
 62
    2
 10
326.14699999999999
 20
126.5533631504372
 11
326.10199999999997
 21
127.06636315043721
  0
LINE
  8
_0-a_004834
  6
CONTINUOUS
 62
    2
 10
326.10199999999997
 20
127.06636315043721
 11
326.002
 21
127.5703631504372
  0
LINE
  8
_0-a_004834
  6
CONTINUOUS
 62
    2
 10
326.002
 20
127.5703631504372
 11
325.84699999999997
 21
128.0593631504372
  0
LINE
  8
_0-a_004834
  6
CONTINUOUS
 62
    2
 10
325.84699999999997
 20
128.0593631504372
 11
325.64200000000005
 21
128.52736315043719
  0
LINE
  8
_0-a_004834
  6
CONTINUOUS
 62
    2
 10
325.64200000000005
 20
128.52736315043719
 11
325.38900000000001
 21
128.9693631504372
  0
LINE
  8
_0-a_004834
  6
CONTINUOUS
 62
    2
 10
325.38900000000001
 20
128.9693631504372
 11
325.09299999999996
 21
129.3813631504372
  0
LINE
  8
_0-a_004834
  6
CONTINUOUS
 62
    2
 10
325.09299999999996
 20
129.3813631504372
 11
324.757
 21
129.75936315043711
  0
LINE
  8
_0-a_004834
  6
CONTINUOUS
 62
    2
 10
324.757
 20
129.75936315043711
 11
324.387
 21
130.1003631504372
  0
LINE
  8
_0-a_004834
  6
CONTINUOUS
 62
    2
 10
324.387
 20
130.1003631504372
 11
323.98699999999996
 21
130.40136315043719
  0
LINE
  8
_0-a_004834
  6
CONTINUOUS
 62
    2
 10
323.98699999999996
 20
130.40136315043719
 11
323.56200000000001
 21
130.6603631504372
  0
LINE
  8
_0-a_004834
  6
CONTINUOUS
 62
    2
 10
323.56200000000001
 20
130.6603631504372
 11
323.11599999999998
 21
130.87736315043719
  0
LINE
  8
_0-a_004834
  6
CONTINUOUS
 62
    2
 10
323.11599999999998
 20
130.87736315043719
 11
322.65300000000002
 21
131.05136315043719
  0
LINE
  8
_0-a_004834
  6
CONTINUOUS
 62
    2
 10
322.65300000000002
 20
131.05136315043719
 11
322.17799999999999
 21
131.18136315043719
  0
LINE
  8
_0-a_004834
  6
CONTINUOUS
 62
    2
 10
322.17799999999999
 20
131.18136315043719
 11
321.69299999999998
 21
131.2663631504372
  0
LINE
  8
_0-a_004834
  6
CONTINUOUS
 62
    2
 10
321.69299999999998
 20
131.2663631504372
 11
321.204
 21
131.30736315043719
  0
LINE
  8
_0-a_004834
  6
CONTINUOUS
 62
    2
 10
321.204
 20
131.30736315043719
 11
321
 21
131.31136315043718
  0
LINE
  8
_0-a_004834
  6
CONTINUOUS
 62
    2
 10
330.95999999999997
 20
131.31136315043718
 11
330.47599999999999
 21
131.2233631504371
  0
LINE
  8
_0-a_004834
  6
CONTINUOUS
 62
    2
 10
330.47599999999999
 20
131.2233631504371
 11
330.03200000000003
 21
130.9813631504372
  0
LINE
  8
_0-a_004834
  6
CONTINUOUS
 62
    2
 10
330.03200000000003
 20
130.9813631504372
 11
329.65199999999998
 21
130.6303631504372
  0
LINE
  8
_0-a_004834
  6
CONTINUOUS
 62
    2
 10
329.65199999999998
 20
130.6303631504372
 11
329.34399999999999
 21
130.22436315043719
  0
LINE
  8
_0-a_004834
  6
CONTINUOUS
 62
    2
 10
329.34399999999999
 20
130.22436315043719
 11
329.103
 21
129.8023631504372
  0
LINE
  8
_0-a_004834
  6
CONTINUOUS
 62
    2
 10
329.103
 20
129.8023631504372
 11
328.91700000000003
 21
129.38936315043719
  0
LINE
  8
_0-a_004834
  6
CONTINUOUS
 62
    2
 10
328.91700000000003
 20
129.38936315043719
 11
328.77499999999997
 21
128.99736315043719
  0
LINE
  8
_0-a_004834
  6
CONTINUOUS
 62
    2
 10
328.77499999999997
 20
128.99736315043719
 11
328.66599999999999
 21
128.6303631504372
  0
LINE
  8
_0-a_004834
  6
CONTINUOUS
 62
    2
 10
328.66599999999999
 20
128.6303631504372
 11
328.58299999999996
 21
128.2883631504371
  0
LINE
  8
_0-a_004834
  6
CONTINUOUS
 62
    2
 10
328.58299999999996
 20
128.2883631504371
 11
328.51999999999998
 21
127.9693631504372
  0
LINE
  8
_0-a_004834
  6
CONTINUOUS
 62
    2
 10
328.51999999999998
 20
127.9693631504372
 11
328.47299999999995
 21
127.66836315043718
  0
LINE
  8
_0-a_004834
  6
CONTINUOUS
 62
    2
 10
328.47299999999995
 20
127.66836315043718
 11
328.43799999999998
 21
127.38336315043719
  0
LINE
  8
_0-a_004834
  6
CONTINUOUS
 62
    2
 10
328.43799999999998
 20
127.38336315043719
 11
328.41300000000001
 21
127.11036315043719
  0
LINE
  8
_0-a_004834
  6
CONTINUOUS
 62
    2
 10
328.41300000000001
 20
127.11036315043719
 11
328.39600000000001
 21
126.8453631504372
  0
LINE
  8
_0-a_004834
  6
CONTINUOUS
 62
    2
 10
328.39600000000001
 20
126.8453631504372
 11
328.387
 21
126.58536315043718
  0
LINE
  8
_0-a_004834
  6
CONTINUOUS
 62
    2
 10
328.387
 20
126.58536315043718
 11
328.38600000000002
 21
126.3273631504372
  0
LINE
  8
_0-a_004834
  6
CONTINUOUS
 62
    2
 10
328.38600000000002
 20
126.3273631504372
 11
328.39199999999999
 21
126.06936315043719
  0
LINE
  8
_0-a_004834
  6
CONTINUOUS
 62
    2
 10
328.39199999999999
 20
126.06936315043719
 11
328.40500000000002
 21
125.80736315043719
  0
LINE
  8
_0-a_004834
  6
CONTINUOUS
 62
    2
 10
328.40500000000002
 20
125.80736315043719
 11
328.42599999999998
 21
125.53736315043718
  0
LINE
  8
_0-a_004834
  6
CONTINUOUS
 62
    2
 10
328.42599999999998
 20
125.53736315043718
 11
328.45699999999999
 21
125.2573631504371
  0
LINE
  8
_0-a_004834
  6
CONTINUOUS
 62
    2
 10
328.45699999999999
 20
125.2573631504371
 11
328.49900000000002
 21
124.9633631504372
  0
LINE
  8
_0-a_004834
  6
CONTINUOUS
 62
    2
 10
328.49900000000002
 20
124.9633631504372
 11
328.555
 21
124.65236315043719
  0
LINE
  8
_0-a_004834
  6
CONTINUOUS
 62
    2
 10
328.555
 20
124.65236315043719
 11
328.62900000000001
 21
124.3203631504372
  0
LINE
  8
_0-a_004834
  6
CONTINUOUS
 62
    2
 10
328.62900000000001
 20
124.3203631504372
 11
328.72599999999999
 21
123.9643631504372
  0
LINE
  8
_0-a_004834
  6
CONTINUOUS
 62
    2
 10
328.72599999999999
 20
123.9643631504372
 11
328.853
 21
123.5833631504372
  0
LINE
  8
_0-a_004834
  6
CONTINUOUS
 62
    2
 10
328.853
 20
123.5833631504372
 11
329.019
 21
123.1783631504372
  0
LINE
  8
_0-a_004834
  6
CONTINUOUS
 62
    2
 10
329.019
 20
123.1783631504372
 11
329.23599999999998
 21
122.75736315043718
  0
LINE
  8
_0-a_004834
  6
CONTINUOUS
 62
    2
 10
329.23599999999998
 20
122.75736315043718
 11
329.51499999999998
 21
122.34036315043721
  0
LINE
  8
_0-a_004834
  6
CONTINUOUS
 62
    2
 10
329.51499999999998
 20
122.34036315043721
 11
329.865
 21
121.96136315043719
  0
LINE
  8
_0-a_004834
  6
CONTINUOUS
 62
    2
 10
329.865
 20
121.96136315043719
 11
330.28499999999996
 21
121.66736315043721
  0
LINE
  8
_0-a_004834
  6
CONTINUOUS
 62
    2
 10
330.28499999999996
 20
121.66736315043721
 11
330.75599999999997
 21
121.5103631504372
  0
LINE
  8
_0-a_004834
  6
CONTINUOUS
 62
    2
 10
330.75599999999997
 20
121.5103631504372
 11
330.95999999999997
 21
121.49536315043721
  0
LINE
  8
_0-a_004834
  6
CONTINUOUS
 62
    2
 10
330.95999999999997
 20
121.49536315043721
 11
331.245
 21
121.52536315043718
  0
LINE
  8
_0-a_004834
  6
CONTINUOUS
 62
    2
 10
331.245
 20
121.52536315043718
 11
331.70999999999997
 21
121.7083631504372
  0
LINE
  8
_0-a_004834
  6
CONTINUOUS
 62
    2
 10
331.70999999999997
 20
121.7083631504372
 11
332.11799999999999
 21
122.02036315043719
  0
LINE
  8
_0-a_004834
  6
CONTINUOUS
 62
    2
 10
332.11799999999999
 20
122.02036315043719
 11
332.45600000000001
 21
122.4093631504372
  0
LINE
  8
_0-a_004834
  6
CONTINUOUS
 62
    2
 10
332.45600000000001
 20
122.4093631504372
 11
332.72399999999998
 21
122.82836315043721
  0
LINE
  8
_0-a_004834
  6
CONTINUOUS
 62
    2
 10
332.72399999999998
 20
122.82836315043721
 11
332.93099999999998
 21
123.24736315043719
  0
LINE
  8
_0-a_004834
  6
CONTINUOUS
 62
    2
 10
332.93099999999998
 20
123.24736315043719
 11
333.09000000000003
 21
123.6483631504372
  0
LINE
  8
_0-a_004834
  6
CONTINUOUS
 62
    2
 10
333.09000000000003
 20
123.6483631504372
 11
333.21199999999998
 21
124.02636315043719
  0
LINE
  8
_0-a_004834
  6
CONTINUOUS
 62
    2
 10
333.21199999999998
 20
124.02636315043719
 11
333.30399999999997
 21
124.37836315043719
  0
LINE
  8
_0-a_004834
  6
CONTINUOUS
 62
    2
 10
333.30399999999997
 20
124.37836315043719
 11
333.375
 21
124.70636315043719
  0
LINE
  8
_0-a_004834
  6
CONTINUOUS
 62
    2
 10
333.375
 20
124.70636315043719
 11
333.42799999999999
 21
125.01436315043719
  0
LINE
  8
_0-a_004834
  6
CONTINUOUS
 62
    2
 10
333.42799999999999
 20
125.01436315043719
 11
333.46799999999996
 21
125.30536315043718
  0
LINE
  8
_0-a_004834
  6
CONTINUOUS
 62
    2
 10
333.46799999999996
 20
125.30536315043718
 11
333.49799999999999
 21
125.5833631504372
  0
LINE
  8
_0-a_004834
  6
CONTINUOUS
 62
    2
 10
333.49799999999999
 20
125.5833631504372
 11
333.51700000000005
 21
125.8513631504372
  0
LINE
  8
_0-a_004834
  6
CONTINUOUS
 62
    2
 10
333.51700000000005
 20
125.8513631504372
 11
333.52899999999999
 21
126.1133631504372
  0
LINE
  8
_0-a_004834
  6
CONTINUOUS
 62
    2
 10
333.52899999999999
 20
126.1133631504372
 11
333.53399999999999
 21
126.37136315043719
  0
LINE
  8
_0-a_004834
  6
CONTINUOUS
 62
    2
 10
333.53399999999999
 20
126.37136315043719
 11
333.531
 21
126.6293631504372
  0
LINE
  8
_0-a_004834
  6
CONTINUOUS
 62
    2
 10
333.531
 20
126.6293631504372
 11
333.52100000000001
 21
126.88936315043719
  0
LINE
  8
_0-a_004834
  6
CONTINUOUS
 62
    2
 10
333.52100000000001
 20
126.88936315043719
 11
333.50299999999998
 21
127.15536315043721
  0
LINE
  8
_0-a_004834
  6
CONTINUOUS
 62
    2
 10
333.50299999999998
 20
127.15536315043721
 11
333.47699999999997
 21
127.43036315043718
  0
LINE
  8
_0-a_004834
  6
CONTINUOUS
 62
    2
 10
333.47699999999997
 20
127.43036315043718
 11
333.43999999999999
 21
127.71836315043719
  0
LINE
  8
_0-a_004834
  6
CONTINUOUS
 62
    2
 10
333.43999999999999
 20
127.71836315043719
 11
333.38999999999998
 21
128.02136315043719
  0
LINE
  8
_0-a_004834
  6
CONTINUOUS
 62
    2
 10
333.38999999999998
 20
128.02136315043719
 11
333.32400000000001
 21
128.3443631504372
  0
LINE
  8
_0-a_004834
  6
CONTINUOUS
 62
    2
 10
333.32400000000001
 20
128.3443631504372
 11
333.23700000000002
 21
128.6903631504372
  0
LINE
  8
_0-a_004834
  6
CONTINUOUS
 62
    2
 10
333.23700000000002
 20
128.6903631504372
 11
333.12299999999999
 21
129.06136315043718
  0
LINE
  8
_0-a_004834
  6
CONTINUOUS
 62
    2
 10
333.12299999999999
 20
129.06136315043718
 11
332.97500000000002
 21
129.4573631504372
  0
LINE
  8
_0-a_004834
  6
CONTINUOUS
 62
    2
 10
332.97500000000002
 20
129.4573631504372
 11
332.78000000000002
 21
129.87236315043719
  0
LINE
  8
_0-a_004834
  6
CONTINUOUS
 62
    2
 10
332.78000000000002
 20
129.87236315043719
 11
332.52800000000002
 21
130.2943631504371
  0
LINE
  8
_0-a_004834
  6
CONTINUOUS
 62
    2
 10
332.52800000000002
 20
130.2943631504371
 11
332.209
 21
130.69436315043719
  0
LINE
  8
_0-a_004834
  6
CONTINUOUS
 62
    2
 10
332.209
 20
130.69436315043719
 11
331.817
 21
131.03036315043721
  0
LINE
  8
_0-a_004834
  6
CONTINUOUS
 62
    2
 10
331.817
 20
131.03036315043721
 11
331.36399999999997
 21
131.2503631504372
  0
LINE
  8
_0-a_004834
  6
CONTINUOUS
 62
    2
 10
331.36399999999997
 20
131.2503631504372
 11
330.95999999999997
 21
131.31136315043718
  0
LINE
  8
_0-a_004834
  6
CONTINUOUS
 62
    2
 10
664.25
 20
265.40800000000001
 11
663.76099999999996
 21
265.37799999999998
  0
LINE
  8
_0-a_004834
  6
CONTINUOUS
 62
    2
 10
663.76099999999996
 20
265.37799999999998
 11
663.27899999999999
 21
265.29000000000002
  0
LINE
  8
_0-a_004834
  6
CONTINUOUS
 62
    2
 10
663.27899999999999
 20
265.29000000000002
 11
662.81299999999998
 21
265.14600000000001
  0
LINE
  8
_0-a_004834
  6
CONTINUOUS
 62
    2
 10
662.81299999999998
 20
265.14600000000001
 11
662.36900000000002
 21
264.94999999999998
  0
LINE
  8
_0-a_004834
  6
CONTINUOUS
 62
    2
 10
662.36900000000002
 20
264.94999999999998
 11
661.95199999999999
 21
264.70600000000001
  0
LINE
  8
_0-a_004834
  6
CONTINUOUS
 62
    2
 10
661.95199999999999
 20
264.70600000000001
 11
661.56799999999998
 21
264.42099999999999
  0
LINE
  8
_0-a_004834
  6
CONTINUOUS
 62
    2
 10
661.56799999999998
 20
264.42099999999999
 11
661.21900000000005
 21
264.09899999999998
  0
LINE
  8
_0-a_004834
  6
CONTINUOUS
 62
    2
 10
661.21900000000005
 20
264.09899999999998
 11
660.90700000000003
 21
263.74700000000001
  0
LINE
  8
_0-a_004834
  6
CONTINUOUS
 62
    2
 10
660.90700000000003
 20
263.74700000000001
 11
660.63300000000003
 21
263.37
  0
LINE
  8
_0-a_004834
  6
CONTINUOUS
 62
    2
 10
660.63300000000003
 20
263.37
 11
660.399
 21
262.97300000000001
  0
LINE
  8
_0-a_004834
  6
CONTINUOUS
 62
    2
 10
660.399
 20
262.97300000000001
 11
660.20299999999997
 21
262.56
  0
LINE
  8
_0-a_004834
  6
CONTINUOUS
 62
    2
 10
660.20299999999997
 20
262.56
 11
660.04600000000004
 21
262.13499999999999
  0
LINE
  8
_0-a_004834
  6
CONTINUOUS
 62
    2
 10
660.04600000000004
 20
262.13499999999999
 11
659.92700000000002
 21
261.69999999999998
  0
LINE
  8
_0-a_004834
  6
CONTINUOUS
 62
    2
 10
659.92700000000002
 20
261.69999999999998
 11
659.84500000000002
 21
261.25999999999999
  0
LINE
  8
_0-a_004834
  6
CONTINUOUS
 62
    2
 10
659.84500000000002
 20
261.25999999999999
 11
659.79999999999995
 21
260.81600000000003
  0
LINE
  8
_0-a_004834
  6
CONTINUOUS
 62
    2
 10
659.79999999999995
 20
260.81600000000003
 11
659.793
 21
260.37
  0
LINE
  8
_0-a_004834
  6
CONTINUOUS
 62
    2
 10
659.793
 20
260.37
 11
659.822
 21
259.92500000000001
  0
LINE
  8
_0-a_004834
  6
CONTINUOUS
 62
    2
 10
659.822
 20
259.92500000000001
 11
659.88800000000003
 21
259.48199999999997
  0
LINE
  8
_0-a_004834
  6
CONTINUOUS
 62
    2
 10
659.88800000000003
 20
259.48199999999997
 11
659.99199999999996
 21
259.04500000000001
  0
LINE
  8
_0-a_004834
  6
CONTINUOUS
 62
    2
 10
659.99199999999996
 20
259.04500000000001
 11
660.13300000000003
 21
258.61599999999998
  0
LINE
  8
_0-a_004834
  6
CONTINUOUS
 62
    2
 10
660.13300000000003
 20
258.61599999999998
 11
660.31299999999998
 21
258.197
  0
LINE
  8
_0-a_004834
  6
CONTINUOUS
 62
    2
 10
660.31299999999998
 20
258.197
 11
660.53099999999994
 21
257.793
  0
LINE
  8
_0-a_004834
  6
CONTINUOUS
 62
    2
 10
660.53099999999994
 20
257.793
 11
660.78800000000001
 21
257.40699999999998
  0
LINE
  8
_0-a_004834
  6
CONTINUOUS
 62
    2
 10
660.78800000000001
 20
257.40699999999998
 11
661.08400000000006
 21
257.04399999999998
  0
LINE
  8
_0-a_004834
  6
CONTINUOUS
 62
    2
 10
661.08400000000006
 20
257.04399999999998
 11
661.418
 21
256.709
  0
LINE
  8
_0-a_004834
  6
CONTINUOUS
 62
    2
 10
661.418
 20
256.709
 11
661.78800000000001
 21
256.40800000000001
  0
LINE
  8
_0-a_004834
  6
CONTINUOUS
 62
    2
 10
661.78800000000001
 20
256.40800000000001
 11
662.192
 21
256.14600000000001
  0
LINE
  8
_0-a_004834
  6
CONTINUOUS
 62
    2
 10
662.192
 20
256.14600000000001
 11
662.625
 21
255.929
  0
LINE
  8
_0-a_004834
  6
CONTINUOUS
 62
    2
 10
662.625
 20
255.929
 11
663.08299999999996
 21
255.763
  0
LINE
  8
_0-a_004834
  6
CONTINUOUS
 62
    2
 10
663.08299999999996
 20
255.763
 11
663.55899999999996
 21
255.65100000000001
  0
LINE
  8
_0-a_004834
  6
CONTINUOUS
 62
    2
 10
663.55899999999996
 20
255.65100000000001
 11
664.04600000000004
 21
255.597
  0
LINE
  8
_0-a_004834
  6
CONTINUOUS
 62
    2
 10
664.04600000000004
 20
255.597
 11
664.25
 21
255.59199999999998
  0
LINE
  8
_0-a_004834
  6
CONTINUOUS
 62
    2
 10
664.25
 20
255.59199999999998
 11
664.53700000000003
 21
255.602
  0
LINE
  8
_0-a_004834
  6
CONTINUOUS
 62
    2
 10
664.53700000000003
 20
255.602
 11
665.02199999999993
 21
255.66599999999999
  0
LINE
  8
_0-a_004834
  6
CONTINUOUS
 62
    2
 10
665.02199999999993
 20
255.66599999999999
 11
665.49599999999998
 21
255.787
  0
LINE
  8
_0-a_004834
  6
CONTINUOUS
 62
    2
 10
665.49599999999998
 20
255.787
 11
665.95000000000004
 21
255.96300000000002
  0
LINE
  8
_0-a_004834
  6
CONTINUOUS
 62
    2
 10
665.95000000000004
 20
255.96300000000002
 11
666.37799999999992
 21
256.18700000000001
  0
LINE
  8
_0-a_004834
  6
CONTINUOUS
 62
    2
 10
666.37799999999992
 20
256.18700000000001
 11
666.77700000000004
 21
256.45600000000001
  0
LINE
  8
_0-a_004834
  6
CONTINUOUS
 62
    2
 10
666.77700000000004
 20
256.45600000000001
 11
667.14099999999996
 21
256.76300000000003
  0
LINE
  8
_0-a_004834
  6
CONTINUOUS
 62
    2
 10
667.14099999999996
 20
256.76300000000003
 11
667.46900000000005
 21
257.103
  0
LINE
  8
_0-a_004834
  6
CONTINUOUS
 62
    2
 10
667.46900000000005
 20
257.103
 11
667.75800000000003
 21
257.47000000000002
  0
LINE
  8
_0-a_004834
  6
CONTINUOUS
 62
    2
 10
667.75800000000003
 20
257.47000000000002
 11
668.00900000000001
 21
257.86000000000001
  0
LINE
  8
_0-a_004834
  6
CONTINUOUS
 62
    2
 10
668.00900000000001
 20
257.86000000000001
 11
668.221
 21
258.26699999999999
  0
LINE
  8
_0-a_004834
  6
CONTINUOUS
 62
    2
 10
668.221
 20
258.26699999999999
 11
668.394
 21
258.68700000000001
  0
LINE
  8
_0-a_004834
  6
CONTINUOUS
 62
    2
 10
668.394
 20
258.68700000000001
 11
668.52899999999999
 21
259.11799999999999
  0
LINE
  8
_0-a_004834
  6
CONTINUOUS
 62
    2
 10
668.52899999999999
 20
259.11799999999999
 11
668.62599999999997
 21
259.55599999999998
  0
LINE
  8
_0-a_004834
  6
CONTINUOUS
 62
    2
 10
668.62599999999997
 20
259.55599999999998
 11
668.68600000000003
 21
259.99900000000002
  0
LINE
  8
_0-a_004834
  6
CONTINUOUS
 62
    2
 10
668.68600000000003
 20
259.99900000000002
 11
668.70900000000006
 21
260.44499999999999
  0
LINE
  8
_0-a_004834
  6
CONTINUOUS
 62
    2
 10
668.70900000000006
 20
260.44499999999999
 11
668.69499999999993
 21
260.88999999999998
  0
LINE
  8
_0-a_004834
  6
CONTINUOUS
 62
    2
 10
668.69499999999993
 20
260.88999999999998
 11
668.644
 21
261.334
  0
LINE
  8
_0-a_004834
  6
CONTINUOUS
 62
    2
 10
668.644
 20
261.334
 11
668.55600000000004
 21
261.774
  0
LINE
  8
_0-a_004834
  6
CONTINUOUS
 62
    2
 10
668.55600000000004
 20
261.774
 11
668.43100000000004
 21
262.20699999999999
  0
LINE
  8
_0-a_004834
  6
CONTINUOUS
 62
    2
 10
668.43100000000004
 20
262.20699999999999
 11
668.26700000000005
 21
262.62999999999999
  0
LINE
  8
_0-a_004834
  6
CONTINUOUS
 62
    2
 10
668.26700000000005
 20
262.62999999999999
 11
668.06500000000005
 21
263.04099999999999
  0
LINE
  8
_0-a_004834
  6
CONTINUOUS
 62
    2
 10
668.06500000000005
 20
263.04099999999999
 11
667.82400000000006
 21
263.435
  0
LINE
  8
_0-a_004834
  6
CONTINUOUS
 62
    2
 10
667.82400000000006
 20
263.435
 11
667.54399999999998
 21
263.80799999999999
  0
LINE
  8
_0-a_004834
  6
CONTINUOUS
 62
    2
 10
667.54399999999998
 20
263.80799999999999
 11
667.22599999999999
 21
264.15499999999997
  0
LINE
  8
_0-a_004834
  6
CONTINUOUS
 62
    2
 10
667.22599999999999
 20
264.15499999999997
 11
666.87
 21
264.471
  0
LINE
  8
_0-a_004834
  6
CONTINUOUS
 62
    2
 10
666.87
 20
264.471
 11
666.48000000000001
 21
264.75
  0
LINE
  8
_0-a_004834
  6
CONTINUOUS
 62
    2
 10
666.48000000000001
 20
264.75
 11
666.05899999999996
 21
264.98599999999998
  0
LINE
  8
_0-a_004834
  6
CONTINUOUS
 62
    2
 10
666.05899999999996
 20
264.98599999999998
 11
665.61000000000001
 21
265.17399999999997
  0
LINE
  8
_0-a_004834
  6
CONTINUOUS
 62
    2
 10
665.61000000000001
 20
265.17399999999997
 11
665.14099999999996
 21
265.30900000000002
  0
LINE
  8
_0-a_004834
  6
CONTINUOUS
 62
    2
 10
665.14099999999996
 20
265.30900000000002
 11
664.65800000000001
 21
265.387
  0
LINE
  8
_0-a_004834
  6
CONTINUOUS
 62
    2
 10
664.65800000000001
 20
265.387
 11
664.25
 21
265.40800000000001
  0
LINE
  8
_0-a_004834
  6
CONTINUOUS
 62
    2
 10
675.75
 20
265.40800000000001
 11
675.26099999999996
 21
265.37799999999998
  0
LINE
  8
_0-a_004834
  6
CONTINUOUS
 62
    2
 10
675.26099999999996
 20
265.37799999999998
 11
674.77899999999999
 21
265.29000000000002
  0
LINE
  8
_0-a_004834
  6
CONTINUOUS
 62
    2
 10
674.77899999999999
 20
265.29000000000002
 11
674.31299999999998
 21
265.14600000000001
  0
LINE
  8
_0-a_004834
  6
CONTINUOUS
 62
    2
 10
674.31299999999998
 20
265.14600000000001
 11
673.86900000000002
 21
264.94999999999998
  0
LINE
  8
_0-a_004834
  6
CONTINUOUS
 62
    2
 10
673.86900000000002
 20
264.94999999999998
 11
673.45199999999999
 21
264.70600000000001
  0
LINE
  8
_0-a_004834
  6
CONTINUOUS
 62
    2
 10
673.45199999999999
 20
264.70600000000001
 11
673.06799999999998
 21
264.42099999999999
  0
LINE
  8
_0-a_004834
  6
CONTINUOUS
 62
    2
 10
673.06799999999998
 20
264.42099999999999
 11
672.71900000000005
 21
264.09899999999998
  0
LINE
  8
_0-a_004834
  6
CONTINUOUS
 62
    2
 10
672.71900000000005
 20
264.09899999999998
 11
672.40700000000003
 21
263.74700000000001
  0
LINE
  8
_0-a_004834
  6
CONTINUOUS
 62
    2
 10
672.40700000000003
 20
263.74700000000001
 11
672.13300000000003
 21
263.37
  0
LINE
  8
_0-a_004834
  6
CONTINUOUS
 62
    2
 10
672.13300000000003
 20
263.37
 11
671.899
 21
262.97300000000001
  0
LINE
  8
_0-a_004834
  6
CONTINUOUS
 62
    2
 10
671.899
 20
262.97300000000001
 11
671.70299999999997
 21
262.56
  0
LINE
  8
_0-a_004834
  6
CONTINUOUS
 62
    2
 10
671.70299999999997
 20
262.56
 11
671.54600000000004
 21
262.13499999999999
  0
LINE
  8
_0-a_004834
  6
CONTINUOUS
 62
    2
 10
671.54600000000004
 20
262.13499999999999
 11
671.42700000000002
 21
261.69999999999998
  0
LINE
  8
_0-a_004834
  6
CONTINUOUS
 62
    2
 10
671.42700000000002
 20
261.69999999999998
 11
671.34500000000002
 21
261.25999999999999
  0
LINE
  8
_0-a_004834
  6
CONTINUOUS
 62
    2
 10
671.34500000000002
 20
261.25999999999999
 11
671.29999999999995
 21
260.81600000000003
  0
LINE
  8
_0-a_004834
  6
CONTINUOUS
 62
    2
 10
671.29999999999995
 20
260.81600000000003
 11
671.293
 21
260.37
  0
LINE
  8
_0-a_004834
  6
CONTINUOUS
 62
    2
 10
671.293
 20
260.37
 11
671.322
 21
259.92500000000001
  0
LINE
  8
_0-a_004834
  6
CONTINUOUS
 62
    2
 10
671.322
 20
259.92500000000001
 11
671.38800000000003
 21
259.48199999999997
  0
LINE
  8
_0-a_004834
  6
CONTINUOUS
 62
    2
 10
671.38800000000003
 20
259.48199999999997
 11
671.49199999999996
 21
259.04500000000001
  0
LINE
  8
_0-a_004834
  6
CONTINUOUS
 62
    2
 10
671.49199999999996
 20
259.04500000000001
 11
671.63300000000003
 21
258.61599999999998
  0
LINE
  8
_0-a_004834
  6
CONTINUOUS
 62
    2
 10
671.63300000000003
 20
258.61599999999998
 11
671.81299999999998
 21
258.197
  0
LINE
  8
_0-a_004834
  6
CONTINUOUS
 62
    2
 10
671.81299999999998
 20
258.197
 11
672.03099999999994
 21
257.793
  0
LINE
  8
_0-a_004834
  6
CONTINUOUS
 62
    2
 10
672.03099999999994
 20
257.793
 11
672.28800000000001
 21
257.40699999999998
  0
LINE
  8
_0-a_004834
  6
CONTINUOUS
 62
    2
 10
672.28800000000001
 20
257.40699999999998
 11
672.58400000000006
 21
257.04399999999998
  0
LINE
  8
_0-a_004834
  6
CONTINUOUS
 62
    2
 10
672.58400000000006
 20
257.04399999999998
 11
672.918
 21
256.709
  0
LINE
  8
_0-a_004834
  6
CONTINUOUS
 62
    2
 10
672.918
 20
256.709
 11
673.28800000000001
 21
256.40800000000001
  0
LINE
  8
_0-a_004834
  6
CONTINUOUS
 62
    2
 10
673.28800000000001
 20
256.40800000000001
 11
673.692
 21
256.14600000000001
  0
LINE
  8
_0-a_004834
  6
CONTINUOUS
 62
    2
 10
673.692
 20
256.14600000000001
 11
674.125
 21
255.929
  0
LINE
  8
_0-a_004834
  6
CONTINUOUS
 62
    2
 10
674.125
 20
255.929
 11
674.58299999999996
 21
255.763
  0
LINE
  8
_0-a_004834
  6
CONTINUOUS
 62
    2
 10
674.58299999999996
 20
255.763
 11
675.05899999999996
 21
255.65100000000001
  0
LINE
  8
_0-a_004834
  6
CONTINUOUS
 62
    2
 10
675.05899999999996
 20
255.65100000000001
 11
675.54600000000004
 21
255.597
  0
LINE
  8
_0-a_004834
  6
CONTINUOUS
 62
    2
 10
675.54600000000004
 20
255.597
 11
675.75
 21
255.59199999999998
  0
LINE
  8
_0-a_004834
  6
CONTINUOUS
 62
    2
 10
675.75
 20
255.59199999999998
 11
676.03700000000003
 21
255.602
  0
LINE
  8
_0-a_004834
  6
CONTINUOUS
 62
    2
 10
676.03700000000003
 20
255.602
 11
676.52199999999993
 21
255.66599999999999
  0
LINE
  8
_0-a_004834
  6
CONTINUOUS
 62
    2
 10
676.52199999999993
 20
255.66599999999999
 11
676.99599999999998
 21
255.787
  0
LINE
  8
_0-a_004834
  6
CONTINUOUS
 62
    2
 10
676.99599999999998
 20
255.787
 11
677.45000000000004
 21
255.96300000000002
  0
LINE
  8
_0-a_004834
  6
CONTINUOUS
 62
    2
 10
677.45000000000004
 20
255.96300000000002
 11
677.87799999999992
 21
256.18700000000001
  0
LINE
  8
_0-a_004834
  6
CONTINUOUS
 62
    2
 10
677.87799999999992
 20
256.18700000000001
 11
678.27700000000004
 21
256.45600000000001
  0
LINE
  8
_0-a_004834
  6
CONTINUOUS
 62
    2
 10
678.27700000000004
 20
256.45600000000001
 11
678.64100000000007
 21
256.76300000000003
  0
LINE
  8
_0-a_004834
  6
CONTINUOUS
 62
    2
 10
678.64100000000007
 20
256.76300000000003
 11
678.96900000000005
 21
257.103
  0
LINE
  8
_0-a_004834
  6
CONTINUOUS
 62
    2
 10
678.96900000000005
 20
257.103
 11
679.25800000000003
 21
257.47000000000002
  0
LINE
  8
_0-a_004834
  6
CONTINUOUS
 62
    2
 10
679.25800000000003
 20
257.47000000000002
 11
679.50900000000001
 21
257.86000000000001
  0
LINE
  8
_0-a_004834
  6
CONTINUOUS
 62
    2
 10
679.50900000000001
 20
257.86000000000001
 11
679.721
 21
258.26699999999999
  0
LINE
  8
_0-a_004834
  6
CONTINUOUS
 62
    2
 10
679.721
 20
258.26699999999999
 11
679.894
 21
258.68700000000001
  0
LINE
  8
_0-a_004834
  6
CONTINUOUS
 62
    2
 10
679.894
 20
258.68700000000001
 11
680.02899999999999
 21
259.11799999999999
  0
LINE
  8
_0-a_004834
  6
CONTINUOUS
 62
    2
 10
680.02899999999999
 20
259.11799999999999
 11
680.12599999999997
 21
259.55599999999998
  0
LINE
  8
_0-a_004834
  6
CONTINUOUS
 62
    2
 10
680.12599999999997
 20
259.55599999999998
 11
680.18599999999992
 21
259.99900000000002
  0
LINE
  8
_0-a_004834
  6
CONTINUOUS
 62
    2
 10
680.18599999999992
 20
259.99900000000002
 11
680.20900000000006
 21
260.44499999999999
  0
LINE
  8
_0-a_004834
  6
CONTINUOUS
 62
    2
 10
680.20900000000006
 20
260.44499999999999
 11
680.19499999999993
 21
260.88999999999998
  0
LINE
  8
_0-a_004834
  6
CONTINUOUS
 62
    2
 10
680.19499999999993
 20
260.88999999999998
 11
680.144
 21
261.334
  0
LINE
  8
_0-a_004834
  6
CONTINUOUS
 62
    2
 10
680.144
 20
261.334
 11
680.05600000000004
 21
261.774
  0
LINE
  8
_0-a_004834
  6
CONTINUOUS
 62
    2
 10
680.05600000000004
 20
261.774
 11
679.93100000000004
 21
262.20699999999999
  0
LINE
  8
_0-a_004834
  6
CONTINUOUS
 62
    2
 10
679.93100000000004
 20
262.20699999999999
 11
679.76700000000005
 21
262.62999999999999
  0
LINE
  8
_0-a_004834
  6
CONTINUOUS
 62
    2
 10
679.76700000000005
 20
262.62999999999999
 11
679.56500000000005
 21
263.04099999999999
  0
LINE
  8
_0-a_004834
  6
CONTINUOUS
 62
    2
 10
679.56500000000005
 20
263.04099999999999
 11
679.32400000000006
 21
263.435
  0
LINE
  8
_0-a_004834
  6
CONTINUOUS
 62
    2
 10
679.32400000000006
 20
263.435
 11
679.04399999999998
 21
263.80799999999999
  0
LINE
  8
_0-a_004834
  6
CONTINUOUS
 62
    2
 10
679.04399999999998
 20
263.80799999999999
 11
678.72599999999999
 21
264.15499999999997
  0
LINE
  8
_0-a_004834
  6
CONTINUOUS
 62
    2
 10
678.72599999999999
 20
264.15499999999997
 11
678.37
 21
264.471
  0
LINE
  8
_0-a_004834
  6
CONTINUOUS
 62
    2
 10
678.37
 20
264.471
 11
677.98000000000001
 21
264.75
  0
LINE
  8
_0-a_004834
  6
CONTINUOUS
 62
    2
 10
677.98000000000001
 20
264.75
 11
677.55899999999996
 21
264.98599999999998
  0
LINE
  8
_0-a_004834
  6
CONTINUOUS
 62
    2
 10
677.55899999999996
 20
264.98599999999998
 11
677.11000000000001
 21
265.17399999999997
  0
LINE
  8
_0-a_004834
  6
CONTINUOUS
 62
    2
 10
677.11000000000001
 20
265.17399999999997
 11
676.64100000000007
 21
265.30900000000002
  0
LINE
  8
_0-a_004834
  6
CONTINUOUS
 62
    2
 10
676.64100000000007
 20
265.30900000000002
 11
676.15800000000001
 21
265.387
  0
LINE
  8
_0-a_004834
  6
CONTINUOUS
 62
    2
 10
676.15800000000001
 20
265.387
 11
675.75
 21
265.40800000000001
  0
LINE
  8
_0-c_004044
  6
CONTINUOUS
 62
    2
 10
670
 20
290.572
 11
672.18499999999994
 21
289.92700000000002
  0
LINE
  8
_0-c_004044
  6
CONTINUOUS
 62
    2
 10
672.18499999999994
 20
289.92700000000002
 11
674.44499999999993
 21
289.56999999999999
  0
LINE
  8
_0-c_004044
  6
CONTINUOUS
 62
    2
 10
674.44499999999993
 20
289.56999999999999
 11
676
 21
289.5
  0
LINE
  8
_0-c_004044
  6
CONTINUOUS
 62
    2
 10
676
 20
289.5
 11
676.73500000000001
 21
289.51600000000001
  0
LINE
  8
_0-c_004044
  6
CONTINUOUS
 62
    2
 10
676.73500000000001
 20
289.51600000000001
 11
679.01099999999996
 21
289.76499999999998
  0
LINE
  8
_0-c_004044
  6
CONTINUOUS
 62
    2
 10
679.01099999999996
 20
289.76499999999998
 11
681.22699999999997
 21
290.30900000000002
  0
LINE
  8
_0-c_004044
  6
CONTINUOUS
 62
    2
 10
681.22699999999997
 20
290.30900000000002
 11
682.00099999999997
 21
290.572
  0
LINE
  8
_0-c_004044
  6
CONTINUOUS
 62
    2
 10
658
 20
290.572
 11
660.18499999999994
 21
289.92700000000002
  0
LINE
  8
_0-c_004044
  6
CONTINUOUS
 62
    2
 10
660.18499999999994
 20
289.92700000000002
 11
662.44499999999993
 21
289.56999999999999
  0
LINE
  8
_0-c_004044
  6
CONTINUOUS
 62
    2
 10
662.44499999999993
 20
289.56999999999999
 11
664
 21
289.5
  0
LINE
  8
_0-c_004044
  6
CONTINUOUS
 62
    2
 10
664
 20
289.5
 11
664.73500000000001
 21
289.51600000000001
  0
LINE
  8
_0-c_004044
  6
CONTINUOUS
 62
    2
 10
664.73500000000001
 20
289.51600000000001
 11
667.00999999999999
 21
289.76499999999998
  0
LINE
  8
_0-c_004044
  6
CONTINUOUS
 62
    2
 10
667.00999999999999
 20
289.76499999999998
 11
669.22699999999997
 21
290.30900000000002
  0
LINE
  8
_0-c_004044
  6
CONTINUOUS
 62
    2
 10
669.22699999999997
 20
290.30900000000002
 11
670.00099999999997
 21
290.572
  0
LINE
  8
_1-0_036085
  6
CONTINUOUS
 62
    2
 10
270
 20
223.15536315043715
 11
269.77999999999997
 21
223.15436315043714
  0
LINE
  8
_1-0_036085
  6
CONTINUOUS
 62
    2
 10
269.77999999999997
 20
223.15436315043714
 11
269.555
 21
223.15236315043713
  0
LINE
  8
_1-0_036085
  6
CONTINUOUS
 62
    2
 10
269.555
 20
223.15236315043713
 11
269.322
 21
223.14836315043714
  0
LINE
  8
_1-0_036085
  6
CONTINUOUS
 62
    2
 10
269.322
 20
223.14836315043714
 11
269.07600000000002
 21
223.14236315043714
  0
LINE
  8
_1-0_036085
  6
CONTINUOUS
 62
    2
 10
269.07600000000002
 20
223.14236315043714
 11
268.81
 21
223.13436315043713
  0
LINE
  8
_1-0_036085
  6
CONTINUOUS
 62
    2
 10
268.81
 20
223.13436315043713
 11
268.51800000000002
 21
223.12236315043713
  0
LINE
  8
_1-0_036085
  6
CONTINUOUS
 62
    2
 10
268.51800000000002
 20
223.12236315043713
 11
268.18999999999999
 21
223.10536315043714
  0
LINE
  8
_1-0_036085
  6
CONTINUOUS
 62
    2
 10
268.18999999999999
 20
223.10536315043714
 11
267.81200000000001
 21
223.08136315043714
  0
LINE
  8
_1-0_036085
  6
CONTINUOUS
 62
    2
 10
267.81200000000001
 20
223.08136315043714
 11
267.365
 21
223.04736315043714
  0
LINE
  8
_1-0_036085
  6
CONTINUOUS
 62
    2
 10
267.365
 20
223.04736315043714
 11
266.82299999999997
 21
222.99636315043716
  0
LINE
  8
_1-0_036085
  6
CONTINUOUS
 62
    2
 10
266.82299999999997
 20
222.99636315043716
 11
266.14800000000002
 21
222.91636315043714
  0
LINE
  8
_1-0_036085
  6
CONTINUOUS
 62
    2
 10
266.14800000000002
 20
222.91636315043714
 11
265.28999999999996
 21
222.78736315043715
  0
LINE
  8
_1-0_036085
  6
CONTINUOUS
 62
    2
 10
265.28999999999996
 20
222.78736315043715
 11
264.204
 21
222.56436315043714
  0
LINE
  8
_1-0_036085
  6
CONTINUOUS
 62
    2
 10
264.204
 20
222.56436315043714
 11
262.92700000000002
 21
222.17536315043713
  0
LINE
  8
_1-0_036085
  6
CONTINUOUS
 62
    2
 10
262.92700000000002
 20
222.17536315043713
 11
261.80299999999999
 21
221.53736315043715
  0
LINE
  8
_1-0_036085
  6
CONTINUOUS
 62
    2
 10
261.80299999999999
 20
221.53736315043715
 11
261.5
 21
220.95536315043713
  0
LINE
  8
_1-0_036085
  6
CONTINUOUS
 62
    2
 10
261.5
 20
220.95536315043713
 11
261.55399999999997
 21
220.70836315043715
  0
LINE
  8
_1-0_036085
  6
CONTINUOUS
 62
    2
 10
261.55399999999997
 20
220.70836315043715
 11
262.40399999999999
 21
219.96836315043714
  0
LINE
  8
_1-0_036085
  6
CONTINUOUS
 62
    2
 10
262.40399999999999
 20
219.96836315043714
 11
263.68700000000001
 21
219.48236315043715
  0
LINE
  8
_1-0_036085
  6
CONTINUOUS
 62
    2
 10
263.68700000000001
 20
219.48236315043715
 11
264.86799999999999
 21
219.20236315043715
  0
LINE
  8
_1-0_036085
  6
CONTINUOUS
 62
    2
 10
264.86799999999999
 20
219.20236315043715
 11
265.81600000000003
 21
219.04036315043714
  0
LINE
  8
_1-0_036085
  6
CONTINUOUS
 62
    2
 10
265.81600000000003
 20
219.04036315043714
 11
266.56100000000003
 21
218.94336315043713
  0
LINE
  8
_1-0_036085
  6
CONTINUOUS
 62
    2
 10
266.56100000000003
 20
218.94336315043713
 11
267.15300000000002
 21
218.88236315043712
  0
LINE
  8
_1-0_036085
  6
CONTINUOUS
 62
    2
 10
267.15300000000002
 20
218.88236315043712
 11
267.63499999999999
 21
218.84236315043713
  0
LINE
  8
_1-0_036085
  6
CONTINUOUS
 62
    2
 10
267.63499999999999
 20
218.84236315043713
 11
268.03999999999996
 21
218.81536315043717
  0
LINE
  8
_1-0_036085
  6
CONTINUOUS
 62
    2
 10
268.03999999999996
 20
218.81536315043717
 11
268.387
 21
218.79536315043714
  0
LINE
  8
_1-0_036085
  6
CONTINUOUS
 62
    2
 10
268.387
 20
218.79536315043714
 11
268.69299999999998
 21
218.78136315043713
  0
LINE
  8
_1-0_036085
  6
CONTINUOUS
 62
    2
 10
268.69299999999998
 20
218.78136315043713
 11
268.96799999999996
 21
218.77236315043714
  0
LINE
  8
_1-0_036085
  6
CONTINUOUS
 62
    2
 10
268.96799999999996
 20
218.77236315043714
 11
269.22199999999997
 21
218.76536315043713
  0
LINE
  8
_1-0_036085
  6
CONTINUOUS
 62
    2
 10
269.22199999999997
 20
218.76536315043713
 11
269.459
 21
218.76036315043714
  0
LINE
  8
_1-0_036085
  6
CONTINUOUS
 62
    2
 10
269.459
 20
218.76036315043714
 11
269.68700000000001
 21
218.75736315043712
  0
LINE
  8
_1-0_036085
  6
CONTINUOUS
 62
    2
 10
269.68700000000001
 20
218.75736315043712
 11
269.90899999999999
 21
218.75536315043714
  0
LINE
  8
_1-0_036085
  6
CONTINUOUS
 62
    2
 10
269.90899999999999
 20
218.75536315043714
 11
270
 21
218.75536315043714
  0
LINE
  8
_1-0_036085
  6
CONTINUOUS
 62
    2
 10
270
 20
223.80236315043714
 11
269.71500000000003
 21
223.80136315043714
  0
LINE
  8
_1-0_036085
  6
CONTINUOUS
 62
    2
 10
269.71500000000003
 20
223.80136315043714
 11
269.42399999999997
 21
223.79836315043715
  0
LINE
  8
_1-0_036085
  6
CONTINUOUS
 62
    2
 10
269.42399999999997
 20
223.79836315043715
 11
269.12299999999999
 21
223.79336315043713
  0
LINE
  8
_1-0_036085
  6
CONTINUOUS
 62
    2
 10
269.12299999999999
 20
223.79336315043713
 11
268.80399999999997
 21
223.78536315043714
  0
LINE
  8
_1-0_036085
  6
CONTINUOUS
 62
    2
 10
268.80399999999997
 20
223.78536315043714
 11
268.46000000000003
 21
223.77436315043715
  0
LINE
  8
_1-0_036085
  6
CONTINUOUS
 62
    2
 10
268.46000000000003
 20
223.77436315043715
 11
268.08299999999996
 21
223.75936315043713
  0
LINE
  8
_1-0_036085
  6
CONTINUOUS
 62
    2
 10
268.08299999999996
 20
223.75936315043713
 11
267.65700000000003
 21
223.73736315043714
  0
LINE
  8
_1-0_036085
  6
CONTINUOUS
 62
    2
 10
267.65700000000003
 20
223.73736315043714
 11
267.168
 21
223.70636315043714
  0
LINE
  8
_1-0_036085
  6
CONTINUOUS
 62
    2
 10
267.168
 20
223.70636315043714
 11
266.59000000000003
 21
223.66236315043713
  0
LINE
  8
_1-0_036085
  6
CONTINUOUS
 62
    2
 10
266.59000000000003
 20
223.66236315043713
 11
265.88800000000003
 21
223.59636315043715
  0
LINE
  8
_1-0_036085
  6
CONTINUOUS
 62
    2
 10
265.88800000000003
 20
223.59636315043715
 11
265.01400000000001
 21
223.49336315043714
  0
LINE
  8
_1-0_036085
  6
CONTINUOUS
 62
    2
 10
265.01400000000001
 20
223.49336315043714
 11
263.90499999999997
 21
223.32536315043714
  0
LINE
  8
_1-0_036085
  6
CONTINUOUS
 62
    2
 10
263.90499999999997
 20
223.32536315043714
 11
262.49900000000002
 21
223.03836315043713
  0
LINE
  8
_1-0_036085
  6
CONTINUOUS
 62
    2
 10
262.49900000000002
 20
223.03836315043713
 11
260.84699999999997
 21
222.53436315043714
  0
LINE
  8
_1-0_036085
  6
CONTINUOUS
 62
    2
 10
260.84699999999997
 20
222.53436315043714
 11
259.39099999999996
 21
221.70836315043715
  0
LINE
  8
_1-0_036085
  6
CONTINUOUS
 62
    2
 10
259.39099999999996
 20
221.70836315043715
 11
259
 21
220.95536315043713
  0
LINE
  8
_1-0_036085
  6
CONTINUOUS
 62
    2
 10
259
 20
220.95536315043713
 11
259.06999999999999
 21
220.63636315043714
  0
LINE
  8
_1-0_036085
  6
CONTINUOUS
 62
    2
 10
259.06999999999999
 20
220.63636315043714
 11
260.16999999999995
 21
219.67836315043714
  0
LINE
  8
_1-0_036085
  6
CONTINUOUS
 62
    2
 10
260.16999999999995
 20
219.67836315043714
 11
261.83000000000004
 21
219.04936315043715
  0
LINE
  8
_1-0_036085
  6
CONTINUOUS
 62
    2
 10
261.83000000000004
 20
219.04936315043715
 11
263.358
 21
218.68636315043715
  0
LINE
  8
_1-0_036085
  6
CONTINUOUS
 62
    2
 10
263.358
 20
218.68636315043715
 11
264.58600000000001
 21
218.47736315043715
  0
LINE
  8
_1-0_036085
  6
CONTINUOUS
 62
    2
 10
264.58600000000001
 20
218.47736315043715
 11
265.54899999999997
 21
218.35236315043715
  0
LINE
  8
_1-0_036085
  6
CONTINUOUS
 62
    2
 10
265.54899999999997
 20
218.35236315043715
 11
266.31499999999999
 21
218.27336315043714
  0
LINE
  8
_1-0_036085
  6
CONTINUOUS
 62
    2
 10
266.31499999999999
 20
218.27336315043714
 11
266.93999999999999
 21
218.22136315043715
  0
LINE
  8
_1-0_036085
  6
CONTINUOUS
 62
    2
 10
266.93999999999999
 20
218.22136315043715
 11
267.46299999999996
 21
218.18536315043712
  0
LINE
  8
_1-0_036085
  6
CONTINUOUS
 62
    2
 10
267.46299999999996
 20
218.18536315043712
 11
267.91200000000003
 21
218.16036315043714
  0
LINE
  8
_1-0_036085
  6
CONTINUOUS
 62
    2
 10
267.91200000000003
 20
218.16036315043714
 11
268.30799999999999
 21
218.14236315043714
  0
LINE
  8
_1-0_036085
  6
CONTINUOUS
 62
    2
 10
268.30799999999999
 20
218.14236315043714
 11
268.66499999999996
 21
218.12936315043714
  0
LINE
  8
_1-0_036085
  6
CONTINUOUS
 62
    2
 10
268.66499999999996
 20
218.12936315043714
 11
268.99299999999999
 21
218.12036315043712
  0
LINE
  8
_1-0_036085
  6
CONTINUOUS
 62
    2
 10
268.99299999999999
 20
218.12036315043712
 11
269.30000000000001
 21
218.11436315043715
  0
LINE
  8
_1-0_036085
  6
CONTINUOUS
 62
    2
 10
269.30000000000001
 20
218.11436315043715
 11
269.59500000000002
 21
218.11036315043713
  0
LINE
  8
_1-0_036085
  6
CONTINUOUS
 62
    2
 10
269.59500000000002
 20
218.11036315043713
 11
269.882
 21
218.10836315043712
  0
LINE
  8
_1-0_036085
  6
CONTINUOUS
 62
    2
 10
269.882
 20
218.10836315043712
 11
270
 21
218.10836315043712
  0
LINE
  8
_1-0_036085
  6
CONTINUOUS
 62
    2
 10
270
 20
218.75536315043714
 11
270.221
 21
218.75636315043715
  0
LINE
  8
_1-0_036085
  6
CONTINUOUS
 62
    2
 10
270.221
 20
218.75636315043715
 11
270.44600000000002
 21
218.75836315043713
  0
LINE
  8
_1-0_036085
  6
CONTINUOUS
 62
    2
 10
270.44600000000002
 20
218.75836315043713
 11
270.67899999999997
 21
218.76236315043712
  0
LINE
  8
_1-0_036085
  6
CONTINUOUS
 62
    2
 10
270.67899999999997
 20
218.76236315043712
 11
270.92500000000001
 21
218.76836315043715
  0
LINE
  8
_1-0_036085
  6
CONTINUOUS
 62
    2
 10
270.92500000000001
 20
218.76836315043715
 11
271.18999999999999
 21
218.77736315043713
  0
LINE
  8
_1-0_036085
  6
CONTINUOUS
 62
    2
 10
271.18999999999999
 20
218.77736315043713
 11
271.48199999999997
 21
218.78936315043713
  0
LINE
  8
_1-0_036085
  6
CONTINUOUS
 62
    2
 10
271.48199999999997
 20
218.78936315043713
 11
271.81100000000003
 21
218.80636315043713
  0
LINE
  8
_1-0_036085
  6
CONTINUOUS
 62
    2
 10
271.81100000000003
 20
218.80636315043713
 11
272.18899999999996
 21
218.82936315043713
  0
LINE
  8
_1-0_036085
  6
CONTINUOUS
 62
    2
 10
272.18899999999996
 20
218.82936315043713
 11
272.63599999999996
 21
218.86436315043715
  0
LINE
  8
_1-0_036085
  6
CONTINUOUS
 62
    2
 10
272.63599999999996
 20
218.86436315043715
 11
273.17799999999999
 21
218.91536315043714
  0
LINE
  8
_1-0_036085
  6
CONTINUOUS
 62
    2
 10
273.17799999999999
 20
218.91536315043714
 11
273.853
 21
218.99436315043715
  0
LINE
  8
_1-0_036085
  6
CONTINUOUS
 62
    2
 10
273.853
 20
218.99436315043715
 11
274.71100000000001
 21
219.12436315043714
  0
LINE
  8
_1-0_036085
  6
CONTINUOUS
 62
    2
 10
274.71100000000001
 20
219.12436315043714
 11
275.79700000000002
 21
219.34636315043715
  0
LINE
  8
_1-0_036085
  6
CONTINUOUS
 62
    2
 10
275.79700000000002
 20
219.34636315043715
 11
277.07400000000001
 21
219.73536315043713
  0
LINE
  8
_1-0_036085
  6
CONTINUOUS
 62
    2
 10
277.07400000000001
 20
219.73536315043713
 11
278.19799999999997
 21
220.37436315043714
  0
LINE
  8
_1-0_036085
  6
CONTINUOUS
 62
    2
 10
278.19799999999997
 20
220.37436315043714
 11
278.5
 21
220.95536315043713
  0
LINE
  8
_1-0_036085
  6
CONTINUOUS
 62
    2
 10
278.5
 20
220.95536315043713
 11
278.447
 21
221.20236315043715
  0
LINE
  8
_1-0_036085
  6
CONTINUOUS
 62
    2
 10
278.447
 20
221.20236315043715
 11
277.59699999999997
 21
221.94236315043713
  0
LINE
  8
_1-0_036085
  6
CONTINUOUS
 62
    2
 10
277.59699999999997
 20
221.94236315043713
 11
276.31399999999996
 21
222.42836315043714
  0
LINE
  8
_1-0_036085
  6
CONTINUOUS
 62
    2
 10
276.31399999999996
 20
222.42836315043714
 11
275.13300000000003
 21
222.70936315043715
  0
LINE
  8
_1-0_036085
  6
CONTINUOUS
 62
    2
 10
275.13300000000003
 20
222.70936315043715
 11
274.185
 21
222.87036315043712
  0
LINE
  8
_1-0_036085
  6
CONTINUOUS
 62
    2
 10
274.185
 20
222.87036315043712
 11
273.43999999999999
 21
222.96736315043713
  0
LINE
  8
_1-0_036085
  6
CONTINUOUS
 62
    2
 10
273.43999999999999
 20
222.96736315043713
 11
272.84800000000001
 21
223.02836315043714
  0
LINE
  8
_1-0_036085
  6
CONTINUOUS
 62
    2
 10
272.84800000000001
 20
223.02836315043714
 11
272.365
 21
223.06836315043713
  0
LINE
  8
_1-0_036085
  6
CONTINUOUS
 62
    2
 10
272.365
 20
223.06836315043713
 11
271.96100000000001
 21
223.09636315043715
  0
LINE
  8
_1-0_036085
  6
CONTINUOUS
 62
    2
 10
271.96100000000001
 20
223.09636315043715
 11
271.61400000000003
 21
223.11536315043713
  0
LINE
  8
_1-0_036085
  6
CONTINUOUS
 62
    2
 10
271.61400000000003
 20
223.11536315043713
 11
271.30799999999999
 21
223.12936315043714
  0
LINE
  8
_1-0_036085
  6
CONTINUOUS
 62
    2
 10
271.30799999999999
 20
223.12936315043714
 11
271.03300000000001
 21
223.13936315043713
  0
LINE
  8
_1-0_036085
  6
CONTINUOUS
 62
    2
 10
271.03300000000001
 20
223.13936315043713
 11
270.77899999999999
 21
223.14636315043713
  0
LINE
  8
_1-0_036085
  6
CONTINUOUS
 62
    2
 10
270.77899999999999
 20
223.14636315043713
 11
270.54099999999999
 21
223.15136315043713
  0
LINE
  8
_1-0_036085
  6
CONTINUOUS
 62
    2
 10
270.54099999999999
 20
223.15136315043713
 11
270.31399999999996
 21
223.15436315043714
  0
LINE
  8
_1-0_036085
  6
CONTINUOUS
 62
    2
 10
270.31399999999996
 20
223.15436315043714
 11
270.09199999999998
 21
223.15536315043715
  0
LINE
  8
_1-0_036085
  6
CONTINUOUS
 62
    2
 10
270.09199999999998
 20
223.15536315043715
 11
270
 21
223.15536315043715
  0
LINE
  8
_1-0_036085
  6
CONTINUOUS
 62
    2
 10
270
 20
218.10836315043712
 11
270.286
 21
218.10936315043716
  0
LINE
  8
_1-0_036085
  6
CONTINUOUS
 62
    2
 10
270.286
 20
218.10936315043716
 11
270.57699999999999
 21
218.11236315043714
  0
LINE
  8
_1-0_036085
  6
CONTINUOUS
 62
    2
 10
270.57699999999999
 20
218.11236315043714
 11
270.87799999999998
 21
218.11736315043714
  0
LINE
  8
_1-0_036085
  6
CONTINUOUS
 62
    2
 10
270.87799999999998
 20
218.11736315043714
 11
271.197
 21
218.12536315043718
  0
LINE
  8
_1-0_036085
  6
CONTINUOUS
 62
    2
 10
271.197
 20
218.12536315043718
 11
271.53999999999996
 21
218.13636315043714
  0
LINE
  8
_1-0_036085
  6
CONTINUOUS
 62
    2
 10
271.53999999999996
 20
218.13636315043714
 11
271.918
 21
218.15236315043713
  0
LINE
  8
_1-0_036085
  6
CONTINUOUS
 62
    2
 10
271.918
 20
218.15236315043713
 11
272.34299999999996
 21
218.17436315043715
  0
LINE
  8
_1-0_036085
  6
CONTINUOUS
 62
    2
 10
272.34299999999996
 20
218.17436315043715
 11
272.83299999999996
 21
218.20436315043713
  0
LINE
  8
_1-0_036085
  6
CONTINUOUS
 62
    2
 10
272.83299999999996
 20
218.20436315043713
 11
273.411
 21
218.24936315043714
  0
LINE
  8
_1-0_036085
  6
CONTINUOUS
 62
    2
 10
273.411
 20
218.24936315043714
 11
274.11299999999999
 21
218.31536315043715
  0
LINE
  8
_1-0_036085
  6
CONTINUOUS
 62
    2
 10
274.11299999999999
 20
218.31536315043715
 11
274.98599999999998
 21
218.41836315043713
  0
LINE
  8
_1-0_036085
  6
CONTINUOUS
 62
    2
 10
274.98599999999998
 20
218.41836315043713
 11
276.096
 21
218.58536315043713
  0
LINE
  8
_1-0_036085
  6
CONTINUOUS
 62
    2
 10
276.096
 20
218.58536315043713
 11
277.50099999999997
 21
218.87336315043714
  0
LINE
  8
_1-0_036085
  6
CONTINUOUS
 62
    2
 10
277.50099999999997
 20
218.87336315043714
 11
279.15399999999999
 21
219.37636315043715
  0
LINE
  8
_1-0_036085
  6
CONTINUOUS
 62
    2
 10
279.15399999999999
 20
219.37636315043715
 11
280.60900000000003
 21
220.20336315043715
  0
LINE
  8
_1-0_036085
  6
CONTINUOUS
 62
    2
 10
280.60900000000003
 20
220.20336315043715
 11
281
 21
220.95536315043713
  0
LINE
  8
_1-0_036085
  6
CONTINUOUS
 62
    2
 10
281
 20
220.95536315043713
 11
280.93100000000004
 21
221.27536315043715
  0
LINE
  8
_1-0_036085
  6
CONTINUOUS
 62
    2
 10
280.93100000000004
 20
221.27536315043715
 11
279.83100000000001
 21
222.23336315043715
  0
LINE
  8
_1-0_036085
  6
CONTINUOUS
 62
    2
 10
279.83100000000001
 20
222.23336315043715
 11
278.17099999999999
 21
222.86136315043714
  0
LINE
  8
_1-0_036085
  6
CONTINUOUS
 62
    2
 10
278.17099999999999
 20
222.86136315043714
 11
276.64300000000002
 21
223.22536315043714
  0
LINE
  8
_1-0_036085
  6
CONTINUOUS
 62
    2
 10
276.64300000000002
 20
223.22536315043714
 11
275.41499999999996
 21
223.43336315043714
  0
LINE
  8
_1-0_036085
  6
CONTINUOUS
 62
    2
 10
275.41499999999996
 20
223.43336315043714
 11
274.45199999999999
 21
223.55936315043715
  0
LINE
  8
_1-0_036085
  6
CONTINUOUS
 62
    2
 10
274.45199999999999
 20
223.55936315043715
 11
273.68600000000003
 21
223.63836315043715
  0
LINE
  8
_1-0_036085
  6
CONTINUOUS
 62
    2
 10
273.68600000000003
 20
223.63836315043715
 11
273.06100000000003
 21
223.69036315043715
  0
LINE
  8
_1-0_036085
  6
CONTINUOUS
 62
    2
 10
273.06100000000003
 20
223.69036315043715
 11
272.53800000000001
 21
223.72536315043714
  0
LINE
  8
_1-0_036085
  6
CONTINUOUS
 62
    2
 10
272.53800000000001
 20
223.72536315043714
 11
272.08899999999999
 21
223.75136315043715
  0
LINE
  8
_1-0_036085
  6
CONTINUOUS
 62
    2
 10
272.08899999999999
 20
223.75136315043715
 11
271.69299999999998
 21
223.76836315043715
  0
LINE
  8
_1-0_036085
  6
CONTINUOUS
 62
    2
 10
271.69299999999998
 20
223.76836315043715
 11
271.33600000000001
 21
223.78136315043713
  0
LINE
  8
_1-0_036085
  6
CONTINUOUS
 62
    2
 10
271.33600000000001
 20
223.78136315043713
 11
271.00800000000003
 21
223.79036315043714
  0
LINE
  8
_1-0_036085
  6
CONTINUOUS
 62
    2
 10
271.00800000000003
 20
223.79036315043714
 11
270.70100000000002
 21
223.79736315043714
  0
LINE
  8
_1-0_036085
  6
CONTINUOUS
 62
    2
 10
270.70100000000002
 20
223.79736315043714
 11
270.406
 21
223.80036315043713
  0
LINE
  8
_1-0_036085
  6
CONTINUOUS
 62
    2
 10
270.406
 20
223.80036315043713
 11
270.11900000000002
 21
223.80236315043714
  0
LINE
  8
_1-0_036085
  6
CONTINUOUS
 62
    2
 10
270.11900000000002
 20
223.80236315043714
 11
270
 21
223.80236315043714
  0
LINE
  8
ADD_LINE
  6
DOT
 62
    9
 10
28.835030516080109
 20
18.509653181544081
 11
28.835030516080109
 21
11.509653181544081
  0
LINE
  8
ADD_LINE
  6
DOT
 62
    9
 10
28.835030516080109
 20
11.509653181544081
 11
34.835030516080109
 21
11.509653310745193
  0
LINE
  8
ADD_LINE
  6
DOT
 62
    9
 10
34.835030516080109
 20
18.509653181544081
 11
34.835030516080109
 21
11.509653310745193
  0
LINE
  8
ADD_LINE
  6
DOT
 62
    9
 10
28.841030516080081
 20
11.509653181544081
 11
22.844030516080124
 21
11.509653181544081
  0
LINE
  8
ADD_LINE
  6
DOT
 62
    9
 10
13.835030516080109
 20
9.5096531815440812
 11
827.8350305160801
 21
9.5096531815440812
  0
LINE
  8
ADD_LINE
  6
DOT
 62
    9
 10
824.83803051608015
 20
18.509653181544081
 11
824.83803051608015
 21
11.509653827549982
  0
LINE
  8
ADD_LINE
  6
DOT
 62
    9
 10
818.83803051608015
 20
18.509653181544081
 11
818.83803051608015
 21
11.509653827549982
  0
LINE
  8
ADD_LINE
  6
DOT
 62
    9
 10
812.83803051608015
 20
18.509653181544081
 11
812.83803051608015
 21
11.509653827549982
  0
LINE
  8
ADD_LINE
  6
DOT
 62
    9
 10
806.83803051608015
 20
18.509653181544081
 11
806.83803051608015
 21
11.509653827549982
  0
LINE
  8
ADD_LINE
  6
DOT
 62
    9
 10
800.83803051608015
 20
18.509653181544081
 11
800.83803051608015
 21
11.509653827549982
  0
LINE
  8
ADD_LINE
  6
DOT
 62
    9
 10
794.83803051608015
 20
18.509653181544081
 11
794.83803051608015
 21
11.509653181544081
  0
LINE
  8
ADD_LINE
  6
DOT
 62
    9
 10
13.835030516080109
 20
573.50965318154408
 11
13.835030516080109
 21
9.5096531815440812
  0
LINE
  8
ADD_LINE
  6
DOT
 62
    9
 10
22.844030516080124
 20
11.509653181544081
 11
22.844030516080124
 21
570.50965318154408
  0
LINE
  8
ADD_LINE
  6
DOT
 62
    9
 10
827.8350305160801
 20
573.50965318154408
 11
13.835030516080109
 21
573.50965318154408
  0
LINE
  8
ADD_LINE
  6
DOT
 62
    9
 10
827.8350305160801
 20
9.5096531815440812
 11
827.8350305160801
 21
573.50965318154408
  0
LINE
  8
_2-0_
  6
CONTINUOUS
 62
    7
 10
124.83803051608015
 20
22.509653181544081
 11
124.83803051608015
 21
42.509653181544052
  0
LINE
  8
ADD_LINE
  6
DOT
 62
    9
 10
32.838030516080152
 20
22.509653181544081
 11
32.838030516080152
 21
42.509653181544052
  0
LINE
  8
ADD_LINE
  6
DOT
 62
    9
 10
120.83803051608015
 20
22.509653181544081
 11
120.83803051608015
 21
42.509653181544052
  0
LINE
  8
_2-0_
  6
CONTINUOUS
 62
    7
 10
32.838030516080152
 20
22.509653181544081
 11
120.83803051608015
 21
22.509653181544081
  0
LINE
  8
_2-0_
  6
CONTINUOUS
 62
    7
 10
32.838030516080152
 20
42.509653181544052
 11
120.83803051608015
 21
42.509653181544052
  0
LINE
  8
_2-0_
  6
CONTINUOUS
 62
    7
 10
282.83803051608015
 20
22.509653181544081
 11
282.83803051608015
 21
42.509653181544052
  0
LINE
  8
_2-0_
  6
CONTINUOUS
 62
    7
 10
440.83803051608009
 20
22.509653181544081
 11
440.83803051608009
 21
42.509653181544052
  0
LINE
  8
_2-0_
  6
CONTINUOUS
 62
    7
 10
442.83803051608009
 20
22.509653181544081
 11
442.83803051608009
 21
42.509653181544052
  0
LINE
  8
_2-0_
  6
CONTINUOUS
 62
    7
 10
124.83803051608015
 20
22.509653181544081
 11
440.83803051608009
 21
22.509653181544081
  0
LINE
  8
_2-0_
  6
CONTINUOUS
 62
    7
 10
124.83803051608015
 20
42.509653181544052
 11
440.83803051608009
 21
42.509653181544052
  0
LINE
  8
_2-0_
  6
CONTINUOUS
 62
    7
 10
540.83803051608015
 20
22.509653181544081
 11
540.83803051608015
 21
42.509653181544052
  0
LINE
  8
_2-0_
  6
CONTINUOUS
 62
    7
 10
542.83803051608015
 20
22.509653181544081
 11
542.83803051608015
 21
42.509653181544052
  0
LINE
  8
_2-0_
  6
CONTINUOUS
 62
    7
 10
442.83803051608009
 20
22.509653181544081
 11
540.83803051608015
 21
22.509653181544081
  0
LINE
  8
_2-0_
  6
CONTINUOUS
 62
    7
 10
442.83803051608009
 20
42.509653181544052
 11
540.83803051608015
 21
42.509653181544052
  0
LINE
  8
_2-0_
  6
CONTINUOUS
 62
    7
 10
602.83803051608015
 20
22.509653181544081
 11
602.83803051608015
 21
42.509653181544052
  0
LINE
  8
_2-0_
  6
CONTINUOUS
 62
    7
 10
662.83803051608015
 20
22.509653181544081
 11
662.83803051608015
 21
42.509653181544052
  0
LINE
  8
_2-0_
  6
CONTINUOUS
 62
    7
 10
738.83803051608015
 20
22.509653181544081
 11
738.83803051608015
 21
42.509653181544052
  0
LINE
  8
_2-0_
  6
CONTINUOUS
 62
    7
 10
542.83803051608015
 20
22.509653181544081
 11
820.83803051608015
 21
22.509653181544081
  0
LINE
  8
_2-0_
  6
CONTINUOUS
 62
    7
 10
820.83803051608015
 20
22.509653181544081
 11
820.83803051608015
 21
42.509653181544052
  0
LINE
  8
_2-0_
  6
CONTINUOUS
 62
    7
 10
542.83803051608015
 20
42.509653181544052
 11
820.83803051608015
 21
42.509653181544052
  0
LINE
  8
_2-0_
  6
CONTINUOUS
 62
    1
 10
824.83803051608015
 20
570.50965318154408
 11
824.83803051608015
 21
18.509653181544081
  0
LINE
  8
_2-0_
  6
CONTINUOUS
 62
    1
 10
28.838030516080152
 20
570.50965318154408
 11
824.83803051608015
 21
570.50965318154408
  0
LINE
  8
_2-0_
  6
CONTINUOUS
 62
    1
 10
28.838030516080152
 20
18.509653181544081
 11
824.83803051608015
 21
18.509653181544081
  0
LINE
  8
_2-0_
  6
CONTINUOUS
 62
    1
 10
28.838030516080152
 20
18.509653181544081
 11
28.838030516080152
 21
570.50965318154408
  0
LINE
  8
ADD_LINE
  6
DOT
 62
    9
 10
124.83803051608015
 20
38.509653181544081
 11
440.83803051608009
 21
38.509653181544081
  0
LINE
  8
ADD_LINE
  6
DOT
 62
    9
 10
542.83803051608015
 20
38.509653181544081
 11
820.83803051608015
 21
38.509653181544081
  0
LINE
  8
ADD_LINE
  6
DOT
 62
    9
 10
546.83803051608015
 20
22.509653181544081
 11
546.83803051608015
 21
42.509653181544052
  0
LINE
  8
ADD_LINE
  6
DOT
 62
    9
 10
606.83803051608015
 20
22.509653181544081
 11
606.83803051608015
 21
42.509653181544052
  0
LINE
  8
ADD_LINE
  6
DOT
 62
    9
 10
666.83803051608015
 20
22.509653181544081
 11
666.83803051608015
 21
42.509653181544052
  0
LINE
  8
ADD_LINE
  6
DOT
 62
    9
 10
742.83803051608015
 20
22.509653181544081
 11
742.83803051608015
 21
42.509653181544052
  0
LINE
  8
ADD_LINE
  6
DOT
 62
    9
 10
287.83803051608015
 20
22.509653181544081
 11
287.83803051608015
 21
42.509653181544052
  0
LINE
  8
ADD_LINE
  6
DOT
 62
    9
 10
129.83803051608015
 20
22.509653181544081
 11
129.83803051608015
 21
42.509653181544052
  0
LINE
  8
ADD_LINE
  6
DOT
 62
    9
 10
730.83803051608015
 20
22.509653181544081
 11
730.83803051608015
 21
42.509653181544052
  0
LINE
  8
ADD_LINE
  6
DOT
 62
    9
 10
542.83803051608015
 20
30.509653181544081
 11
820.83803051608015
 21
30.509653181544081
  0
LINE
  8
ADD_LINE
  6
DOT
 62
    9
 10
25.838030516080152
 20
11.509653181544081
 11
25.838030516080152
 21
570.50965318154408
  0
LINE
  8
_2-0_
  6
CONTINUOUS
 62
    7
 10
32.838030516080152
 20
32.509653181544081
 11
120.83803051608015
 21
32.509653181544081
  0
LINE
  8
ADD_LINE
  6
DOT
 62
    9
 10
580.83803051608015
 20
22.509653181544081
 11
580.83803051608015
 21
42.509653181544052
  0
LINE
  8
ADD_LINE
  6
DOT
 62
    9
 10
632.83803051608015
 20
22.509653181544081
 11
632.83803051608015
 21
42.509653181544052
  0
LINE
  8
ADD_LINE
  6
DOT
 62
    9
 10
698.83803051608015
 20
42.509653181544052
 11
698.83803051608015
 21
22.509653181544081
  0
LINE
  8
ADD_LINE
  6
DOT
 62
    9
 10
124.83803051608015
 20
30.509653181544081
 11
440.83803051608009
 21
30.509653181544081
  0
LINE
  8
ADD_LINE
  6
DOT
 62
    9
 10
203.83803051608012
 20
42.509653181544052
 11
203.83803051608012
 21
22.509653181544081
  0
LINE
  8
ADD_LINE
  6
DOT
 62
    9
 10
361.83803051608009
 20
22.509653181544081
 11
361.83803051608009
 21
42.509653181544052
  0
LINE
  8
_2-0_
  6
CONTINUOUS
 62
    7
 10
431.83803051608009
 20
572.90965318154394
 11
432.06803051608011
 21
573.30965318154403
  0
LINE
  8
_2-0_
  6
CONTINUOUS
 62
    7
 10
430.5660305160801
 20
573.90965318154394
 11
431.83803051608009
 21
571.70965318154412
  0
LINE
  8
_2-0_
  6
CONTINUOUS
 62
    7
 10
431.83803051608009
 20
571.70965318154412
 11
433.10803051608007
 21
573.90965318154394
  0
LINE
  8
_2-0_
  6
CONTINUOUS
 62
    7
 10
431.83803051608009
 20
570.50965318154408
 11
434.14603051608008
 21
574.50965318154408
  0
LINE
  8
_2-0_
  6
CONTINUOUS
 62
    7
 10
429.52803051608009
 20
574.50965318154408
 11
431.83803051608009
 21
570.50965318154408
  0
LINE
  8
_2-0_
  6
CONTINUOUS
 62
    7
 10
434.14603051608008
 20
574.50965318154408
 11
429.52803051608009
 21
574.50965318154408
  0
LINE
  8
_2-0_
  6
CONTINUOUS
 62
    7
 10
431.60603051608012
 20
573.30965318154403
 11
431.83803051608009
 21
572.90965318154394
  0
LINE
  8
_2-0_
  6
CONTINUOUS
 62
    7
 10
432.06803051608011
 20
573.30965318154403
 11
431.60603051608012
 21
573.30965318154403
  0
LINE
  8
_2-0_
  6
CONTINUOUS
 62
    7
 10
433.10803051608007
 20
573.90965318154394
 11
430.5660305160801
 21
573.90965318154394
  0
LINE
  8
_2-0_
  6
CONTINUOUS
 62
    7
 10
22.838030516080152
 20
291.04555156640628
 11
22.838030516080152
 21
297.97375479668176
  0
LINE
  8
_2-0_
  6
CONTINUOUS
 62
    7
 10
22.838030516080152
 20
297.97375479668176
 11
28.838030516080152
 21
294.50965318154408
  0
LINE
  8
_2-0_
  6
CONTINUOUS
 62
    7
 10
28.838030516080152
 20
294.50965318154408
 11
22.838030516080152
 21
291.04555156640628
  0
LINE
  8
_2-0_
  6
CONTINUOUS
 62
    7
 10
23.838030516080152
 20
292.77760237397512
 11
23.838030516080152
 21
296.24170398911292
  0
LINE
  8
_2-0_
  6
CONTINUOUS
 62
    7
 10
23.838030516080152
 20
296.24170398911292
 11
26.838030516080152
 21
294.50965318154408
  0
LINE
  8
_2-0_
  6
CONTINUOUS
 62
    7
 10
26.838030516080152
 20
294.50965318154408
 11
23.838030516080152
 21
292.77760237397512
  0
LINE
  8
_2-0_
  6
CONTINUOUS
 62
    7
 10
24.638030516080107
 20
294.16324302003022
 11
24.638030516080107
 21
294.85606334305782
  0
LINE
  8
_2-0_
  6
CONTINUOUS
 62
    7
 10
24.638030516080107
 20
294.85606334305782
 11
25.238030516080243
 21
294.50965318154408
  0
LINE
  8
_2-0_
  6
CONTINUOUS
 62
    7
 10
25.238030516080243
 20
294.50965318154408
 11
24.638030516080107
 21
294.16324302003022
  0
LINE
  8
_2-0_
  6
CONTINUOUS
 62
    7
 10
830.83803051608015
 20
291.04555156640628
 11
830.83803051608015
 21
297.97375479668176
  0
LINE
  8
_2-0_
  6
CONTINUOUS
 62
    7
 10
830.83803051608015
 20
297.97375479668176
 11
824.83803051608015
 21
294.50965318154408
  0
LINE
  8
_2-0_
  6
CONTINUOUS
 62
    7
 10
824.83803051608015
 20
294.50965318154408
 11
830.83803051608015
 21
291.04555156640628
  0
LINE
  8
_2-0_
  6
CONTINUOUS
 62
    7
 10
829.83803051608015
 20
292.77760237397512
 11
829.83803051608015
 21
296.24170398911292
  0
LINE
  8
_2-0_
  6
CONTINUOUS
 62
    7
 10
829.83803051608015
 20
296.24170398911292
 11
826.83803051608015
 21
294.50965318154408
  0
LINE
  8
_2-0_
  6
CONTINUOUS
 62
    7
 10
826.83803051608015
 20
294.50965318154408
 11
829.83803051608015
 21
292.77760237397512
  0
LINE
  8
_2-0_
  6
CONTINUOUS
 62
    7
 10
829.03803051608008
 20
294.16324302003022
 11
829.03803051608008
 21
294.85606334305782
  0
LINE
  8
_2-0_
  6
CONTINUOUS
 62
    7
 10
829.03803051608008
 20
294.85606334305782
 11
828.43803051608006
 21
294.50965318154408
  0
LINE
  8
_2-0_
  6
CONTINUOUS
 62
    7
 10
828.43803051608006
 20
294.50965318154408
 11
829.03803051608008
 21
294.16324302003022
  0
LINE
  8
ADD_LINE
  6
DOT
 62
    9
 10
213.83803051608012
 20
42.509653181544052
 11
213.83803051608012
 21
22.509653181544081
  0
LINE
  8
ADD_LINE
  6
DOT
 62
    9
 10
371.83803051608009
 20
22.509653181544081
 11
371.83803051608009
 21
42.509653181544052
  0
LINE
  8
ADD_LINE
  6
DOT
 62
    9
 10
794.83803051608015
 20
11.509653181544081
 11
824.83803051608015
 21
11.509653827549982
  0
TEXT
  8
_2-0_
 62
    7
 10
129.83803051608015
 20
36.009653181544081
 40
5
 41
0.8
 50
0
  1
名　称
  0
TEXT
  8
_2-0_
 62
    7
 10
287.83803051608015
 20
36.009653181544081
 40
5
 41
0.8
 50
0
  1
図面名称
  0
TEXT
  8
_2-0_
 62
    7
 10
546.91282733316427
 20
36.003527780513991
 40
5
 41
0.64
 50
0
  1
ＳＣＡＬＥ
  0
TEXT
  8
_2-0_
 62
    7
 10
571.03803051608008
 20
27.009653181544081
 40
7
 41
0.5714285714285713
 50
0
  1
ＦＲＥＥ
  0
TEXT
  8
_2-0_
 62
    7
 10
606.83803051608015
 20
36.009653181544081
 40
5
 41
0.64
 50
0
  1
ＤＡＴＡ
  0
TEXT
  8
_2-0_
 62
    7
 10
666.83803051608015
 20
36.009653181544081
 40
5
 41
0.64
 50
0
  1
ＣＨＥＣＫＥＤ
  0
TEXT
  8
_2-0_
 62
    7
 10
666.83803051608015
 20
27.509653181544081
 40
6
 41
0.7333333333333333
 50
0
  1
Ｔ．Ｋ
  0
TEXT
  8
_2-0_
 62
    7
 10
707.23803051608012
 20
36.009653181544081
 40
5
 41
0.64
 50
0
  1
ＤＲＡＷＩＮＧ
  0
TEXT
  8
_2-0_
 62
    7
 10
742.83803051608015
 20
36.009653181544081
 40
5
 41
0.64
 50
0
  1
ＳＨＥＥＴ　ＮＯ．
  0
LINE
  8
_e-0_
  6
CONTINUOUS
 62
    7
 10
447.59521656989738
 20
38.413584142265221
 11
453.42481621005066
 21
40.535384888970042
  0
LINE
  8
_e-0_
  6
CONTINUOUS
 62
    7
 10
446.36476281713743
 20
36.901557829143598
 11
456.3486206102134
 21
40.535384888969815
  0
LINE
  8
_e-0_
  6
CONTINUOUS
 62
    7
 10
445.6793780318776
 20
35.587920395814535
 11
451.6108991171074
 21
37.74681751476055
  0
LINE
  8
_e-0_
  6
CONTINUOUS
 62
    7
 10
445.28042192351404
 20
34.378534475115657
 11
449.62976217026618
 21
35.961564863629405
  0
LINE
  8
_e-0_
  6
CONTINUOUS
 62
    7
 10
445.07852079842876
 20
33.240870702843835
 11
448.72952227520943
 21
34.569726565653922
  0
LINE
  8
_e-0_
  6
CONTINUOUS
 62
    7
 10
445.03101229359083
 20
32.159401248731683
 11
448.71299256384787
 21
33.499532470260646
  0
LINE
  8
_e-0_
  6
CONTINUOUS
 62
    7
 10
445.11478046485262
 20
31.125712597174015
 11
448.80376333144573
 21
32.468392555331888
  0
LINE
  8
_e-0_
  6
CONTINUOUS
 62
    7
 10
445.3170318949152
 20
30.135148325079057
 11
449.09194427973352
 21
31.509104070115768
  0
LINE
  8
_e-0_
  6
CONTINUOUS
 62
    7
 10
445.63154152737939
 20
29.185442697210078
 11
449.57053386965407
 21
30.619118662800588
  0
LINE
  8
_e-0_
  6
CONTINUOUS
 62
    7
 10
446.05713655646377
 20
28.276168847172471
 11
450.25801261370054
 21
29.805162689848316
  0
LINE
  8
_e-0_
  6
CONTINUOUS
 62
    7
 10
446.59743230136609
 20
27.408642643541725
 11
451.2140537166274
 21
29.088955421572677
  0
LINE
  8
_e-0_
  6
CONTINUOUS
 62
    7
 10
447.26166806459411
 20
26.586226917415842
 11
452.62739829578515
 21
28.539193006671666
  0
LINE
  8
_e-0_
  6
CONTINUOUS
 62
    7
 10
448.06714435256725
 20
25.815218538169347
 11
455.75105862664418
 21
28.611934616586609
  0
LINE
  8
_e-0_
  6
CONTINUOUS
 62
    7
 10
449.045051470136
 20
25.10696984836602
 11
454.67492696760996
 21
27.156076952071202
  0
LINE
  8
_e-0_
  6
CONTINUOUS
 62
    7
 10
454.75501695975356
 20
38.891182822509108
 11
459.27242501037613
 21
40.535384888970156
  0
LINE
  8
_e-0_
  6
CONTINUOUS
 62
    7
 10
450.95052137782602
 20
36.442281901814226
 11
461.4482564993728
 21
40.263145013268172
  0
LINE
  8
_e-0_
  6
CONTINUOUS
 62
    7
 10
453.4519542859748
 20
36.28855125091843
 11
461.4482564993728
 21
39.198967240792285
  0
LINE
  8
_e-0_
  6
CONTINUOUS
 62
    7
 10
456.37575868613788
 20
36.28855125091843
 11
461.4482564993728
 21
38.134789468316398
  0
LINE
  8
_e-0_
  6
CONTINUOUS
 62
    7
 10
457.21305978458985
 20
35.52912615539742
 11
461.4482564993728
 21
37.070611695840511
  0
LINE
  8
_e-0_
  6
CONTINUOUS
 62
    7
 10
457.21305978458985
 20
34.464948382921534
 11
461.4482564993728
 21
36.006433923364511
  0
LINE
  8
_e-0_
  6
CONTINUOUS
 62
    7
 10
457.21305978458985
 20
33.400770610445647
 11
461.4482564993728
 21
34.942256150888624
  0
LINE
  8
_e-0_
  6
CONTINUOUS
 62
    7
 10
457.21305978458985
 20
32.33659283796976
 11
461.4482564993728
 21
33.878078378412737
  0
LINE
  8
_e-0_
  6
CONTINUOUS
 62
    7
 10
457.1982000300091
 20
31.26700655713796
 11
461.4482564993728
 21
32.813900605936851
  0
LINE
  8
_e-0_
  6
CONTINUOUS
 62
    7
 10
456.96882870334741
 20
30.119344449163008
 11
461.4482564993728
 21
31.74972283346085
  0
LINE
  8
_e-0_
  6
CONTINUOUS
 62
    7
 10
456.51702977323651
 20
28.890725314253472
 11
461.4482564993728
 21
30.685545060984964
  0
LINE
  8
_e-0_
  6
CONTINUOUS
 62
    7
 10
455.7181077526327
 20
27.535763706777856
 11
461.21020384342364
 21
29.534723207555543
  0
LINE
  8
_e-0_
  6
CONTINUOUS
 62
    7
 10
453.98729989338312
 20
25.84162339230113
 11
460.6457847743531
 21
28.265113694285787
  0
LINE
  8
_e-0_
  6
CONTINUOUS
 62
    7
 10
452.23385454564424
 20
24.139243705835724
 11
459.67210613251643
 21
26.846545878440565
  0
LINE
  8
_e-0_
  6
CONTINUOUS
 62
    7
 10
455.26555880747338
 20
24.178516043763579
 11
457.3829221935436
 21
24.949173291418219
  0
LINE
  8
_e-0_
  6
CONTINUOUS
 62
    3
 10
452.12732397077809
 20
38.022878820900615
 11
452.12732397077809
 21
38.022878820900615
  0
LINE
  8
_e-0_
  6
CONTINUOUS
 62
    3
 10
452.12732397077809
 20
38.022878820900615
 11
451.30292520794512
 21
37.461014510304323
  0
LINE
  8
_e-0_
  6
CONTINUOUS
 62
    3
 10
455.31539895446877
 20
24.139243705835383
 11
452.22211072411414
 21
24.139243705835383
  0
ARC
  8
_e-0_
  6
CONTINUOUS
 62
    3
 10
455.31539895446877
 20
25.139243705835383
 40
1
 50
270
 51
286.20399351045659
  0
LINE
  8
_e-0_
  6
CONTINUOUS
 62
    3
 10
461.48380268433237
 20
40.535384888969815
 11
461.48380268433237
 21
30.464346642677924
  0
ARC
  8
_e-0_
  6
CONTINUOUS
 62
    3
 10
453.22246367140905
 20
32.341300488513752
 40
8.5
 50
286.20399351045648
 51
345.50707147989851
  0
ARC
  8
_e-0_
  6
CONTINUOUS
 62
    3
 10
460.48380268433237
 20
30.464346642677924
 40
1
 50
345.50707147989879
 51
0
  0
ARC
  8
_e-0_
  6
CONTINUOUS
 62
    3
 10
448.85657826362421
 20
32.608774874123241
 40
8
 50
279.71265316664215
 51
332.69093929010892
  0
ARC
  8
_e-0_
  6
CONTINUOUS
 62
    3
 10
450.03752766707447
 20
25.709111222430465
 40
1
 50
241.94526281180003
 51
279.71265316664226
  0
ARC
  8
_e-0_
  6
CONTINUOUS
 62
    3
 10
451.49089297540371
 20
39.535384888969815
 40
1
 50
90
 51
106.05338143786269
  0
LINE
  8
_e-0_
  6
CONTINUOUS
 62
    3
 10
456.52473029912448
 20
40.535384888969844
 11
456.52473029912448
 21
40.535384888969844
  0
LINE
  8
_e-0_
  6
CONTINUOUS
 62
    3
 10
456.52473029912448
 20
40.535384888969844
 11
454.48167030711829
 21
39.557788563988196
  0
LINE
  8
_e-0_
  6
CONTINUOUS
 62
    3
 10
454.48167030711829
 20
39.557788563988196
 11
453.29792218359642
 21
38.798551139512127
  0
LINE
  8
_e-0_
  6
CONTINUOUS
 62
    3
 10
452.12732397077809
 20
38.022878820900587
 11
453.29792218359642
 21
38.798551139512142
  0
ARC
  8
_e-0_
  6
CONTINUOUS
 62
    3
 10
451.49089297540371
 20
39.535384888969815
 40
1
 50
90
 51
106.05338143786269
  0
ARC
  8
_e-0_
  6
CONTINUOUS
 62
    3
 10
451.49089297540371
 20
39.535384888969815
 40
1
 50
90
 51
106.05338143786269
  0
LINE
  8
_e-0_
  6
CONTINUOUS
 62
    3
 10
456.52473029912448
 20
40.535384888969815
 11
451.49089297540371
 21
40.535384888969815
  0
ARC
  8
_e-0_
  6
CONTINUOUS
 62
    3
 10
453.5648891713929
 20
32.32785134558469
 40
8.5
 50
106.05338143786269
 51
241.94526281180051
  0
ARC
  8
_e-0_
  6
CONTINUOUS
 62
    3
 10
451.49089297540371
 20
39.535384888969815
 40
1
 50
90
 51
106.05338143786269
  0
LINE
  8
_e-0_
  6
CONTINUOUS
 62
    3
 10
458.67242710525118
 20
40.535384888969815
 11
461.48380268433237
 21
40.535384888969815
  0
ARC
  8
_e-0_
  6
CONTINUOUS
 62
    3
 10
458.67242710525118
 20
39.535384888969815
 40
1
 50
90
 51
112.84552721528329
  0
LINE
  8
_e-0_
  6
CONTINUOUS
 62
    3
 10
457.24860596954943
 20
36.288551250918089
 11
452.64150143667353
 21
36.288551250918089
  0
ARC
  8
_e-0_
  6
CONTINUOUS
 62
    3
 10
452.64150143667353
 20
35.288551250918089
 40
1
 50
90
 51
110.93110431809542
  0
ARC
  8
_e-0_
  6
CONTINUOUS
 62
    3
 10
449.68388377213159
 20
34.05042608597887
 40
0.1
 50
165.368776721252
 51
224.67319701305797
  0
LINE
  8
_e-0_
  6
CONTINUOUS
 62
    3
 10
449.61277092769262
 20
33.980119874618821
 11
449.57478217086554
 21
34.018544481810977
  0
ARC
  8
_e-0_
  6
CONTINUOUS
 62
    3
 10
454.07048184023761
 20
31.552508557608803
 40
5
 50
110.93110431809527
 51
150.17701829297229
  0
ARC
  8
_e-0_
  6
CONTINUOUS
 62
    3
 10
449.64589501530446
 20
34.088850693171025
 40
0.1
 50
224.67319701305652
 51
330.17701829297561
  0
LINE
  8
_e-0_
  6
CONTINUOUS
 62
    3
 10
458.28417912893127
 20
40.456939829753878
 11
455.54270933923106
 21
39.301967889516049
  0
LINE
  8
_e-0_
  6
CONTINUOUS
 62
    3
 10
455.54270933923106
 20
39.301967889516049
 11
454.26093619316873
 21
38.601926765156122
  0
ARC
  8
_e-0_
  6
CONTINUOUS
 62
    3
 10
454.42498491519501
 20
32.812702388523575
 40
5
 50
126.05682261028304
 51
165.36877672125814
  0
ARC
  8
_e-0_
  6
CONTINUOUS
 62
    3
 10
463.24378898649587
 20
20.732725448549558
 40
20
 50
116.6886898974924
 51
126.03335467187628
  0
LINE
  8
_e-0_
  6
CONTINUOUS
 62
    3
 10
451.30292520794512
 20
37.461014510304337
 11
451.30292520794512
 21
37.461014510304337
  0
LINE
  8
_e-0_
  6
CONTINUOUS
 62
    3
 10
451.30292520794512
 20
37.461014510304337
 11
449.70923880430785
 21
36.010024969414956
  0
LINE
  8
_e-0_
  6
CONTINUOUS
 62
    3
 10
449.70923880430785
 20
36.010024969414956
 11
449.3402097170109
 21
35.583380710095077
  0
ARC
  8
_e-0_
  6
CONTINUOUS
 62
    3
 10
453.74790711094902
 20
33.420059332545861
 40
5
 50
169.07329675873063
 51
296.32138326661799
  0
LINE
  8
_e-0_
  6
CONTINUOUS
 62
    3
 10
449.3402097170109
 20
35.583380710094992
 11
449.3402097170109
 21
35.583380710094992
  0
LINE
  8
_e-0_
  6
CONTINUOUS
 62
    3
 10
449.3402097170109
 20
35.583380710094992
 11
448.8385547293027
 21
34.367824700568718
  0
LINE
  8
_e-0_
  6
CONTINUOUS
 62
    3
 10
457.24860596954943
 20
36.288551250918089
 11
457.24860596954943
 21
31.394504953207388
  0
ARC
  8
_e-0_
  6
CONTINUOUS
 62
    3
 10
454.29484902069026
 20
27.33583514815848
 40
1
 50
311.4163090429962
 51
326.13300916724881
  0
ARC
  8
_e-0_
  6
CONTINUOUS
 62
    3
 10
449.29521873378666
 20
32.256845650383752
 40
8
 50
316.78132524618342
 51
353.81191653224226
  0
ARC
  8
_e-0_
  6
CONTINUOUS
 62
    3
 10
447.01807011548112
 20
35.584985938676481
 40
12
 50
294.69555798319504
 51
311.41630904299643
  0
ARC
  8
_e-0_
  6
CONTINUOUS
 62
    3
 10
453.22339358245409
 20
39.105787483127301
 40
15
 50
264.68313230529076
 51
266.17253517307824
  0
ARC
  8
_e-0_
  6
CONTINUOUS
 62
    3
 10
451.84270413040326
 20
24.269895307831689
 40
0.1
 50
174.02086603460466
 51
264.68313230528985
  0
ARC
  8
_e-0_
  6
CONTINUOUS
 62
    3
 10
452.24052808908226
 20
24.228228799687826
 40
0.5
 50
114.69555798319522
 51
174.02086603461154
  0
LINE
  8
_e-0_
  6
CONTINUOUS
 62
    7
 10
474.21602889799896
 20
32.395717229668093
 11
476.49040871103932
 21
33.223523783030714
  0
LINE
  8
_e-0_
  6
CONTINUOUS
 62
    3
 10
486.08973520536551
 20
31.03627816658286
 11
486.08973520536551
 21
25.807690427203169
  0
CIRCLE
  8
_e-0_
  6
CONTINUOUS
 62
    3
 10
471.94137912628781
 20
31.002240079805119
 40
2.6675475911661301
  0
CIRCLE
  8
_e-0_
  6
CONTINUOUS
 62
    3
 10
471.88463563681278
 20
30.945496590330094
 40
5.1383415127795331
  0
LINE
  8
_e-0_
  6
CONTINUOUS
 62
    3
 10
478.73682286113165
 20
36.16215394577398
 11
478.73682286113165
 21
25.807690427203169
  0
LINE
  8
_e-0_
  6
CONTINUOUS
 62
    3
 10
478.73682286113165
 20
25.807690427203169
 11
481.80941666681388
 21
25.807690427203169
  0
LINE
  8
_e-0_
  6
CONTINUOUS
 62
    3
 10
481.80941666681388
 20
25.807690427203169
 11
481.80941666681388
 21
33.03627816658286
  0
LINE
  8
_e-0_
  6
CONTINUOUS
 62
    3
 10
489.07352572186618
 20
25.807690427203169
 11
486.08973520536551
 21
25.807690427203169
  0
LINE
  8
_e-0_
  6
CONTINUOUS
 62
    3
 10
484.08973520536551
 20
33.03627816658286
 11
481.80941666681388
 21
33.03627816658286
  0
ARC
  8
_e-0_
  6
CONTINUOUS
 62
    3
 10
484.08973520536551
 20
31.03627816658286
 40
2
 50
0
 51
90
  0
LINE
  8
_e-0_
  6
CONTINUOUS
 62
    3
 10
484.07352572186618
 20
36.16215394577398
 11
478.73682286113165
 21
36.16215394577398
  0
LINE
  8
_e-0_
  6
CONTINUOUS
 62
    3
 10
489.07352572186618
 20
31.16215394577398
 11
489.07352572186618
 21
25.807690427203169
  0
ARC
  8
_e-0_
  6
CONTINUOUS
 62
    3
 10
484.07352572186618
 20
31.16215394577398
 40
5
 50
0
 51
90
  0
ARC
  8
_e-0_
  6
CONTINUOUS
 62
    3
 10
496.08708263958476
 20
30.944960706356937
 40
2.6675475911661301
 50
23.422555400004952
 51
97.191484740792631
  0
LINE
  8
_e-0_
  6
CONTINUOUS
 62
    3
 10
493.63934574229267
 20
32.005335278275424
 11
498.53481953687679
 21
32.005335278275424
  0
ARC
  8
_e-0_
  6
CONTINUOUS
 62
    3
 10
496.08708263958476
 20
30.944960706356937
 40
2.6675475911661301
 50
92.530763017635266
 51
156.57744459999506
  0
ARC
  8
_e-0_
  6
CONTINUOUS
 62
    3
 10
496.08708263958476
 20
30.944960706356937
 40
2.6675475911661301
 50
204.21097500392608
 51
316.0067678116265
  0
LINE
  8
_e-0_
  6
CONTINUOUS
 62
    3
 10
493.65416832327747
 20
29.851005460177589
 11
501.1420455873278
 21
29.851005460177589
  0
LINE
  8
_e-0_
  6
CONTINUOUS
 62
    3
 10
498.0061746593326
 20
29.092153114922666
 11
500.57987875805793
 21
28.467540126873018
  0
ARC
  8
_e-0_
  6
CONTINUOUS
 62
    3
 10
496.15114786963715
 20
31.073091166461722
 40
5.1383415127795331
 50
346.24110979921471
 51
329.53046432565105
  0
ARC
  8
_e-0_
  6
CONTINUOUS
 62
    3
 10
508.14074232454817
 20
30.9382728722519
 40
2.2179513283735885
 50
94.502189492040685
 51
357.22978420280037
  0
LINE
  8
_e-0_
  6
CONTINUOUS
 62
    3
 10
510.1561017463095
 20
33.149380345355211
 11
507.96663937391014
 21
33.149380345355211
  0
LINE
  8
_e-0_
  6
CONTINUOUS
 62
    3
 10
510.35610174630949
 20
32.94938034535528
 11
510.35610174630949
 21
30.831078061521566
  0
ARC
  8
_e-0_
  6
CONTINUOUS
 62
    3
 10
510.1561017463095
 20
32.94938034535528
 40
0.2
 50
0
 51
90
  0
LINE
  8
_e-0_
  6
CONTINUOUS
 62
    3
 10
508.63209966319044
 20
36.16777066701627
 11
510.31664602524358
 21
36.16777066701627
  0
ARC
  8
_e-0_
  6
CONTINUOUS
 62
    3
 10
508.23128764832097
 20
31.045085508753118
 40
5.1383415127795331
 50
85.526146014136969
 51
347.40557840019874
  0
LINE
  8
_e-0_
  6
CONTINUOUS
 62
    3
 10
510.31664602524358
 20
40.335384888969883
 11
510.31664602524358
 21
36.16777066701627
  0
ARC
  8
_e-0_
  6
CONTINUOUS
 62
    3
 10
510.51664602524357
 20
40.335384888969883
 40
0.2
 50
90
 51
180
  0
LINE
  8
_e-0_
  6
CONTINUOUS
 62
    3
 10
513.24599036735241
 20
40.335384888969883
 11
513.24599036735241
 21
29.924679269172202
  0
LINE
  8
_e-0_
  6
CONTINUOUS
 62
    3
 10
513.04599036735248
 20
40.535384888969815
 11
510.51664602524357
 21
40.535384888969815
  0
ARC
  8
_e-0_
  6
CONTINUOUS
 62
    3
 10
513.04599036735248
 20
40.335384888969883
 40
0.2
 50
0
 51
90
  0
CIRCLE
  8
_e-0_
  6
CONTINUOUS
 62
    3
 10
520.33668743199677
 20
31.033370723829193
 40
2.6675475911661301
  0
CIRCLE
  8
_e-0_
  6
CONTINUOUS
 62
    3
 10
520.27994394252175
 20
30.976627234354282
 40
5.1383415127795331
  0
ARC
  8
_e-0_
  6
CONTINUOUS
 62
    3
 10
471.09915943185382
 20
35.221871102568911
 40
1
 50
90
 51
106.05338143786269
  0
ARC
  8
_e-0_
  6
CONTINUOUS
 62
    3
 10
471.09915943185382
 20
35.221871102568911
 40
1
 50
90
 51
106.05338143786269
  0
ARC
  8
_e-0_
  6
CONTINUOUS
 62
    3
 10
471.09915943185382
 20
35.221871102568911
 40
1
 50
90
 51
106.05338143786269
  0
ARC
  8
_e-0_
  6
CONTINUOUS
 62
    3
 10
471.09915943185382
 20
35.221871102568911
 40
1
 50
90
 51
106.05338143786269
  0
LINE
  8
_e-0_
  6
CONTINUOUS
 62
    7
 10
468.1074466027004
 20
34.429086190517637
 11
472.53892207477116
 21
36.042011356232137
  0
LINE
  8
_e-0_
  6
CONTINUOUS
 62
    7
 10
471.08633177760299
 20
34.44913395300307
 11
474.14214742834616
 21
35.561359891278357
  0
LINE
  8
_e-0_
  6
CONTINUOUS
 62
    7
 10
467.18826153577674
 20
33.030352413899436
 11
471.08633177760299
 21
34.44913395300307
  0
LINE
  8
_e-0_
  6
CONTINUOUS
 62
    7
 10
466.8235986448019
 20
31.833448203567286
 11
470.28516390074338
 21
33.093354920699994
  0
LINE
  8
_e-0_
  6
CONTINUOUS
 62
    7
 10
466.75030184712551
 20
30.74259257847018
 11
469.36517586711642
 21
31.694328888102859
  0
LINE
  8
_e-0_
  6
CONTINUOUS
 62
    7
 10
466.8921211130376
 20
29.730032797431704
 11
469.3031864623133
 21
30.607588817438681
  0
LINE
  8
_e-0_
  6
CONTINUOUS
 62
    7
 10
467.22212698605892
 20
28.785967339868534
 11
469.63392194679397
 21
29.663788916729345
  0
LINE
  8
_e-0_
  6
CONTINUOUS
 62
    7
 10
467.73885631090149
 20
27.909863660807786
 11
470.35101925031437
 21
28.86061321780744
  0
LINE
  8
_e-0_
  6
CONTINUOUS
 62
    7
 10
468.46526346956028
 20
27.110076472041555
 11
471.83562960921608
 21
28.336789425454981
  0
LINE
  8
_e-0_
  6
CONTINUOUS
 62
    7
 10
469.46805635716134
 20
26.410885461786392
 11
473.88872559506256
 21
28.019877479918591
  0
LINE
  8
_e-0_
  6
CONTINUOUS
 62
    7
 10
470.96238211210538
 20
25.890597784407418
 11
473.89945111907684
 21
26.95960347893083
  0
LINE
  8
_e-0_
  6
CONTINUOUS
 62
    7
 10
473.89945111907684
 20
26.95960347893083
 11
475.84034914522817
 21
27.666032588195889
  0
LINE
  8
_e-0_
  6
CONTINUOUS
 62
    7
 10
473.71806128004698
 20
27.957760749201497
 11
476.65063461352087
 21
29.025130152388783
  0
LINE
  8
_e-0_
  6
CONTINUOUS
 62
    7
 10
473.73570661105026
 20
29.028360896936419
 11
476.96938721447065
 21
30.205324383705374
  0
LINE
  8
_e-0_
  6
CONTINUOUS
 62
    7
 10
474.53627668330062
 20
30.383922346155827
 11
477.01175408647804
 21
31.28492243651101
  0
LINE
  8
_e-0_
  6
CONTINUOUS
 62
    7
 10
474.56933370016963
 20
31.460131888805676
 11
476.84444312466928
 21
32.288203999022016
  0
LINE
  8
_e-0_
  6
CONTINUOUS
 62
    7
 10
471.86597088626621
 20
33.668721609550402
 11
475.19085060597234
 21
34.878878860038753
  0
LINE
  8
_e-0_
  6
CONTINUOUS
 62
    7
 10
473.46999920654451
 20
33.188362400575897
 11
475.94818769030001
 21
34.090349243564105
  0
LINE
  8
_e-0_
  6
CONTINUOUS
 62
    7
 10
478.73682286113165
 20
35.105329439974639
 11
481.64042432714182
 21
36.16215394577398
  0
LINE
  8
_e-0_
  6
CONTINUOUS
 62
    7
 10
478.73682286113165
 20
34.041151667498752
 11
484.51143937352259
 21
36.142940192311129
  0
LINE
  8
_e-0_
  6
CONTINUOUS
 62
    7
 10
478.73682286113165
 20
32.976973895022865
 11
486.19289247569349
 21
35.69076129934001
  0
LINE
  8
_e-0_
  6
CONTINUOUS
 62
    7
 10
478.73682286113165
 20
31.912796122546978
 11
487.26023115770124
 21
35.015063036995798
  0
LINE
  8
_e-0_
  6
CONTINUOUS
 62
    7
 10
478.73682286113165
 20
30.848618350071092
 11
481.80941666681388
 21
31.96695103733009
  0
LINE
  8
_e-0_
  6
CONTINUOUS
 62
    7
 10
484.57983217180492
 20
32.975299817696281
 11
488.0229122401318
 21
34.228478476762461
  0
LINE
  8
_e-0_
  6
CONTINUOUS
 62
    7
 10
478.73682286113165
 20
29.784440577595205
 11
481.80941666681388
 21
30.902773264854204
  0
LINE
  8
_e-0_
  6
CONTINUOUS
 62
    7
 10
479.50600922076927
 20
25.807690427203169
 11
481.80941666681388
 21
26.646062174950543
  0
LINE
  8
_e-0_
  6
CONTINUOUS
 62
    7
 10
478.73682286113165
 20
26.591907260167431
 11
481.80941666681388
 21
27.71023994742643
  0
LINE
  8
_e-0_
  6
CONTINUOUS
 62
    7
 10
478.73682286113165
 20
27.656085032643318
 11
481.80941666681388
 21
28.774417719902317
  0
LINE
  8
_e-0_
  6
CONTINUOUS
 62
    7
 10
478.73682286113165
 20
28.720262805119205
 11
481.80941666681388
 21
29.838595492378317
  0
LINE
  8
_e-0_
  6
CONTINUOUS
 62
    7
 10
486.08973520536551
 20
30.332326261112825
 11
489.07352572186618
 21
31.418337194404784
  0
LINE
  8
_e-0_
  6
CONTINUOUS
 62
    7
 10
486.08973520536551
 20
29.268148488637052
 11
489.07352572186618
 21
30.354159421929011
  0
LINE
  8
_e-0_
  6
CONTINUOUS
 62
    7
 10
486.05904002915832
 20
31.385331903113865
 11
488.91177410360512
 21
32.423642192489296
  0
LINE
  8
_e-0_
  6
CONTINUOUS
 62
    7
 10
486.08973520536551
 20
28.203970716161165
 11
489.07352572186618
 21
29.289981649453125
  0
LINE
  8
_e-0_
  6
CONTINUOUS
 62
    7
 10
486.08973520536551
 20
27.139792943685165
 11
489.07352572186618
 21
28.225803876977124
  0
LINE
  8
_e-0_
  6
CONTINUOUS
 62
    7
 10
486.08973520536551
 20
26.075615171209278
 11
489.07352572186618
 21
27.161626104501237
  0
LINE
  8
_e-0_
  6
CONTINUOUS
 62
    7
 10
488.27742242125873
 20
25.807690427203169
 11
489.07352572186618
 21
26.097448332025351
  0
LINE
  8
_e-0_
  6
CONTINUOUS
 62
    7
 10
485.6418109972032
 20
32.29765072708642
 11
488.56396776470904
 21
33.361228810318038
  0
LINE
  8
_e-0_
  6
CONTINUOUS
 62
    7
 10
492.67570736734688
 20
34.857779636731606
 11
496.38073889859435
 21
36.206300831123371
  0
LINE
  8
_e-0_
  6
CONTINUOUS
 62
    7
 10
491.5643582948366
 20
33.389103881982691
 11
498.17612825775597
 21
35.795591344300532
  0
LINE
  8
_e-0_
  6
CONTINUOUS
 62
    7
 10
491.13061033339846
 20
32.167054762369616
 11
499.2939165058454
 21
35.13825522234174
  0
LINE
  8
_e-0_
  6
CONTINUOUS
 62
    7
 10
491.13787891349272
 20
31.105522536693456
 11
493.63592395048056
 21
32.01473657401334
  0
LINE
  8
_e-0_
  6
CONTINUOUS
 62
    7
 10
497.26819684229099
 20
33.33677578936431
 11
500.09574410761774
 21
34.365918829924112
  0
LINE
  8
_e-0_
  6
CONTINUOUS
 62
    7
 10
498.17657608798509
 20
32.6032210237463
 11
500.67372889126517
 21
33.512110314554547
  0
LINE
  8
_e-0_
  6
CONTINUOUS
 62
    7
 10
491.47989905681845
 20
30.165829915907579
 11
496.53389850288999
 21
32.005335278275424
  0
LINE
  8
_e-0_
  6
CONTINUOUS
 62
    7
 10
491.4158064080052
 20
29.078324327028326
 11
501.06084129119255
 21
32.588829932967655
  0
LINE
  8
_e-0_
  6
CONTINUOUS
 62
    7
 10
491.89808886236653
 20
28.189683012448881
 11
494.22369912869896
 21
29.036135925897724
  0
LINE
  8
_e-0_
  6
CONTINUOUS
 62
    7
 10
496.46253477393452
 20
29.851005460177589
 11
501.26259912348257
 21
31.598086005975346
  0
LINE
  8
_e-0_
  6
CONTINUOUS
 62
    7
 10
499.38633917409765
 20
29.851005460177589
 11
501.26106293861926
 21
30.533349107934895
  0
LINE
  8
_e-0_
  6
CONTINUOUS
 62
    7
 10
492.58366533388112
 20
27.375034668917464
 11
495.34903333558816
 21
28.381546308331053
  0
LINE
  8
_e-0_
  6
CONTINUOUS
 62
    7
 10
493.52820213136601
 20
26.654640175895224
 11
499.33750280712899
 21
28.7690527037754
  0
LINE
  8
_e-0_
  6
CONTINUOUS
 62
    7
 10
494.89942042804551
 20
26.089545048091849
 11
500.31338841775755
 21
28.060068245616889
  0
LINE
  8
_e-0_
  6
CONTINUOUS
 62
    7
 10
509.36266433451442
 20
26.032846458598896
 11
510.58640798301405
 21
26.478252721025
  0
LINE
  8
_e-0_
  6
CONTINUOUS
 62
    7
 10
506.71828403637664
 20
26.134548514472612
 11
512.5467479945006
 21
28.255935906723038
  0
LINE
  8
_e-0_
  6
CONTINUOUS
 62
    7
 10
505.43756653417472
 20
26.732583237643325
 11
513.14342521005119
 21
29.537286425124193
  0
LINE
  8
_e-0_
  6
CONTINUOUS
 62
    7
 10
503.25440338703509
 20
32.323043470392917
 11
513.24599036735241
 21
35.959683724310025
  0
LINE
  8
_e-0_
  6
CONTINUOUS
 62
    7
 10
503.75596711199227
 20
33.569775509340956
 11
513.24599036735241
 21
37.023861496785912
  0
LINE
  8
_e-0_
  6
CONTINUOUS
 62
    7
 10
510.31664602524358
 20
40.214378440245923
 11
511.19860399461208
 21
40.535384888969815
  0
LINE
  8
_e-0_
  6
CONTINUOUS
 62
    7
 10
510.31664602524358
 20
39.150200667770036
 11
513.24599036735241
 21
40.216394814213686
  0
LINE
  8
_e-0_
  6
CONTINUOUS
 62
    7
 10
510.31664602524358
 20
38.086022895294036
 11
513.24599036735241
 21
39.152217041737799
  0
LINE
  8
_e-0_
  6
CONTINUOUS
 62
    7
 10
510.31664602524358
 20
37.021845122818149
 11
513.24599036735241
 21
38.088039269261912
  0
LINE
  8
_e-0_
  6
CONTINUOUS
 62
    7
 10
505.11003691213136
 20
35.126794384186268
 11
507.99863253888406
 21
36.178157211155735
  0
LINE
  8
_e-0_
  6
CONTINUOUS
 62
    7
 10
508.44854969201981
 20
33.149380345355211
 11
513.24599036735241
 21
34.895505951834138
  0
LINE
  8
_e-0_
  6
CONTINUOUS
 62
    7
 10
503.09531097420682
 20
31.200960795149967
 11
506.5130722044218
 21
32.444924150777296
  0
LINE
  8
_e-0_
  6
CONTINUOUS
 62
    7
 10
503.16911267080672
 20
30.163644643474754
 11
505.93496434258725
 21
31.170332324398259
  0
LINE
  8
_e-0_
  6
CONTINUOUS
 62
    7
 10
503.43683280827059
 20
29.196909032149392
 11
506.06612087579549
 21
30.153891626039694
  0
LINE
  8
_e-0_
  6
CONTINUOUS
 62
    7
 10
503.88929923184105
 20
28.297415569858003
 11
506.645128191308
 21
29.300455281832796
  0
LINE
  8
_e-0_
  6
CONTINUOUS
 62
    7
 10
504.54037676263607
 20
27.470210638791058
 11
507.9892579307218
 21
28.725500725495408
  0
LINE
  8
_e-0_
  6
CONTINUOUS
 62
    7
 10
509.67912862165258
 20
29.340563356753136
 11
513.24599036735241
 21
30.638794861930591
  0
LINE
  8
_e-0_
  6
CONTINUOUS
 62
    7
 10
510.3392180744151
 20
30.644994041987615
 11
513.24599036735241
 21
31.702972634406478
  0
LINE
  8
_e-0_
  6
CONTINUOUS
 62
    7
 10
510.35610174630949
 20
31.715316968478191
 11
513.24599036735241
 21
32.767150406882365
  0
LINE
  8
_e-0_
  6
CONTINUOUS
 62
    7
 10
510.35610174630949
 20
32.779494740954078
 11
513.24599036735241
 21
33.831328179358251
  0
LINE
  8
_e-0_
  6
CONTINUOUS
 62
    7
 10
517.86738307985217
 20
35.513377567562883
 11
519.21190588262857
 21
36.00274384706563
  0
LINE
  8
_e-0_
  6
CONTINUOUS
 62
    7
 10
515.95675972476578
 20
33.753789764941643
 11
521.80656952436618
 21
35.882946408114889
  0
LINE
  8
_e-0_
  6
CONTINUOUS
 62
    7
 10
520.54165401555223
 20
25.844954861761834
 11
523.37803781344155
 21
26.877314137148459
  0
LINE
  8
_e-0_
  6
CONTINUOUS
 62
    7
 10
518.4869257457434
 20
26.161272704522048
 11
524.74872579659904
 21
28.44038153596
  0
LINE
  8
_e-0_
  6
CONTINUOUS
 62
    7
 10
515.36464894131063
 20
32.474101291900069
 11
523.08272059447256
 21
35.28324963958471
  0
LINE
  8
_e-0_
  6
CONTINUOUS
 62
    7
 10
517.29739423218813
 20
26.792496413342291
 11
525.25421702350297
 21
29.688543068711624
  0
LINE
  8
_e-0_
  6
CONTINUOUS
 62
    7
 10
516.45194043433684
 20
27.548954168952946
 11
519.28725290413535
 21
28.580923512803337
  0
LINE
  8
_e-0_
  6
CONTINUOUS
 62
    7
 10
515.83991639247074
 20
28.390373407534298
 11
518.31621721839655
 21
29.291673199260117
  0
LINE
  8
_e-0_
  6
CONTINUOUS
 62
    7
 10
515.42199651281862
 20
29.302440783508814
 11
517.81193411735421
 21
30.172306933313166
  0
LINE
  8
_e-0_
  6
CONTINUOUS
 62
    7
 10
515.18880548991819
 20
30.28174396475083
 11
517.67351591784051
 21
31.186104601285364
  0
LINE
  8
_e-0_
  6
CONTINUOUS
 62
    7
 10
515.1539930092822
 20
31.333251030494238
 11
518.03509833909629
 21
32.381887612332207
  0
LINE
  8
_e-0_
  6
CONTINUOUS
 62
    7
 10
521.23299701957375
 20
33.545827544225176
 11
523.97741681315244
 21
34.544714659418787
  0
LINE
  8
_e-0_
  6
CONTINUOUS
 62
    7
 10
522.27861972748087
 20
32.862225313700264
 11
524.62664461916767
 21
33.716836483590327
  0
LINE
  8
_e-0_
  6
CONTINUOUS
 62
    7
 10
522.8242418146184
 20
31.996637740100595
 11
525.07749388291858
 21
32.81675442326059
  0
LINE
  8
_e-0_
  6
CONTINUOUS
 62
    7
 10
523.0039990002275
 20
30.99788623258189
 11
525.34361428991792
 21
31.849436557663239
  0
LINE
  8
_e-0_
  6
CONTINUOUS
 62
    7
 10
522.71700360113993
 20
29.829250677466802
 11
525.41563053470304
 21
30.811470554672723
  0
LINE
  8
ADD_LINE
  6
DOT
 62
    9
 10
466.75030184712551
 20
22.509653181544081
 11
466.75030184712551
 21
42.509653181544052
  0
LINE
  8
ADD_LINE
  6
DOT
 62
    9
 10
496.08296619091424
 20
42.509653181544052
 11
496.08296619091424
 21
22.509653181544081
  0
LINE
  8
ADD_LINE
  6
DOT
 62
    9
 10
525.41563053470304
 20
22.509653181544081
 11
525.41563053470304
 21
42.509653181544052
  0
LINE
  8
ADD_LINE
  6
DOT
 62
    9
 10
442.83803051608009
 20
42.509653181544052
 11
442.83803051608009
 21
22.509653181544081
  0
LINE
  8
ADD_LINE
  6
DOT
 62
    9
 10
540.83803051608015
 20
42.509653181544052
 11
540.83803051608015
 21
22.509653181544081
  0
TEXT
  8
_e-0_
 62
    7
 10
527.40976703108367
 20
34.622147296443131
 40
7
 41
0.5714285714285713
 50
0
  1
ワンド
  0
TEXT
  8
_e-0_
 62
    7
 10
528.77893251906095
 20
27.913236405354041
 40
6
 41
0.6666666666666666
 50
0
  1
株式
  0
TEXT
  8
_e-0_
 62
    7
 10
528.64201597026328
 20
22.299657904646778
 40
6
 41
0.6666666666666666
 50
0
  1
会社
  0
TEXT
  8
_2-0_
 62
    7
 10
332.04721030042918
 20
26.768240343347656
 40
9
 41
0.6666666666666666
 50
0
  1
ＫＭ－６６ＧＣＮ
  0
TEXT
  8
_2-0_
 62
    7
 10
184.18454935622318
 20
26.130901287553626
 40
9
 41
0.8
 50
0
  1
混合水栓
  0
TEXT
  8
_2-0_
 62
    7
 10
607.43803051608006
 20
27.009653181544081
 40
7
 41
0.5714285714285713
 50
0
  1
２０２３．０５．０１
  0
TEXT
  8
_2-0_
 62
    7
 10
715.23803051608012
 20
27.509653181544081
 40
6
 41
0.7333333333333333
 50
0
  1
Ｙ．Ｔ
  0
ENDSEC
  0
EOF
