  0
SECTION
  2
HEADER
  9
$ACADVER
  1
AC1009
  9
$INSBASE
 10
0
 20
0
 30
0
  9
$EXTMIN
 10
0
 20
0
  9
$EXTMAX
 10
2520
 20
1782
  9
$LIMMIN
 10
0
 20
0
  9
$LIMMAX
 10
2520
 20
1782
  9
$LTSCALE
 40
6
  0
ENDSEC
  0
SECTION
  2
TABLES
  0
TABLE
  2
LTYPE
 70
     9
  0
LTYPE
  2
CONTINUOUS
 70
    64
  3
実線
 72
    65
 73
     0
 40
0.0
  0
LTYPE
  2
DASHED1
 70
    64
  3
--  --  --  --  --  --  --  --  
 72
    65
 73
     2
 40
2.5
 49
1.25
 49
-1.25
  0
LTYPE
  2
DASHED2
 70
    64
  3
----    ----    ----    ----    
 72
    65
 73
     2
 40
5.0
 49
2.5
 49
-2.5
  0
LTYPE
  2
DASHED3
 70
    64
  3
------  ------  ------  ------  
 72
    65
 73
     2
 40
5.0
 49
3.75
 49
-1.25
  0
LTYPE
  2
CENTER1
 70
    64
  3
----- - ----- - ----- - ----- - 
 72
    65
 73
     4
 40
10.0
 49
6.25
 49
-1.25
 49
1.25
 49
-1.25
  0
LTYPE
  2
CENTER2
 70
    64
  3
----------  --  ----------  --  
 72
    65
 73
     4
 40
20.0
 49
12.5
 49
-2.5
 49
2.5
 49
-2.5
  0
LTYPE
  2
PHANTOM1
 70
    64
  3
--- - - --- - - --- - - --- - - 
 72
    65
 73
     6
 40
10.0
 49
3.25
 49
-1.25
 49
1.25
 49
-1.25
 49
1.25
 49
-1.25
  0
LTYPE
  2
PHANTOM2
 70
    64
  3
--------  -  -  --------  -  -  
 72
    65
 73
     6
 40
20.0
 49
10.0
 49
-2.5
 49
1.25
 49
-2.5
 49
1.25
 49
-2.5
  0
LTYPE
  2
DOT
 70
    64
  3
-   -   -   -   -   -   -   -   
 72
    65
 73
     2
 40
2.5
 49
0.625
 49
-1.875
  0
LTYPE
  2
DUMMY
 70
    64
  3
ダミー
 72
    65
 73
     0
 40
0.0
  0
LTYPE
  2
RAND1
 70
    64
  3
ランダム線1
 72
    65
 73
     4
 40
10.0
 49
1.0
 49
-2.0
 49
3.0
 49
-4.0
  0
LTYPE
  2
RAND2
 70
    64
  3
ランダム線2
 72
    65
 73
     4
 40
14.0
 49
2.0
 49
-3.0
 49
4.0
 49
-5.0
  0
LTYPE
  2
RAND3
 70
    64
  3
ランダム線3
 72
    65
 73
     4
 40
18.0
 49
3.0
 49
-4.0
 49
5.0
 49
-6.0
  0
LTYPE
  2
RAND4
 70
    64
  3
ランダム線4
 72
    65
 73
     4
 40
22.0
 49
4.0
 49
-5.0
 49
6.0
 49
-7.0
  0
LTYPE
  2
RAND5
 70
    64
  3
ランダム線5
 72
    65
 73
     4
 40
26.0
 49
5.0
 49
-6.0
 49
7.0
 49
-8.0
  0
LTYPE
  2
LONG1
 70
    64
  3
----------  --  ----------  --  
 72
    65
 73
     4
 40
40.0
 49
32.5
 49
-2.5
 49
2.5
 49
-2.5
  0
LTYPE
  2
LONG2
 70
    64
  3
--------  -  -  --------  -  -  
 72
    65
 73
     6
 40
40.0
 49
30.0
 49
-2.5
 49
1.25
 49
-2.5
 49
1.25
 49
-2.5
  0
LTYPE
  2
LONG3
 70
    64
  3
+++++++++++++++..+++++++++++++++
 72
    65
 73
     2
 40
40.0
 49
37.5
 49
-2.5
  0
LTYPE
  2
LONG4
 70
    64
  3
+++++++++++++++..+++++++++++++++
 72
    65
 73
     2
 40
80.0
 49
75.0
 49
-5.0
  0
LTYPE
  2
LONG5
 70
    64
  3
----------  --  ----------  --  
 72
    65
 73
     4
 40
60.0
 49
37.5
 49
-7.5
 49
7.5
 49
-7.5
  0
LTYPE
  2
dashed
 70
   64
  3
-------   -------------   ------
 72
   65
 73
    2
 40
7.5
 49
6
 49
-1.5
  0
LTYPE
  2
dashed_spaced
 70
   64
  3
----        --------        ----
 72
   65
 73
    2
 40
12
 49
6
 49
-6
  0
LTYPE
  2
long_dashed_dotted
 70
   64
  3
------------- --- --------------
 72
   65
 73
    4
 40
15.25
 49
12
 49
-1.5
 49
0.25
 49
-1.5
  0
LTYPE
  2
long_dashed_double-dotted
 70
   64
  3
----------- --- --- ------------
 72
   65
 73
    6
 40
17
 49
12
 49
-1.5
 49
0.25
 49
-1.5
 49
0.25
 49
-1.5
  0
LTYPE
  2
long_dashed_triplicate-dotted
 70
   64
  3
--------- --- --- --- ----------
 72
   65
 73
    8
 40
18.75
 49
12
 49
-1.5
 49
0.25
 49
-1.5
 49
0.25
 49
-1.5
 49
0.25
 49
-1.5
  0
LTYPE
  2
dotted
 70
   64
  3
   -       -       -       -    
 72
   65
 73
    2
 40
1.75
 49
0.25
 49
-1.5
  0
LTYPE
  2
chain
 70
   64
  3
-------------- -- --------------
 72
   65
 73
    4
 40
18.5
 49
12
 49
-1.5
 49
3.5
 49
-1.5
  0
LTYPE
  2
chain_double_dash
 70
   64
  3
------------ -- -- -------------
 72
   65
 73
    6
 40
23.5
 49
12
 49
-1.5
 49
3.5
 49
-1.5
 49
3.5
 49
-1.5
  0
LTYPE
  2
dashed_dotted
 70
   64
  3
-----------     -     ----------
 72
   65
 73
    4
 40
9.25
 49
6
 49
-1.5
 49
0.25
 49
-1.5
  0
LTYPE
  2
double-dashed_dotted
 70
   64
  3
------   -----------   -   -----
 72
   65
 73
    6
 40
16.75
 49
6
 49
-1.5
 49
6
 49
-1.5
 49
0.25
 49
-1.5
  0
LTYPE
  2
dashed_double-dotted
 70
   64
  3
---------    -    -    ---------
 72
   65
 73
    6
 40
11
 49
6
 49
-1.5
 49
0.25
 49
-1.5
 49
0.25
 49
-1.5
  0
LTYPE
  2
double-dashed_double-dotted
 70
   64
  3
-----   ---------   -   -   ----
 72
   65
 73
    8
 40
18.5
 49
6
 49
-1.5
 49
6
 49
-1.5
 49
0.25
 49
-1.5
 49
0.25
 49
-1.5
  0
LTYPE
  2
dashed_triplicate-dotted
 70
   64
  3
-------    -    -    -    ------
 72
   65
 73
    8
 40
12.75
 49
6
 49
-1.5
 49
0.25
 49
-1.5
 49
0.25
 49
-1.5
 49
0.25
 49
-1.5
  0
LTYPE
  2
double-dashed_triplicate-dotted
 70
   64
  3
-----  ---------  -  -  -  -----
 72
   65
 73
   10
 40
20.25
 49
6
 49
-1.5
 49
6
 49
-1.5
 49
0.25
 49
-1.5
 49
0.25
 49
-1.5
 49
0.25
 49
-1.5
  0
LTYPE
  2
undefined
 70
   64
  3
--------------------------------
 72
   65
 73
    0
 40
0
  0
LTYPE
  2
_
 70
   64
  3
                                
 72
   65
 73
    0
 40
0
  0
LTYPE
  2
__18
 70
   64
  3
                                
 72
   65
 73
    0
 40
0
  0
LTYPE
  2
__19
 70
   64
  3
                                
 72
   65
 73
    0
 40
0
  0
LTYPE
  2
__20
 70
   64
  3
                                
 72
   65
 73
    0
 40
0
  0
LTYPE
  2
__21
 70
   64
  3
                                
 72
   65
 73
    0
 40
0
  0
LTYPE
  2
__22
 70
   64
  3
                                
 72
   65
 73
    0
 40
0
  0
LTYPE
  2
__23
 70
   64
  3
                                
 72
   65
 73
    0
 40
0
  0
LTYPE
  2
__24
 70
   64
  3
                                
 72
   65
 73
    0
 40
0
  0
LTYPE
  2
__25
 70
   64
  3
                                
 72
   65
 73
    0
 40
0
  0
LTYPE
  2
__26
 70
   64
  3
                                
 72
   65
 73
    0
 40
0
  0
LTYPE
  2
__27
 70
   64
  3
                                
 72
   65
 73
    0
 40
0
  0
LTYPE
  2
__28
 70
   64
  3
                                
 72
   65
 73
    0
 40
0
  0
LTYPE
  2
__29
 70
   64
  3
                                
 72
   65
 73
    0
 40
0
  0
LTYPE
  2
__30
 70
   64
  3
                                
 72
   65
 73
    0
 40
0
  0
LTYPE
  2
__31
 70
   64
  3
                                
 72
   65
 73
    0
 40
0
  0
LTYPE
  2
__32
 70
   64
  3
                                
 72
   65
 73
    0
 40
0
  0
ENDTAB
  0
TABLE
  2
STYLE
  5
3
100
AcDbSymbolTable
 70
     1
  0
STYLE
  5
10
100
AcDbSymbolTableRecord
100
AcDbTextStyleTableRecord
  2
STANDARD
 70
     0
 40
0.0
 41
1.0
 50
0.0
 71
     0
 42
0.2
  3
txt
  4
bigfont.shx
  0
STYLE
  5
26
100
AcDbSymbolTableRecord
100
AcDbTextStyleTableRecord
  2
TATEGAKI
 70
    68
 40
0.0
 41
1.0
 50
0.0
 71
     0
 42
1.0
  3
txt
  4
bigfont.shx
  0
ENDTAB
  0
TABLE
  2
LAYER
 70
   13
  0
LAYER
  2
_0-0_
 70
   64
 62
    7
  6
CONTINUOUS
  0
LAYER
  2
_0-2_
 70
   64
 62
    7
  6
CONTINUOUS
  0
LAYER
  2
_0-3_
 70
   64
 62
    7
  6
CONTINUOUS
  0
LAYER
  2
_1-2_
 70
   64
 62
    7
  6
CONTINUOUS
  0
LAYER
  2
_e-0_
 70
   64
 62
    7
  6
CONTINUOUS
  0
LAYER
  2
_f-0_
 70
   64
 62
    7
  6
CONTINUOUS
  0
LAYER
  2
_f-7_
 70
   64
 62
    7
  6
CONTINUOUS
  0
LAYER
  2
_f-8_
 70
   64
 62
    7
  6
CONTINUOUS
  0
LAYER
  2
_f-9_
 70
   64
 62
    7
  6
CONTINUOUS
  0
LAYER
  2
_f-d_固定文字
 70
   64
 62
    7
  6
CONTINUOUS
  0
LAYER
  2
_f-e_
 70
   64
 62
    7
  6
CONTINUOUS
  0
LAYER
  2
_f-f_図面枠
 70
   64
 62
    7
  6
CONTINUOUS
  0
LAYER
  2
ADD_LINE
 70
   64
 62
    7
  6
CONTINUOUS
  0
ENDTAB
  0
ENDSEC
  0
SECTION
  2
BLOCKS
  0
ENDSEC
  0
SECTION
  2
ENTITIES
  0
LINE
  8
ADD_LINE
  6
DOT
 62
    9
 10
89.991000000000042
 20
60
 11
89.991000000000042
 21
39
  0
LINE
  8
ADD_LINE
  6
DOT
 62
    9
 10
89.991000000000042
 20
39
 11
107.99100000000004
 21
39.000000387603506
  0
LINE
  8
ADD_LINE
  6
DOT
 62
    9
 10
107.99100000000004
 20
60
 11
107.99100000000004
 21
39.000000387603506
  0
LINE
  8
ADD_LINE
  6
DOT
 62
    9
 10
90.008999999999957
 20
39
 11
72.017999999999915
 21
39
  0
LINE
  8
ADD_LINE
  6
DOT
 62
    9
 10
44.991000000000042
 20
33
 11
2486.9909999999999
 21
33
  0
LINE
  8
ADD_LINE
  6
DOT
 62
    9
 10
2478
 20
60
 11
2478
 21
39.000001938017874
  0
LINE
  8
ADD_LINE
  6
DOT
 62
    9
 10
2460
 20
60
 11
2460
 21
39.000001938017874
  0
LINE
  8
ADD_LINE
  6
DOT
 62
    9
 10
2442
 20
60
 11
2442
 21
39.000001938017874
  0
LINE
  8
ADD_LINE
  6
DOT
 62
    9
 10
2424
 20
60
 11
2424
 21
39.000001938017874
  0
LINE
  8
ADD_LINE
  6
DOT
 62
    9
 10
2406
 20
60
 11
2406
 21
39.000001938017874
  0
LINE
  8
ADD_LINE
  6
DOT
 62
    9
 10
2388
 20
60
 11
2388
 21
39
  0
LINE
  8
ADD_LINE
  6
DOT
 62
    9
 10
44.991000000000042
 20
1725
 11
44.991000000000042
 21
33
  0
LINE
  8
ADD_LINE
  6
DOT
 62
    9
 10
72.017999999999915
 20
39
 11
72.017999999999915
 21
1716
  0
LINE
  8
ADD_LINE
  6
DOT
 62
    9
 10
2486.9909999999999
 20
1725
 11
44.991000000000042
 21
1725
  0
LINE
  8
ADD_LINE
  6
DOT
 62
    9
 10
2486.9909999999999
 20
33
 11
2486.9909999999999
 21
1725
  0
LINE
  8
_f-9_
  6
CONTINUOUS
 62
    7
 10
378
 20
72
 11
378
 21
132
  0
LINE
  8
ADD_LINE
  6
DOT
 62
    9
 10
102
 20
72
 11
102
 21
132
  0
LINE
  8
ADD_LINE
  6
DOT
 62
    9
 10
366
 20
72
 11
366
 21
132
  0
LINE
  8
_f-9_
  6
CONTINUOUS
 62
    7
 10
102
 20
72
 11
366
 21
72
  0
LINE
  8
_f-9_
  6
CONTINUOUS
 62
    7
 10
102
 20
132
 11
366
 21
132
  0
LINE
  8
_f-9_
  6
CONTINUOUS
 62
    7
 10
852
 20
72
 11
852
 21
132
  0
LINE
  8
_f-9_
  6
CONTINUOUS
 62
    7
 10
1326
 20
72
 11
1326
 21
132
  0
LINE
  8
_f-9_
  6
CONTINUOUS
 62
    7
 10
1332
 20
72
 11
1332
 21
132
  0
LINE
  8
_f-9_
  6
CONTINUOUS
 62
    7
 10
378
 20
72
 11
1326
 21
72
  0
LINE
  8
_f-9_
  6
CONTINUOUS
 62
    7
 10
378
 20
132
 11
1326
 21
132
  0
LINE
  8
_f-9_
  6
CONTINUOUS
 62
    7
 10
1626
 20
72
 11
1626
 21
132
  0
LINE
  8
_f-9_
  6
CONTINUOUS
 62
    7
 10
1632
 20
72
 11
1632
 21
132
  0
LINE
  8
_f-9_
  6
CONTINUOUS
 62
    7
 10
1332
 20
72
 11
1626
 21
72
  0
LINE
  8
_f-9_
  6
CONTINUOUS
 62
    7
 10
1332
 20
132
 11
1626
 21
132
  0
LINE
  8
_f-9_
  6
CONTINUOUS
 62
    7
 10
1812
 20
72
 11
1812
 21
132
  0
LINE
  8
_f-9_
  6
CONTINUOUS
 62
    7
 10
1992
 20
72
 11
1992
 21
132
  0
LINE
  8
_f-9_
  6
CONTINUOUS
 62
    7
 10
2220
 20
72
 11
2220
 21
132
  0
LINE
  8
_f-9_
  6
CONTINUOUS
 62
    7
 10
1632
 20
72
 11
2466
 21
72
  0
LINE
  8
_f-9_
  6
CONTINUOUS
 62
    7
 10
2466
 20
72
 11
2466
 21
132
  0
LINE
  8
_f-9_
  6
CONTINUOUS
 62
    7
 10
1632
 20
132
 11
2466
 21
132
  0
LINE
  8
_f-f_図面枠
  6
CONTINUOUS
 62
  230
 10
2478
 20
1716
 11
2478
 21
60
  0
LINE
  8
_f-f_図面枠
  6
CONTINUOUS
 62
  230
 10
90
 20
1716
 11
2478
 21
1716
  0
LINE
  8
_f-f_図面枠
  6
CONTINUOUS
 62
  230
 10
90
 20
60
 11
2478
 21
60
  0
LINE
  8
_f-f_図面枠
  6
CONTINUOUS
 62
  230
 10
90
 20
60
 11
90
 21
1716
  0
LINE
  8
ADD_LINE
  6
DOT
 62
    9
 10
378
 20
120
 11
1326
 21
120
  0
LINE
  8
ADD_LINE
  6
DOT
 62
    9
 10
1632
 20
120
 11
2466
 21
120
  0
LINE
  8
ADD_LINE
  6
DOT
 62
    9
 10
1644
 20
72
 11
1644
 21
132
  0
LINE
  8
ADD_LINE
  6
DOT
 62
    9
 10
1824
 20
72
 11
1824
 21
132
  0
LINE
  8
ADD_LINE
  6
DOT
 62
    9
 10
2004
 20
72
 11
2004
 21
132
  0
LINE
  8
ADD_LINE
  6
DOT
 62
    9
 10
2232
 20
72
 11
2232
 21
132
  0
LINE
  8
ADD_LINE
  6
DOT
 62
    9
 10
867
 20
72
 11
867
 21
132
  0
LINE
  8
ADD_LINE
  6
DOT
 62
    9
 10
393
 20
72
 11
393
 21
132
  0
LINE
  8
ADD_LINE
  6
DOT
 62
    9
 10
2196
 20
72
 11
2196
 21
132
  0
LINE
  8
ADD_LINE
  6
DOT
 62
    9
 10
1632
 20
96
 11
2466
 21
96
  0
TEXT
  8
_f-8_
 62
    7
 10
1824
 20
112.5
 40
15
 41
0.64
 50
0
  1
ＤＡＴＡ
  0
TEXT
  8
_f-8_
 62
    7
 10
2004
 20
112.5
 40
15
 41
0.64
 50
0
  1
ＣＨＥＣＫＥＤ
  0
TEXT
  8
_f-8_
 62
    7
 10
2232
 20
112.5
 40
15
 41
0.64
 50
0
  1
ＳＨＥＥＴ　ＮＯ．
  0
TEXT
  8
_f-8_
 62
    7
 10
2125.1999999999998
 20
112.5
 40
15
 41
0.64
 50
0
  1
ＤＲＡＷＩＮＧ
  0
LINE
  8
ADD_LINE
  6
DOT
 62
    9
 10
81
 20
39
 11
81
 21
1716
  0
LINE
  8
_f-9_
  6
CONTINUOUS
 62
    7
 10
102
 20
102
 11
366
 21
102
  0
LINE
  8
ADD_LINE
  6
DOT
 62
    9
 10
1746
 20
72
 11
1746
 21
132
  0
LINE
  8
ADD_LINE
  6
DOT
 62
    9
 10
1902
 20
72
 11
1902
 21
132
  0
LINE
  8
ADD_LINE
  6
DOT
 62
    9
 10
2100
 20
132
 11
2100
 21
72
  0
LINE
  8
ADD_LINE
  6
DOT
 62
    9
 10
378
 20
96
 11
1326
 21
96
  0
LINE
  8
ADD_LINE
  6
DOT
 62
    9
 10
615
 20
132
 11
615
 21
72
  0
TEXT
  8
_f-8_
 62
    7
 10
1644.2243904512527
 20
112.4816237969099
 40
15
 41
0.64
 50
0
  1
ＳＣＡＬＥ
  0
TEXT
  8
_f-8_
 62
    7
 10
867
 20
112.5
 40
15
 41
0.8
 50
0
  1
図面名称
  0
TEXT
  8
_f-8_
 62
    7
 10
393
 20
112.5
 40
15
 41
0.8
 50
0
  1
名　称
  0
LINE
  8
ADD_LINE
  6
DOT
 62
    9
 10
1089
 20
72
 11
1089
 21
132
  0
LINE
  8
_f-8_
  6
CONTINUOUS
 62
    7
 10
1299
 20
1723.1999999999998
 11
1299.69
 21
1724.4
  0
LINE
  8
_f-8_
  6
CONTINUOUS
 62
    7
 10
1295.1839999999999
 20
1726.1999999999998
 11
1299
 21
1719.6000000000001
  0
LINE
  8
_f-8_
  6
CONTINUOUS
 62
    7
 10
1299
 20
1719.6000000000001
 11
1302.8099999999999
 21
1726.1999999999998
  0
LINE
  8
_f-8_
  6
CONTINUOUS
 62
    7
 10
1299
 20
1716
 11
1305.9239999999999
 21
1728
  0
LINE
  8
_f-8_
  6
CONTINUOUS
 62
    7
 10
1292.0699999999999
 20
1728
 11
1299
 21
1716
  0
LINE
  8
_f-8_
  6
CONTINUOUS
 62
    7
 10
1305.9239999999999
 20
1728
 11
1292.0699999999999
 21
1728
  0
LINE
  8
_f-8_
  6
CONTINUOUS
 62
    7
 10
1298.304
 20
1724.4
 11
1299
 21
1723.1999999999998
  0
LINE
  8
_f-8_
  6
CONTINUOUS
 62
    7
 10
1299.69
 20
1724.4
 11
1298.304
 21
1724.4
  0
LINE
  8
_f-8_
  6
CONTINUOUS
 62
    7
 10
1302.8099999999999
 20
1726.1999999999998
 11
1295.1839999999999
 21
1726.1999999999998
  0
LINE
  8
_f-7_
  6
CONTINUOUS
 62
    7
 10
72
 20
877.60769515458673
 11
72
 21
898.39230484541326
  0
LINE
  8
_f-7_
  6
CONTINUOUS
 62
    7
 10
72
 20
898.39230484541326
 11
90
 21
888
  0
LINE
  8
_f-7_
  6
CONTINUOUS
 62
    7
 10
90
 20
888
 11
72
 21
877.60769515458673
  0
LINE
  8
_f-7_
  6
CONTINUOUS
 62
    7
 10
75
 20
882.80384757729325
 11
75
 21
893.19615242270674
  0
LINE
  8
_f-7_
  6
CONTINUOUS
 62
    7
 10
75
 20
893.19615242270674
 11
84
 21
888
  0
LINE
  8
_f-7_
  6
CONTINUOUS
 62
    7
 10
84
 20
888
 11
75
 21
882.80384757729325
  0
LINE
  8
_f-7_
  6
CONTINUOUS
 62
    7
 10
77.399999999999863
 20
886.96076951545865
 11
77.399999999999863
 21
889.03923048454134
  0
LINE
  8
_f-7_
  6
CONTINUOUS
 62
    7
 10
77.399999999999863
 20
889.03923048454134
 11
79.200000000000272
 21
888
  0
LINE
  8
_f-7_
  6
CONTINUOUS
 62
    7
 10
79.200000000000272
 20
888
 11
77.399999999999863
 21
886.96076951545865
  0
LINE
  8
_f-7_
  6
CONTINUOUS
 62
    7
 10
2496
 20
877.60769515458673
 11
2496
 21
898.39230484541326
  0
LINE
  8
_f-7_
  6
CONTINUOUS
 62
    7
 10
2496
 20
898.39230484541326
 11
2478
 21
888
  0
LINE
  8
_f-7_
  6
CONTINUOUS
 62
    7
 10
2478
 20
888
 11
2496
 21
877.60769515458673
  0
LINE
  8
_f-7_
  6
CONTINUOUS
 62
    7
 10
2493
 20
882.80384757729325
 11
2493
 21
893.19615242270674
  0
LINE
  8
_f-7_
  6
CONTINUOUS
 62
    7
 10
2493
 20
893.19615242270674
 11
2484
 21
888
  0
LINE
  8
_f-7_
  6
CONTINUOUS
 62
    7
 10
2484
 20
888
 11
2493
 21
882.80384757729325
  0
LINE
  8
_f-7_
  6
CONTINUOUS
 62
    7
 10
2490.6000000000003
 20
886.96076951545865
 11
2490.6000000000003
 21
889.03923048454134
  0
LINE
  8
_f-7_
  6
CONTINUOUS
 62
    7
 10
2490.6000000000003
 20
889.03923048454134
 11
2488.7999999999997
 21
888
  0
LINE
  8
_f-7_
  6
CONTINUOUS
 62
    7
 10
2488.7999999999997
 20
888
 11
2490.6000000000003
 21
886.96076951545865
  0
LINE
  8
ADD_LINE
  6
DOT
 62
    9
 10
645
 20
132
 11
645
 21
72
  0
LINE
  8
ADD_LINE
  6
DOT
 62
    9
 10
1119
 20
72
 11
1119
 21
132
  0
TEXT
  8
_f-d_固定文字
 62
    7
 10
90.008999999999957
 20
39
 40
12
 41
1
 50
0
  1
%f
  0
LINE
  8
ADD_LINE
  6
DOT
 62
    9
 10
2388
 20
39
 11
2478
 21
39.000001938017874
  0
TEXT
  8
_f-d_固定文字
 62
    7
 10
2393.3999999999996
 20
39.000001938017874
 40
12
 41
1
 50
0
  1
%y
  0
TEXT
  8
_f-d_固定文字
 62
    7
 10
2412
 20
39.000001938017874
 40
12
 41
1
 50
0
  1
．
  0
TEXT
  8
_f-d_固定文字
 62
    7
 10
2429.3999999999996
 20
39.000001938017874
 40
12
 41
1
 50
0
  1
%m
  0
TEXT
  8
_f-d_固定文字
 62
    7
 10
2448
 20
39.000001938017874
 40
12
 41
1
 50
0
  1
．
  0
TEXT
  8
_f-d_固定文字
 62
    7
 10
2465.3999999999996
 20
39.000001938017874
 40
12
 41
1
 50
0
  1
%d
  0
LINE
  8
_0-0_
  6
CONTINUOUS
 62
    7
 10
1676.6692913385827
 20
469.25253093363323
 11
1688.6692913385827
 21
469.25253093363323
  0
LINE
  8
_0-0_
  6
CONTINUOUS
 62
    7
 10
1688.6692913385827
 20
469.25253093363323
 11
1688.6692913385827
 21
609.25253093363335
  0
LINE
  8
_0-0_
  6
CONTINUOUS
 62
    7
 10
1688.6692913385827
 20
609.25253093363335
 11
1676.6692913385827
 21
609.25253093363335
  0
LINE
  8
_0-0_
  6
CONTINUOUS
 62
    7
 10
1676.6692913385827
 20
609.25253093363335
 11
1676.6692913385827
 21
469.25253093363323
  0
LINE
  8
_0-0_
  6
CONTINUOUS
 62
    7
 10
1688.6692913385827
 20
469.25253093363323
 11
2168.6692913385827
 21
469.25253093363323
  0
LINE
  8
_0-0_
  6
CONTINUOUS
 62
    7
 10
2168.6692913385827
 20
469.25253093363323
 11
2168.6692913385827
 21
519.25253093363323
  0
LINE
  8
_0-0_
  6
CONTINUOUS
 62
    7
 10
2168.6692913385827
 20
519.25253093363323
 11
1688.6692913385827
 21
519.25253093363323
  0
LINE
  8
_0-0_
  6
CONTINUOUS
 62
    7
 10
1688.6692913385827
 20
519.25253093363323
 11
1688.6692913385827
 21
469.25253093363323
  0
LINE
  8
_0-0_
  6
CONTINUOUS
 62
    7
 10
494.2317210348707
 20
609.25253093363335
 11
494.2317210348707
 21
469.25253093363346
  0
LINE
  8
ADD_LINE
  6
DOT
 62
    9
 10
2478
 20
1716
 11
2469
 21
1716
  0
LINE
  8
ADD_LINE
  6
DOT
 62
    9
 10
2469
 20
1716
 11
2469
 21
1707
  0
LINE
  8
ADD_LINE
  6
DOT
 62
    9
 10
2469
 20
1707
 11
2478
 21
1707
  0
LINE
  8
ADD_LINE
  6
DOT
 62
    9
 10
2478
 20
1707
 11
2478
 21
1716
  0
LINE
  8
ADD_LINE
  6
DOT
 62
    9
 10
2469
 20
1716
 11
2469
 21
1707
  0
LINE
  8
_1-2_
  6
CONTINUOUS
 62
    7
 10
2469
 20
1671
 11
1869
 21
1671
  0
LINE
  8
_1-2_
  6
CONTINUOUS
 62
    7
 10
2469
 20
1674
 11
1869
 21
1674
  0
LINE
  8
_1-2_
  6
CONTINUOUS
 62
    7
 10
2469
 20
1638.5999999999999
 11
1869
 21
1638.5999999999999
  0
LINE
  8
_1-2_
  6
CONTINUOUS
 62
    3
 10
2469
 20
1707
 11
1869
 21
1707
  0
LINE
  8
ADD_LINE
  6
DOT
 62
    9
 10
1869
 20
1690.5
 11
2469
 21
1690.5
  0
LINE
  8
ADD_LINE
  6
DOT
 62
    9
 10
1869
 20
1654.7999999999997
 11
2469
 21
1654.7999999999997
  0
LINE
  8
ADD_LINE
  6
DOT
 62
    9
 10
1869
 20
1622.3999999999996
 11
2469
 21
1622.3999999999996
  0
LINE
  8
ADD_LINE
  6
DOT
 62
    9
 10
2194.5003000000006
 20
1674
 11
2194.5003000000006
 21
1707
  0
LINE
  8
_1-2_
  6
CONTINUOUS
 62
    3
 10
1869
 20
1707
 11
1869
 21
1606.1999999999995
  0
LINE
  8
_1-2_
  6
CONTINUOUS
 62
    3
 10
2469
 20
1606.1999999999995
 11
2469
 21
1707
  0
LINE
  8
_1-2_
  6
CONTINUOUS
 62
    7
 10
1995
 20
1671
 11
1995
 21
1606.1999999999995
  0
LINE
  8
ADD_LINE
  6
DOT
 62
    9
 10
1932
 20
1671
 11
1932
 21
1606.1999999999995
  0
LINE
  8
ADD_LINE
  6
DOT
 62
    9
 10
2007
 20
1707
 11
2007
 21
1606.1999999999995
  0
LINE
  8
_1-2_
  6
CONTINUOUS
 62
    3
 10
2469
 20
1606.1999999999995
 11
1869
 21
1606.1999999999995
  0
TEXT
  8
_1-2_
 62
    7
 10
2007
 20
1644.2999999999997
 40
21
 41
0.7714285714285714
 50
0
  1
低圧メラミン化粧パーティクルボード　１５ｔ
  0
TEXT
  8
_1-2_
 62
    7
 10
2007
 20
1680
 40
21
 41
0.857142857142857
 50
0
  1
仕　　　　様
  0
TEXT
  8
_1-2_
 62
    7
 10
2007
 20
1611.8999999999996
 40
21
 41
0.7714285714285714
 50
0
  1
片面化粧パーティクルボード　１２ｔ
  0
TEXT
  8
_1-2_
 62
    7
 10
1895.9100000000003
 20
1611.8999999999996
 40
21
 41
0.857142857142857
 50
0
  1
前　　板
  0
TEXT
  8
_1-2_
 62
    7
 10
1895.9100000000003
 20
1644.2999999999997
 40
21
 41
0.857142857142857
 50
0
  1
側　　板
  0
LINE
  8
_1-2_
  6
CONTINUOUS
 62
    4
 10
1091.731721034871
 20
227.41935732837836
 11
1091.731721034871
 21
269.41935732837839
  0
LINE
  8
_1-2_
  6
CONTINUOUS
 62
    4
 10
1091.731721034871
 20
269.41935732837839
 11
941.73172103487104
 21
269.41935732837839
  0
LINE
  8
_1-2_
  6
CONTINUOUS
 62
    4
 10
941.73172103487104
 20
227.41935732837836
 11
1091.731721034871
 21
227.41935732837836
  0
LINE
  8
_1-2_
  6
CONTINUOUS
 62
    4
 10
941.73172103487104
 20
269.41935732837839
 11
941.73172103487104
 21
227.41935732837836
  0
LINE
  8
ADD_LINE
  6
DOT
 62
    9
 10
1091.7317210348705
 20
248.41935732837836
 11
941.7317210348707
 21
248.41935732837836
  0
LINE
  8
ADD_LINE
  6
DOT
 62
    9
 10
1016.7317210348707
 20
227.41935732837836
 11
1016.7317210348707
 21
269.41935732837839
  0
TEXT
  8
_1-2_
 62
    7
 10
988.53172103487099
 20
237.91935732837836
 40
21
 41
0.857142857142857
 50
0
  1
立面図
  0
LINE
  8
_1-2_
  6
CONTINUOUS
 62
    4
 10
1997.6692913385827
 20
269.41935732837839
 11
1847.6692913385832
 21
269.41935732837839
  0
LINE
  8
_1-2_
  6
CONTINUOUS
 62
    4
 10
1997.6692913385827
 20
227.41935732837836
 11
1997.6692913385827
 21
269.41935732837839
  0
LINE
  8
_1-2_
  6
CONTINUOUS
 62
    4
 10
1847.6692913385832
 20
227.41935732837836
 11
1997.6692913385827
 21
227.41935732837836
  0
LINE
  8
_1-2_
  6
CONTINUOUS
 62
    4
 10
1847.6692913385832
 20
269.41935732837839
 11
1847.6692913385832
 21
227.41935732837836
  0
LINE
  8
ADD_LINE
  6
DOT
 62
    9
 10
1997.6692913385827
 20
248.41935732837836
 11
1847.6692913385822
 21
248.41935732837836
  0
LINE
  8
ADD_LINE
  6
DOT
 62
    9
 10
1922.6692913385827
 20
227.41935732837836
 11
1922.6692913385827
 21
269.41935732837839
  0
TEXT
  8
_1-2_
 62
    7
 10
1894.4692913385829
 20
237.91935732837836
 40
21
 41
0.857142857142857
 50
0
  1
断面図
  0
LINE
  8
_0-0_
  6
CONTINUOUS
 62
    7
 10
1539.2317210348705
 20
1038.6245200283042
 11
494.2317210348707
 21
1038.6245200283042
  0
LINE
  8
_0-0_
  6
CONTINUOUS
 62
    7
 10
494.2317210348707
 20
1038.6245200283042
 11
494.2317210348707
 21
1026.6245200283042
  0
LINE
  8
_0-0_
  6
CONTINUOUS
 62
    7
 10
494.2317210348707
 20
1038.6245200283042
 11
509.2317210348707
 21
1038.6245200283042
  0
LINE
  8
_0-0_
  6
CONTINUOUS
 62
    7
 10
509.2317210348707
 20
1038.6245200283042
 11
509.2317210348707
 21
1518.6245200283042
  0
LINE
  8
_0-0_
  6
CONTINUOUS
 62
    7
 10
509.2317210348707
 20
1518.6245200283042
 11
494.2317210348707
 21
1518.6245200283042
  0
LINE
  8
_0-0_
  6
CONTINUOUS
 62
    7
 10
494.2317210348707
 20
1518.6245200283042
 11
494.2317210348707
 21
1038.6245200283042
  0
LINE
  8
_0-0_
  6
CONTINUOUS
 62
    7
 10
1524.2317210348708
 20
1503.6245200283042
 11
509.2317210348707
 21
1503.6245200283042
  0
LINE
  8
_0-0_
  6
CONTINUOUS
 62
    7
 10
509.2317210348707
 20
1503.6245200283042
 11
509.2317210348707
 21
1518.6245200283042
  0
LINE
  8
_0-2_
  6
CONTINUOUS
 62
    2
 10
509.2317210348707
 20
1503.6245200283042
 11
533.93172103487063
 21
1503.6245200283042
  0
LINE
  8
_0-2_
  6
CONTINUOUS
 62
    2
 10
533.93172103487063
 20
1503.6245200283042
 11
533.93172103487063
 21
1499.6245200283042
  0
LINE
  8
_0-2_
  6
CONTINUOUS
 62
    2
 10
533.93172103487063
 20
1499.6245200283042
 11
509.2317210348707
 21
1499.6245200283042
  0
LINE
  8
_0-2_
  6
CONTINUOUS
 62
    2
 10
509.2317210348707
 20
1499.6245200283042
 11
509.2317210348707
 21
1503.6245200283042
  0
LINE
  8
_0-2_
  6
CONTINUOUS
 62
    5
 10
509.8900904745281
 20
1474.1686759055885
 11
534.63882781605718
 21
1498.9174132471177
  0
LINE
  8
_0-2_
  6
CONTINUOUS
 62
    5
 10
509.8900904745281
 20
1474.1686759055885
 11
509.18298369334149
 21
1474.8757826867752
  0
LINE
  8
_0-2_
  6
CONTINUOUS
 62
    5
 10
534.63882781605718
 20
1498.9174132471177
 11
533.93172103487063
 21
1499.6245200283042
  0
LINE
  8
_0-2_
  6
CONTINUOUS
 62
    5
 10
509.18298369334161
 20
1494.6747725599984
 11
514.13273116164725
 21
1499.6245200283042
  0
LINE
  8
_0-2_
  6
CONTINUOUS
 62
    5
 10
533.93172103487063
 20
1499.6245200283042
 11
514.13273116164725
 21
1499.6245200283042
  0
LINE
  8
_0-2_
  6
CONTINUOUS
 62
    5
 10
509.18298369334149
 20
1474.8757826867752
 11
509.18298369334149
 21
1494.6747725599984
  0
LINE
  8
_0-2_
  6
CONTINUOUS
 62
    5
 10
534.6378176892806
 20
1039.3316268094906
 11
509.8890803477513
 21
1064.0803641510199
  0
LINE
  8
_0-2_
  6
CONTINUOUS
 62
    5
 10
534.6378176892806
 20
1039.3316268094906
 11
533.93071090809394
 21
1038.6245200283042
  0
LINE
  8
_0-2_
  6
CONTINUOUS
 62
    5
 10
509.8890803477513
 20
1064.0803641510199
 11
509.18197356656492
 21
1063.3732573698332
  0
LINE
  8
_0-2_
  6
CONTINUOUS
 62
    5
 10
514.13172103487056
 20
1038.6245200283042
 11
509.18197356656492
 21
1043.5742674966099
  0
LINE
  8
_0-2_
  6
CONTINUOUS
 62
    5
 10
509.18197356656492
 20
1063.3732573698332
 11
509.18197356656492
 21
1043.5742674966099
  0
LINE
  8
_0-2_
  6
CONTINUOUS
 62
    5
 10
533.93071090809394
 20
1038.6245200283042
 11
514.13172103487056
 21
1038.6245200283042
  0
LINE
  8
_0-2_
  6
CONTINUOUS
 62
    7
 10
514.13172103487067
 20
1038.6245200283042
 11
509.2317210348707
 21
1038.6245200283042
  0
LINE
  8
_1-2_
  6
CONTINUOUS
 62
    4
 10
1091.731721034871
 20
874.62452002830423
 11
941.73172103487104
 21
874.62452002830423
  0
LINE
  8
_1-2_
  6
CONTINUOUS
 62
    4
 10
941.73172103487104
 20
874.62452002830423
 11
941.73172103487104
 21
916.62452002830423
  0
LINE
  8
_1-2_
  6
CONTINUOUS
 62
    4
 10
941.73172103487104
 20
916.62452002830423
 11
1091.731721034871
 21
916.62452002830423
  0
LINE
  8
_1-2_
  6
CONTINUOUS
 62
    4
 10
1091.731721034871
 20
916.62452002830423
 11
1091.731721034871
 21
874.62452002830423
  0
TEXT
  8
_1-2_
 62
    7
 10
988.53172103487111
 20
885.12452002830423
 40
21
 41
0.857142857142857
 50
0
  1
平面図
  0
LINE
  8
ADD_LINE
  6
DOT
 62
    9
 10
941.73172103487138
 20
895.62452002830434
 11
1091.7317210348714
 21
895.62452002830434
  0
LINE
  8
ADD_LINE
  6
DOT
 62
    9
 10
1016.7317210348713
 20
874.62452002830434
 11
1016.7317210348713
 21
916.62452002830434
  0
LINE
  8
ADD_LINE
  6
DOT
 62
    9
 10
509.2317210348707
 20
1548.6245200283042
 11
1524.2317210348705
 21
1548.6245200283042
  0
LINE
  8
ADD_LINE
  6
DOT
 62
    9
 10
464.23172103487081
 20
1518.6245200283042
 11
464.23172103487081
 21
1038.6245200283042
  0
LINE
  8
ADD_LINE
  6
DOT
 62
    9
 10
1539.2317210348705
 20
639.25253093363335
 11
494.23172103487081
 21
639.25253093363335
  0
LINE
  8
ADD_LINE
  6
DOT
 62
    9
 10
464.23172103487081
 20
609.25253093363335
 11
464.23172103487081
 21
469.25253093363346
  0
LINE
  8
ADD_LINE
  6
DOT
 62
    9
 10
269.57510729613733
 20
699.25253093363335
 11
409.15236051502148
 21
699.25253093363335
  0
LINE
  8
ADD_LINE
  6
DOT
 62
    9
 10
269.57510729613733
 20
759.25253093363335
 11
409.15236051502148
 21
759.25253093363335
  0
LINE
  8
ADD_LINE
  6
DOT
 62
    9
 10
269.57510729613733
 20
1608.6245200283042
 11
409.15236051502148
 21
1608.6245200283042
  0
LINE
  8
ADD_LINE
  6
DOT
 62
    9
 10
404.23172103487081
 20
372.84334763948493
 11
404.23172103487081
 21
250.47424892703858
  0
LINE
  8
ADD_LINE
  6
DOT
 62
    9
 10
344.23172103487081
 20
372.84334763948493
 11
344.23172103487081
 21
250.47424892703858
  0
POINT
  8
_0-3_
 62
    3
 10
494.2317210348707
 20
1608.6245200283042
  0
LINE
  8
_0-3_
  6
CONTINUOUS
 62
    4
 10
494.2317210348707
 20
1614.6245200283042
 11
494.2317210348707
 21
1548.6245200283042
  0
POINT
  8
_0-3_
 62
    3
 10
494.2317210348707
 20
759.25253093363335
  0
LINE
  8
_0-3_
  6
CONTINUOUS
 62
    4
 10
494.2317210348707
 20
765.25253093363335
 11
494.2317210348707
 21
639.25253093363335
  0
POINT
  8
_0-3_
 62
    3
 10
404.23172103487081
 20
469.25253093363346
  0
POINT
  8
_0-3_
 62
    3
 10
404.23172103487081
 20
519.25253093363335
  0
LINE
  8
_0-3_
  6
CONTINUOUS
 62
    4
 10
398.23172103487081
 20
469.25253093363346
 11
464.23172103487081
 21
469.25253093363346
  0
LINE
  8
_0-3_
  6
CONTINUOUS
 62
    4
 10
398.23172103487081
 20
519.25253093363335
 11
464.23172103487081
 21
519.25253093363335
  0
LINE
  8
_0-3_
  6
CONTINUOUS
 62
    4
 10
404.23172103487081
 20
469.25253093363346
 11
404.23172103487081
 21
519.25253093363335
  0
TEXT
  8
_0-3_
 62
    7
 10
401.23172103487081
 20
481.02253093363344
 40
21
 41
0.6285714285714286
 50
90
  1
５０
  0
POINT
  8
_0-3_
 62
    3
 10
344.23172103487081
 20
469.25253093363346
  0
POINT
  8
_0-3_
 62
    3
 10
344.23172103487081
 20
609.25253093363335
  0
LINE
  8
_0-3_
  6
CONTINUOUS
 62
    4
 10
338.23172103487081
 20
469.25253093363346
 11
464.23172103487081
 21
469.25253093363346
  0
LINE
  8
_0-3_
  6
CONTINUOUS
 62
    4
 10
338.23172103487081
 20
609.25253093363335
 11
464.23172103487081
 21
609.25253093363335
  0
LINE
  8
_0-3_
  6
CONTINUOUS
 62
    4
 10
344.23172103487081
 20
469.25253093363346
 11
344.23172103487081
 21
609.25253093363335
  0
TEXT
  8
_0-3_
 62
    7
 10
341.23172103487081
 20
519.39253093363345
 40
21
 41
0.6285714285714286
 50
90
  1
１４０
  0
POINT
  8
_0-3_
 62
    3
 10
1676.6692913385827
 20
699.25253093363335
  0
POINT
  8
_0-3_
 62
    3
 10
1688.6692913385827
 20
699.25253093363335
  0
LINE
  8
_0-3_
  6
CONTINUOUS
 62
    4
 10
1676.6692913385827
 20
705.25253093363335
 11
1676.6692913385827
 21
639.25253093363335
  0
LINE
  8
_0-3_
  6
CONTINUOUS
 62
    4
 10
1688.6692913385827
 20
705.25253093363335
 11
1688.6692913385827
 21
639.25253093363335
  0
POINT
  8
_0-3_
 62
    3
 10
1676.6692913385827
 20
759.25253093363335
  0
POINT
  8
_0-3_
 62
    3
 10
2168.6692913385827
 20
759.25253093363335
  0
LINE
  8
_0-3_
  6
CONTINUOUS
 62
    4
 10
1676.6692913385827
 20
765.25253093363335
 11
1676.6692913385827
 21
639.25253093363335
  0
LINE
  8
_0-3_
  6
CONTINUOUS
 62
    4
 10
2168.6692913385827
 20
765.25253093363335
 11
2168.6692913385827
 21
639.25253093363335
  0
LINE
  8
_0-3_
  6
CONTINUOUS
 62
    4
 10
1676.6692913385827
 20
759.25253093363335
 11
2168.6692913385827
 21
759.25253093363335
  0
TEXT
  8
_0-3_
 62
    7
 10
1902.8092913385826
 20
762.25253093363335
 40
21
 41
0.6285714285714286
 50
0
  1
４９２
  0
LINE
  8
_0-3_
  6
CONTINUOUS
 62
    4
 10
1676.6692913385827
 20
699.25253093363335
 11
1688.6692913385827
 21
699.25253093363335
  0
TEXT
  8
_0-3_
 62
    7
 10
1693.97481359023
 20
701.94417377369268
 40
21
 41
0.6285714285714286
 50
0
  1
１２
  0
LINE
  8
_0-3_
  6
CONTINUOUS
 62
    4
 10
1688.6692913385827
 20
699.25253093363335
 11
1721.0628350126175
 21
699.25253093363335
  0
LINE
  8
_e-0_
  6
CONTINUOUS
 62
    7
 10
1346.2715581614515
 20
119.71179288216359
 11
1363.7603570819117
 21
126.07719512227788
  0
LINE
  8
_e-0_
  6
CONTINUOUS
 62
    7
 10
1342.580196903172
 20
115.17571394279855
 11
1372.5317702823999
 21
126.07719512227737
  0
LINE
  8
_e-0_
  6
CONTINUOUS
 62
    7
 10
1340.5240425473923
 20
111.23480164281153
 11
1358.3186058030819
 21
117.71149299964957
  0
LINE
  8
_e-0_
  6
CONTINUOUS
 62
    7
 10
1339.3271742223018
 20
107.60664388071472
 11
1352.3751949625579
 21
112.35573504625597
  0
LINE
  8
_e-0_
  6
CONTINUOUS
 62
    7
 10
1338.721470847046
 20
104.19365256389926
 11
1349.6744752773879
 21
108.18022015232952
  0
LINE
  8
_e-0_
  6
CONTINUOUS
 62
    7
 10
1338.5789453325319
 20
100.9492442015628
 11
1349.6248861433032
 21
104.96963786614986
  0
LINE
  8
_e-0_
  6
CONTINUOUS
 62
    7
 10
1338.8302498463176
 20
97.848178246889801
 11
1349.8971984460968
 21
101.87621812136342
  0
LINE
  8
_e-0_
  6
CONTINUOUS
 62
    7
 10
1339.4370041365052
 20
94.87648543060493
 11
1350.7617412909603
 21
98.99835266571506
  0
LINE
  8
_e-0_
  6
CONTINUOUS
 62
    7
 10
1340.3805330338977
 20
92.02736854699799
 11
1352.1975100607219
 21
96.32839644376952
  0
LINE
  8
_e-0_
  6
CONTINUOUS
 62
    7
 10
1341.657318121151
 20
89.299546996885339
 11
1354.259946292861
 21
93.886528524912705
  0
LINE
  8
_e-0_
  6
CONTINUOUS
 62
    7
 10
1343.2782053558578
 20
86.696968385992931
 11
1357.1280696016417
 21
91.737906720085959
  0
LINE
  8
_e-0_
  6
CONTINUOUS
 62
    7
 10
1345.270912645542
 20
84.229721207615455
 11
1361.3681033391151
 21
90.088619475382927
  0
LINE
  8
_e-0_
  6
CONTINUOUS
 62
    7
 10
1347.6873415094612
 20
81.916696069875968
 11
1370.7390843316923
 21
90.306844305127583
  0
LINE
  8
_e-0_
  6
CONTINUOUS
 62
    7
 10
1350.6210628621677
 20
79.791950000465817
 11
1367.5106893545896
 21
85.939271311581364
  0
LINE
  8
_e-0_
  6
CONTINUOUS
 62
    7
 10
1367.7509593310203
 20
121.14458892289508
 11
1381.303183482888
 21
126.07719512227839
  0
LINE
  8
_e-0_
  6
CONTINUOUS
 62
    7
 10
1356.3374725852377
 20
113.7978861608106
 11
1387.830677949878
 21
125.26047549517227
  0
LINE
  8
_e-0_
  6
CONTINUOUS
 62
    7
 10
1363.8417713096841
 20
113.33669420812304
 11
1387.830677949878
 21
122.06794217774461
  0
LINE
  8
_e-0_
  6
CONTINUOUS
 62
    7
 10
1372.6131845101733
 20
113.33669420812304
 11
1387.830677949878
 21
118.87540886031695
  0
LINE
  8
_e-0_
  6
CONTINUOUS
 62
    7
 10
1375.1250878055291
 20
111.05841892156001
 11
1387.830677949878
 21
115.68287554288929
  0
LINE
  8
_e-0_
  6
CONTINUOUS
 62
    7
 10
1375.1250878055291
 20
107.86588560413235
 11
1387.830677949878
 21
112.49034222546129
  0
LINE
  8
_e-0_
  6
CONTINUOUS
 62
    7
 10
1375.1250878055291
 20
104.67335228670469
 11
1387.830677949878
 21
109.29780890803363
  0
LINE
  8
_e-0_
  6
CONTINUOUS
 62
    7
 10
1375.1250878055291
 20
101.48081896927703
 11
1387.830677949878
 21
106.10527559060597
  0
LINE
  8
_e-0_
  6
CONTINUOUS
 62
    7
 10
1375.0805085417869
 20
98.272060126781639
 11
1387.830677949878
 21
102.9127422731783
  0
LINE
  8
_e-0_
  6
CONTINUOUS
 62
    7
 10
1374.3923945618018
 20
94.829073802856783
 11
1387.830677949878
 21
99.720208955750479
  0
LINE
  8
_e-0_
  6
CONTINUOUS
 62
    7
 10
1373.0369977714692
 20
91.143216398128174
 11
1387.830677949878
 21
96.527675638322818
  0
LINE
  8
_e-0_
  6
CONTINUOUS
 62
    7
 10
1370.6402317096578
 20
87.078331575701497
 11
1387.1165199820306
 21
93.075210078034558
  0
LINE
  8
_e-0_
  6
CONTINUOUS
 62
    7
 10
1365.4478081319091
 20
81.995910632271147
 11
1385.423262774819
 21
89.266381538225118
  0
LINE
  8
_e-0_
  6
CONTINUOUS
 62
    7
 10
1360.1874720886924
 20
76.888771572874929
 11
1382.5022268493089
 21
85.010678090689452
  0
LINE
  8
_e-0_
  6
CONTINUOUS
 62
    7
 10
1369.2825848741799
 20
77.006588586658494
 11
1375.6346750323905
 21
79.318560329622414
  0
LINE
  8
_e-0_
  6
CONTINUOUS
 62
    3
 10
1359.8678803640941
 20
118.53967691806961
 11
1359.8678803640941
 21
118.53967691806961
  0
LINE
  8
_e-0_
  6
CONTINUOUS
 62
    3
 10
1359.8678803640941
 20
118.53967691806961
 11
1357.3946840755952
 21
116.85408398628072
  0
LINE
  8
_e-0_
  6
CONTINUOUS
 62
    3
 10
1369.4321053151659
 20
76.888771572873906
 11
1360.1522406241022
 21
76.888771572873906
  0
ARC
  8
_e-0_
  6
CONTINUOUS
 62
    3
 10
1369.4321053151659
 20
79.888771572873906
 40
3
 50
270
 51
286.20399351045659
  0
LINE
  8
_e-0_
  6
CONTINUOUS
 62
    3
 10
1387.9373165047568
 20
126.07719512227737
 11
1387.9373165047568
 21
95.864080383401528
  0
ARC
  8
_e-0_
  6
CONTINUOUS
 62
    3
 10
1363.1532994659869
 20
101.49494192090901
 40
25.5
 50
286.20399351045648
 51
345.50707147989851
  0
ARC
  8
_e-0_
  6
CONTINUOUS
 62
    3
 10
1384.9373165047568
 20
95.864080383401528
 40
3
 50
345.50707147989879
 51
0
  0
ARC
  8
_e-0_
  6
CONTINUOUS
 62
    3
 10
1350.0556432426321
 20
102.29736507773748
 40
24
 50
279.71265316664215
 51
332.69093929010892
  0
ARC
  8
_e-0_
  6
CONTINUOUS
 62
    3
 10
1353.5984914529828
 20
81.598374122659151
 40
3
 50
241.94526281180003
 51
279.71265316664226
  0
ARC
  8
_e-0_
  6
CONTINUOUS
 62
    3
 10
1357.9585873779706
 20
123.07719512227737
 40
3
 50
90
 51
106.05338143786269
  0
LINE
  8
_e-0_
  6
CONTINUOUS
 62
    3
 10
1373.0600993491329
 20
126.07719512227728
 11
1373.0600993491329
 21
126.07719512227728
  0
LINE
  8
_e-0_
  6
CONTINUOUS
 62
    3
 10
1373.0600993491329
 20
126.07719512227728
 11
1366.9309193731146
 21
123.14440614733234
  0
LINE
  8
_e-0_
  6
CONTINUOUS
 62
    3
 10
1366.9309193731146
 20
123.14440614733234
 11
1363.3796750025487
 21
120.86669387390412
  0
LINE
  8
_e-0_
  6
CONTINUOUS
 62
    3
 10
1359.8678803640939
 20
118.53967691806951
 11
1363.3796750025489
 21
120.86669387390418
  0
ARC
  8
_e-0_
  6
CONTINUOUS
 62
    3
 10
1357.9585873779706
 20
123.07719512227737
 40
3
 50
90
 51
106.05338143786269
  0
ARC
  8
_e-0_
  6
CONTINUOUS
 62
    3
 10
1357.9585873779706
 20
123.07719512227737
 40
3
 50
90
 51
106.05338143786269
  0
LINE
  8
_e-0_
  6
CONTINUOUS
 62
    3
 10
1373.0600993491332
 20
126.07719512227737
 11
1357.9585873779706
 21
126.07719512227737
  0
ARC
  8
_e-0_
  6
CONTINUOUS
 62
    3
 10
1364.1805759659384
 20
101.45459449212182
 40
25.5
 50
106.05338143786269
 51
241.94526281180051
  0
ARC
  8
_e-0_
  6
CONTINUOUS
 62
    3
 10
1357.9585873779706
 20
123.07719512227737
 40
3
 50
90
 51
106.05338143786269
  0
LINE
  8
_e-0_
  6
CONTINUOUS
 62
    3
 10
1379.5031897675132
 20
126.07719512227737
 11
1387.9373165047568
 21
126.07719512227737
  0
ARC
  8
_e-0_
  6
CONTINUOUS
 62
    3
 10
1379.5031897675132
 20
123.07719512227737
 40
3
 50
90
 51
112.84552721528329
  0
LINE
  8
_e-0_
  6
CONTINUOUS
 62
    3
 10
1375.2317263604077
 20
113.33669420812202
 11
1361.4104127617802
 21
113.33669420812202
  0
ARC
  8
_e-0_
  6
CONTINUOUS
 62
    3
 10
1361.4104127617802
 20
110.33669420812202
 40
3
 50
90
 51
110.93110431809542
  0
ARC
  8
_e-0_
  6
CONTINUOUS
 62
    3
 10
1352.5375597681543
 20
106.62231871330436
 40
0.3
 50
165.368776721252
 51
224.67319701305797
  0
LINE
  8
_e-0_
  6
CONTINUOUS
 62
    3
 10
1352.3242212348375
 20
106.41140007922422
 11
1352.2102549643561
 21
106.52667390080068
  0
ARC
  8
_e-0_
  6
CONTINUOUS
 62
    3
 10
1365.6973539724726
 20
99.128566128194165
 40
15
 50
110.93110431809527
 51
150.17701829297229
  0
ARC
  8
_e-0_
  6
CONTINUOUS
 62
    3
 10
1352.4235934976732
 20
106.73759253488083
 40
0.3
 50
224.67319701305652
 51
330.17701829297561
  0
LINE
  8
_e-0_
  6
CONTINUOUS
 62
    3
 10
1378.3384458385535
 20
125.84185994462956
 11
1370.1140364694529
 21
122.3769441239159
  0
LINE
  8
_e-0_
  6
CONTINUOUS
 62
    3
 10
1370.1140364694529
 20
122.3769441239159
 11
1366.2687170312658
 21
120.27682075083612
  0
ARC
  8
_e-0_
  6
CONTINUOUS
 62
    3
 10
1366.7608631973448
 20
102.90914762093848
 40
15
 50
126.05682261028304
 51
165.36877672125814
  0
ARC
  8
_e-0_
  6
CONTINUOUS
 62
    3
 10
1393.2172754112473
 20
66.669216801016432
 40
60
 50
116.6886898974924
 51
126.03335467187628
  0
LINE
  8
_e-0_
  6
CONTINUOUS
 62
    3
 10
1357.394684075595
 20
116.85408398628078
 11
1357.394684075595
 21
116.85408398628078
  0
LINE
  8
_e-0_
  6
CONTINUOUS
 62
    3
 10
1357.394684075595
 20
116.85408398628078
 11
1352.6136248646832
 21
112.50111536361262
  0
LINE
  8
_e-0_
  6
CONTINUOUS
 62
    3
 10
1352.6136248646832
 20
112.50111536361262
 11
1351.5065376027923
 21
111.22118258565298
  0
ARC
  8
_e-0_
  6
CONTINUOUS
 62
    3
 10
1364.7296297846066
 20
104.73121845300534
 40
15
 50
169.07329675873063
 51
296.32138326661799
  0
LINE
  8
_e-0_
  6
CONTINUOUS
 62
    3
 10
1351.5065376027923
 20
111.22118258565289
 11
1351.5065376027923
 21
111.22118258565289
  0
LINE
  8
_e-0_
  6
CONTINUOUS
 62
    3
 10
1351.5065376027923
 20
111.22118258565289
 11
1350.0015726396677
 21
107.57451455707408
  0
LINE
  8
_e-0_
  6
CONTINUOUS
 62
    3
 10
1375.2317263604077
 20
113.33669420812202
 11
1375.2317263604077
 21
98.65455531498992
  0
ARC
  8
_e-0_
  6
CONTINUOUS
 62
    3
 10
1366.3704555138306
 20
86.478545899843197
 40
3
 50
311.4163090429962
 51
326.13300916724881
  0
ARC
  8
_e-0_
  6
CONTINUOUS
 62
    3
 10
1351.3715646531197
 20
101.24157740651901
 40
24
 50
316.78132524618342
 51
353.81191653224226
  0
ARC
  8
_e-0_
  6
CONTINUOUS
 62
    3
 10
1344.5401187982031
 20
111.2259982713972
 40
36
 50
294.69555798319504
 51
311.41630904299643
  0
ARC
  8
_e-0_
  6
CONTINUOUS
 62
    3
 10
1363.1560891991221
 20
121.78840290474965
 40
45
 50
264.68313230529076
 51
266.17253517307824
  0
ARC
  8
_e-0_
  6
CONTINUOUS
 62
    3
 10
1359.0140208429693
 20
77.280726378862993
 40
0.3
 50
174.02086603460466
 51
264.68313230528985
  0
ARC
  8
_e-0_
  6
CONTINUOUS
 62
    3
 10
1360.2074927190062
 20
77.155726854431236
 40
1.5
 50
114.69555798319522
 51
174.02086603461154
  0
LINE
  8
_e-0_
  6
CONTINUOUS
 62
    7
 10
1426.1339951457566
 20
101.6581921443722
 11
1432.9571345848776
 21
104.14161180446006
  0
LINE
  8
_e-0_
  6
CONTINUOUS
 62
    3
 10
1461.755114067856
 20
97.579874955116338
 11
1461.755114067856
 21
81.894111736977265
  0
CIRCLE
  8
_e-0_
  6
CONTINUOUS
 62
    3
 10
1419.310045830623
 20
97.477760694783114
 40
8.0026427734983904
  0
CIRCLE
  8
_e-0_
  6
CONTINUOUS
 62
    3
 10
1419.139815362198
 20
97.307530226358039
 40
15.415024538338599
  0
LINE
  8
_e-0_
  6
CONTINUOUS
 62
    3
 10
1439.6963770351546
 20
112.95750229268986
 11
1439.6963770351546
 21
81.894111736977265
  0
LINE
  8
_e-0_
  6
CONTINUOUS
 62
    3
 10
1439.6963770351546
 20
81.894111736977265
 11
1448.9141584522012
 21
81.894111736977265
  0
LINE
  8
_e-0_
  6
CONTINUOUS
 62
    3
 10
1448.9141584522012
 20
81.894111736977265
 11
1448.9141584522012
 21
103.57987495511633
  0
LINE
  8
_e-0_
  6
CONTINUOUS
 62
    3
 10
1470.7064856173583
 20
81.894111736977265
 11
1461.755114067856
 21
81.894111736977265
  0
LINE
  8
_e-0_
  6
CONTINUOUS
 62
    3
 10
1455.755114067856
 20
103.57987495511633
 11
1448.9141584522012
 21
103.57987495511633
  0
ARC
  8
_e-0_
  6
CONTINUOUS
 62
    3
 10
1455.755114067856
 20
97.579874955116338
 40
6
 50
0
 51
90
  0
LINE
  8
_e-0_
  6
CONTINUOUS
 62
    3
 10
1455.7064856173581
 20
112.95750229268986
 11
1439.6963770351546
 21
112.95750229268986
  0
LINE
  8
_e-0_
  6
CONTINUOUS
 62
    3
 10
1470.7064856173583
 20
97.957502292689866
 11
1470.7064856173583
 21
81.894111736977265
  0
ARC
  8
_e-0_
  6
CONTINUOUS
 62
    3
 10
1455.7064856173581
 20
97.957502292689866
 40
15
 50
0
 51
90
  0
ARC
  8
_e-0_
  6
CONTINUOUS
 62
    3
 10
1491.7471563705139
 20
97.305922574438568
 40
8.0026427734983904
 50
23.422555400004952
 51
97.191484740792631
  0
LINE
  8
_e-0_
  6
CONTINUOUS
 62
    3
 10
1484.4039456786376
 20
100.48704629019403
 11
1499.0903670623902
 21
100.48704629019403
  0
ARC
  8
_e-0_
  6
CONTINUOUS
 62
    3
 10
1491.7471563705139
 20
97.305922574438568
 40
8.0026427734983904
 50
92.530763017635266
 51
156.57744459999506
  0
ARC
  8
_e-0_
  6
CONTINUOUS
 62
    3
 10
1491.7471563705139
 20
97.305922574438568
 40
8.0026427734983904
 50
204.21097500392608
 51
316.0067678116265
  0
LINE
  8
_e-0_
  6
CONTINUOUS
 62
    3
 10
1484.4484134215922
 20
94.024056835900523
 11
1506.9120452137431
 21
94.024056835900523
  0
LINE
  8
_e-0_
  6
CONTINUOUS
 62
    3
 10
1497.5044324297575
 20
91.747499800135756
 11
1505.2255447259333
 21
89.873660835986981
  0
ARC
  8
_e-0_
  6
CONTINUOUS
 62
    3
 10
1491.9393520606711
 20
97.690313954752923
 40
15.415024538338599
 50
346.24110979921471
 51
329.53046432565105
  0
ARC
  8
_e-0_
  6
CONTINUOUS
 62
    3
 10
1527.9081354254042
 20
97.285859072123457
 40
6.6538539851207652
 50
94.502189492040685
 51
357.22978420280037
  0
LINE
  8
_e-0_
  6
CONTINUOUS
 62
    3
 10
1533.9542136906882
 20
103.91918149143339
 11
1527.3858265734902
 21
103.91918149143339
  0
LINE
  8
_e-0_
  6
CONTINUOUS
 62
    3
 10
1534.5542136906881
 20
103.31918149143359
 11
1534.5542136906881
 21
96.964274639932455
  0
ARC
  8
_e-0_
  6
CONTINUOUS
 62
    3
 10
1533.9542136906882
 20
103.31918149143359
 40
0.6
 50
0
 51
90
  0
LINE
  8
_e-0_
  6
CONTINUOUS
 62
    3
 10
1529.382207441331
 20
112.97435245641656
 11
1534.4358465274904
 21
112.97435245641656
  0
ARC
  8
_e-0_
  6
CONTINUOUS
 62
    3
 10
1528.1797713967225
 20
97.60629698162711
 40
15.415024538338599
 50
85.526146014136969
 51
347.40557840019874
  0
LINE
  8
_e-0_
  6
CONTINUOUS
 62
    3
 10
1534.4358465274904
 20
125.4771951222774
 11
1534.4358465274904
 21
112.97435245641656
  0
ARC
  8
_e-0_
  6
CONTINUOUS
 62
    3
 10
1535.0358465274903
 20
125.4771951222774
 40
0.6
 50
90
 51
180
  0
LINE
  8
_e-0_
  6
CONTINUOUS
 62
    3
 10
1543.2238795538169
 20
125.4771951222774
 11
1543.2238795538169
 21
94.245078262884533
  0
LINE
  8
_e-0_
  6
CONTINUOUS
 62
    3
 10
1542.623879553817
 20
126.07719512227737
 11
1535.0358465274903
 21
126.07719512227737
  0
ARC
  8
_e-0_
  6
CONTINUOUS
 62
    3
 10
1542.623879553817
 20
125.4771951222774
 40
0.6
 50
0
 51
90
  0
CIRCLE
  8
_e-0_
  6
CONTINUOUS
 62
    3
 10
1564.4959707477498
 20
97.571152626855507
 40
8.0026427734983904
  0
CIRCLE
  8
_e-0_
  6
CONTINUOUS
 62
    3
 10
1564.3257402793251
 20
97.400922158430603
 40
15.415024538338599
  0
ARC
  8
_e-0_
  6
CONTINUOUS
 62
    3
 10
1416.7833867473211
 20
110.13665376307449
 40
3
 50
90
 51
106.05338143786269
  0
ARC
  8
_e-0_
  6
CONTINUOUS
 62
    3
 10
1416.7833867473211
 20
110.13665376307449
 40
3
 50
90
 51
106.05338143786269
  0
ARC
  8
_e-0_
  6
CONTINUOUS
 62
    3
 10
1416.7833867473211
 20
110.13665376307449
 40
3
 50
90
 51
106.05338143786269
  0
ARC
  8
_e-0_
  6
CONTINUOUS
 62
    3
 10
1416.7833867473211
 20
110.13665376307449
 40
3
 50
90
 51
106.05338143786269
  0
LINE
  8
_e-0_
  6
CONTINUOUS
 62
    7
 10
1407.8082482598608
 20
107.75829902692066
 11
1421.102674676073
 21
112.59707452406416
  0
LINE
  8
_e-0_
  6
CONTINUOUS
 62
    7
 10
1416.7449037845685
 20
107.81844231437696
 11
1425.912350736798
 21
111.15512012920299
  0
LINE
  8
_e-0_
  6
CONTINUOUS
 62
    7
 10
1405.05069305909
 20
103.56209769706623
 11
1416.7449037845685
 21
107.81844231437696
  0
LINE
  8
_e-0_
  6
CONTINUOUS
 62
    7
 10
1403.9567043861652
 20
99.971385066069615
 11
1414.3414001539899
 21
103.7511052174679
  0
LINE
  8
_e-0_
  6
CONTINUOUS
 62
    7
 10
1403.7368139931363
 20
96.698818190778297
 11
1411.5814360531089
 21
99.554027119676334
  0
LINE
  8
_e-0_
  6
CONTINUOUS
 62
    7
 10
1404.1622717908726
 20
93.661138847662869
 11
1411.3954678386996
 21
96.293806907683801
  0
LINE
  8
_e-0_
  6
CONTINUOUS
 62
    7
 10
1405.1522894099364
 20
90.82894247497353
 11
1412.3876742921415
 21
93.462407205555791
  0
LINE
  8
_e-0_
  6
CONTINUOUS
 62
    7
 10
1406.7024773844641
 20
88.200631437791287
 11
1414.5389662027027
 21
91.052880108790077
  0
LINE
  8
_e-0_
  6
CONTINUOUS
 62
    7
 10
1408.8816988604405
 20
85.801269871492593
 11
1418.992797279408
 21
89.481408731732699
  0
LINE
  8
_e-0_
  6
CONTINUOUS
 62
    7
 10
1411.8900775232436
 20
83.703696840726934
 11
1425.1520852369474
 21
88.5306728951237
  0
LINE
  8
_e-0_
  6
CONTINUOUS
 62
    7
 10
1416.3730547880759
 20
82.142833808590012
 11
1425.1842618089901
 21
85.349850892160247
  0
LINE
  8
_e-0_
  6
CONTINUOUS
 62
    7
 10
1425.1842618089901
 20
85.349850892160247
 11
1431.0069558874442
 21
87.469138219955596
  0
LINE
  8
_e-0_
  6
CONTINUOUS
 62
    7
 10
1424.6400922919006
 20
88.344322702972419
 11
1433.4378122923224
 21
91.546430912534276
  0
LINE
  8
_e-0_
  6
CONTINUOUS
 62
    7
 10
1424.6930282849104
 20
91.556123146177014
 11
1434.3940700951716
 21
95.087013606483878
  0
LINE
  8
_e-0_
  6
CONTINUOUS
 62
    7
 10
1427.0947385016615
 20
95.622807493835239
 11
1434.5211707111939
 21
98.325807764900787
  0
LINE
  8
_e-0_
  6
CONTINUOUS
 62
    7
 10
1427.1939095522686
 20
98.851436121784786
 11
1434.0192378257675
 21
101.3356524524338
  0
LINE
  8
_e-0_
  6
CONTINUOUS
 62
    7
 10
1419.0838211105583
 20
105.47720528401896
 11
1429.0584602696767
 21
109.10767703548418
  0
LINE
  8
_e-0_
  6
CONTINUOUS
 62
    7
 10
1423.8959060713932
 20
104.03612765709544
 11
1431.3304715226597
 21
106.74208818606007
  0
LINE
  8
_e-0_
  6
CONTINUOUS
 62
    7
 10
1439.6963770351546
 20
109.78702877529167
 11
1448.407181433185
 21
112.95750229268986
  0
LINE
  8
_e-0_
  6
CONTINUOUS
 62
    7
 10
1439.6963770351546
 20
106.59449545786401
 11
1457.0202265723273
 21
112.89986103230114
  0
LINE
  8
_e-0_
  6
CONTINUOUS
 62
    7
 10
1439.6963770351546
 20
103.40196214043635
 11
1462.06458587884
 21
111.54332435338778
  0
LINE
  8
_e-0_
  6
CONTINUOUS
 62
    7
 10
1439.6963770351546
 20
100.20942882300869
 11
1465.2666019248631
 21
109.51622956635515
  0
LINE
  8
_e-0_
  6
CONTINUOUS
 62
    7
 10
1439.6963770351546
 20
97.016895505581032
 11
1448.9141584522012
 21
100.37189356735802
  0
LINE
  8
_e-0_
  6
CONTINUOUS
 62
    7
 10
1457.2254049671741
 20
103.39693990845677
 11
1467.5546451721552
 21
107.15647588565514
  0
LINE
  8
_e-0_
  6
CONTINUOUS
 62
    7
 10
1439.6963770351546
 20
93.824362188153372
 11
1448.9141584522012
 21
97.179360249930368
  0
LINE
  8
_e-0_
  6
CONTINUOUS
 62
    7
 10
1442.0039361140675
 20
81.894111736977265
 11
1448.9141584522012
 21
84.409226980219386
  0
LINE
  8
_e-0_
  6
CONTINUOUS
 62
    7
 10
1439.6963770351546
 20
84.24676223587005
 11
1448.9141584522012
 21
87.601760297647217
  0
LINE
  8
_e-0_
  6
CONTINUOUS
 62
    7
 10
1439.6963770351546
 20
87.439295553297881
 11
1448.9141584522012
 21
90.794293615074877
  0
LINE
  8
_e-0_
  6
CONTINUOUS
 62
    7
 10
1439.6963770351546
 20
90.631828870725541
 11
1448.9141584522012
 21
93.986826932502708
  0
LINE
  8
_e-0_
  6
CONTINUOUS
 62
    7
 10
1461.755114067856
 20
95.468019238706403
 11
1470.7064856173583
 21
98.726052038582281
  0
LINE
  8
_e-0_
  6
CONTINUOUS
 62
    7
 10
1461.755114067856
 20
92.275485921278914
 11
1470.7064856173583
 21
95.533518721154791
  0
LINE
  8
_e-0_
  6
CONTINUOUS
 62
    7
 10
1461.6630285392348
 20
98.627036164709352
 11
1470.221230762575
 21
101.74196703283581
  0
LINE
  8
_e-0_
  6
CONTINUOUS
 62
    7
 10
1461.755114067856
 20
89.082952603851254
 11
1470.7064856173583
 21
92.340985403727131
  0
LINE
  8
_e-0_
  6
CONTINUOUS
 62
    7
 10
1461.755114067856
 20
85.890419286423423
 11
1470.7064856173583
 21
89.1484520862993
  0
LINE
  8
_e-0_
  6
CONTINUOUS
 62
    7
 10
1461.755114067856
 20
82.697885968995592
 11
1470.7064856173583
 21
85.95591876887164
  0
LINE
  8
_e-0_
  6
CONTINUOUS
 62
    7
 10
1468.3181757155357
 20
81.894111736977265
 11
1470.7064856173583
 21
82.763385451443809
  0
LINE
  8
_e-0_
  6
CONTINUOUS
 62
    7
 10
1460.4113414433693
 20
101.36399263662701
 11
1469.1778117458868
 21
104.55472688632187
  0
LINE
  8
_e-0_
  6
CONTINUOUS
 62
    7
 10
1481.5130305538004
 20
109.04437936556274
 11
1492.6281251475427
 21
113.08994294873787
  0
LINE
  8
_e-0_
  6
CONTINUOUS
 62
    7
 10
1478.1789833362695
 20
104.63835210131583
 11
1498.0142932250273
 21
111.85781448826952
  0
LINE
  8
_e-0_
  6
CONTINUOUS
 62
    7
 10
1476.8777394519552
 20
100.9722047424766
 11
1501.367657969296
 21
109.88580612239314
  0
LINE
  8
_e-0_
  6
CONTINUOUS
 62
    7
 10
1476.8995451922378
 20
97.787608065448125
 11
1484.3936803032013
 21
100.51525017740794
  0
LINE
  8
_e-0_
  6
CONTINUOUS
 62
    7
 10
1495.2904989786325
 20
104.48136782346068
 11
1503.773140774613
 21
107.56879694514009
  0
LINE
  8
_e-0_
  6
CONTINUOUS
 62
    7
 10
1498.0156367157151
 20
102.28070352660665
 11
1505.5070951255552
 21
105.00737139903156
  0
LINE
  8
_e-0_
  6
CONTINUOUS
 62
    7
 10
1477.9256056222147
 20
94.968530203090494
 11
1493.0876039604295
 21
100.48704629019403
  0
LINE
  8
_e-0_
  6
CONTINUOUS
 62
    7
 10
1477.7333276757753
 20
91.706013436452906
 11
1506.6684323253373
 21
102.23753025427072
  0
LINE
  8
_e-0_
  6
CONTINUOUS
 62
    7
 10
1479.1801750388592
 20
89.0400894927144
 11
1486.1570058378565
 21
91.579448233060929
  0
LINE
  8
_e-0_
  6
CONTINUOUS
 62
    7
 10
1492.8735127735633
 20
94.024056835900523
 11
1507.2737058222073
 21
99.265298473293796
  0
LINE
  8
_e-0_
  6
CONTINUOUS
 62
    7
 10
1501.6449259740527
 20
94.024056835900523
 11
1507.2690972676175
 21
96.071087779172444
  0
LINE
  8
_e-0_
  6
CONTINUOUS
 62
    7
 10
1481.2369044534029
 20
86.59614446212015
 11
1489.5330084585241
 21
89.615679380360916
  0
LINE
  8
_e-0_
  6
CONTINUOUS
 62
    7
 10
1484.0705148458575
 20
84.434960983053429
 11
1501.4984168731466
 21
90.778198566693959
  0
LINE
  8
_e-0_
  6
CONTINUOUS
 62
    7
 10
1488.1841697358963
 20
82.739675599643305
 11
1504.4260737050321
 21
88.651245192218596
  0
LINE
  8
_e-0_
  6
CONTINUOUS
 62
    7
 10
1531.573901455303
 20
82.569579831164446
 11
1535.2451324008018
 21
83.905798618442759
  0
LINE
  8
_e-0_
  6
CONTINUOUS
 62
    7
 10
1523.6407605608897
 20
82.874685998785594
 11
1541.1261524352612
 21
89.238848175536872
  0
LINE
  8
_e-0_
  6
CONTINUOUS
 62
    7
 10
1519.7986080542839
 20
84.668790168297732
 11
1542.9161840819131
 21
93.082899730740336
  0
LINE
  8
_e-0_
  6
CONTINUOUS
 62
    7
 10
1513.249118612865
 20
101.44017086654667
 11
1543.2238795538169
 21
112.350091628298
  0
LINE
  8
_e-0_
  6
CONTINUOUS
 62
    7
 10
1514.7538097877363
 20
105.18036698339062
 11
1543.2238795538169
 21
115.54262494572566
  0
LINE
  8
_e-0_
  6
CONTINUOUS
 62
    7
 10
1534.4358465274904
 20
125.11417577610552
 11
1537.0817204355957
 21
126.07719512227737
  0
LINE
  8
_e-0_
  6
CONTINUOUS
 62
    7
 10
1534.4358465274904
 20
121.92164245867786
 11
1543.2238795538169
 21
125.12022489800881
  0
LINE
  8
_e-0_
  6
CONTINUOUS
 62
    7
 10
1534.4358465274904
 20
118.72910914125003
 11
1543.2238795538169
 21
121.92769158058115
  0
LINE
  8
_e-0_
  6
CONTINUOUS
 62
    7
 10
1534.4358465274904
 20
115.5365758238222
 11
1543.2238795538169
 21
118.73515826315349
  0
LINE
  8
_e-0_
  6
CONTINUOUS
 62
    7
 10
1518.8160191881538
 20
109.85142360792656
 11
1527.4818060684117
 21
113.00551208883496
  0
LINE
  8
_e-0_
  6
CONTINUOUS
 62
    7
 10
1528.831557527819
 20
103.91918149143339
 11
1543.2238795538169
 21
109.15755831087034
  0
LINE
  8
_e-0_
  6
CONTINUOUS
 62
    7
 10
1512.77184137438
 20
98.073922840817658
 11
1523.0251250650251
 21
101.80581290769964
  0
LINE
  8
_e-0_
  6
CONTINUOUS
 62
    7
 10
1512.9932464641799
 20
94.961974385792188
 11
1521.2908014795211
 21
97.982037428562534
  0
LINE
  8
_e-0_
  6
CONTINUOUS
 62
    7
 10
1513.7964068765713
 20
92.061767551815933
 11
1521.6842710791461
 21
94.932715333486839
  0
LINE
  8
_e-0_
  6
CONTINUOUS
 62
    7
 10
1515.1538061472826
 20
89.363287164941766
 11
1523.4212930256837
 21
92.372406300866146
  0
LINE
  8
_e-0_
  6
CONTINUOUS
 62
    7
 10
1517.107038739668
 20
86.881672371740933
 11
1527.4536822439251
 21
90.64754263185415
  0
LINE
  8
_e-0_
  6
CONTINUOUS
 62
    7
 10
1532.5232943167175
 20
92.492730525627166
 11
1543.2238795538169
 21
96.387425041159531
  0
LINE
  8
_e-0_
  6
CONTINUOUS
 62
    7
 10
1534.503562675005
 20
96.406022581330603
 11
1543.2238795538169
 21
99.579958358587191
  0
LINE
  8
_e-0_
  6
CONTINUOUS
 62
    7
 10
1534.5542136906881
 20
99.61699136080233
 11
1543.2238795538169
 21
102.77249167601485
  0
LINE
  8
_e-0_
  6
CONTINUOUS
 62
    7
 10
1534.5542136906881
 20
102.80952467822999
 11
1543.2238795538169
 21
105.96502499344251
  0
LINE
  8
_e-0_
  6
CONTINUOUS
 62
    7
 10
1557.0880576913159
 20
111.0111731580564
 11
1561.1216260996452
 21
112.47927199656464
  0
LINE
  8
_e-0_
  6
CONTINUOUS
 62
    7
 10
1551.3561876260569
 20
105.73240975019285
 11
1568.9056170248584
 21
112.11987967971242
  0
LINE
  8
_e-0_
  6
CONTINUOUS
 62
    7
 10
1565.1108704984167
 20
82.005905040653431
 11
1573.6200218920841
 21
85.102982866813135
  0
LINE
  8
_e-0_
  6
CONTINUOUS
 62
    7
 10
1558.9466856889898
 20
82.9548585689339
 11
1577.7320858415569
 21
89.792185063247927
  0
LINE
  8
_e-0_
  6
CONTINUOUS
 62
    7
 10
1549.5798552756918
 20
101.89334433106813
 11
1572.7340702351775
 21
110.32078937412188
  0
LINE
  8
_e-0_
  6
CONTINUOUS
 62
    7
 10
1555.3780911483243
 20
84.848529695394631
 11
1579.2485595222688
 21
93.536669661502799
  0
LINE
  8
_e-0_
  6
CONTINUOUS
 62
    7
 10
1552.84172975477
 20
87.117902962226594
 11
1561.3476671641656
 21
90.21381099377794
  0
LINE
  8
_e-0_
  6
CONTINUOUS
 62
    7
 10
1551.0056576291717
 20
89.64216067797065
 11
1558.4345601069492
 21
92.346060053148107
  0
LINE
  8
_e-0_
  6
CONTINUOUS
 62
    7
 10
1549.7518979902156
 20
92.378362805894198
 11
1556.9217108038224
 21
94.987961255307254
  0
LINE
  8
_e-0_
  6
CONTINUOUS
 62
    7
 10
1549.0523249215141
 20
95.316272349620248
 11
1556.5064562052812
 21
98.02935425922385
  0
LINE
  8
_e-0_
  6
CONTINUOUS
 62
    7
 10
1548.9478874796061
 20
98.470793546850472
 11
1557.5912034690486
 21
101.61670329236454
  0
LINE
  8
_e-0_
  6
CONTINUOUS
 62
    7
 10
1567.1848995104808
 20
105.10852308804328
 11
1575.4181588912172
 21
108.10518443362411
  0
LINE
  8
_e-0_
  6
CONTINUOUS
 62
    7
 10
1570.3217676342021
 20
103.05771639646854
 11
1577.3658423092629
 21
105.6215499061389
  0
LINE
  8
_e-0_
  6
CONTINUOUS
 62
    7
 10
1571.9586338956146
 20
100.46095367566954
 11
1578.7183901005153
 21
102.92130372514952
  0
LINE
  8
_e-0_
  6
CONTINUOUS
 62
    7
 10
1572.4979054524419
 20
97.464699153113429
 11
1579.5167513215133
 21
100.01935012835747
  0
LINE
  8
_e-0_
  6
CONTINUOUS
 62
    7
 10
1571.6369192551792
 20
93.958792487768164
 11
1579.7328000558686
 21
96.905452119386097
  0
LINE
  8
ADD_LINE
  6
DOT
 62
    9
 10
1403.7368139931363
 20
72
 11
1403.7368139931363
 21
132
  0
LINE
  8
ADD_LINE
  6
DOT
 62
    9
 10
1491.7348070245025
 20
132
 11
1491.7348070245025
 21
72
  0
LINE
  8
ADD_LINE
  6
DOT
 62
    9
 10
1579.7328000558686
 20
72
 11
1579.7328000558686
 21
132
  0
LINE
  8
ADD_LINE
  6
DOT
 62
    9
 10
1332
 20
132
 11
1332
 21
72
  0
LINE
  8
ADD_LINE
  6
DOT
 62
    9
 10
1626
 20
132
 11
1626
 21
72
  0
TEXT
  8
_e-0_
 62
    7
 10
1585.7152095450105
 20
108.33748234469732
 40
21
 41
0.5714285714285713
 50
0
  1
ワンド
  0
TEXT
  8
_e-0_
 62
    7
 10
1589.8227060089425
 20
88.21074967142988
 40
18
 41
0.6666666666666666
 50
0
  1
株式
  0
TEXT
  8
_e-0_
 62
    7
 10
1589.4119563625495
 20
71.370014169308262
 40
18
 41
0.6666666666666666
 50
0
  1
会社
  0
TEXT
  8
_f-8_
 62
    7
 10
497.10515021459229
 20
82.216738197424888
 40
27
 41
0.8
 50
0
  1
高さ調整用　台輪
  0
TEXT
  8
_f-8_
 62
    7
 10
934.95708154506428
 20
82.216738197424888
 40
27
 41
0.6666666666666666
 50
0
  1
ＫＴＢ５－８０－１０５台輪
  0
TEXT
  8
_f-8_
 62
    7
 10
1716.6000000000001
 20
85.5
 40
21
 41
0.5714285714285713
 50
0
  1
１／６
  0
TEXT
  8
_f-8_
 62
    7
 10
1837.4291845493562
 20
85.5
 40
21
 41
0.5714285714285713
 50
0
  1
２０２３.０５.０１
  0
TEXT
  8
_f-8_
 62
    7
 10
2152.9120171673821
 20
85.5
 40
21
 41
0.5714285714285713
 50
0
  1
Ｔ.Ｋ
  0
LINE
  8
_0-0_
  6
CONTINUOUS
 62
    7
 10
1543.2317210348705
 20
1026.6245200283042
 11
1543.2317210348705
 21
1038.6245200283042
  0
LINE
  8
_0-0_
  6
CONTINUOUS
 62
    7
 10
1543.2317210348705
 20
1038.6245200283042
 11
1528.2317210348708
 21
1038.6245200283042
  0
LINE
  8
_0-0_
  6
CONTINUOUS
 62
    7
 10
1528.2317210348708
 20
1038.6245200283042
 11
1528.2317210348708
 21
1518.6245200283042
  0
LINE
  8
_0-0_
  6
CONTINUOUS
 62
    7
 10
1528.2317210348708
 20
1518.6245200283042
 11
1543.2317210348705
 21
1518.6245200283042
  0
LINE
  8
_0-0_
  6
CONTINUOUS
 62
    7
 10
1543.2317210348705
 20
1518.6245200283042
 11
1543.2317210348705
 21
1038.6245200283042
  0
LINE
  8
_0-0_
  6
CONTINUOUS
 62
    7
 10
1528.2317210348708
 20
1518.6245200283042
 11
1528.2317210348708
 21
1503.6245200283042
  0
LINE
  8
_0-2_
  6
CONTINUOUS
 62
    2
 10
1528.2317210348708
 20
1503.6245200283042
 11
1503.5317210348707
 21
1503.6245200283042
  0
LINE
  8
_0-2_
  6
CONTINUOUS
 62
    2
 10
1503.5317210348707
 20
1503.6245200283042
 11
1503.5317210348707
 21
1499.6245200283042
  0
LINE
  8
_0-2_
  6
CONTINUOUS
 62
    2
 10
1503.5317210348707
 20
1499.6245200283042
 11
1528.2317210348708
 21
1499.6245200283042
  0
LINE
  8
_0-2_
  6
CONTINUOUS
 62
    2
 10
1528.2317210348708
 20
1499.6245200283042
 11
1528.2317210348708
 21
1503.6245200283042
  0
LINE
  8
_0-2_
  6
CONTINUOUS
 62
    5
 10
1502.8246142536841
 20
1498.9174132471177
 11
1527.5733515952133
 21
1474.1686759055885
  0
LINE
  8
_0-2_
  6
CONTINUOUS
 62
    5
 10
1502.8246142536841
 20
1498.9174132471177
 11
1503.5317210348707
 21
1499.6245200283042
  0
LINE
  8
_0-2_
  6
CONTINUOUS
 62
    5
 10
1527.5733515952133
 20
1474.1686759055885
 11
1528.2804583764
 21
1474.8757826867752
  0
LINE
  8
_0-2_
  6
CONTINUOUS
 62
    5
 10
1523.3307109080942
 20
1499.6245200283042
 11
1528.2804583764
 21
1494.6747725599984
  0
LINE
  8
_0-2_
  6
CONTINUOUS
 62
    5
 10
1528.2804583764
 20
1474.8757826867752
 11
1528.2804583764
 21
1494.6747725599984
  0
LINE
  8
_0-2_
  6
CONTINUOUS
 62
    5
 10
1503.5317210348707
 20
1499.6245200283042
 11
1523.3307109080942
 21
1499.6245200283042
  0
LINE
  8
_0-2_
  6
CONTINUOUS
 62
    5
 10
1521.5374221145136
 20
1456.0916560168511
 11
1522.2445288957001
 21
1455.3845492356647
  0
LINE
  8
_0-2_
  6
CONTINUOUS
 62
    5
 10
1527.57436172199
 20
1064.0803641510199
 11
1502.825624380461
 21
1039.3316268094908
  0
LINE
  8
_0-2_
  6
CONTINUOUS
 62
    5
 10
1502.825624380461
 20
1039.3316268094908
 11
1503.5327311616474
 21
1038.6245200283042
  0
LINE
  8
_0-2_
  6
CONTINUOUS
 62
    5
 10
1528.2814685031764
 20
1043.5742674966099
 11
1523.3317210348707
 21
1038.6245200283042
  0
LINE
  8
_0-2_
  6
CONTINUOUS
 62
    5
 10
1503.5327311616474
 20
1038.6245200283042
 11
1523.3317210348707
 21
1038.6245200283042
  0
LINE
  8
_0-2_
  6
CONTINUOUS
 62
    5
 10
1528.2814685031767
 20
1063.3732573698334
 11
1528.2814685031767
 21
1043.5742674966099
  0
LINE
  8
_0-2_
  6
CONTINUOUS
 62
    7
 10
1523.3317210348707
 20
1038.6245200283042
 11
1528.2317210348708
 21
1038.6245200283042
  0
POINT
  8
_0-3_
 62
    3
 10
1543.2317210348705
 20
1608.6245200283042
  0
LINE
  8
_0-3_
  6
CONTINUOUS
 62
    4
 10
1543.2317210348705
 20
1614.6245200283042
 11
1543.2317210348705
 21
1548.6245200283042
  0
POINT
  8
_0-3_
 62
    3
 10
1543.231721034871
 20
759.25253093363335
  0
LINE
  8
_0-3_
  6
CONTINUOUS
 62
    4
 10
1543.231721034871
 20
765.25253093363335
 11
1543.231721034871
 21
639.25253093363335
  0
LINE
  8
_0-0_
  6
CONTINUOUS
 62
    7
 10
509.2317210348707
 20
1518.6245200283042
 11
1528.231721034871
 21
1518.6245200283042
  0
LINE
  8
_0-0_
  6
CONTINUOUS
 62
    7
 10
1543.231721034871
 20
609.25253093363335
 11
494.2317210348707
 21
609.25253093363335
  0
LINE
  8
_0-0_
  6
CONTINUOUS
 62
    7
 10
1543.231721034871
 20
469.25253093363346
 11
1543.231721034871
 21
609.25253093363335
  0
LINE
  8
_0-0_
  6
CONTINUOUS
 62
    7
 10
494.2317210348707
 20
469.25253093363346
 11
1543.231721034871
 21
469.25253093363346
  0
LINE
  8
_0-0_
  6
DASHED2
 62
    7
 10
494.2317210348707
 20
519.25253093363335
 11
1543.231721034871
 21
519.25253093363335
  0
POINT
  8
_0-3_
 62
    3
 10
494.2317210348707
 20
759.25253093363335
  0
POINT
  8
_0-3_
 62
    3
 10
1543.231721034871
 20
759.25253093363335
  0
LINE
  8
_0-3_
  6
CONTINUOUS
 62
    4
 10
494.2317210348707
 20
765.25253093363335
 11
494.2317210348707
 21
639.25253093363335
  0
LINE
  8
_0-3_
  6
CONTINUOUS
 62
    4
 10
1543.231721034871
 20
765.25253093363335
 11
1543.231721034871
 21
639.25253093363335
  0
LINE
  8
_0-3_
  6
CONTINUOUS
 62
    4
 10
494.2317210348707
 20
759.25253093363335
 11
1543.231721034871
 21
759.25253093363335
  0
TEXT
  8
_0-3_
 62
    7
 10
985.61172103487092
 20
762.25253093363335
 40
21
 41
0.6285714285714286
 50
0
  1
１，０４９
  0
LINE
  8
_0-0_
  6
CONTINUOUS
 62
    7
 10
1011.2317210348705
 20
1503.6245200283042
 11
1026.2317210348705
 21
1503.6245200283042
  0
LINE
  8
_0-0_
  6
CONTINUOUS
 62
    7
 10
1026.2317210348705
 20
1503.6245200283042
 11
1026.2317210348705
 21
1038.6245200283042
  0
LINE
  8
_0-0_
  6
CONTINUOUS
 62
    7
 10
1026.2317210348705
 20
1038.6245200283042
 11
1011.2317210348705
 21
1038.6245200283042
  0
LINE
  8
_0-0_
  6
CONTINUOUS
 62
    7
 10
1011.2317210348705
 20
1038.6245200283042
 11
1011.2317210348705
 21
1503.6245200283042
  0
LINE
  8
_0-2_
  6
CONTINUOUS
 62
    2
 10
1026.2317210348705
 20
1038.6245200283042
 11
1056.2317210348705
 21
1038.6245200283042
  0
LINE
  8
_0-2_
  6
CONTINUOUS
 62
    2
 10
1056.2317210348705
 20
1038.6245200283042
 11
1056.2317210348705
 21
1053.6245200283042
  0
LINE
  8
_0-2_
  6
CONTINUOUS
 62
    2
 10
1056.2317210348705
 20
1053.6245200283042
 11
1026.2317210348705
 21
1053.6245200283042
  0
LINE
  8
_0-2_
  6
CONTINUOUS
 62
    2
 10
1026.2317210348705
 20
1053.6245200283042
 11
1026.2317210348705
 21
1038.6245200283042
  0
LINE
  8
_0-0_
  6
DASHED2
 62
    7
 10
1018.7317210348705
 20
1518.6245200283042
 11
1018.7317210348705
 21
1038.6245200283042
  0
POINT
  8
_0-3_
 62
    3
 10
494.2317210348707
 20
1608.6245200283042
  0
POINT
  8
_0-3_
 62
    3
 10
1018.7317210348705
 20
1608.6245200283042
  0
LINE
  8
_0-3_
  6
CONTINUOUS
 62
    4
 10
494.2317210348707
 20
1614.6245200283042
 11
494.2317210348707
 21
1548.6245200283042
  0
LINE
  8
_0-3_
  6
CONTINUOUS
 62
    4
 10
1018.7317210348705
 20
1614.6245200283042
 11
1018.7317210348705
 21
1548.6245200283042
  0
LINE
  8
_0-3_
  6
CONTINUOUS
 62
    4
 10
494.2317210348707
 20
1608.6245200283042
 11
1018.7317210348705
 21
1608.6245200283042
  0
TEXT
  8
_0-3_
 62
    7
 10
726.67672103487075
 20
1611.6245200283042
 40
21
 41
0.6285714285714286
 50
0
  1
５２４.５
  0
POINT
  8
_0-3_
 62
    3
 10
1543.2317210348705
 20
1608.6245200283042
  0
LINE
  8
_0-3_
  6
CONTINUOUS
 62
    4
 10
1543.2317210348705
 20
1614.6245200283042
 11
1543.2317210348705
 21
1548.6245200283042
  0
LINE
  8
_0-3_
  6
CONTINUOUS
 62
    4
 10
1018.7317210348705
 20
1608.6245200283042
 11
1543.2317210348705
 21
1608.6245200283042
  0
TEXT
  8
_0-3_
 62
    7
 10
1251.1767210348707
 20
1611.6245200283042
 40
21
 41
0.6285714285714286
 50
0
  1
５２４.５
  0
LINE
  8
_0-0_
  6
CONTINUOUS
 62
    7
 10
494.2317210348707
 20
1026.6245200283042
 11
1543.2317210348705
 21
1026.6245200283042
  0
ENDSEC
  0
EOF
