  0
SECTION
  2
HEADER
  9
$ACADVER
  1
AC1009
  9
$INSBASE
 10
0
 20
0
 30
0
  9
$EXTMIN
 10
0
 20
0
  9
$EXTMAX
 10
2940
 20
2079
  9
$LIMMIN
 10
0
 20
0
  9
$LIMMAX
 10
2940
 20
2079
  9
$LTSCALE
 40
7
  0
ENDSEC
  0
SECTION
  2
TABLES
  0
TABLE
  2
LTYPE
 70
     9
  0
LTYPE
  2
CONTINUOUS
 70
    64
  3
実線
 72
    65
 73
     0
 40
0.0
  0
LTYPE
  2
DASHED1
 70
    64
  3
--  --  --  --  --  --  --  --  
 72
    65
 73
     2
 40
2.5
 49
1.25
 49
-1.25
  0
LTYPE
  2
DASHED2
 70
    64
  3
----    ----    ----    ----    
 72
    65
 73
     2
 40
5.0
 49
2.5
 49
-2.5
  0
LTYPE
  2
DASHED3
 70
    64
  3
------  ------  ------  ------  
 72
    65
 73
     2
 40
5.0
 49
3.75
 49
-1.25
  0
LTYPE
  2
CENTER1
 70
    64
  3
----- - ----- - ----- - ----- - 
 72
    65
 73
     4
 40
10.0
 49
6.25
 49
-1.25
 49
1.25
 49
-1.25
  0
LTYPE
  2
CENTER2
 70
    64
  3
----------  --  ----------  --  
 72
    65
 73
     4
 40
20.0
 49
12.5
 49
-2.5
 49
2.5
 49
-2.5
  0
LTYPE
  2
PHANTOM1
 70
    64
  3
--- - - --- - - --- - - --- - - 
 72
    65
 73
     6
 40
10.0
 49
3.25
 49
-1.25
 49
1.25
 49
-1.25
 49
1.25
 49
-1.25
  0
LTYPE
  2
PHANTOM2
 70
    64
  3
--------  -  -  --------  -  -  
 72
    65
 73
     6
 40
20.0
 49
10.0
 49
-2.5
 49
1.25
 49
-2.5
 49
1.25
 49
-2.5
  0
LTYPE
  2
DOT
 70
    64
  3
-   -   -   -   -   -   -   -   
 72
    65
 73
     2
 40
2.5
 49
0.625
 49
-1.875
  0
LTYPE
  2
DUMMY
 70
    64
  3
ダミー
 72
    65
 73
     0
 40
0.0
  0
LTYPE
  2
RAND1
 70
    64
  3
ランダム線1
 72
    65
 73
     4
 40
10.0
 49
1.0
 49
-2.0
 49
3.0
 49
-4.0
  0
LTYPE
  2
RAND2
 70
    64
  3
ランダム線2
 72
    65
 73
     4
 40
14.0
 49
2.0
 49
-3.0
 49
4.0
 49
-5.0
  0
LTYPE
  2
RAND3
 70
    64
  3
ランダム線3
 72
    65
 73
     4
 40
18.0
 49
3.0
 49
-4.0
 49
5.0
 49
-6.0
  0
LTYPE
  2
RAND4
 70
    64
  3
ランダム線4
 72
    65
 73
     4
 40
22.0
 49
4.0
 49
-5.0
 49
6.0
 49
-7.0
  0
LTYPE
  2
RAND5
 70
    64
  3
ランダム線5
 72
    65
 73
     4
 40
26.0
 49
5.0
 49
-6.0
 49
7.0
 49
-8.0
  0
LTYPE
  2
LONG1
 70
    64
  3
----------  --  ----------  --  
 72
    65
 73
     4
 40
40.0
 49
32.5
 49
-2.5
 49
2.5
 49
-2.5
  0
LTYPE
  2
LONG2
 70
    64
  3
--------  -  -  --------  -  -  
 72
    65
 73
     6
 40
40.0
 49
30.0
 49
-2.5
 49
1.25
 49
-2.5
 49
1.25
 49
-2.5
  0
LTYPE
  2
LONG3
 70
    64
  3
+++++++++++++++..+++++++++++++++
 72
    65
 73
     2
 40
40.0
 49
37.5
 49
-2.5
  0
LTYPE
  2
LONG4
 70
    64
  3
+++++++++++++++..+++++++++++++++
 72
    65
 73
     2
 40
80.0
 49
75.0
 49
-5.0
  0
LTYPE
  2
LONG5
 70
    64
  3
----------  --  ----------  --  
 72
    65
 73
     4
 40
60.0
 49
37.5
 49
-7.5
 49
7.5
 49
-7.5
  0
LTYPE
  2
dashed
 70
   64
  3
-------   -------------   ------
 72
   65
 73
    2
 40
7.5
 49
6
 49
-1.5
  0
LTYPE
  2
dashed_spaced
 70
   64
  3
----        --------        ----
 72
   65
 73
    2
 40
12
 49
6
 49
-6
  0
LTYPE
  2
long_dashed_dotted
 70
   64
  3
------------- --- --------------
 72
   65
 73
    4
 40
15.25
 49
12
 49
-1.5
 49
0.25
 49
-1.5
  0
LTYPE
  2
long_dashed_double-dotted
 70
   64
  3
----------- --- --- ------------
 72
   65
 73
    6
 40
17
 49
12
 49
-1.5
 49
0.25
 49
-1.5
 49
0.25
 49
-1.5
  0
LTYPE
  2
long_dashed_triplicate-dotted
 70
   64
  3
--------- --- --- --- ----------
 72
   65
 73
    8
 40
18.75
 49
12
 49
-1.5
 49
0.25
 49
-1.5
 49
0.25
 49
-1.5
 49
0.25
 49
-1.5
  0
LTYPE
  2
dotted
 70
   64
  3
   -       -       -       -    
 72
   65
 73
    2
 40
1.75
 49
0.25
 49
-1.5
  0
LTYPE
  2
chain
 70
   64
  3
-------------- -- --------------
 72
   65
 73
    4
 40
18.5
 49
12
 49
-1.5
 49
3.5
 49
-1.5
  0
LTYPE
  2
chain_double_dash
 70
   64
  3
------------ -- -- -------------
 72
   65
 73
    6
 40
23.5
 49
12
 49
-1.5
 49
3.5
 49
-1.5
 49
3.5
 49
-1.5
  0
LTYPE
  2
dashed_dotted
 70
   64
  3
-----------     -     ----------
 72
   65
 73
    4
 40
9.25
 49
6
 49
-1.5
 49
0.25
 49
-1.5
  0
LTYPE
  2
double-dashed_dotted
 70
   64
  3
------   -----------   -   -----
 72
   65
 73
    6
 40
16.75
 49
6
 49
-1.5
 49
6
 49
-1.5
 49
0.25
 49
-1.5
  0
LTYPE
  2
dashed_double-dotted
 70
   64
  3
---------    -    -    ---------
 72
   65
 73
    6
 40
11
 49
6
 49
-1.5
 49
0.25
 49
-1.5
 49
0.25
 49
-1.5
  0
LTYPE
  2
double-dashed_double-dotted
 70
   64
  3
-----   ---------   -   -   ----
 72
   65
 73
    8
 40
18.5
 49
6
 49
-1.5
 49
6
 49
-1.5
 49
0.25
 49
-1.5
 49
0.25
 49
-1.5
  0
LTYPE
  2
dashed_triplicate-dotted
 70
   64
  3
-------    -    -    -    ------
 72
   65
 73
    8
 40
12.75
 49
6
 49
-1.5
 49
0.25
 49
-1.5
 49
0.25
 49
-1.5
 49
0.25
 49
-1.5
  0
LTYPE
  2
double-dashed_triplicate-dotted
 70
   64
  3
-----  ---------  -  -  -  -----
 72
   65
 73
   10
 40
20.25
 49
6
 49
-1.5
 49
6
 49
-1.5
 49
0.25
 49
-1.5
 49
0.25
 49
-1.5
 49
0.25
 49
-1.5
  0
LTYPE
  2
undefined
 70
   64
  3
--------------------------------
 72
   65
 73
    0
 40
0
  0
LTYPE
  2
_
 70
   64
  3
                                
 72
   65
 73
    0
 40
0
  0
LTYPE
  2
__18
 70
   64
  3
                                
 72
   65
 73
    0
 40
0
  0
LTYPE
  2
__19
 70
   64
  3
                                
 72
   65
 73
    0
 40
0
  0
LTYPE
  2
__20
 70
   64
  3
                                
 72
   65
 73
    0
 40
0
  0
LTYPE
  2
__21
 70
   64
  3
                                
 72
   65
 73
    0
 40
0
  0
LTYPE
  2
__22
 70
   64
  3
                                
 72
   65
 73
    0
 40
0
  0
LTYPE
  2
__23
 70
   64
  3
                                
 72
   65
 73
    0
 40
0
  0
LTYPE
  2
__24
 70
   64
  3
                                
 72
   65
 73
    0
 40
0
  0
LTYPE
  2
__25
 70
   64
  3
                                
 72
   65
 73
    0
 40
0
  0
LTYPE
  2
__26
 70
   64
  3
                                
 72
   65
 73
    0
 40
0
  0
LTYPE
  2
__27
 70
   64
  3
                                
 72
   65
 73
    0
 40
0
  0
LTYPE
  2
__28
 70
   64
  3
                                
 72
   65
 73
    0
 40
0
  0
LTYPE
  2
__29
 70
   64
  3
                                
 72
   65
 73
    0
 40
0
  0
LTYPE
  2
__30
 70
   64
  3
                                
 72
   65
 73
    0
 40
0
  0
LTYPE
  2
__31
 70
   64
  3
                                
 72
   65
 73
    0
 40
0
  0
LTYPE
  2
__32
 70
   64
  3
                                
 72
   65
 73
    0
 40
0
  0
ENDTAB
  0
TABLE
  2
STYLE
  5
3
100
AcDbSymbolTable
 70
     1
  0
STYLE
  5
10
100
AcDbSymbolTableRecord
100
AcDbTextStyleTableRecord
  2
STANDARD
 70
     0
 40
0.0
 41
1.0
 50
0.0
 71
     0
 42
0.2
  3
txt
  4
bigfont.shx
  0
STYLE
  5
26
100
AcDbSymbolTableRecord
100
AcDbTextStyleTableRecord
  2
TATEGAKI
 70
    68
 40
0.0
 41
1.0
 50
0.0
 71
     0
 42
1.0
  3
txt
  4
bigfont.shx
  0
ENDTAB
  0
TABLE
  2
LAYER
 70
   12
  0
LAYER
  2
_0-0_
 70
   64
 62
    7
  6
CONTINUOUS
  0
LAYER
  2
_0-2_
 70
   64
 62
    7
  6
CONTINUOUS
  0
LAYER
  2
_0-3_
 70
   64
 62
    7
  6
CONTINUOUS
  0
LAYER
  2
_1-2_
 70
   64
 62
    7
  6
CONTINUOUS
  0
LAYER
  2
_f-0_
 70
   64
 62
    7
  6
CONTINUOUS
  0
LAYER
  2
_f-7_
 70
   64
 62
    7
  6
CONTINUOUS
  0
LAYER
  2
_f-8_
 70
   64
 62
    7
  6
CONTINUOUS
  0
LAYER
  2
_f-9_
 70
   64
 62
    7
  6
CONTINUOUS
  0
LAYER
  2
_f-d_固定文字
 70
   64
 62
    7
  6
CONTINUOUS
  0
LAYER
  2
_f-e_
 70
   64
 62
    7
  6
CONTINUOUS
  0
LAYER
  2
_f-f_図面枠
 70
   64
 62
    7
  6
CONTINUOUS
  0
LAYER
  2
ADD_LINE
 70
   64
 62
    7
  6
CONTINUOUS
  0
ENDTAB
  0
ENDSEC
  0
SECTION
  2
BLOCKS
  0
ENDSEC
  0
SECTION
  2
ENTITIES
  0
LINE
  8
_0-0_
  6
CONTINUOUS
 62
    7
 10
923.00000000000022
 20
1199.8464566929133
 11
938.00000000000022
 21
1199.8464566929133
  0
LINE
  8
_0-0_
  6
CONTINUOUS
 62
    7
 10
938.00000000000022
 20
1664.8464566929133
 11
923.00000000000022
 21
1664.8464566929133
  0
LINE
  8
_0-0_
  6
DASHED2
 62
    7
 10
950.50000000000011
 20
1679.8464566929133
 11
950.50000000000011
 21
1199.8464566929133
  0
LINE
  8
_0-0_
  6
CONTINUOUS
 62
    7
 10
943
 20
1664.8464566929133
 11
958.00000000000022
 21
1664.8464566929133
  0
LINE
  8
_0-0_
  6
CONTINUOUS
 62
    7
 10
958.00000000000022
 20
1664.8464566929133
 11
958.00000000000022
 21
1199.8464566929133
  0
LINE
  8
_0-0_
  6
CONTINUOUS
 62
    7
 10
958.00000000000022
 20
1199.8464566929133
 11
943
 21
1199.8464566929133
  0
LINE
  8
_0-0_
  6
CONTINUOUS
 62
    7
 10
943
 20
1199.8464566929133
 11
943
 21
1664.8464566929133
  0
LINE
  8
_0-2_
  6
CONTINUOUS
 62
    2
 10
943
 20
1199.8464566929133
 11
913.00000000000011
 21
1199.8464566929133
  0
LINE
  8
_0-2_
  6
CONTINUOUS
 62
    2
 10
913.00000000000011
 20
1199.8464566929133
 11
913.00000000000011
 21
1214.8464566929133
  0
LINE
  8
_0-2_
  6
CONTINUOUS
 62
    2
 10
913.00000000000011
 20
1214.8464566929133
 11
943
 21
1214.8464566929133
  0
LINE
  8
_0-2_
  6
CONTINUOUS
 62
    2
 10
943
 20
1214.8464566929133
 11
943
 21
1199.8464566929133
  0
LINE
  8
ADD_LINE
  6
DOT
 62
    9
 10
104.98950000000004
 20
70
 11
104.98950000000004
 21
45.5
  0
LINE
  8
ADD_LINE
  6
DOT
 62
    9
 10
104.98950000000004
 20
45.5
 11
125.98950000000004
 21
45.500000452204091
  0
LINE
  8
ADD_LINE
  6
DOT
 62
    9
 10
125.98950000000004
 20
70
 11
125.98950000000004
 21
45.500000452204091
  0
LINE
  8
ADD_LINE
  6
DOT
 62
    9
 10
105.01049999999995
 20
45.5
 11
84.020999999999901
 21
45.5
  0
LINE
  8
ADD_LINE
  6
DOT
 62
    9
 10
52.489500000000049
 20
38.5
 11
2901.4895000000001
 21
38.5
  0
LINE
  8
ADD_LINE
  6
DOT
 62
    9
 10
2891
 20
70
 11
2891
 21
45.500002261020853
  0
LINE
  8
ADD_LINE
  6
DOT
 62
    9
 10
2870
 20
70
 11
2870
 21
45.500002261020853
  0
LINE
  8
ADD_LINE
  6
DOT
 62
    9
 10
2849
 20
70
 11
2849
 21
45.500002261020853
  0
LINE
  8
ADD_LINE
  6
DOT
 62
    9
 10
2828
 20
70
 11
2828
 21
45.500002261020853
  0
LINE
  8
ADD_LINE
  6
DOT
 62
    9
 10
2807
 20
70
 11
2807
 21
45.500002261020853
  0
LINE
  8
ADD_LINE
  6
DOT
 62
    9
 10
2786
 20
70
 11
2786
 21
45.5
  0
LINE
  8
ADD_LINE
  6
DOT
 62
    9
 10
52.489500000000049
 20
2012.5
 11
52.489500000000049
 21
38.5
  0
LINE
  8
ADD_LINE
  6
DOT
 62
    9
 10
84.020999999999901
 20
45.5
 11
84.020999999999901
 21
2002
  0
LINE
  8
ADD_LINE
  6
DOT
 62
    9
 10
2901.4895000000001
 20
2012.5
 11
52.489500000000049
 21
2012.5
  0
LINE
  8
ADD_LINE
  6
DOT
 62
    9
 10
2901.4895000000001
 20
38.5
 11
2901.4895000000001
 21
2012.5
  0
LINE
  8
_f-9_
  6
CONTINUOUS
 62
    7
 10
441
 20
84
 11
441
 21
154
  0
LINE
  8
ADD_LINE
  6
DOT
 62
    9
 10
119
 20
84
 11
119
 21
154
  0
LINE
  8
ADD_LINE
  6
DOT
 62
    9
 10
427
 20
84
 11
427
 21
154
  0
LINE
  8
_f-9_
  6
CONTINUOUS
 62
    7
 10
119
 20
84
 11
427
 21
84
  0
LINE
  8
_f-9_
  6
CONTINUOUS
 62
    7
 10
119
 20
154
 11
427
 21
154
  0
LINE
  8
_f-9_
  6
CONTINUOUS
 62
    7
 10
994
 20
84
 11
994
 21
154
  0
LINE
  8
_f-9_
  6
CONTINUOUS
 62
    7
 10
1547
 20
84
 11
1547
 21
154
  0
LINE
  8
_f-9_
  6
CONTINUOUS
 62
    7
 10
1554
 20
84
 11
1554
 21
154
  0
LINE
  8
_f-9_
  6
CONTINUOUS
 62
    7
 10
441
 20
84
 11
1547
 21
84
  0
LINE
  8
_f-9_
  6
CONTINUOUS
 62
    7
 10
441
 20
154
 11
1547
 21
154
  0
LINE
  8
_f-9_
  6
CONTINUOUS
 62
    7
 10
1897
 20
84
 11
1897
 21
154
  0
LINE
  8
_f-9_
  6
CONTINUOUS
 62
    7
 10
1904
 20
84
 11
1904
 21
154
  0
LINE
  8
_f-9_
  6
CONTINUOUS
 62
    7
 10
1554
 20
84
 11
1897
 21
84
  0
LINE
  8
_f-9_
  6
CONTINUOUS
 62
    7
 10
1554
 20
154
 11
1897
 21
154
  0
LINE
  8
_f-9_
  6
CONTINUOUS
 62
    7
 10
2114
 20
84
 11
2114
 21
154
  0
LINE
  8
_f-9_
  6
CONTINUOUS
 62
    7
 10
2324
 20
84
 11
2324
 21
154
  0
LINE
  8
_f-9_
  6
CONTINUOUS
 62
    7
 10
2590
 20
84
 11
2590
 21
154
  0
LINE
  8
_f-9_
  6
CONTINUOUS
 62
    7
 10
1904
 20
84
 11
2877
 21
84
  0
LINE
  8
_f-9_
  6
CONTINUOUS
 62
    7
 10
2877
 20
84
 11
2877
 21
154
  0
LINE
  8
_f-9_
  6
CONTINUOUS
 62
    7
 10
1904
 20
154
 11
2877
 21
154
  0
LINE
  8
_f-f_図面枠
  6
CONTINUOUS
 62
  230
 10
2891
 20
2002
 11
2891
 21
70
  0
LINE
  8
_f-f_図面枠
  6
CONTINUOUS
 62
  230
 10
105
 20
2002
 11
2891
 21
2002
  0
LINE
  8
_f-f_図面枠
  6
CONTINUOUS
 62
  230
 10
105
 20
70
 11
2891
 21
70
  0
LINE
  8
_f-f_図面枠
  6
CONTINUOUS
 62
  230
 10
105
 20
70
 11
105
 21
2002
  0
LINE
  8
ADD_LINE
  6
DOT
 62
    9
 10
441
 20
140
 11
1547
 21
140
  0
LINE
  8
ADD_LINE
  6
DOT
 62
    9
 10
1904
 20
140
 11
2877
 21
140
  0
LINE
  8
ADD_LINE
  6
DOT
 62
    9
 10
1918
 20
84
 11
1918
 21
154
  0
LINE
  8
ADD_LINE
  6
DOT
 62
    9
 10
2128
 20
84
 11
2128
 21
154
  0
LINE
  8
ADD_LINE
  6
DOT
 62
    9
 10
2338
 20
84
 11
2338
 21
154
  0
LINE
  8
ADD_LINE
  6
DOT
 62
    9
 10
2604
 20
84
 11
2604
 21
154
  0
LINE
  8
ADD_LINE
  6
DOT
 62
    9
 10
1011.5
 20
84
 11
1011.5
 21
154
  0
LINE
  8
ADD_LINE
  6
DOT
 62
    9
 10
458.5
 20
84
 11
458.5
 21
154
  0
LINE
  8
ADD_LINE
  6
DOT
 62
    9
 10
2562
 20
84
 11
2562
 21
154
  0
LINE
  8
ADD_LINE
  6
DOT
 62
    9
 10
1904
 20
112
 11
2877
 21
112
  0
TEXT
  8
_f-8_
 62
    7
 10
2128
 20
131.25
 40
17.5
 41
0.64
 50
0
  1
ＤＡＴＡ
  0
TEXT
  8
_f-8_
 62
    7
 10
2338
 20
131.25
 40
17.5
 41
0.64
 50
0
  1
ＣＨＥＣＫＥＤ
  0
TEXT
  8
_f-8_
 62
    7
 10
2604
 20
131.25
 40
17.5
 41
0.64
 50
0
  1
ＳＨＥＥＴ　ＮＯ．
  0
TEXT
  8
_f-8_
 62
    7
 10
2479.4
 20
131.25
 40
17.5
 41
0.64
 50
0
  1
ＤＲＡＷＩＮＧ
  0
LINE
  8
ADD_LINE
  6
DOT
 62
    9
 10
94.5
 20
45.5
 11
94.5
 21
2002
  0
LINE
  8
_f-9_
  6
CONTINUOUS
 62
    7
 10
119
 20
119
 11
427
 21
119
  0
LINE
  8
ADD_LINE
  6
DOT
 62
    9
 10
2037
 20
84
 11
2037
 21
154
  0
LINE
  8
ADD_LINE
  6
DOT
 62
    9
 10
2219
 20
84
 11
2219
 21
154
  0
LINE
  8
ADD_LINE
  6
DOT
 62
    9
 10
2450
 20
154
 11
2450
 21
84
  0
LINE
  8
ADD_LINE
  6
DOT
 62
    9
 10
441
 20
112
 11
1547
 21
112
  0
LINE
  8
ADD_LINE
  6
DOT
 62
    9
 10
717.5
 20
154
 11
717.5
 21
84
  0
TEXT
  8
_f-8_
 62
    7
 10
1918.2617888597947
 20
131.22856109639488
 40
17.5
 41
0.64
 50
0
  1
ＳＣＡＬＥ
  0
TEXT
  8
_f-8_
 62
    7
 10
1011.5
 20
131.25
 40
17.5
 41
0.8
 50
0
  1
図面名称
  0
TEXT
  8
_f-8_
 62
    7
 10
458.5
 20
131.25
 40
17.5
 41
0.8
 50
0
  1
名　称
  0
LINE
  8
ADD_LINE
  6
DOT
 62
    9
 10
1270.5
 20
84
 11
1270.5
 21
154
  0
LINE
  8
_f-8_
  6
CONTINUOUS
 62
    7
 10
1515.5
 20
2010.3999999999998
 11
1516.305
 21
2011.8000000000001
  0
LINE
  8
_f-8_
  6
CONTINUOUS
 62
    7
 10
1511.048
 20
2013.8999999999998
 11
1515.5
 21
2006.2000000000002
  0
LINE
  8
_f-8_
  6
CONTINUOUS
 62
    7
 10
1515.5
 20
2006.2000000000002
 11
1519.9449999999999
 21
2013.8999999999998
  0
LINE
  8
_f-8_
  6
CONTINUOUS
 62
    7
 10
1515.5
 20
2002
 11
1523.5779999999999
 21
2016
  0
LINE
  8
_f-8_
  6
CONTINUOUS
 62
    7
 10
1507.4149999999999
 20
2016
 11
1515.5
 21
2002
  0
LINE
  8
_f-8_
  6
CONTINUOUS
 62
    7
 10
1523.5779999999999
 20
2016
 11
1507.4149999999999
 21
2016
  0
LINE
  8
_f-8_
  6
CONTINUOUS
 62
    7
 10
1514.6880000000001
 20
2011.8000000000001
 11
1515.5
 21
2010.3999999999998
  0
LINE
  8
_f-8_
  6
CONTINUOUS
 62
    7
 10
1516.305
 20
2011.8000000000001
 11
1514.6880000000001
 21
2011.8000000000001
  0
LINE
  8
_f-8_
  6
CONTINUOUS
 62
    7
 10
1519.9449999999999
 20
2013.8999999999998
 11
1511.048
 21
2013.8999999999998
  0
LINE
  8
_f-7_
  6
CONTINUOUS
 62
    7
 10
84
 20
1023.8756443470178
 11
84
 21
1048.1243556529821
  0
LINE
  8
_f-7_
  6
CONTINUOUS
 62
    7
 10
84
 20
1048.1243556529821
 11
105
 21
1036
  0
LINE
  8
_f-7_
  6
CONTINUOUS
 62
    7
 10
105
 20
1036
 11
84
 21
1023.8756443470178
  0
LINE
  8
_f-7_
  6
CONTINUOUS
 62
    7
 10
87.5
 20
1029.9378221735089
 11
87.5
 21
1042.062177826491
  0
LINE
  8
_f-7_
  6
CONTINUOUS
 62
    7
 10
87.5
 20
1042.062177826491
 11
98
 21
1036
  0
LINE
  8
_f-7_
  6
CONTINUOUS
 62
    7
 10
98
 20
1036
 11
87.5
 21
1029.9378221735089
  0
LINE
  8
_f-7_
  6
CONTINUOUS
 62
    7
 10
90.29999999999984
 20
1034.7875644347016
 11
90.29999999999984
 21
1037.2124355652983
  0
LINE
  8
_f-7_
  6
CONTINUOUS
 62
    7
 10
90.29999999999984
 20
1037.2124355652983
 11
92.400000000000318
 21
1036
  0
LINE
  8
_f-7_
  6
CONTINUOUS
 62
    7
 10
92.400000000000318
 20
1036
 11
90.29999999999984
 21
1034.7875644347016
  0
LINE
  8
_f-7_
  6
CONTINUOUS
 62
    7
 10
2912
 20
1023.8756443470178
 11
2912
 21
1048.1243556529821
  0
LINE
  8
_f-7_
  6
CONTINUOUS
 62
    7
 10
2912
 20
1048.1243556529821
 11
2891
 21
1036
  0
LINE
  8
_f-7_
  6
CONTINUOUS
 62
    7
 10
2891
 20
1036
 11
2912
 21
1023.8756443470178
  0
LINE
  8
_f-7_
  6
CONTINUOUS
 62
    7
 10
2908.5
 20
1029.9378221735089
 11
2908.5
 21
1042.062177826491
  0
LINE
  8
_f-7_
  6
CONTINUOUS
 62
    7
 10
2908.5
 20
1042.062177826491
 11
2898
 21
1036
  0
LINE
  8
_f-7_
  6
CONTINUOUS
 62
    7
 10
2898
 20
1036
 11
2908.5
 21
1029.9378221735089
  0
LINE
  8
_f-7_
  6
CONTINUOUS
 62
    7
 10
2905.7000000000002
 20
1034.7875644347016
 11
2905.7000000000002
 21
1037.2124355652983
  0
LINE
  8
_f-7_
  6
CONTINUOUS
 62
    7
 10
2905.7000000000002
 20
1037.2124355652983
 11
2903.5999999999994
 21
1036
  0
LINE
  8
_f-7_
  6
CONTINUOUS
 62
    7
 10
2903.5999999999994
 20
1036
 11
2905.7000000000002
 21
1034.7875644347016
  0
LINE
  8
ADD_LINE
  6
DOT
 62
    9
 10
752.5
 20
154
 11
752.5
 21
84
  0
LINE
  8
ADD_LINE
  6
DOT
 62
    9
 10
1305.5
 20
84
 11
1305.5
 21
154
  0
TEXT
  8
_f-d_固定文字
 62
    7
 10
105.01049999999995
 20
45.5
 40
14
 41
1
 50
0
  1
%f
  0
LINE
  8
ADD_LINE
  6
DOT
 62
    9
 10
2786
 20
45.5
 11
2891
 21
45.500002261020853
  0
TEXT
  8
_f-d_固定文字
 62
    7
 10
2792.2999999999997
 20
45.500002261020853
 40
14
 41
1
 50
0
  1
%y
  0
TEXT
  8
_f-d_固定文字
 62
    7
 10
2814
 20
45.500002261020853
 40
14
 41
1
 50
0
  1
．
  0
TEXT
  8
_f-d_固定文字
 62
    7
 10
2834.2999999999997
 20
45.500002261020853
 40
14
 41
1
 50
0
  1
%m
  0
TEXT
  8
_f-d_固定文字
 62
    7
 10
2856
 20
45.500002261020853
 40
14
 41
1
 50
0
  1
．
  0
TEXT
  8
_f-d_固定文字
 62
    7
 10
2876.2999999999997
 20
45.500002261020853
 40
14
 41
1
 50
0
  1
%d
  0
LINE
  8
_0-0_
  6
CONTINUOUS
 62
    7
 10
2069.6929133858266
 20
506.46062992125985
 11
2081.692913385827
 21
506.46062992125985
  0
LINE
  8
_0-0_
  6
CONTINUOUS
 62
    7
 10
2081.692913385827
 20
506.46062992125985
 11
2081.692913385827
 21
646.46062992125996
  0
LINE
  8
_0-0_
  6
CONTINUOUS
 62
    7
 10
2081.692913385827
 20
646.46062992125996
 11
2069.6929133858266
 21
646.46062992125996
  0
LINE
  8
_0-0_
  6
CONTINUOUS
 62
    7
 10
2069.6929133858266
 20
646.46062992125996
 11
2069.6929133858266
 21
506.46062992125985
  0
LINE
  8
_0-0_
  6
CONTINUOUS
 62
    7
 10
2081.692913385827
 20
506.46062992125985
 11
2561.6929133858266
 21
506.46062992125985
  0
LINE
  8
_0-0_
  6
CONTINUOUS
 62
    7
 10
2561.6929133858266
 20
506.46062992125985
 11
2561.6929133858266
 21
556.46062992125985
  0
LINE
  8
_0-0_
  6
CONTINUOUS
 62
    7
 10
2561.6929133858266
 20
556.46062992125985
 11
2081.692913385827
 21
556.46062992125985
  0
LINE
  8
_0-0_
  6
CONTINUOUS
 62
    7
 10
2081.692913385827
 20
556.46062992125985
 11
2081.692913385827
 21
506.46062992125985
  0
LINE
  8
_0-0_
  6
CONTINUOUS
 62
    7
 10
500.50000000000022
 20
646.46062992125996
 11
500.50000000000022
 21
506.46062992125985
  0
LINE
  8
_1-2_
  6
CONTINUOUS
 62
    4
 10
1216.9432146438016
 20
319.88951268363302
 11
1216.9432146438016
 21
368.88951268363302
  0
LINE
  8
_1-2_
  6
CONTINUOUS
 62
    4
 10
1216.9432146438016
 20
368.88951268363302
 11
1041.9432146438016
 21
368.88951268363302
  0
LINE
  8
_1-2_
  6
CONTINUOUS
 62
    4
 10
1041.9432146438016
 20
319.88951268363302
 11
1216.9432146438016
 21
319.88951268363302
  0
LINE
  8
_1-2_
  6
CONTINUOUS
 62
    4
 10
1041.9432146438016
 20
368.88951268363302
 11
1041.9432146438016
 21
319.88951268363302
  0
LINE
  8
ADD_LINE
  6
DOT
 62
    9
 10
1216.9432146438011
 20
344.38951268363302
 11
1041.9432146438011
 21
344.38951268363302
  0
LINE
  8
ADD_LINE
  6
DOT
 62
    9
 10
1129.4432146438011
 20
319.88951268363302
 11
1129.4432146438011
 21
368.88951268363302
  0
TEXT
  8
_1-2_
 62
    7
 10
1096.5432146438015
 20
332.13951268363302
 40
24.5
 41
0.857142857142857
 50
0
  1
立面図
  0
LINE
  8
_0-0_
  6
CONTINUOUS
 62
    7
 10
1845.4999999999997
 20
1199.8464566929133
 11
500.50000000000022
 21
1199.8464566929133
  0
LINE
  8
_0-0_
  6
CONTINUOUS
 62
    7
 10
500.50000000000022
 20
1199.8464566929133
 11
500.50000000000022
 21
1187.8464566929135
  0
LINE
  8
_0-0_
  6
CONTINUOUS
 62
    7
 10
500.50000000000022
 20
1199.8464566929133
 11
515.50000000000022
 21
1199.8464566929133
  0
LINE
  8
_0-0_
  6
CONTINUOUS
 62
    7
 10
515.50000000000022
 20
1199.8464566929133
 11
515.50000000000022
 21
1679.8464566929133
  0
LINE
  8
_0-0_
  6
CONTINUOUS
 62
    7
 10
515.50000000000022
 20
1679.8464566929133
 11
500.50000000000022
 21
1679.8464566929133
  0
LINE
  8
_0-0_
  6
CONTINUOUS
 62
    7
 10
500.50000000000022
 20
1679.8464566929133
 11
500.50000000000022
 21
1199.8464566929133
  0
LINE
  8
_0-0_
  6
CONTINUOUS
 62
    7
 10
1830.5
 20
1664.8464566929133
 11
515.50000000000022
 21
1664.8464566929133
  0
LINE
  8
_0-0_
  6
CONTINUOUS
 62
    7
 10
515.50000000000022
 20
1664.8464566929133
 11
515.50000000000022
 21
1679.8464566929133
  0
LINE
  8
_0-2_
  6
CONTINUOUS
 62
    2
 10
515.50000000000022
 20
1664.8464566929133
 11
540.20000000000027
 21
1664.8464566929133
  0
LINE
  8
_0-2_
  6
CONTINUOUS
 62
    2
 10
540.20000000000027
 20
1664.8464566929133
 11
540.20000000000027
 21
1660.8464566929133
  0
LINE
  8
_0-2_
  6
CONTINUOUS
 62
    2
 10
540.20000000000027
 20
1660.8464566929133
 11
515.50000000000022
 21
1660.8464566929133
  0
LINE
  8
_0-2_
  6
CONTINUOUS
 62
    2
 10
515.50000000000022
 20
1660.8464566929133
 11
515.50000000000022
 21
1664.8464566929133
  0
LINE
  8
_0-2_
  6
CONTINUOUS
 62
    5
 10
540.90609665441002
 20
1200.5535634740999
 11
516.15735931288088
 21
1225.3023008156292
  0
LINE
  8
_0-2_
  6
CONTINUOUS
 62
    5
 10
540.90609665441002
 20
1200.5535634740999
 11
540.19898987322335
 21
1199.8464566929133
  0
LINE
  8
_0-2_
  6
CONTINUOUS
 62
    5
 10
516.15735931288088
 20
1225.3023008156292
 11
515.45025253169421
 21
1224.5951940344425
  0
LINE
  8
_0-2_
  6
CONTINUOUS
 62
    5
 10
520.40000000000009
 20
1199.8464566929135
 11
515.45025253169421
 21
1204.7962041612195
  0
LINE
  8
_0-2_
  6
CONTINUOUS
 62
    5
 10
515.45025253169421
 20
1224.5951940344425
 11
515.45025253169421
 21
1204.7962041612195
  0
LINE
  8
_0-2_
  6
CONTINUOUS
 62
    5
 10
540.19898987322335
 20
1199.8464566929133
 11
520.40000000000009
 21
1199.8464566929133
  0
LINE
  8
_0-2_
  6
CONTINUOUS
 62
    7
 10
520.40000000000009
 20
1199.8464566929133
 11
515.50000000000022
 21
1199.8464566929133
  0
LINE
  8
_0-2_
  6
CONTINUOUS
 62
    5
 10
516.15836943965769
 20
1635.3906125701976
 11
540.90710678118693
 21
1660.1393499117268
  0
LINE
  8
_0-2_
  6
CONTINUOUS
 62
    5
 10
516.15836943965769
 20
1635.3906125701976
 11
515.4512626584709
 21
1636.0977193513842
  0
LINE
  8
_0-2_
  6
CONTINUOUS
 62
    5
 10
540.90710678118693
 20
1660.1393499117268
 11
540.20000000000027
 21
1660.8464566929133
  0
LINE
  8
_0-2_
  6
CONTINUOUS
 62
    5
 10
515.45126265847102
 20
1655.8967092246075
 11
520.401010126777
 21
1660.8464566929133
  0
LINE
  8
_0-2_
  6
CONTINUOUS
 62
    5
 10
540.20000000000027
 20
1660.8464566929133
 11
520.401010126777
 21
1660.8464566929133
  0
LINE
  8
_0-2_
  6
CONTINUOUS
 62
    5
 10
515.4512626584709
 20
1636.0977193513842
 11
515.4512626584709
 21
1655.8967092246075
  0
LINE
  8
ADD_LINE
  6
DOT
 62
    9
 10
2891
 20
2002
 11
2880.5
 21
2002
  0
LINE
  8
ADD_LINE
  6
DOT
 62
    9
 10
2880.5
 20
2002
 11
2880.5
 21
1991.5
  0
LINE
  8
ADD_LINE
  6
DOT
 62
    9
 10
2880.5
 20
1991.5
 11
2891
 21
1991.5
  0
LINE
  8
ADD_LINE
  6
DOT
 62
    9
 10
2891
 20
1991.5
 11
2891
 21
2002
  0
LINE
  8
ADD_LINE
  6
DOT
 62
    9
 10
2880.5
 20
2002
 11
2880.5
 21
1991.5
  0
LINE
  8
_1-2_
  6
CONTINUOUS
 62
    7
 10
2880.5
 20
1949.5
 11
2180.5
 21
1949.5
  0
LINE
  8
_1-2_
  6
CONTINUOUS
 62
    7
 10
2880.5
 20
1953
 11
2180.5
 21
1953
  0
LINE
  8
_1-2_
  6
CONTINUOUS
 62
    7
 10
2880.5
 20
1911.6999999999998
 11
2180.5
 21
1911.6999999999998
  0
LINE
  8
_1-2_
  6
CONTINUOUS
 62
    3
 10
2880.5
 20
1991.5
 11
2180.5
 21
1991.5
  0
LINE
  8
ADD_LINE
  6
DOT
 62
    9
 10
2180.5
 20
1972.25
 11
2880.5
 21
1972.25
  0
LINE
  8
ADD_LINE
  6
DOT
 62
    9
 10
2180.5
 20
1930.5999999999996
 11
2880.5
 21
1930.5999999999996
  0
LINE
  8
ADD_LINE
  6
DOT
 62
    9
 10
2180.5
 20
1892.7999999999994
 11
2880.5
 21
1892.7999999999994
  0
LINE
  8
ADD_LINE
  6
DOT
 62
    9
 10
2560.2503500000007
 20
1953
 11
2560.2503500000007
 21
1991.5
  0
LINE
  8
_1-2_
  6
CONTINUOUS
 62
    3
 10
2180.5
 20
1991.5
 11
2180.5
 21
1873.8999999999996
  0
LINE
  8
_1-2_
  6
CONTINUOUS
 62
    3
 10
2880.5
 20
1873.8999999999996
 11
2880.5
 21
1991.5
  0
LINE
  8
_1-2_
  6
CONTINUOUS
 62
    7
 10
2327.5
 20
1949.5
 11
2327.5
 21
1873.8999999999996
  0
LINE
  8
ADD_LINE
  6
DOT
 62
    9
 10
2254
 20
1949.5
 11
2254
 21
1873.8999999999996
  0
LINE
  8
ADD_LINE
  6
DOT
 62
    9
 10
2341.5
 20
1991.5
 11
2341.5
 21
1873.8999999999996
  0
LINE
  8
_1-2_
  6
CONTINUOUS
 62
    3
 10
2880.5
 20
1873.8999999999996
 11
2180.5
 21
1873.8999999999996
  0
TEXT
  8
_1-2_
 62
    7
 10
2211.8950000000004
 20
1918.3499999999996
 40
24.5
 41
0.857142857142857
 50
0
  1
側　　板
  0
TEXT
  8
_1-2_
 62
    7
 10
2341.5
 20
1918.3499999999996
 40
24.5
 41
0.7714285714285714
 50
0
  1
低圧メラミン化粧パーティクルボード　１５ｔ
  0
TEXT
  8
_1-2_
 62
    7
 10
2341.5
 20
1880.5499999999994
 40
24.5
 41
0.7714285714285714
 50
0
  1
片面化粧パーティクルボード　１２ｔ
  0
TEXT
  8
_1-2_
 62
    7
 10
2211.8950000000004
 20
1880.5499999999994
 40
24.5
 41
0.857142857142857
 50
0
  1
前　　板
  0
TEXT
  8
_1-2_
 62
    7
 10
2341.5
 20
1960
 40
24.5
 41
0.857142857142857
 50
0
  1
仕　　　　様
  0
LINE
  8
_1-2_
  6
CONTINUOUS
 62
    4
 10
1216.9432146438016
 20
1028.8464566929133
 11
1041.9432146438016
 21
1028.8464566929133
  0
LINE
  8
_1-2_
  6
CONTINUOUS
 62
    4
 10
1041.9432146438016
 20
1028.8464566929133
 11
1041.9432146438016
 21
1077.8464566929133
  0
LINE
  8
_1-2_
  6
CONTINUOUS
 62
    4
 10
1041.9432146438016
 20
1077.8464566929133
 11
1216.9432146438016
 21
1077.8464566929133
  0
LINE
  8
_1-2_
  6
CONTINUOUS
 62
    4
 10
1216.9432146438016
 20
1077.8464566929133
 11
1216.9432146438016
 21
1028.8464566929133
  0
TEXT
  8
_1-2_
 62
    7
 10
1096.5432146438017
 20
1041.0964566929133
 40
24.5
 41
0.857142857142857
 50
0
  1
平面図
  0
LINE
  8
ADD_LINE
  6
DOT
 62
    9
 10
1041.943214643802
 20
1053.3464566929133
 11
1216.943214643802
 21
1053.3464566929133
  0
LINE
  8
ADD_LINE
  6
DOT
 62
    9
 10
1129.443214643802
 20
1028.8464566929133
 11
1129.443214643802
 21
1077.8464566929133
  0
LINE
  8
ADD_LINE
  6
DOT
 62
    9
 10
515.50000000000022
 20
1709.8464566929133
 11
1830.5
 21
1709.8464566929133
  0
LINE
  8
ADD_LINE
  6
DOT
 62
    9
 10
1845.4999999999997
 20
676.46062992126007
 11
500.50000000000022
 21
676.46062992126007
  0
LINE
  8
ADD_LINE
  6
DOT
 62
    9
 10
470.50000000000022
 20
1679.8464566929133
 11
470.50000000000022
 21
1199.8464566929133
  0
LINE
  8
ADD_LINE
  6
DOT
 62
    9
 10
470.50000000000022
 20
646.46062992125996
 11
470.50000000000022
 21
506.46062992125985
  0
LINE
  8
ADD_LINE
  6
DOT
 62
    9
 10
258.7371244635193
 20
736.46062992125985
 11
390.34763948497851
 21
736.46062992125985
  0
LINE
  8
ADD_LINE
  6
DOT
 62
    9
 10
258.7371244635193
 20
796.46062992125996
 11
390.34763948497851
 21
796.46062992125996
  0
LINE
  8
ADD_LINE
  6
DOT
 62
    9
 10
258.7371244635193
 20
1769.8464566929135
 11
390.34763948497851
 21
1769.8464566929135
  0
LINE
  8
ADD_LINE
  6
DOT
 62
    9
 10
258.7371244635193
 20
1829.8464566929135
 11
390.34763948497851
 21
1829.8464566929135
  0
LINE
  8
ADD_LINE
  6
DOT
 62
    9
 10
410.50000000000017
 20
426.06115879828331
 11
410.50000000000017
 21
332.37231759656651
  0
LINE
  8
ADD_LINE
  6
DOT
 62
    9
 10
350.50000000000011
 20
426.06115879828331
 11
350.50000000000011
 21
332.37231759656651
  0
POINT
  8
_0-3_
 62
    3
 10
500.50000000000022
 20
1769.8464566929135
  0
LINE
  8
_0-3_
  6
CONTINUOUS
 62
    4
 10
500.50000000000022
 20
1776.8464566929135
 11
500.50000000000022
 21
1709.8464566929133
  0
POINT
  8
_0-3_
 62
    3
 10
500.50000000000022
 20
796.46062992125996
  0
LINE
  8
_0-3_
  6
CONTINUOUS
 62
    4
 10
500.50000000000022
 20
803.46062992125996
 11
500.50000000000022
 21
676.46062992126007
  0
POINT
  8
_0-3_
 62
    3
 10
410.50000000000017
 20
506.46062992125985
  0
POINT
  8
_0-3_
 62
    3
 10
410.50000000000017
 20
556.46062992125985
  0
LINE
  8
_0-3_
  6
CONTINUOUS
 62
    4
 10
403.50000000000017
 20
506.46062992125985
 11
470.50000000000022
 21
506.46062992125985
  0
LINE
  8
_0-3_
  6
CONTINUOUS
 62
    4
 10
403.50000000000017
 20
556.46062992125985
 11
470.50000000000022
 21
556.46062992125985
  0
LINE
  8
_0-3_
  6
CONTINUOUS
 62
    4
 10
410.50000000000017
 20
506.46062992125985
 11
410.50000000000017
 21
556.46062992125985
  0
TEXT
  8
_0-3_
 62
    7
 10
407.00000000000017
 20
516.0256299212599
 40
24.5
 41
0.6285714285714286
 50
90
  1
５０
  0
POINT
  8
_0-3_
 62
    3
 10
350.50000000000011
 20
506.46062992125985
  0
POINT
  8
_0-3_
 62
    3
 10
350.50000000000011
 20
646.46062992125996
  0
LINE
  8
_0-3_
  6
CONTINUOUS
 62
    4
 10
343.50000000000011
 20
506.46062992125985
 11
470.50000000000022
 21
506.46062992125985
  0
LINE
  8
_0-3_
  6
CONTINUOUS
 62
    4
 10
343.50000000000011
 20
646.46062992125996
 11
470.50000000000022
 21
646.46062992125996
  0
LINE
  8
_0-3_
  6
CONTINUOUS
 62
    4
 10
350.50000000000011
 20
506.46062992125985
 11
350.50000000000011
 21
646.46062992125996
  0
TEXT
  8
_0-3_
 62
    7
 10
347.00000000000011
 20
553.29062992125989
 40
24.5
 41
0.6285714285714286
 50
90
  1
１４０
  0
POINT
  8
_0-3_
 62
    3
 10
2069.6929133858266
 20
736.46062992125985
  0
POINT
  8
_0-3_
 62
    3
 10
2081.692913385827
 20
736.46062992125985
  0
LINE
  8
_0-3_
  6
CONTINUOUS
 62
    4
 10
2069.6929133858266
 20
743.46062992125985
 11
2069.6929133858266
 21
676.46062992126007
  0
LINE
  8
_0-3_
  6
CONTINUOUS
 62
    4
 10
2081.692913385827
 20
743.46062992125985
 11
2081.692913385827
 21
676.46062992126007
  0
LINE
  8
_0-3_
  6
CONTINUOUS
 62
    4
 10
2069.6929133858266
 20
736.46062992125985
 11
2081.692913385827
 21
736.46062992125985
  0
TEXT
  8
_0-3_
 62
    7
 10
2086.1796295750518
 20
740.1140815819042
 40
24.5
 41
0.6285714285714286
 50
0
  1
１２
  0
LINE
  8
_0-3_
  6
CONTINUOUS
 62
    4
 10
2081.692913385827
 20
736.46062992125985
 11
2114.9269465269208
 21
736.46062992125985
  0
POINT
  8
_0-3_
 62
    3
 10
2069.6929133858266
 20
796.46062992125996
  0
POINT
  8
_0-3_
 62
    3
 10
2561.6929133858266
 20
796.46062992125996
  0
LINE
  8
_0-3_
  6
CONTINUOUS
 62
    4
 10
2069.6929133858266
 20
803.46062992125996
 11
2069.6929133858266
 21
676.46062992126007
  0
LINE
  8
_0-3_
  6
CONTINUOUS
 62
    4
 10
2561.6929133858266
 20
803.46062992125996
 11
2561.6929133858266
 21
676.46062992126007
  0
LINE
  8
_0-3_
  6
CONTINUOUS
 62
    4
 10
2069.6929133858266
 20
796.46062992125996
 11
2561.6929133858266
 21
796.46062992125996
  0
TEXT
  8
_0-3_
 62
    7
 10
2292.5229133858265
 20
799.96062992125996
 40
24.5
 41
0.6285714285714286
 50
0
  1
４９２
  0
LINE
  8
_1-2_
  6
CONTINUOUS
 62
    4
 10
2403.192913385827
 20
319.88951268363302
 11
2403.192913385827
 21
368.88951268363302
  0
LINE
  8
_1-2_
  6
CONTINUOUS
 62
    4
 10
2228.192913385827
 20
319.88951268363302
 11
2403.192913385827
 21
319.88951268363302
  0
LINE
  8
_1-2_
  6
CONTINUOUS
 62
    4
 10
2228.192913385827
 20
368.88951268363302
 11
2228.192913385827
 21
319.88951268363302
  0
LINE
  8
ADD_LINE
  6
DOT
 62
    9
 10
2403.1929133858266
 20
344.38951268363302
 11
2228.1929133858261
 21
344.38951268363302
  0
LINE
  8
ADD_LINE
  6
DOT
 62
    9
 10
2315.6929133858266
 20
319.88951268363302
 11
2315.6929133858266
 21
368.88951268363302
  0
TEXT
  8
_1-2_
 62
    7
 10
2282.7929133858269
 20
332.13951268363302
 40
24.5
 41
0.857142857142857
 50
0
  1
断面図
  0
LINE
  8
_1-2_
  6
CONTINUOUS
 62
    4
 10
2403.192913385827
 20
368.88951268363302
 11
2228.192913385827
 21
368.88951268363302
  0
TEXT
  8
_f-8_
 62
    7
 10
2002.7000000000002
 20
99.75
 40
24.5
 41
0.5714285714285713
 50
0
  1
１／７
  0
TEXT
  8
_0-3_
 62
    7
 10
579.95600858369107
 20
95.919527896995703
 40
31.5
 41
0.8
 50
0
  1
高さ調整用　台輪
  0
TEXT
  8
_0-3_
 62
    7
 10
1088.5525751072959
 20
95.919527896995703
 40
31.5
 41
0.6666666666666666
 50
0
  1
ＫＴＢ５－８０－１３５台輪
  0
TEXT
  8
_f-8_
 62
    7
 10
2139.206008583691
 20
99.75
 40
24.5
 41
0.5714285714285713
 50
0
  1
２０２３.０５.０１
  0
TEXT
  8
_f-8_
 62
    7
 10
2511.730686695279
 20
99.75
 40
24.5
 41
0.5714285714285713
 50
0
  1
Ｔ．Ｋ
  0
LINE
  8
_0-0_
  6
CONTINUOUS
 62
    7
 10
1849.5000000000004
 20
1199.8464566929133
 11
1834.5000000000002
 21
1199.8464566929133
  0
LINE
  8
_0-0_
  6
CONTINUOUS
 62
    7
 10
1834.5000000000002
 20
1199.8464566929133
 11
1834.5000000000002
 21
1679.8464566929133
  0
LINE
  8
_0-0_
  6
CONTINUOUS
 62
    7
 10
1834.5000000000002
 20
1679.8464566929133
 11
1849.5000000000004
 21
1679.8464566929133
  0
LINE
  8
_0-0_
  6
CONTINUOUS
 62
    7
 10
1849.5000000000004
 20
1679.8464566929133
 11
1849.5000000000004
 21
1199.8464566929133
  0
LINE
  8
_0-0_
  6
CONTINUOUS
 62
    7
 10
1834.5000000000002
 20
1679.8464566929133
 11
1834.5000000000002
 21
1664.8464566929133
  0
LINE
  8
_0-2_
  6
CONTINUOUS
 62
    2
 10
1834.5000000000002
 20
1664.8464566929133
 11
1809.8000000000004
 21
1664.8464566929133
  0
LINE
  8
_0-2_
  6
CONTINUOUS
 62
    2
 10
1809.8000000000004
 20
1664.8464566929133
 11
1809.8000000000004
 21
1660.8464566929133
  0
LINE
  8
_0-2_
  6
CONTINUOUS
 62
    2
 10
1809.8000000000004
 20
1660.8464566929133
 11
1834.5000000000002
 21
1660.8464566929133
  0
LINE
  8
_0-2_
  6
CONTINUOUS
 62
    2
 10
1834.5000000000002
 20
1660.8464566929133
 11
1834.5000000000002
 21
1664.8464566929133
  0
LINE
  8
_0-2_
  6
CONTINUOUS
 62
    5
 10
1833.8426406871194
 20
1225.3023008156292
 11
1809.0939033455904
 21
1200.5535634740999
  0
LINE
  8
_0-2_
  6
CONTINUOUS
 62
    5
 10
1833.8426406871194
 20
1225.3023008156292
 11
1834.5497474683061
 21
1224.5951940344425
  0
LINE
  8
_0-2_
  6
CONTINUOUS
 62
    5
 10
1809.0939033455904
 20
1200.5535634740999
 11
1809.8010101267768
 21
1199.8464566929133
  0
LINE
  8
_0-2_
  6
CONTINUOUS
 62
    5
 10
1834.5497474683061
 20
1204.7962041612192
 11
1829.6000000000003
 21
1199.8464566929133
  0
LINE
  8
_0-2_
  6
CONTINUOUS
 62
    5
 10
1809.8010101267768
 20
1199.8464566929133
 11
1829.6000000000003
 21
1199.8464566929133
  0
LINE
  8
_0-2_
  6
CONTINUOUS
 62
    5
 10
1834.5497474683061
 20
1224.5951940344425
 11
1834.5497474683061
 21
1204.7962041612192
  0
LINE
  8
_0-2_
  6
CONTINUOUS
 62
    7
 10
1829.6000000000003
 20
1199.8464566929133
 11
1834.5000000000002
 21
1199.8464566929133
  0
LINE
  8
_0-2_
  6
CONTINUOUS
 62
    5
 10
1809.0928932188135
 20
1660.1393499117268
 11
1833.8416305603429
 21
1635.3906125701976
  0
LINE
  8
_0-2_
  6
CONTINUOUS
 62
    5
 10
1809.0928932188135
 20
1660.1393499117268
 11
1809.7999999999999
 21
1660.8464566929133
  0
LINE
  8
_0-2_
  6
CONTINUOUS
 62
    5
 10
1833.8416305603429
 20
1635.3906125701976
 11
1834.5487373415294
 21
1636.0977193513842
  0
LINE
  8
_0-2_
  6
CONTINUOUS
 62
    5
 10
1829.5989898732234
 20
1660.8464566929133
 11
1834.5487373415294
 21
1655.8967092246075
  0
LINE
  8
_0-2_
  6
CONTINUOUS
 62
    5
 10
1834.5487373415294
 20
1636.0977193513842
 11
1834.5487373415294
 21
1655.8967092246075
  0
LINE
  8
_0-2_
  6
CONTINUOUS
 62
    5
 10
1809.8000000000004
 20
1660.8464566929133
 11
1829.5989898732234
 21
1660.8464566929133
  0
POINT
  8
_0-3_
 62
    3
 10
1849.5000000000004
 20
1769.8464566929135
  0
LINE
  8
_0-3_
  6
CONTINUOUS
 62
    4
 10
1849.5000000000004
 20
1776.8464566929135
 11
1849.5000000000004
 21
1709.8464566929133
  0
POINT
  8
_0-3_
 62
    3
 10
1849.5000000000004
 20
796.46062992125996
  0
LINE
  8
_0-3_
  6
CONTINUOUS
 62
    4
 10
1849.5000000000004
 20
803.46062992125996
 11
1849.5000000000004
 21
676.46062992126007
  0
POINT
  8
_0-3_
 62
    3
 10
500.50000000000022
 20
796.46062992125996
  0
POINT
  8
_0-3_
 62
    3
 10
1849.5000000000004
 20
796.46062992125996
  0
LINE
  8
_0-3_
  6
CONTINUOUS
 62
    4
 10
500.50000000000022
 20
803.46062992125996
 11
500.50000000000022
 21
676.46062992126007
  0
LINE
  8
_0-3_
  6
CONTINUOUS
 62
    4
 10
1849.5000000000004
 20
803.46062992125996
 11
1849.5000000000004
 21
676.46062992126007
  0
LINE
  8
_0-3_
  6
CONTINUOUS
 62
    4
 10
500.50000000000022
 20
796.46062992125996
 11
1849.5000000000004
 21
796.46062992125996
  0
TEXT
  8
_0-3_
 62
    7
 10
1136.3600000000001
 20
799.96062992125996
 40
24.5
 41
0.6285714285714286
 50
0
  1
１，３４９
  0
LINE
  8
_0-0_
  6
CONTINUOUS
 62
    7
 10
1412.0000000000002
 20
1664.8464566929133
 11
1427.0000000000002
 21
1664.8464566929133
  0
LINE
  8
_0-0_
  6
CONTINUOUS
 62
    7
 10
1427.0000000000002
 20
1199.8464566929133
 11
1412.0000000000002
 21
1199.8464566929133
  0
LINE
  8
_0-0_
  6
DASHED2
 62
    7
 10
1399.5
 20
1679.8464566929133
 11
1399.5
 21
1199.8464566929133
  0
LINE
  8
_0-0_
  6
CONTINUOUS
 62
    7
 10
1392.0000000000002
 20
1664.8464566929133
 11
1407.0000000000002
 21
1664.8464566929133
  0
LINE
  8
_0-0_
  6
CONTINUOUS
 62
    7
 10
1407.0000000000002
 20
1664.8464566929133
 11
1407.0000000000002
 21
1199.8464566929133
  0
LINE
  8
_0-0_
  6
CONTINUOUS
 62
    7
 10
1407.0000000000002
 20
1199.8464566929133
 11
1392.0000000000002
 21
1199.8464566929133
  0
LINE
  8
_0-0_
  6
CONTINUOUS
 62
    7
 10
1392.0000000000002
 20
1199.8464566929133
 11
1392.0000000000002
 21
1664.8464566929133
  0
LINE
  8
_0-2_
  6
CONTINUOUS
 62
    2
 10
1407.0000000000002
 20
1199.8464566929133
 11
1437.0000000000002
 21
1199.8464566929133
  0
LINE
  8
_0-2_
  6
CONTINUOUS
 62
    2
 10
1437.0000000000002
 20
1199.8464566929133
 11
1437.0000000000002
 21
1214.8464566929133
  0
LINE
  8
_0-2_
  6
CONTINUOUS
 62
    2
 10
1437.0000000000002
 20
1214.8464566929133
 11
1407.0000000000002
 21
1214.8464566929133
  0
LINE
  8
_0-2_
  6
CONTINUOUS
 62
    2
 10
1407.0000000000002
 20
1214.8464566929133
 11
1407.0000000000002
 21
1199.8464566929133
  0
POINT
  8
_0-3_
 62
    3
 10
500.50000000000022
 20
1769.8464566929135
  0
POINT
  8
_0-3_
 62
    3
 10
950.50000000000011
 20
1769.8464566929135
  0
LINE
  8
_0-3_
  6
CONTINUOUS
 62
    4
 10
500.50000000000022
 20
1776.8464566929135
 11
500.50000000000022
 21
1709.8464566929133
  0
LINE
  8
_0-3_
  6
CONTINUOUS
 62
    4
 10
950.50000000000011
 20
1776.8464566929135
 11
950.50000000000011
 21
1709.8464566929133
  0
LINE
  8
_0-3_
  6
CONTINUOUS
 62
    4
 10
500.50000000000022
 20
1769.8464566929135
 11
950.50000000000011
 21
1769.8464566929135
  0
TEXT
  8
_0-3_
 62
    7
 10
702.33000000000015
 20
1773.3464566929135
 40
24.5
 41
0.6285714285714286
 50
0
  1
４５０
  0
POINT
  8
_0-3_
 62
    3
 10
1399.5000000000002
 20
1769.8464566929135
  0
LINE
  8
_0-3_
  6
CONTINUOUS
 62
    4
 10
1399.5000000000002
 20
1776.8464566929135
 11
1399.5000000000002
 21
1709.8464566929133
  0
LINE
  8
_0-3_
  6
CONTINUOUS
 62
    4
 10
950.50000000000011
 20
1769.8464566929135
 11
1399.5000000000002
 21
1769.8464566929135
  0
TEXT
  8
_0-3_
 62
    7
 10
1151.8300000000001
 20
1773.3464566929135
 40
24.5
 41
0.6285714285714286
 50
0
  1
４４９
  0
POINT
  8
_0-3_
 62
    3
 10
1849.5000000000004
 20
1769.8464566929135
  0
LINE
  8
_0-3_
  6
CONTINUOUS
 62
    4
 10
1849.5000000000004
 20
1776.8464566929135
 11
1849.5000000000004
 21
1709.8464566929133
  0
LINE
  8
_0-3_
  6
CONTINUOUS
 62
    4
 10
1399.5000000000002
 20
1769.8464566929135
 11
1849.5000000000004
 21
1769.8464566929135
  0
TEXT
  8
_0-3_
 62
    7
 10
1601.3300000000003
 20
1773.3464566929135
 40
24.5
 41
0.6285714285714286
 50
0
  1
４５０
  0
LINE
  8
_0-0_
  6
CONTINUOUS
 62
    7
 10
515.50000000000022
 20
1679.8464566929133
 11
1834.5000000000002
 21
1679.8464566929133
  0
LINE
  8
_0-0_
  6
CONTINUOUS
 62
    7
 10
500.50000000000022
 20
1187.8464566929135
 11
1849.5000000000004
 21
1187.8464566929135
  0
LINE
  8
_0-0_
  6
CONTINUOUS
 62
    7
 10
1849.5000000000004
 20
1187.8464566929135
 11
1849.5000000000004
 21
1199.8464566929133
  0
LINE
  8
_0-0_
  6
CONTINUOUS
 62
    7
 10
1849.5000000000004
 20
646.46062992125996
 11
500.50000000000022
 21
646.46062992125996
  0
LINE
  8
_0-0_
  6
CONTINUOUS
 62
    7
 10
1849.5000000000004
 20
506.46062992125985
 11
1849.5000000000004
 21
646.46062992125996
  0
LINE
  8
_0-0_
  6
CONTINUOUS
 62
    7
 10
500.50000000000022
 20
506.46062992125985
 11
1849.5000000000004
 21
506.46062992125985
  0
LINE
  8
_0-0_
  6
DASHED2
 62
    7
 10
500.50000000000022
 20
556.46062992125985
 11
1849.5000000000004
 21
556.46062992125985
  0
ENDSEC
  0
EOF
