  0
SECTION
  2
HEADER
  9
$ACADVER
  1
AC1009
  9
$INSBASE
 10
0
 20
0
 30
0
  9
$EXTMIN
 10
0
 20
0
  9
$EXTMAX
 10
2940
 20
2079
  9
$LIMMIN
 10
0
 20
0
  9
$LIMMAX
 10
2940
 20
2079
  9
$LTSCALE
 40
7
  0
ENDSEC
  0
SECTION
  2
TABLES
  0
TABLE
  2
LTYPE
 70
     9
  0
LTYPE
  2
CONTINUOUS
 70
    64
  3
実線
 72
    65
 73
     0
 40
0.0
  0
LTYPE
  2
DASHED1
 70
    64
  3
--  --  --  --  --  --  --  --  
 72
    65
 73
     2
 40
2.5
 49
1.25
 49
-1.25
  0
LTYPE
  2
DASHED2
 70
    64
  3
----    ----    ----    ----    
 72
    65
 73
     2
 40
5.0
 49
2.5
 49
-2.5
  0
LTYPE
  2
DASHED3
 70
    64
  3
------  ------  ------  ------  
 72
    65
 73
     2
 40
5.0
 49
3.75
 49
-1.25
  0
LTYPE
  2
CENTER1
 70
    64
  3
----- - ----- - ----- - ----- - 
 72
    65
 73
     4
 40
10.0
 49
6.25
 49
-1.25
 49
1.25
 49
-1.25
  0
LTYPE
  2
CENTER2
 70
    64
  3
----------  --  ----------  --  
 72
    65
 73
     4
 40
20.0
 49
12.5
 49
-2.5
 49
2.5
 49
-2.5
  0
LTYPE
  2
PHANTOM1
 70
    64
  3
--- - - --- - - --- - - --- - - 
 72
    65
 73
     6
 40
10.0
 49
3.25
 49
-1.25
 49
1.25
 49
-1.25
 49
1.25
 49
-1.25
  0
LTYPE
  2
PHANTOM2
 70
    64
  3
--------  -  -  --------  -  -  
 72
    65
 73
     6
 40
20.0
 49
10.0
 49
-2.5
 49
1.25
 49
-2.5
 49
1.25
 49
-2.5
  0
LTYPE
  2
DOT
 70
    64
  3
-   -   -   -   -   -   -   -   
 72
    65
 73
     2
 40
2.5
 49
0.625
 49
-1.875
  0
LTYPE
  2
DUMMY
 70
    64
  3
ダミー
 72
    65
 73
     0
 40
0.0
  0
LTYPE
  2
RAND1
 70
    64
  3
ランダム線1
 72
    65
 73
     4
 40
10.0
 49
1.0
 49
-2.0
 49
3.0
 49
-4.0
  0
LTYPE
  2
RAND2
 70
    64
  3
ランダム線2
 72
    65
 73
     4
 40
14.0
 49
2.0
 49
-3.0
 49
4.0
 49
-5.0
  0
LTYPE
  2
RAND3
 70
    64
  3
ランダム線3
 72
    65
 73
     4
 40
18.0
 49
3.0
 49
-4.0
 49
5.0
 49
-6.0
  0
LTYPE
  2
RAND4
 70
    64
  3
ランダム線4
 72
    65
 73
     4
 40
22.0
 49
4.0
 49
-5.0
 49
6.0
 49
-7.0
  0
LTYPE
  2
RAND5
 70
    64
  3
ランダム線5
 72
    65
 73
     4
 40
26.0
 49
5.0
 49
-6.0
 49
7.0
 49
-8.0
  0
LTYPE
  2
LONG1
 70
    64
  3
----------  --  ----------  --  
 72
    65
 73
     4
 40
40.0
 49
32.5
 49
-2.5
 49
2.5
 49
-2.5
  0
LTYPE
  2
LONG2
 70
    64
  3
--------  -  -  --------  -  -  
 72
    65
 73
     6
 40
40.0
 49
30.0
 49
-2.5
 49
1.25
 49
-2.5
 49
1.25
 49
-2.5
  0
LTYPE
  2
LONG3
 70
    64
  3
+++++++++++++++..+++++++++++++++
 72
    65
 73
     2
 40
40.0
 49
37.5
 49
-2.5
  0
LTYPE
  2
LONG4
 70
    64
  3
+++++++++++++++..+++++++++++++++
 72
    65
 73
     2
 40
80.0
 49
75.0
 49
-5.0
  0
LTYPE
  2
LONG5
 70
    64
  3
----------  --  ----------  --  
 72
    65
 73
     4
 40
60.0
 49
37.5
 49
-7.5
 49
7.5
 49
-7.5
  0
LTYPE
  2
dashed
 70
   64
  3
-------   -------------   ------
 72
   65
 73
    2
 40
7.5
 49
6
 49
-1.5
  0
LTYPE
  2
dashed_spaced
 70
   64
  3
----        --------        ----
 72
   65
 73
    2
 40
12
 49
6
 49
-6
  0
LTYPE
  2
long_dashed_dotted
 70
   64
  3
------------- --- --------------
 72
   65
 73
    4
 40
15.25
 49
12
 49
-1.5
 49
0.25
 49
-1.5
  0
LTYPE
  2
long_dashed_double-dotted
 70
   64
  3
----------- --- --- ------------
 72
   65
 73
    6
 40
17
 49
12
 49
-1.5
 49
0.25
 49
-1.5
 49
0.25
 49
-1.5
  0
LTYPE
  2
long_dashed_triplicate-dotted
 70
   64
  3
--------- --- --- --- ----------
 72
   65
 73
    8
 40
18.75
 49
12
 49
-1.5
 49
0.25
 49
-1.5
 49
0.25
 49
-1.5
 49
0.25
 49
-1.5
  0
LTYPE
  2
dotted
 70
   64
  3
   -       -       -       -    
 72
   65
 73
    2
 40
1.75
 49
0.25
 49
-1.5
  0
LTYPE
  2
chain
 70
   64
  3
-------------- -- --------------
 72
   65
 73
    4
 40
18.5
 49
12
 49
-1.5
 49
3.5
 49
-1.5
  0
LTYPE
  2
chain_double_dash
 70
   64
  3
------------ -- -- -------------
 72
   65
 73
    6
 40
23.5
 49
12
 49
-1.5
 49
3.5
 49
-1.5
 49
3.5
 49
-1.5
  0
LTYPE
  2
dashed_dotted
 70
   64
  3
-----------     -     ----------
 72
   65
 73
    4
 40
9.25
 49
6
 49
-1.5
 49
0.25
 49
-1.5
  0
LTYPE
  2
double-dashed_dotted
 70
   64
  3
------   -----------   -   -----
 72
   65
 73
    6
 40
16.75
 49
6
 49
-1.5
 49
6
 49
-1.5
 49
0.25
 49
-1.5
  0
LTYPE
  2
dashed_double-dotted
 70
   64
  3
---------    -    -    ---------
 72
   65
 73
    6
 40
11
 49
6
 49
-1.5
 49
0.25
 49
-1.5
 49
0.25
 49
-1.5
  0
LTYPE
  2
double-dashed_double-dotted
 70
   64
  3
-----   ---------   -   -   ----
 72
   65
 73
    8
 40
18.5
 49
6
 49
-1.5
 49
6
 49
-1.5
 49
0.25
 49
-1.5
 49
0.25
 49
-1.5
  0
LTYPE
  2
dashed_triplicate-dotted
 70
   64
  3
-------    -    -    -    ------
 72
   65
 73
    8
 40
12.75
 49
6
 49
-1.5
 49
0.25
 49
-1.5
 49
0.25
 49
-1.5
 49
0.25
 49
-1.5
  0
LTYPE
  2
double-dashed_triplicate-dotted
 70
   64
  3
-----  ---------  -  -  -  -----
 72
   65
 73
   10
 40
20.25
 49
6
 49
-1.5
 49
6
 49
-1.5
 49
0.25
 49
-1.5
 49
0.25
 49
-1.5
 49
0.25
 49
-1.5
  0
LTYPE
  2
undefined
 70
   64
  3
--------------------------------
 72
   65
 73
    0
 40
0
  0
LTYPE
  2
_
 70
   64
  3
                                
 72
   65
 73
    0
 40
0
  0
LTYPE
  2
__18
 70
   64
  3
                                
 72
   65
 73
    0
 40
0
  0
LTYPE
  2
__19
 70
   64
  3
                                
 72
   65
 73
    0
 40
0
  0
LTYPE
  2
__20
 70
   64
  3
                                
 72
   65
 73
    0
 40
0
  0
LTYPE
  2
__21
 70
   64
  3
                                
 72
   65
 73
    0
 40
0
  0
LTYPE
  2
__22
 70
   64
  3
                                
 72
   65
 73
    0
 40
0
  0
LTYPE
  2
__23
 70
   64
  3
                                
 72
   65
 73
    0
 40
0
  0
LTYPE
  2
__24
 70
   64
  3
                                
 72
   65
 73
    0
 40
0
  0
LTYPE
  2
__25
 70
   64
  3
                                
 72
   65
 73
    0
 40
0
  0
LTYPE
  2
__26
 70
   64
  3
                                
 72
   65
 73
    0
 40
0
  0
LTYPE
  2
__27
 70
   64
  3
                                
 72
   65
 73
    0
 40
0
  0
LTYPE
  2
__28
 70
   64
  3
                                
 72
   65
 73
    0
 40
0
  0
LTYPE
  2
__29
 70
   64
  3
                                
 72
   65
 73
    0
 40
0
  0
LTYPE
  2
__30
 70
   64
  3
                                
 72
   65
 73
    0
 40
0
  0
LTYPE
  2
__31
 70
   64
  3
                                
 72
   65
 73
    0
 40
0
  0
LTYPE
  2
__32
 70
   64
  3
                                
 72
   65
 73
    0
 40
0
  0
ENDTAB
  0
TABLE
  2
STYLE
  5
3
100
AcDbSymbolTable
 70
     1
  0
STYLE
  5
10
100
AcDbSymbolTableRecord
100
AcDbTextStyleTableRecord
  2
STANDARD
 70
     0
 40
0.0
 41
1.0
 50
0.0
 71
     0
 42
0.2
  3
txt
  4
bigfont.shx
  0
STYLE
  5
26
100
AcDbSymbolTableRecord
100
AcDbTextStyleTableRecord
  2
TATEGAKI
 70
    68
 40
0.0
 41
1.0
 50
0.0
 71
     0
 42
1.0
  3
txt
  4
bigfont.shx
  0
ENDTAB
  0
TABLE
  2
LAYER
 70
   13
  0
LAYER
  2
_0-0_
 70
   64
 62
    7
  6
CONTINUOUS
  0
LAYER
  2
_0-2_
 70
   64
 62
    7
  6
CONTINUOUS
  0
LAYER
  2
_0-9_
 70
   64
 62
    7
  6
CONTINUOUS
  0
LAYER
  2
_1-2_
 70
   64
 62
    7
  6
CONTINUOUS
  0
LAYER
  2
_e-0_
 70
   64
 62
    7
  6
CONTINUOUS
  0
LAYER
  2
_f-0_
 70
   64
 62
    7
  6
CONTINUOUS
  0
LAYER
  2
_f-7_
 70
   64
 62
    7
  6
CONTINUOUS
  0
LAYER
  2
_f-8_
 70
   64
 62
    7
  6
CONTINUOUS
  0
LAYER
  2
_f-9_
 70
   64
 62
    7
  6
CONTINUOUS
  0
LAYER
  2
_f-d_固定文字
 70
   64
 62
    7
  6
CONTINUOUS
  0
LAYER
  2
_f-e_
 70
   64
 62
    7
  6
CONTINUOUS
  0
LAYER
  2
_f-f_図面枠
 70
   64
 62
    7
  6
CONTINUOUS
  0
LAYER
  2
ADD_LINE
 70
   64
 62
    7
  6
CONTINUOUS
  0
ENDTAB
  0
ENDSEC
  0
SECTION
  2
BLOCKS
  0
ENDSEC
  0
SECTION
  2
ENTITIES
  0
LINE
  8
_0-0_
  6
CONTINUOUS
 62
    7
 10
2144.8346456692916
 20
617.33059617547814
 11
2144.8346456692916
 21
567.33059617547814
  0
LINE
  8
_0-0_
  6
CONTINUOUS
 62
    7
 10
2624.8346456692916
 20
617.33059617547814
 11
2144.8346456692916
 21
617.33059617547814
  0
LINE
  8
_0-0_
  6
CONTINUOUS
 62
    7
 10
2624.8346456692916
 20
567.33059617547814
 11
2624.8346456692916
 21
617.33059617547814
  0
LINE
  8
_0-0_
  6
CONTINUOUS
 62
    7
 10
2144.8346456692916
 20
567.33059617547814
 11
2624.8346456692916
 21
567.33059617547814
  0
LINE
  8
_0-0_
  6
CONTINUOUS
 62
    7
 10
2132.8346456692911
 20
707.33059617547814
 11
2132.8346456692911
 21
567.33059617547814
  0
LINE
  8
_0-0_
  6
CONTINUOUS
 62
    7
 10
2144.8346456692916
 20
707.33059617547814
 11
2132.8346456692911
 21
707.33059617547814
  0
LINE
  8
_0-0_
  6
CONTINUOUS
 62
    7
 10
2144.8346456692916
 20
567.33059617547814
 11
2144.8346456692916
 21
707.33059617547814
  0
LINE
  8
_0-0_
  6
CONTINUOUS
 62
    7
 10
2132.8346456692911
 20
567.33059617547814
 11
2144.8346456692916
 21
567.33059617547814
  0
LINE
  8
ADD_LINE
  6
DOT
 62
    9
 10
104.98950000000004
 20
70
 11
104.98950000000004
 21
45.5
  0
LINE
  8
ADD_LINE
  6
DOT
 62
    9
 10
104.98950000000004
 20
45.5
 11
125.98950000000004
 21
45.500000452204091
  0
LINE
  8
ADD_LINE
  6
DOT
 62
    9
 10
125.98950000000004
 20
70
 11
125.98950000000004
 21
45.500000452204091
  0
LINE
  8
ADD_LINE
  6
DOT
 62
    9
 10
105.01049999999995
 20
45.5
 11
84.020999999999901
 21
45.5
  0
LINE
  8
ADD_LINE
  6
DOT
 62
    9
 10
52.489500000000049
 20
38.5
 11
2901.4895000000001
 21
38.5
  0
LINE
  8
ADD_LINE
  6
DOT
 62
    9
 10
2891
 20
70
 11
2891
 21
45.500002261020853
  0
LINE
  8
ADD_LINE
  6
DOT
 62
    9
 10
2870
 20
70
 11
2870
 21
45.500002261020853
  0
LINE
  8
ADD_LINE
  6
DOT
 62
    9
 10
2849
 20
70
 11
2849
 21
45.500002261020853
  0
LINE
  8
ADD_LINE
  6
DOT
 62
    9
 10
2828
 20
70
 11
2828
 21
45.500002261020853
  0
LINE
  8
ADD_LINE
  6
DOT
 62
    9
 10
2807
 20
70
 11
2807
 21
45.500002261020853
  0
LINE
  8
ADD_LINE
  6
DOT
 62
    9
 10
2786
 20
70
 11
2786
 21
45.5
  0
LINE
  8
ADD_LINE
  6
DOT
 62
    9
 10
52.489500000000049
 20
2012.5
 11
52.489500000000049
 21
38.5
  0
LINE
  8
ADD_LINE
  6
DOT
 62
    9
 10
84.020999999999901
 20
45.5
 11
84.020999999999901
 21
2002
  0
LINE
  8
ADD_LINE
  6
DOT
 62
    9
 10
2901.4895000000001
 20
2012.5
 11
52.489500000000049
 21
2012.5
  0
LINE
  8
ADD_LINE
  6
DOT
 62
    9
 10
2901.4895000000001
 20
38.5
 11
2901.4895000000001
 21
2012.5
  0
LINE
  8
_f-9_
  6
CONTINUOUS
 62
    7
 10
441
 20
84
 11
441
 21
154
  0
LINE
  8
ADD_LINE
  6
DOT
 62
    9
 10
119
 20
84
 11
119
 21
154
  0
LINE
  8
ADD_LINE
  6
DOT
 62
    9
 10
427
 20
84
 11
427
 21
154
  0
LINE
  8
_f-9_
  6
CONTINUOUS
 62
    7
 10
119
 20
84
 11
427
 21
84
  0
LINE
  8
_f-9_
  6
CONTINUOUS
 62
    7
 10
119
 20
154
 11
427
 21
154
  0
LINE
  8
_f-9_
  6
CONTINUOUS
 62
    7
 10
994
 20
84
 11
994
 21
154
  0
LINE
  8
_f-9_
  6
CONTINUOUS
 62
    7
 10
1547
 20
84
 11
1547
 21
154
  0
LINE
  8
_f-9_
  6
CONTINUOUS
 62
    7
 10
1554
 20
84
 11
1554
 21
154
  0
LINE
  8
_f-9_
  6
CONTINUOUS
 62
    7
 10
441
 20
84
 11
1547
 21
84
  0
LINE
  8
_f-9_
  6
CONTINUOUS
 62
    7
 10
441
 20
154
 11
1547
 21
154
  0
LINE
  8
_f-9_
  6
CONTINUOUS
 62
    7
 10
1897
 20
84
 11
1897
 21
154
  0
LINE
  8
_f-9_
  6
CONTINUOUS
 62
    7
 10
1904
 20
84
 11
1904
 21
154
  0
LINE
  8
_f-9_
  6
CONTINUOUS
 62
    7
 10
1554
 20
84
 11
1897
 21
84
  0
LINE
  8
_f-9_
  6
CONTINUOUS
 62
    7
 10
1554
 20
154
 11
1897
 21
154
  0
LINE
  8
_f-9_
  6
CONTINUOUS
 62
    7
 10
2114
 20
84
 11
2114
 21
154
  0
LINE
  8
_f-9_
  6
CONTINUOUS
 62
    7
 10
2324
 20
84
 11
2324
 21
154
  0
LINE
  8
_f-9_
  6
CONTINUOUS
 62
    7
 10
2590
 20
84
 11
2590
 21
154
  0
LINE
  8
_f-9_
  6
CONTINUOUS
 62
    7
 10
1904
 20
84
 11
2877
 21
84
  0
LINE
  8
_f-9_
  6
CONTINUOUS
 62
    7
 10
2877
 20
84
 11
2877
 21
154
  0
LINE
  8
_f-9_
  6
CONTINUOUS
 62
    7
 10
1904
 20
154
 11
2877
 21
154
  0
LINE
  8
_f-f_図面枠
  6
CONTINUOUS
 62
  230
 10
2891
 20
2002
 11
2891
 21
70
  0
LINE
  8
_f-f_図面枠
  6
CONTINUOUS
 62
  230
 10
105
 20
2002
 11
2891
 21
2002
  0
LINE
  8
_f-f_図面枠
  6
CONTINUOUS
 62
  230
 10
105
 20
70
 11
2891
 21
70
  0
LINE
  8
_f-f_図面枠
  6
CONTINUOUS
 62
  230
 10
105
 20
70
 11
105
 21
2002
  0
LINE
  8
ADD_LINE
  6
DOT
 62
    9
 10
441
 20
140
 11
1547
 21
140
  0
LINE
  8
ADD_LINE
  6
DOT
 62
    9
 10
1904
 20
140
 11
2877
 21
140
  0
LINE
  8
ADD_LINE
  6
DOT
 62
    9
 10
1918
 20
84
 11
1918
 21
154
  0
LINE
  8
ADD_LINE
  6
DOT
 62
    9
 10
2128
 20
84
 11
2128
 21
154
  0
LINE
  8
ADD_LINE
  6
DOT
 62
    9
 10
2338
 20
84
 11
2338
 21
154
  0
LINE
  8
ADD_LINE
  6
DOT
 62
    9
 10
2604
 20
84
 11
2604
 21
154
  0
LINE
  8
ADD_LINE
  6
DOT
 62
    9
 10
1011.5
 20
84
 11
1011.5
 21
154
  0
LINE
  8
ADD_LINE
  6
DOT
 62
    9
 10
458.5
 20
84
 11
458.5
 21
154
  0
LINE
  8
ADD_LINE
  6
DOT
 62
    9
 10
2562
 20
84
 11
2562
 21
154
  0
LINE
  8
ADD_LINE
  6
DOT
 62
    9
 10
1904
 20
112
 11
2877
 21
112
  0
TEXT
  8
_f-8_
 62
    7
 10
2128
 20
131.25
 40
17.5
 41
0.64
 50
0
  1
ＤＡＴＡ
  0
TEXT
  8
_f-8_
 62
    7
 10
2338
 20
131.25
 40
17.5
 41
0.64
 50
0
  1
ＣＨＥＣＫＥＤ
  0
TEXT
  8
_f-8_
 62
    7
 10
2604
 20
131.25
 40
17.5
 41
0.64
 50
0
  1
ＳＨＥＥＴ　ＮＯ．
  0
TEXT
  8
_f-8_
 62
    7
 10
2479.4
 20
131.25
 40
17.5
 41
0.64
 50
0
  1
ＤＲＡＷＩＮＧ
  0
LINE
  8
ADD_LINE
  6
DOT
 62
    9
 10
94.5
 20
45.5
 11
94.5
 21
2002
  0
LINE
  8
_f-9_
  6
CONTINUOUS
 62
    7
 10
119
 20
119
 11
427
 21
119
  0
LINE
  8
ADD_LINE
  6
DOT
 62
    9
 10
2037
 20
84
 11
2037
 21
154
  0
LINE
  8
ADD_LINE
  6
DOT
 62
    9
 10
2219
 20
84
 11
2219
 21
154
  0
LINE
  8
ADD_LINE
  6
DOT
 62
    9
 10
2450
 20
154
 11
2450
 21
84
  0
LINE
  8
ADD_LINE
  6
DOT
 62
    9
 10
441
 20
112
 11
1547
 21
112
  0
LINE
  8
ADD_LINE
  6
DOT
 62
    9
 10
717.5
 20
154
 11
717.5
 21
84
  0
TEXT
  8
_f-8_
 62
    7
 10
1918.2617888597947
 20
131.22856109639488
 40
17.5
 41
0.64
 50
0
  1
ＳＣＡＬＥ
  0
TEXT
  8
_f-8_
 62
    7
 10
1011.5
 20
131.25
 40
17.5
 41
0.8
 50
0
  1
図面名称
  0
TEXT
  8
_f-8_
 62
    7
 10
458.5
 20
131.25
 40
17.5
 41
0.8
 50
0
  1
名　称
  0
LINE
  8
ADD_LINE
  6
DOT
 62
    9
 10
1270.5
 20
84
 11
1270.5
 21
154
  0
LINE
  8
_f-8_
  6
CONTINUOUS
 62
    7
 10
1515.5
 20
2010.3999999999998
 11
1516.305
 21
2011.8000000000001
  0
LINE
  8
_f-8_
  6
CONTINUOUS
 62
    7
 10
1511.048
 20
2013.8999999999998
 11
1515.5
 21
2006.2000000000002
  0
LINE
  8
_f-8_
  6
CONTINUOUS
 62
    7
 10
1515.5
 20
2006.2000000000002
 11
1519.9449999999999
 21
2013.8999999999998
  0
LINE
  8
_f-8_
  6
CONTINUOUS
 62
    7
 10
1515.5
 20
2002
 11
1523.5779999999999
 21
2016
  0
LINE
  8
_f-8_
  6
CONTINUOUS
 62
    7
 10
1507.4149999999999
 20
2016
 11
1515.5
 21
2002
  0
LINE
  8
_f-8_
  6
CONTINUOUS
 62
    7
 10
1523.5779999999999
 20
2016
 11
1507.4149999999999
 21
2016
  0
LINE
  8
_f-8_
  6
CONTINUOUS
 62
    7
 10
1514.6880000000001
 20
2011.8000000000001
 11
1515.5
 21
2010.3999999999998
  0
LINE
  8
_f-8_
  6
CONTINUOUS
 62
    7
 10
1516.305
 20
2011.8000000000001
 11
1514.6880000000001
 21
2011.8000000000001
  0
LINE
  8
_f-8_
  6
CONTINUOUS
 62
    7
 10
1519.9449999999999
 20
2013.8999999999998
 11
1511.048
 21
2013.8999999999998
  0
LINE
  8
_f-7_
  6
CONTINUOUS
 62
    7
 10
84
 20
1023.8756443470178
 11
84
 21
1048.1243556529821
  0
LINE
  8
_f-7_
  6
CONTINUOUS
 62
    7
 10
84
 20
1048.1243556529821
 11
105
 21
1036
  0
LINE
  8
_f-7_
  6
CONTINUOUS
 62
    7
 10
105
 20
1036
 11
84
 21
1023.8756443470178
  0
LINE
  8
_f-7_
  6
CONTINUOUS
 62
    7
 10
87.5
 20
1029.9378221735089
 11
87.5
 21
1042.062177826491
  0
LINE
  8
_f-7_
  6
CONTINUOUS
 62
    7
 10
87.5
 20
1042.062177826491
 11
98
 21
1036
  0
LINE
  8
_f-7_
  6
CONTINUOUS
 62
    7
 10
98
 20
1036
 11
87.5
 21
1029.9378221735089
  0
LINE
  8
_f-7_
  6
CONTINUOUS
 62
    7
 10
90.29999999999984
 20
1034.7875644347016
 11
90.29999999999984
 21
1037.2124355652983
  0
LINE
  8
_f-7_
  6
CONTINUOUS
 62
    7
 10
90.29999999999984
 20
1037.2124355652983
 11
92.400000000000318
 21
1036
  0
LINE
  8
_f-7_
  6
CONTINUOUS
 62
    7
 10
92.400000000000318
 20
1036
 11
90.29999999999984
 21
1034.7875644347016
  0
LINE
  8
_f-7_
  6
CONTINUOUS
 62
    7
 10
2912
 20
1023.8756443470178
 11
2912
 21
1048.1243556529821
  0
LINE
  8
_f-7_
  6
CONTINUOUS
 62
    7
 10
2912
 20
1048.1243556529821
 11
2891
 21
1036
  0
LINE
  8
_f-7_
  6
CONTINUOUS
 62
    7
 10
2891
 20
1036
 11
2912
 21
1023.8756443470178
  0
LINE
  8
_f-7_
  6
CONTINUOUS
 62
    7
 10
2908.5
 20
1029.9378221735089
 11
2908.5
 21
1042.062177826491
  0
LINE
  8
_f-7_
  6
CONTINUOUS
 62
    7
 10
2908.5
 20
1042.062177826491
 11
2898
 21
1036
  0
LINE
  8
_f-7_
  6
CONTINUOUS
 62
    7
 10
2898
 20
1036
 11
2908.5
 21
1029.9378221735089
  0
LINE
  8
_f-7_
  6
CONTINUOUS
 62
    7
 10
2905.7000000000002
 20
1034.7875644347016
 11
2905.7000000000002
 21
1037.2124355652983
  0
LINE
  8
_f-7_
  6
CONTINUOUS
 62
    7
 10
2905.7000000000002
 20
1037.2124355652983
 11
2903.5999999999994
 21
1036
  0
LINE
  8
_f-7_
  6
CONTINUOUS
 62
    7
 10
2903.5999999999994
 20
1036
 11
2905.7000000000002
 21
1034.7875644347016
  0
LINE
  8
ADD_LINE
  6
DOT
 62
    9
 10
752.5
 20
154
 11
752.5
 21
84
  0
LINE
  8
ADD_LINE
  6
DOT
 62
    9
 10
1305.5
 20
84
 11
1305.5
 21
154
  0
TEXT
  8
_f-d_固定文字
 62
    7
 10
105.01049999999995
 20
45.5
 40
14
 41
1
 50
0
  1
%f
  0
LINE
  8
ADD_LINE
  6
DOT
 62
    9
 10
2786
 20
45.5
 11
2891
 21
45.500002261020853
  0
TEXT
  8
_f-d_固定文字
 62
    7
 10
2792.2999999999997
 20
45.500002261020853
 40
14
 41
1
 50
0
  1
%y
  0
TEXT
  8
_f-d_固定文字
 62
    7
 10
2814
 20
45.500002261020853
 40
14
 41
1
 50
0
  1
．
  0
TEXT
  8
_f-d_固定文字
 62
    7
 10
2834.2999999999997
 20
45.500002261020853
 40
14
 41
1
 50
0
  1
%m
  0
TEXT
  8
_f-d_固定文字
 62
    7
 10
2856
 20
45.500002261020853
 40
14
 41
1
 50
0
  1
．
  0
TEXT
  8
_f-d_固定文字
 62
    7
 10
2876.2999999999997
 20
45.500002261020853
 40
14
 41
1
 50
0
  1
%d
  0
LINE
  8
_0-0_
  6
CONTINUOUS
 62
    7
 10
464.05433070866166
 20
704.99201349831287
 11
464.05433070866166
 21
564.99201349831287
  0
LINE
  8
_1-2_
  6
CONTINUOUS
 62
    4
 10
1315.1636870847464
 20
319.88951268363302
 11
1315.1636870847464
 21
368.88951268363302
  0
LINE
  8
_1-2_
  6
CONTINUOUS
 62
    4
 10
1315.1636870847464
 20
368.88951268363302
 11
1140.1636870847464
 21
368.88951268363302
  0
LINE
  8
_1-2_
  6
CONTINUOUS
 62
    4
 10
1140.1636870847464
 20
319.88951268363302
 11
1315.1636870847464
 21
319.88951268363302
  0
LINE
  8
_1-2_
  6
CONTINUOUS
 62
    4
 10
1140.1636870847464
 20
368.88951268363302
 11
1140.1636870847464
 21
319.88951268363302
  0
LINE
  8
ADD_LINE
  6
DOT
 62
    9
 10
1315.163687084746
 20
344.38951268363302
 11
1140.163687084746
 21
344.38951268363302
  0
LINE
  8
ADD_LINE
  6
DOT
 62
    9
 10
1227.663687084746
 20
319.88951268363302
 11
1227.663687084746
 21
368.88951268363302
  0
TEXT
  8
_1-2_
 62
    7
 10
1194.7636870847463
 20
332.13951268363302
 40
24.5
 41
0.857142857142857
 50
0
  1
立面図
  0
LINE
  8
_1-2_
  6
CONTINUOUS
 62
    4
 10
2628.7671140194834
 20
368.88951268363302
 11
2453.7671140194834
 21
368.88951268363302
  0
LINE
  8
_1-2_
  6
CONTINUOUS
 62
    4
 10
2628.7671140194834
 20
319.88951268363302
 11
2628.7671140194834
 21
368.88951268363302
  0
LINE
  8
_1-2_
  6
CONTINUOUS
 62
    4
 10
2453.7671140194834
 20
319.88951268363302
 11
2628.7671140194834
 21
319.88951268363302
  0
LINE
  8
_1-2_
  6
CONTINUOUS
 62
    4
 10
2453.7671140194834
 20
368.88951268363302
 11
2453.7671140194834
 21
319.88951268363302
  0
LINE
  8
ADD_LINE
  6
DOT
 62
    9
 10
2628.7671140194829
 20
344.38951268363302
 11
2453.7671140194825
 21
344.38951268363302
  0
LINE
  8
ADD_LINE
  6
DOT
 62
    9
 10
2541.2671140194829
 20
319.88951268363302
 11
2541.2671140194829
 21
368.88951268363302
  0
TEXT
  8
_1-2_
 62
    7
 10
2508.3671140194828
 20
332.13951268363302
 40
24.5
 41
0.857142857142857
 50
0
  1
断面図
  0
LINE
  8
ADD_LINE
  6
DOT
 62
    9
 10
2891
 20
2002
 11
2880.5
 21
2002
  0
LINE
  8
ADD_LINE
  6
DOT
 62
    9
 10
2880.5
 20
2002
 11
2880.5
 21
1991.5
  0
LINE
  8
ADD_LINE
  6
DOT
 62
    9
 10
2880.5
 20
1991.5
 11
2891
 21
1991.5
  0
LINE
  8
ADD_LINE
  6
DOT
 62
    9
 10
2891
 20
1991.5
 11
2891
 21
2002
  0
LINE
  8
ADD_LINE
  6
DOT
 62
    9
 10
2880.5
 20
2002
 11
2880.5
 21
1991.5
  0
LINE
  8
_1-2_
  6
CONTINUOUS
 62
    7
 10
2880.5
 20
1949.5
 11
2180.5
 21
1949.5
  0
LINE
  8
_1-2_
  6
CONTINUOUS
 62
    7
 10
2880.5
 20
1953
 11
2180.5
 21
1953
  0
LINE
  8
_1-2_
  6
CONTINUOUS
 62
    7
 10
2880.5
 20
1911.6999999999998
 11
2180.5
 21
1911.6999999999998
  0
LINE
  8
_1-2_
  6
CONTINUOUS
 62
    3
 10
2880.5
 20
1991.5
 11
2180.5
 21
1991.5
  0
LINE
  8
ADD_LINE
  6
DOT
 62
    9
 10
2180.5
 20
1972.25
 11
2880.5
 21
1972.25
  0
LINE
  8
ADD_LINE
  6
DOT
 62
    9
 10
2180.5
 20
1930.5999999999996
 11
2880.5
 21
1930.5999999999996
  0
LINE
  8
ADD_LINE
  6
DOT
 62
    9
 10
2180.5
 20
1892.7999999999994
 11
2880.5
 21
1892.7999999999994
  0
LINE
  8
ADD_LINE
  6
DOT
 62
    9
 10
2560.2503500000007
 20
1953
 11
2560.2503500000007
 21
1991.5
  0
LINE
  8
_1-2_
  6
CONTINUOUS
 62
    3
 10
2180.5
 20
1991.5
 11
2180.5
 21
1873.8999999999996
  0
LINE
  8
_1-2_
  6
CONTINUOUS
 62
    3
 10
2880.5
 20
1873.8999999999996
 11
2880.5
 21
1991.5
  0
LINE
  8
_1-2_
  6
CONTINUOUS
 62
    7
 10
2327.5
 20
1949.5
 11
2327.5
 21
1873.8999999999996
  0
LINE
  8
ADD_LINE
  6
DOT
 62
    9
 10
2254
 20
1949.5
 11
2254
 21
1873.8999999999996
  0
LINE
  8
ADD_LINE
  6
DOT
 62
    9
 10
2341.5
 20
1991.5
 11
2341.5
 21
1873.8999999999996
  0
LINE
  8
_1-2_
  6
CONTINUOUS
 62
    3
 10
2880.5
 20
1873.8999999999996
 11
2180.5
 21
1873.8999999999996
  0
TEXT
  8
_1-2_
 62
    7
 10
2211.8950000000008
 20
1918.3499999999996
 40
24.5
 41
0.857142857142857
 50
0
  1
側　　板
  0
TEXT
  8
_1-2_
 62
    7
 10
2341.5
 20
1918.3499999999996
 40
24.5
 41
0.7714285714285714
 50
0
  1
低圧メラミン化粧パーティクルボード　１５ｔ
  0
TEXT
  8
_1-2_
 62
    7
 10
2341.5
 20
1880.5499999999994
 40
24.5
 41
0.7714285714285714
 50
0
  1
片面化粧パーティクルボード　１２ｔ
  0
TEXT
  8
_1-2_
 62
    7
 10
2211.8950000000008
 20
1880.5499999999994
 40
24.5
 41
0.857142857142857
 50
0
  1
前　　板
  0
TEXT
  8
_1-2_
 62
    7
 10
2341.5
 20
1960
 40
24.5
 41
0.857142857142857
 50
0
  1
仕　　　　様
  0
LINE
  8
_1-2_
  6
CONTINUOUS
 62
    4
 10
1315.1636870847466
 20
1025.9249116406085
 11
1140.1636870847464
 21
1025.9249116406085
  0
LINE
  8
_1-2_
  6
CONTINUOUS
 62
    4
 10
1140.1636870847464
 20
1025.9249116406085
 11
1140.1636870847464
 21
1074.9249116406085
  0
LINE
  8
_1-2_
  6
CONTINUOUS
 62
    4
 10
1140.1636870847464
 20
1074.9249116406085
 11
1315.1636870847466
 21
1074.9249116406085
  0
LINE
  8
_1-2_
  6
CONTINUOUS
 62
    4
 10
1315.1636870847466
 20
1074.9249116406085
 11
1315.1636870847466
 21
1025.9249116406085
  0
LINE
  8
ADD_LINE
  6
DOT
 62
    9
 10
1140.1636870847469
 20
1050.4249116406085
 11
1315.1636870847471
 21
1050.4249116406085
  0
LINE
  8
ADD_LINE
  6
DOT
 62
    9
 10
1227.6636870847469
 20
1025.9249116406085
 11
1227.6636870847469
 21
1074.9249116406085
  0
LINE
  8
_0-2_
  6
CONTINUOUS
 62
    7
 10
483.95433070866175
 20
1112.116197975253
 11
479.0543307086616
 21
1112.116197975253
  0
LINE
  8
_0-2_
  6
CONTINUOUS
 62
    5
 10
503.75332058188507
 20
1112.116197975253
 11
483.95433070866175
 21
1112.116197975253
  0
LINE
  8
_0-2_
  6
CONTINUOUS
 62
    5
 10
479.00458324035571
 20
1136.864935316782
 11
479.00458324035571
 21
1117.0659454435588
  0
LINE
  8
_0-2_
  6
CONTINUOUS
 62
    5
 10
483.95433070866175
 20
1112.1161979752532
 11
479.00458324035571
 21
1117.0659454435588
  0
LINE
  8
_0-2_
  6
CONTINUOUS
 62
    5
 10
479.71169002154232
 20
1137.5720420979687
 11
479.00458324035571
 21
1136.864935316782
  0
LINE
  8
_0-2_
  6
CONTINUOUS
 62
    5
 10
504.46042736307168
 20
1112.8233047564397
 11
503.75332058188507
 21
1112.116197975253
  0
LINE
  8
_0-2_
  6
CONTINUOUS
 62
    5
 10
504.46042736307168
 20
1112.8233047564397
 11
479.71169002154232
 21
1137.5720420979687
  0
LINE
  8
_0-2_
  6
CONTINUOUS
 62
    5
 10
479.00559336713251
 20
1548.367460633724
 11
479.00559336713251
 21
1568.166450506947
  0
LINE
  8
_0-2_
  6
CONTINUOUS
 62
    5
 10
503.75433070866171
 20
1573.116197975253
 11
483.95534083543839
 21
1573.116197975253
  0
LINE
  8
_0-2_
  6
CONTINUOUS
 62
    5
 10
479.00559336713251
 20
1568.166450506947
 11
483.95534083543839
 21
1573.116197975253
  0
LINE
  8
_0-2_
  6
CONTINUOUS
 62
    5
 10
504.46143748984832
 20
1572.4090911940666
 11
503.75433070866171
 21
1573.116197975253
  0
LINE
  8
_0-2_
  6
CONTINUOUS
 62
    5
 10
479.71270014831918
 20
1547.6603538525373
 11
479.00559336713251
 21
1548.367460633724
  0
LINE
  8
_0-2_
  6
CONTINUOUS
 62
    5
 10
479.71270014831918
 20
1547.6603538525373
 11
504.46143748984832
 21
1572.4090911940666
  0
LINE
  8
_0-2_
  6
CONTINUOUS
 62
    2
 10
479.0543307086616
 20
1573.116197975253
 11
479.0543307086616
 21
1577.116197975253
  0
LINE
  8
_0-2_
  6
CONTINUOUS
 62
    2
 10
503.75433070866171
 20
1573.116197975253
 11
479.0543307086616
 21
1573.116197975253
  0
LINE
  8
_0-2_
  6
CONTINUOUS
 62
    2
 10
503.75433070866171
 20
1577.116197975253
 11
503.75433070866171
 21
1573.116197975253
  0
LINE
  8
_0-2_
  6
CONTINUOUS
 62
    2
 10
479.0543307086616
 20
1577.116197975253
 11
503.75433070866171
 21
1577.116197975253
  0
LINE
  8
_0-0_
  6
CONTINUOUS
 62
    7
 10
956.55433070866149
 20
1112.116197975253
 11
956.55433070866149
 21
1577.116197975253
  0
LINE
  8
_0-0_
  6
CONTINUOUS
 62
    7
 10
971.5543307086616
 20
1112.116197975253
 11
956.55433070866149
 21
1112.116197975253
  0
LINE
  8
_0-0_
  6
CONTINUOUS
 62
    7
 10
971.5543307086616
 20
1577.116197975253
 11
971.5543307086616
 21
1112.116197975253
  0
LINE
  8
_0-0_
  6
CONTINUOUS
 62
    7
 10
956.55433070866149
 20
1577.116197975253
 11
971.5543307086616
 21
1577.116197975253
  0
LINE
  8
_0-0_
  6
DASHED2
 62
    7
 10
964.0543307086616
 20
1592.116197975253
 11
964.0543307086616
 21
1112.116197975253
  0
LINE
  8
_0-0_
  6
CONTINUOUS
 62
    7
 10
479.0543307086616
 20
1577.116197975253
 11
479.0543307086616
 21
1592.116197975253
  0
LINE
  8
_0-0_
  6
CONTINUOUS
 62
    7
 10
2044.0543307086613
 20
1577.116197975253
 11
479.0543307086616
 21
1577.116197975253
  0
LINE
  8
_0-0_
  6
CONTINUOUS
 62
    7
 10
464.05433070866166
 20
1592.116197975253
 11
464.05433070866166
 21
1112.116197975253
  0
LINE
  8
_0-0_
  6
CONTINUOUS
 62
    7
 10
479.0543307086616
 20
1592.116197975253
 11
464.05433070866166
 21
1592.116197975253
  0
LINE
  8
_0-0_
  6
CONTINUOUS
 62
    7
 10
479.0543307086616
 20
1112.116197975253
 11
479.0543307086616
 21
1592.116197975253
  0
LINE
  8
_0-0_
  6
CONTINUOUS
 62
    7
 10
464.05433070866166
 20
1112.116197975253
 11
479.0543307086616
 21
1112.116197975253
  0
LINE
  8
_0-0_
  6
CONTINUOUS
 62
    7
 10
464.05433070866166
 20
1112.116197975253
 11
464.05433070866166
 21
1100.1161979752532
  0
LINE
  8
_0-0_
  6
CONTINUOUS
 62
    7
 10
2059.0543307086613
 20
1112.116197975253
 11
464.05433070866166
 21
1112.116197975253
  0
LINE
  8
_0-2_
  6
CONTINUOUS
 62
    2
 10
956.55433070866149
 20
1112.116197975253
 11
926.5543307086616
 21
1112.116197975253
  0
LINE
  8
_0-2_
  6
CONTINUOUS
 62
    2
 10
926.5543307086616
 20
1112.116197975253
 11
926.5543307086616
 21
1127.116197975253
  0
LINE
  8
_0-2_
  6
CONTINUOUS
 62
    2
 10
926.5543307086616
 20
1127.116197975253
 11
956.55433070866149
 21
1127.116197975253
  0
LINE
  8
_0-2_
  6
CONTINUOUS
 62
    2
 10
956.55433070866149
 20
1127.116197975253
 11
956.55433070866149
 21
1112.116197975253
  0
TEXT
  8
_1-2_
 62
    7
 10
1194.7636870847466
 20
1038.1749116406085
 40
24.5
 41
0.857142857142857
 50
0
  1
平面図
  0
LINE
  8
ADD_LINE
  6
DOT
 62
    9
 10
479.0543307086616
 20
1622.116197975253
 11
2044.0543307086618
 21
1622.116197975253
  0
LINE
  8
ADD_LINE
  6
DOT
 62
    9
 10
434.05433070866172
 20
1592.116197975253
 11
434.05433070866172
 21
1112.116197975253
  0
LINE
  8
ADD_LINE
  6
DOT
 62
    9
 10
434.05433070866172
 20
704.99201349831287
 11
434.05433070866172
 21
564.99201349831287
  0
LINE
  8
ADD_LINE
  6
DOT
 62
    9
 10
2059.0543307086613
 20
734.99201349831287
 11
464.05433070866183
 21
734.99201349831287
  0
LINE
  8
ADD_LINE
  6
DOT
 62
    9
 10
366.76609442060089
 20
794.99201349831275
 11
414.56652360515028
 21
794.99201349831275
  0
LINE
  8
ADD_LINE
  6
DOT
 62
    9
 10
366.76609442060089
 20
854.99201349831287
 11
414.56652360515028
 21
854.99201349831287
  0
LINE
  8
ADD_LINE
  6
DOT
 62
    9
 10
374.0543307086616
 20
1075.8283261802573
 11
374.0543307086616
 21
1005.0836909871244
  0
LINE
  8
ADD_LINE
  6
DOT
 62
    9
 10
314.05433070866172
 20
1075.8283261802573
 11
314.05433070866172
 21
1005.0836909871244
  0
TEXT
  8
_f-8_
 62
    7
 10
2002.7000000000002
 20
99.75
 40
24.5
 41
0.5714285714285713
 50
0
  1
１／７
  0
LINE
  8
ADD_LINE
  6
DOT
 62
    9
 10
366.76609442060089
 20
1682.116197975253
 11
414.56652360515028
 21
1682.116197975253
  0
LINE
  8
ADD_LINE
  6
DOT
 62
    9
 10
366.76609442060089
 20
1742.1161979752532
 11
414.56652360515028
 21
1742.1161979752532
  0
LINE
  8
ADD_LINE
  6
DOT
 62
    9
 10
366.76609442060089
 20
1802.116197975253
 11
414.56652360515028
 21
1802.116197975253
  0
POINT
  8
_0-9_
 62
    4
 10
464.05433070866166
 20
1682.116197975253
  0
LINE
  8
_0-9_
  6
CONTINUOUS
 62
    4
 10
464.05433070866166
 20
1689.116197975253
 11
464.05433070866166
 21
1622.116197975253
  0
POINT
  8
_0-9_
 62
    4
 10
464.05433070866166
 20
854.99201349831287
  0
LINE
  8
_0-9_
  6
CONTINUOUS
 62
    4
 10
464.05433070866166
 20
861.99201349831287
 11
464.05433070866166
 21
734.99201349831287
  0
POINT
  8
_0-9_
 62
    4
 10
374.0543307086616
 20
564.99201349831287
  0
POINT
  8
_0-9_
 62
    4
 10
374.0543307086616
 20
614.99201349831275
  0
LINE
  8
_0-9_
  6
CONTINUOUS
 62
    4
 10
367.0543307086616
 20
564.99201349831287
 11
434.05433070866172
 21
564.99201349831287
  0
LINE
  8
_0-9_
  6
CONTINUOUS
 62
    4
 10
367.0543307086616
 20
614.99201349831275
 11
434.05433070866172
 21
614.99201349831275
  0
POINT
  8
_0-9_
 62
    4
 10
314.05433070866172
 20
564.99201349831287
  0
POINT
  8
_0-9_
 62
    4
 10
314.05433070866172
 20
704.99201349831287
  0
LINE
  8
_0-9_
  6
CONTINUOUS
 62
    4
 10
307.05433070866172
 20
564.99201349831287
 11
434.05433070866172
 21
564.99201349831287
  0
LINE
  8
_0-9_
  6
CONTINUOUS
 62
    4
 10
307.05433070866172
 20
704.99201349831287
 11
434.05433070866172
 21
704.99201349831287
  0
POINT
  8
_0-9_
 62
    4
 10
2132.8346456692911
 20
794.99201349831275
  0
POINT
  8
_0-9_
 62
    4
 10
2144.8346456692916
 20
794.99201349831275
  0
LINE
  8
_0-9_
  6
CONTINUOUS
 62
    4
 10
2132.8346456692911
 20
801.99201349831275
 11
2132.8346456692911
 21
734.99201349831287
  0
LINE
  8
_0-9_
  6
CONTINUOUS
 62
    4
 10
2144.8346456692916
 20
801.99201349831275
 11
2144.8346456692916
 21
734.99201349831287
  0
LINE
  8
_0-9_
  6
CONTINUOUS
 62
    4
 10
2144.8346456692916
 20
794.99201349831275
 11
2180.4019092265466
 21
794.99201349831275
  0
POINT
  8
_0-9_
 62
    4
 10
2132.8346456692911
 20
854.99201349831287
  0
POINT
  8
_0-9_
 62
    4
 10
2624.8346456692916
 20
854.99201349831287
  0
LINE
  8
_0-9_
  6
CONTINUOUS
 62
    4
 10
2132.8346456692911
 20
861.99201349831287
 11
2132.8346456692911
 21
734.99201349831287
  0
LINE
  8
_0-9_
  6
CONTINUOUS
 62
    4
 10
2624.8346456692916
 20
861.99201349831287
 11
2624.8346456692916
 21
734.99201349831287
  0
POINT
  8
_0-9_
 62
    3
 10
464.05433070866166
 20
1682.116197975253
  0
POINT
  8
_0-9_
 62
    3
 10
464.05433070866166
 20
854.99201349831287
  0
POINT
  8
_0-9_
 62
    3
 10
374.0543307086616
 20
564.99201349831287
  0
POINT
  8
_0-9_
 62
    3
 10
374.0543307086616
 20
614.99201349831275
  0
LINE
  8
_0-9_
  6
CONTINUOUS
 62
    4
 10
374.0543307086616
 20
564.99201349831287
 11
374.0543307086616
 21
614.99201349831275
  0
TEXT
  8
_0-9_
 62
    7
 10
370.5543307086616
 20
574.55701349831281
 40
24.5
 41
0.6285714285714286
 50
90
  1
５０
  0
POINT
  8
_0-9_
 62
    3
 10
314.05433070866172
 20
564.99201349831287
  0
POINT
  8
_0-9_
 62
    3
 10
314.05433070866172
 20
704.99201349831287
  0
LINE
  8
_0-9_
  6
CONTINUOUS
 62
    4
 10
314.05433070866172
 20
564.99201349831287
 11
314.05433070866172
 21
704.99201349831287
  0
TEXT
  8
_0-9_
 62
    7
 10
310.55433070866172
 20
611.82201349831279
 40
24.5
 41
0.6285714285714286
 50
90
  1
１４０
  0
POINT
  8
_0-9_
 62
    3
 10
2132.8346456692911
 20
794.99201349831275
  0
POINT
  8
_0-9_
 62
    3
 10
2144.8346456692916
 20
794.99201349831275
  0
LINE
  8
_0-9_
  6
CONTINUOUS
 62
    4
 10
2132.8346456692911
 20
794.99201349831275
 11
2144.8346456692916
 21
794.99201349831275
  0
TEXT
  8
_0-9_
 62
    7
 10
2150.7738061117356
 20
798.38957477573728
 40
24.5
 41
0.6285714285714286
 50
0
  1
１２
  0
POINT
  8
_0-9_
 62
    3
 10
2132.8346456692911
 20
854.99201349831287
  0
POINT
  8
_0-9_
 62
    3
 10
2624.8346456692916
 20
854.99201349831287
  0
LINE
  8
_0-9_
  6
CONTINUOUS
 62
    4
 10
2132.8346456692911
 20
854.99201349831287
 11
2624.8346456692916
 21
854.99201349831287
  0
TEXT
  8
_0-9_
 62
    7
 10
2355.664645669291
 20
858.49201349831287
 40
24.5
 41
0.6285714285714286
 50
0
  1
４９２
  0
TEXT
  8
_0-9_
 62
    7
 10
582.18669527896986
 20
95.919527896995703
 40
31.5
 41
0.8
 50
0
  1
高さ調整用　台輪
  0
TEXT
  8
_0-9_
 62
    7
 10
1077.3991416309011
 20
95.919527896995703
 40
31.5
 41
0.6666666666666666
 50
0
  1
ＫＴＢ５－８０－１６０台輪
  0
TEXT
  8
_f-8_
 62
    7
 10
2141.43669527897
 20
99.75
 40
24.5
 41
0.5714285714285713
 50
0
  1
２０２３.０５.０１
  0
TEXT
  8
_f-8_
 62
    7
 10
2520.653433476395
 20
99.75
 40
24.5
 41
0.5714285714285713
 50
0
  1
Ｔ.Ｋ
  0
LINE
  8
_e-0_
  6
CONTINUOUS
 62
    7
 10
1570.6501511883602
 20
139.66375836252419
 11
1591.0537499288971
 21
147.09006097599086
  0
LINE
  8
_e-0_
  6
CONTINUOUS
 62
    7
 10
1566.3435630537005
 20
134.37166626659831
 11
1601.2870653294664
 21
147.09006097599026
  0
LINE
  8
_e-0_
  6
CONTINUOUS
 62
    7
 10
1563.9447163052909
 20
129.77393524994678
 11
1584.7050401035955
 21
137.33007516625784
  0
LINE
  8
_e-0_
  6
CONTINUOUS
 62
    7
 10
1562.5483699260187
 20
125.54108452750051
 11
1577.771060789651
 21
131.08169088729863
  0
LINE
  8
_e-0_
  6
CONTINUOUS
 62
    7
 10
1561.8417159882203
 20
121.55926132454914
 11
1574.6202211569525
 21
126.21025684438444
  0
LINE
  8
_e-0_
  6
CONTINUOUS
 62
    7
 10
1561.6754362212873
 20
117.7741182351566
 11
1574.5623671671869
 21
122.46457751050817
  0
LINE
  8
_e-0_
  6
CONTINUOUS
 62
    7
 10
1561.9686248207037
 20
114.15620795470476
 11
1574.8800648537796
 21
118.85558780825732
  0
LINE
  8
_e-0_
  6
CONTINUOUS
 62
    7
 10
1562.6765048259228
 20
110.68923300237241
 11
1575.8886981727869
 21
115.4980781100009
  0
LINE
  8
_e-0_
  6
CONTINUOUS
 62
    7
 10
1563.7772885395472
 20
107.36526330483098
 11
1577.5637617375089
 21
112.38312918439777
  0
LINE
  8
_e-0_
  6
CONTINUOUS
 62
    7
 10
1565.2668711413427
 20
104.18280482969956
 11
1579.9699373416713
 21
109.53428327906482
  0
LINE
  8
_e-0_
  6
CONTINUOUS
 62
    7
 10
1567.1579062485006
 20
101.14646311699175
 11
1583.3160812019154
 21
107.02755784010028
  0
LINE
  8
_e-0_
  6
CONTINUOUS
 62
    7
 10
1569.4827314197991
 20
98.268008075551364
 11
1588.2627872289676
 21
105.10338938794674
  0
LINE
  8
_e-0_
  6
CONTINUOUS
 62
    7
 10
1572.3018984277048
 20
95.569478748188629
 11
1599.1955983869743
 21
105.35798502264884
  0
LINE
  8
_e-0_
  6
CONTINUOUS
 62
    7
 10
1575.7245733391955
 20
93.090608333876787
 11
1595.4291375803545
 21
100.26248319684492
  0
LINE
  8
_e-0_
  6
CONTINUOUS
 62
    7
 10
1595.7094525528571
 20
141.33535374337759
 11
1611.520380730036
 21
147.09006097599146
  0
LINE
  8
_e-0_
  6
CONTINUOUS
 62
    7
 10
1582.3937180161108
 20
132.7642005209457
 11
1619.1357909415244
 21
146.13722141103431
  0
LINE
  8
_e-0_
  6
CONTINUOUS
 62
    7
 10
1591.1487331946314
 20
132.22614324281022
 11
1619.1357909415244
 21
142.41259920736871
  0
LINE
  8
_e-0_
  6
CONTINUOUS
 62
    7
 10
1601.3820485952023
 20
132.22614324281022
 11
1619.1357909415244
 21
138.68797700370311
  0
LINE
  8
_e-0_
  6
CONTINUOUS
 62
    7
 10
1604.3126024397838
 20
129.56815540848668
 11
1619.1357909415244
 21
134.9633548000375
  0
LINE
  8
_e-0_
  6
CONTINUOUS
 62
    7
 10
1604.3126024397838
 20
125.84353320482108
 11
1619.1357909415244
 21
131.2387325963715
  0
LINE
  8
_e-0_
  6
CONTINUOUS
 62
    7
 10
1604.3126024397838
 20
122.11891100115548
 11
1619.1357909415244
 21
127.5141103927059
  0
LINE
  8
_e-0_
  6
CONTINUOUS
 62
    7
 10
1604.3126024397838
 20
118.39428879748987
 11
1619.1357909415244
 21
123.78948818904029
  0
LINE
  8
_e-0_
  6
CONTINUOUS
 62
    7
 10
1604.2605932987514
 20
114.65073681457857
 11
1619.1357909415244
 21
120.06486598537469
  0
LINE
  8
_e-0_
  6
CONTINUOUS
 62
    7
 10
1603.4577936554355
 20
110.63391943666624
 11
1619.1357909415244
 21
116.34024378170889
  0
LINE
  8
_e-0_
  6
CONTINUOUS
 62
    7
 10
1601.8764974000473
 20
106.33375246448287
 11
1619.1357909415244
 21
112.61562157804328
  0
LINE
  8
_e-0_
  6
CONTINUOUS
 62
    7
 10
1599.0802703279341
 20
101.59138683831841
 11
1618.3026066457023
 21
108.58774509104031
  0
LINE
  8
_e-0_
  6
CONTINUOUS
 62
    7
 10
1593.0224428205606
 20
95.661895737649672
 11
1616.3271399039554
 21
104.14411179459597
  0
LINE
  8
_e-0_
  6
CONTINUOUS
 62
    7
 10
1586.8853841034745
 20
89.703566835020751
 11
1612.919264657527
 21
99.179124439137694
  0
LINE
  8
_e-0_
  6
CONTINUOUS
 62
    7
 10
1597.4963490198765
 20
89.841020017768244
 11
1604.9071208711222
 21
92.538320384559483
  0
LINE
  8
_e-0_
  6
CONTINUOUS
 62
    3
 10
1586.5125270914431
 20
138.29628973774788
 11
1586.5125270914431
 21
138.29628973774788
  0
LINE
  8
_e-0_
  6
CONTINUOUS
 62
    3
 10
1586.5125270914431
 20
138.29628973774788
 11
1583.6271314215275
 21
136.32976465066084
  0
LINE
  8
_e-0_
  6
CONTINUOUS
 62
    3
 10
1597.6707895343602
 20
89.703566835019557
 11
1586.8442807281192
 21
89.703566835019557
  0
ARC
  8
_e-0_
  6
CONTINUOUS
 62
    3
 10
1597.6707895343602
 20
93.203566835019557
 40
3.5
 50
270
 51
286.20399351045659
  0
LINE
  8
_e-0_
  6
CONTINUOUS
 62
    3
 10
1619.2602025888829
 20
147.09006097599026
 11
1619.2602025888829
 21
111.84142711396845
  0
ARC
  8
_e-0_
  6
CONTINUOUS
 62
    3
 10
1590.3455160436512
 20
118.41076557439384
 40
29.75
 50
286.20399351045648
 51
345.50707147989851
  0
ARC
  8
_e-0_
  6
CONTINUOUS
 62
    3
 10
1615.7602025888829
 20
111.84142711396845
 40
3.5
 50
345.50707147989879
 51
0
  0
ARC
  8
_e-0_
  6
CONTINUOUS
 62
    3
 10
1575.0649171164041
 20
119.34692592402706
 40
28
 50
279.71265316664215
 51
332.69093929010892
  0
ARC
  8
_e-0_
  6
CONTINUOUS
 62
    3
 10
1579.19824002848
 20
95.198103143102343
 40
3.5
 50
241.94526281180003
 51
279.71265316664226
  0
ARC
  8
_e-0_
  6
CONTINUOUS
 62
    3
 10
1584.2850186076325
 20
143.59006097599026
 40
3.5
 50
90
 51
106.05338143786269
  0
LINE
  8
_e-0_
  6
CONTINUOUS
 62
    3
 10
1601.9034492406551
 20
147.09006097599018
 11
1601.9034492406551
 21
147.09006097599018
  0
LINE
  8
_e-0_
  6
CONTINUOUS
 62
    3
 10
1601.9034492406551
 20
147.09006097599018
 11
1594.7527392686336
 21
143.6684738385544
  0
LINE
  8
_e-0_
  6
CONTINUOUS
 62
    3
 10
1594.7527392686336
 20
143.6684738385544
 11
1590.6096208363071
 21
141.01114285288815
  0
LINE
  8
_e-0_
  6
CONTINUOUS
 62
    3
 10
1586.5125270914429
 20
138.29628973774777
 11
1590.6096208363071
 21
141.01114285288821
  0
ARC
  8
_e-0_
  6
CONTINUOUS
 62
    3
 10
1584.2850186076325
 20
143.59006097599026
 40
3.5
 50
90
 51
106.05338143786269
  0
ARC
  8
_e-0_
  6
CONTINUOUS
 62
    3
 10
1584.2850186076325
 20
143.59006097599026
 40
3.5
 50
90
 51
106.05338143786269
  0
LINE
  8
_e-0_
  6
CONTINUOUS
 62
    3
 10
1601.9034492406553
 20
147.09006097599026
 11
1584.2850186076325
 21
147.09006097599026
  0
ARC
  8
_e-0_
  6
CONTINUOUS
 62
    3
 10
1591.5440052935948
 20
118.36369357414213
 40
29.75
 50
106.05338143786269
 51
241.94526281180051
  0
ARC
  8
_e-0_
  6
CONTINUOUS
 62
    3
 10
1584.2850186076325
 20
143.59006097599026
 40
3.5
 50
90
 51
106.05338143786269
  0
LINE
  8
_e-0_
  6
CONTINUOUS
 62
    3
 10
1609.4203880620989
 20
147.09006097599026
 11
1619.2602025888829
 21
147.09006097599026
  0
ARC
  8
_e-0_
  6
CONTINUOUS
 62
    3
 10
1609.4203880620989
 20
143.59006097599026
 40
3.5
 50
90
 51
112.84552721528329
  0
LINE
  8
_e-0_
  6
CONTINUOUS
 62
    3
 10
1604.4370140871424
 20
132.22614324280903
 11
1588.3121482220769
 21
132.22614324280903
  0
ARC
  8
_e-0_
  6
CONTINUOUS
 62
    3
 10
1588.3121482220769
 20
128.72614324280903
 40
3.5
 50
90
 51
110.93110431809542
  0
ARC
  8
_e-0_
  6
CONTINUOUS
 62
    3
 10
1577.9604863961799
 20
124.39270516552176
 40
0.35
 50
165.368776721252
 51
224.67319701305797
  0
LINE
  8
_e-0_
  6
CONTINUOUS
 62
    3
 10
1577.7115914406438
 20
124.14663342576159
 11
1577.5786307917487
 21
124.28111955093413
  0
ARC
  8
_e-0_
  6
CONTINUOUS
 62
    3
 10
1593.3135796345513
 20
115.64999381622652
 40
17.5
 50
110.93110431809527
 51
150.17701829297229
  0
ARC
  8
_e-0_
  6
CONTINUOUS
 62
    3
 10
1577.8275257472853
 20
124.5271912906943
 40
0.35
 50
224.67319701305652
 51
330.17701829297561
  0
LINE
  8
_e-0_
  6
CONTINUOUS
 62
    3
 10
1608.0615201449791
 20
146.81550326873448
 11
1598.4663758810283
 21
142.77310147790188
  0
LINE
  8
_e-0_
  6
CONTINUOUS
 62
    3
 10
1598.4663758810283
 20
142.77310147790188
 11
1593.9801698698101
 21
140.32295754264214
  0
ARC
  8
_e-0_
  6
CONTINUOUS
 62
    3
 10
1594.5543403969022
 20
120.06067222442823
 40
17.5
 50
126.05682261028304
 51
165.36877672125814
  0
ARC
  8
_e-0_
  6
CONTINUOUS
 62
    3
 10
1625.4201546464551
 20
77.780752934519171
 40
70
 50
116.6886898974924
 51
126.03335467187628
  0
LINE
  8
_e-0_
  6
CONTINUOUS
 62
    3
 10
1583.6271314215275
 20
136.3297646506609
 11
1583.6271314215275
 21
136.3297646506609
  0
LINE
  8
_e-0_
  6
CONTINUOUS
 62
    3
 10
1583.6271314215275
 20
136.3297646506609
 11
1578.0492290087972
 21
131.25130125754807
  0
LINE
  8
_e-0_
  6
CONTINUOUS
 62
    3
 10
1578.0492290087972
 20
131.25130125754807
 11
1576.7576272032576
 21
129.75804634992846
  0
ARC
  8
_e-0_
  6
CONTINUOUS
 62
    3
 10
1592.184568082041
 20
122.18642152850623
 40
17.5
 50
169.07329675873063
 51
296.32138326661799
  0
LINE
  8
_e-0_
  6
CONTINUOUS
 62
    3
 10
1576.7576272032579
 20
129.75804634992837
 11
1576.7576272032579
 21
129.75804634992837
  0
LINE
  8
_e-0_
  6
CONTINUOUS
 62
    3
 10
1576.7576272032579
 20
129.75804634992837
 11
1575.0018347462792
 21
125.50360031658642
  0
LINE
  8
_e-0_
  6
CONTINUOUS
 62
    3
 10
1604.4370140871424
 20
132.22614324280903
 11
1604.4370140871424
 21
115.09698120082157
  0
ARC
  8
_e-0_
  6
CONTINUOUS
 62
    3
 10
1594.0988647661356
 20
100.89163688315039
 40
3.5
 50
311.4163090429962
 51
326.13300916724881
  0
ARC
  8
_e-0_
  6
CONTINUOUS
 62
    3
 10
1576.600158761973
 20
118.11517364093884
 40
28
 50
316.78132524618342
 51
353.81191653224226
  0
ARC
  8
_e-0_
  6
CONTINUOUS
 62
    3
 10
1568.6301385979036
 20
129.7636646499634
 40
42
 50
294.69555798319504
 51
311.41630904299643
  0
ARC
  8
_e-0_
  6
CONTINUOUS
 62
    3
 10
1590.348770732309
 20
142.08647005554126
 40
52.5
 50
264.68313230529076
 51
266.17253517307824
  0
ARC
  8
_e-0_
  6
CONTINUOUS
 62
    3
 10
1585.5163576501308
 20
90.160847442006826
 40
0.35
 50
174.02086603460466
 51
264.68313230528985
  0
ARC
  8
_e-0_
  6
CONTINUOUS
 62
    3
 10
1586.9087415055073
 20
90.015014663503109
 40
1.75
 50
114.69555798319522
 51
174.02086603461154
  0
LINE
  8
_e-0_
  6
CONTINUOUS
 62
    7
 10
1663.8229943367159
 20
118.60122416843424
 11
1671.7833236823573
 21
121.49854710520341
  0
LINE
  8
_e-0_
  6
CONTINUOUS
 62
    3
 10
1705.3809664124987
 20
113.84318744763572
 11
1705.3809664124987
 21
95.543130359806809
  0
CIRCLE
  8
_e-0_
  6
CONTINUOUS
 62
    3
 10
1655.8617201357269
 20
113.72405414391363
 40
9.3364165690814555
  0
CIRCLE
  8
_e-0_
  6
CONTINUOUS
 62
    3
 10
1655.6631179225644
 20
113.52545193075104
 40
17.984195294728365
  0
LINE
  8
_e-0_
  6
CONTINUOUS
 62
    3
 10
1679.6457732076805
 20
131.78375267480484
 11
1679.6457732076805
 21
95.543130359806809
  0
LINE
  8
_e-0_
  6
CONTINUOUS
 62
    3
 10
1679.6457732076805
 20
95.543130359806809
 11
1690.3998515275682
 21
95.543130359806809
  0
LINE
  8
_e-0_
  6
CONTINUOUS
 62
    3
 10
1690.3998515275682
 20
95.543130359806809
 11
1690.3998515275682
 21
120.84318744763572
  0
LINE
  8
_e-0_
  6
CONTINUOUS
 62
    3
 10
1715.8242332202512
 20
95.543130359806809
 11
1705.3809664124987
 21
95.543130359806809
  0
LINE
  8
_e-0_
  6
CONTINUOUS
 62
    3
 10
1698.3809664124987
 20
120.84318744763572
 11
1690.3998515275682
 21
120.84318744763572
  0
ARC
  8
_e-0_
  6
CONTINUOUS
 62
    3
 10
1698.3809664124987
 20
113.84318744763572
 40
7
 50
0
 51
90
  0
LINE
  8
_e-0_
  6
CONTINUOUS
 62
    3
 10
1698.3242332202512
 20
131.78375267480484
 11
1679.6457732076805
 21
131.78375267480484
  0
LINE
  8
_e-0_
  6
CONTINUOUS
 62
    3
 10
1715.8242332202512
 20
114.28375267480484
 11
1715.8242332202512
 21
95.543130359806809
  0
ARC
  8
_e-0_
  6
CONTINUOUS
 62
    3
 10
1698.3242332202512
 20
114.28375267480484
 40
17.5
 50
0
 51
90
  0
ARC
  8
_e-0_
  6
CONTINUOUS
 62
    3
 10
1740.3716824322664
 20
113.52357633684499
 40
9.3364165690814555
 50
23.422555400004952
 51
97.191484740792631
  0
LINE
  8
_e-0_
  6
CONTINUOUS
 62
    3
 10
1731.8046032917441
 20
117.2348873385597
 11
1748.9387615727885
 21
117.2348873385597
  0
ARC
  8
_e-0_
  6
CONTINUOUS
 62
    3
 10
1740.3716824322664
 20
113.52357633684499
 40
9.3364165690814555
 50
92.530763017635266
 51
156.57744459999506
  0
ARC
  8
_e-0_
  6
CONTINUOUS
 62
    3
 10
1740.3716824322664
 20
113.52357633684499
 40
9.3364165690814555
 50
204.21097500392608
 51
316.0067678116265
  0
LINE
  8
_e-0_
  6
CONTINUOUS
 62
    3
 10
1731.8564823251908
 20
109.69473297521727
 11
1758.0640527493669
 21
109.69473297521727
  0
LINE
  8
_e-0_
  6
CONTINUOUS
 62
    3
 10
1747.0885045013837
 20
107.03874976682504
 11
1756.0964688469221
 21
104.85260430865147
  0
ARC
  8
_e-0_
  6
CONTINUOUS
 62
    3
 10
1740.5959107374496
 20
113.97203294721174
 40
17.984195294728365
 50
346.24110979921471
 51
329.53046432565105
  0
ARC
  8
_e-0_
  6
CONTINUOUS
 62
    3
 10
1782.5594913296381
 20
113.50016891747736
 40
7.7628296493075596
 50
94.502189492040685
 51
357.22978420280037
  0
LINE
  8
_e-0_
  6
CONTINUOUS
 62
    3
 10
1789.613249305803
 20
121.23904507333895
 11
1781.9501310024052
 21
121.23904507333895
  0
LINE
  8
_e-0_
  6
CONTINUOUS
 62
    3
 10
1790.3132493058028
 20
120.53904507333919
 11
1790.3132493058028
 21
113.12498707992119
  0
ARC
  8
_e-0_
  6
CONTINUOUS
 62
    3
 10
1789.613249305803
 20
120.53904507333919
 40
0.7
 50
0
 51
90
  0
LINE
  8
_e-0_
  6
CONTINUOUS
 62
    3
 10
1784.2792420148862
 20
131.80341119915266
 11
1790.1751542820722
 21
131.80341119915266
  0
ARC
  8
_e-0_
  6
CONTINUOUS
 62
    3
 10
1782.8763999628429
 20
113.87401314523162
 40
17.984195294728365
 50
85.526146014136969
 51
347.40557840019874
  0
LINE
  8
_e-0_
  6
CONTINUOUS
 62
    3
 10
1790.1751542820722
 20
146.3900609759903
 11
1790.1751542820722
 21
131.80341119915266
  0
ARC
  8
_e-0_
  6
CONTINUOUS
 62
    3
 10
1790.8751542820721
 20
146.3900609759903
 40
0.7
 50
90
 51
180
  0
LINE
  8
_e-0_
  6
CONTINUOUS
 62
    3
 10
1800.4278594794529
 20
146.3900609759903
 11
1800.4278594794529
 21
109.95259130669862
  0
LINE
  8
_e-0_
  6
CONTINUOUS
 62
    3
 10
1799.7278594794531
 20
147.09006097599026
 11
1790.8751542820721
 21
147.09006097599026
  0
ARC
  8
_e-0_
  6
CONTINUOUS
 62
    3
 10
1799.7278594794531
 20
146.3900609759903
 40
0.7
 50
0
 51
90
  0
CIRCLE
  8
_e-0_
  6
CONTINUOUS
 62
    3
 10
1825.2452992057083
 20
113.83301139799809
 40
9.3364165690814555
  0
CIRCLE
  8
_e-0_
  6
CONTINUOUS
 62
    3
 10
1825.046696992546
 20
113.6344091848357
 40
17.984195294728365
  0
ARC
  8
_e-0_
  6
CONTINUOUS
 62
    3
 10
1652.9139512052079
 20
128.4927627235869
 40
3.5
 50
90
 51
106.05338143786269
  0
ARC
  8
_e-0_
  6
CONTINUOUS
 62
    3
 10
1652.9139512052079
 20
128.4927627235869
 40
3.5
 50
90
 51
106.05338143786269
  0
ARC
  8
_e-0_
  6
CONTINUOUS
 62
    3
 10
1652.9139512052079
 20
128.4927627235869
 40
3.5
 50
90
 51
106.05338143786269
  0
ARC
  8
_e-0_
  6
CONTINUOUS
 62
    3
 10
1652.9139512052079
 20
128.4927627235869
 40
3.5
 50
90
 51
106.05338143786269
  0
LINE
  8
_e-0_
  6
CONTINUOUS
 62
    7
 10
1642.442956303171
 20
125.71801553140744
 11
1657.9531204554186
 21
131.36325361140819
  0
LINE
  8
_e-0_
  6
CONTINUOUS
 62
    7
 10
1652.86905441533
 20
125.78818270010646
 11
1663.5644091929311
 21
129.68097348407016
  0
LINE
  8
_e-0_
  6
CONTINUOUS
 62
    7
 10
1639.2258085689381
 20
120.82244731324394
 11
1652.86905441533
 21
125.78818270010646
  0
LINE
  8
_e-0_
  6
CONTINUOUS
 62
    7
 10
1637.9494884505261
 20
116.63328257708121
 11
1650.0649668463215
 21
121.04295608704589
  0
LINE
  8
_e-0_
  6
CONTINUOUS
 62
    7
 10
1637.692949658659
 20
112.81528788924134
 11
1646.8450087286271
 21
116.14636497295572
  0
LINE
  8
_e-0_
  6
CONTINUOUS
 62
    7
 10
1638.1893170893513
 20
109.27132865560668
 11
1646.6280458118162
 21
112.3427747256311
  0
LINE
  8
_e-0_
  6
CONTINUOUS
 62
    7
 10
1639.3443376449258
 20
105.96709955413578
 11
1647.7856200074986
 21
109.03947507314842
  0
LINE
  8
_e-0_
  6
CONTINUOUS
 62
    7
 10
1641.1528902818749
 20
102.90073667742316
 11
1650.2954605698198
 21
106.22836012692175
  0
LINE
  8
_e-0_
  6
CONTINUOUS
 62
    7
 10
1643.6953153371805
 20
100.10148151674135
 11
1655.4915968259758
 21
104.39497685368814
  0
LINE
  8
_e-0_
  6
CONTINUOUS
 62
    7
 10
1647.2050904437844
 20
97.654312980848089
 11
1662.6774327764387
 21
103.28578504431098
  0
LINE
  8
_e-0_
  6
CONTINUOUS
 62
    7
 10
1652.4352305860884
 20
95.83330611002168
 11
1662.7149721104885
 21
99.574826040853622
  0
LINE
  8
_e-0_
  6
CONTINUOUS
 62
    7
 10
1662.7149721104885
 20
99.574826040853622
 11
1669.5081152020181
 21
102.04732792328152
  0
LINE
  8
_e-0_
  6
CONTINUOUS
 62
    7
 10
1662.0801076738841
 20
103.06837648680115
 11
1672.3441143410427
 21
106.80416939795665
  0
LINE
  8
_e-0_
  6
CONTINUOUS
 62
    7
 10
1662.1418663323956
 20
106.81547700387318
 11
1673.4597484443668
 21
110.93484920756452
  0
LINE
  8
_e-0_
  6
CONTINUOUS
 62
    7
 10
1664.9438615852718
 20
111.55994207614111
 11
1673.6080324963927
 21
114.71344239238425
  0
LINE
  8
_e-0_
  6
CONTINUOUS
 62
    7
 10
1665.0595611443134
 20
115.32667547541558
 11
1673.0224441300622
 21
118.22492786117277
  0
LINE
  8
_e-0_
  6
CONTINUOUS
 62
    7
 10
1655.5977912956514
 20
123.05673949802212
 11
1667.2348703146228
 21
127.29228987473155
  0
LINE
  8
_e-0_
  6
CONTINUOUS
 62
    7
 10
1661.2118904166254
 20
121.37548226661135
 11
1669.8855501097696
 21
124.53243621707008
  0
LINE
  8
_e-0_
  6
CONTINUOUS
 62
    7
 10
1679.6457732076805
 20
128.08486690450695
 11
1689.808378338716
 21
131.78375267480484
  0
LINE
  8
_e-0_
  6
CONTINUOUS
 62
    7
 10
1679.6457732076805
 20
124.36024470084134
 11
1699.8569310010486
 21
131.71650453768467
  0
LINE
  8
_e-0_
  6
CONTINUOUS
 62
    7
 10
1679.6457732076805
 20
120.63562249717574
 11
1705.7420168586468
 21
130.13387841228575
  0
LINE
  8
_e-0_
  6
CONTINUOUS
 62
    7
 10
1679.6457732076805
 20
116.91100029351014
 11
1709.4777022456737
 21
127.768934494081
  0
LINE
  8
_e-0_
  6
CONTINUOUS
 62
    7
 10
1679.6457732076805
 20
113.18637808984453
 11
1690.3998515275682
 21
117.10054249525103
  0
LINE
  8
_e-0_
  6
CONTINUOUS
 62
    7
 10
1700.0963057950366
 20
120.6297632265329
 11
1712.147086034181
 21
125.01588853326433
  0
LINE
  8
_e-0_
  6
CONTINUOUS
 62
    7
 10
1679.6457732076805
 20
109.46175588617893
 11
1690.3998515275682
 21
113.37592029158543
  0
LINE
  8
_e-0_
  6
CONTINUOUS
 62
    7
 10
1682.3379254664121
 20
95.543130359806809
 11
1690.3998515275682
 21
98.477431476922618
  0
LINE
  8
_e-0_
  6
CONTINUOUS
 62
    7
 10
1679.6457732076805
 20
98.287889275181726
 11
1690.3998515275682
 21
102.20205368058842
  0
LINE
  8
_e-0_
  6
CONTINUOUS
 62
    7
 10
1679.6457732076805
 20
102.01251147884752
 11
1690.3998515275682
 21
105.92667588425402
  0
LINE
  8
_e-0_
  6
CONTINUOUS
 62
    7
 10
1679.6457732076805
 20
105.73713368251313
 11
1690.3998515275682
 21
109.65129808791982
  0
LINE
  8
_e-0_
  6
CONTINUOUS
 62
    7
 10
1705.3809664124987
 20
111.3793557784908
 11
1715.8242332202512
 21
115.18039404501266
  0
LINE
  8
_e-0_
  6
CONTINUOUS
 62
    7
 10
1705.3809664124987
 20
107.65473357482539
 11
1715.8242332202512
 21
111.45577184134725
  0
LINE
  8
_e-0_
  6
CONTINUOUS
 62
    7
 10
1705.2735332957738
 20
115.06487552549424
 11
1715.2581025563374
 21
118.69896153830845
  0
LINE
  8
_e-0_
  6
CONTINUOUS
 62
    7
 10
1705.3809664124987
 20
103.93011137115979
 11
1715.8242332202512
 21
107.73114963768165
  0
LINE
  8
_e-0_
  6
CONTINUOUS
 62
    7
 10
1705.3809664124987
 20
100.20548916749399
 11
1715.8242332202512
 21
104.00652743401585
  0
LINE
  8
_e-0_
  6
CONTINUOUS
 62
    7
 10
1705.3809664124987
 20
96.480866963828191
 11
1715.8242332202512
 21
100.28190523035024
  0
LINE
  8
_e-0_
  6
CONTINUOUS
 62
    7
 10
1713.037871668125
 20
95.543130359806809
 11
1715.8242332202512
 21
96.557283026684444
  0
LINE
  8
_e-0_
  6
CONTINUOUS
 62
    7
 10
1703.813231683931
 20
118.25799140939818
 11
1714.0407803702014
 21
121.98051470070885
  0
LINE
  8
_e-0_
  6
CONTINUOUS
 62
    7
 10
1728.4318689794338
 20
127.21844259315653
 11
1741.3994793387998
 21
131.93826677352751
  0
LINE
  8
_e-0_
  6
CONTINUOUS
 62
    7
 10
1724.5421472256477
 20
122.07807745153513
 11
1747.6833420958653
 21
130.50078356964777
  0
LINE
  8
_e-0_
  6
CONTINUOUS
 62
    7
 10
1723.0240293606143
 20
117.80090553288937
 11
1751.5956009641786
 21
128.200107142792
  0
LINE
  8
_e-0_
  6
CONTINUOUS
 62
    7
 10
1723.0494693909442
 20
114.08554274302281
 11
1731.7926270204015
 21
117.2677918736426
  0
LINE
  8
_e-0_
  6
CONTINUOUS
 62
    7
 10
1744.5055821417379
 20
121.8949291273708
 11
1754.4019975703818
 21
125.4969297693301
  0
LINE
  8
_e-0_
  6
CONTINUOUS
 62
    7
 10
1747.6849095016675
 20
119.32748744770776
 11
1756.4249443131477
 21
122.50859996553683
  0
LINE
  8
_e-0_
  6
CONTINUOUS
 62
    7
 10
1724.2465398925839
 20
110.79661857027224
 11
1741.9355379538344
 21
117.2348873385597
  0
LINE
  8
_e-0_
  6
CONTINUOUS
 62
    7
 10
1724.0222156217378
 20
106.99034900919505
 11
1757.7798377128935
 21
119.27711862998251
  0
LINE
  8
_e-0_
  6
CONTINUOUS
 62
    7
 10
1725.7102042120025
 20
103.8801044081668
 11
1733.8498401441661
 21
106.84268960523775
  0
LINE
  8
_e-0_
  6
CONTINUOUS
 62
    7
 10
1741.6857649024905
 20
109.69473297521727
 11
1758.4859901259085
 21
115.80951488550942
  0
LINE
  8
_e-0_
  6
CONTINUOUS
 62
    7
 10
1751.9190803030614
 20
109.69473297521727
 11
1758.4806134788871
 21
112.08293574236785
  0
LINE
  8
_e-0_
  6
CONTINUOUS
 62
    7
 10
1728.1097218623035
 20
101.02883520580684
 11
1737.7885098682781
 21
104.5516259437544
  0
LINE
  8
_e-0_
  6
CONTINUOUS
 62
    7
 10
1731.4156006535004
 20
98.507454480229
 11
1751.7481530186712
 21
105.90789832780961
  0
LINE
  8
_e-0_
  6
CONTINUOUS
 62
    7
 10
1736.214864691879
 20
96.52962153291719
 11
1755.1637526558708
 21
103.42645272425502
  0
LINE
  8
_e-0_
  6
CONTINUOUS
 62
    7
 10
1786.8362183645201
 20
96.331176469691854
 11
1791.1193211342688
 21
97.890098388183218
  0
LINE
  8
_e-0_
  6
CONTINUOUS
 62
    7
 10
1777.5808873210378
 20
96.687133665249859
 11
1797.9805111744715
 21
104.11198953812635
  0
LINE
  8
_e-0_
  6
CONTINUOUS
 62
    7
 10
1773.0983760633312
 20
98.780255196347354
 11
1800.0688814288987
 21
108.59671635253039
  0
LINE
  8
_e-0_
  6
CONTINUOUS
 62
    7
 10
1765.4573050483425
 20
118.34686601097112
 11
1800.4278594794529
 21
131.075106899681
  0
LINE
  8
_e-0_
  6
CONTINUOUS
 62
    7
 10
1767.2127780856924
 20
122.71042814728906
 11
1800.4278594794529
 21
134.7997291033466
  0
LINE
  8
_e-0_
  6
CONTINUOUS
 62
    7
 10
1790.1751542820722
 20
145.96653840545644
 11
1793.2620071748617
 21
147.09006097599026
  0
LINE
  8
_e-0_
  6
CONTINUOUS
 62
    7
 10
1790.1751542820722
 20
142.24191620179084
 11
1800.4278594794529
 21
145.97359571434361
  0
LINE
  8
_e-0_
  6
CONTINUOUS
 62
    7
 10
1790.1751542820722
 20
138.51729399812504
 11
1800.4278594794529
 21
142.24897351067801
  0
LINE
  8
_e-0_
  6
CONTINUOUS
 62
    7
 10
1790.1751542820722
 20
134.79267179445923
 11
1800.4278594794529
 21
138.5243513070124
  0
LINE
  8
_e-0_
  6
CONTINUOUS
 62
    7
 10
1771.9520223861793
 20
128.15999420924765
 11
1782.0621070798138
 21
131.83976410364078
  0
LINE
  8
_e-0_
  6
CONTINUOUS
 62
    7
 10
1783.6368171157889
 20
121.23904507333895
 11
1800.4278594794529
 21
127.35048469601539
  0
LINE
  8
_e-0_
  6
CONTINUOUS
 62
    7
 10
1764.9004816034434
 20
114.4195766476206
 11
1776.862645909196
 21
118.77344839231625
  0
LINE
  8
_e-0_
  6
CONTINUOUS
 62
    7
 10
1765.1587875415432
 20
110.78897011675755
 11
1774.8392683927747
 21
114.31237699998962
  0
LINE
  8
_e-0_
  6
CONTINUOUS
 62
    7
 10
1766.0958080226666
 20
107.40539547711858
 11
1775.2983162590037
 21
110.75483455573464
  0
LINE
  8
_e-0_
  6
CONTINUOUS
 62
    7
 10
1767.6794405051632
 20
104.25716835909872
 11
1777.3248418632977
 21
107.7678073510105
  0
LINE
  8
_e-0_
  6
CONTINUOUS
 62
    7
 10
1769.9582118629459
 20
101.36195110036442
 11
1782.029295951246
 21
105.75546640382984
  0
LINE
  8
_e-0_
  6
CONTINUOUS
 62
    7
 10
1787.9438433695036
 20
107.90818561323169
 11
1800.4278594794529
 21
112.45199588135278
  0
LINE
  8
_e-0_
  6
CONTINUOUS
 62
    7
 10
1790.2541564541725
 20
112.47369301155237
 11
1800.4278594794529
 21
116.17661808501839
  0
LINE
  8
_e-0_
  6
CONTINUOUS
 62
    7
 10
1790.3132493058028
 20
116.21982325426938
 11
1800.4278594794529
 21
119.90124028868399
  0
LINE
  8
_e-0_
  6
CONTINUOUS
 62
    7
 10
1790.3132493058028
 20
119.94444545793498
 11
1800.4278594794529
 21
123.62586249234959
  0
LINE
  8
_e-0_
  6
CONTINUOUS
 62
    7
 10
1816.602733973202
 20
129.5130353510658
 11
1821.3085637829194
 21
131.22581732932542
  0
LINE
  8
_e-0_
  6
CONTINUOUS
 62
    7
 10
1809.9155522303997
 20
123.35447804189166
 11
1830.3898865290016
 21
130.80652629299783
  0
LINE
  8
_e-0_
  6
CONTINUOUS
 62
    7
 10
1825.9626822481527
 20
95.673555880762336
 11
1835.8900255407647
 21
99.286813344615325
  0
LINE
  8
_e-0_
  6
CONTINUOUS
 62
    7
 10
1818.7711333038214
 20
96.780668330422884
 11
1840.6874334818164
 21
104.75754924045591
  0
LINE
  8
_e-0_
  6
CONTINUOUS
 62
    7
 10
1807.8431644883071
 20
118.87556838624615
 11
1834.8564152743738
 21
128.7075876031422
  0
LINE
  8
_e-0_
  6
CONTINUOUS
 62
    7
 10
1814.6077730063784
 20
98.989951311293737
 11
1842.4566527759802
 21
109.12611460508659
  0
LINE
  8
_e-0_
  6
CONTINUOUS
 62
    7
 10
1811.6486847138985
 20
101.63755345593102
 11
1821.5722783581932
 21
105.24944615940759
  0
LINE
  8
_e-0_
  6
CONTINUOUS
 62
    7
 10
1809.506600567367
 20
104.58252079096575
 11
1818.1736534581073
 21
107.73707006200612
  0
LINE
  8
_e-0_
  6
CONTINUOUS
 62
    7
 10
1808.0438809885849
 20
107.77475660687656
 11
1816.4086626044595
 21
110.81928813119179
  0
LINE
  8
_e-0_
  6
CONTINUOUS
 62
    7
 10
1807.227712408433
 20
111.20231774122362
 11
1815.9241989061613
 21
114.36757996909449
  0
LINE
  8
_e-0_
  6
CONTINUOUS
 62
    7
 10
1807.105868726207
 20
114.88259247132555
 11
1817.1897373805568
 21
118.55282050775863
  0
LINE
  8
_e-0_
  6
CONTINUOUS
 62
    7
 10
1828.3823827622277
 20
122.62661026938383
 11
1837.9878520397533
 21
126.12271517256147
  0
LINE
  8
_e-0_
  6
CONTINUOUS
 62
    7
 10
1832.0420622399024
 20
120.23400246254664
 11
1840.2601493608067
 21
123.22514155716206
  0
LINE
  8
_e-0_
  6
CONTINUOUS
 62
    7
 10
1833.9517395448838
 20
117.2044459549478
 11
1841.8381217839346
 21
120.07485434600778
  0
LINE
  8
_e-0_
  6
CONTINUOUS
 62
    7
 10
1834.5808896945156
 20
113.70881567863233
 11
1842.7695432084321
 21
116.68924181641705
  0
LINE
  8
_e-0_
  6
CONTINUOUS
 62
    7
 10
1833.5764057977091
 20
109.61859123572952
 11
1843.0216000651801
 21
113.05636080595044
  0
LINE
  8
ADD_LINE
  6
DOT
 62
    9
 10
1637.692949658659
 20
84
 11
1637.692949658659
 21
154
  0
LINE
  8
ADD_LINE
  6
DOT
 62
    9
 10
1740.3572748619194
 20
154
 11
1740.3572748619194
 21
84
  0
LINE
  8
ADD_LINE
  6
DOT
 62
    9
 10
1843.0216000651801
 20
84
 11
1843.0216000651801
 21
154
  0
LINE
  8
ADD_LINE
  6
DOT
 62
    9
 10
1554
 20
154
 11
1554
 21
84
  0
LINE
  8
ADD_LINE
  6
DOT
 62
    9
 10
1897
 20
154
 11
1897
 21
84
  0
TEXT
  8
_e-0_
 62
    7
 10
1850.0010778025123
 20
126.39372940214687
 40
24.5
 41
0.5714285714285713
 50
0
  1
ワンド
  0
TEXT
  8
_e-0_
 62
    7
 10
1854.7931570104328
 20
102.91254128333486
 40
21
 41
0.6666666666666666
 50
0
  1
株式
  0
TEXT
  8
_e-0_
 62
    7
 10
1854.313949089641
 20
83.265016530859639
 40
21
 41
0.6666666666666666
 50
0
  1
会社
  0
LINE
  8
_0-2_
  6
CONTINUOUS
 62
    7
 10
2043.1543307086617
 20
1112.116197975253
 11
2048.0543307086618
 21
1112.116197975253
  0
LINE
  8
_0-2_
  6
CONTINUOUS
 62
    5
 10
2048.1040781769675
 20
1136.864935316782
 11
2048.1040781769675
 21
1117.0659454435588
  0
LINE
  8
_0-2_
  6
CONTINUOUS
 62
    5
 10
2023.3553408354387
 20
1112.116197975253
 11
2043.1543307086617
 21
1112.116197975253
  0
LINE
  8
_0-2_
  6
CONTINUOUS
 62
    5
 10
2048.1040781769675
 20
1117.0659454435588
 11
2043.1543307086617
 21
1112.116197975253
  0
LINE
  8
_0-2_
  6
CONTINUOUS
 62
    5
 10
2022.6482340542518
 20
1112.8233047564397
 11
2023.3553408354387
 21
1112.116197975253
  0
LINE
  8
_0-2_
  6
CONTINUOUS
 62
    5
 10
2047.3969713957808
 20
1137.5720420979687
 11
2048.1040781769675
 21
1136.864935316782
  0
LINE
  8
_0-2_
  6
CONTINUOUS
 62
    5
 10
2047.3969713957808
 20
1137.5720420979687
 11
2022.6482340542518
 21
1112.8233047564397
  0
LINE
  8
_0-2_
  6
CONTINUOUS
 62
    5
 10
2023.3543307086613
 20
1573.116197975253
 11
2043.1533205818848
 21
1573.116197975253
  0
LINE
  8
_0-2_
  6
CONTINUOUS
 62
    5
 10
2048.1030680501908
 20
1548.367460633724
 11
2048.1030680501908
 21
1568.166450506947
  0
LINE
  8
_0-2_
  6
CONTINUOUS
 62
    5
 10
2043.1533205818848
 20
1573.116197975253
 11
2048.1030680501908
 21
1568.166450506947
  0
LINE
  8
_0-2_
  6
CONTINUOUS
 62
    5
 10
2047.3959612690041
 20
1547.6603538525373
 11
2048.1030680501908
 21
1548.367460633724
  0
LINE
  8
_0-2_
  6
CONTINUOUS
 62
    5
 10
2022.6472239274748
 20
1572.4090911940666
 11
2023.3543307086613
 21
1573.116197975253
  0
LINE
  8
_0-2_
  6
CONTINUOUS
 62
    5
 10
2022.6472239274748
 20
1572.4090911940666
 11
2047.3959612690041
 21
1547.6603538525373
  0
LINE
  8
_0-2_
  6
CONTINUOUS
 62
    2
 10
2048.0543307086618
 20
1573.116197975253
 11
2048.0543307086618
 21
1577.116197975253
  0
LINE
  8
_0-2_
  6
CONTINUOUS
 62
    2
 10
2023.3543307086613
 20
1573.116197975253
 11
2048.0543307086618
 21
1573.116197975253
  0
LINE
  8
_0-2_
  6
CONTINUOUS
 62
    2
 10
2023.3543307086613
 20
1577.116197975253
 11
2023.3543307086613
 21
1573.116197975253
  0
LINE
  8
_0-2_
  6
CONTINUOUS
 62
    2
 10
2048.0543307086618
 20
1577.116197975253
 11
2023.3543307086613
 21
1577.116197975253
  0
LINE
  8
_0-0_
  6
CONTINUOUS
 62
    7
 10
2048.0543307086618
 20
1592.116197975253
 11
2048.0543307086618
 21
1577.116197975253
  0
LINE
  8
_0-0_
  6
CONTINUOUS
 62
    7
 10
2048.0543307086618
 20
1592.116197975253
 11
2063.0543307086613
 21
1592.116197975253
  0
LINE
  8
_0-0_
  6
CONTINUOUS
 62
    7
 10
2048.0543307086618
 20
1112.116197975253
 11
2048.0543307086618
 21
1592.116197975253
  0
LINE
  8
_0-0_
  6
CONTINUOUS
 62
    7
 10
2063.0543307086613
 20
1112.116197975253
 11
2048.0543307086618
 21
1112.116197975253
  0
LINE
  8
_0-0_
  6
CONTINUOUS
 62
    7
 10
2063.0543307086613
 20
1100.1161979752532
 11
2063.0543307086613
 21
1112.116197975253
  0
POINT
  8
_0-9_
 62
    3
 10
2063.0543307086618
 20
854.99201349831287
  0
LINE
  8
_0-9_
  6
CONTINUOUS
 62
    4
 10
2063.0543307086618
 20
861.99201349831287
 11
2063.0543307086618
 21
734.99201349831287
  0
LINE
  8
_0-0_
  6
CONTINUOUS
 62
    7
 10
1555.5543307086613
 20
1112.116197975253
 11
1555.5543307086613
 21
1577.116197975253
  0
LINE
  8
_0-0_
  6
CONTINUOUS
 62
    7
 10
1570.5543307086613
 20
1112.116197975253
 11
1555.5543307086613
 21
1112.116197975253
  0
LINE
  8
_0-0_
  6
CONTINUOUS
 62
    7
 10
1570.5543307086613
 20
1577.116197975253
 11
1570.5543307086613
 21
1112.116197975253
  0
LINE
  8
_0-0_
  6
CONTINUOUS
 62
    7
 10
1555.5543307086613
 20
1577.116197975253
 11
1570.5543307086613
 21
1577.116197975253
  0
LINE
  8
_0-0_
  6
DASHED2
 62
    7
 10
1563.0543307086613
 20
1592.116197975253
 11
1563.0543307086613
 21
1112.116197975253
  0
LINE
  8
_0-2_
  6
CONTINUOUS
 62
    2
 10
1570.5543307086613
 20
1112.116197975253
 11
1600.5543307086613
 21
1112.116197975253
  0
LINE
  8
_0-2_
  6
CONTINUOUS
 62
    2
 10
1600.5543307086613
 20
1112.116197975253
 11
1600.5543307086613
 21
1127.116197975253
  0
LINE
  8
_0-2_
  6
CONTINUOUS
 62
    2
 10
1600.5543307086613
 20
1127.116197975253
 11
1570.5543307086613
 21
1127.116197975253
  0
LINE
  8
_0-2_
  6
CONTINUOUS
 62
    2
 10
1570.5543307086613
 20
1127.116197975253
 11
1570.5543307086613
 21
1112.116197975253
  0
LINE
  8
_0-0_
  6
CONTINUOUS
 62
    7
 10
479.0543307086616
 20
1592.116197975253
 11
2063.0543307086613
 21
1592.116197975253
  0
LINE
  8
_0-0_
  6
CONTINUOUS
 62
    7
 10
2063.0543307086613
 20
704.99201349831287
 11
464.05433070866166
 21
704.99201349831287
  0
LINE
  8
_0-0_
  6
CONTINUOUS
 62
    7
 10
2063.0543307086613
 20
564.99201349831287
 11
2063.0543307086613
 21
704.99201349831287
  0
LINE
  8
_0-0_
  6
CONTINUOUS
 62
    7
 10
464.05433070866166
 20
564.99201349831287
 11
2063.0543307086613
 21
564.99201349831287
  0
LINE
  8
_0-0_
  6
DASHED2
 62
    7
 10
464.05433070866166
 20
614.99201349831264
 11
2063.0543307086613
 21
614.99201349831264
  0
POINT
  8
_0-9_
 62
    3
 10
464.05433070866166
 20
854.99201349831287
  0
POINT
  8
_0-9_
 62
    3
 10
2063.0543307086618
 20
854.99201349831287
  0
LINE
  8
_0-9_
  6
CONTINUOUS
 62
    4
 10
464.05433070866166
 20
861.99201349831287
 11
464.05433070866166
 21
734.99201349831287
  0
LINE
  8
_0-9_
  6
CONTINUOUS
 62
    4
 10
2063.0543307086618
 20
861.99201349831287
 11
2063.0543307086618
 21
734.99201349831287
  0
LINE
  8
_0-9_
  6
CONTINUOUS
 62
    4
 10
464.05433070866166
 20
854.99201349831287
 11
2063.0543307086618
 21
854.99201349831287
  0
TEXT
  8
_0-9_
 62
    7
 10
1224.9143307086617
 20
858.49201349831287
 40
24.5
 41
0.6285714285714286
 50
0
  1
１，５９９
  0
POINT
  8
_0-9_
 62
    3
 10
464.05433070866166
 20
1682.116197975253
  0
POINT
  8
_0-9_
 62
    3
 10
964.0543307086616
 20
1682.116197975253
  0
LINE
  8
_0-9_
  6
CONTINUOUS
 62
    4
 10
464.05433070866166
 20
1689.116197975253
 11
464.05433070866166
 21
1622.116197975253
  0
LINE
  8
_0-9_
  6
CONTINUOUS
 62
    4
 10
964.0543307086616
 20
1689.116197975253
 11
964.0543307086616
 21
1622.116197975253
  0
LINE
  8
_0-9_
  6
CONTINUOUS
 62
    4
 10
464.05433070866166
 20
1682.116197975253
 11
964.0543307086616
 21
1682.116197975253
  0
TEXT
  8
_0-9_
 62
    7
 10
690.88433070866165
 20
1685.616197975253
 40
24.5
 41
0.6285714285714286
 50
0
  1
５００
  0
POINT
  8
_0-9_
 62
    3
 10
1563.0543307086613
 20
1682.116197975253
  0
LINE
  8
_0-9_
  6
CONTINUOUS
 62
    4
 10
1563.0543307086613
 20
1689.116197975253
 11
1563.0543307086613
 21
1622.116197975253
  0
LINE
  8
_0-9_
  6
CONTINUOUS
 62
    4
 10
964.0543307086616
 20
1682.116197975253
 11
1563.0543307086613
 21
1682.116197975253
  0
TEXT
  8
_0-9_
 62
    7
 10
1240.3843307086615
 20
1685.616197975253
 40
24.5
 41
0.6285714285714286
 50
0
  1
５９９
  0
POINT
  8
_0-9_
 62
    3
 10
2063.0543307086613
 20
1682.116197975253
  0
LINE
  8
_0-9_
  6
CONTINUOUS
 62
    4
 10
2063.0543307086613
 20
1689.116197975253
 11
2063.0543307086613
 21
1622.116197975253
  0
LINE
  8
_0-9_
  6
CONTINUOUS
 62
    4
 10
1563.0543307086613
 20
1682.116197975253
 11
2063.0543307086613
 21
1682.116197975253
  0
TEXT
  8
_0-9_
 62
    7
 10
1789.8843307086615
 20
1685.616197975253
 40
24.5
 41
0.6285714285714286
 50
0
  1
５００
  0
LINE
  8
_0-0_
  6
CONTINUOUS
 62
    7
 10
464.05433070866166
 20
1100.1161979752532
 11
2063.0543307086613
 21
1100.1161979752532
  0
LINE
  8
_0-0_
  6
CONTINUOUS
 62
    7
 10
2063.0543307086613
 20
1592.116197975253
 11
2063.0543307086613
 21
1100.1161979752532
  0
ENDSEC
  0
EOF
