  0
SECTION
  2
HEADER
  9
$ACADVER
  1
AC1009
  9
$INSBASE
 10
0
 20
0
 30
0
  9
$EXTMIN
 10
0
 20
0
  9
$EXTMAX
 10
2100
 20
1485
  9
$LIMMIN
 10
0
 20
0
  9
$LIMMAX
 10
2100
 20
1485
  9
$LTSCALE
 40
5
  0
ENDSEC
  0
SECTION
  2
TABLES
  0
TABLE
  2
LTYPE
 70
     9
  0
LTYPE
  2
CONTINUOUS
 70
    64
  3
実線
 72
    65
 73
     0
 40
0.0
  0
LTYPE
  2
DASHED1
 70
    64
  3
--  --  --  --  --  --  --  --  
 72
    65
 73
     2
 40
2.5
 49
1.25
 49
-1.25
  0
LTYPE
  2
DASHED2
 70
    64
  3
----    ----    ----    ----    
 72
    65
 73
     2
 40
5.0
 49
2.5
 49
-2.5
  0
LTYPE
  2
DASHED3
 70
    64
  3
------  ------  ------  ------  
 72
    65
 73
     2
 40
5.0
 49
3.75
 49
-1.25
  0
LTYPE
  2
CENTER1
 70
    64
  3
----- - ----- - ----- - ----- - 
 72
    65
 73
     4
 40
10.0
 49
6.25
 49
-1.25
 49
1.25
 49
-1.25
  0
LTYPE
  2
CENTER2
 70
    64
  3
----------  --  ----------  --  
 72
    65
 73
     4
 40
20.0
 49
12.5
 49
-2.5
 49
2.5
 49
-2.5
  0
LTYPE
  2
PHANTOM1
 70
    64
  3
--- - - --- - - --- - - --- - - 
 72
    65
 73
     6
 40
10.0
 49
3.25
 49
-1.25
 49
1.25
 49
-1.25
 49
1.25
 49
-1.25
  0
LTYPE
  2
PHANTOM2
 70
    64
  3
--------  -  -  --------  -  -  
 72
    65
 73
     6
 40
20.0
 49
10.0
 49
-2.5
 49
1.25
 49
-2.5
 49
1.25
 49
-2.5
  0
LTYPE
  2
DOT
 70
    64
  3
-   -   -   -   -   -   -   -   
 72
    65
 73
     2
 40
2.5
 49
0.625
 49
-1.875
  0
LTYPE
  2
DUMMY
 70
    64
  3
ダミー
 72
    65
 73
     0
 40
0.0
  0
LTYPE
  2
RAND1
 70
    64
  3
ランダム線1
 72
    65
 73
     4
 40
10.0
 49
1.0
 49
-2.0
 49
3.0
 49
-4.0
  0
LTYPE
  2
RAND2
 70
    64
  3
ランダム線2
 72
    65
 73
     4
 40
14.0
 49
2.0
 49
-3.0
 49
4.0
 49
-5.0
  0
LTYPE
  2
RAND3
 70
    64
  3
ランダム線3
 72
    65
 73
     4
 40
18.0
 49
3.0
 49
-4.0
 49
5.0
 49
-6.0
  0
LTYPE
  2
RAND4
 70
    64
  3
ランダム線4
 72
    65
 73
     4
 40
22.0
 49
4.0
 49
-5.0
 49
6.0
 49
-7.0
  0
LTYPE
  2
RAND5
 70
    64
  3
ランダム線5
 72
    65
 73
     4
 40
26.0
 49
5.0
 49
-6.0
 49
7.0
 49
-8.0
  0
LTYPE
  2
LONG1
 70
    64
  3
----------  --  ----------  --  
 72
    65
 73
     4
 40
40.0
 49
32.5
 49
-2.5
 49
2.5
 49
-2.5
  0
LTYPE
  2
LONG2
 70
    64
  3
--------  -  -  --------  -  -  
 72
    65
 73
     6
 40
40.0
 49
30.0
 49
-2.5
 49
1.25
 49
-2.5
 49
1.25
 49
-2.5
  0
LTYPE
  2
LONG3
 70
    64
  3
+++++++++++++++..+++++++++++++++
 72
    65
 73
     2
 40
40.0
 49
37.5
 49
-2.5
  0
LTYPE
  2
LONG4
 70
    64
  3
+++++++++++++++..+++++++++++++++
 72
    65
 73
     2
 40
80.0
 49
75.0
 49
-5.0
  0
LTYPE
  2
LONG5
 70
    64
  3
----------  --  ----------  --  
 72
    65
 73
     4
 40
60.0
 49
37.5
 49
-7.5
 49
7.5
 49
-7.5
  0
LTYPE
  2
dashed
 70
   64
  3
-------   -------------   ------
 72
   65
 73
    2
 40
7.5
 49
6
 49
-1.5
  0
LTYPE
  2
dashed_spaced
 70
   64
  3
----        --------        ----
 72
   65
 73
    2
 40
12
 49
6
 49
-6
  0
LTYPE
  2
long_dashed_dotted
 70
   64
  3
------------- --- --------------
 72
   65
 73
    4
 40
15.25
 49
12
 49
-1.5
 49
0.25
 49
-1.5
  0
LTYPE
  2
long_dashed_double-dotted
 70
   64
  3
----------- --- --- ------------
 72
   65
 73
    6
 40
17
 49
12
 49
-1.5
 49
0.25
 49
-1.5
 49
0.25
 49
-1.5
  0
LTYPE
  2
long_dashed_triplicate-dotted
 70
   64
  3
--------- --- --- --- ----------
 72
   65
 73
    8
 40
18.75
 49
12
 49
-1.5
 49
0.25
 49
-1.5
 49
0.25
 49
-1.5
 49
0.25
 49
-1.5
  0
LTYPE
  2
dotted
 70
   64
  3
   -       -       -       -    
 72
   65
 73
    2
 40
1.75
 49
0.25
 49
-1.5
  0
LTYPE
  2
chain
 70
   64
  3
-------------- -- --------------
 72
   65
 73
    4
 40
18.5
 49
12
 49
-1.5
 49
3.5
 49
-1.5
  0
LTYPE
  2
chain_double_dash
 70
   64
  3
------------ -- -- -------------
 72
   65
 73
    6
 40
23.5
 49
12
 49
-1.5
 49
3.5
 49
-1.5
 49
3.5
 49
-1.5
  0
LTYPE
  2
dashed_dotted
 70
   64
  3
-----------     -     ----------
 72
   65
 73
    4
 40
9.25
 49
6
 49
-1.5
 49
0.25
 49
-1.5
  0
LTYPE
  2
double-dashed_dotted
 70
   64
  3
------   -----------   -   -----
 72
   65
 73
    6
 40
16.75
 49
6
 49
-1.5
 49
6
 49
-1.5
 49
0.25
 49
-1.5
  0
LTYPE
  2
dashed_double-dotted
 70
   64
  3
---------    -    -    ---------
 72
   65
 73
    6
 40
11
 49
6
 49
-1.5
 49
0.25
 49
-1.5
 49
0.25
 49
-1.5
  0
LTYPE
  2
double-dashed_double-dotted
 70
   64
  3
-----   ---------   -   -   ----
 72
   65
 73
    8
 40
18.5
 49
6
 49
-1.5
 49
6
 49
-1.5
 49
0.25
 49
-1.5
 49
0.25
 49
-1.5
  0
LTYPE
  2
dashed_triplicate-dotted
 70
   64
  3
-------    -    -    -    ------
 72
   65
 73
    8
 40
12.75
 49
6
 49
-1.5
 49
0.25
 49
-1.5
 49
0.25
 49
-1.5
 49
0.25
 49
-1.5
  0
LTYPE
  2
double-dashed_triplicate-dotted
 70
   64
  3
-----  ---------  -  -  -  -----
 72
   65
 73
   10
 40
20.25
 49
6
 49
-1.5
 49
6
 49
-1.5
 49
0.25
 49
-1.5
 49
0.25
 49
-1.5
 49
0.25
 49
-1.5
  0
LTYPE
  2
undefined
 70
   64
  3
--------------------------------
 72
   65
 73
    0
 40
0
  0
LTYPE
  2
_
 70
   64
  3
                                
 72
   65
 73
    0
 40
0
  0
LTYPE
  2
__18
 70
   64
  3
                                
 72
   65
 73
    0
 40
0
  0
LTYPE
  2
__19
 70
   64
  3
                                
 72
   65
 73
    0
 40
0
  0
LTYPE
  2
__20
 70
   64
  3
                                
 72
   65
 73
    0
 40
0
  0
LTYPE
  2
__21
 70
   64
  3
                                
 72
   65
 73
    0
 40
0
  0
LTYPE
  2
__22
 70
   64
  3
                                
 72
   65
 73
    0
 40
0
  0
LTYPE
  2
__23
 70
   64
  3
                                
 72
   65
 73
    0
 40
0
  0
LTYPE
  2
__24
 70
   64
  3
                                
 72
   65
 73
    0
 40
0
  0
LTYPE
  2
__25
 70
   64
  3
                                
 72
   65
 73
    0
 40
0
  0
LTYPE
  2
__26
 70
   64
  3
                                
 72
   65
 73
    0
 40
0
  0
LTYPE
  2
__27
 70
   64
  3
                                
 72
   65
 73
    0
 40
0
  0
LTYPE
  2
__28
 70
   64
  3
                                
 72
   65
 73
    0
 40
0
  0
LTYPE
  2
__29
 70
   64
  3
                                
 72
   65
 73
    0
 40
0
  0
LTYPE
  2
__30
 70
   64
  3
                                
 72
   65
 73
    0
 40
0
  0
LTYPE
  2
__31
 70
   64
  3
                                
 72
   65
 73
    0
 40
0
  0
LTYPE
  2
__32
 70
   64
  3
                                
 72
   65
 73
    0
 40
0
  0
ENDTAB
  0
TABLE
  2
STYLE
  5
3
100
AcDbSymbolTable
 70
     1
  0
STYLE
  5
10
100
AcDbSymbolTableRecord
100
AcDbTextStyleTableRecord
  2
STANDARD
 70
     0
 40
0.0
 41
1.0
 50
0.0
 71
     0
 42
0.2
  3
txt
  4
bigfont.shx
  0
STYLE
  5
26
100
AcDbSymbolTableRecord
100
AcDbTextStyleTableRecord
  2
TATEGAKI
 70
    68
 40
0.0
 41
1.0
 50
0.0
 71
     0
 42
1.0
  3
txt
  4
bigfont.shx
  0
ENDTAB
  0
TABLE
  2
LAYER
 70
   13
  0
LAYER
  2
_0-0_
 70
   64
 62
    7
  6
CONTINUOUS
  0
LAYER
  2
_0-1_
 70
   64
 62
    7
  6
CONTINUOUS
  0
LAYER
  2
_0-2_
 70
   64
 62
    7
  6
CONTINUOUS
  0
LAYER
  2
_0-3_
 70
   64
 62
    7
  6
CONTINUOUS
  0
LAYER
  2
_1-2_
 70
   64
 62
    7
  6
CONTINUOUS
  0
LAYER
  2
_f-0_
 70
   64
 62
    7
  6
CONTINUOUS
  0
LAYER
  2
_f-7_
 70
   64
 62
    7
  6
CONTINUOUS
  0
LAYER
  2
_f-8_
 70
   64
 62
    7
  6
CONTINUOUS
  0
LAYER
  2
_f-9_
 70
   64
 62
    7
  6
CONTINUOUS
  0
LAYER
  2
_f-d_固定文字
 70
   64
 62
    7
  6
CONTINUOUS
  0
LAYER
  2
_f-e_
 70
   64
 62
    7
  6
CONTINUOUS
  0
LAYER
  2
_f-f_図面枠
 70
   64
 62
    7
  6
CONTINUOUS
  0
LAYER
  2
ADD_LINE
 70
   64
 62
    7
  6
CONTINUOUS
  0
ENDTAB
  0
ENDSEC
  0
SECTION
  2
BLOCKS
  0
ENDSEC
  0
SECTION
  2
ENTITIES
  0
LINE
  8
ADD_LINE
  6
DOT
 62
    9
 10
74.992500000000035
 20
50
 11
74.992500000000035
 21
32.5
  0
LINE
  8
ADD_LINE
  6
DOT
 62
    9
 10
74.992500000000035
 20
32.5
 11
89.992500000000035
 21
32.500000323002922
  0
LINE
  8
ADD_LINE
  6
DOT
 62
    9
 10
89.992500000000035
 20
50
 11
89.992500000000035
 21
32.500000323002922
  0
LINE
  8
ADD_LINE
  6
DOT
 62
    9
 10
75.007499999999964
 20
32.5
 11
60.014999999999929
 21
32.5
  0
LINE
  8
ADD_LINE
  6
DOT
 62
    9
 10
37.492500000000035
 20
27.5
 11
2072.4925000000002
 21
27.5
  0
LINE
  8
ADD_LINE
  6
DOT
 62
    9
 10
2065
 20
50
 11
2065
 21
32.500001615014895
  0
LINE
  8
ADD_LINE
  6
DOT
 62
    9
 10
2050
 20
50
 11
2050
 21
32.500001615014895
  0
LINE
  8
ADD_LINE
  6
DOT
 62
    9
 10
2035
 20
50
 11
2035
 21
32.500001615014895
  0
LINE
  8
ADD_LINE
  6
DOT
 62
    9
 10
2020
 20
50
 11
2020
 21
32.500001615014895
  0
LINE
  8
ADD_LINE
  6
DOT
 62
    9
 10
2005
 20
50
 11
2005
 21
32.500001615014895
  0
LINE
  8
ADD_LINE
  6
DOT
 62
    9
 10
1990
 20
50
 11
1990
 21
32.5
  0
LINE
  8
ADD_LINE
  6
DOT
 62
    9
 10
37.492500000000035
 20
1437.5
 11
37.492500000000035
 21
27.5
  0
LINE
  8
ADD_LINE
  6
DOT
 62
    9
 10
60.014999999999929
 20
32.5
 11
60.014999999999929
 21
1430
  0
LINE
  8
ADD_LINE
  6
DOT
 62
    9
 10
2072.4925000000002
 20
1437.5
 11
37.492500000000035
 21
1437.5
  0
LINE
  8
ADD_LINE
  6
DOT
 62
    9
 10
2072.4925000000002
 20
27.5
 11
2072.4925000000002
 21
1437.5
  0
LINE
  8
_f-9_
  6
CONTINUOUS
 62
    7
 10
315
 20
60
 11
315
 21
110
  0
LINE
  8
ADD_LINE
  6
DOT
 62
    9
 10
85
 20
60
 11
85
 21
110
  0
LINE
  8
ADD_LINE
  6
DOT
 62
    9
 10
305
 20
60
 11
305
 21
110
  0
LINE
  8
_f-9_
  6
CONTINUOUS
 62
    7
 10
85
 20
60
 11
305
 21
60
  0
LINE
  8
_f-9_
  6
CONTINUOUS
 62
    7
 10
85
 20
110
 11
305
 21
110
  0
LINE
  8
_f-9_
  6
CONTINUOUS
 62
    7
 10
710
 20
60
 11
710
 21
110
  0
LINE
  8
_f-9_
  6
CONTINUOUS
 62
    7
 10
1105
 20
60
 11
1105
 21
110
  0
LINE
  8
_f-9_
  6
CONTINUOUS
 62
    7
 10
1110
 20
60
 11
1110
 21
110
  0
LINE
  8
_f-9_
  6
CONTINUOUS
 62
    7
 10
315
 20
60
 11
1105
 21
60
  0
LINE
  8
_f-9_
  6
CONTINUOUS
 62
    7
 10
315
 20
110
 11
1105
 21
110
  0
LINE
  8
_f-9_
  6
CONTINUOUS
 62
    7
 10
1355
 20
60
 11
1355
 21
110
  0
LINE
  8
_f-9_
  6
CONTINUOUS
 62
    7
 10
1360
 20
60
 11
1360
 21
110
  0
LINE
  8
_f-9_
  6
CONTINUOUS
 62
    7
 10
1110
 20
60
 11
1355
 21
60
  0
LINE
  8
_f-9_
  6
CONTINUOUS
 62
    7
 10
1110
 20
110
 11
1355
 21
110
  0
LINE
  8
_f-9_
  6
CONTINUOUS
 62
    7
 10
1510
 20
60
 11
1510
 21
110
  0
LINE
  8
_f-9_
  6
CONTINUOUS
 62
    7
 10
1660
 20
60
 11
1660
 21
110
  0
LINE
  8
_f-9_
  6
CONTINUOUS
 62
    7
 10
1850
 20
60
 11
1850
 21
110
  0
LINE
  8
_f-9_
  6
CONTINUOUS
 62
    7
 10
1360
 20
60
 11
2055
 21
60
  0
LINE
  8
_f-9_
  6
CONTINUOUS
 62
    7
 10
2055
 20
60
 11
2055
 21
110
  0
LINE
  8
_f-9_
  6
CONTINUOUS
 62
    7
 10
1360
 20
110
 11
2055
 21
110
  0
LINE
  8
_f-f_図面枠
  6
CONTINUOUS
 62
  230
 10
2065
 20
1430
 11
2065
 21
50
  0
LINE
  8
_f-f_図面枠
  6
CONTINUOUS
 62
  230
 10
75
 20
1430
 11
2065
 21
1430
  0
LINE
  8
_f-f_図面枠
  6
CONTINUOUS
 62
  230
 10
75
 20
50
 11
2065
 21
50
  0
LINE
  8
_f-f_図面枠
  6
CONTINUOUS
 62
  230
 10
75
 20
50
 11
75
 21
1430
  0
LINE
  8
ADD_LINE
  6
DOT
 62
    9
 10
315
 20
100
 11
1105
 21
100
  0
LINE
  8
ADD_LINE
  6
DOT
 62
    9
 10
1360
 20
100
 11
2055
 21
100
  0
LINE
  8
ADD_LINE
  6
DOT
 62
    9
 10
1370
 20
60
 11
1370
 21
110
  0
LINE
  8
ADD_LINE
  6
DOT
 62
    9
 10
1520
 20
60
 11
1520
 21
110
  0
LINE
  8
ADD_LINE
  6
DOT
 62
    9
 10
1670
 20
60
 11
1670
 21
110
  0
LINE
  8
ADD_LINE
  6
DOT
 62
    9
 10
1860
 20
60
 11
1860
 21
110
  0
LINE
  8
ADD_LINE
  6
DOT
 62
    9
 10
722.5
 20
60
 11
722.5
 21
110
  0
LINE
  8
ADD_LINE
  6
DOT
 62
    9
 10
327.5
 20
60
 11
327.5
 21
110
  0
LINE
  8
ADD_LINE
  6
DOT
 62
    9
 10
1830
 20
60
 11
1830
 21
110
  0
LINE
  8
ADD_LINE
  6
DOT
 62
    9
 10
1360
 20
80
 11
2055
 21
80
  0
TEXT
  8
_f-8_
 62
    7
 10
1520
 20
93.75
 40
12.5
 41
0.64
 50
0
  1
ＤＡＴＡ
  0
TEXT
  8
_f-8_
 62
    7
 10
1670
 20
93.75
 40
12.5
 41
0.64
 50
0
  1
ＣＨＥＣＫＥＤ
  0
TEXT
  8
_f-8_
 62
    7
 10
1860
 20
93.75
 40
12.5
 41
0.64
 50
0
  1
ＳＨＥＥＴ　ＮＯ．
  0
TEXT
  8
_f-8_
 62
    7
 10
1771
 20
93.75
 40
12.5
 41
0.64
 50
0
  1
ＤＲＡＷＩＮＧ
  0
LINE
  8
ADD_LINE
  6
DOT
 62
    9
 10
67.5
 20
32.5
 11
67.5
 21
1430
  0
LINE
  8
_f-9_
  6
CONTINUOUS
 62
    7
 10
85
 20
85
 11
305
 21
85
  0
LINE
  8
ADD_LINE
  6
DOT
 62
    9
 10
1455
 20
60
 11
1455
 21
110
  0
LINE
  8
ADD_LINE
  6
DOT
 62
    9
 10
1585
 20
60
 11
1585
 21
110
  0
LINE
  8
ADD_LINE
  6
DOT
 62
    9
 10
1750
 20
110
 11
1750
 21
60
  0
LINE
  8
ADD_LINE
  6
DOT
 62
    9
 10
315
 20
80
 11
1105
 21
80
  0
LINE
  8
ADD_LINE
  6
DOT
 62
    9
 10
512.5
 20
110
 11
512.5
 21
60
  0
TEXT
  8
_f-8_
 62
    7
 10
1370.1869920427106
 20
93.734686497424917
 40
12.5
 41
0.64
 50
0
  1
ＳＣＡＬＥ
  0
TEXT
  8
_f-8_
 62
    7
 10
722.5
 20
93.75
 40
12.5
 41
0.8
 50
0
  1
図面名称
  0
TEXT
  8
_f-8_
 62
    7
 10
327.5
 20
93.75
 40
12.5
 41
0.8
 50
0
  1
名　称
  0
LINE
  8
ADD_LINE
  6
DOT
 62
    9
 10
907.5
 20
60
 11
907.5
 21
110
  0
LINE
  8
_f-8_
  6
CONTINUOUS
 62
    7
 10
1082.5
 20
1436
 11
1083.075
 21
1437.0000000000002
  0
LINE
  8
_f-8_
  6
CONTINUOUS
 62
    7
 10
1079.3199999999999
 20
1438.5
 11
1082.5
 21
1433
  0
LINE
  8
_f-8_
  6
CONTINUOUS
 62
    7
 10
1082.5
 20
1433
 11
1085.6749999999999
 21
1438.5
  0
LINE
  8
_f-8_
  6
CONTINUOUS
 62
    7
 10
1082.5
 20
1430
 11
1088.2699999999999
 21
1440
  0
LINE
  8
_f-8_
  6
CONTINUOUS
 62
    7
 10
1076.7249999999999
 20
1440
 11
1082.5
 21
1430
  0
LINE
  8
_f-8_
  6
CONTINUOUS
 62
    7
 10
1088.2699999999999
 20
1440
 11
1076.7249999999999
 21
1440
  0
LINE
  8
_f-8_
  6
CONTINUOUS
 62
    7
 10
1081.92
 20
1437.0000000000002
 11
1082.5
 21
1436
  0
LINE
  8
_f-8_
  6
CONTINUOUS
 62
    7
 10
1083.075
 20
1437.0000000000002
 11
1081.92
 21
1437.0000000000002
  0
LINE
  8
_f-8_
  6
CONTINUOUS
 62
    7
 10
1085.6749999999999
 20
1438.5
 11
1079.3199999999999
 21
1438.5
  0
LINE
  8
_f-7_
  6
CONTINUOUS
 62
    7
 10
60
 20
731.33974596215568
 11
60
 21
748.66025403784431
  0
LINE
  8
_f-7_
  6
CONTINUOUS
 62
    7
 10
60
 20
748.66025403784431
 11
75
 21
740
  0
LINE
  8
_f-7_
  6
CONTINUOUS
 62
    7
 10
75
 20
740
 11
60
 21
731.33974596215568
  0
LINE
  8
_f-7_
  6
CONTINUOUS
 62
    7
 10
62.5
 20
735.66987298107778
 11
62.5
 21
744.33012701892221
  0
LINE
  8
_f-7_
  6
CONTINUOUS
 62
    7
 10
62.5
 20
744.33012701892221
 11
70
 21
740
  0
LINE
  8
_f-7_
  6
CONTINUOUS
 62
    7
 10
70
 20
740
 11
62.5
 21
735.66987298107778
  0
LINE
  8
_f-7_
  6
CONTINUOUS
 62
    7
 10
64.499999999999886
 20
739.13397459621546
 11
64.499999999999886
 21
740.86602540378453
  0
LINE
  8
_f-7_
  6
CONTINUOUS
 62
    7
 10
64.499999999999886
 20
740.86602540378453
 11
66.000000000000227
 21
740
  0
LINE
  8
_f-7_
  6
CONTINUOUS
 62
    7
 10
66.000000000000227
 20
740
 11
64.499999999999886
 21
739.13397459621546
  0
LINE
  8
_f-7_
  6
CONTINUOUS
 62
    7
 10
2080
 20
731.33974596215568
 11
2080
 21
748.66025403784431
  0
LINE
  8
_f-7_
  6
CONTINUOUS
 62
    7
 10
2080
 20
748.66025403784431
 11
2065
 21
740
  0
LINE
  8
_f-7_
  6
CONTINUOUS
 62
    7
 10
2065
 20
740
 11
2080
 21
731.33974596215568
  0
LINE
  8
_f-7_
  6
CONTINUOUS
 62
    7
 10
2077.5
 20
735.66987298107778
 11
2077.5
 21
744.33012701892221
  0
LINE
  8
_f-7_
  6
CONTINUOUS
 62
    7
 10
2077.5
 20
744.33012701892221
 11
2070
 21
740
  0
LINE
  8
_f-7_
  6
CONTINUOUS
 62
    7
 10
2070
 20
740
 11
2077.5
 21
735.66987298107778
  0
LINE
  8
_f-7_
  6
CONTINUOUS
 62
    7
 10
2075.5
 20
739.13397459621546
 11
2075.5
 21
740.86602540378453
  0
LINE
  8
_f-7_
  6
CONTINUOUS
 62
    7
 10
2075.5
 20
740.86602540378453
 11
2074
 21
740
  0
LINE
  8
_f-7_
  6
CONTINUOUS
 62
    7
 10
2074
 20
740
 11
2075.5
 21
739.13397459621546
  0
LINE
  8
ADD_LINE
  6
DOT
 62
    9
 10
537.5
 20
110
 11
537.5
 21
60
  0
LINE
  8
ADD_LINE
  6
DOT
 62
    9
 10
932.5
 20
60
 11
932.5
 21
110
  0
TEXT
  8
_f-d_固定文字
 62
    7
 10
75.007499999999964
 20
32.5
 40
10
 41
1
 50
0
  1
%f
  0
LINE
  8
ADD_LINE
  6
DOT
 62
    9
 10
1990
 20
32.5
 11
2065
 21
32.500001615014895
  0
TEXT
  8
_f-d_固定文字
 62
    7
 10
1994.5
 20
32.500001615014895
 40
10
 41
1
 50
0
  1
%y
  0
TEXT
  8
_f-d_固定文字
 62
    7
 10
2010
 20
32.500001615014895
 40
10
 41
1
 50
0
  1
．
  0
TEXT
  8
_f-d_固定文字
 62
    7
 10
2024.5
 20
32.500001615014895
 40
10
 41
1
 50
0
  1
%m
  0
TEXT
  8
_f-d_固定文字
 62
    7
 10
2040
 20
32.500001615014895
 40
10
 41
1
 50
0
  1
．
  0
TEXT
  8
_f-d_固定文字
 62
    7
 10
2054.5
 20
32.500001615014895
 40
10
 41
1
 50
0
  1
%d
  0
TEXT
  8
_f-8_
 62
    7
 10
1430.5
 20
71.25
 40
17.5
 41
0.5714285714285713
 50
0
  1
１／５
  0
LINE
  8
_0-0_
  6
CONTINUOUS
 62
    7
 10
781.75084364454448
 20
811.99437570303712
 11
386.75084364454448
 21
811.99437570303712
  0
LINE
  8
_0-0_
  6
CONTINUOUS
 62
    7
 10
386.75084364454448
 20
811.99437570303712
 11
386.75084364454448
 21
799.99437570303712
  0
LINE
  8
_0-0_
  6
CONTINUOUS
 62
    7
 10
386.75084364454448
 20
811.99437570303712
 11
401.75084364454448
 21
811.99437570303712
  0
LINE
  8
_0-0_
  6
CONTINUOUS
 62
    7
 10
401.75084364454448
 20
811.99437570303712
 11
401.75084364454448
 21
1291.9943757030368
  0
LINE
  8
_0-0_
  6
CONTINUOUS
 62
    7
 10
401.75084364454448
 20
1291.9943757030368
 11
386.75084364454448
 21
1291.9943757030368
  0
LINE
  8
_0-0_
  6
CONTINUOUS
 62
    7
 10
386.75084364454448
 20
1291.9943757030368
 11
386.75084364454448
 21
811.99437570303712
  0
LINE
  8
_0-0_
  6
CONTINUOUS
 62
    7
 10
766.75084364454448
 20
1276.9943757030371
 11
401.75084364454448
 21
1276.9943757030371
  0
LINE
  8
_0-0_
  6
CONTINUOUS
 62
    7
 10
401.75084364454448
 20
1276.9943757030371
 11
401.75084364454448
 21
1291.9943757030368
  0
LINE
  8
_0-2_
  6
CONTINUOUS
 62
    2
 10
401.75084364454448
 20
1276.9943757030371
 11
426.45084364454442
 21
1276.9943757030371
  0
LINE
  8
_0-2_
  6
CONTINUOUS
 62
    2
 10
426.45084364454442
 20
1276.9943757030371
 11
426.45084364454442
 21
1272.9943757030373
  0
LINE
  8
_0-2_
  6
CONTINUOUS
 62
    2
 10
426.45084364454442
 20
1272.9943757030373
 11
401.75084364454448
 21
1272.9943757030373
  0
LINE
  8
_0-2_
  6
CONTINUOUS
 62
    2
 10
401.75084364454448
 20
1272.9943757030373
 11
401.75084364454448
 21
1276.9943757030371
  0
LINE
  8
_0-2_
  6
CONTINUOUS
 62
    5
 10
402.40921308420183
 20
1247.5385315803214
 11
427.15795042573097
 21
1272.2872689218506
  0
LINE
  8
_0-2_
  6
CONTINUOUS
 62
    5
 10
402.40921308420183
 20
1247.5385315803214
 11
401.70210630301528
 21
1248.245638361508
  0
LINE
  8
_0-2_
  6
CONTINUOUS
 62
    5
 10
427.15795042573097
 20
1272.2872689218506
 11
426.45084364454442
 21
1272.9943757030373
  0
LINE
  8
_0-2_
  6
CONTINUOUS
 62
    5
 10
401.70210630301539
 20
1268.0446282347313
 11
406.65185377132115
 21
1272.9943757030373
  0
LINE
  8
_0-2_
  6
CONTINUOUS
 62
    5
 10
426.45084364454442
 20
1272.9943757030373
 11
406.65185377132115
 21
1272.9943757030373
  0
LINE
  8
_0-2_
  6
CONTINUOUS
 62
    5
 10
401.70210630301528
 20
1248.245638361508
 11
401.70210630301528
 21
1268.0446282347313
  0
LINE
  8
_0-2_
  6
CONTINUOUS
 62
    5
 10
427.15694029895422
 20
812.70148248422378
 11
402.40820295742508
 21
837.45021982575281
  0
LINE
  8
_0-2_
  6
CONTINUOUS
 62
    5
 10
427.15694029895422
 20
812.70148248422378
 11
426.44983351776767
 21
811.99437570303712
  0
LINE
  8
_0-2_
  6
CONTINUOUS
 62
    5
 10
402.40820295742508
 20
837.45021982575281
 11
401.70109617623865
 21
836.74311304456637
  0
LINE
  8
_0-2_
  6
CONTINUOUS
 62
    5
 10
406.65084364454429
 20
811.99437570303734
 11
401.70109617623865
 21
816.9441231713431
  0
LINE
  8
_0-2_
  6
CONTINUOUS
 62
    5
 10
401.70109617623865
 20
836.74311304456637
 11
401.70109617623865
 21
816.9441231713431
  0
LINE
  8
_0-2_
  6
CONTINUOUS
 62
    5
 10
426.44983351776767
 20
811.99437570303712
 11
406.65084364454429
 21
811.99437570303712
  0
LINE
  8
_0-2_
  6
CONTINUOUS
 62
    7
 10
406.65084364454429
 20
811.99437570303712
 11
401.75084364454448
 21
811.99437570303712
  0
LINE
  8
_1-2_
  6
CONTINUOUS
 62
    4
 10
645.13098008865483
 20
749.45198975454036
 11
520.13098008865483
 21
749.45198975454036
  0
LINE
  8
_1-2_
  6
CONTINUOUS
 62
    4
 10
520.13098008865483
 20
749.45198975454036
 11
520.13098008865483
 21
784.45198975454036
  0
LINE
  8
_1-2_
  6
CONTINUOUS
 62
    4
 10
520.13098008865483
 20
784.45198975454036
 11
645.13098008865483
 21
784.45198975454036
  0
LINE
  8
_1-2_
  6
CONTINUOUS
 62
    4
 10
645.13098008865483
 20
784.45198975454036
 11
645.13098008865483
 21
749.45198975454036
  0
TEXT
  8
_1-2_
 62
    7
 10
559.13098008865495
 20
758.20198975454036
 40
17.5
 41
0.857142857142857
 50
0
  1
平面図
  0
LINE
  8
ADD_LINE
  6
DOT
 62
    9
 10
520.13098008865517
 20
766.95198975454047
 11
645.13098008865517
 21
766.95198975454047
  0
LINE
  8
ADD_LINE
  6
DOT
 62
    9
 10
582.63098008865517
 20
749.45198975454047
 11
582.63098008865517
 21
784.45198975454047
  0
LINE
  8
_1-2_
  6
CONTINUOUS
 62
    4
 10
645.13098008865472
 20
209.00432008335997
 11
645.13098008865472
 21
244.00432008335997
  0
LINE
  8
_1-2_
  6
CONTINUOUS
 62
    4
 10
645.13098008865472
 20
244.00432008335997
 11
520.13098008865472
 21
244.00432008335997
  0
LINE
  8
_1-2_
  6
CONTINUOUS
 62
    4
 10
520.13098008865472
 20
209.00432008335997
 11
645.13098008865472
 21
209.00432008335997
  0
LINE
  8
_1-2_
  6
CONTINUOUS
 62
    4
 10
520.13098008865472
 20
244.00432008335997
 11
520.13098008865472
 21
209.00432008335997
  0
LINE
  8
ADD_LINE
  6
DOT
 62
    9
 10
645.13098008865438
 20
226.50432008335997
 11
520.13098008865438
 21
226.50432008335997
  0
LINE
  8
ADD_LINE
  6
DOT
 62
    9
 10
582.63098008865438
 20
209.00432008335997
 11
582.63098008865438
 21
244.00432008335997
  0
TEXT
  8
_1-2_
 62
    7
 10
559.1309800886546
 20
217.75432008335997
 40
17.5
 41
0.857142857142857
 50
0
  1
立面図
  0
LINE
  8
_0-0_
  6
CONTINUOUS
 62
    7
 10
1330.4296962879641
 20
359.03937007874014
 11
1330.4296962879641
 21
309.03937007873997
  0
LINE
  8
_0-0_
  6
CONTINUOUS
 62
    7
 10
1810.4296962879641
 20
359.03937007874014
 11
1330.4296962879641
 21
359.03937007874014
  0
LINE
  8
_0-0_
  6
CONTINUOUS
 62
    7
 10
1810.4296962879641
 20
309.03937007873997
 11
1810.4296962879641
 21
359.03937007874014
  0
LINE
  8
_0-0_
  6
CONTINUOUS
 62
    7
 10
1330.4296962879641
 20
309.03937007873997
 11
1810.4296962879641
 21
309.03937007873997
  0
LINE
  8
_0-0_
  6
CONTINUOUS
 62
    7
 10
1318.4296962879639
 20
449.03937007874003
 11
1318.4296962879639
 21
309.03937007873997
  0
LINE
  8
_0-0_
  6
CONTINUOUS
 62
    7
 10
1330.4296962879641
 20
449.03937007874003
 11
1318.4296962879639
 21
449.03937007874003
  0
LINE
  8
_0-0_
  6
CONTINUOUS
 62
    7
 10
1330.4296962879641
 20
309.03937007873997
 11
1330.4296962879641
 21
449.03937007874003
  0
LINE
  8
_0-0_
  6
CONTINUOUS
 62
    7
 10
1318.4296962879639
 20
309.03937007873997
 11
1330.4296962879641
 21
309.03937007873997
  0
LINE
  8
_0-0_
  6
CONTINUOUS
 62
    7
 10
386.75084364454448
 20
309.03937007873997
 11
781.75084364454448
 21
309.03937007873997
  0
LINE
  8
_0-0_
  6
CONTINUOUS
 62
    7
 10
386.75084364454448
 20
449.03937007874003
 11
386.75084364454448
 21
309.03937007873997
  0
LINE
  8
_0-0_
  6
DASHED1
 62
    7
 10
386.75084364454448
 20
359.03937007873997
 11
781.75084364454448
 21
359.03937007873997
  0
LINE
  8
_1-2_
  6
CONTINUOUS
 62
    4
 10
1643.8325280116669
 20
244.00432008335997
 11
1518.8325280116669
 21
244.00432008335997
  0
LINE
  8
_1-2_
  6
CONTINUOUS
 62
    4
 10
1643.8325280116669
 20
209.00432008335997
 11
1643.8325280116669
 21
244.00432008335997
  0
LINE
  8
_1-2_
  6
CONTINUOUS
 62
    4
 10
1518.8325280116669
 20
209.00432008335997
 11
1643.8325280116669
 21
209.00432008335997
  0
LINE
  8
_1-2_
  6
CONTINUOUS
 62
    4
 10
1518.8325280116669
 20
244.00432008335997
 11
1518.8325280116669
 21
209.00432008335997
  0
LINE
  8
ADD_LINE
  6
DOT
 62
    9
 10
1643.8325280116666
 20
226.50432008335997
 11
1518.8325280116664
 21
226.50432008335997
  0
LINE
  8
ADD_LINE
  6
DOT
 62
    9
 10
1581.3325280116666
 20
209.00432008335997
 11
1581.3325280116666
 21
244.00432008335997
  0
TEXT
  8
_1-2_
 62
    7
 10
1557.8325280116666
 20
217.75432008335997
 40
17.5
 41
0.857142857142857
 50
0
  1
断面図
  0
LINE
  8
ADD_LINE
  6
DOT
 62
    9
 10
2065
 20
1430
 11
2057.5
 21
1430
  0
LINE
  8
ADD_LINE
  6
DOT
 62
    9
 10
2057.5
 20
1430
 11
2057.5
 21
1422.5
  0
LINE
  8
ADD_LINE
  6
DOT
 62
    9
 10
2057.5
 20
1422.5
 11
2065
 21
1422.5
  0
LINE
  8
ADD_LINE
  6
DOT
 62
    9
 10
2065
 20
1422.5
 11
2065
 21
1430
  0
LINE
  8
ADD_LINE
  6
DOT
 62
    9
 10
2057.5
 20
1430
 11
2057.5
 21
1422.5
  0
LINE
  8
_1-2_
  6
CONTINUOUS
 62
    7
 10
2057.5
 20
1392.5
 11
1557.5
 21
1392.5
  0
LINE
  8
_1-2_
  6
CONTINUOUS
 62
    7
 10
2057.5
 20
1395
 11
1557.5
 21
1395
  0
LINE
  8
_1-2_
  6
CONTINUOUS
 62
    7
 10
2057.5
 20
1365.4999999999997
 11
1557.5
 21
1365.4999999999997
  0
LINE
  8
_1-2_
  6
CONTINUOUS
 62
    3
 10
2057.5
 20
1422.5
 11
1557.5
 21
1422.5
  0
LINE
  8
ADD_LINE
  6
DOT
 62
    9
 10
1557.5
 20
1408.75
 11
2057.5
 21
1408.75
  0
LINE
  8
ADD_LINE
  6
DOT
 62
    9
 10
1557.5
 20
1378.9999999999997
 11
2057.5
 21
1378.9999999999997
  0
LINE
  8
ADD_LINE
  6
DOT
 62
    9
 10
1557.5
 20
1351.9999999999995
 11
2057.5
 21
1351.9999999999995
  0
LINE
  8
ADD_LINE
  6
DOT
 62
    9
 10
1828.7502500000005
 20
1395
 11
1828.7502500000005
 21
1422.5
  0
LINE
  8
_1-2_
  6
CONTINUOUS
 62
    3
 10
1557.5
 20
1422.5
 11
1557.5
 21
1338.4999999999995
  0
LINE
  8
_1-2_
  6
CONTINUOUS
 62
    3
 10
2057.5
 20
1338.4999999999995
 11
2057.5
 21
1422.5
  0
LINE
  8
_1-2_
  6
CONTINUOUS
 62
    7
 10
1662.5
 20
1392.5
 11
1662.5
 21
1338.4999999999995
  0
LINE
  8
ADD_LINE
  6
DOT
 62
    9
 10
1610
 20
1392.5
 11
1610
 21
1338.4999999999995
  0
LINE
  8
ADD_LINE
  6
DOT
 62
    9
 10
1672.5
 20
1422.5
 11
1672.5
 21
1338.4999999999995
  0
LINE
  8
_1-2_
  6
CONTINUOUS
 62
    3
 10
2057.5
 20
1338.4999999999995
 11
1557.5
 21
1338.4999999999995
  0
TEXT
  8
_1-2_
 62
    7
 10
1579.9250000000004
 20
1370.2499999999997
 40
17.5
 41
0.857142857142857
 50
0
  1
側　　板
  0
TEXT
  8
_1-2_
 62
    7
 10
1672.5
 20
1370.2499999999997
 40
17.5
 41
0.7714285714285714
 50
0
  1
低圧メラミン化粧パーティクルボード　１５ｔ
  0
TEXT
  8
_1-2_
 62
    7
 10
1672.5
 20
1343.2499999999995
 40
17.5
 41
0.7714285714285714
 50
0
  1
片面化粧パーティクルボード　１２ｔ
  0
TEXT
  8
_1-2_
 62
    7
 10
1579.9250000000004
 20
1343.2499999999995
 40
17.5
 41
0.857142857142857
 50
0
  1
前　　板
  0
TEXT
  8
_1-2_
 62
    7
 10
1672.5
 20
1400
 40
17.5
 41
0.857142857142857
 50
0
  1
仕　　　　様
  0
LINE
  8
ADD_LINE
  6
DOT
 62
    9
 10
356.75084364454448
 20
299.549356223176
 11
356.75084364454448
 21
264.49570815450641
  0
LINE
  8
ADD_LINE
  6
DOT
 62
    9
 10
296.75084364454448
 20
299.549356223176
 11
296.75084364454448
 21
264.49570815450641
  0
LINE
  8
ADD_LINE
  6
DOT
 62
    9
 10
236.75084364454448
 20
299.549356223176
 11
236.75084364454448
 21
264.49570815450641
  0
POINT
  8
_0-3_
 62
    3
 10
386.75084364454448
 20
599.03937007874003
  0
LINE
  8
_0-3_
  6
CONTINUOUS
 62
    4
 10
386.75084364454448
 20
604.03937007874003
 11
386.75084364454448
 21
479.03937007874003
  0
POINT
  8
_0-3_
 62
    3
 10
296.75084364454448
 20
309.03937007873997
  0
POINT
  8
_0-3_
 62
    3
 10
296.75084364454448
 20
359.03937007873997
  0
LINE
  8
_0-3_
  6
CONTINUOUS
 62
    4
 10
291.75084364454448
 20
309.03937007873997
 11
356.75084364454448
 21
309.03937007873997
  0
LINE
  8
_0-3_
  6
CONTINUOUS
 62
    4
 10
291.75084364454448
 20
359.03937007873997
 11
356.75084364454448
 21
359.03937007873997
  0
LINE
  8
_0-3_
  6
CONTINUOUS
 62
    4
 10
296.75084364454448
 20
309.03937007873997
 11
296.75084364454448
 21
359.03937007873997
  0
TEXT
  8
_0-3_
 62
    7
 10
294.25084364454448
 20
323.01437007874
 40
17.5
 41
0.6285714285714286
 50
90
  1
５０
  0
POINT
  8
_0-3_
 62
    3
 10
236.75084364454448
 20
309.03937007873997
  0
POINT
  8
_0-3_
 62
    3
 10
236.75084364454448
 20
449.03937007874014
  0
LINE
  8
_0-3_
  6
CONTINUOUS
 62
    4
 10
231.75084364454448
 20
309.03937007873997
 11
356.75084364454448
 21
309.03937007873997
  0
LINE
  8
_0-3_
  6
CONTINUOUS
 62
    4
 10
231.75084364454448
 20
449.03937007874014
 11
356.75084364454448
 21
449.03937007874014
  0
LINE
  8
_0-3_
  6
CONTINUOUS
 62
    4
 10
236.75084364454448
 20
309.03937007873997
 11
236.75084364454448
 21
449.03937007874014
  0
TEXT
  8
_0-3_
 62
    7
 10
234.25084364454448
 20
362.48937007874008
 40
17.5
 41
0.6285714285714286
 50
90
  1
１４０
  0
POINT
  8
_0-3_
 62
    3
 10
1318.4296962879639
 20
539.03937007874003
  0
POINT
  8
_0-3_
 62
    3
 10
1330.4296962879641
 20
539.03937007874003
  0
LINE
  8
_0-3_
  6
CONTINUOUS
 62
    4
 10
1318.4296962879639
 20
544.03937007874003
 11
1318.4296962879639
 21
479.03937007874003
  0
LINE
  8
_0-3_
  6
CONTINUOUS
 62
    4
 10
1330.4296962879641
 20
544.03937007874003
 11
1330.4296962879641
 21
479.03937007874003
  0
POINT
  8
_0-3_
 62
    3
 10
1318.4296962879639
 20
599.03937007874003
  0
POINT
  8
_0-3_
 62
    3
 10
1810.4296962879641
 20
599.03937007874003
  0
LINE
  8
_0-3_
  6
CONTINUOUS
 62
    4
 10
1318.4296962879639
 20
604.03937007874003
 11
1318.4296962879639
 21
479.03937007874003
  0
LINE
  8
_0-3_
  6
CONTINUOUS
 62
    4
 10
1810.4296962879641
 20
604.03937007874003
 11
1810.4296962879641
 21
479.03937007874003
  0
LINE
  8
_0-3_
  6
CONTINUOUS
 62
    4
 10
1318.4296962879639
 20
599.03937007874003
 11
1810.4296962879641
 21
599.03937007874003
  0
TEXT
  8
_0-3_
 62
    7
 10
1547.8796962879641
 20
601.53937007874003
 40
17.5
 41
0.6285714285714286
 50
0
  1
４９２
  0
LINE
  8
_0-3_
  6
CONTINUOUS
 62
    4
 10
1318.4296962879639
 20
539.03937007874003
 11
1330.4296962879641
 21
539.03937007874003
  0
TEXT
  8
_0-3_
 62
    7
 10
1335.0487384645139
 20
541.11419325277677
 40
17.5
 41
0.6285714285714286
 50
0
  1
１２
  0
LINE
  8
_0-3_
  6
CONTINUOUS
 62
    4
 10
1330.4296962879641
 20
539.03937007874003
 11
1359.644547007681
 21
539.03937007874003
  0
TEXT
  8
_0-1_
 62
    7
 10
422.22103004291847
 20
66.920600858369141
 40
22.5
 41
0.8
 50
0
  1
高さ調整用　台輪
  0
TEXT
  8
_0-1_
 62
    7
 10
785.50429184549352
 20
66.920600858369141
 40
22.5
 41
0.6666666666666666
 50
0
  1
ＫＴＢ５－８０－４０台輪
  0
TEXT
  8
_f-8_
 62
    7
 10
1529.5976394849785
 20
71.25
 40
17.5
 41
0.5714285714285713
 50
0
  1
２０２３.０５.０１
  0
TEXT
  8
_f-8_
 62
    7
 10
1798.8733905579397
 20
71.25
 40
17.5
 41
0.5714285714285713
 50
0
  1
Ｔ.Ｋ
  0
LINE
  8
_0-0_
  6
CONTINUOUS
 62
    7
 10
785.7508436445446
 20
799.99437570303712
 11
785.7508436445446
 21
811.99437570303712
  0
LINE
  8
_0-0_
  6
CONTINUOUS
 62
    7
 10
785.7508436445446
 20
811.99437570303712
 11
770.7508436445446
 21
811.99437570303712
  0
LINE
  8
_0-0_
  6
CONTINUOUS
 62
    7
 10
770.7508436445446
 20
811.99437570303712
 11
770.7508436445446
 21
1291.9943757030368
  0
LINE
  8
_0-0_
  6
CONTINUOUS
 62
    7
 10
770.7508436445446
 20
1291.9943757030368
 11
785.7508436445446
 21
1291.9943757030368
  0
LINE
  8
_0-0_
  6
CONTINUOUS
 62
    7
 10
785.7508436445446
 20
1291.9943757030368
 11
785.7508436445446
 21
811.99437570303712
  0
LINE
  8
_0-0_
  6
CONTINUOUS
 62
    7
 10
770.75084364454437
 20
1291.9943757030368
 11
770.75084364454437
 21
1276.9943757030371
  0
LINE
  8
_0-2_
  6
CONTINUOUS
 62
    2
 10
770.75084364454437
 20
1276.9943757030371
 11
746.05084364454444
 21
1276.9943757030371
  0
LINE
  8
_0-2_
  6
CONTINUOUS
 62
    2
 10
746.05084364454444
 20
1276.9943757030371
 11
746.05084364454444
 21
1272.9943757030373
  0
LINE
  8
_0-2_
  6
CONTINUOUS
 62
    2
 10
746.05084364454444
 20
1272.9943757030373
 11
770.75084364454437
 21
1272.9943757030373
  0
LINE
  8
_0-2_
  6
CONTINUOUS
 62
    2
 10
770.75084364454437
 20
1272.9943757030373
 11
770.75084364454437
 21
1276.9943757030371
  0
LINE
  8
_0-2_
  6
CONTINUOUS
 62
    5
 10
745.34373686335788
 20
1272.2872689218506
 11
770.09247420488691
 21
1247.5385315803214
  0
LINE
  8
_0-2_
  6
CONTINUOUS
 62
    5
 10
745.34373686335788
 20
1272.2872689218506
 11
746.05084364454432
 21
1272.9943757030373
  0
LINE
  8
_0-2_
  6
CONTINUOUS
 62
    5
 10
770.09247420488691
 20
1247.5385315803214
 11
770.79958098607346
 21
1248.245638361508
  0
LINE
  8
_0-2_
  6
CONTINUOUS
 62
    5
 10
765.8498335177677
 20
1272.9943757030371
 11
770.79958098607346
 21
1268.0446282347313
  0
LINE
  8
_0-2_
  6
CONTINUOUS
 62
    5
 10
770.79958098607346
 20
1248.245638361508
 11
770.79958098607346
 21
1268.0446282347313
  0
LINE
  8
_0-2_
  6
CONTINUOUS
 62
    5
 10
746.05084364454444
 20
1272.9943757030373
 11
765.8498335177677
 21
1272.9943757030373
  0
LINE
  8
_0-2_
  6
CONTINUOUS
 62
    5
 10
770.09348433166383
 20
837.45021982575281
 11
745.34474699013458
 21
812.70148248422378
  0
LINE
  8
_0-2_
  6
CONTINUOUS
 62
    5
 10
770.09348433166383
 20
837.45021982575281
 11
770.80059111285038
 21
836.74311304456625
  0
LINE
  8
_0-2_
  6
CONTINUOUS
 62
    5
 10
745.34474699013458
 20
812.70148248422378
 11
746.05185377132113
 21
811.99437570303712
  0
LINE
  8
_0-2_
  6
CONTINUOUS
 62
    5
 10
770.80059111285027
 20
816.94412317134288
 11
765.85084364454451
 21
811.99437570303712
  0
LINE
  8
_0-2_
  6
CONTINUOUS
 62
    5
 10
746.05185377132113
 20
811.99437570303712
 11
765.85084364454451
 21
811.99437570303712
  0
LINE
  8
_0-2_
  6
CONTINUOUS
 62
    5
 10
770.80059111285038
 20
836.74311304456625
 11
770.80059111285038
 21
816.94412317134288
  0
LINE
  8
_0-2_
  6
CONTINUOUS
 62
    7
 10
765.85084364454451
 20
811.99437570303712
 11
770.7508436445446
 21
811.99437570303712
  0
LINE
  8
ADD_LINE
  6
DOT
 62
    9
 10
854.83154506437767
 20
479.03937007874003
 11
814.99785407725312
 21
479.03937007874003
  0
LINE
  8
ADD_LINE
  6
DOT
 62
    9
 10
854.83154506437767
 20
539.03937007874003
 11
814.99785407725312
 21
539.03937007874003
  0
LINE
  8
ADD_LINE
  6
DOT
 62
    9
 10
854.83154506437767
 20
599.03937007874003
 11
814.99785407725312
 21
599.03937007874003
  0
POINT
  8
_0-3_
 62
    3
 10
785.7508436445446
 20
599.03937007874003
  0
LINE
  8
_0-3_
  6
CONTINUOUS
 62
    4
 10
785.7508436445446
 20
604.03937007874003
 11
785.7508436445446
 21
479.03937007874003
  0
LINE
  8
_0-0_
  6
CONTINUOUS
 62
    7
 10
401.75084364454448
 20
1291.9943757030368
 11
770.7508436445446
 21
1291.9943757030368
  0
LINE
  8
_0-0_
  6
CONTINUOUS
 62
    7
 10
386.75084364454448
 20
799.99437570303712
 11
785.7508436445446
 21
799.99437570303712
  0
LINE
  8
_0-0_
  6
CONTINUOUS
 62
    7
 10
785.7508436445446
 20
449.03937007874003
 11
386.75084364454448
 21
449.03937007874003
  0
LINE
  8
_0-0_
  6
CONTINUOUS
 62
    7
 10
785.7508436445446
 20
309.03937007873997
 11
785.7508436445446
 21
449.03937007874003
  0
POINT
  8
_0-3_
 62
    3
 10
386.75084364454448
 20
599.03937007874003
  0
POINT
  8
_0-3_
 62
    3
 10
785.7508436445446
 20
599.03937007874003
  0
LINE
  8
_0-3_
  6
CONTINUOUS
 62
    4
 10
386.75084364454448
 20
599.03937007874003
 11
785.7508436445446
 21
599.03937007874003
  0
TEXT
  8
_0-3_
 62
    7
 10
569.70084364454453
 20
601.53937007874003
 40
17.5
 41
0.6285714285714286
 50
0
  1
３９９
  0
ENDSEC
  0
EOF
