  0
SECTION
  2
HEADER
  9
$ACADVER
  1
AC1009
  9
$INSBASE
 10
0
 20
0
 30
0
  9
$EXTMIN
 10
0
 20
0
  9
$EXTMAX
 10
2100
 20
1485
  9
$LIMMIN
 10
0
 20
0
  9
$LIMMAX
 10
2100
 20
1485
  9
$LTSCALE
 40
5
  0
ENDSEC
  0
SECTION
  2
TABLES
  0
TABLE
  2
LTYPE
 70
     9
  0
LTYPE
  2
CONTINUOUS
 70
    64
  3
実線
 72
    65
 73
     0
 40
0.0
  0
LTYPE
  2
DASHED1
 70
    64
  3
--  --  --  --  --  --  --  --  
 72
    65
 73
     2
 40
2.5
 49
1.25
 49
-1.25
  0
LTYPE
  2
DASHED2
 70
    64
  3
----    ----    ----    ----    
 72
    65
 73
     2
 40
5.0
 49
2.5
 49
-2.5
  0
LTYPE
  2
DASHED3
 70
    64
  3
------  ------  ------  ------  
 72
    65
 73
     2
 40
5.0
 49
3.75
 49
-1.25
  0
LTYPE
  2
CENTER1
 70
    64
  3
----- - ----- - ----- - ----- - 
 72
    65
 73
     4
 40
10.0
 49
6.25
 49
-1.25
 49
1.25
 49
-1.25
  0
LTYPE
  2
CENTER2
 70
    64
  3
----------  --  ----------  --  
 72
    65
 73
     4
 40
20.0
 49
12.5
 49
-2.5
 49
2.5
 49
-2.5
  0
LTYPE
  2
PHANTOM1
 70
    64
  3
--- - - --- - - --- - - --- - - 
 72
    65
 73
     6
 40
10.0
 49
3.25
 49
-1.25
 49
1.25
 49
-1.25
 49
1.25
 49
-1.25
  0
LTYPE
  2
PHANTOM2
 70
    64
  3
--------  -  -  --------  -  -  
 72
    65
 73
     6
 40
20.0
 49
10.0
 49
-2.5
 49
1.25
 49
-2.5
 49
1.25
 49
-2.5
  0
LTYPE
  2
DOT
 70
    64
  3
-   -   -   -   -   -   -   -   
 72
    65
 73
     2
 40
2.5
 49
0.625
 49
-1.875
  0
LTYPE
  2
DUMMY
 70
    64
  3
ダミー
 72
    65
 73
     0
 40
0.0
  0
LTYPE
  2
RAND1
 70
    64
  3
ランダム線1
 72
    65
 73
     4
 40
10.0
 49
1.0
 49
-2.0
 49
3.0
 49
-4.0
  0
LTYPE
  2
RAND2
 70
    64
  3
ランダム線2
 72
    65
 73
     4
 40
14.0
 49
2.0
 49
-3.0
 49
4.0
 49
-5.0
  0
LTYPE
  2
RAND3
 70
    64
  3
ランダム線3
 72
    65
 73
     4
 40
18.0
 49
3.0
 49
-4.0
 49
5.0
 49
-6.0
  0
LTYPE
  2
RAND4
 70
    64
  3
ランダム線4
 72
    65
 73
     4
 40
22.0
 49
4.0
 49
-5.0
 49
6.0
 49
-7.0
  0
LTYPE
  2
RAND5
 70
    64
  3
ランダム線5
 72
    65
 73
     4
 40
26.0
 49
5.0
 49
-6.0
 49
7.0
 49
-8.0
  0
LTYPE
  2
LONG1
 70
    64
  3
----------  --  ----------  --  
 72
    65
 73
     4
 40
40.0
 49
32.5
 49
-2.5
 49
2.5
 49
-2.5
  0
LTYPE
  2
LONG2
 70
    64
  3
--------  -  -  --------  -  -  
 72
    65
 73
     6
 40
40.0
 49
30.0
 49
-2.5
 49
1.25
 49
-2.5
 49
1.25
 49
-2.5
  0
LTYPE
  2
LONG3
 70
    64
  3
+++++++++++++++..+++++++++++++++
 72
    65
 73
     2
 40
40.0
 49
37.5
 49
-2.5
  0
LTYPE
  2
LONG4
 70
    64
  3
+++++++++++++++..+++++++++++++++
 72
    65
 73
     2
 40
80.0
 49
75.0
 49
-5.0
  0
LTYPE
  2
LONG5
 70
    64
  3
----------  --  ----------  --  
 72
    65
 73
     4
 40
60.0
 49
37.5
 49
-7.5
 49
7.5
 49
-7.5
  0
LTYPE
  2
dashed
 70
   64
  3
-------   -------------   ------
 72
   65
 73
    2
 40
7.5
 49
6
 49
-1.5
  0
LTYPE
  2
dashed_spaced
 70
   64
  3
----        --------        ----
 72
   65
 73
    2
 40
12
 49
6
 49
-6
  0
LTYPE
  2
long_dashed_dotted
 70
   64
  3
------------- --- --------------
 72
   65
 73
    4
 40
15.25
 49
12
 49
-1.5
 49
0.25
 49
-1.5
  0
LTYPE
  2
long_dashed_double-dotted
 70
   64
  3
----------- --- --- ------------
 72
   65
 73
    6
 40
17
 49
12
 49
-1.5
 49
0.25
 49
-1.5
 49
0.25
 49
-1.5
  0
LTYPE
  2
long_dashed_triplicate-dotted
 70
   64
  3
--------- --- --- --- ----------
 72
   65
 73
    8
 40
18.75
 49
12
 49
-1.5
 49
0.25
 49
-1.5
 49
0.25
 49
-1.5
 49
0.25
 49
-1.5
  0
LTYPE
  2
dotted
 70
   64
  3
   -       -       -       -    
 72
   65
 73
    2
 40
1.75
 49
0.25
 49
-1.5
  0
LTYPE
  2
chain
 70
   64
  3
-------------- -- --------------
 72
   65
 73
    4
 40
18.5
 49
12
 49
-1.5
 49
3.5
 49
-1.5
  0
LTYPE
  2
chain_double_dash
 70
   64
  3
------------ -- -- -------------
 72
   65
 73
    6
 40
23.5
 49
12
 49
-1.5
 49
3.5
 49
-1.5
 49
3.5
 49
-1.5
  0
LTYPE
  2
dashed_dotted
 70
   64
  3
-----------     -     ----------
 72
   65
 73
    4
 40
9.25
 49
6
 49
-1.5
 49
0.25
 49
-1.5
  0
LTYPE
  2
double-dashed_dotted
 70
   64
  3
------   -----------   -   -----
 72
   65
 73
    6
 40
16.75
 49
6
 49
-1.5
 49
6
 49
-1.5
 49
0.25
 49
-1.5
  0
LTYPE
  2
dashed_double-dotted
 70
   64
  3
---------    -    -    ---------
 72
   65
 73
    6
 40
11
 49
6
 49
-1.5
 49
0.25
 49
-1.5
 49
0.25
 49
-1.5
  0
LTYPE
  2
double-dashed_double-dotted
 70
   64
  3
-----   ---------   -   -   ----
 72
   65
 73
    8
 40
18.5
 49
6
 49
-1.5
 49
6
 49
-1.5
 49
0.25
 49
-1.5
 49
0.25
 49
-1.5
  0
LTYPE
  2
dashed_triplicate-dotted
 70
   64
  3
-------    -    -    -    ------
 72
   65
 73
    8
 40
12.75
 49
6
 49
-1.5
 49
0.25
 49
-1.5
 49
0.25
 49
-1.5
 49
0.25
 49
-1.5
  0
LTYPE
  2
double-dashed_triplicate-dotted
 70
   64
  3
-----  ---------  -  -  -  -----
 72
   65
 73
   10
 40
20.25
 49
6
 49
-1.5
 49
6
 49
-1.5
 49
0.25
 49
-1.5
 49
0.25
 49
-1.5
 49
0.25
 49
-1.5
  0
LTYPE
  2
undefined
 70
   64
  3
--------------------------------
 72
   65
 73
    0
 40
0
  0
LTYPE
  2
_
 70
   64
  3
                                
 72
   65
 73
    0
 40
0
  0
LTYPE
  2
__18
 70
   64
  3
                                
 72
   65
 73
    0
 40
0
  0
LTYPE
  2
__19
 70
   64
  3
                                
 72
   65
 73
    0
 40
0
  0
LTYPE
  2
__20
 70
   64
  3
                                
 72
   65
 73
    0
 40
0
  0
LTYPE
  2
__21
 70
   64
  3
                                
 72
   65
 73
    0
 40
0
  0
LTYPE
  2
__22
 70
   64
  3
                                
 72
   65
 73
    0
 40
0
  0
LTYPE
  2
__23
 70
   64
  3
                                
 72
   65
 73
    0
 40
0
  0
LTYPE
  2
__24
 70
   64
  3
                                
 72
   65
 73
    0
 40
0
  0
LTYPE
  2
__25
 70
   64
  3
                                
 72
   65
 73
    0
 40
0
  0
LTYPE
  2
__26
 70
   64
  3
                                
 72
   65
 73
    0
 40
0
  0
LTYPE
  2
__27
 70
   64
  3
                                
 72
   65
 73
    0
 40
0
  0
LTYPE
  2
__28
 70
   64
  3
                                
 72
   65
 73
    0
 40
0
  0
LTYPE
  2
__29
 70
   64
  3
                                
 72
   65
 73
    0
 40
0
  0
LTYPE
  2
__30
 70
   64
  3
                                
 72
   65
 73
    0
 40
0
  0
LTYPE
  2
__31
 70
   64
  3
                                
 72
   65
 73
    0
 40
0
  0
LTYPE
  2
__32
 70
   64
  3
                                
 72
   65
 73
    0
 40
0
  0
ENDTAB
  0
TABLE
  2
STYLE
  5
3
100
AcDbSymbolTable
 70
     1
  0
STYLE
  5
10
100
AcDbSymbolTableRecord
100
AcDbTextStyleTableRecord
  2
STANDARD
 70
     0
 40
0.0
 41
1.0
 50
0.0
 71
     0
 42
0.2
  3
txt
  4
bigfont.shx
  0
STYLE
  5
26
100
AcDbSymbolTableRecord
100
AcDbTextStyleTableRecord
  2
TATEGAKI
 70
    68
 40
0.0
 41
1.0
 50
0.0
 71
     0
 42
1.0
  3
txt
  4
bigfont.shx
  0
ENDTAB
  0
TABLE
  2
LAYER
 70
   14
  0
LAYER
  2
_0-0_
 70
   64
 62
    7
  6
CONTINUOUS
  0
LAYER
  2
_0-1_
 70
   64
 62
    7
  6
CONTINUOUS
  0
LAYER
  2
_0-2_
 70
   64
 62
    7
  6
CONTINUOUS
  0
LAYER
  2
_0-3_
 70
   64
 62
    7
  6
CONTINUOUS
  0
LAYER
  2
_1-2_
 70
   64
 62
    7
  6
CONTINUOUS
  0
LAYER
  2
_e-0_
 70
   64
 62
    7
  6
CONTINUOUS
  0
LAYER
  2
_f-0_
 70
   64
 62
    7
  6
CONTINUOUS
  0
LAYER
  2
_f-7_
 70
   64
 62
    7
  6
CONTINUOUS
  0
LAYER
  2
_f-8_
 70
   64
 62
    7
  6
CONTINUOUS
  0
LAYER
  2
_f-9_
 70
   64
 62
    7
  6
CONTINUOUS
  0
LAYER
  2
_f-d_固定文字
 70
   64
 62
    7
  6
CONTINUOUS
  0
LAYER
  2
_f-e_
 70
   64
 62
    7
  6
CONTINUOUS
  0
LAYER
  2
_f-f_図面枠
 70
   64
 62
    7
  6
CONTINUOUS
  0
LAYER
  2
ADD_LINE
 70
   64
 62
    7
  6
CONTINUOUS
  0
ENDTAB
  0
ENDSEC
  0
SECTION
  2
BLOCKS
  0
ENDSEC
  0
SECTION
  2
ENTITIES
  0
LINE
  8
ADD_LINE
  6
DOT
 62
    9
 10
74.992500000000035
 20
50
 11
74.992500000000035
 21
32.5
  0
LINE
  8
ADD_LINE
  6
DOT
 62
    9
 10
74.992500000000035
 20
32.5
 11
89.992500000000035
 21
32.500000323002922
  0
LINE
  8
ADD_LINE
  6
DOT
 62
    9
 10
89.992500000000035
 20
50
 11
89.992500000000035
 21
32.500000323002922
  0
LINE
  8
ADD_LINE
  6
DOT
 62
    9
 10
75.007499999999964
 20
32.5
 11
60.014999999999929
 21
32.5
  0
LINE
  8
ADD_LINE
  6
DOT
 62
    9
 10
37.492500000000035
 20
27.5
 11
2072.4925000000002
 21
27.5
  0
LINE
  8
ADD_LINE
  6
DOT
 62
    9
 10
2065
 20
50
 11
2065
 21
32.500001615014895
  0
LINE
  8
ADD_LINE
  6
DOT
 62
    9
 10
2050
 20
50
 11
2050
 21
32.500001615014895
  0
LINE
  8
ADD_LINE
  6
DOT
 62
    9
 10
2035
 20
50
 11
2035
 21
32.500001615014895
  0
LINE
  8
ADD_LINE
  6
DOT
 62
    9
 10
2020
 20
50
 11
2020
 21
32.500001615014895
  0
LINE
  8
ADD_LINE
  6
DOT
 62
    9
 10
2005
 20
50
 11
2005
 21
32.500001615014895
  0
LINE
  8
ADD_LINE
  6
DOT
 62
    9
 10
1990
 20
50
 11
1990
 21
32.5
  0
LINE
  8
ADD_LINE
  6
DOT
 62
    9
 10
37.492500000000035
 20
1437.5
 11
37.492500000000035
 21
27.5
  0
LINE
  8
ADD_LINE
  6
DOT
 62
    9
 10
60.014999999999929
 20
32.5
 11
60.014999999999929
 21
1430
  0
LINE
  8
ADD_LINE
  6
DOT
 62
    9
 10
2072.4925000000002
 20
1437.5
 11
37.492500000000035
 21
1437.5
  0
LINE
  8
ADD_LINE
  6
DOT
 62
    9
 10
2072.4925000000002
 20
27.5
 11
2072.4925000000002
 21
1437.5
  0
LINE
  8
_f-9_
  6
CONTINUOUS
 62
    7
 10
315
 20
60
 11
315
 21
110
  0
LINE
  8
ADD_LINE
  6
DOT
 62
    9
 10
85
 20
60
 11
85
 21
110
  0
LINE
  8
ADD_LINE
  6
DOT
 62
    9
 10
305
 20
60
 11
305
 21
110
  0
LINE
  8
_f-9_
  6
CONTINUOUS
 62
    7
 10
85
 20
60
 11
305
 21
60
  0
LINE
  8
_f-9_
  6
CONTINUOUS
 62
    7
 10
85
 20
110
 11
305
 21
110
  0
LINE
  8
_f-9_
  6
CONTINUOUS
 62
    7
 10
710
 20
60
 11
710
 21
110
  0
LINE
  8
_f-9_
  6
CONTINUOUS
 62
    7
 10
1105
 20
60
 11
1105
 21
110
  0
LINE
  8
_f-9_
  6
CONTINUOUS
 62
    7
 10
1110
 20
60
 11
1110
 21
110
  0
LINE
  8
_f-9_
  6
CONTINUOUS
 62
    7
 10
315
 20
60
 11
1105
 21
60
  0
LINE
  8
_f-9_
  6
CONTINUOUS
 62
    7
 10
315
 20
110
 11
1105
 21
110
  0
LINE
  8
_f-9_
  6
CONTINUOUS
 62
    7
 10
1355
 20
60
 11
1355
 21
110
  0
LINE
  8
_f-9_
  6
CONTINUOUS
 62
    7
 10
1360
 20
60
 11
1360
 21
110
  0
LINE
  8
_f-9_
  6
CONTINUOUS
 62
    7
 10
1110
 20
60
 11
1355
 21
60
  0
LINE
  8
_f-9_
  6
CONTINUOUS
 62
    7
 10
1110
 20
110
 11
1355
 21
110
  0
LINE
  8
_f-9_
  6
CONTINUOUS
 62
    7
 10
1510
 20
60
 11
1510
 21
110
  0
LINE
  8
_f-9_
  6
CONTINUOUS
 62
    7
 10
1660
 20
60
 11
1660
 21
110
  0
LINE
  8
_f-9_
  6
CONTINUOUS
 62
    7
 10
1850
 20
60
 11
1850
 21
110
  0
LINE
  8
_f-9_
  6
CONTINUOUS
 62
    7
 10
1360
 20
60
 11
2055
 21
60
  0
LINE
  8
_f-9_
  6
CONTINUOUS
 62
    7
 10
2055
 20
60
 11
2055
 21
110
  0
LINE
  8
_f-9_
  6
CONTINUOUS
 62
    7
 10
1360
 20
110
 11
2055
 21
110
  0
LINE
  8
_f-f_図面枠
  6
CONTINUOUS
 62
  230
 10
2065
 20
1430
 11
2065
 21
50
  0
LINE
  8
_f-f_図面枠
  6
CONTINUOUS
 62
  230
 10
75
 20
1430
 11
2065
 21
1430
  0
LINE
  8
_f-f_図面枠
  6
CONTINUOUS
 62
  230
 10
75
 20
50
 11
2065
 21
50
  0
LINE
  8
_f-f_図面枠
  6
CONTINUOUS
 62
  230
 10
75
 20
50
 11
75
 21
1430
  0
LINE
  8
ADD_LINE
  6
DOT
 62
    9
 10
315
 20
100
 11
1105
 21
100
  0
LINE
  8
ADD_LINE
  6
DOT
 62
    9
 10
1360
 20
100
 11
2055
 21
100
  0
LINE
  8
ADD_LINE
  6
DOT
 62
    9
 10
1370
 20
60
 11
1370
 21
110
  0
LINE
  8
ADD_LINE
  6
DOT
 62
    9
 10
1520
 20
60
 11
1520
 21
110
  0
LINE
  8
ADD_LINE
  6
DOT
 62
    9
 10
1670
 20
60
 11
1670
 21
110
  0
LINE
  8
ADD_LINE
  6
DOT
 62
    9
 10
1860
 20
60
 11
1860
 21
110
  0
LINE
  8
ADD_LINE
  6
DOT
 62
    9
 10
722.5
 20
60
 11
722.5
 21
110
  0
LINE
  8
ADD_LINE
  6
DOT
 62
    9
 10
327.5
 20
60
 11
327.5
 21
110
  0
LINE
  8
ADD_LINE
  6
DOT
 62
    9
 10
1830
 20
60
 11
1830
 21
110
  0
LINE
  8
ADD_LINE
  6
DOT
 62
    9
 10
1360
 20
80
 11
2055
 21
80
  0
TEXT
  8
_f-8_
 62
    7
 10
1520
 20
93.75
 40
12.5
 41
0.64
 50
0
  1
ＤＡＴＡ
  0
TEXT
  8
_f-8_
 62
    7
 10
1670
 20
93.75
 40
12.5
 41
0.64
 50
0
  1
ＣＨＥＣＫＥＤ
  0
TEXT
  8
_f-8_
 62
    7
 10
1860
 20
93.75
 40
12.5
 41
0.64
 50
0
  1
ＳＨＥＥＴ　ＮＯ．
  0
TEXT
  8
_f-8_
 62
    7
 10
1771
 20
93.75
 40
12.5
 41
0.64
 50
0
  1
ＤＲＡＷＩＮＧ
  0
LINE
  8
ADD_LINE
  6
DOT
 62
    9
 10
67.5
 20
32.5
 11
67.5
 21
1430
  0
LINE
  8
_f-9_
  6
CONTINUOUS
 62
    7
 10
85
 20
85
 11
305
 21
85
  0
LINE
  8
ADD_LINE
  6
DOT
 62
    9
 10
1455
 20
60
 11
1455
 21
110
  0
LINE
  8
ADD_LINE
  6
DOT
 62
    9
 10
1585
 20
60
 11
1585
 21
110
  0
LINE
  8
ADD_LINE
  6
DOT
 62
    9
 10
1750
 20
110
 11
1750
 21
60
  0
LINE
  8
ADD_LINE
  6
DOT
 62
    9
 10
315
 20
80
 11
1105
 21
80
  0
LINE
  8
ADD_LINE
  6
DOT
 62
    9
 10
512.5
 20
110
 11
512.5
 21
60
  0
TEXT
  8
_f-8_
 62
    7
 10
1370.1869920427106
 20
93.734686497424917
 40
12.5
 41
0.64
 50
0
  1
ＳＣＡＬＥ
  0
TEXT
  8
_f-8_
 62
    7
 10
722.5
 20
93.75
 40
12.5
 41
0.8
 50
0
  1
図面名称
  0
TEXT
  8
_f-8_
 62
    7
 10
327.5
 20
93.75
 40
12.5
 41
0.8
 50
0
  1
名　称
  0
LINE
  8
ADD_LINE
  6
DOT
 62
    9
 10
907.5
 20
60
 11
907.5
 21
110
  0
LINE
  8
_f-8_
  6
CONTINUOUS
 62
    7
 10
1082.5
 20
1436
 11
1083.075
 21
1437.0000000000002
  0
LINE
  8
_f-8_
  6
CONTINUOUS
 62
    7
 10
1079.3199999999999
 20
1438.5
 11
1082.5
 21
1433
  0
LINE
  8
_f-8_
  6
CONTINUOUS
 62
    7
 10
1082.5
 20
1433
 11
1085.6749999999999
 21
1438.5
  0
LINE
  8
_f-8_
  6
CONTINUOUS
 62
    7
 10
1082.5
 20
1430
 11
1088.2699999999999
 21
1440
  0
LINE
  8
_f-8_
  6
CONTINUOUS
 62
    7
 10
1076.7249999999999
 20
1440
 11
1082.5
 21
1430
  0
LINE
  8
_f-8_
  6
CONTINUOUS
 62
    7
 10
1088.2699999999999
 20
1440
 11
1076.7249999999999
 21
1440
  0
LINE
  8
_f-8_
  6
CONTINUOUS
 62
    7
 10
1081.92
 20
1437.0000000000002
 11
1082.5
 21
1436
  0
LINE
  8
_f-8_
  6
CONTINUOUS
 62
    7
 10
1083.075
 20
1437.0000000000002
 11
1081.92
 21
1437.0000000000002
  0
LINE
  8
_f-8_
  6
CONTINUOUS
 62
    7
 10
1085.6749999999999
 20
1438.5
 11
1079.3199999999999
 21
1438.5
  0
LINE
  8
_f-7_
  6
CONTINUOUS
 62
    7
 10
60
 20
731.33974596215568
 11
60
 21
748.66025403784431
  0
LINE
  8
_f-7_
  6
CONTINUOUS
 62
    7
 10
60
 20
748.66025403784431
 11
75
 21
740
  0
LINE
  8
_f-7_
  6
CONTINUOUS
 62
    7
 10
75
 20
740
 11
60
 21
731.33974596215568
  0
LINE
  8
_f-7_
  6
CONTINUOUS
 62
    7
 10
62.5
 20
735.66987298107778
 11
62.5
 21
744.33012701892221
  0
LINE
  8
_f-7_
  6
CONTINUOUS
 62
    7
 10
62.5
 20
744.33012701892221
 11
70
 21
740
  0
LINE
  8
_f-7_
  6
CONTINUOUS
 62
    7
 10
70
 20
740
 11
62.5
 21
735.66987298107778
  0
LINE
  8
_f-7_
  6
CONTINUOUS
 62
    7
 10
64.499999999999886
 20
739.13397459621546
 11
64.499999999999886
 21
740.86602540378453
  0
LINE
  8
_f-7_
  6
CONTINUOUS
 62
    7
 10
64.499999999999886
 20
740.86602540378453
 11
66.000000000000227
 21
740
  0
LINE
  8
_f-7_
  6
CONTINUOUS
 62
    7
 10
66.000000000000227
 20
740
 11
64.499999999999886
 21
739.13397459621546
  0
LINE
  8
_f-7_
  6
CONTINUOUS
 62
    7
 10
2080
 20
731.33974596215568
 11
2080
 21
748.66025403784431
  0
LINE
  8
_f-7_
  6
CONTINUOUS
 62
    7
 10
2080
 20
748.66025403784431
 11
2065
 21
740
  0
LINE
  8
_f-7_
  6
CONTINUOUS
 62
    7
 10
2065
 20
740
 11
2080
 21
731.33974596215568
  0
LINE
  8
_f-7_
  6
CONTINUOUS
 62
    7
 10
2077.5
 20
735.66987298107778
 11
2077.5
 21
744.33012701892221
  0
LINE
  8
_f-7_
  6
CONTINUOUS
 62
    7
 10
2077.5
 20
744.33012701892221
 11
2070
 21
740
  0
LINE
  8
_f-7_
  6
CONTINUOUS
 62
    7
 10
2070
 20
740
 11
2077.5
 21
735.66987298107778
  0
LINE
  8
_f-7_
  6
CONTINUOUS
 62
    7
 10
2075.5
 20
739.13397459621546
 11
2075.5
 21
740.86602540378453
  0
LINE
  8
_f-7_
  6
CONTINUOUS
 62
    7
 10
2075.5
 20
740.86602540378453
 11
2074
 21
740
  0
LINE
  8
_f-7_
  6
CONTINUOUS
 62
    7
 10
2074
 20
740
 11
2075.5
 21
739.13397459621546
  0
LINE
  8
ADD_LINE
  6
DOT
 62
    9
 10
537.5
 20
110
 11
537.5
 21
60
  0
LINE
  8
ADD_LINE
  6
DOT
 62
    9
 10
932.5
 20
60
 11
932.5
 21
110
  0
TEXT
  8
_f-d_固定文字
 62
    7
 10
75.007499999999964
 20
32.5
 40
10
 41
1
 50
0
  1
%f
  0
LINE
  8
ADD_LINE
  6
DOT
 62
    9
 10
1990
 20
32.5
 11
2065
 21
32.500001615014895
  0
TEXT
  8
_f-d_固定文字
 62
    7
 10
1994.5
 20
32.500001615014895
 40
10
 41
1
 50
0
  1
%y
  0
TEXT
  8
_f-d_固定文字
 62
    7
 10
2010
 20
32.500001615014895
 40
10
 41
1
 50
0
  1
．
  0
TEXT
  8
_f-d_固定文字
 62
    7
 10
2024.5
 20
32.500001615014895
 40
10
 41
1
 50
0
  1
%m
  0
TEXT
  8
_f-d_固定文字
 62
    7
 10
2040
 20
32.500001615014895
 40
10
 41
1
 50
0
  1
．
  0
TEXT
  8
_f-d_固定文字
 62
    7
 10
2054.5
 20
32.500001615014895
 40
10
 41
1
 50
0
  1
%d
  0
TEXT
  8
_f-8_
 62
    7
 10
1430.5
 20
71.25
 40
17.5
 41
0.5714285714285713
 50
0
  1
１／５
  0
LINE
  8
_0-0_
  6
CONTINUOUS
 62
    7
 10
887.4673790776153
 20
854.51574803149605
 11
292.4673790776153
 21
854.51574803149605
  0
LINE
  8
_0-0_
  6
CONTINUOUS
 62
    7
 10
292.4673790776153
 20
854.51574803149605
 11
292.4673790776153
 21
842.51574803149605
  0
LINE
  8
_0-0_
  6
CONTINUOUS
 62
    7
 10
292.4673790776153
 20
854.51574803149605
 11
307.4673790776153
 21
854.51574803149605
  0
LINE
  8
_0-0_
  6
CONTINUOUS
 62
    7
 10
307.4673790776153
 20
854.51574803149605
 11
307.4673790776153
 21
1334.515748031496
  0
LINE
  8
_0-0_
  6
CONTINUOUS
 62
    7
 10
307.4673790776153
 20
1334.515748031496
 11
292.4673790776153
 21
1334.515748031496
  0
LINE
  8
_0-0_
  6
CONTINUOUS
 62
    7
 10
292.4673790776153
 20
1334.515748031496
 11
292.4673790776153
 21
854.51574803149605
  0
LINE
  8
_0-0_
  6
CONTINUOUS
 62
    7
 10
872.4673790776153
 20
1319.515748031496
 11
307.4673790776153
 21
1319.515748031496
  0
LINE
  8
_0-0_
  6
CONTINUOUS
 62
    7
 10
307.4673790776153
 20
1319.515748031496
 11
307.4673790776153
 21
1334.515748031496
  0
LINE
  8
_0-0_
  6
CONTINUOUS
 62
    7
 10
292.4673790776153
 20
455.07142857142855
 11
292.4673790776153
 21
315.07142857142861
  0
LINE
  8
_0-0_
  6
CONTINUOUS
 62
    7
 10
887.46737907761541
 20
455.07142857142855
 11
292.4673790776153
 21
455.07142857142855
  0
LINE
  8
_0-0_
  6
CONTINUOUS
 62
    7
 10
292.4673790776153
 20
455.07142857142855
 11
292.4673790776153
 21
315.07142857142861
  0
LINE
  8
_0-0_
  6
CONTINUOUS
 62
    7
 10
292.4673790776153
 20
315.07142857142861
 11
887.46737907761541
 21
315.07142857142861
  0
LINE
  8
_0-0_
  6
DASHED2
 62
    7
 10
292.4673790776153
 20
365.07142857142861
 11
887.46737907761541
 21
365.07142857142861
  0
LINE
  8
_0-2_
  6
CONTINUOUS
 62
    2
 10
307.4673790776153
 20
1319.515748031496
 11
332.16737907761523
 21
1319.515748031496
  0
LINE
  8
_0-2_
  6
CONTINUOUS
 62
    2
 10
332.16737907761523
 20
1319.515748031496
 11
332.16737907761523
 21
1315.515748031496
  0
LINE
  8
_0-2_
  6
CONTINUOUS
 62
    2
 10
332.16737907761523
 20
1315.515748031496
 11
307.4673790776153
 21
1315.515748031496
  0
LINE
  8
_0-2_
  6
CONTINUOUS
 62
    2
 10
307.4673790776153
 20
1315.515748031496
 11
307.4673790776153
 21
1319.515748031496
  0
LINE
  8
_0-2_
  6
CONTINUOUS
 62
    5
 10
308.12574851727265
 20
1290.0599039087801
 11
332.87448585880184
 21
1314.8086412503096
  0
LINE
  8
_0-2_
  6
CONTINUOUS
 62
    5
 10
308.12574851727265
 20
1290.0599039087801
 11
307.41864173608604
 21
1290.767010689967
  0
LINE
  8
_0-2_
  6
CONTINUOUS
 62
    5
 10
332.87448585880184
 20
1314.8086412503096
 11
332.16737907761523
 21
1315.515748031496
  0
LINE
  8
_0-2_
  6
CONTINUOUS
 62
    5
 10
307.41864173608621
 20
1310.5660005631903
 11
312.36838920439197
 21
1315.515748031496
  0
LINE
  8
_0-2_
  6
CONTINUOUS
 62
    5
 10
332.16737907761523
 20
1315.515748031496
 11
312.36838920439197
 21
1315.515748031496
  0
LINE
  8
_0-2_
  6
CONTINUOUS
 62
    5
 10
307.41864173608604
 20
1290.767010689967
 11
307.41864173608604
 21
1310.5660005631903
  0
LINE
  8
_0-2_
  6
CONTINUOUS
 62
    5
 10
332.87347573202509
 20
855.22285481268249
 11
308.12473839049602
 21
879.97159215421174
  0
LINE
  8
_0-2_
  6
CONTINUOUS
 62
    5
 10
332.87347573202509
 20
855.22285481268249
 11
332.16636895083854
 21
854.51574803149594
  0
LINE
  8
_0-2_
  6
CONTINUOUS
 62
    5
 10
308.12473839049602
 20
879.97159215421174
 11
307.41763160930941
 21
879.26448537302519
  0
LINE
  8
_0-2_
  6
CONTINUOUS
 62
    5
 10
312.36737907761522
 20
854.51574803149605
 11
307.41763160930941
 21
859.46549549980193
  0
LINE
  8
_0-2_
  6
CONTINUOUS
 62
    5
 10
307.41763160930941
 20
879.26448537302519
 11
307.41763160930941
 21
859.46549549980193
  0
LINE
  8
_0-2_
  6
CONTINUOUS
 62
    5
 10
332.16636895083854
 20
854.51574803149594
 11
312.36737907761522
 21
854.51574803149594
  0
LINE
  8
_0-2_
  6
CONTINUOUS
 62
    7
 10
312.36737907761522
 20
854.51574803149594
 11
307.4673790776153
 21
854.51574803149594
  0
LINE
  8
_0-0_
  6
CONTINUOUS
 62
    7
 10
1342.9949381327332
 20
365.07142857142861
 11
1342.9949381327332
 21
315.07142857142855
  0
LINE
  8
_0-0_
  6
CONTINUOUS
 62
    7
 10
1822.9949381327335
 20
365.07142857142861
 11
1342.9949381327332
 21
365.07142857142861
  0
LINE
  8
_0-0_
  6
CONTINUOUS
 62
    7
 10
1822.9949381327335
 20
315.07142857142855
 11
1822.9949381327335
 21
365.07142857142861
  0
LINE
  8
_0-0_
  6
CONTINUOUS
 62
    7
 10
1342.9949381327332
 20
315.07142857142855
 11
1822.9949381327335
 21
315.07142857142855
  0
LINE
  8
_0-0_
  6
CONTINUOUS
 62
    7
 10
1330.9949381327332
 20
455.07142857142855
 11
1330.9949381327332
 21
315.07142857142855
  0
LINE
  8
_0-0_
  6
CONTINUOUS
 62
    7
 10
1342.9949381327332
 20
455.07142857142855
 11
1330.9949381327332
 21
455.07142857142855
  0
LINE
  8
_0-0_
  6
CONTINUOUS
 62
    7
 10
1342.9949381327332
 20
315.07142857142855
 11
1342.9949381327332
 21
455.07142857142855
  0
LINE
  8
_0-0_
  6
CONTINUOUS
 62
    7
 10
1330.9949381327332
 20
315.07142857142855
 11
1342.9949381327332
 21
315.07142857142855
  0
LINE
  8
_0-0_
  6
CONTINUOUS
 62
    7
 10
1342.9949381327332
 20
365.07142857142861
 11
1342.9949381327332
 21
315.07142857142855
  0
LINE
  8
_0-0_
  6
CONTINUOUS
 62
    7
 10
1822.9949381327335
 20
365.07142857142861
 11
1342.9949381327332
 21
365.07142857142861
  0
LINE
  8
_0-0_
  6
CONTINUOUS
 62
    7
 10
1822.9949381327335
 20
315.07142857142855
 11
1822.9949381327335
 21
365.07142857142861
  0
LINE
  8
_0-0_
  6
CONTINUOUS
 62
    7
 10
1342.9949381327332
 20
315.07142857142855
 11
1822.9949381327335
 21
315.07142857142855
  0
LINE
  8
_0-0_
  6
CONTINUOUS
 62
    7
 10
1330.9949381327332
 20
455.07142857142855
 11
1330.9949381327332
 21
315.07142857142855
  0
LINE
  8
_0-0_
  6
CONTINUOUS
 62
    7
 10
1342.9949381327332
 20
455.07142857142855
 11
1330.9949381327332
 21
455.07142857142855
  0
LINE
  8
_0-0_
  6
CONTINUOUS
 62
    7
 10
1342.9949381327332
 20
315.07142857142855
 11
1342.9949381327332
 21
455.07142857142855
  0
LINE
  8
_0-0_
  6
CONTINUOUS
 62
    7
 10
1330.9949381327332
 20
315.07142857142855
 11
1342.9949381327332
 21
315.07142857142855
  0
LINE
  8
_1-2_
  6
CONTINUOUS
 62
    4
 10
641.23334229337933
 20
794.27482440020958
 11
516.23334229337922
 21
794.27482440020958
  0
LINE
  8
_1-2_
  6
CONTINUOUS
 62
    4
 10
516.23334229337922
 20
794.27482440020958
 11
516.23334229337922
 21
829.27482440020958
  0
LINE
  8
_1-2_
  6
CONTINUOUS
 62
    4
 10
516.23334229337922
 20
829.27482440020958
 11
641.23334229337933
 21
829.27482440020958
  0
LINE
  8
_1-2_
  6
CONTINUOUS
 62
    4
 10
641.23334229337933
 20
829.27482440020958
 11
641.23334229337933
 21
794.27482440020958
  0
TEXT
  8
_1-2_
 62
    7
 10
555.23334229337933
 20
803.02482440020958
 40
17.5
 41
0.857142857142857
 50
0
  1
平面図
  0
LINE
  8
ADD_LINE
  6
DOT
 62
    9
 10
516.23334229337945
 20
811.77482440020969
 11
641.23334229337956
 21
811.77482440020969
  0
LINE
  8
ADD_LINE
  6
DOT
 62
    9
 10
578.73334229337956
 20
794.27482440020969
 11
578.73334229337956
 21
829.27482440020969
  0
LINE
  8
_1-2_
  6
CONTINUOUS
 62
    4
 10
641.2333422933791
 20
205.10668228808435
 11
641.2333422933791
 21
240.10668228808435
  0
LINE
  8
_1-2_
  6
CONTINUOUS
 62
    4
 10
641.2333422933791
 20
240.10668228808435
 11
516.2333422933791
 21
240.10668228808435
  0
LINE
  8
_1-2_
  6
CONTINUOUS
 62
    4
 10
516.2333422933791
 20
205.10668228808435
 11
641.2333422933791
 21
205.10668228808435
  0
LINE
  8
_1-2_
  6
CONTINUOUS
 62
    4
 10
516.2333422933791
 20
240.10668228808435
 11
516.2333422933791
 21
205.10668228808435
  0
LINE
  8
ADD_LINE
  6
DOT
 62
    9
 10
641.23334229337888
 20
222.60668228808435
 11
516.23334229337888
 21
222.60668228808435
  0
LINE
  8
ADD_LINE
  6
DOT
 62
    9
 10
578.73334229337888
 20
205.10668228808435
 11
578.73334229337888
 21
240.10668228808435
  0
TEXT
  8
_1-2_
 62
    7
 10
555.2333422933791
 20
213.85668228808435
 40
17.5
 41
0.857142857142857
 50
0
  1
立面図
  0
LINE
  8
_1-2_
  6
CONTINUOUS
 62
    4
 10
1655.5254413974935
 20
240.10668228808435
 11
1530.5254413974939
 21
240.10668228808435
  0
LINE
  8
_1-2_
  6
CONTINUOUS
 62
    4
 10
1655.5254413974935
 20
205.10668228808435
 11
1655.5254413974935
 21
240.10668228808435
  0
LINE
  8
_1-2_
  6
CONTINUOUS
 62
    4
 10
1530.5254413974939
 20
205.10668228808435
 11
1655.5254413974935
 21
205.10668228808435
  0
LINE
  8
_1-2_
  6
CONTINUOUS
 62
    4
 10
1530.5254413974939
 20
240.10668228808435
 11
1530.5254413974939
 21
205.10668228808435
  0
LINE
  8
ADD_LINE
  6
DOT
 62
    9
 10
1655.5254413974932
 20
222.60668228808435
 11
1530.5254413974932
 21
222.60668228808435
  0
LINE
  8
ADD_LINE
  6
DOT
 62
    9
 10
1593.0254413974932
 20
205.10668228808435
 11
1593.0254413974932
 21
240.10668228808435
  0
TEXT
  8
_1-2_
 62
    7
 10
1569.5254413974932
 20
213.85668228808435
 40
17.5
 41
0.857142857142857
 50
0
  1
断面図
  0
LINE
  8
ADD_LINE
  6
DOT
 62
    9
 10
2065
 20
1430
 11
2057.5
 21
1430
  0
LINE
  8
ADD_LINE
  6
DOT
 62
    9
 10
2057.5
 20
1430
 11
2057.5
 21
1422.5
  0
LINE
  8
ADD_LINE
  6
DOT
 62
    9
 10
2057.5
 20
1422.5
 11
2065
 21
1422.5
  0
LINE
  8
ADD_LINE
  6
DOT
 62
    9
 10
2065
 20
1422.5
 11
2065
 21
1430
  0
LINE
  8
ADD_LINE
  6
DOT
 62
    9
 10
2057.5
 20
1430
 11
2057.5
 21
1422.5
  0
LINE
  8
_1-2_
  6
CONTINUOUS
 62
    7
 10
2057.5
 20
1392.5
 11
1557.5
 21
1392.5
  0
LINE
  8
_1-2_
  6
CONTINUOUS
 62
    7
 10
2057.5
 20
1395
 11
1557.5
 21
1395
  0
LINE
  8
_1-2_
  6
CONTINUOUS
 62
    7
 10
2057.5
 20
1365.4999999999997
 11
1557.5
 21
1365.4999999999997
  0
LINE
  8
_1-2_
  6
CONTINUOUS
 62
    3
 10
2057.5
 20
1422.5
 11
1557.5
 21
1422.5
  0
LINE
  8
ADD_LINE
  6
DOT
 62
    9
 10
1557.5
 20
1408.75
 11
2057.5
 21
1408.75
  0
LINE
  8
ADD_LINE
  6
DOT
 62
    9
 10
1557.5
 20
1378.9999999999997
 11
2057.5
 21
1378.9999999999997
  0
LINE
  8
ADD_LINE
  6
DOT
 62
    9
 10
1557.5
 20
1351.9999999999995
 11
2057.5
 21
1351.9999999999995
  0
LINE
  8
ADD_LINE
  6
DOT
 62
    9
 10
1828.7502500000005
 20
1395
 11
1828.7502500000005
 21
1422.5
  0
LINE
  8
_1-2_
  6
CONTINUOUS
 62
    3
 10
1557.5
 20
1422.5
 11
1557.5
 21
1338.4999999999995
  0
LINE
  8
_1-2_
  6
CONTINUOUS
 62
    3
 10
2057.5
 20
1338.4999999999995
 11
2057.5
 21
1422.5
  0
LINE
  8
_1-2_
  6
CONTINUOUS
 62
    7
 10
1662.5
 20
1392.5
 11
1662.5
 21
1338.4999999999995
  0
LINE
  8
ADD_LINE
  6
DOT
 62
    9
 10
1610
 20
1392.5
 11
1610
 21
1338.4999999999995
  0
LINE
  8
ADD_LINE
  6
DOT
 62
    9
 10
1672.5
 20
1422.5
 11
1672.5
 21
1338.4999999999995
  0
LINE
  8
_1-2_
  6
CONTINUOUS
 62
    3
 10
2057.5
 20
1338.4999999999995
 11
1557.5
 21
1338.4999999999995
  0
TEXT
  8
_1-2_
 62
    7
 10
1579.9250000000004
 20
1370.2499999999997
 40
17.5
 41
0.857142857142857
 50
0
  1
側　　板
  0
TEXT
  8
_1-2_
 62
    7
 10
1672.5
 20
1370.2499999999997
 40
17.5
 41
0.7714285714285714
 50
0
  1
低圧メラミン化粧パーティクルボード　１５ｔ
  0
TEXT
  8
_1-2_
 62
    7
 10
1672.5
 20
1343.2499999999995
 40
17.5
 41
0.7714285714285714
 50
0
  1
片面化粧パーティクルボード　１２ｔ
  0
TEXT
  8
_1-2_
 62
    7
 10
1579.9250000000004
 20
1343.2499999999995
 40
17.5
 41
0.857142857142857
 50
0
  1
前　　板
  0
TEXT
  8
_1-2_
 62
    7
 10
1672.5
 20
1400
 40
17.5
 41
0.857142857142857
 50
0
  1
仕　　　　様
  0
LINE
  8
ADD_LINE
  6
DOT
 62
    9
 10
262.4673790776153
 20
307.51609442060089
 11
262.4673790776153
 21
266.0890557939914
  0
LINE
  8
ADD_LINE
  6
DOT
 62
    9
 10
202.46737907761527
 20
307.51609442060089
 11
202.46737907761527
 21
266.0890557939914
  0
LINE
  8
ADD_LINE
  6
DOT
 62
    9
 10
142.46737907761527
 20
307.51609442060089
 11
142.46737907761527
 21
266.0890557939914
  0
POINT
  8
_0-3_
 62
    3
 10
292.4673790776153
 20
605.07142857142855
  0
LINE
  8
_0-3_
  6
CONTINUOUS
 62
    4
 10
292.4673790776153
 20
610.07142857142855
 11
292.4673790776153
 21
485.07142857142855
  0
POINT
  8
_0-3_
 62
    3
 10
202.46737907761527
 20
315.07142857142861
  0
POINT
  8
_0-3_
 62
    3
 10
202.46737907761527
 20
365.07142857142861
  0
LINE
  8
_0-3_
  6
CONTINUOUS
 62
    4
 10
197.46737907761527
 20
315.07142857142861
 11
262.4673790776153
 21
315.07142857142861
  0
LINE
  8
_0-3_
  6
CONTINUOUS
 62
    4
 10
197.46737907761527
 20
365.07142857142861
 11
262.4673790776153
 21
365.07142857142861
  0
LINE
  8
_0-3_
  6
CONTINUOUS
 62
    4
 10
202.46737907761527
 20
315.07142857142861
 11
202.46737907761527
 21
365.07142857142861
  0
TEXT
  8
_0-3_
 62
    7
 10
199.96737907761527
 20
329.04642857142857
 40
17.5
 41
0.6285714285714286
 50
90
  1
５０
  0
POINT
  8
_0-3_
 62
    3
 10
142.46737907761527
 20
315.07142857142861
  0
POINT
  8
_0-3_
 62
    3
 10
142.46737907761527
 20
455.07142857142861
  0
LINE
  8
_0-3_
  6
CONTINUOUS
 62
    4
 10
137.46737907761527
 20
315.07142857142861
 11
262.4673790776153
 21
315.07142857142861
  0
LINE
  8
_0-3_
  6
CONTINUOUS
 62
    4
 10
137.46737907761527
 20
455.07142857142861
 11
262.4673790776153
 21
455.07142857142861
  0
LINE
  8
_0-3_
  6
CONTINUOUS
 62
    4
 10
142.46737907761527
 20
315.07142857142861
 11
142.46737907761527
 21
455.07142857142861
  0
TEXT
  8
_0-3_
 62
    7
 10
139.96737907761527
 20
368.5214285714286
 40
17.5
 41
0.6285714285714286
 50
90
  1
１４０
  0
POINT
  8
_0-3_
 62
    3
 10
1330.9949381327332
 20
545.07142857142855
  0
POINT
  8
_0-3_
 62
    3
 10
1342.9949381327332
 20
545.07142857142855
  0
LINE
  8
_0-3_
  6
CONTINUOUS
 62
    4
 10
1330.9949381327332
 20
550.07142857142855
 11
1330.9949381327332
 21
485.07142857142855
  0
LINE
  8
_0-3_
  6
CONTINUOUS
 62
    4
 10
1342.9949381327332
 20
550.07142857142855
 11
1342.9949381327332
 21
485.07142857142855
  0
POINT
  8
_0-3_
 62
    3
 10
1330.9949381327332
 20
605.07142857142855
  0
POINT
  8
_0-3_
 62
    3
 10
1822.9949381327335
 20
605.07142857142855
  0
LINE
  8
_0-3_
  6
CONTINUOUS
 62
    4
 10
1330.9949381327332
 20
610.07142857142855
 11
1330.9949381327332
 21
485.07142857142855
  0
LINE
  8
_0-3_
  6
CONTINUOUS
 62
    4
 10
1822.9949381327335
 20
610.07142857142855
 11
1822.9949381327335
 21
485.07142857142855
  0
LINE
  8
_0-3_
  6
CONTINUOUS
 62
    4
 10
1330.9949381327332
 20
605.07142857142855
 11
1822.9949381327335
 21
605.07142857142855
  0
TEXT
  8
_0-3_
 62
    7
 10
1560.4449381327333
 20
607.57142857142855
 40
17.5
 41
0.6285714285714286
 50
0
  1
４９２
  0
LINE
  8
_0-3_
  6
CONTINUOUS
 62
    4
 10
1330.9949381327332
 20
545.07142857142855
 11
1342.9949381327332
 21
545.07142857142855
  0
TEXT
  8
_0-3_
 62
    7
 10
1347.90151480963
 20
547.6534150564571
 40
17.5
 41
0.6285714285714286
 50
0
  1
１２
  0
LINE
  8
_0-3_
  6
CONTINUOUS
 62
    4
 10
1342.9949381327332
 20
545.07142857142855
 11
1368.8421975446224
 21
545.07142857142855
  0
TEXT
  8
_0-1_
 62
    7
 10
417.4409871244635
 20
66.920600858369141
 40
22.5
 41
0.8
 50
0
  1
高さ調整用　台輪
  0
TEXT
  8
_f-8_
 62
    7
 10
1531.1909871244633
 20
71.25
 40
17.5
 41
0.5714285714285713
 50
0
  1
２０２３.０５.０１
  0
TEXT
  8
_f-8_
 62
    7
 10
1798.8733905579397
 20
71.25
 40
17.5
 41
0.5714285714285713
 50
0
  1
Ｔ.Ｋ
  0
LINE
  8
_e-0_
  6
CONTINUOUS
 62
    7
 10
1121.8929651345431
 20
99.759827401802994
 11
1136.4669642349263
 21
105.0643292685649
  0
LINE
  8
_e-0_
  6
CONTINUOUS
 62
    7
 10
1118.8168307526434
 20
95.979761618998793
 11
1143.7764752353332
 21
105.06432926856447
  0
LINE
  8
_e-0_
  6
CONTINUOUS
 62
    7
 10
1117.1033687894937
 20
92.695668035676277
 11
1131.9321715025682
 21
98.092910833041315
  0
LINE
  8
_e-0_
  6
CONTINUOUS
 62
    7
 10
1116.1059785185848
 20
89.672203233928939
 11
1126.9793291354651
 21
93.62977920521331
  0
LINE
  8
_e-0_
  6
CONTINUOUS
 62
    7
 10
1115.6012257058716
 20
86.828043803249386
 11
1124.7287293978231
 21
90.150183460274604
  0
LINE
  8
_e-0_
  6
CONTINUOUS
 62
    7
 10
1115.4824544437767
 20
84.124370167969004
 11
1124.6874051194192
 21
87.474698221791555
  0
LINE
  8
_e-0_
  6
CONTINUOUS
 62
    7
 10
1115.6918748719313
 20
81.540148539074834
 11
1124.9143320384141
 21
84.896848434469518
  0
LINE
  8
_e-0_
  6
CONTINUOUS
 62
    7
 10
1116.1975034470876
 20
79.063737858837441
 11
1125.6347844091335
 21
82.498627221429217
  0
LINE
  8
_e-0_
  6
CONTINUOUS
 62
    7
 10
1116.983777528248
 20
76.689473789164992
 11
1126.8312583839349
 21
80.273663703141266
  0
LINE
  8
_e-0_
  6
CONTINUOUS
 62
    7
 10
1118.0477651009591
 20
74.416289164071116
 11
1128.549955244051
 21
78.238773770760587
  0
LINE
  8
_e-0_
  6
CONTINUOUS
 62
    7
 10
1119.3985044632149
 20
72.247473654994109
 11
1130.940058001368
 21
76.448255600071632
  0
LINE
  8
_e-0_
  6
CONTINUOUS
 62
    7
 10
1121.059093871285
 20
70.191434339679545
 11
1134.4734194492625
 21
75.073849562819106
  0
LINE
  8
_e-0_
  6
CONTINUOUS
 62
    7
 10
1123.0727845912176
 20
68.263913391563306
 11
1142.2825702764102
 21
75.255703587606319
  0
LINE
  8
_e-0_
  6
CONTINUOUS
 62
    7
 10
1125.5175523851398
 20
66.493291667054847
 11
1139.5922411288247
 21
71.616059426317804
  0
LINE
  8
_e-0_
  6
CONTINUOUS
 62
    7
 10
1139.7924661091835
 20
100.95382410241256
 11
1151.0859862357401
 21
105.06432926856533
  0
LINE
  8
_e-0_
  6
CONTINUOUS
 62
    7
 10
1130.2812271543648
 20
94.831571800675504
 11
1156.5255649582318
 21
104.38372957931022
  0
LINE
  8
_e-0_
  6
CONTINUOUS
 62
    7
 10
1136.5348094247367
 20
94.447245173435874
 11
1156.5255649582318
 21
101.72328514812051
  0
LINE
  8
_e-0_
  6
CONTINUOUS
 62
    7
 10
1143.8443204251443
 20
94.447245173435874
 11
1156.5255649582318
 21
99.062840716930793
  0
LINE
  8
_e-0_
  6
CONTINUOUS
 62
    7
 10
1145.9375731712743
 20
92.548682434633349
 11
1156.5255649582318
 21
96.402396285741076
  0
LINE
  8
_e-0_
  6
CONTINUOUS
 62
    7
 10
1145.9375731712743
 20
89.888238003443632
 11
1156.5255649582318
 21
93.741951854551075
  0
LINE
  8
_e-0_
  6
CONTINUOUS
 62
    7
 10
1145.9375731712743
 20
87.227793572253915
 11
1156.5255649582318
 21
91.081507423361358
  0
LINE
  8
_e-0_
  6
CONTINUOUS
 62
    7
 10
1145.9375731712743
 20
84.567349141064198
 11
1156.5255649582318
 21
88.421062992171641
  0
LINE
  8
_e-0_
  6
CONTINUOUS
 62
    7
 10
1145.9004237848225
 20
81.893383438984699
 11
1156.5255649582318
 21
85.760618560981924
  0
LINE
  8
_e-0_
  6
CONTINUOUS
 62
    7
 10
1145.3269954681682
 20
79.024228169047319
 11
1156.5255649582318
 21
83.100174129792065
  0
LINE
  8
_e-0_
  6
CONTINUOUS
 62
    7
 10
1144.1974981428911
 20
75.952680331773478
 11
1156.5255649582318
 21
80.439729698602349
  0
LINE
  8
_e-0_
  6
CONTINUOUS
 62
    7
 10
1142.2001930913816
 20
72.565276313084581
 11
1155.9304333183588
 21
77.562675065028798
  0
LINE
  8
_e-0_
  6
CONTINUOUS
 62
    7
 10
1137.8731734432576
 20
68.329925526892623
 11
1154.5193856456826
 21
74.388651281854265
  0
LINE
  8
_e-0_
  6
CONTINUOUS
 62
    7
 10
1133.4895600739102
 20
64.073976310729108
 11
1152.0851890410906
 21
70.84223174224121
  0
LINE
  8
_e-0_
  6
CONTINUOUS
 62
    7
 10
1141.0688207284831
 20
64.172157155548745
 11
1146.3622291936587
 21
66.098800274685345
  0
LINE
  8
_e-0_
  6
CONTINUOUS
 62
    3
 10
1133.2232336367449
 20
98.783064098391349
 11
1133.2232336367449
 21
98.783064098391349
  0
LINE
  8
_e-0_
  6
CONTINUOUS
 62
    3
 10
1133.2232336367449
 20
98.783064098391349
 11
1131.1622367296624
 21
97.378403321900606
  0
LINE
  8
_e-0_
  6
CONTINUOUS
 62
    3
 10
1141.1934210959716
 20
64.073976310728255
 11
1133.4602005200852
 21
64.073976310728255
  0
ARC
  8
_e-0_
  6
CONTINUOUS
 62
    3
 10
1141.1934210959716
 20
66.573976310728255
 40
2.5
 50
270
 51
286.20399351045659
  0
LINE
  8
_e-0_
  6
CONTINUOUS
 62
    3
 10
1156.6144304206306
 20
105.06432926856447
 11
1156.6144304206306
 21
79.886733652834607
  0
ARC
  8
_e-0_
  6
CONTINUOUS
 62
    3
 10
1135.9610828883223
 20
84.579118267424178
 40
21.25
 50
286.20399351045648
 51
345.50707147989851
  0
ARC
  8
_e-0_
  6
CONTINUOUS
 62
    3
 10
1154.1144304206306
 20
79.886733652834607
 40
2.5
 50
345.50707147989879
 51
0
  0
ARC
  8
_e-0_
  6
CONTINUOUS
 62
    3
 10
1125.0463693688602
 20
85.247804231447901
 40
20
 50
279.71265316664215
 51
332.69093929010892
  0
ARC
  8
_e-0_
  6
CONTINUOUS
 62
    3
 10
1127.9987428774857
 20
67.998645102215959
 40
2.5
 50
241.94526281180003
 51
279.71265316664226
  0
ARC
  8
_e-0_
  6
CONTINUOUS
 62
    3
 10
1131.6321561483089
 20
102.56432926856447
 40
2.5
 50
90
 51
106.05338143786269
  0
LINE
  8
_e-0_
  6
CONTINUOUS
 62
    3
 10
1144.216749457611
 20
105.06432926856442
 11
1144.216749457611
 21
105.06432926856442
  0
LINE
  8
_e-0_
  6
CONTINUOUS
 62
    3
 10
1144.216749457611
 20
105.06432926856442
 11
1139.1090994775956
 21
102.62033845611028
  0
LINE
  8
_e-0_
  6
CONTINUOUS
 62
    3
 10
1139.1090994775956
 20
102.62033845611028
 11
1136.1497291687908
 21
100.7222448949201
  0
LINE
  8
_e-0_
  6
CONTINUOUS
 62
    3
 10
1133.2232336367449
 20
98.783064098391264
 11
1136.1497291687908
 21
100.72224489492015
  0
ARC
  8
_e-0_
  6
CONTINUOUS
 62
    3
 10
1131.6321561483089
 20
102.56432926856447
 40
2.5
 50
90
 51
106.05338143786269
  0
ARC
  8
_e-0_
  6
CONTINUOUS
 62
    3
 10
1131.6321561483089
 20
102.56432926856447
 40
2.5
 50
90
 51
106.05338143786269
  0
LINE
  8
_e-0_
  6
CONTINUOUS
 62
    3
 10
1144.216749457611
 20
105.06432926856447
 11
1131.6321561483089
 21
105.06432926856447
  0
ARC
  8
_e-0_
  6
CONTINUOUS
 62
    3
 10
1136.8171466382821
 20
84.545495410101523
 40
21.25
 50
106.05338143786269
 51
241.94526281180051
  0
ARC
  8
_e-0_
  6
CONTINUOUS
 62
    3
 10
1131.6321561483089
 20
102.56432926856447
 40
2.5
 50
90
 51
106.05338143786269
  0
LINE
  8
_e-0_
  6
CONTINUOUS
 62
    3
 10
1149.5859914729276
 20
105.06432926856447
 11
1156.6144304206306
 21
105.06432926856447
  0
ARC
  8
_e-0_
  6
CONTINUOUS
 62
    3
 10
1149.5859914729276
 20
102.56432926856447
 40
2.5
 50
90
 51
112.84552721528329
  0
LINE
  8
_e-0_
  6
CONTINUOUS
 62
    3
 10
1146.0264386336732
 20
94.447245173435021
 11
1134.5086773014836
 21
94.447245173435021
  0
ARC
  8
_e-0_
  6
CONTINUOUS
 62
    3
 10
1134.5086773014836
 20
91.947245173435021
 40
2.5
 50
90
 51
110.93110431809542
  0
ARC
  8
_e-0_
  6
CONTINUOUS
 62
    3
 10
1127.1146331401287
 20
88.851932261086972
 40
0.25
 50
165.368776721252
 51
224.67319701305797
  0
LINE
  8
_e-0_
  6
CONTINUOUS
 62
    3
 10
1126.9368510290312
 20
88.676166732686851
 11
1126.8418791369635
 21
88.772228250667239
  0
ARC
  8
_e-0_
  6
CONTINUOUS
 62
    3
 10
1138.0811283103937
 20
82.607138440161804
 40
12.5
 50
110.93110431809527
 51
150.17701829297229
  0
ARC
  8
_e-0_
  6
CONTINUOUS
 62
    3
 10
1127.0196612480608
 20
88.94799377906736
 40
0.25
 50
224.67319701305652
 51
330.17701829297561
  0
LINE
  8
_e-0_
  6
CONTINUOUS
 62
    3
 10
1148.6153715321279
 20
104.86821662052463
 11
1141.7616970578774
 21
101.98078676992992
  0
LINE
  8
_e-0_
  6
CONTINUOUS
 62
    3
 10
1141.7616970578774
 20
101.98078676992992
 11
1138.5572641927215
 21
100.2306839590301
  0
ARC
  8
_e-0_
  6
CONTINUOUS
 62
    3
 10
1138.9673859977872
 20
85.757623017448736
 40
12.5
 50
126.05682261028304
 51
165.36877672125814
  0
ARC
  8
_e-0_
  6
CONTINUOUS
 62
    3
 10
1161.0143961760395
 20
55.557680667513693
 40
50
 50
116.6886898974924
 51
126.03335467187628
  0
LINE
  8
_e-0_
  6
CONTINUOUS
 62
    3
 10
1131.1622367296622
 20
97.378403321900648
 11
1131.1622367296622
 21
97.378403321900648
  0
LINE
  8
_e-0_
  6
CONTINUOUS
 62
    3
 10
1131.1622367296622
 20
97.378403321900648
 11
1127.1780207205692
 21
93.750929469677203
  0
LINE
  8
_e-0_
  6
CONTINUOUS
 62
    3
 10
1127.1780207205692
 20
93.750929469677203
 11
1126.2554480023268
 21
92.684318821377488
  0
ARC
  8
_e-0_
  6
CONTINUOUS
 62
    3
 10
1137.2746914871722
 20
87.27601537750445
 40
12.5
 50
169.07329675873063
 51
296.32138326661799
  0
LINE
  8
_e-0_
  6
CONTINUOUS
 62
    3
 10
1126.255448002327
 20
92.684318821377416
 11
1126.255448002327
 21
92.684318821377416
  0
LINE
  8
_e-0_
  6
CONTINUOUS
 62
    3
 10
1126.255448002327
 20
92.684318821377416
 11
1125.0013105330565
 21
89.645428797561734
  0
LINE
  8
_e-0_
  6
CONTINUOUS
 62
    3
 10
1146.0264386336732
 20
94.447245173435021
 11
1146.0264386336732
 21
82.212129429158267
  0
ARC
  8
_e-0_
  6
CONTINUOUS
 62
    3
 10
1138.6420462615253
 20
72.065454916535998
 40
2.5
 50
311.4163090429962
 51
326.13300916724881
  0
ARC
  8
_e-0_
  6
CONTINUOUS
 62
    3
 10
1126.1429705442665
 20
84.367981172099177
 40
20
 50
316.78132524618342
 51
353.81191653224226
  0
ARC
  8
_e-0_
  6
CONTINUOUS
 62
    3
 10
1120.4500989985026
 20
92.688331892831001
 40
30
 50
294.69555798319504
 51
311.41630904299643
  0
ARC
  8
_e-0_
  6
CONTINUOUS
 62
    3
 10
1135.9634076659349
 20
101.49033575395804
 40
37.5
 50
264.68313230529076
 51
266.17253517307824
  0
ARC
  8
_e-0_
  6
CONTINUOUS
 62
    3
 10
1132.5116840358077
 20
64.400605315719161
 40
0.25
 50
174.02086603460466
 51
264.68313230528985
  0
ARC
  8
_e-0_
  6
CONTINUOUS
 62
    3
 10
1133.5062439325051
 20
64.296439045359363
 40
1.25
 50
114.69555798319522
 51
174.02086603461154
  0
LINE
  8
_e-0_
  6
CONTINUOUS
 62
    7
 10
1188.4449959547971
 20
84.715160120310173
 11
1194.130945487398
 21
86.784676503716724
  0
LINE
  8
_e-0_
  6
CONTINUOUS
 62
    3
 10
1218.1292617232134
 20
81.316562462596948
 11
1218.1292617232134
 21
68.245093114147721
  0
CIRCLE
  8
_e-0_
  6
CONTINUOUS
 62
    3
 10
1182.7583715255193
 20
81.231467245652595
 40
6.6688689779153254
  0
CIRCLE
  8
_e-0_
  6
CONTINUOUS
 62
    3
 10
1182.6165128018317
 20
81.089608521965033
 40
12.845853781948832
  0
LINE
  8
_e-0_
  6
CONTINUOUS
 62
    3
 10
1199.7469808626287
 20
94.131251910574889
 11
1199.7469808626287
 21
68.245093114147721
  0
LINE
  8
_e-0_
  6
CONTINUOUS
 62
    3
 10
1199.7469808626287
 20
68.245093114147721
 11
1207.4284653768345
 21
68.245093114147721
  0
LINE
  8
_e-0_
  6
CONTINUOUS
 62
    3
 10
1207.4284653768345
 20
68.245093114147721
 11
1207.4284653768345
 21
86.316562462596948
  0
LINE
  8
_e-0_
  6
CONTINUOUS
 62
    3
 10
1225.5887380144652
 20
68.245093114147721
 11
1218.1292617232134
 21
68.245093114147721
  0
LINE
  8
_e-0_
  6
CONTINUOUS
 62
    3
 10
1213.1292617232134
 20
86.316562462596948
 11
1207.4284653768345
 21
86.316562462596948
  0
ARC
  8
_e-0_
  6
CONTINUOUS
 62
    3
 10
1213.1292617232134
 20
81.316562462596948
 40
5
 50
0
 51
90
  0
LINE
  8
_e-0_
  6
CONTINUOUS
 62
    3
 10
1213.0887380144649
 20
94.131251910574889
 11
1199.7469808626287
 21
94.131251910574889
  0
LINE
  8
_e-0_
  6
CONTINUOUS
 62
    3
 10
1225.5887380144652
 20
81.631251910574889
 11
1225.5887380144652
 21
68.245093114147721
  0
ARC
  8
_e-0_
  6
CONTINUOUS
 62
    3
 10
1213.0887380144649
 20
81.631251910574889
 40
12.5
 50
0
 51
90
  0
ARC
  8
_e-0_
  6
CONTINUOUS
 62
    3
 10
1243.1226303087616
 20
81.08826881203214
 40
6.6688689779153254
 50
23.422555400004952
 51
97.191484740792631
  0
LINE
  8
_e-0_
  6
CONTINUOUS
 62
    3
 10
1237.0032880655314
 20
83.739205241828358
 11
1249.2419725519916
 21
83.739205241828358
  0
ARC
  8
_e-0_
  6
CONTINUOUS
 62
    3
 10
1243.1226303087616
 20
81.08826881203214
 40
6.6688689779153254
 50
92.530763017635266
 51
156.57744459999506
  0
ARC
  8
_e-0_
  6
CONTINUOUS
 62
    3
 10
1243.1226303087616
 20
81.08826881203214
 40
6.6688689779153254
 50
204.21097500392608
 51
316.0067678116265
  0
LINE
  8
_e-0_
  6
CONTINUOUS
 62
    3
 10
1237.0403445179933
 20
78.353380696583769
 11
1255.7600376781192
 21
78.353380696583769
  0
LINE
  8
_e-0_
  6
CONTINUOUS
 62
    3
 10
1247.9203603581313
 20
76.456249833446463
 11
1254.3546206049445
 21
74.894717363322484
  0
ARC
  8
_e-0_
  6
CONTINUOUS
 62
    3
 10
1243.2827933838925
 20
81.408594962294102
 40
12.845853781948832
 50
346.24110979921471
 51
329.53046432565105
  0
ARC
  8
_e-0_
  6
CONTINUOUS
 62
    3
 10
1273.2567795211703
 20
81.071549226769548
 40
5.5448783209339715
 50
94.502189492040685
 51
357.22978420280037
  0
LINE
  8
_e-0_
  6
CONTINUOUS
 62
    3
 10
1278.2951780755734
 20
86.599317909527826
 11
1272.821522144575
 21
86.599317909527826
  0
LINE
  8
_e-0_
  6
CONTINUOUS
 62
    3
 10
1278.7951780755734
 20
86.099317909527997
 11
1278.7951780755734
 21
80.803562199943712
  0
ARC
  8
_e-0_
  6
CONTINUOUS
 62
    3
 10
1278.2951780755734
 20
86.099317909527997
 40
0.5
 50
0
 51
90
  0
LINE
  8
_e-0_
  6
CONTINUOUS
 62
    3
 10
1274.4851728677758
 20
94.145293713680473
 11
1278.6965387729087
 21
94.145293713680473
  0
ARC
  8
_e-0_
  6
CONTINUOUS
 62
    3
 10
1273.4831428306019
 20
81.338580818022592
 40
12.845853781948832
 50
85.526146014136969
 51
347.40557840019874
  0
LINE
  8
_e-0_
  6
CONTINUOUS
 62
    3
 10
1278.6965387729087
 20
104.5643292685645
 11
1278.6965387729087
 21
94.145293713680473
  0
ARC
  8
_e-0_
  6
CONTINUOUS
 62
    3
 10
1279.1965387729087
 20
104.5643292685645
 40
0.5
 50
90
 51
180
  0
LINE
  8
_e-0_
  6
CONTINUOUS
 62
    3
 10
1286.0198996281806
 20
104.5643292685645
 11
1286.0198996281806
 21
78.537565219070444
  0
LINE
  8
_e-0_
  6
CONTINUOUS
 62
    3
 10
1285.5198996281808
 20
105.06432926856447
 11
1279.1965387729087
 21
105.06432926856447
  0
ARC
  8
_e-0_
  6
CONTINUOUS
 62
    3
 10
1285.5198996281808
 20
104.5643292685645
 40
0.5
 50
0
 51
90
  0
CIRCLE
  8
_e-0_
  6
CONTINUOUS
 62
    3
 10
1303.7466422897914
 20
81.309293855712923
 40
6.6688689779153254
  0
CIRCLE
  8
_e-0_
  6
CONTINUOUS
 62
    3
 10
1303.6047835661042
 20
81.167435132025502
 40
12.845853781948832
  0
ARC
  8
_e-0_
  6
CONTINUOUS
 62
    3
 10
1180.6528222894344
 20
91.780544802562076
 40
2.5
 50
90
 51
106.05338143786269
  0
ARC
  8
_e-0_
  6
CONTINUOUS
 62
    3
 10
1180.6528222894344
 20
91.780544802562076
 40
2.5
 50
90
 51
106.05338143786269
  0
ARC
  8
_e-0_
  6
CONTINUOUS
 62
    3
 10
1180.6528222894344
 20
91.780544802562076
 40
2.5
 50
90
 51
106.05338143786269
  0
ARC
  8
_e-0_
  6
CONTINUOUS
 62
    3
 10
1180.6528222894344
 20
91.780544802562076
 40
2.5
 50
90
 51
106.05338143786269
  0
LINE
  8
_e-0_
  6
CONTINUOUS
 62
    7
 10
1173.1735402165506
 20
89.798582522433889
 11
1184.2522288967277
 21
93.83089543672014
  0
LINE
  8
_e-0_
  6
CONTINUOUS
 62
    7
 10
1180.6207531538072
 20
89.848701928647471
 11
1188.2602922806652
 21
92.629266774335832
  0
LINE
  8
_e-0_
  6
CONTINUOUS
 62
    7
 10
1170.8755775492415
 20
86.301748080888529
 11
1180.6207531538072
 21
89.848701928647471
  0
LINE
  8
_e-0_
  6
CONTINUOUS
 62
    7
 10
1169.9639203218043
 20
83.309487555058012
 11
1178.6178334616581
 21
86.459254347889924
  0
LINE
  8
_e-0_
  6
CONTINUOUS
 62
    7
 10
1169.7806783276134
 20
80.582348492315247
 11
1176.3178633775908
 21
82.961689266396945
  0
LINE
  8
_e-0_
  6
CONTINUOUS
 62
    7
 10
1170.1352264923937
 20
78.050949039719057
 11
1176.1628898655831
 21
80.244839089736501
  0
LINE
  8
_e-0_
  6
CONTINUOUS
 62
    7
 10
1170.9602411749469
 20
75.690785395811275
 11
1176.9897285767847
 21
77.885339337963159
  0
LINE
  8
_e-0_
  6
CONTINUOUS
 62
    7
 10
1172.2520644870535
 20
73.500526198159406
 11
1178.7824718355855
 21
75.877400090658397
  0
LINE
  8
_e-0_
  6
CONTINUOUS
 62
    7
 10
1174.0680823837005
 20
71.501058226243827
 11
1182.4939977328399
 21
74.567840609777249
  0
LINE
  8
_e-0_
  6
CONTINUOUS
 62
    7
 10
1176.5750646027031
 20
69.753080700605778
 11
1187.626737697456
 21
73.775560745936417
  0
LINE
  8
_e-0_
  6
CONTINUOUS
 62
    7
 10
1180.3108789900632
 20
68.452361507158343
 11
1187.6535515074917
 21
71.124875743466873
  0
LINE
  8
_e-0_
  6
CONTINUOUS
 62
    7
 10
1187.6535515074917
 20
71.124875743466873
 11
1192.5057965728701
 21
72.890948516629663
  0
LINE
  8
_e-0_
  6
CONTINUOUS
 62
    7
 10
1187.2000769099172
 20
73.620268919143683
 11
1194.531510243602
 21
76.288692427111897
  0
LINE
  8
_e-0_
  6
CONTINUOUS
 62
    7
 10
1187.2441902374253
 20
76.296769288480845
 11
1195.3283917459762
 21
79.239178005403232
  0
LINE
  8
_e-0_
  6
CONTINUOUS
 62
    7
 10
1189.2456154180513
 20
79.685672911529366
 11
1195.4343089259948
 21
81.938173137417322
  0
LINE
  8
_e-0_
  6
CONTINUOUS
 62
    7
 10
1189.3282579602239
 20
82.376196768153988
 11
1195.0160315214729
 21
84.446377043694837
  0
LINE
  8
_e-0_
  6
CONTINUOUS
 62
    7
 10
1182.5698509254652
 20
87.897671070015803
 11
1190.8820502247306
 21
90.923064196236822
  0
LINE
  8
_e-0_
  6
CONTINUOUS
 62
    7
 10
1186.579921726161
 20
86.69677304757954
 11
1192.7753929355499
 21
88.95174015505006
  0
LINE
  8
_e-0_
  6
CONTINUOUS
 62
    7
 10
1199.7469808626287
 20
91.489190646076394
 11
1207.0059845276543
 21
94.131251910574889
  0
LINE
  8
_e-0_
  6
CONTINUOUS
 62
    7
 10
1199.7469808626287
 20
88.828746214886677
 11
1214.1835221436062
 21
94.083217526917621
  0
LINE
  8
_e-0_
  6
CONTINUOUS
 62
    7
 10
1199.7469808626287
 20
86.168301783696961
 11
1218.3871548990332
 21
92.952770294489823
  0
LINE
  8
_e-0_
  6
CONTINUOUS
 62
    7
 10
1199.7469808626287
 20
83.507857352507244
 11
1221.0555016040527
 21
91.263524638629291
  0
LINE
  8
_e-0_
  6
CONTINUOUS
 62
    7
 10
1199.7469808626287
 20
80.847412921317527
 11
1207.4284653768345
 21
83.643244639465024
  0
LINE
  8
_e-0_
  6
CONTINUOUS
 62
    7
 10
1214.3545041393119
 20
86.164116590380643
 11
1222.9622043101292
 21
89.29706323804595
  0
LINE
  8
_e-0_
  6
CONTINUOUS
 62
    7
 10
1199.7469808626287
 20
78.18696849012781
 11
1207.4284653768345
 21
80.982800208275307
  0
LINE
  8
_e-0_
  6
CONTINUOUS
 62
    7
 10
1201.6699467617229
 20
68.245093114147721
 11
1207.4284653768345
 21
70.341022483516155
  0
LINE
  8
_e-0_
  6
CONTINUOUS
 62
    7
 10
1199.7469808626287
 20
70.205635196558375
 11
1207.4284653768345
 21
73.001466914706014
  0
LINE
  8
_e-0_
  6
CONTINUOUS
 62
    7
 10
1199.7469808626287
 20
72.866079627748234
 11
1207.4284653768345
 21
75.661911345895731
  0
LINE
  8
_e-0_
  6
CONTINUOUS
 62
    7
 10
1199.7469808626287
 20
75.526524058937951
 11
1207.4284653768345
 21
78.32235577708559
  0
LINE
  8
_e-0_
  6
CONTINUOUS
 62
    7
 10
1218.1292617232134
 20
79.556682698922003
 11
1225.5887380144652
 21
82.271710032151901
  0
LINE
  8
_e-0_
  6
CONTINUOUS
 62
    7
 10
1218.1292617232134
 20
76.896238267732428
 11
1225.5887380144652
 21
79.611265600962326
  0
LINE
  8
_e-0_
  6
CONTINUOUS
 62
    7
 10
1218.0525237826955
 20
82.18919680392446
 11
1225.1843589688123
 21
84.78497252736318
  0
LINE
  8
_e-0_
  6
CONTINUOUS
 62
    7
 10
1218.1292617232134
 20
74.235793836542711
 11
1225.5887380144652
 21
76.950821169772609
  0
LINE
  8
_e-0_
  6
CONTINUOUS
 62
    7
 10
1218.1292617232134
 20
71.575349405352852
 11
1225.5887380144652
 21
74.29037673858275
  0
LINE
  8
_e-0_
  6
CONTINUOUS
 62
    7
 10
1218.1292617232134
 20
68.914904974162993
 11
1225.5887380144652
 21
71.629932307393033
  0
LINE
  8
_e-0_
  6
CONTINUOUS
 62
    7
 10
1223.5984797629464
 20
68.245093114147721
 11
1225.5887380144652
 21
68.969487876203174
  0
LINE
  8
_e-0_
  6
CONTINUOUS
 62
    7
 10
1217.0094512028076
 20
84.469993863855847
 11
1224.3148431215722
 21
87.128939071934894
  0
LINE
  8
_e-0_
  6
CONTINUOUS
 62
    7
 10
1234.5941921281669
 20
90.870316137968956
 11
1243.8567709562855
 21
94.241619123948225
  0
LINE
  8
_e-0_
  6
CONTINUOUS
 62
    7
 10
1231.8158194468912
 20
87.198626751096526
 11
1248.3452443541896
 21
93.214845406891271
  0
LINE
  8
_e-0_
  6
CONTINUOUS
 62
    7
 10
1230.7314495432958
 20
84.143503952063838
 11
1251.1397149744132
 21
91.57150510199429
  0
LINE
  8
_e-0_
  6
CONTINUOUS
 62
    7
 10
1230.7496209935316
 20
81.489673387873438
 11
1236.994733586001
 21
83.762708481173291
  0
LINE
  8
_e-0_
  6
CONTINUOUS
 62
    7
 10
1246.075415815527
 20
87.067806519550572
 11
1253.1442839788442
 21
89.640664120950077
  0
LINE
  8
_e-0_
  6
CONTINUOUS
 62
    7
 10
1248.3463639297624
 20
85.233919605505548
 11
1254.5892459379626
 21
87.506142832526307
  0
LINE
  8
_e-0_
  6
CONTINUOUS
 62
    7
 10
1231.6046713518458
 20
79.140441835908745
 11
1244.2396699670246
 21
83.739205241828358
  0
LINE
  8
_e-0_
  6
CONTINUOUS
 62
    7
 10
1231.4444397298127
 20
76.421677863710755
 11
1255.557026937781
 21
85.197941878558935
  0
LINE
  8
_e-0_
  6
CONTINUOUS
 62
    7
 10
1232.650145865716
 20
74.200074577262
 11
1238.4641715315472
 21
76.316206860884108
  0
LINE
  8
_e-0_
  6
CONTINUOUS
 62
    7
 10
1244.0612606446361
 20
78.353380696583769
 11
1256.0614215185059
 21
82.721082061078163
  0
LINE
  8
_e-0_
  6
CONTINUOUS
 62
    7
 10
1251.3707716450439
 20
78.353380696583769
 11
1256.0575810563479
 21
80.059239815977036
  0
LINE
  8
_e-0_
  6
CONTINUOUS
 62
    7
 10
1234.3640870445026
 20
72.163453718433459
 11
1241.27750704877
 21
74.67973281696743
  0
LINE
  8
_e-0_
  6
CONTINUOUS
 62
    7
 10
1236.7254290382147
 20
70.362467485877857
 11
1251.2486807276222
 21
75.648498805578299
  0
LINE
  8
_e-0_
  6
CONTINUOUS
 62
    7
 10
1240.1534747799134
 20
68.949729666369421
 11
1253.6883947541934
 21
73.876037660182163
  0
LINE
  8
_e-0_
  6
CONTINUOUS
 62
    7
 10
1276.3115845460858
 20
68.807983192637038
 11
1279.3709436673348
 21
69.921498848702299
  0
LINE
  8
_e-0_
  6
CONTINUOUS
 62
    7
 10
1269.7006338007413
 20
69.062238332321328
 11
1284.2717936960511
 21
74.365706812947394
  0
LINE
  8
_e-0_
  6
CONTINUOUS
 62
    7
 10
1266.4988400452366
 20
70.55732514024811
 11
1285.7634867349274
 21
77.56908310895028
  0
LINE
  8
_e-0_
  6
CONTINUOUS
 62
    7
 10
1261.0409321773875
 20
84.533475722122233
 11
1286.0198996281806
 21
93.625076356915002
  0
LINE
  8
_e-0_
  6
CONTINUOUS
 62
    7
 10
1262.2948414897803
 20
87.650305819492189
 11
1286.0198996281806
 21
96.285520788104719
  0
LINE
  8
_e-0_
  6
CONTINUOUS
 62
    7
 10
1278.6965387729087
 20
104.2618131467546
 11
1280.9014336963298
 21
105.06432926856447
  0
LINE
  8
_e-0_
  6
CONTINUOUS
 62
    7
 10
1278.6965387729087
 20
101.60136871556488
 11
1286.0198996281806
 21
104.26685408167401
  0
LINE
  8
_e-0_
  6
CONTINUOUS
 62
    7
 10
1278.6965387729087
 20
98.940924284375029
 11
1286.0198996281806
 21
101.60640965048429
  0
LINE
  8
_e-0_
  6
CONTINUOUS
 62
    7
 10
1278.6965387729087
 20
96.28047985318517
 11
1286.0198996281806
 21
98.945965219294578
  0
LINE
  8
_e-0_
  6
CONTINUOUS
 62
    7
 10
1265.6800159901281
 20
91.542853006605469
 11
1272.9015050570096
 21
94.171260074029135
  0
LINE
  8
_e-0_
  6
CONTINUOUS
 62
    7
 10
1274.0262979398492
 20
86.599317909527826
 11
1286.0198996281806
 21
90.964631925725285
  0
LINE
  8
_e-0_
  6
CONTINUOUS
 62
    7
 10
1260.6432011453168
 20
81.728269034014715
 11
1269.1876042208541
 21
84.838177423083038
  0
LINE
  8
_e-0_
  6
CONTINUOUS
 62
    7
 10
1260.8277053868166
 20
79.134978654826824
 11
1267.7423345662678
 21
81.651697857135445
  0
LINE
  8
_e-0_
  6
CONTINUOUS
 62
    7
 10
1261.4970057304763
 20
76.718139626513277
 11
1268.0702258992882
 21
79.110596111239033
  0
LINE
  8
_e-0_
  6
CONTINUOUS
 62
    7
 10
1262.6281717894021
 20
74.469405970784805
 11
1269.5177441880698
 21
76.977005250721788
  0
LINE
  8
_e-0_
  6
CONTINUOUS
 62
    7
 10
1264.2558656163898
 20
72.401393643117444
 11
1272.8780685366043
 21
75.539618859878459
  0
LINE
  8
_e-0_
  6
CONTINUOUS
 62
    7
 10
1277.1027452639311
 20
77.077275438022638
 11
1286.0198996281806
 21
80.322854200966276
  0
LINE
  8
_e-0_
  6
CONTINUOUS
 62
    7
 10
1278.7529688958375
 20
80.338352151108836
 11
1286.0198996281806
 21
82.983298632155992
  0
LINE
  8
_e-0_
  6
CONTINUOUS
 62
    7
 10
1278.7951780755734
 20
83.014159467335275
 11
1286.0198996281806
 21
85.643743063345709
  0
LINE
  8
_e-0_
  6
CONTINUOUS
 62
    7
 10
1278.7951780755734
 20
85.674603898524992
 11
1286.0198996281806
 21
88.304187494535426
  0
LINE
  8
_e-0_
  6
CONTINUOUS
 62
    7
 10
1297.5733814094301
 20
92.509310965047006
 11
1300.934688416371
 21
93.732726663803873
  0
LINE
  8
_e-0_
  6
CONTINUOUS
 62
    7
 10
1292.796823021714
 20
88.110341458494048
 11
1307.4213475207152
 21
93.433233066427021
  0
LINE
  8
_e-0_
  6
CONTINUOUS
 62
    7
 10
1304.2590587486804
 20
68.338254200544525
 11
1311.3500182434036
 21
70.919152389010946
  0
LINE
  8
_e-0_
  6
CONTINUOUS
 62
    7
 10
1299.122238074158
 20
69.129048807444917
 11
1314.7767382012975
 21
74.826820886039939
  0
LINE
  8
_e-0_
  6
CONTINUOUS
 62
    7
 10
1291.3165460630764
 20
84.911120275890112
 11
1310.6117251959813
 21
91.933991145101572
  0
LINE
  8
_e-0_
  6
CONTINUOUS
 62
    7
 10
1296.1484092902701
 20
70.707108079495526
 11
1316.0404662685573
 21
77.947224717918999
  0
LINE
  8
_e-0_
  6
CONTINUOUS
 62
    7
 10
1294.0347747956416
 20
72.598252468522161
 11
1301.123055970138
 21
75.178175828148283
  0
LINE
  8
_e-0_
  6
CONTINUOUS
 62
    7
 10
1292.5047146909764
 20
74.701800564975542
 11
1298.6954667557911
 21
76.955050044290089
  0
LINE
  8
_e-0_
  6
CONTINUOUS
 62
    7
 10
1291.4599149918465
 20
76.981969004911832
 11
1297.4347590031854
 21
79.156634379422712
  0
LINE
  8
_e-0_
  6
CONTINUOUS
 62
    7
 10
1290.8769374345952
 20
79.430226958016874
 11
1297.0887135044008
 21
81.691128549353209
  0
LINE
  8
_e-0_
  6
CONTINUOUS
 62
    7
 10
1290.7899062330052
 20
82.058994622375394
 11
1297.9926695575406
 21
84.680586076970456
  0
LINE
  8
_e-0_
  6
CONTINUOUS
 62
    7
 10
1305.9874162587339
 20
87.590435906702737
 11
1312.8484657426811
 21
90.087653694686764
  0
LINE
  8
_e-0_
  6
CONTINUOUS
 62
    7
 10
1308.6014730285019
 20
85.881430330390458
 11
1314.471535257719
 21
88.017958255115757
  0
LINE
  8
_e-0_
  6
CONTINUOUS
 62
    7
 10
1309.9655282463456
 20
83.717461396391286
 11
1315.5986584170959
 21
85.767753104291273
  0
LINE
  8
_e-0_
  6
CONTINUOUS
 62
    7
 10
1310.4149212103684
 20
81.220582627594524
 11
1316.2639594345944
 21
83.349458440297894
  0
LINE
  8
_e-0_
  6
CONTINUOUS
 62
    7
 10
1309.6974327126495
 20
78.298993739806803
 11
1316.4440000465572
 21
80.754543432821748
  0
LINE
  8
ADD_LINE
  6
DOT
 62
    9
 10
1169.7806783276134
 20
60
 11
1169.7806783276134
 21
110
  0
LINE
  8
ADD_LINE
  6
DOT
 62
    9
 10
1243.1123391870853
 20
110
 11
1243.1123391870853
 21
60
  0
LINE
  8
ADD_LINE
  6
DOT
 62
    9
 10
1316.4440000465572
 20
60
 11
1316.4440000465572
 21
110
  0
LINE
  8
ADD_LINE
  6
DOT
 62
    9
 10
1110
 20
110
 11
1110
 21
60
  0
LINE
  8
ADD_LINE
  6
DOT
 62
    9
 10
1355
 20
110
 11
1355
 21
60
  0
TEXT
  8
_e-0_
 62
    7
 10
1321.4293412875088
 20
90.281235287247767
 40
17.5
 41
0.5714285714285713
 50
0
  1
ワンド
  0
TEXT
  8
_e-0_
 62
    7
 10
1324.8522550074519
 20
73.5089580595249
 40
15
 41
0.6666666666666666
 50
0
  1
株式
  0
TEXT
  8
_e-0_
 62
    7
 10
1324.5099636354577
 20
59.475011807756885
 40
15
 41
0.6666666666666666
 50
0
  1
会社
  0
TEXT
  8
_0-1_
 62
    7
 10
785.50429184549352
 20
66.920600858369141
 40
22.5
 41
0.6666666666666666
 50
0
  1
ＫＴＢ５－８０－６０台輪
  0
LINE
  8
_0-0_
  6
CONTINUOUS
 62
    7
 10
891.46737907761519
 20
854.51574803149605
 11
876.46737907761519
 21
854.51574803149605
  0
LINE
  8
_0-0_
  6
CONTINUOUS
 62
    7
 10
876.46737907761519
 20
854.51574803149605
 11
876.46737907761519
 21
1334.515748031496
  0
LINE
  8
_0-0_
  6
CONTINUOUS
 62
    7
 10
876.46737907761519
 20
1334.515748031496
 11
891.46737907761519
 21
1334.515748031496
  0
LINE
  8
_0-0_
  6
CONTINUOUS
 62
    7
 10
876.46737907761519
 20
1334.515748031496
 11
876.46737907761519
 21
1319.515748031496
  0
LINE
  8
_0-0_
  6
CONTINUOUS
 62
    7
 10
891.4673790776153
 20
315.07142857142861
 11
891.4673790776153
 21
455.07142857142855
  0
LINE
  8
_0-2_
  6
CONTINUOUS
 62
    2
 10
876.46737907761519
 20
1319.515748031496
 11
851.76737907761526
 21
1319.515748031496
  0
LINE
  8
_0-2_
  6
CONTINUOUS
 62
    2
 10
851.76737907761526
 20
1319.515748031496
 11
851.76737907761526
 21
1315.515748031496
  0
LINE
  8
_0-2_
  6
CONTINUOUS
 62
    2
 10
851.76737907761526
 20
1315.515748031496
 11
876.46737907761519
 21
1315.515748031496
  0
LINE
  8
_0-2_
  6
CONTINUOUS
 62
    2
 10
876.46737907761519
 20
1315.515748031496
 11
876.46737907761519
 21
1319.515748031496
  0
LINE
  8
_0-2_
  6
CONTINUOUS
 62
    5
 10
851.06027229642882
 20
1314.8086412503096
 11
875.80900963795784
 21
1290.0599039087801
  0
LINE
  8
_0-2_
  6
CONTINUOUS
 62
    5
 10
851.06027229642882
 20
1314.8086412503096
 11
851.76737907761526
 21
1315.515748031496
  0
LINE
  8
_0-2_
  6
CONTINUOUS
 62
    5
 10
875.80900963795784
 20
1290.0599039087801
 11
876.51611641914428
 21
1290.767010689967
  0
LINE
  8
_0-2_
  6
CONTINUOUS
 62
    5
 10
871.56636895083863
 20
1315.515748031496
 11
876.51611641914428
 21
1310.5660005631903
  0
LINE
  8
_0-2_
  6
CONTINUOUS
 62
    5
 10
876.51611641914428
 20
1290.767010689967
 11
876.51611641914428
 21
1310.5660005631903
  0
LINE
  8
_0-2_
  6
CONTINUOUS
 62
    5
 10
851.76737907761526
 20
1315.515748031496
 11
871.56636895083863
 21
1315.515748031496
  0
LINE
  8
_0-2_
  6
CONTINUOUS
 62
    5
 10
875.81001976473453
 20
879.97159215421174
 11
851.06128242320551
 21
855.22285481268272
  0
LINE
  8
_0-2_
  6
CONTINUOUS
 62
    5
 10
875.81001976473453
 20
879.97159215421174
 11
876.51712654592097
 21
879.26448537302519
  0
LINE
  8
_0-2_
  6
CONTINUOUS
 62
    5
 10
851.06128242320551
 20
855.22285481268272
 11
851.76838920439195
 21
854.51574803149605
  0
LINE
  8
_0-2_
  6
CONTINUOUS
 62
    5
 10
876.51712654592097
 20
859.46549549980193
 11
871.56737907761544
 21
854.51574803149605
  0
LINE
  8
_0-2_
  6
CONTINUOUS
 62
    5
 10
851.76838920439195
 20
854.51574803149605
 11
871.56737907761544
 21
854.51574803149605
  0
LINE
  8
_0-2_
  6
CONTINUOUS
 62
    5
 10
876.51712654592097
 20
879.26448537302519
 11
876.51712654592097
 21
859.46549549980193
  0
LINE
  8
_0-2_
  6
CONTINUOUS
 62
    7
 10
871.56737907761544
 20
854.51574803149605
 11
876.46737907761519
 21
854.51574803149605
  0
LINE
  8
ADD_LINE
  6
DOT
 62
    9
 10
972.73927038626607
 20
605.07142857142855
 11
910.59871244635189
 21
605.07142857142855
  0
LINE
  8
ADD_LINE
  6
DOT
 62
    9
 10
972.73927038626607
 20
545.07142857142855
 11
910.59871244635189
 21
545.07142857142855
  0
LINE
  8
ADD_LINE
  6
DOT
 62
    9
 10
972.73927038626607
 20
485.07142857142855
 11
910.59871244635189
 21
485.07142857142855
  0
POINT
  8
_0-3_
 62
    3
 10
891.4673790776153
 20
605.07142857142855
  0
LINE
  8
_0-3_
  6
CONTINUOUS
 62
    4
 10
891.4673790776153
 20
610.07142857142855
 11
891.4673790776153
 21
485.07142857142855
  0
LINE
  8
_0-0_
  6
CONTINUOUS
 62
    7
 10
307.4673790776153
 20
1334.515748031496
 11
891.46737907761519
 21
1334.515748031496
  0
LINE
  8
_0-0_
  6
CONTINUOUS
 62
    7
 10
891.46737907761519
 20
1334.515748031496
 11
891.46737907761519
 21
854.51574803149605
  0
LINE
  8
_0-0_
  6
CONTINUOUS
 62
    7
 10
891.46737907761519
 20
842.51574803149605
 11
891.46737907761519
 21
854.51574803149605
  0
LINE
  8
_0-0_
  6
CONTINUOUS
 62
    7
 10
292.4673790776153
 20
842.51574803149605
 11
891.46737907761519
 21
842.51574803149605
  0
LINE
  8
_0-0_
  6
CONTINUOUS
 62
    7
 10
891.4673790776153
 20
455.07142857142855
 11
292.4673790776153
 21
455.07142857142855
  0
LINE
  8
_0-0_
  6
CONTINUOUS
 62
    7
 10
891.4673790776153
 20
315.07142857142861
 11
891.4673790776153
 21
455.07142857142855
  0
LINE
  8
_0-0_
  6
CONTINUOUS
 62
    7
 10
292.4673790776153
 20
315.07142857142861
 11
891.4673790776153
 21
315.07142857142861
  0
POINT
  8
_0-0_
 62
    3
 10
292.4673790776153
 20
605.07142857142855
  0
POINT
  8
_0-0_
 62
    3
 10
891.4673790776153
 20
605.07142857142855
  0
LINE
  8
_0-0_
  6
CONTINUOUS
 62
    4
 10
292.4673790776153
 20
605.07142857142855
 11
891.4673790776153
 21
605.07142857142855
  0
TEXT
  8
_0-0_
 62
    7
 10
575.41737907761535
 20
607.57142857142855
 40
17.5
 41
0.6285714285714286
 50
0
  1
５９９
  0
ENDSEC
  0
EOF
