  0
SECTION
  2
HEADER
  9
$ACADVER
  1
AC1009
  9
$INSBASE
 10
0
 20
0
 30
0
  9
$EXTMIN
 10
0
 20
0
  9
$EXTMAX
 10
2520
 20
1782
  9
$LIMMIN
 10
0
 20
0
  9
$LIMMAX
 10
2520
 20
1782
  9
$LTSCALE
 40
6
  0
ENDSEC
  0
SECTION
  2
TABLES
  0
TABLE
  2
LTYPE
 70
     9
  0
LTYPE
  2
CONTINUOUS
 70
    64
  3
実線
 72
    65
 73
     0
 40
0.0
  0
LTYPE
  2
DASHED1
 70
    64
  3
--  --  --  --  --  --  --  --  
 72
    65
 73
     2
 40
2.5
 49
1.25
 49
-1.25
  0
LTYPE
  2
DASHED2
 70
    64
  3
----    ----    ----    ----    
 72
    65
 73
     2
 40
5.0
 49
2.5
 49
-2.5
  0
LTYPE
  2
DASHED3
 70
    64
  3
------  ------  ------  ------  
 72
    65
 73
     2
 40
5.0
 49
3.75
 49
-1.25
  0
LTYPE
  2
CENTER1
 70
    64
  3
----- - ----- - ----- - ----- - 
 72
    65
 73
     4
 40
10.0
 49
6.25
 49
-1.25
 49
1.25
 49
-1.25
  0
LTYPE
  2
CENTER2
 70
    64
  3
----------  --  ----------  --  
 72
    65
 73
     4
 40
20.0
 49
12.5
 49
-2.5
 49
2.5
 49
-2.5
  0
LTYPE
  2
PHANTOM1
 70
    64
  3
--- - - --- - - --- - - --- - - 
 72
    65
 73
     6
 40
10.0
 49
3.25
 49
-1.25
 49
1.25
 49
-1.25
 49
1.25
 49
-1.25
  0
LTYPE
  2
PHANTOM2
 70
    64
  3
--------  -  -  --------  -  -  
 72
    65
 73
     6
 40
20.0
 49
10.0
 49
-2.5
 49
1.25
 49
-2.5
 49
1.25
 49
-2.5
  0
LTYPE
  2
DOT
 70
    64
  3
-   -   -   -   -   -   -   -   
 72
    65
 73
     2
 40
2.5
 49
0.625
 49
-1.875
  0
LTYPE
  2
DUMMY
 70
    64
  3
ダミー
 72
    65
 73
     0
 40
0.0
  0
LTYPE
  2
RAND1
 70
    64
  3
ランダム線1
 72
    65
 73
     4
 40
10.0
 49
1.0
 49
-2.0
 49
3.0
 49
-4.0
  0
LTYPE
  2
RAND2
 70
    64
  3
ランダム線2
 72
    65
 73
     4
 40
14.0
 49
2.0
 49
-3.0
 49
4.0
 49
-5.0
  0
LTYPE
  2
RAND3
 70
    64
  3
ランダム線3
 72
    65
 73
     4
 40
18.0
 49
3.0
 49
-4.0
 49
5.0
 49
-6.0
  0
LTYPE
  2
RAND4
 70
    64
  3
ランダム線4
 72
    65
 73
     4
 40
22.0
 49
4.0
 49
-5.0
 49
6.0
 49
-7.0
  0
LTYPE
  2
RAND5
 70
    64
  3
ランダム線5
 72
    65
 73
     4
 40
26.0
 49
5.0
 49
-6.0
 49
7.0
 49
-8.0
  0
LTYPE
  2
LONG1
 70
    64
  3
----------  --  ----------  --  
 72
    65
 73
     4
 40
40.0
 49
32.5
 49
-2.5
 49
2.5
 49
-2.5
  0
LTYPE
  2
LONG2
 70
    64
  3
--------  -  -  --------  -  -  
 72
    65
 73
     6
 40
40.0
 49
30.0
 49
-2.5
 49
1.25
 49
-2.5
 49
1.25
 49
-2.5
  0
LTYPE
  2
LONG3
 70
    64
  3
+++++++++++++++..+++++++++++++++
 72
    65
 73
     2
 40
40.0
 49
37.5
 49
-2.5
  0
LTYPE
  2
LONG4
 70
    64
  3
+++++++++++++++..+++++++++++++++
 72
    65
 73
     2
 40
80.0
 49
75.0
 49
-5.0
  0
LTYPE
  2
LONG5
 70
    64
  3
----------  --  ----------  --  
 72
    65
 73
     4
 40
60.0
 49
37.5
 49
-7.5
 49
7.5
 49
-7.5
  0
LTYPE
  2
dashed
 70
   64
  3
-------   -------------   ------
 72
   65
 73
    2
 40
7.5
 49
6
 49
-1.5
  0
LTYPE
  2
dashed_spaced
 70
   64
  3
----        --------        ----
 72
   65
 73
    2
 40
12
 49
6
 49
-6
  0
LTYPE
  2
long_dashed_dotted
 70
   64
  3
------------- --- --------------
 72
   65
 73
    4
 40
15.25
 49
12
 49
-1.5
 49
0.25
 49
-1.5
  0
LTYPE
  2
long_dashed_double-dotted
 70
   64
  3
----------- --- --- ------------
 72
   65
 73
    6
 40
17
 49
12
 49
-1.5
 49
0.25
 49
-1.5
 49
0.25
 49
-1.5
  0
LTYPE
  2
long_dashed_triplicate-dotted
 70
   64
  3
--------- --- --- --- ----------
 72
   65
 73
    8
 40
18.75
 49
12
 49
-1.5
 49
0.25
 49
-1.5
 49
0.25
 49
-1.5
 49
0.25
 49
-1.5
  0
LTYPE
  2
dotted
 70
   64
  3
   -       -       -       -    
 72
   65
 73
    2
 40
1.75
 49
0.25
 49
-1.5
  0
LTYPE
  2
chain
 70
   64
  3
-------------- -- --------------
 72
   65
 73
    4
 40
18.5
 49
12
 49
-1.5
 49
3.5
 49
-1.5
  0
LTYPE
  2
chain_double_dash
 70
   64
  3
------------ -- -- -------------
 72
   65
 73
    6
 40
23.5
 49
12
 49
-1.5
 49
3.5
 49
-1.5
 49
3.5
 49
-1.5
  0
LTYPE
  2
dashed_dotted
 70
   64
  3
-----------     -     ----------
 72
   65
 73
    4
 40
9.25
 49
6
 49
-1.5
 49
0.25
 49
-1.5
  0
LTYPE
  2
double-dashed_dotted
 70
   64
  3
------   -----------   -   -----
 72
   65
 73
    6
 40
16.75
 49
6
 49
-1.5
 49
6
 49
-1.5
 49
0.25
 49
-1.5
  0
LTYPE
  2
dashed_double-dotted
 70
   64
  3
---------    -    -    ---------
 72
   65
 73
    6
 40
11
 49
6
 49
-1.5
 49
0.25
 49
-1.5
 49
0.25
 49
-1.5
  0
LTYPE
  2
double-dashed_double-dotted
 70
   64
  3
-----   ---------   -   -   ----
 72
   65
 73
    8
 40
18.5
 49
6
 49
-1.5
 49
6
 49
-1.5
 49
0.25
 49
-1.5
 49
0.25
 49
-1.5
  0
LTYPE
  2
dashed_triplicate-dotted
 70
   64
  3
-------    -    -    -    ------
 72
   65
 73
    8
 40
12.75
 49
6
 49
-1.5
 49
0.25
 49
-1.5
 49
0.25
 49
-1.5
 49
0.25
 49
-1.5
  0
LTYPE
  2
double-dashed_triplicate-dotted
 70
   64
  3
-----  ---------  -  -  -  -----
 72
   65
 73
   10
 40
20.25
 49
6
 49
-1.5
 49
6
 49
-1.5
 49
0.25
 49
-1.5
 49
0.25
 49
-1.5
 49
0.25
 49
-1.5
  0
LTYPE
  2
undefined
 70
   64
  3
--------------------------------
 72
   65
 73
    0
 40
0
  0
LTYPE
  2
_
 70
   64
  3
                                
 72
   65
 73
    0
 40
0
  0
LTYPE
  2
__18
 70
   64
  3
                                
 72
   65
 73
    0
 40
0
  0
LTYPE
  2
__19
 70
   64
  3
                                
 72
   65
 73
    0
 40
0
  0
LTYPE
  2
__20
 70
   64
  3
                                
 72
   65
 73
    0
 40
0
  0
LTYPE
  2
__21
 70
   64
  3
                                
 72
   65
 73
    0
 40
0
  0
LTYPE
  2
__22
 70
   64
  3
                                
 72
   65
 73
    0
 40
0
  0
LTYPE
  2
__23
 70
   64
  3
                                
 72
   65
 73
    0
 40
0
  0
LTYPE
  2
__24
 70
   64
  3
                                
 72
   65
 73
    0
 40
0
  0
LTYPE
  2
__25
 70
   64
  3
                                
 72
   65
 73
    0
 40
0
  0
LTYPE
  2
__26
 70
   64
  3
                                
 72
   65
 73
    0
 40
0
  0
LTYPE
  2
__27
 70
   64
  3
                                
 72
   65
 73
    0
 40
0
  0
LTYPE
  2
__28
 70
   64
  3
                                
 72
   65
 73
    0
 40
0
  0
LTYPE
  2
__29
 70
   64
  3
                                
 72
   65
 73
    0
 40
0
  0
LTYPE
  2
__30
 70
   64
  3
                                
 72
   65
 73
    0
 40
0
  0
LTYPE
  2
__31
 70
   64
  3
                                
 72
   65
 73
    0
 40
0
  0
LTYPE
  2
__32
 70
   64
  3
                                
 72
   65
 73
    0
 40
0
  0
ENDTAB
  0
TABLE
  2
STYLE
  5
3
100
AcDbSymbolTable
 70
     1
  0
STYLE
  5
10
100
AcDbSymbolTableRecord
100
AcDbTextStyleTableRecord
  2
STANDARD
 70
     0
 40
0.0
 41
1.0
 50
0.0
 71
     0
 42
0.2
  3
txt
  4
bigfont.shx
  0
STYLE
  5
26
100
AcDbSymbolTableRecord
100
AcDbTextStyleTableRecord
  2
TATEGAKI
 70
    68
 40
0.0
 41
1.0
 50
0.0
 71
     0
 42
1.0
  3
txt
  4
bigfont.shx
  0
ENDTAB
  0
TABLE
  2
LAYER
 70
   11
  0
LAYER
  2
_0-0_
 70
   64
 62
    7
  6
CONTINUOUS
  0
LAYER
  2
_0-1_
 70
   64
 62
    7
  6
CONTINUOUS
  0
LAYER
  2
_1-2_
 70
   64
 62
    7
  6
CONTINUOUS
  0
LAYER
  2
_f-0_
 70
   64
 62
    7
  6
CONTINUOUS
  0
LAYER
  2
_f-7_
 70
   64
 62
    7
  6
CONTINUOUS
  0
LAYER
  2
_f-8_
 70
   64
 62
    7
  6
CONTINUOUS
  0
LAYER
  2
_f-9_
 70
   64
 62
    7
  6
CONTINUOUS
  0
LAYER
  2
_f-d_固定文字
 70
   64
 62
    7
  6
CONTINUOUS
  0
LAYER
  2
_f-e_
 70
   64
 62
    7
  6
CONTINUOUS
  0
LAYER
  2
_f-f_図面枠
 70
   64
 62
    7
  6
CONTINUOUS
  0
LAYER
  2
ADD_LINE
 70
   64
 62
    7
  6
CONTINUOUS
  0
ENDTAB
  0
ENDSEC
  0
SECTION
  2
BLOCKS
  0
ENDSEC
  0
SECTION
  2
ENTITIES
  0
POINT
  8
_0-1_
 62
    4
 10
454.58583784923183
 20
622.36129871464481
  0
LINE
  8
ADD_LINE
  6
DOT
 62
    9
 10
89.991000000000042
 20
60
 11
89.991000000000042
 21
39
  0
LINE
  8
ADD_LINE
  6
DOT
 62
    9
 10
89.991000000000042
 20
39
 11
107.99100000000004
 21
39.000000387603506
  0
LINE
  8
ADD_LINE
  6
DOT
 62
    9
 10
107.99100000000004
 20
60
 11
107.99100000000004
 21
39.000000387603506
  0
LINE
  8
ADD_LINE
  6
DOT
 62
    9
 10
90.008999999999957
 20
39
 11
72.017999999999915
 21
39
  0
LINE
  8
ADD_LINE
  6
DOT
 62
    9
 10
44.991000000000042
 20
33
 11
2486.9909999999999
 21
33
  0
LINE
  8
ADD_LINE
  6
DOT
 62
    9
 10
2478
 20
60
 11
2478
 21
39.000001938017874
  0
LINE
  8
ADD_LINE
  6
DOT
 62
    9
 10
2460
 20
60
 11
2460
 21
39.000001938017874
  0
LINE
  8
ADD_LINE
  6
DOT
 62
    9
 10
2442
 20
60
 11
2442
 21
39.000001938017874
  0
LINE
  8
ADD_LINE
  6
DOT
 62
    9
 10
2424
 20
60
 11
2424
 21
39.000001938017874
  0
LINE
  8
ADD_LINE
  6
DOT
 62
    9
 10
2406
 20
60
 11
2406
 21
39.000001938017874
  0
LINE
  8
ADD_LINE
  6
DOT
 62
    9
 10
2388
 20
60
 11
2388
 21
39
  0
LINE
  8
ADD_LINE
  6
DOT
 62
    9
 10
44.991000000000042
 20
1725
 11
44.991000000000042
 21
33
  0
LINE
  8
ADD_LINE
  6
DOT
 62
    9
 10
72.017999999999915
 20
39
 11
72.017999999999915
 21
1716
  0
LINE
  8
ADD_LINE
  6
DOT
 62
    9
 10
2486.9909999999999
 20
1725
 11
44.991000000000042
 21
1725
  0
LINE
  8
ADD_LINE
  6
DOT
 62
    9
 10
2486.9909999999999
 20
33
 11
2486.9909999999999
 21
1725
  0
LINE
  8
_f-9_
  6
CONTINUOUS
 62
    7
 10
378
 20
72
 11
378
 21
132
  0
LINE
  8
ADD_LINE
  6
DOT
 62
    9
 10
102
 20
72
 11
102
 21
132
  0
LINE
  8
ADD_LINE
  6
DOT
 62
    9
 10
366
 20
72
 11
366
 21
132
  0
LINE
  8
_f-9_
  6
CONTINUOUS
 62
    7
 10
102
 20
72
 11
366
 21
72
  0
LINE
  8
_f-9_
  6
CONTINUOUS
 62
    7
 10
102
 20
132
 11
366
 21
132
  0
LINE
  8
_f-9_
  6
CONTINUOUS
 62
    7
 10
852
 20
72
 11
852
 21
132
  0
LINE
  8
_f-9_
  6
CONTINUOUS
 62
    7
 10
1326
 20
72
 11
1326
 21
132
  0
LINE
  8
_f-9_
  6
CONTINUOUS
 62
    7
 10
1332
 20
72
 11
1332
 21
132
  0
LINE
  8
_f-9_
  6
CONTINUOUS
 62
    7
 10
378
 20
72
 11
1326
 21
72
  0
LINE
  8
_f-9_
  6
CONTINUOUS
 62
    7
 10
378
 20
132
 11
1326
 21
132
  0
LINE
  8
_f-9_
  6
CONTINUOUS
 62
    7
 10
1626
 20
72
 11
1626
 21
132
  0
LINE
  8
_f-9_
  6
CONTINUOUS
 62
    7
 10
1632
 20
72
 11
1632
 21
132
  0
LINE
  8
_f-9_
  6
CONTINUOUS
 62
    7
 10
1332
 20
72
 11
1626
 21
72
  0
LINE
  8
_f-9_
  6
CONTINUOUS
 62
    7
 10
1332
 20
132
 11
1626
 21
132
  0
LINE
  8
_f-9_
  6
CONTINUOUS
 62
    7
 10
1812
 20
72
 11
1812
 21
132
  0
LINE
  8
_f-9_
  6
CONTINUOUS
 62
    7
 10
1992
 20
72
 11
1992
 21
132
  0
LINE
  8
_f-9_
  6
CONTINUOUS
 62
    7
 10
2220
 20
72
 11
2220
 21
132
  0
LINE
  8
_f-9_
  6
CONTINUOUS
 62
    7
 10
1632
 20
72
 11
2466
 21
72
  0
LINE
  8
_f-9_
  6
CONTINUOUS
 62
    7
 10
2466
 20
72
 11
2466
 21
132
  0
LINE
  8
_f-9_
  6
CONTINUOUS
 62
    7
 10
1632
 20
132
 11
2466
 21
132
  0
LINE
  8
_f-f_図面枠
  6
CONTINUOUS
 62
  230
 10
2478
 20
1716
 11
2478
 21
60
  0
LINE
  8
_f-f_図面枠
  6
CONTINUOUS
 62
  230
 10
90
 20
1716
 11
2478
 21
1716
  0
LINE
  8
_f-f_図面枠
  6
CONTINUOUS
 62
  230
 10
90
 20
60
 11
2478
 21
60
  0
LINE
  8
_f-f_図面枠
  6
CONTINUOUS
 62
  230
 10
90
 20
60
 11
90
 21
1716
  0
LINE
  8
ADD_LINE
  6
DOT
 62
    9
 10
378
 20
120
 11
1326
 21
120
  0
LINE
  8
ADD_LINE
  6
DOT
 62
    9
 10
1632
 20
120
 11
2466
 21
120
  0
LINE
  8
ADD_LINE
  6
DOT
 62
    9
 10
1644
 20
72
 11
1644
 21
132
  0
LINE
  8
ADD_LINE
  6
DOT
 62
    9
 10
1824
 20
72
 11
1824
 21
132
  0
LINE
  8
ADD_LINE
  6
DOT
 62
    9
 10
2004
 20
72
 11
2004
 21
132
  0
LINE
  8
ADD_LINE
  6
DOT
 62
    9
 10
2232
 20
72
 11
2232
 21
132
  0
LINE
  8
ADD_LINE
  6
DOT
 62
    9
 10
867
 20
72
 11
867
 21
132
  0
LINE
  8
ADD_LINE
  6
DOT
 62
    9
 10
393
 20
72
 11
393
 21
132
  0
LINE
  8
ADD_LINE
  6
DOT
 62
    9
 10
2196
 20
72
 11
2196
 21
132
  0
LINE
  8
ADD_LINE
  6
DOT
 62
    9
 10
1632
 20
96
 11
2466
 21
96
  0
TEXT
  8
_f-8_
 62
    7
 10
1824
 20
112.5
 40
15
 41
0.64
 50
0
  1
ＤＡＴＡ
  0
TEXT
  8
_f-8_
 62
    7
 10
2004
 20
112.5
 40
15
 41
0.64
 50
0
  1
ＣＨＥＣＫＥＤ
  0
TEXT
  8
_f-8_
 62
    7
 10
2232
 20
112.5
 40
15
 41
0.64
 50
0
  1
ＳＨＥＥＴ　ＮＯ．
  0
TEXT
  8
_f-8_
 62
    7
 10
2125.1999999999998
 20
112.5
 40
15
 41
0.64
 50
0
  1
ＤＲＡＷＩＮＧ
  0
LINE
  8
ADD_LINE
  6
DOT
 62
    9
 10
81
 20
39
 11
81
 21
1716
  0
LINE
  8
_f-9_
  6
CONTINUOUS
 62
    7
 10
102
 20
102
 11
366
 21
102
  0
LINE
  8
ADD_LINE
  6
DOT
 62
    9
 10
1746
 20
72
 11
1746
 21
132
  0
LINE
  8
ADD_LINE
  6
DOT
 62
    9
 10
1902
 20
72
 11
1902
 21
132
  0
LINE
  8
ADD_LINE
  6
DOT
 62
    9
 10
2100
 20
132
 11
2100
 21
72
  0
LINE
  8
ADD_LINE
  6
DOT
 62
    9
 10
378
 20
96
 11
1326
 21
96
  0
LINE
  8
ADD_LINE
  6
DOT
 62
    9
 10
615
 20
132
 11
615
 21
72
  0
TEXT
  8
_f-8_
 62
    7
 10
1644.2243904512527
 20
112.4816237969099
 40
15
 41
0.64
 50
0
  1
ＳＣＡＬＥ
  0
TEXT
  8
_f-8_
 62
    7
 10
867
 20
112.5
 40
15
 41
0.8
 50
0
  1
図面名称
  0
TEXT
  8
_f-8_
 62
    7
 10
393
 20
112.5
 40
15
 41
0.8
 50
0
  1
名　称
  0
LINE
  8
ADD_LINE
  6
DOT
 62
    9
 10
1089
 20
72
 11
1089
 21
132
  0
LINE
  8
_f-8_
  6
CONTINUOUS
 62
    7
 10
1299
 20
1723.1999999999998
 11
1299.69
 21
1724.4
  0
LINE
  8
_f-8_
  6
CONTINUOUS
 62
    7
 10
1295.1839999999999
 20
1726.1999999999998
 11
1299
 21
1719.6000000000001
  0
LINE
  8
_f-8_
  6
CONTINUOUS
 62
    7
 10
1299
 20
1719.6000000000001
 11
1302.8099999999999
 21
1726.1999999999998
  0
LINE
  8
_f-8_
  6
CONTINUOUS
 62
    7
 10
1299
 20
1716
 11
1305.9239999999999
 21
1728
  0
LINE
  8
_f-8_
  6
CONTINUOUS
 62
    7
 10
1292.0699999999999
 20
1728
 11
1299
 21
1716
  0
LINE
  8
_f-8_
  6
CONTINUOUS
 62
    7
 10
1305.9239999999999
 20
1728
 11
1292.0699999999999
 21
1728
  0
LINE
  8
_f-8_
  6
CONTINUOUS
 62
    7
 10
1298.304
 20
1724.4
 11
1299
 21
1723.1999999999998
  0
LINE
  8
_f-8_
  6
CONTINUOUS
 62
    7
 10
1299.69
 20
1724.4
 11
1298.304
 21
1724.4
  0
LINE
  8
_f-8_
  6
CONTINUOUS
 62
    7
 10
1302.8099999999999
 20
1726.1999999999998
 11
1295.1839999999999
 21
1726.1999999999998
  0
LINE
  8
_f-7_
  6
CONTINUOUS
 62
    7
 10
72
 20
877.60769515458673
 11
72
 21
898.39230484541326
  0
LINE
  8
_f-7_
  6
CONTINUOUS
 62
    7
 10
72
 20
898.39230484541326
 11
90
 21
888
  0
LINE
  8
_f-7_
  6
CONTINUOUS
 62
    7
 10
90
 20
888
 11
72
 21
877.60769515458673
  0
LINE
  8
_f-7_
  6
CONTINUOUS
 62
    7
 10
75
 20
882.80384757729325
 11
75
 21
893.19615242270674
  0
LINE
  8
_f-7_
  6
CONTINUOUS
 62
    7
 10
75
 20
893.19615242270674
 11
84
 21
888
  0
LINE
  8
_f-7_
  6
CONTINUOUS
 62
    7
 10
84
 20
888
 11
75
 21
882.80384757729325
  0
LINE
  8
_f-7_
  6
CONTINUOUS
 62
    7
 10
77.399999999999863
 20
886.96076951545865
 11
77.399999999999863
 21
889.03923048454134
  0
LINE
  8
_f-7_
  6
CONTINUOUS
 62
    7
 10
77.399999999999863
 20
889.03923048454134
 11
79.200000000000272
 21
888
  0
LINE
  8
_f-7_
  6
CONTINUOUS
 62
    7
 10
79.200000000000272
 20
888
 11
77.399999999999863
 21
886.96076951545865
  0
LINE
  8
_f-7_
  6
CONTINUOUS
 62
    7
 10
2496
 20
877.60769515458673
 11
2496
 21
898.39230484541326
  0
LINE
  8
_f-7_
  6
CONTINUOUS
 62
    7
 10
2496
 20
898.39230484541326
 11
2478
 21
888
  0
LINE
  8
_f-7_
  6
CONTINUOUS
 62
    7
 10
2478
 20
888
 11
2496
 21
877.60769515458673
  0
LINE
  8
_f-7_
  6
CONTINUOUS
 62
    7
 10
2493
 20
882.80384757729325
 11
2493
 21
893.19615242270674
  0
LINE
  8
_f-7_
  6
CONTINUOUS
 62
    7
 10
2493
 20
893.19615242270674
 11
2484
 21
888
  0
LINE
  8
_f-7_
  6
CONTINUOUS
 62
    7
 10
2484
 20
888
 11
2493
 21
882.80384757729325
  0
LINE
  8
_f-7_
  6
CONTINUOUS
 62
    7
 10
2490.6000000000003
 20
886.96076951545865
 11
2490.6000000000003
 21
889.03923048454134
  0
LINE
  8
_f-7_
  6
CONTINUOUS
 62
    7
 10
2490.6000000000003
 20
889.03923048454134
 11
2488.7999999999997
 21
888
  0
LINE
  8
_f-7_
  6
CONTINUOUS
 62
    7
 10
2488.7999999999997
 20
888
 11
2490.6000000000003
 21
886.96076951545865
  0
LINE
  8
ADD_LINE
  6
DOT
 62
    9
 10
645
 20
132
 11
645
 21
72
  0
LINE
  8
ADD_LINE
  6
DOT
 62
    9
 10
1119
 20
72
 11
1119
 21
132
  0
TEXT
  8
_f-d_固定文字
 62
    7
 10
90.008999999999957
 20
39
 40
12
 41
1
 50
0
  1
%f
  0
LINE
  8
ADD_LINE
  6
DOT
 62
    9
 10
2388
 20
39
 11
2478
 21
39.000001938017874
  0
TEXT
  8
_f-d_固定文字
 62
    7
 10
2393.3999999999996
 20
39.000001938017874
 40
12
 41
1
 50
0
  1
%y
  0
TEXT
  8
_f-d_固定文字
 62
    7
 10
2412
 20
39.000001938017874
 40
12
 41
1
 50
0
  1
．
  0
TEXT
  8
_f-d_固定文字
 62
    7
 10
2429.3999999999996
 20
39.000001938017874
 40
12
 41
1
 50
0
  1
%m
  0
TEXT
  8
_f-d_固定文字
 62
    7
 10
2448
 20
39.000001938017874
 40
12
 41
1
 50
0
  1
．
  0
TEXT
  8
_f-d_固定文字
 62
    7
 10
2465.3999999999996
 20
39.000001938017874
 40
12
 41
1
 50
0
  1
%d
  0
LINE
  8
_0-0_
  6
CONTINUOUS
 62
    7
 10
771.88768690493361
 20
1081.7916107888427
 11
761.28108518713543
 21
1071.1850090710445
  0
LINE
  8
_0-0_
  6
CONTINUOUS
 62
    7
 10
750.67448346933406
 20
1081.7916107888456
 11
761.28108518713224
 21
1092.3982125066436
  0
LINE
  8
_0-0_
  6
CONTINUOUS
 62
    7
 10
761.28108518713224
 20
1092.3982125066436
 11
514.14726516243388
 21
1339.5320325313423
  0
LINE
  8
_0-0_
  6
CONTINUOUS
 62
    7
 10
514.14726516243388
 20
1339.5320325313423
 11
503.54066344463575
 21
1328.9254308135439
  0
LINE
  8
_0-0_
  6
CONTINUOUS
 62
    7
 10
503.54066344463575
 20
1328.9254308135439
 11
750.67448346933406
 21
1081.7916107888456
  0
LINE
  8
ADD_LINE
  6
DOT
 62
  230
 10
498.23736258573626
 20
1344.8353333902412
 11
508.84396430353473
 21
1334.228731672443
  0
LINE
  8
ADD_LINE
  6
DOT
 62
  230
 10
503.54066344463524
 20
1350.1386342491402
 11
514.14726516243388
 21
1339.5320325313423
  0
LINE
  8
ADD_LINE
  6
DOT
 62
  230
 10
492.93406172683728
 20
1339.5320325313421
 11
503.54066344463558
 21
1328.9254308135439
  0
LINE
  8
_0-0_
  6
CONTINUOUS
 62
    7
 10
753.78108518713543
 20
1063.6850090710445
 11
761.28108518713543
 21
1071.1850090710445
  0
LINE
  8
_0-0_
  6
CONTINUOUS
 62
    7
 10
761.28108518713543
 20
1071.1850090710445
 11
768.78108518713543
 21
1063.6850090710445
  0
POINT
  8
_0-1_
 62
    4
 10
1032.6915059503701
 20
647.03952357151547
  0
POINT
  8
_0-1_
 62
    4
 10
1372.1027609199127
 20
986.45077854105807
  0
LINE
  8
_0-1_
  6
CONTINUOUS
 62
    4
 10
1036.9341466374892
 20
642.79688288439615
 11
954.98225484904855
 21
724.74877467283704
  0
LINE
  8
_0-1_
  6
CONTINUOUS
 62
    4
 10
1376.345401607032
 20
982.20813785393875
 11
1294.3935098185911
 21
1064.1600296423796
  0
LINE
  8
_0-1_
  6
CONTINUOUS
 62
    4
 10
450.34319716211251
 20
618.11865802752549
 11
547.55940613117013
 21
715.33486699658317
  0
LINE
  8
_0-1_
  6
CONTINUOUS
 62
    4
 10
110.93194219256969
 20
957.52991299706832
 11
208.14815116162725
 21
1054.7461219661258
  0
LINE
  8
_0-0_
  6
CONTINUOUS
 62
    7
 10
569.30159409498742
 20
206.99118942731274
 11
942.65397456148457
 21
206.99118942731274
  0
POINT
  8
_0-1_
 62
    4
 10
758.27876385041554
 20
346.9911894273128
  0
LINE
  8
_0-1_
  6
CONTINUOUS
 62
    4
 10
752.27876385041554
 20
346.9911894273128
 11
783.25673741869718
 21
346.9911894273128
  0
POINT
  8
_0-1_
 62
    4
 10
758.27876385041554
 20
206.99118942731274
  0
LINE
  8
ADD_LINE
  6
DOT
 62
    9
 10
179.89033912544454
 20
256.99118942731274
 11
179.89033912544454
 21
206.99118942731274
  0
LINE
  8
ADD_LINE
  6
DOT
 62
    9
 10
129.89033912544448
 20
256.99118942731274
 11
129.89033912544448
 21
206.99118942731274
  0
POINT
  8
_0-1_
 62
    4
 10
129.89033912544448
 20
206.99118942731274
  0
POINT
  8
_0-1_
 62
    4
 10
129.89033912544448
 20
256.99118942731274
  0
LINE
  8
_0-1_
  6
CONTINUOUS
 62
    4
 10
123.89033912544448
 20
206.99118942731274
 11
179.89033912544454
 21
206.99118942731274
  0
LINE
  8
_0-1_
  6
CONTINUOUS
 62
    4
 10
123.89033912544448
 20
256.99118942731274
 11
179.89033912544454
 21
256.99118942731274
  0
LINE
  8
_0-1_
  6
CONTINUOUS
 62
    7
 10
1499.9284210526313
 20
206.99118942731274
 11
1523.9284210526313
 21
206.99118942731274
  0
LINE
  8
_0-1_
  6
CONTINUOUS
 62
    7
 10
1499.9284210526313
 20
346.9911894273128
 11
1499.9284210526313
 21
206.99118942731274
  0
LINE
  8
_0-1_
  6
CONTINUOUS
 62
    7
 10
1511.9284210526313
 20
346.9911894273128
 11
1511.9284210526313
 21
206.99118942731274
  0
LINE
  8
_0-1_
  6
CONTINUOUS
 62
    7
 10
1523.9284210526313
 20
256.99118942731274
 11
1523.9284210526313
 21
206.99118942731274
  0
LINE
  8
_0-1_
  6
CONTINUOUS
 62
    7
 10
1499.9284210526313
 20
346.9911894273128
 11
1511.9284210526313
 21
346.9911894273128
  0
LINE
  8
_0-1_
  6
CONTINUOUS
 62
    7
 10
1523.9284210526313
 20
256.99118942731274
 11
1511.9284210526313
 21
256.99118942731274
  0
LINE
  8
_0-1_
  6
CONTINUOUS
 62
    7
 10
1511.9284210526313
 20
206.99118942731274
 11
2377.4284210526311
 21
206.99118942731274
  0
LINE
  8
_0-1_
  6
CONTINUOUS
 62
    7
 10
1523.9284210526313
 20
256.99118942731274
 11
2377.4284210526311
 21
256.99118942731274
  0
LINE
  8
_0-1_
  6
CONTINUOUS
 62
    7
 10
2377.4284210526311
 20
256.99118942731274
 11
2377.4284210526311
 21
206.99118942731274
  0
LINE
  8
_0-1_
  6
CONTINUOUS
 62
    7
 10
1851.3284210526312
 20
256.99118942731274
 11
1851.3284210526312
 21
206.99118942731274
  0
POINT
  8
_0-1_
 62
    4
 10
1499.9284210526316
 20
446.99118942731274
  0
POINT
  8
_0-1_
 62
    4
 10
1511.9284210526316
 20
446.99118942731274
  0
LINE
  8
_0-1_
  6
CONTINUOUS
 62
    4
 10
1499.9284210526316
 20
452.99118942731274
 11
1499.9284210526316
 21
396.99118942731274
  0
LINE
  8
_0-1_
  6
CONTINUOUS
 62
    4
 10
1511.9284210526316
 20
452.99118942731274
 11
1511.9284210526316
 21
396.99118942731274
  0
TEXT
  8
_f-8_
 62
    7
 10
1716.6000000000001
 20
85.5
 40
21
 41
0.5714285714285713
 50
0
  1
１／６
  0
LINE
  8
ADD_LINE
  6
DOT
 62
    9
 10
2478
 20
1716
 11
2469
 21
1716
  0
LINE
  8
ADD_LINE
  6
DOT
 62
    9
 10
2469
 20
1716
 11
2469
 21
1707
  0
LINE
  8
ADD_LINE
  6
DOT
 62
    9
 10
2469
 20
1707
 11
2478
 21
1707
  0
LINE
  8
ADD_LINE
  6
DOT
 62
    9
 10
2478
 20
1707
 11
2478
 21
1716
  0
LINE
  8
ADD_LINE
  6
DOT
 62
    9
 10
2469
 20
1716
 11
2469
 21
1707
  0
LINE
  8
_1-2_
  6
CONTINUOUS
 62
    7
 10
2469
 20
1671
 11
1869
 21
1671
  0
LINE
  8
_1-2_
  6
CONTINUOUS
 62
    7
 10
2469
 20
1674
 11
1869
 21
1674
  0
LINE
  8
_1-2_
  6
CONTINUOUS
 62
    7
 10
2469
 20
1638.5999999999999
 11
1869
 21
1638.5999999999999
  0
LINE
  8
_1-2_
  6
CONTINUOUS
 62
    3
 10
2469
 20
1707
 11
1869
 21
1707
  0
LINE
  8
ADD_LINE
  6
DOT
 62
    9
 10
1869
 20
1690.5
 11
2469
 21
1690.5
  0
LINE
  8
ADD_LINE
  6
DOT
 62
    9
 10
1869
 20
1654.7999999999997
 11
2469
 21
1654.7999999999997
  0
LINE
  8
ADD_LINE
  6
DOT
 62
    9
 10
1869
 20
1622.3999999999996
 11
2469
 21
1622.3999999999996
  0
LINE
  8
ADD_LINE
  6
DOT
 62
    9
 10
2194.5003000000006
 20
1674
 11
2194.5003000000006
 21
1707
  0
LINE
  8
_1-2_
  6
CONTINUOUS
 62
    3
 10
1869
 20
1707
 11
1869
 21
1606.1999999999998
  0
LINE
  8
_1-2_
  6
CONTINUOUS
 62
    3
 10
2469
 20
1606.1999999999998
 11
2469
 21
1707
  0
LINE
  8
_1-2_
  6
CONTINUOUS
 62
    7
 10
1995
 20
1671
 11
1995
 21
1606.1999999999998
  0
LINE
  8
ADD_LINE
  6
DOT
 62
    9
 10
1932
 20
1671
 11
1932
 21
1606.1999999999998
  0
LINE
  8
ADD_LINE
  6
DOT
 62
    9
 10
2007
 20
1707
 11
2007
 21
1606.1999999999998
  0
LINE
  8
_1-2_
  6
CONTINUOUS
 62
    3
 10
2469
 20
1606.1999999999998
 11
1869
 21
1606.1999999999998
  0
TEXT
  8
_1-2_
 62
    7
 10
2007
 20
1680
 40
21
 41
0.857142857142857
 50
0
  1
仕　　　　様
  0
TEXT
  8
_1-2_
 62
    7
 10
1895.9100000000007
 20
1644.2999999999997
 40
21
 41
0.857142857142857
 50
0
  1
側　　板
  0
TEXT
  8
_1-2_
 62
    7
 10
2007
 20
1644.2999999999997
 40
21
 41
0.7714285714285714
 50
0
  1
低圧メラミン化粧パーティクルボード　１５ｔ
  0
TEXT
  8
_1-2_
 62
    7
 10
1895.9100000000007
 20
1611.8999999999996
 40
21
 41
0.857142857142857
 50
0
  1
前　　板
  0
TEXT
  8
_1-2_
 62
    7
 10
2007
 20
1611.8999999999996
 40
21
 41
0.7714285714285714
 50
0
  1
片面化粧パーティクルボード　１２ｔ
  0
POINT
  8
_0-1_
 62
    3
 10
454.58583784923183
 20
622.36129871464481
  0
POINT
  8
_0-1_
 62
    3
 10
115.17458287968901
 20
961.77255368418764
  0
LINE
  8
_0-1_
  6
CONTINUOUS
 62
    4
 10
110.93194219256969
 20
957.52991299706832
 11
102.44666375449014
 21
949.0446345589886
  0
LINE
  8
_0-1_
  6
CONTINUOUS
 62
    4
 10
454.58583784923183
 20
622.36129871464481
 11
115.17458287968901
 21
961.77255368418764
  0
TEXT
  8
_0-1_
 62
    7
 10
272.95839003365517
 20
808.23138721734062
 40
21
 41
0.6285714285714286
 50
-45.000000000000007
  1
４８０
  0
POINT
  8
_0-1_
 62
    3
 10
1372.1027609199127
 20
986.45077854105807
  0
POINT
  8
_0-1_
 62
    3
 10
1032.6915059503701
 20
647.03952357151547
  0
LINE
  8
_0-1_
  6
CONTINUOUS
 62
    4
 10
1372.1027609199127
 20
986.45077854105807
 11
1032.6915059503701
 21
647.03952357151547
  0
TEXT
  8
_0-1_
 62
    7
 10
1186.2326724172169
 20
804.82333072548158
 40
21
 41
0.6285714285714286
 50
44.999999999999992
  1
４８０
  0
POINT
  8
_0-1_
 62
    3
 10
939.30159409498753
 20
436.9911894273128
  0
LINE
  8
_0-1_
  6
CONTINUOUS
 62
    4
 10
939.30159409498753
 20
442.9911894273128
 11
939.30159409498753
 21
376.9911894273128
  0
POINT
  8
_0-1_
 62
    3
 10
939.30159409498753
 20
436.9911894273128
  0
POINT
  8
_0-1_
 62
    3
 10
758.27876385041554
 20
206.99118942731274
  0
POINT
  8
_0-1_
 62
    3
 10
758.27876385041554
 20
346.9911894273128
  0
LINE
  8
_0-1_
  6
CONTINUOUS
 62
    4
 10
758.27876385041554
 20
206.99118942731274
 11
758.27876385041554
 21
346.9911894273128
  0
TEXT
  8
_0-1_
 62
    7
 10
755.27876385041554
 20
257.13118942731273
 40
21
 41
0.6285714285714286
 50
90
  1
１４０
  0
POINT
  8
_0-1_
 62
    3
 10
129.89033912544448
 20
206.99118942731274
  0
POINT
  8
_0-1_
 62
    3
 10
129.89033912544448
 20
256.99118942731274
  0
LINE
  8
_0-1_
  6
CONTINUOUS
 62
    4
 10
129.89033912544448
 20
206.99118942731274
 11
129.89033912544448
 21
256.99118942731274
  0
TEXT
  8
_0-1_
 62
    7
 10
126.89033912544448
 20
218.7611894273127
 40
21
 41
0.6285714285714286
 50
90
  1
５０
  0
LINE
  8
_0-1_
  6
CONTINUOUS
 62
    4
 10
1499.9284210526316
 20
446.99118942731274
 11
1511.9284210526316
 21
446.99118942731274
  0
TEXT
  8
_0-1_
 62
    7
 10
1492.6984210526316
 20
449.99118942731274
 40
21
 41
0.6285714285714286
 50
0
  1
１２
  0
TEXT
  8
_0-1_
 62
    7
 10
426.36051502145926
 20
82.804252701625841
 40
27
 41
0.8
 50
0
  1
高さ調整用　台輪（隅調理台）
  0
TEXT
  8
_0-1_
 62
    7
 10
1829.0809465665547
 20
85.608875200466684
 40
21
 41
0.5714285714285713
 50
0
  1
２０２３．０５．０１
  0
TEXT
  8
_0-1_
 62
    7
 10
2143.6475287942848
 20
84.074404067648401
 40
21
 41
0.5714285714285713
 50
0
  1
Ｔ．Ｋ
  0
LINE
  8
ADD_LINE
  6
DOT
 62
    9
 10
1003.7896995708154
 20
376.9911894273128
 11
967.46137339055792
 21
376.9911894273128
  0
TEXT
  8
_0-1_
 62
    7
 10
938.78111587982834
 20
84.128755364806806
 40
27
 41
0.6666666666666666
 50
0
  1
ＫＴＢ５－８０－７５Ｃ台輪
  0
LINE
  8
ADD_LINE
  6
DOT
 62
  230
 10
1027.8603416944633
 20
1337.7642655783724
 11
1017.2537399766654
 21
1327.1576638605745
  0
LINE
  8
ADD_LINE
  6
DOT
 62
  230
 10
1017.2537399766652
 20
1348.3708672961706
 11
1006.6471382588672
 21
1337.7642655783724
  0
LINE
  8
ADD_LINE
  6
DOT
 62
  230
 10
1022.5570408355642
 20
1343.0675664372715
 11
1011.9504391177662
 21
1332.4609647194733
  0
POINT
  8
_0-1_
 62
    3
 10
670.62472902859383
 20
1694.9998782442419
  0
LINE
  8
_0-1_
  6
CONTINUOUS
 62
    4
 10
666.38208834147451
 20
1699.2425189313612
 11
748.41362522232111
 21
1617.2109820505147
  0
LINE
  8
_0-0_
  6
CONTINUOUS
 62
    7
 10
582.73662293753159
 20
750.51208380294485
 11
243.32536796798888
 21
1089.9233387724875
  0
LINE
  8
_0-0_
  6
CONTINUOUS
 62
    7
 10
243.32536796798888
 20
1089.9233387724875
 11
253.93196968578718
 21
1079.3167370546893
  0
LINE
  8
_0-0_
  6
CONTINUOUS
 62
    7
 10
501.06578971048566
 20
832.18291702999113
 11
511.67239142828378
 21
821.57631531219294
  0
LINE
  8
_0-0_
  6
CONTINUOUS
 62
    7
 10
572.1300212197334
 20
739.90548208514655
 11
582.73662293753159
 21
750.51208380294485
  0
LINE
  8
_0-0_
  6
CONTINUOUS
 62
    7
 10
253.93196968578718
 20
1079.3167370546893
 11
759.51331823416876
 21
1584.8980856030709
  0
LINE
  8
_0-0_
  6
CONTINUOUS
 62
    7
 10
759.51331823416967
 20
1606.1112890386662
 11
232.71876625019058
 21
1079.3167370546893
  0
LINE
  8
_0-0_
  6
CONTINUOUS
 62
    7
 10
1261.5591328766176
 20
1075.7812031487546
 11
1272.1657345944158
 21
1086.3878048665528
  0
LINE
  8
_0-0_
  6
CONTINUOUS
 62
    7
 10
1009.1220119930202
 20
823.34408226515722
 11
1019.7286137108185
 21
833.95068398295552
  0
LINE
  8
_0-0_
  6
CONTINUOUS
 62
    7
 10
1286.3078702181476
 20
1079.3167370546884
 11
759.51331823416853
 21
1606.1112890386675
  0
LINE
  8
_0-0_
  6
CONTINUOUS
 62
    7
 10
748.90671651637046
 20
1595.5046873208693
 11
1265.0946667825514
 21
1079.3167370546884
  0
LINE
  8
_0-0_
  6
CONTINUOUS
 62
    7
 10
771.88768690493361
 20
1081.7916107888427
 11
1019.7286137108196
 21
833.95068398295654
  0
LINE
  8
_0-0_
  6
CONTINUOUS
 62
    7
 10
1009.1220119930214
 20
823.34408226515847
 11
761.28108518713543
 21
1071.1850090710445
  0
POINT
  8
_0-1_
 62
    3
 10
143.83017704461587
 20
1168.2053262602639
  0
POINT
  8
_0-1_
 62
    3
 10
670.62472902859383
 20
1694.9998782442419
  0
LINE
  8
_0-1_
  6
CONTINUOUS
 62
    4
 10
139.58753635749656
 20
1172.4479669473835
 11
221.6190732383431
 21
1090.4164300665368
  0
LINE
  8
_0-1_
  6
CONTINUOUS
 62
    4
 10
666.38208834147451
 20
1699.2425189313612
 11
748.41362522232111
 21
1617.2109820505147
  0
LINE
  8
_0-1_
  6
CONTINUOUS
 62
    4
 10
143.83017704461587
 20
1168.2053262602639
 11
670.62472902859383
 21
1694.9998782442419
  0
TEXT
  8
_0-1_
 62
    7
 10
391.06299201868023
 20
1419.6807819214479
 40
21
 41
0.6285714285714286
 50
45
  1
７４５
  0
POINT
  8
_0-1_
 62
    3
 10
840.92348155810418
 20
1687.5214523626009
  0
POINT
  8
_0-1_
 62
    3
 10
1367.7180335420821
 20
1160.7269003786227
  0
LINE
  8
_0-1_
  6
CONTINUOUS
 62
    4
 10
845.1661222452235
 20
1691.7640930497202
 11
770.15255644797207
 21
1616.7505272524686
  0
LINE
  8
_0-1_
  6
CONTINUOUS
 62
    4
 10
1371.9606742292014
 20
1164.969541065742
 11
1296.94710843195
 21
1089.9559752684906
  0
LINE
  8
_0-1_
  6
CONTINUOUS
 62
    4
 10
840.92348155810418
 20
1687.5214523626009
 11
1367.7180335420821
 21
1160.7269003786227
  0
TEXT
  8
_0-1_
 62
    7
 10
1092.3989372192879
 20
1440.2886373885362
 40
21
 41
0.6285714285714286
 50
-44.999999999999978
  1
７４５
  0
LINE
  8
_0-0_
  6
CONTINUOUS
 62
    7
 10
1006.6471382588672
 20
1337.7642655783724
 11
501.06578971048548
 21
832.1829170299909
  0
LINE
  8
_0-0_
  6
CONTINUOUS
 62
    7
 10
511.67239142828378
 20
821.57631531219294
 11
1017.2537399766654
 21
1327.1576638605745
  0
LINE
  8
_0-0_
  6
CONTINUOUS
 62
    7
 10
946.89661524860503
 20
739.90548208514553
 11
936.29001353080684
 21
750.5120838029436
  0
LINE
  8
_0-0_
  6
CONTINUOUS
 62
    7
 10
1275.7012685003483
 20
1089.9233387724855
 11
936.29001353080684
 21
750.51208380294372
  0
LINE
  8
_0-0_
  6
CONTINUOUS
 62
    7
 10
946.89661524860503
 20
739.90548208514553
 11
934.89661524860389
 21
751.90548208514655
  0
LINE
  8
_0-0_
  6
CONTINUOUS
 62
    7
 10
584.1300212197334
 20
751.90548208514655
 11
934.89661524860389
 21
751.90548208514655
  0
LINE
  8
ADD_LINE
  6
DOT
 62
  230
 10
768.78108518713543
 20
1071.1850090710445
 11
768.78108518713543
 21
760.74785407725312
  0
LINE
  8
_0-0_
  6
CONTINUOUS
 62
    7
 10
768.78108518713543
 20
751.90548208514655
 11
768.78108518713543
 21
1063.6850090710445
  0
LINE
  8
ADD_LINE
  6
DOT
 62
  230
 10
753.78108518713543
 20
1071.1850090710445
 11
753.78108518713543
 21
762.03540772532187
  0
LINE
  8
_0-0_
  6
CONTINUOUS
 62
    7
 10
753.78108518713543
 20
1063.6850090710445
 11
753.78108518713543
 21
751.90548208514655
  0
LINE
  8
ADD_LINE
  6
DOT
 62
  230
 10
761.28108518713543
 20
1071.1850090710445
 11
761.28108518713543
 21
751.90548208514655
  0
LINE
  8
_0-0_
  6
CONTINUOUS
 62
    7
 10
572.1300212197334
 20
739.90548208514655
 11
946.89661524860503
 21
739.90548208514655
  0
LINE
  8
_0-0_
  6
CONTINUOUS
 62
    7
 10
946.89661524860503
 20
739.90548208514553
 11
1286.3078702181464
 21
1079.3167370546871
  0
LINE
  8
_0-0_
  6
CONTINUOUS
 62
    7
 10
232.71876625019058
 20
1079.3167370546893
 11
572.13002121973363
 21
739.90548208514644
  0
LINE
  8
_0-0_
  6
CONTINUOUS
 62
    7
 10
572.13002121973352
 20
739.90548208514655
 11
584.1300212197334
 21
751.90548208514655
  0
LINE
  8
_0-0_
  6
CONTINUOUS
 62
    7
 10
941.25595892128865
 20
727.90548208514655
 11
941.25595892128865
 21
739.90548208514655
  0
LINE
  8
_0-0_
  6
CONTINUOUS
 62
    7
 10
577.75595892128865
 20
727.90548208514655
 11
941.25595892128865
 21
727.90548208514655
  0
LINE
  8
_0-0_
  6
CONTINUOUS
 62
    7
 10
577.75595892128865
 20
727.90548208514655
 11
577.75595892128865
 21
739.90548208514655
  0
POINT
  8
_0-1_
 62
    3
 10
577.75595892128865
 20
577.90548208514655
  0
POINT
  8
_0-1_
 62
    3
 10
941.25595892128865
 20
577.90548208514655
  0
LINE
  8
_0-1_
  6
CONTINUOUS
 62
    4
 10
577.75595892128865
 20
571.90548208514655
 11
577.75595892128865
 21
697.90548208514655
  0
LINE
  8
_0-1_
  6
CONTINUOUS
 62
    4
 10
941.25595892128865
 20
571.90548208514655
 11
941.25595892128865
 21
697.90548208514655
  0
LINE
  8
_0-1_
  6
CONTINUOUS
 62
    4
 10
577.75595892128865
 20
577.90548208514655
 11
941.25595892128865
 21
577.90548208514655
  0
TEXT
  8
_0-1_
 62
    7
 10
729.7009589212887
 20
580.90548208514655
 40
21
 41
0.6285714285714286
 50
0
  1
３６３.５
  0
LINE
  8
_0-0_
  6
CONTINUOUS
 62
    7
 10
577.75595892128865
 20
346.9911894273128
 11
577.75595892128865
 21
206.99118942731274
  0
LINE
  8
_0-0_
  6
CONTINUOUS
 62
    7
 10
941.25595892128865
 20
346.9911894273128
 11
577.75595892128865
 21
346.9911894273128
  0
LINE
  8
_0-0_
  6
CONTINUOUS
 62
    7
 10
941.25595892128865
 20
346.9911894273128
 11
941.25595892128865
 21
206.99118942731274
  0
LINE
  8
_0-0_
  6
CONTINUOUS
 62
    7
 10
232.71876625019058
 20
256.99118942731274
 11
232.71876625019058
 21
206.99118942731274
  0
LINE
  8
_0-0_
  6
CONTINUOUS
 62
    7
 10
232.71876625019058
 20
256.99118942731274
 11
577.75595892128865
 21
256.99118942731274
  0
LINE
  8
_0-0_
  6
CONTINUOUS
 62
    7
 10
232.71876625019058
 20
206.99118942731274
 11
1286.3078702181476
 21
206.99118942731274
  0
LINE
  8
_0-0_
  6
CONTINUOUS
 62
    7
 10
1286.3078702181476
 20
256.99118942731274
 11
1286.3078702181476
 21
206.99118942731274
  0
LINE
  8
_0-0_
  6
CONTINUOUS
 62
    7
 10
941.25595892128865
 20
256.99118942731274
 11
1286.3078702181476
 21
256.99118942731274
  0
POINT
  8
_0-1_
 62
    3
 10
577.75595892128865
 20
436.9911894273128
  0
LINE
  8
_0-1_
  6
CONTINUOUS
 62
    4
 10
577.75595892128865
 20
442.9911894273128
 11
577.75595892128865
 21
376.9911894273128
  0
LINE
  8
_0-1_
  6
CONTINUOUS
 62
    4
 10
941.25595892128865
 20
436.9911894273128
 11
577.75595892128865
 21
436.9911894273128
  0
TEXT
  8
_0-1_
 62
    7
 10
729.7009589212887
 20
439.9911894273128
 40
21
 41
0.6285714285714286
 50
0
  1
３６３.５
  0
ENDSEC
  0
EOF
