  0
SECTION
  2
HEADER
  9
$ACADVER
  1
AC1009
  9
$INSBASE
 10
0
 20
0
 30
0
  9
$EXTMIN
 10
0
 20
0
  9
$EXTMAX
 10
2100
 20
1485
  9
$LIMMIN
 10
0
 20
0
  9
$LIMMAX
 10
2100
 20
1485
  9
$LTSCALE
 40
5
  0
ENDSEC
  0
SECTION
  2
TABLES
  0
TABLE
  2
LTYPE
 70
     9
  0
LTYPE
  2
CONTINUOUS
 70
    64
  3
実線
 72
    65
 73
     0
 40
0.0
  0
LTYPE
  2
DASHED1
 70
    64
  3
--  --  --  --  --  --  --  --  
 72
    65
 73
     2
 40
2.5
 49
1.25
 49
-1.25
  0
LTYPE
  2
DASHED2
 70
    64
  3
----    ----    ----    ----    
 72
    65
 73
     2
 40
5.0
 49
2.5
 49
-2.5
  0
LTYPE
  2
DASHED3
 70
    64
  3
------  ------  ------  ------  
 72
    65
 73
     2
 40
5.0
 49
3.75
 49
-1.25
  0
LTYPE
  2
CENTER1
 70
    64
  3
----- - ----- - ----- - ----- - 
 72
    65
 73
     4
 40
10.0
 49
6.25
 49
-1.25
 49
1.25
 49
-1.25
  0
LTYPE
  2
CENTER2
 70
    64
  3
----------  --  ----------  --  
 72
    65
 73
     4
 40
20.0
 49
12.5
 49
-2.5
 49
2.5
 49
-2.5
  0
LTYPE
  2
PHANTOM1
 70
    64
  3
--- - - --- - - --- - - --- - - 
 72
    65
 73
     6
 40
10.0
 49
3.25
 49
-1.25
 49
1.25
 49
-1.25
 49
1.25
 49
-1.25
  0
LTYPE
  2
PHANTOM2
 70
    64
  3
--------  -  -  --------  -  -  
 72
    65
 73
     6
 40
20.0
 49
10.0
 49
-2.5
 49
1.25
 49
-2.5
 49
1.25
 49
-2.5
  0
LTYPE
  2
DOT
 70
    64
  3
-   -   -   -   -   -   -   -   
 72
    65
 73
     2
 40
2.5
 49
0.625
 49
-1.875
  0
LTYPE
  2
DUMMY
 70
    64
  3
ダミー
 72
    65
 73
     0
 40
0.0
  0
LTYPE
  2
RAND1
 70
    64
  3
ランダム線1
 72
    65
 73
     4
 40
10.0
 49
1.0
 49
-2.0
 49
3.0
 49
-4.0
  0
LTYPE
  2
RAND2
 70
    64
  3
ランダム線2
 72
    65
 73
     4
 40
14.0
 49
2.0
 49
-3.0
 49
4.0
 49
-5.0
  0
LTYPE
  2
RAND3
 70
    64
  3
ランダム線3
 72
    65
 73
     4
 40
18.0
 49
3.0
 49
-4.0
 49
5.0
 49
-6.0
  0
LTYPE
  2
RAND4
 70
    64
  3
ランダム線4
 72
    65
 73
     4
 40
22.0
 49
4.0
 49
-5.0
 49
6.0
 49
-7.0
  0
LTYPE
  2
RAND5
 70
    64
  3
ランダム線5
 72
    65
 73
     4
 40
26.0
 49
5.0
 49
-6.0
 49
7.0
 49
-8.0
  0
LTYPE
  2
LONG1
 70
    64
  3
----------  --  ----------  --  
 72
    65
 73
     4
 40
40.0
 49
32.5
 49
-2.5
 49
2.5
 49
-2.5
  0
LTYPE
  2
LONG2
 70
    64
  3
--------  -  -  --------  -  -  
 72
    65
 73
     6
 40
40.0
 49
30.0
 49
-2.5
 49
1.25
 49
-2.5
 49
1.25
 49
-2.5
  0
LTYPE
  2
LONG3
 70
    64
  3
+++++++++++++++..+++++++++++++++
 72
    65
 73
     2
 40
40.0
 49
37.5
 49
-2.5
  0
LTYPE
  2
LONG4
 70
    64
  3
+++++++++++++++..+++++++++++++++
 72
    65
 73
     2
 40
80.0
 49
75.0
 49
-5.0
  0
LTYPE
  2
LONG5
 70
    64
  3
----------  --  ----------  --  
 72
    65
 73
     4
 40
60.0
 49
37.5
 49
-7.5
 49
7.5
 49
-7.5
  0
LTYPE
  2
dashed
 70
   64
  3
-------   -------------   ------
 72
   65
 73
    2
 40
7.5
 49
6
 49
-1.5
  0
LTYPE
  2
dashed_spaced
 70
   64
  3
----        --------        ----
 72
   65
 73
    2
 40
12
 49
6
 49
-6
  0
LTYPE
  2
long_dashed_dotted
 70
   64
  3
------------- --- --------------
 72
   65
 73
    4
 40
15.25
 49
12
 49
-1.5
 49
0.25
 49
-1.5
  0
LTYPE
  2
long_dashed_double-dotted
 70
   64
  3
----------- --- --- ------------
 72
   65
 73
    6
 40
17
 49
12
 49
-1.5
 49
0.25
 49
-1.5
 49
0.25
 49
-1.5
  0
LTYPE
  2
long_dashed_triplicate-dotted
 70
   64
  3
--------- --- --- --- ----------
 72
   65
 73
    8
 40
18.75
 49
12
 49
-1.5
 49
0.25
 49
-1.5
 49
0.25
 49
-1.5
 49
0.25
 49
-1.5
  0
LTYPE
  2
dotted
 70
   64
  3
   -       -       -       -    
 72
   65
 73
    2
 40
1.75
 49
0.25
 49
-1.5
  0
LTYPE
  2
chain
 70
   64
  3
-------------- -- --------------
 72
   65
 73
    4
 40
18.5
 49
12
 49
-1.5
 49
3.5
 49
-1.5
  0
LTYPE
  2
chain_double_dash
 70
   64
  3
------------ -- -- -------------
 72
   65
 73
    6
 40
23.5
 49
12
 49
-1.5
 49
3.5
 49
-1.5
 49
3.5
 49
-1.5
  0
LTYPE
  2
dashed_dotted
 70
   64
  3
-----------     -     ----------
 72
   65
 73
    4
 40
9.25
 49
6
 49
-1.5
 49
0.25
 49
-1.5
  0
LTYPE
  2
double-dashed_dotted
 70
   64
  3
------   -----------   -   -----
 72
   65
 73
    6
 40
16.75
 49
6
 49
-1.5
 49
6
 49
-1.5
 49
0.25
 49
-1.5
  0
LTYPE
  2
dashed_double-dotted
 70
   64
  3
---------    -    -    ---------
 72
   65
 73
    6
 40
11
 49
6
 49
-1.5
 49
0.25
 49
-1.5
 49
0.25
 49
-1.5
  0
LTYPE
  2
double-dashed_double-dotted
 70
   64
  3
-----   ---------   -   -   ----
 72
   65
 73
    8
 40
18.5
 49
6
 49
-1.5
 49
6
 49
-1.5
 49
0.25
 49
-1.5
 49
0.25
 49
-1.5
  0
LTYPE
  2
dashed_triplicate-dotted
 70
   64
  3
-------    -    -    -    ------
 72
   65
 73
    8
 40
12.75
 49
6
 49
-1.5
 49
0.25
 49
-1.5
 49
0.25
 49
-1.5
 49
0.25
 49
-1.5
  0
LTYPE
  2
double-dashed_triplicate-dotted
 70
   64
  3
-----  ---------  -  -  -  -----
 72
   65
 73
   10
 40
20.25
 49
6
 49
-1.5
 49
6
 49
-1.5
 49
0.25
 49
-1.5
 49
0.25
 49
-1.5
 49
0.25
 49
-1.5
  0
LTYPE
  2
undefined
 70
   64
  3
--------------------------------
 72
   65
 73
    0
 40
0
  0
LTYPE
  2
_
 70
   64
  3
                                
 72
   65
 73
    0
 40
0
  0
LTYPE
  2
__18
 70
   64
  3
                                
 72
   65
 73
    0
 40
0
  0
LTYPE
  2
__19
 70
   64
  3
                                
 72
   65
 73
    0
 40
0
  0
LTYPE
  2
__20
 70
   64
  3
                                
 72
   65
 73
    0
 40
0
  0
LTYPE
  2
__21
 70
   64
  3
                                
 72
   65
 73
    0
 40
0
  0
LTYPE
  2
__22
 70
   64
  3
                                
 72
   65
 73
    0
 40
0
  0
LTYPE
  2
__23
 70
   64
  3
                                
 72
   65
 73
    0
 40
0
  0
LTYPE
  2
__24
 70
   64
  3
                                
 72
   65
 73
    0
 40
0
  0
LTYPE
  2
__25
 70
   64
  3
                                
 72
   65
 73
    0
 40
0
  0
LTYPE
  2
__26
 70
   64
  3
                                
 72
   65
 73
    0
 40
0
  0
LTYPE
  2
__27
 70
   64
  3
                                
 72
   65
 73
    0
 40
0
  0
LTYPE
  2
__28
 70
   64
  3
                                
 72
   65
 73
    0
 40
0
  0
LTYPE
  2
__29
 70
   64
  3
                                
 72
   65
 73
    0
 40
0
  0
LTYPE
  2
__30
 70
   64
  3
                                
 72
   65
 73
    0
 40
0
  0
LTYPE
  2
__31
 70
   64
  3
                                
 72
   65
 73
    0
 40
0
  0
LTYPE
  2
__32
 70
   64
  3
                                
 72
   65
 73
    0
 40
0
  0
ENDTAB
  0
TABLE
  2
STYLE
  5
3
100
AcDbSymbolTable
 70
     1
  0
STYLE
  5
10
100
AcDbSymbolTableRecord
100
AcDbTextStyleTableRecord
  2
STANDARD
 70
     0
 40
0.0
 41
1.0
 50
0.0
 71
     0
 42
0.2
  3
txt
  4
bigfont.shx
  0
STYLE
  5
26
100
AcDbSymbolTableRecord
100
AcDbTextStyleTableRecord
  2
TATEGAKI
 70
    68
 40
0.0
 41
1.0
 50
0.0
 71
     0
 42
1.0
  3
txt
  4
bigfont.shx
  0
ENDTAB
  0
TABLE
  2
LAYER
 70
   12
  0
LAYER
  2
_0-0_
 70
   64
 62
    7
  6
CONTINUOUS
  0
LAYER
  2
_0-2_
 70
   64
 62
    7
  6
CONTINUOUS
  0
LAYER
  2
_0-3_
 70
   64
 62
    7
  6
CONTINUOUS
  0
LAYER
  2
_1-2_
 70
   64
 62
    7
  6
CONTINUOUS
  0
LAYER
  2
_f-0_
 70
   64
 62
    7
  6
CONTINUOUS
  0
LAYER
  2
_f-7_
 70
   64
 62
    7
  6
CONTINUOUS
  0
LAYER
  2
_f-8_
 70
   64
 62
    7
  6
CONTINUOUS
  0
LAYER
  2
_f-9_
 70
   64
 62
    7
  6
CONTINUOUS
  0
LAYER
  2
_f-d_固定文字
 70
   64
 62
    7
  6
CONTINUOUS
  0
LAYER
  2
_f-e_
 70
   64
 62
    7
  6
CONTINUOUS
  0
LAYER
  2
_f-f_図面枠
 70
   64
 62
    7
  6
CONTINUOUS
  0
LAYER
  2
ADD_LINE
 70
   64
 62
    7
  6
CONTINUOUS
  0
ENDTAB
  0
ENDSEC
  0
SECTION
  2
BLOCKS
  0
ENDSEC
  0
SECTION
  2
ENTITIES
  0
LINE
  8
ADD_LINE
  6
DOT
 62
    9
 10
74.992500000000035
 20
50
 11
74.992500000000035
 21
32.5
  0
LINE
  8
ADD_LINE
  6
DOT
 62
    9
 10
74.992500000000035
 20
32.5
 11
89.992500000000035
 21
32.500000323002922
  0
LINE
  8
ADD_LINE
  6
DOT
 62
    9
 10
89.992500000000035
 20
50
 11
89.992500000000035
 21
32.500000323002922
  0
LINE
  8
ADD_LINE
  6
DOT
 62
    9
 10
75.007499999999964
 20
32.5
 11
60.014999999999929
 21
32.5
  0
LINE
  8
ADD_LINE
  6
DOT
 62
    9
 10
37.492500000000035
 20
27.5
 11
2072.4925000000002
 21
27.5
  0
LINE
  8
ADD_LINE
  6
DOT
 62
    9
 10
2065
 20
50
 11
2065
 21
32.500001615014895
  0
LINE
  8
ADD_LINE
  6
DOT
 62
    9
 10
2050
 20
50
 11
2050
 21
32.500001615014895
  0
LINE
  8
ADD_LINE
  6
DOT
 62
    9
 10
2035
 20
50
 11
2035
 21
32.500001615014895
  0
LINE
  8
ADD_LINE
  6
DOT
 62
    9
 10
2020
 20
50
 11
2020
 21
32.500001615014895
  0
LINE
  8
ADD_LINE
  6
DOT
 62
    9
 10
2005
 20
50
 11
2005
 21
32.500001615014895
  0
LINE
  8
ADD_LINE
  6
DOT
 62
    9
 10
1990
 20
50
 11
1990
 21
32.5
  0
LINE
  8
ADD_LINE
  6
DOT
 62
    9
 10
37.492500000000035
 20
1437.5
 11
37.492500000000035
 21
27.5
  0
LINE
  8
ADD_LINE
  6
DOT
 62
    9
 10
60.014999999999929
 20
32.5
 11
60.014999999999929
 21
1430
  0
LINE
  8
ADD_LINE
  6
DOT
 62
    9
 10
2072.4925000000002
 20
1437.5
 11
37.492500000000035
 21
1437.5
  0
LINE
  8
ADD_LINE
  6
DOT
 62
    9
 10
2072.4925000000002
 20
27.5
 11
2072.4925000000002
 21
1437.5
  0
LINE
  8
_f-9_
  6
CONTINUOUS
 62
    7
 10
315
 20
60
 11
315
 21
110
  0
LINE
  8
ADD_LINE
  6
DOT
 62
    9
 10
85
 20
60
 11
85
 21
110
  0
LINE
  8
ADD_LINE
  6
DOT
 62
    9
 10
305
 20
60
 11
305
 21
110
  0
LINE
  8
_f-9_
  6
CONTINUOUS
 62
    7
 10
85
 20
60
 11
305
 21
60
  0
LINE
  8
_f-9_
  6
CONTINUOUS
 62
    7
 10
85
 20
110
 11
305
 21
110
  0
LINE
  8
_f-9_
  6
CONTINUOUS
 62
    7
 10
710
 20
60
 11
710
 21
110
  0
LINE
  8
_f-9_
  6
CONTINUOUS
 62
    7
 10
1105
 20
60
 11
1105
 21
110
  0
LINE
  8
_f-9_
  6
CONTINUOUS
 62
    7
 10
1110
 20
60
 11
1110
 21
110
  0
LINE
  8
_f-9_
  6
CONTINUOUS
 62
    7
 10
315
 20
60
 11
1105
 21
60
  0
LINE
  8
_f-9_
  6
CONTINUOUS
 62
    7
 10
315
 20
110
 11
1105
 21
110
  0
LINE
  8
_f-9_
  6
CONTINUOUS
 62
    7
 10
1355
 20
60
 11
1355
 21
110
  0
LINE
  8
_f-9_
  6
CONTINUOUS
 62
    7
 10
1360
 20
60
 11
1360
 21
110
  0
LINE
  8
_f-9_
  6
CONTINUOUS
 62
    7
 10
1110
 20
60
 11
1355
 21
60
  0
LINE
  8
_f-9_
  6
CONTINUOUS
 62
    7
 10
1110
 20
110
 11
1355
 21
110
  0
LINE
  8
_f-9_
  6
CONTINUOUS
 62
    7
 10
1510
 20
60
 11
1510
 21
110
  0
LINE
  8
_f-9_
  6
CONTINUOUS
 62
    7
 10
1660
 20
60
 11
1660
 21
110
  0
LINE
  8
_f-9_
  6
CONTINUOUS
 62
    7
 10
1850
 20
60
 11
1850
 21
110
  0
LINE
  8
_f-9_
  6
CONTINUOUS
 62
    7
 10
1360
 20
60
 11
2055
 21
60
  0
LINE
  8
_f-9_
  6
CONTINUOUS
 62
    7
 10
2055
 20
60
 11
2055
 21
110
  0
LINE
  8
_f-9_
  6
CONTINUOUS
 62
    7
 10
1360
 20
110
 11
2055
 21
110
  0
LINE
  8
_f-f_図面枠
  6
CONTINUOUS
 62
  230
 10
2065
 20
1430
 11
2065
 21
50
  0
LINE
  8
_f-f_図面枠
  6
CONTINUOUS
 62
  230
 10
75
 20
1430
 11
2065
 21
1430
  0
LINE
  8
_f-f_図面枠
  6
CONTINUOUS
 62
  230
 10
75
 20
50
 11
2065
 21
50
  0
LINE
  8
_f-f_図面枠
  6
CONTINUOUS
 62
  230
 10
75
 20
50
 11
75
 21
1430
  0
LINE
  8
ADD_LINE
  6
DOT
 62
    9
 10
315
 20
100
 11
1105
 21
100
  0
LINE
  8
ADD_LINE
  6
DOT
 62
    9
 10
1360
 20
100
 11
2055
 21
100
  0
LINE
  8
ADD_LINE
  6
DOT
 62
    9
 10
1370
 20
60
 11
1370
 21
110
  0
LINE
  8
ADD_LINE
  6
DOT
 62
    9
 10
1520
 20
60
 11
1520
 21
110
  0
LINE
  8
ADD_LINE
  6
DOT
 62
    9
 10
1670
 20
60
 11
1670
 21
110
  0
LINE
  8
ADD_LINE
  6
DOT
 62
    9
 10
1860
 20
60
 11
1860
 21
110
  0
LINE
  8
ADD_LINE
  6
DOT
 62
    9
 10
722.5
 20
60
 11
722.5
 21
110
  0
LINE
  8
ADD_LINE
  6
DOT
 62
    9
 10
327.5
 20
60
 11
327.5
 21
110
  0
LINE
  8
ADD_LINE
  6
DOT
 62
    9
 10
1830
 20
60
 11
1830
 21
110
  0
LINE
  8
ADD_LINE
  6
DOT
 62
    9
 10
1360
 20
80
 11
2055
 21
80
  0
TEXT
  8
_f-8_
 62
    7
 10
1520
 20
93.75
 40
12.5
 41
0.64
 50
0
  1
ＤＡＴＡ
  0
TEXT
  8
_f-8_
 62
    7
 10
1670
 20
93.75
 40
12.5
 41
0.64
 50
0
  1
ＣＨＥＣＫＥＤ
  0
TEXT
  8
_f-8_
 62
    7
 10
1860
 20
93.75
 40
12.5
 41
0.64
 50
0
  1
ＳＨＥＥＴ　ＮＯ．
  0
TEXT
  8
_f-8_
 62
    7
 10
1771
 20
93.75
 40
12.5
 41
0.64
 50
0
  1
ＤＲＡＷＩＮＧ
  0
LINE
  8
ADD_LINE
  6
DOT
 62
    9
 10
67.5
 20
32.5
 11
67.5
 21
1430
  0
LINE
  8
_f-9_
  6
CONTINUOUS
 62
    7
 10
85
 20
85
 11
305
 21
85
  0
LINE
  8
ADD_LINE
  6
DOT
 62
    9
 10
1455
 20
60
 11
1455
 21
110
  0
LINE
  8
ADD_LINE
  6
DOT
 62
    9
 10
1585
 20
60
 11
1585
 21
110
  0
LINE
  8
ADD_LINE
  6
DOT
 62
    9
 10
1750
 20
110
 11
1750
 21
60
  0
LINE
  8
ADD_LINE
  6
DOT
 62
    9
 10
315
 20
80
 11
1105
 21
80
  0
LINE
  8
ADD_LINE
  6
DOT
 62
    9
 10
512.5
 20
110
 11
512.5
 21
60
  0
TEXT
  8
_f-8_
 62
    7
 10
1370.1869920427106
 20
93.734686497424917
 40
12.5
 41
0.64
 50
0
  1
ＳＣＡＬＥ
  0
TEXT
  8
_f-8_
 62
    7
 10
722.5
 20
93.75
 40
12.5
 41
0.8
 50
0
  1
図面名称
  0
TEXT
  8
_f-8_
 62
    7
 10
327.5
 20
93.75
 40
12.5
 41
0.8
 50
0
  1
名　称
  0
LINE
  8
ADD_LINE
  6
DOT
 62
    9
 10
907.5
 20
60
 11
907.5
 21
110
  0
LINE
  8
_f-8_
  6
CONTINUOUS
 62
    7
 10
1082.5
 20
1436
 11
1083.075
 21
1437.0000000000002
  0
LINE
  8
_f-8_
  6
CONTINUOUS
 62
    7
 10
1079.3199999999999
 20
1438.5
 11
1082.5
 21
1433
  0
LINE
  8
_f-8_
  6
CONTINUOUS
 62
    7
 10
1082.5
 20
1433
 11
1085.6749999999999
 21
1438.5
  0
LINE
  8
_f-8_
  6
CONTINUOUS
 62
    7
 10
1082.5
 20
1430
 11
1088.2699999999999
 21
1440
  0
LINE
  8
_f-8_
  6
CONTINUOUS
 62
    7
 10
1076.7249999999999
 20
1440
 11
1082.5
 21
1430
  0
LINE
  8
_f-8_
  6
CONTINUOUS
 62
    7
 10
1088.2699999999999
 20
1440
 11
1076.7249999999999
 21
1440
  0
LINE
  8
_f-8_
  6
CONTINUOUS
 62
    7
 10
1081.92
 20
1437.0000000000002
 11
1082.5
 21
1436
  0
LINE
  8
_f-8_
  6
CONTINUOUS
 62
    7
 10
1083.075
 20
1437.0000000000002
 11
1081.92
 21
1437.0000000000002
  0
LINE
  8
_f-8_
  6
CONTINUOUS
 62
    7
 10
1085.6749999999999
 20
1438.5
 11
1079.3199999999999
 21
1438.5
  0
LINE
  8
_f-7_
  6
CONTINUOUS
 62
    7
 10
60
 20
731.33974596215568
 11
60
 21
748.66025403784431
  0
LINE
  8
_f-7_
  6
CONTINUOUS
 62
    7
 10
60
 20
748.66025403784431
 11
75
 21
740
  0
LINE
  8
_f-7_
  6
CONTINUOUS
 62
    7
 10
75
 20
740
 11
60
 21
731.33974596215568
  0
LINE
  8
_f-7_
  6
CONTINUOUS
 62
    7
 10
62.5
 20
735.66987298107778
 11
62.5
 21
744.33012701892221
  0
LINE
  8
_f-7_
  6
CONTINUOUS
 62
    7
 10
62.5
 20
744.33012701892221
 11
70
 21
740
  0
LINE
  8
_f-7_
  6
CONTINUOUS
 62
    7
 10
70
 20
740
 11
62.5
 21
735.66987298107778
  0
LINE
  8
_f-7_
  6
CONTINUOUS
 62
    7
 10
64.499999999999886
 20
739.13397459621546
 11
64.499999999999886
 21
740.86602540378453
  0
LINE
  8
_f-7_
  6
CONTINUOUS
 62
    7
 10
64.499999999999886
 20
740.86602540378453
 11
66.000000000000227
 21
740
  0
LINE
  8
_f-7_
  6
CONTINUOUS
 62
    7
 10
66.000000000000227
 20
740
 11
64.499999999999886
 21
739.13397459621546
  0
LINE
  8
_f-7_
  6
CONTINUOUS
 62
    7
 10
2080
 20
731.33974596215568
 11
2080
 21
748.66025403784431
  0
LINE
  8
_f-7_
  6
CONTINUOUS
 62
    7
 10
2080
 20
748.66025403784431
 11
2065
 21
740
  0
LINE
  8
_f-7_
  6
CONTINUOUS
 62
    7
 10
2065
 20
740
 11
2080
 21
731.33974596215568
  0
LINE
  8
_f-7_
  6
CONTINUOUS
 62
    7
 10
2077.5
 20
735.66987298107778
 11
2077.5
 21
744.33012701892221
  0
LINE
  8
_f-7_
  6
CONTINUOUS
 62
    7
 10
2077.5
 20
744.33012701892221
 11
2070
 21
740
  0
LINE
  8
_f-7_
  6
CONTINUOUS
 62
    7
 10
2070
 20
740
 11
2077.5
 21
735.66987298107778
  0
LINE
  8
_f-7_
  6
CONTINUOUS
 62
    7
 10
2075.5
 20
739.13397459621546
 11
2075.5
 21
740.86602540378453
  0
LINE
  8
_f-7_
  6
CONTINUOUS
 62
    7
 10
2075.5
 20
740.86602540378453
 11
2074
 21
740
  0
LINE
  8
_f-7_
  6
CONTINUOUS
 62
    7
 10
2074
 20
740
 11
2075.5
 21
739.13397459621546
  0
LINE
  8
ADD_LINE
  6
DOT
 62
    9
 10
537.5
 20
110
 11
537.5
 21
60
  0
LINE
  8
ADD_LINE
  6
DOT
 62
    9
 10
932.5
 20
60
 11
932.5
 21
110
  0
TEXT
  8
_f-d_固定文字
 62
    7
 10
75.007499999999964
 20
32.5
 40
10
 41
1
 50
0
  1
%f
  0
LINE
  8
ADD_LINE
  6
DOT
 62
    9
 10
1990
 20
32.5
 11
2065
 21
32.500001615014895
  0
TEXT
  8
_f-d_固定文字
 62
    7
 10
1994.5
 20
32.500001615014895
 40
10
 41
1
 50
0
  1
%y
  0
TEXT
  8
_f-d_固定文字
 62
    7
 10
2010
 20
32.500001615014895
 40
10
 41
1
 50
0
  1
．
  0
TEXT
  8
_f-d_固定文字
 62
    7
 10
2024.5
 20
32.500001615014895
 40
10
 41
1
 50
0
  1
%m
  0
TEXT
  8
_f-d_固定文字
 62
    7
 10
2040
 20
32.500001615014895
 40
10
 41
1
 50
0
  1
．
  0
TEXT
  8
_f-d_固定文字
 62
    7
 10
2054.5
 20
32.500001615014895
 40
10
 41
1
 50
0
  1
%d
  0
TEXT
  8
_f-8_
 62
    7
 10
1430.5
 20
71.25
 40
17.5
 41
0.5714285714285713
 50
0
  1
１／５
  0
LINE
  8
_0-0_
  6
CONTINUOUS
 62
    7
 10
1361.507874015748
 20
268.87514060742381
 11
1373.5078740157478
 21
268.87514060742381
  0
LINE
  8
_0-0_
  6
CONTINUOUS
 62
    7
 10
1373.5078740157478
 20
268.87514060742381
 11
1373.5078740157478
 21
408.87514060742398
  0
LINE
  8
_0-0_
  6
CONTINUOUS
 62
    7
 10
1373.5078740157478
 20
408.87514060742398
 11
1361.507874015748
 21
408.87514060742398
  0
LINE
  8
_0-0_
  6
CONTINUOUS
 62
    7
 10
1361.507874015748
 20
408.87514060742398
 11
1361.507874015748
 21
268.87514060742381
  0
LINE
  8
_0-0_
  6
CONTINUOUS
 62
    7
 10
1373.5078740157478
 20
268.87514060742381
 11
1853.5078740157482
 21
268.87514060742381
  0
LINE
  8
_0-0_
  6
CONTINUOUS
 62
    7
 10
1853.5078740157482
 20
268.87514060742381
 11
1853.5078740157482
 21
318.87514060742381
  0
LINE
  8
_0-0_
  6
CONTINUOUS
 62
    7
 10
1853.5078740157482
 20
318.87514060742381
 11
1373.5078740157478
 21
318.87514060742381
  0
LINE
  8
_0-0_
  6
CONTINUOUS
 62
    7
 10
1373.5078740157478
 20
318.87514060742381
 11
1373.5078740157478
 21
268.87514060742381
  0
LINE
  8
_1-2_
  6
CONTINUOUS
 62
    4
 10
1680.8600870667848
 20
212.82321772115523
 11
1555.8600870667851
 21
212.82321772115523
  0
LINE
  8
_1-2_
  6
CONTINUOUS
 62
    4
 10
1680.8600870667848
 20
177.82321772115523
 11
1680.8600870667848
 21
212.82321772115523
  0
LINE
  8
_1-2_
  6
CONTINUOUS
 62
    4
 10
1555.8600870667851
 20
177.82321772115523
 11
1680.8600870667848
 21
177.82321772115523
  0
LINE
  8
_1-2_
  6
CONTINUOUS
 62
    4
 10
1555.8600870667851
 20
212.82321772115523
 11
1555.8600870667851
 21
177.82321772115523
  0
LINE
  8
ADD_LINE
  6
DOT
 62
    9
 10
1680.8600870667848
 20
195.32321772115523
 11
1555.8600870667846
 21
195.32321772115523
  0
LINE
  8
ADD_LINE
  6
DOT
 62
    9
 10
1618.3600870667848
 20
177.82321772115523
 11
1618.3600870667848
 21
212.82321772115523
  0
TEXT
  8
_1-2_
 62
    7
 10
1594.8600870667848
 20
186.57321772115523
 40
17.5
 41
0.857142857142857
 50
0
  1
断面図
  0
LINE
  8
ADD_LINE
  6
DOT
 62
    9
 10
2065
 20
1430
 11
2057.5
 21
1430
  0
LINE
  8
ADD_LINE
  6
DOT
 62
    9
 10
2057.5
 20
1430
 11
2057.5
 21
1422.5
  0
LINE
  8
ADD_LINE
  6
DOT
 62
    9
 10
2057.5
 20
1422.5
 11
2065
 21
1422.5
  0
LINE
  8
ADD_LINE
  6
DOT
 62
    9
 10
2065
 20
1422.5
 11
2065
 21
1430
  0
LINE
  8
ADD_LINE
  6
DOT
 62
    9
 10
2057.5
 20
1430
 11
2057.5
 21
1422.5
  0
LINE
  8
_1-2_
  6
CONTINUOUS
 62
    7
 10
2057.5
 20
1392.5
 11
1557.5
 21
1392.5
  0
LINE
  8
_1-2_
  6
CONTINUOUS
 62
    7
 10
2057.5
 20
1395
 11
1557.5
 21
1395
  0
LINE
  8
_1-2_
  6
CONTINUOUS
 62
    7
 10
2057.5
 20
1365.4999999999997
 11
1557.5
 21
1365.4999999999997
  0
LINE
  8
_1-2_
  6
CONTINUOUS
 62
    3
 10
2057.5
 20
1422.5
 11
1557.5
 21
1422.5
  0
LINE
  8
ADD_LINE
  6
DOT
 62
    9
 10
1557.5
 20
1408.75
 11
2057.5
 21
1408.75
  0
LINE
  8
ADD_LINE
  6
DOT
 62
    9
 10
1557.5
 20
1378.9999999999997
 11
2057.5
 21
1378.9999999999997
  0
LINE
  8
ADD_LINE
  6
DOT
 62
    9
 10
1557.5
 20
1351.9999999999995
 11
2057.5
 21
1351.9999999999995
  0
LINE
  8
ADD_LINE
  6
DOT
 62
    9
 10
1828.7502500000005
 20
1395
 11
1828.7502500000005
 21
1422.5
  0
LINE
  8
_1-2_
  6
CONTINUOUS
 62
    3
 10
1557.5
 20
1422.5
 11
1557.5
 21
1338.4999999999995
  0
LINE
  8
_1-2_
  6
CONTINUOUS
 62
    3
 10
2057.5
 20
1338.4999999999995
 11
2057.5
 21
1422.5
  0
LINE
  8
_1-2_
  6
CONTINUOUS
 62
    7
 10
1662.5
 20
1392.5
 11
1662.5
 21
1338.4999999999995
  0
LINE
  8
ADD_LINE
  6
DOT
 62
    9
 10
1610
 20
1392.5
 11
1610
 21
1338.4999999999995
  0
LINE
  8
ADD_LINE
  6
DOT
 62
    9
 10
1672.5
 20
1422.5
 11
1672.5
 21
1338.4999999999995
  0
LINE
  8
_1-2_
  6
CONTINUOUS
 62
    3
 10
2057.5
 20
1338.4999999999995
 11
1557.5
 21
1338.4999999999995
  0
TEXT
  8
_1-2_
 62
    7
 10
1579.9250000000004
 20
1370.2499999999997
 40
17.5
 41
0.857142857142857
 50
0
  1
側　　板
  0
TEXT
  8
_1-2_
 62
    7
 10
1672.5
 20
1370.2499999999997
 40
17.5
 41
0.7714285714285714
 50
0
  1
低圧メラミン化粧パーティクルボード　１５ｔ
  0
TEXT
  8
_1-2_
 62
    7
 10
1672.5
 20
1343.2499999999995
 40
17.5
 41
0.7714285714285714
 50
0
  1
片面化粧パーティクルボード　１２ｔ
  0
TEXT
  8
_1-2_
 62
    7
 10
1579.9250000000004
 20
1343.2499999999995
 40
17.5
 41
0.857142857142857
 50
0
  1
前　　板
  0
TEXT
  8
_1-2_
 62
    7
 10
1672.5
 20
1400
 40
17.5
 41
0.857142857142857
 50
0
  1
仕　　　　様
  0
LINE
  8
_0-2_
  6
CONTINUOUS
 62
    5
 10
335.60412534507094
 20
1262.3681153823461
 11
360.35286268660001
 21
1287.1168527238753
  0
LINE
  8
_0-2_
  6
CONTINUOUS
 62
    5
 10
335.60412534507094
 20
1262.3681153823461
 11
334.89701856388421
 21
1263.0752221635327
  0
LINE
  8
_0-2_
  6
CONTINUOUS
 62
    5
 10
360.35286268660001
 20
1287.1168527238753
 11
359.64575590541329
 21
1287.8239595050617
  0
LINE
  8
_0-2_
  6
CONTINUOUS
 62
    5
 10
334.89701856388421
 20
1282.8742120367562
 11
339.84676603219014
 21
1287.8239595050617
  0
LINE
  8
_0-2_
  6
CONTINUOUS
 62
    5
 10
359.64575590541329
 20
1287.8239595050617
 11
339.84676603219014
 21
1287.8239595050617
  0
LINE
  8
_0-2_
  6
CONTINUOUS
 62
    5
 10
334.89701856388421
 20
1263.0752221635327
 11
334.89701856388421
 21
1282.8742120367562
  0
LINE
  8
_0-0_
  6
CONTINUOUS
 62
    7
 10
1214.9457559054133
 20
826.8239595050619
 11
319.9457559054133
 21
826.8239595050619
  0
LINE
  8
_0-0_
  6
CONTINUOUS
 62
    7
 10
319.9457559054133
 20
826.8239595050619
 11
319.9457559054133
 21
814.8239595050619
  0
LINE
  8
_0-0_
  6
CONTINUOUS
 62
    7
 10
319.9457559054133
 20
826.8239595050619
 11
334.9457559054133
 21
826.8239595050619
  0
LINE
  8
_0-0_
  6
CONTINUOUS
 62
    7
 10
334.9457559054133
 20
826.8239595050619
 11
334.9457559054133
 21
1306.8239595050617
  0
LINE
  8
_0-0_
  6
CONTINUOUS
 62
    7
 10
334.9457559054133
 20
1306.8239595050617
 11
319.9457559054133
 21
1306.8239595050617
  0
LINE
  8
_0-0_
  6
CONTINUOUS
 62
    7
 10
319.9457559054133
 20
1306.8239595050617
 11
319.9457559054133
 21
826.8239595050619
  0
LINE
  8
_0-0_
  6
CONTINUOUS
 62
    7
 10
1199.9457559054133
 20
1291.8239595050617
 11
334.9457559054133
 21
1291.8239595050617
  0
LINE
  8
_0-0_
  6
CONTINUOUS
 62
    7
 10
334.9457559054133
 20
1291.8239595050617
 11
334.9457559054133
 21
1306.8239595050617
  0
LINE
  8
_0-2_
  6
CONTINUOUS
 62
    2
 10
334.9457559054133
 20
1291.8239595050617
 11
359.64575590541329
 21
1291.8239595050617
  0
LINE
  8
_0-2_
  6
CONTINUOUS
 62
    2
 10
359.64575590541329
 20
1291.8239595050617
 11
359.64575590541329
 21
1287.8239595050617
  0
LINE
  8
_0-2_
  6
CONTINUOUS
 62
    2
 10
359.64575590541329
 20
1287.8239595050617
 11
334.9457559054133
 21
1287.8239595050617
  0
LINE
  8
_0-2_
  6
CONTINUOUS
 62
    2
 10
334.9457559054133
 20
1287.8239595050617
 11
334.9457559054133
 21
1291.8239595050617
  0
LINE
  8
_0-2_
  6
CONTINUOUS
 62
    5
 10
360.35185255982327
 20
827.53106628624834
 11
335.60311521829419
 21
852.27980362777771
  0
LINE
  8
_0-2_
  6
CONTINUOUS
 62
    5
 10
360.35185255982327
 20
827.53106628624834
 11
359.64474577863654
 21
826.8239595050619
  0
LINE
  8
_0-2_
  6
CONTINUOUS
 62
    5
 10
335.60311521829419
 20
852.27980362777771
 11
334.89600843710746
 21
851.57269684659104
  0
LINE
  8
_0-2_
  6
CONTINUOUS
 62
    5
 10
339.84575590541339
 20
826.8239595050619
 11
334.89600843710746
 21
831.77370697336777
  0
LINE
  8
_0-2_
  6
CONTINUOUS
 62
    5
 10
334.89600843710746
 20
851.57269684659104
 11
334.89600843710746
 21
831.77370697336777
  0
LINE
  8
_0-2_
  6
CONTINUOUS
 62
    5
 10
359.64474577863654
 20
826.8239595050619
 11
339.84575590541339
 21
826.8239595050619
  0
LINE
  8
_0-2_
  6
CONTINUOUS
 62
    7
 10
339.84575590541339
 20
826.8239595050619
 11
334.9457559054133
 21
826.8239595050619
  0
LINE
  8
_1-2_
  6
CONTINUOUS
 62
    4
 10
830.29327142713896
 20
177.82321772115523
 11
830.29327142713896
 21
212.82321772115523
  0
LINE
  8
_1-2_
  6
CONTINUOUS
 62
    4
 10
830.29327142713896
 20
212.82321772115523
 11
705.29327142713896
 21
212.82321772115523
  0
LINE
  8
_1-2_
  6
CONTINUOUS
 62
    4
 10
705.29327142713896
 20
177.82321772115523
 11
830.29327142713896
 21
177.82321772115523
  0
LINE
  8
_1-2_
  6
CONTINUOUS
 62
    4
 10
705.29327142713896
 20
212.82321772115523
 11
705.29327142713896
 21
177.82321772115523
  0
LINE
  8
ADD_LINE
  6
DOT
 62
    9
 10
830.29327142713873
 20
195.32321772115523
 11
705.29327142713873
 21
195.32321772115523
  0
LINE
  8
ADD_LINE
  6
DOT
 62
    9
 10
767.79327142713873
 20
177.82321772115523
 11
767.79327142713873
 21
212.82321772115523
  0
TEXT
  8
_1-2_
 62
    7
 10
744.29327142713873
 20
186.57321772115523
 40
17.5
 41
0.857142857142857
 50
0
  1
立面図
  0
LINE
  8
_0-0_
  6
CONTINUOUS
 62
    7
 10
319.9457559054133
 20
409.46569178852649
 11
319.9457559054133
 21
269.46569178852632
  0
LINE
  8
_1-2_
  6
CONTINUOUS
 62
    4
 10
830.29327142713896
 20
669.8239595050619
 11
705.29327142713896
 21
669.8239595050619
  0
LINE
  8
_1-2_
  6
CONTINUOUS
 62
    4
 10
705.29327142713896
 20
669.8239595050619
 11
705.29327142713896
 21
704.8239595050619
  0
LINE
  8
_1-2_
  6
CONTINUOUS
 62
    4
 10
705.29327142713896
 20
704.8239595050619
 11
830.29327142713896
 21
704.8239595050619
  0
LINE
  8
_1-2_
  6
CONTINUOUS
 62
    4
 10
830.29327142713896
 20
704.8239595050619
 11
830.29327142713896
 21
669.8239595050619
  0
TEXT
  8
_1-2_
 62
    7
 10
744.29327142713896
 20
678.5739595050619
 40
17.5
 41
0.857142857142857
 50
0
  1
平面図
  0
LINE
  8
ADD_LINE
  6
DOT
 62
    9
 10
705.29327142713918
 20
687.32395950506202
 11
830.29327142713918
 21
687.32395950506202
  0
LINE
  8
ADD_LINE
  6
DOT
 62
    9
 10
767.79327142713918
 20
669.82395950506202
 11
767.79327142713918
 21
704.82395950506202
  0
LINE
  8
ADD_LINE
  6
DOT
 62
    9
 10
334.9457559054133
 20
1336.8239595050617
 11
1199.9457559054133
 21
1336.8239595050617
  0
LINE
  8
ADD_LINE
  6
DOT
 62
    9
 10
222.44140492031647
 20
1396.8239595050617
 11
295.73539633662562
 21
1396.8239595050617
  0
LINE
  8
ADD_LINE
  6
DOT
 62
    9
 10
1214.9457559054133
 20
439.46569178852649
 11
319.9457559054133
 21
439.46569178852649
  0
LINE
  8
ADD_LINE
  6
DOT
 62
    9
 10
302.10878689456535
 20
559.46569178852644
 11
268.64848646538092
 21
559.46569178852644
  0
LINE
  8
ADD_LINE
  6
DOT
 62
    9
 10
302.10878689456535
 20
499.46569178852649
 11
268.64848646538092
 21
499.46569178852649
  0
LINE
  8
ADD_LINE
  6
DOT
 62
    9
 10
289.9457559054133
 20
409.46569178852649
 11
289.9457559054133
 21
269.46569178852632
  0
LINE
  8
ADD_LINE
  6
DOT
 62
    9
 10
229.9457559054133
 20
266.0890557939914
 11
229.9457559054133
 21
211.91523605150217
  0
LINE
  8
ADD_LINE
  6
DOT
 62
    9
 10
169.9457559054133
 20
266.0890557939914
 11
169.9457559054133
 21
211.91523605150217
  0
LINE
  8
_0-3_
  6
CONTINUOUS
 62
    4
 10
319.9457559054133
 20
1401.8239595050617
 11
319.9457559054133
 21
1336.8239595050617
  0
LINE
  8
_0-3_
  6
CONTINUOUS
 62
    4
 10
319.9457559054133
 20
564.46569178852644
 11
319.9457559054133
 21
439.46569178852649
  0
LINE
  8
_0-3_
  6
CONTINUOUS
 62
    4
 10
224.9457559054133
 20
269.46569178852632
 11
289.9457559054133
 21
269.46569178852632
  0
LINE
  8
_0-3_
  6
CONTINUOUS
 62
    4
 10
224.9457559054133
 20
319.46569178852632
 11
289.9457559054133
 21
319.46569178852632
  0
LINE
  8
_0-3_
  6
CONTINUOUS
 62
    4
 10
229.9457559054133
 20
269.46569178852632
 11
229.9457559054133
 21
319.46569178852632
  0
TEXT
  8
_0-3_
 62
    7
 10
227.4457559054133
 20
284.44069178852635
 40
15
 41
0.6666666666666666
 50
90
  1
５０
  0
LINE
  8
_0-3_
  6
CONTINUOUS
 62
    4
 10
164.9457559054133
 20
269.46569178852632
 11
289.9457559054133
 21
269.46569178852632
  0
LINE
  8
_0-3_
  6
CONTINUOUS
 62
    4
 10
164.9457559054133
 20
409.46569178852649
 11
289.9457559054133
 21
409.46569178852649
  0
LINE
  8
_0-3_
  6
CONTINUOUS
 62
    4
 10
169.9457559054133
 20
269.46569178852632
 11
169.9457559054133
 21
409.46569178852649
  0
TEXT
  8
_0-3_
 62
    7
 10
167.4457559054133
 20
324.41569178852637
 40
15
 41
0.6666666666666666
 50
90
  1
１４０
  0
LINE
  8
_0-3_
  6
CONTINUOUS
 62
    4
 10
1361.507874015748
 20
504.46569178852649
 11
1361.507874015748
 21
439.46569178852649
  0
LINE
  8
_0-3_
  6
CONTINUOUS
 62
    4
 10
1373.5078740157478
 20
504.46569178852649
 11
1373.5078740157478
 21
439.46569178852649
  0
POINT
  8
_0-3_
 62
    3
 10
1361.507874015748
 20
559.46569178852644
  0
POINT
  8
_0-3_
 62
    3
 10
1853.5078740157482
 20
559.46569178852644
  0
LINE
  8
_0-3_
  6
CONTINUOUS
 62
    4
 10
1361.507874015748
 20
564.46569178852644
 11
1361.507874015748
 21
439.46569178852649
  0
LINE
  8
_0-3_
  6
CONTINUOUS
 62
    4
 10
1853.5078740157482
 20
564.46569178852644
 11
1853.5078740157482
 21
439.46569178852649
  0
LINE
  8
_0-3_
  6
CONTINUOUS
 62
    4
 10
1361.507874015748
 20
559.46569178852644
 11
1853.5078740157482
 21
559.46569178852644
  0
TEXT
  8
_0-3_
 62
    7
 10
1590.957874015748
 20
561.96569178852644
 40
17.5
 41
0.6285714285714286
 50
0
  1
４９２
  0
POINT
  8
_0-3_
 62
    3
 10
319.9457559054133
 20
559.46569178852644
  0
POINT
  8
_0-3_
 62
    3
 10
319.9457559054133
 20
1396.8239595050617
  0
POINT
  8
_0-3_
 62
    3
 10
169.9457559054133
 20
409.46569178852649
  0
POINT
  8
_0-3_
 62
    3
 10
169.9457559054133
 20
269.46569178852632
  0
POINT
  8
_0-3_
 62
    3
 10
229.9457559054133
 20
269.46569178852632
  0
POINT
  8
_0-3_
 62
    3
 10
229.9457559054133
 20
319.46569178852632
  0
POINT
  8
_0-3_
 62
    3
 10
1361.507874015748
 20
499.46569178852649
  0
POINT
  8
_0-3_
 62
    3
 10
1373.5078740157478
 20
499.46569178852649
  0
LINE
  8
_0-3_
  6
CONTINUOUS
 62
    4
 10
1361.507874015748
 20
499.46569178852649
 11
1373.5078740157478
 21
499.46569178852649
  0
TEXT
  8
_0-3_
 62
    7
 10
1376.5115624251689
 20
502.01392086794737
 40
15
 41
0.6666666666666666
 50
0
  1
１２
  0
LINE
  8
_0-3_
  6
CONTINUOUS
 62
    4
 10
1373.5078740157478
 20
499.46569178852649
 11
1400.1535301810679
 21
499.46569178852649
  0
TEXT
  8
_0-3_
 62
    7
 10
422.22103004291847
 20
68.513948497854073
 40
22.5
 41
0.8
 50
0
  1
高さ調整用　台輪
  0
TEXT
  8
_0-3_
 62
    7
 10
790.28433476394855
 20
68.513948497854073
 40
22.5
 41
0.6666666666666666
 50
0
  1
ＫＴＢ５－８０－９０台輪
  0
TEXT
  8
_f-8_
 62
    7
 10
1528.0042918454935
 20
71.25
 40
17.5
 41
0.5714285714285713
 50
0
  1
２０２３.０５.０１
  0
TEXT
  8
_f-8_
 62
    7
 10
1792.5
 20
71.25
 40
17.5
 41
0.5714285714285713
 50
0
  1
Ｔ．Ｋ
  0
LINE
  8
_0-0_
  6
CONTINUOUS
 62
    7
 10
761.9457559054133
 20
1291.8239595050617
 11
776.9457559054133
 21
1291.8239595050617
  0
LINE
  8
_0-0_
  6
CONTINUOUS
 62
    7
 10
776.9457559054133
 20
1291.8239595050617
 11
776.9457559054133
 21
826.8239595050619
  0
LINE
  8
_0-0_
  6
CONTINUOUS
 62
    7
 10
776.9457559054133
 20
826.8239595050619
 11
761.9457559054133
 21
826.8239595050619
  0
LINE
  8
_0-0_
  6
CONTINUOUS
 62
    7
 10
761.9457559054133
 20
826.8239595050619
 11
761.9457559054133
 21
1291.8239595050617
  0
LINE
  8
_0-2_
  6
CONTINUOUS
 62
    2
 10
776.9457559054133
 20
826.8239595050619
 11
806.9457559054133
 21
826.8239595050619
  0
LINE
  8
_0-2_
  6
CONTINUOUS
 62
    2
 10
806.9457559054133
 20
826.8239595050619
 11
806.9457559054133
 21
841.8239595050619
  0
LINE
  8
_0-2_
  6
CONTINUOUS
 62
    2
 10
806.9457559054133
 20
841.8239595050619
 11
776.9457559054133
 21
841.8239595050619
  0
LINE
  8
_0-2_
  6
CONTINUOUS
 62
    2
 10
776.9457559054133
 20
841.8239595050619
 11
776.9457559054133
 21
826.8239595050619
  0
LINE
  8
_0-0_
  6
DASHED2
 62
    7
 10
769.4457559054133
 20
1306.8239595050617
 11
769.4457559054133
 21
826.8239595050619
  0
LINE
  8
_0-2_
  6
CONTINUOUS
 62
    5
 10
1178.5386491242265
 20
1287.1168527238753
 11
1203.287386465756
 21
1262.3681153823461
  0
LINE
  8
_0-2_
  6
CONTINUOUS
 62
    5
 10
1178.5386491242265
 20
1287.1168527238753
 11
1179.2457559054132
 21
1287.8239595050617
  0
LINE
  8
_0-2_
  6
CONTINUOUS
 62
    5
 10
1203.287386465756
 20
1262.3681153823461
 11
1203.9944932469425
 21
1263.0752221635327
  0
LINE
  8
_0-2_
  6
CONTINUOUS
 62
    5
 10
1199.0447457786367
 20
1287.8239595050617
 11
1203.9944932469425
 21
1282.874212036756
  0
LINE
  8
_0-2_
  6
CONTINUOUS
 62
    5
 10
1203.9944932469425
 20
1263.0752221635327
 11
1203.9944932469425
 21
1282.874212036756
  0
LINE
  8
_0-2_
  6
CONTINUOUS
 62
    5
 10
1179.2457559054132
 20
1287.8239595050617
 11
1199.0447457786367
 21
1287.8239595050617
  0
LINE
  8
_0-0_
  6
CONTINUOUS
 62
    7
 10
1218.9457559054133
 20
826.8239595050619
 11
1203.9457559054133
 21
826.8239595050619
  0
LINE
  8
_0-0_
  6
CONTINUOUS
 62
    7
 10
1203.9457559054133
 20
826.8239595050619
 11
1203.9457559054133
 21
1306.8239595050617
  0
LINE
  8
_0-0_
  6
CONTINUOUS
 62
    7
 10
1203.9457559054133
 20
1306.8239595050617
 11
1218.9457559054133
 21
1306.8239595050617
  0
LINE
  8
_0-0_
  6
CONTINUOUS
 62
    7
 10
1218.9457559054133
 20
1306.8239595050617
 11
1218.9457559054133
 21
826.8239595050619
  0
LINE
  8
_0-0_
  6
CONTINUOUS
 62
    7
 10
1203.9457559054133
 20
1306.8239595050617
 11
1203.9457559054133
 21
1291.8239595050617
  0
LINE
  8
_0-2_
  6
CONTINUOUS
 62
    2
 10
1203.9457559054133
 20
1291.8239595050617
 11
1179.2457559054132
 21
1291.8239595050617
  0
LINE
  8
_0-2_
  6
CONTINUOUS
 62
    2
 10
1179.2457559054132
 20
1291.8239595050617
 11
1179.2457559054132
 21
1287.8239595050617
  0
LINE
  8
_0-2_
  6
CONTINUOUS
 62
    2
 10
1179.2457559054132
 20
1287.8239595050617
 11
1203.9457559054133
 21
1287.8239595050617
  0
LINE
  8
_0-2_
  6
CONTINUOUS
 62
    2
 10
1203.9457559054133
 20
1287.8239595050617
 11
1203.9457559054133
 21
1291.8239595050617
  0
LINE
  8
_0-2_
  6
CONTINUOUS
 62
    5
 10
1203.2883965925325
 20
852.27980362777771
 11
1178.5396592510035
 21
827.53106628624846
  0
LINE
  8
_0-2_
  6
CONTINUOUS
 62
    5
 10
1203.2883965925325
 20
852.27980362777771
 11
1203.9955033737192
 21
851.57269684659104
  0
LINE
  8
_0-2_
  6
CONTINUOUS
 62
    5
 10
1178.5396592510035
 20
827.53106628624846
 11
1179.2467660321901
 21
826.8239595050619
  0
LINE
  8
_0-2_
  6
CONTINUOUS
 62
    5
 10
1203.9955033737192
 20
831.77370697336766
 11
1199.0457559054134
 21
826.8239595050619
  0
LINE
  8
_0-2_
  6
CONTINUOUS
 62
    5
 10
1179.2467660321901
 20
826.8239595050619
 11
1199.0457559054134
 21
826.8239595050619
  0
LINE
  8
_0-2_
  6
CONTINUOUS
 62
    5
 10
1203.9955033737192
 20
851.57269684659104
 11
1203.9955033737192
 21
831.77370697336766
  0
LINE
  8
_0-2_
  6
CONTINUOUS
 62
    7
 10
1199.0457559054134
 20
826.8239595050619
 11
1203.9457559054133
 21
826.8239595050619
  0
LINE
  8
_0-3_
  6
CONTINUOUS
 62
    4
 10
1218.9457559054133
 20
1401.8239595050617
 11
1218.9457559054133
 21
1336.8239595050617
  0
LINE
  8
_0-3_
  6
CONTINUOUS
 62
    4
 10
1218.9457559054133
 20
564.46569178852644
 11
1218.9457559054133
 21
439.46569178852649
  0
POINT
  8
_0-3_
 62
    3
 10
1218.9457559054133
 20
559.46569178852644
  0
POINT
  8
_0-3_
 62
    3
 10
1218.9457559054133
 20
1396.8239595050617
  0
LINE
  8
_0-0_
  6
CONTINUOUS
 62
    7
 10
334.9457559054133
 20
1306.8239595050617
 11
1203.9457559054133
 21
1306.8239595050617
  0
LINE
  8
_0-0_
  6
CONTINUOUS
 62
    7
 10
319.9457559054133
 20
814.8239595050619
 11
1218.9457559054133
 21
814.8239595050619
  0
LINE
  8
_0-0_
  6
CONTINUOUS
 62
    7
 10
1218.9457559054133
 20
814.8239595050619
 11
1218.9457559054133
 21
826.8239595050619
  0
LINE
  8
_0-0_
  6
CONTINUOUS
 62
    7
 10
1218.9457559054133
 20
409.46569178852649
 11
319.9457559054133
 21
409.46569178852649
  0
LINE
  8
_0-0_
  6
CONTINUOUS
 62
    7
 10
1218.9457559054133
 20
269.46569178852632
 11
1218.9457559054133
 21
409.46569178852649
  0
LINE
  8
_0-0_
  6
CONTINUOUS
 62
    7
 10
319.9457559054133
 20
269.46569178852632
 11
1218.9457559054133
 21
269.46569178852632
  0
LINE
  8
_0-0_
  6
DASHED1
 62
    7
 10
319.9457559054133
 20
319.46569178852632
 11
1218.9457559054133
 21
319.46569178852632
  0
POINT
  8
_0-3_
 62
    3
 10
319.9457559054133
 20
559.46569178852644
  0
POINT
  8
_0-3_
 62
    3
 10
1218.9457559054133
 20
559.46569178852644
  0
LINE
  8
_0-3_
  6
CONTINUOUS
 62
    4
 10
319.9457559054133
 20
559.46569178852644
 11
1218.9457559054133
 21
559.46569178852644
  0
TEXT
  8
_0-3_
 62
    7
 10
752.89575590541335
 20
561.96569178852644
 40
17.5
 41
0.6285714285714286
 50
0
  1
８９９
  0
POINT
  8
_0-3_
 62
    3
 10
319.9457559054133
 20
1396.8239595050617
  0
POINT
  8
_0-3_
 62
    3
 10
1218.9457559054133
 20
1396.8239595050617
  0
POINT
  8
_0-3_
 62
    3
 10
319.9457559054133
 20
1396.8239595050617
  0
POINT
  8
_0-3_
 62
    3
 10
769.4457559054133
 20
1396.8239595050617
  0
LINE
  8
_0-3_
  6
CONTINUOUS
 62
    4
 10
319.9457559054133
 20
1401.8239595050617
 11
319.9457559054133
 21
1336.8239595050617
  0
LINE
  8
_0-3_
  6
CONTINUOUS
 62
    4
 10
769.4457559054133
 20
1401.8239595050617
 11
769.4457559054133
 21
1336.8239595050617
  0
LINE
  8
_0-3_
  6
CONTINUOUS
 62
    4
 10
319.9457559054133
 20
1396.8239595050617
 11
769.4457559054133
 21
1396.8239595050617
  0
TEXT
  8
_0-3_
 62
    7
 10
519.85825590541332
 20
1399.3239595050617
 40
17.5
 41
0.6285714285714286
 50
0
  1
４４９.５
  0
POINT
  8
_0-3_
 62
    3
 10
1218.9457559054133
 20
1396.8239595050617
  0
LINE
  8
_0-3_
  6
CONTINUOUS
 62
    4
 10
1218.9457559054133
 20
1401.8239595050617
 11
1218.9457559054133
 21
1336.8239595050617
  0
LINE
  8
_0-3_
  6
CONTINUOUS
 62
    4
 10
769.4457559054133
 20
1396.8239595050617
 11
1218.9457559054133
 21
1396.8239595050617
  0
TEXT
  8
_0-3_
 62
    7
 10
969.35825590541321
 20
1399.3239595050617
 40
17.5
 41
0.6285714285714286
 50
0
  1
４４９.５
  0
ENDSEC
  0
EOF
