  0
SECTION
  2
HEADER
  9
$ACADVER
  1
AC1009
  9
$INSBASE
 10
0
 20
0
 30
0
  9
$EXTMIN
 10
0
 20
0
  9
$EXTMAX
 10
4200
 20
2970
  9
$LIMMIN
 10
0
 20
0
  9
$LIMMAX
 10
4200
 20
2970
  9
$LTSCALE
 40
10
  0
ENDSEC
  0
SECTION
  2
TABLES
  0
TABLE
  2
LTYPE
 70
     9
  0
LTYPE
  2
CONTINUOUS
 70
    64
  3
実線
 72
    65
 73
     0
 40
0.0
  0
LTYPE
  2
DASHED1
 70
    64
  3
--  --  --  --  --  --  --  --  
 72
    65
 73
     2
 40
2.5
 49
1.25
 49
-1.25
  0
LTYPE
  2
DASHED2
 70
    64
  3
----    ----    ----    ----    
 72
    65
 73
     2
 40
5.0
 49
2.5
 49
-2.5
  0
LTYPE
  2
DASHED3
 70
    64
  3
------  ------  ------  ------  
 72
    65
 73
     2
 40
5.0
 49
3.75
 49
-1.25
  0
LTYPE
  2
CENTER1
 70
    64
  3
----- - ----- - ----- - ----- - 
 72
    65
 73
     4
 40
10.0
 49
6.25
 49
-1.25
 49
1.25
 49
-1.25
  0
LTYPE
  2
CENTER2
 70
    64
  3
----------  --  ----------  --  
 72
    65
 73
     4
 40
20.0
 49
12.5
 49
-2.5
 49
2.5
 49
-2.5
  0
LTYPE
  2
PHANTOM1
 70
    64
  3
--- - - --- - - --- - - --- - - 
 72
    65
 73
     6
 40
10.0
 49
3.25
 49
-1.25
 49
1.25
 49
-1.25
 49
1.25
 49
-1.25
  0
LTYPE
  2
PHANTOM2
 70
    64
  3
--------  -  -  --------  -  -  
 72
    65
 73
     6
 40
20.0
 49
10.0
 49
-2.5
 49
1.25
 49
-2.5
 49
1.25
 49
-2.5
  0
LTYPE
  2
DOT
 70
    64
  3
-   -   -   -   -   -   -   -   
 72
    65
 73
     2
 40
2.5
 49
0.625
 49
-1.875
  0
LTYPE
  2
DUMMY
 70
    64
  3
ダミー
 72
    65
 73
     0
 40
0.0
  0
LTYPE
  2
RAND1
 70
    64
  3
ランダム線1
 72
    65
 73
     4
 40
10.0
 49
1.0
 49
-2.0
 49
3.0
 49
-4.0
  0
LTYPE
  2
RAND2
 70
    64
  3
ランダム線2
 72
    65
 73
     4
 40
14.0
 49
2.0
 49
-3.0
 49
4.0
 49
-5.0
  0
LTYPE
  2
RAND3
 70
    64
  3
ランダム線3
 72
    65
 73
     4
 40
18.0
 49
3.0
 49
-4.0
 49
5.0
 49
-6.0
  0
LTYPE
  2
RAND4
 70
    64
  3
ランダム線4
 72
    65
 73
     4
 40
22.0
 49
4.0
 49
-5.0
 49
6.0
 49
-7.0
  0
LTYPE
  2
RAND5
 70
    64
  3
ランダム線5
 72
    65
 73
     4
 40
26.0
 49
5.0
 49
-6.0
 49
7.0
 49
-8.0
  0
LTYPE
  2
LONG1
 70
    64
  3
----------  --  ----------  --  
 72
    65
 73
     4
 40
40.0
 49
32.5
 49
-2.5
 49
2.5
 49
-2.5
  0
LTYPE
  2
LONG2
 70
    64
  3
--------  -  -  --------  -  -  
 72
    65
 73
     6
 40
40.0
 49
30.0
 49
-2.5
 49
1.25
 49
-2.5
 49
1.25
 49
-2.5
  0
LTYPE
  2
LONG3
 70
    64
  3
+++++++++++++++..+++++++++++++++
 72
    65
 73
     2
 40
40.0
 49
37.5
 49
-2.5
  0
LTYPE
  2
LONG4
 70
    64
  3
+++++++++++++++..+++++++++++++++
 72
    65
 73
     2
 40
80.0
 49
75.0
 49
-5.0
  0
LTYPE
  2
LONG5
 70
    64
  3
----------  --  ----------  --  
 72
    65
 73
     4
 40
60.0
 49
37.5
 49
-7.5
 49
7.5
 49
-7.5
  0
LTYPE
  2
dashed
 70
   64
  3
-------   -------------   ------
 72
   65
 73
    2
 40
7.5
 49
6
 49
-1.5
  0
LTYPE
  2
dashed_spaced
 70
   64
  3
----        --------        ----
 72
   65
 73
    2
 40
12
 49
6
 49
-6
  0
LTYPE
  2
long_dashed_dotted
 70
   64
  3
------------- --- --------------
 72
   65
 73
    4
 40
15.25
 49
12
 49
-1.5
 49
0.25
 49
-1.5
  0
LTYPE
  2
long_dashed_double-dotted
 70
   64
  3
----------- --- --- ------------
 72
   65
 73
    6
 40
17
 49
12
 49
-1.5
 49
0.25
 49
-1.5
 49
0.25
 49
-1.5
  0
LTYPE
  2
long_dashed_triplicate-dotted
 70
   64
  3
--------- --- --- --- ----------
 72
   65
 73
    8
 40
18.75
 49
12
 49
-1.5
 49
0.25
 49
-1.5
 49
0.25
 49
-1.5
 49
0.25
 49
-1.5
  0
LTYPE
  2
dotted
 70
   64
  3
   -       -       -       -    
 72
   65
 73
    2
 40
1.75
 49
0.25
 49
-1.5
  0
LTYPE
  2
chain
 70
   64
  3
-------------- -- --------------
 72
   65
 73
    4
 40
18.5
 49
12
 49
-1.5
 49
3.5
 49
-1.5
  0
LTYPE
  2
chain_double_dash
 70
   64
  3
------------ -- -- -------------
 72
   65
 73
    6
 40
23.5
 49
12
 49
-1.5
 49
3.5
 49
-1.5
 49
3.5
 49
-1.5
  0
LTYPE
  2
dashed_dotted
 70
   64
  3
-----------     -     ----------
 72
   65
 73
    4
 40
9.25
 49
6
 49
-1.5
 49
0.25
 49
-1.5
  0
LTYPE
  2
double-dashed_dotted
 70
   64
  3
------   -----------   -   -----
 72
   65
 73
    6
 40
16.75
 49
6
 49
-1.5
 49
6
 49
-1.5
 49
0.25
 49
-1.5
  0
LTYPE
  2
dashed_double-dotted
 70
   64
  3
---------    -    -    ---------
 72
   65
 73
    6
 40
11
 49
6
 49
-1.5
 49
0.25
 49
-1.5
 49
0.25
 49
-1.5
  0
LTYPE
  2
double-dashed_double-dotted
 70
   64
  3
-----   ---------   -   -   ----
 72
   65
 73
    8
 40
18.5
 49
6
 49
-1.5
 49
6
 49
-1.5
 49
0.25
 49
-1.5
 49
0.25
 49
-1.5
  0
LTYPE
  2
dashed_triplicate-dotted
 70
   64
  3
-------    -    -    -    ------
 72
   65
 73
    8
 40
12.75
 49
6
 49
-1.5
 49
0.25
 49
-1.5
 49
0.25
 49
-1.5
 49
0.25
 49
-1.5
  0
LTYPE
  2
double-dashed_triplicate-dotted
 70
   64
  3
-----  ---------  -  -  -  -----
 72
   65
 73
   10
 40
20.25
 49
6
 49
-1.5
 49
6
 49
-1.5
 49
0.25
 49
-1.5
 49
0.25
 49
-1.5
 49
0.25
 49
-1.5
  0
LTYPE
  2
undefined
 70
   64
  3
--------------------------------
 72
   65
 73
    0
 40
0
  0
LTYPE
  2
_
 70
   64
  3
                                
 72
   65
 73
    0
 40
0
  0
LTYPE
  2
__18
 70
   64
  3
                                
 72
   65
 73
    0
 40
0
  0
LTYPE
  2
__19
 70
   64
  3
                                
 72
   65
 73
    0
 40
0
  0
LTYPE
  2
__20
 70
   64
  3
                                
 72
   65
 73
    0
 40
0
  0
LTYPE
  2
__21
 70
   64
  3
                                
 72
   65
 73
    0
 40
0
  0
LTYPE
  2
__22
 70
   64
  3
                                
 72
   65
 73
    0
 40
0
  0
LTYPE
  2
__23
 70
   64
  3
                                
 72
   65
 73
    0
 40
0
  0
LTYPE
  2
__24
 70
   64
  3
                                
 72
   65
 73
    0
 40
0
  0
LTYPE
  2
__25
 70
   64
  3
                                
 72
   65
 73
    0
 40
0
  0
LTYPE
  2
__26
 70
   64
  3
                                
 72
   65
 73
    0
 40
0
  0
LTYPE
  2
__27
 70
   64
  3
                                
 72
   65
 73
    0
 40
0
  0
LTYPE
  2
__28
 70
   64
  3
                                
 72
   65
 73
    0
 40
0
  0
LTYPE
  2
__29
 70
   64
  3
                                
 72
   65
 73
    0
 40
0
  0
LTYPE
  2
__30
 70
   64
  3
                                
 72
   65
 73
    0
 40
0
  0
LTYPE
  2
__31
 70
   64
  3
                                
 72
   65
 73
    0
 40
0
  0
LTYPE
  2
__32
 70
   64
  3
                                
 72
   65
 73
    0
 40
0
  0
ENDTAB
  0
TABLE
  2
STYLE
  5
3
100
AcDbSymbolTable
 70
     1
  0
STYLE
  5
10
100
AcDbSymbolTableRecord
100
AcDbTextStyleTableRecord
  2
STANDARD
 70
     0
 40
0.0
 41
1.0
 50
0.0
 71
     0
 42
0.2
  3
txt
  4
bigfont.shx
  0
STYLE
  5
26
100
AcDbSymbolTableRecord
100
AcDbTextStyleTableRecord
  2
TATEGAKI
 70
    68
 40
0.0
 41
1.0
 50
0.0
 71
     0
 42
1.0
  3
txt
  4
bigfont.shx
  0
ENDTAB
  0
TABLE
  2
LAYER
 70
   18
  0
LAYER
  2
_0-0_
 70
   64
 62
    7
  6
CONTINUOUS
  0
LAYER
  2
_0-3_
 70
   64
 62
    7
  6
CONTINUOUS
  0
LAYER
  2
_0-4_
 70
   64
 62
    7
  6
CONTINUOUS
  0
LAYER
  2
_0-5_
 70
   64
 62
    7
  6
CONTINUOUS
  0
LAYER
  2
_0-6_
 70
   64
 62
    7
  6
CONTINUOUS
  0
LAYER
  2
_0-8_
 70
   64
 62
    7
  6
CONTINUOUS
  0
LAYER
  2
_0-9_
 70
   64
 62
    7
  6
CONTINUOUS
  0
LAYER
  2
_0-a_
 70
   64
 62
    7
  6
CONTINUOUS
  0
LAYER
  2
_0-d_
 70
   64
 62
    7
  6
CONTINUOUS
  0
LAYER
  2
_1-1_
 70
   64
 62
    7
  6
CONTINUOUS
  0
LAYER
  2
_e-7_
 70
   64
 62
    7
  6
CONTINUOUS
  0
LAYER
  2
_f-7_
 70
   64
 62
    7
  6
CONTINUOUS
  0
LAYER
  2
_f-8_
 70
   64
 62
    7
  6
CONTINUOUS
  0
LAYER
  2
_f-9_
 70
   64
 62
    7
  6
CONTINUOUS
  0
LAYER
  2
_f-a_
 70
   64
 62
    7
  6
CONTINUOUS
  0
LAYER
  2
_f-d_固定文字
 70
   64
 62
    7
  6
CONTINUOUS
  0
LAYER
  2
_f-f_ADD_LINE
 70
   64
 62
    7
  6
CONTINUOUS
  0
LAYER
  2
ADD_LINE
 70
   64
 62
    7
  6
CONTINUOUS
  0
ENDTAB
  0
ENDSEC
  0
SECTION
  2
BLOCKS
  0
ENDSEC
  0
SECTION
  2
ENTITIES
  0
LINE
  8
_f-9_
  6
CONTINUOUS
 62
    7
 10
630
 20
120
 11
630
 21
220
  0
LINE
  8
ADD_LINE
  6
DOT
 62
    9
 10
170
 20
120
 11
170
 21
220
  0
LINE
  8
ADD_LINE
  6
DOT
 62
    9
 10
610
 20
120
 11
610
 21
220
  0
LINE
  8
_f-9_
  6
CONTINUOUS
 62
    7
 10
170
 20
120
 11
610
 21
120
  0
LINE
  8
_f-9_
  6
CONTINUOUS
 62
    7
 10
170
 20
220
 11
610
 21
220
  0
LINE
  8
_f-9_
  6
CONTINUOUS
 62
    7
 10
1420
 20
120
 11
1420
 21
220
  0
LINE
  8
_f-9_
  6
CONTINUOUS
 62
    7
 10
2210
 20
120
 11
2210
 21
220
  0
LINE
  8
_f-9_
  6
CONTINUOUS
 62
    7
 10
2220
 20
120
 11
2220
 21
220
  0
LINE
  8
_f-9_
  6
CONTINUOUS
 62
    7
 10
630
 20
120
 11
2210
 21
120
  0
LINE
  8
_f-9_
  6
CONTINUOUS
 62
    7
 10
630
 20
220
 11
2210
 21
220
  0
LINE
  8
_f-9_
  6
CONTINUOUS
 62
    7
 10
2710
 20
120
 11
2710
 21
220
  0
LINE
  8
_f-9_
  6
CONTINUOUS
 62
    7
 10
2720
 20
120
 11
2720
 21
220
  0
LINE
  8
_f-9_
  6
CONTINUOUS
 62
    7
 10
2220
 20
120
 11
2710
 21
120
  0
LINE
  8
_f-9_
  6
CONTINUOUS
 62
    7
 10
2220
 20
220
 11
2710
 21
220
  0
LINE
  8
_f-9_
  6
CONTINUOUS
 62
    7
 10
3020
 20
120
 11
3020
 21
220
  0
LINE
  8
_f-9_
  6
CONTINUOUS
 62
    7
 10
3320
 20
120
 11
3320
 21
220
  0
LINE
  8
_f-9_
  6
CONTINUOUS
 62
    7
 10
3700
 20
120
 11
3700
 21
220
  0
LINE
  8
_f-9_
  6
CONTINUOUS
 62
    7
 10
2720
 20
120
 11
4110
 21
120
  0
LINE
  8
_f-9_
  6
CONTINUOUS
 62
    7
 10
4110
 20
120
 11
4110
 21
220
  0
LINE
  8
_f-9_
  6
CONTINUOUS
 62
    7
 10
2720
 20
220
 11
4110
 21
220
  0
LINE
  8
ADD_LINE
  6
DOT
 62
    9
 10
630
 20
200
 11
2210
 21
200
  0
LINE
  8
ADD_LINE
  6
DOT
 62
    9
 10
2720
 20
200
 11
4110
 21
200
  0
LINE
  8
ADD_LINE
  6
DOT
 62
    9
 10
2740
 20
120
 11
2740
 21
220
  0
LINE
  8
ADD_LINE
  6
DOT
 62
    9
 10
3040
 20
120
 11
3040
 21
220
  0
LINE
  8
ADD_LINE
  6
DOT
 62
    9
 10
3340
 20
120
 11
3340
 21
220
  0
LINE
  8
ADD_LINE
  6
DOT
 62
    9
 10
3720
 20
120
 11
3720
 21
220
  0
LINE
  8
ADD_LINE
  6
DOT
 62
    9
 10
1445
 20
120
 11
1445
 21
220
  0
LINE
  8
ADD_LINE
  6
DOT
 62
    9
 10
655
 20
120
 11
655
 21
220
  0
LINE
  8
ADD_LINE
  6
DOT
 62
    9
 10
3660
 20
120
 11
3660
 21
220
  0
LINE
  8
ADD_LINE
  6
DOT
 62
    9
 10
2720
 20
160
 11
4110
 21
160
  0
TEXT
  8
_f-8_
 62
    7
 10
2740
 20
187.5
 40
25
 41
0.64
 50
0
  1
ＳＣＡＬＥ
  0
TEXT
  8
_f-8_
 62
    7
 10
3340
 20
187.5
 40
25
 41
0.64
 50
0
  1
ＣＨＥＣＫＥＤ
  0
TEXT
  8
_f-8_
 62
    7
 10
3720
 20
187.5
 40
25
 41
0.64
 50
0
  1
ＳＨＥＥＴ　ＮＯ．
  0
TEXT
  8
_f-8_
 62
    7
 10
3542
 20
187.5
 40
25
 41
0.64
 50
0
  1
ＤＲＡＷＩＮＧ
  0
LINE
  8
_f-9_
  6
CONTINUOUS
 62
    7
 10
170
 20
170
 11
610
 21
170
  0
LINE
  8
ADD_LINE
  6
DOT
 62
    9
 10
2910
 20
120
 11
2910
 21
220
  0
LINE
  8
ADD_LINE
  6
DOT
 62
    9
 10
3170
 20
120
 11
3170
 21
220
  0
LINE
  8
ADD_LINE
  6
DOT
 62
    9
 10
3500
 20
220
 11
3500
 21
120
  0
LINE
  8
ADD_LINE
  6
DOT
 62
    9
 10
630
 20
160
 11
2210
 21
160
  0
LINE
  8
ADD_LINE
  6
DOT
 62
    9
 10
1025
 20
220
 11
1025
 21
120
  0
TEXT
  8
_f-8_
 62
    7
 10
2861
 20
142.5
 40
35
 41
0.5714285714285712
 50
0
  1
１／１０
  0
TEXT
  8
_f-8_
 62
    7
 10
655
 20
187.5
 40
25
 41
0.8
 50
0
  1
名　称
  0
TEXT
  8
_f-8_
 62
    7
 10
1445
 20
187.5
 40
25
 41
0.8
 50
0
  1
図面名称
  0
LINE
  8
ADD_LINE
  6
DOT
 62
    9
 10
1815
 20
220
 11
1815
 21
120
  0
TEXT
  8
_f-8_
 62
    7
 10
3040
 20
187.5
 40
25
 41
0.64
 50
0
  1
ＤＡＴＡ
  0
LINE
  8
ADD_LINE
  6
DOT
 62
    9
 10
150.01499999999992
 20
65
 11
120.02999999999985
 21
65
  0
LINE
  8
ADD_LINE
  6
DOT
 62
    9
 10
74.98500000000007
 20
55
 11
4144.9850000000005
 21
55
  0
LINE
  8
ADD_LINE
  6
DOT
 62
    9
 10
74.98500000000007
 20
2875
 11
74.98500000000007
 21
55
  0
LINE
  8
ADD_LINE
  6
DOT
 62
    9
 10
120.02999999999985
 20
65
 11
120.02999999999985
 21
2860
  0
LINE
  8
ADD_LINE
  6
DOT
 62
    9
 10
4144.9850000000005
 20
2875
 11
74.98500000000007
 21
2875
  0
LINE
  8
ADD_LINE
  6
DOT
 62
    9
 10
4144.9850000000005
 20
55
 11
4144.9850000000005
 21
2875
  0
LINE
  8
_0-0_
  6
CONTINUOUS
 62
    7
 10
4130
 20
2860
 11
4130
 21
100
  0
LINE
  8
_0-0_
  6
CONTINUOUS
 62
    7
 10
150
 20
2860
 11
4130
 21
2860
  0
LINE
  8
_0-0_
  6
CONTINUOUS
 62
    7
 10
150
 20
100
 11
4130
 21
100
  0
LINE
  8
_0-0_
  6
CONTINUOUS
 62
    7
 10
150
 20
100
 11
150
 21
2860
  0
LINE
  8
ADD_LINE
  6
DOT
 62
    9
 10
135
 20
65
 11
135
 21
2860
  0
LINE
  8
_f-7_
  6
CONTINUOUS
 62
    4
 10
4160
 20
1462.6794919243113
 11
4160
 21
1497.3205080756886
  0
LINE
  8
_f-7_
  6
CONTINUOUS
 62
    4
 10
4160
 20
1497.3205080756886
 11
4130
 21
1480
  0
LINE
  8
_f-7_
  6
CONTINUOUS
 62
    4
 10
4130
 20
1480
 11
4160
 21
1462.6794919243113
  0
LINE
  8
_f-7_
  6
CONTINUOUS
 62
    4
 10
4155
 20
1471.3397459621555
 11
4155
 21
1488.6602540378444
  0
LINE
  8
_f-7_
  6
CONTINUOUS
 62
    4
 10
4155
 20
1488.6602540378444
 11
4140
 21
1480
  0
LINE
  8
_f-7_
  6
CONTINUOUS
 62
    4
 10
4140
 20
1480
 11
4155
 21
1471.3397459621555
  0
LINE
  8
_f-7_
  6
CONTINUOUS
 62
    4
 10
4151
 20
1478.2679491924309
 11
4151
 21
1481.732050807569
  0
LINE
  8
_f-7_
  6
CONTINUOUS
 62
    4
 10
4151
 20
1481.732050807569
 11
4148
 21
1480
  0
LINE
  8
_f-7_
  6
CONTINUOUS
 62
    4
 10
4148
 20
1480
 11
4151
 21
1478.2679491924309
  0
LINE
  8
_f-7_
  6
CONTINUOUS
 62
    4
 10
120
 20
1462.6794919243113
 11
120
 21
1497.3205080756886
  0
LINE
  8
_f-7_
  6
CONTINUOUS
 62
    4
 10
120
 20
1497.3205080756886
 11
150
 21
1480
  0
LINE
  8
_f-7_
  6
CONTINUOUS
 62
    4
 10
150
 20
1480
 11
120
 21
1462.6794919243113
  0
LINE
  8
_f-7_
  6
CONTINUOUS
 62
    4
 10
125
 20
1471.3397459621555
 11
125
 21
1488.6602540378444
  0
LINE
  8
_f-7_
  6
CONTINUOUS
 62
    4
 10
125
 20
1488.6602540378444
 11
140
 21
1480
  0
LINE
  8
_f-7_
  6
CONTINUOUS
 62
    4
 10
140
 20
1480
 11
125
 21
1471.3397459621555
  0
LINE
  8
_f-7_
  6
CONTINUOUS
 62
    4
 10
128.99999999999977
 20
1478.2679491924309
 11
128.99999999999977
 21
1481.732050807569
  0
LINE
  8
_f-7_
  6
CONTINUOUS
 62
    4
 10
128.99999999999977
 20
1481.732050807569
 11
132.00000000000045
 21
1480
  0
LINE
  8
_f-7_
  6
CONTINUOUS
 62
    4
 10
132.00000000000045
 20
1480
 11
128.99999999999977
 21
1478.2679491924309
  0
LINE
  8
_0-9_
  6
CONTINUOUS
 62
    4
 10
1400
 20
2610
 11
1400
 21
2440
  0
POINT
  8
_0-9_
 62
    3
 10
1400
 20
2610
  0
LINE
  8
_0-3_
  6
CONTINUOUS
 62
    5
 10
1400
 20
2068
 11
1400
 21
2410
  0
LINE
  8
ADD_LINE
  6
DOT
 62
    9
 10
1430
 20
2020
 11
1430
 21
2440
  0
LINE
  8
_0-9_
  6
CONTINUOUS
 62
    4
 10
1730
 20
2410
 11
1430
 21
2410
  0
POINT
  8
_0-9_
 62
    3
 10
1730
 20
2410
  0
LINE
  8
_0-9_
  6
CONTINUOUS
 62
    4
 10
400
 20
2610
 11
400
 21
2440
  0
LINE
  8
ADD_LINE
  6
DOT
 62
    9
 10
400
 20
2610
 11
340
 21
2610
  0
LINE
  8
_0-3_
  6
CONTINUOUS
 62
    5
 10
400
 20
2410
 11
1400
 21
2410
  0
POINT
  8
_0-9_
 62
    3
 10
400
 20
2610
  0
LINE
  8
_0-9_
  6
CONTINUOUS
 62
    4
 10
400
 20
2610
 11
1400
 21
2610
  0
TEXT
  8
_0-9_
 62
    7
 10
844.80000000000018
 20
2612.0000000000004
 40
35
 41
0.6285714285714286
 50
0
  1
１，０００
  0
LINE
  8
_0-3_
  6
CONTINUOUS
 62
    5
 10
400
 20
2068
 11
400
 21
2410
  0
LINE
  8
ADD_LINE
  6
DOT
 62
    9
 10
370
 20
2020
 11
370
 21
2440
  0
LINE
  8
ADD_LINE
  6
DOT
 62
    9
 10
370
 20
2020
 11
1430
 21
2020
  0
LINE
  8
_0-8_
  6
CONTINUOUS
 62
    4
 10
775
 20
1962.0000000000002
 11
1025
 21
1962.0000000000002
  0
LINE
  8
_0-8_
  6
CONTINUOUS
 62
    4
 10
1025
 20
1962.0000000000002
 11
1025
 21
1892.0000000000002
  0
LINE
  8
_0-8_
  6
CONTINUOUS
 62
    4
 10
775
 20
1892.0000000000002
 11
1025
 21
1892.0000000000002
  0
LINE
  8
_0-8_
  6
CONTINUOUS
 62
    4
 10
775
 20
1962.0000000000002
 11
775
 21
1892.0000000000002
  0
LINE
  8
ADD_LINE
  6
DOT
 62
    9
 10
775
 20
1927.0000000000002
 11
1025
 21
1927.0000000000002
  0
LINE
  8
ADD_LINE
  6
DOT
 62
    9
 10
900
 20
1892.0000000000002
 11
900
 21
1962.0000000000002
  0
TEXT
  8
_0-8_
 62
    7
 10
854.90000000000009
 20
1909.5000000000002
 40
35
 41
0.8571428571428569
 50
0
  1
平面図
  0
TEXT
  8
_f-d_固定文字
 62
    7
 10
149.98500000000007
 20
65
 40
20
 41
1
 50
0
  1
%f
  0
LINE
  8
ADD_LINE
  6
DOT
 62
    9
 10
149.98500000000007
 20
100
 11
149.98500000000007
 21
65
  0
LINE
  8
ADD_LINE
  6
DOT
 62
    9
 10
149.98500000000007
 20
65
 11
179.98500000000007
 21
65.000000646005844
  0
LINE
  8
ADD_LINE
  6
DOT
 62
    9
 10
179.98500000000007
 20
100
 11
179.98500000000007
 21
65.000000646005844
  0
TEXT
  8
_f-d_固定文字
 62
    7
 10
3990
 20
65.00000323002979
 40
20
 41
1
 50
0
  1
%y
  0
TEXT
  8
_f-d_固定文字
 62
    7
 10
4020
 20
65.00000323002979
 40
20
 41
1
 50
0
  1
．
  0
TEXT
  8
_f-d_固定文字
 62
    7
 10
4050
 20
65.00000323002979
 40
20
 41
1
 50
0
  1
%m
  0
TEXT
  8
_f-d_固定文字
 62
    7
 10
4080
 20
65.00000323002979
 40
20
 41
1
 50
0
  1
．
  0
TEXT
  8
_f-d_固定文字
 62
    7
 10
4110
 20
65.00000323002979
 40
20
 41
1
 50
0
  1
%d
  0
LINE
  8
ADD_LINE
  6
DOT
 62
    9
 10
4130
 20
100
 11
4130
 21
65.00000323002979
  0
LINE
  8
ADD_LINE
  6
DOT
 62
    9
 10
4100
 20
100
 11
4100
 21
65.00000323002979
  0
LINE
  8
ADD_LINE
  6
DOT
 62
    9
 10
4070
 20
100
 11
4070
 21
65.00000323002979
  0
LINE
  8
ADD_LINE
  6
DOT
 62
    9
 10
4040
 20
100
 11
4040
 21
65.00000323002979
  0
LINE
  8
ADD_LINE
  6
DOT
 62
    9
 10
4010
 20
100
 11
4010
 21
65.00000323002979
  0
LINE
  8
ADD_LINE
  6
DOT
 62
    9
 10
3980
 20
100
 11
3980
 21
65
  0
LINE
  8
ADD_LINE
  6
DOT
 62
    9
 10
3980
 20
65
 11
4130
 21
65.00000323002979
  0
LINE
  8
_0-4_
  6
CONTINUOUS
 62
    3
 10
1001.9999999999993
 20
2052
 11
1001.9999999999993
 21
2064.0000000000004
  0
LINE
  8
_0-4_
  6
CONTINUOUS
 62
    3
 10
699.00000000000034
 20
2052
 11
699.00000000000034
 21
2064.0000000000004
  0
LINE
  8
_0-4_
  6
CONTINUOUS
 62
    3
 10
698.00000000000011
 20
2052
 11
698.00000000000011
 21
2064.0000000000004
  0
LINE
  8
ADD_LINE
  6
DOT
 62
    9
 10
370
 20
2440
 11
1430
 21
2440
  0
LINE
  8
_0-9_
  6
CONTINUOUS
 62
    4
 10
1730
 20
2052
 11
1430
 21
2052
  0
POINT
  8
_0-9_
 62
    3
 10
1730
 20
2052
  0
POINT
  8
_0-9_
 62
    3
 10
1730
 20
2410
  0
POINT
  8
_0-9_
 62
    3
 10
1730
 20
2052
  0
LINE
  8
_0-9_
  6
CONTINUOUS
 62
    4
 10
1730
 20
2410
 11
1730
 21
2052
  0
TEXT
  8
_0-9_
 62
    7
 10
1730
 20
2197.9
 40
35
 41
0.6285714285714286
 50
90
  1
３５８
  0
LINE
  8
_0-4_
  6
CONTINUOUS
 62
    3
 10
1396.0000000000002
 20
2052
 11
1396.0000000000002
 21
2064.0000000000004
  0
LINE
  8
_0-4_
  6
CONTINUOUS
 62
    3
 10
404.00000000000005
 20
2064.0000000000004
 11
698.00000000000011
 21
2064.0000000000004
  0
LINE
  8
_0-4_
  6
CONTINUOUS
 62
    3
 10
404.00000000000005
 20
2052
 11
404.00000000000005
 21
2064.0000000000004
  0
LINE
  8
_0-4_
  6
CONTINUOUS
 62
    3
 10
404.00000000000005
 20
2052
 11
698.00000000000011
 21
2052
  0
LINE
  8
_0-4_
  6
CONTINUOUS
 62
    3
 10
699.00000000000034
 20
2064.0000000000004
 11
992.99999999999954
 21
2064.0000000000004
  0
LINE
  8
_0-4_
  6
CONTINUOUS
 62
    3
 10
992.99999999999954
 20
2052
 11
992.99999999999954
 21
2064.0000000000004
  0
LINE
  8
_0-4_
  6
CONTINUOUS
 62
    3
 10
699.00000000000034
 20
2052
 11
992.99999999999954
 21
2052
  0
LINE
  8
_0-4_
  6
CONTINUOUS
 62
    3
 10
1001.9999999999993
 20
2064.0000000000004
 11
1396.0000000000002
 21
2064.0000000000004
  0
LINE
  8
_0-4_
  6
CONTINUOUS
 62
    3
 10
1396.0000000000002
 20
2064.0000000000004
 11
1396.0000000000002
 21
2052
  0
LINE
  8
_0-4_
  6
CONTINUOUS
 62
    3
 10
1001.9999999999993
 20
2052
 11
1396.0000000000002
 21
2052
  0
LINE
  8
_0-3_
  6
DASHED1
 62
    2
 10
988
 20
2068
 11
988
 21
2130.5
  0
LINE
  8
_0-3_
  6
DASHED1
 62
    2
 10
1013.0000000000004
 20
2068
 11
1013.0000000000004
 21
2130.5
  0
LINE
  8
_0-3_
  6
DASHED1
 62
    2
 10
988
 20
2130.5
 11
1013.0000000000004
 21
2130.5
  0
LINE
  8
_0-3_
  6
CONTINUOUS
 62
    4
 10
414.49999999999988
 20
2068
 11
414.49999999999988
 21
2410
  0
LINE
  8
_0-3_
  6
CONTINUOUS
 62
    4
 10
1385.5
 20
2068
 11
1385.5
 21
2410
  0
LINE
  8
_0-3_
  6
CONTINUOUS
 62
    2
 10
414.49999999999988
 20
2395
 11
1385.5
 21
2395
  0
LINE
  8
_0-3_
  6
CONTINUOUS
 62
    4
 10
414.49999999999988
 20
2068
 11
1385.5
 21
2068
  0
LINE
  8
_0-3_
  6
CONTINUOUS
 62
    5
 10
1385.5
 20
2068
 11
1400
 21
2068
  0
LINE
  8
_0-3_
  6
CONTINUOUS
 62
    5
 10
400
 20
2068
 11
414.49999999999988
 21
2068
  0
LINE
  8
_0-3_
  6
DASHED1
 62
    2
 10
988
 20
2329.5
 11
1013.0000000000004
 21
2329.5
  0
LINE
  8
_0-3_
  6
DASHED1
 62
    2
 10
988
 20
2329.5
 11
988
 21
2392
  0
LINE
  8
_0-3_
  6
DASHED1
 62
    2
 10
1013.0000000000004
 20
2329.5
 11
1013.0000000000004
 21
2392
  0
LINE
  8
_0-3_
  6
DASHED1
 62
    2
 10
414.49999999999988
 20
2392
 11
1385.5
 21
2392
  0
LINE
  8
_0-6_
  6
DASHED1
 62
    7
 10
1383.5
 20
2098.5
 11
1383.5
 21
2387.5
  0
LINE
  8
_0-6_
  6
DASHED1
 62
    7
 10
416.49999999999977
 20
2098.5
 11
416.49999999999977
 21
2387.5
  0
LINE
  8
_0-6_
  6
DASHED1
 62
    7
 10
1015
 20
2098.5
 11
1015
 21
2387.5
  0
LINE
  8
_0-6_
  6
DASHED1
 62
    7
 10
986
 20
2387.5
 11
986
 21
2098.5
  0
LINE
  8
_0-6_
  6
DASHED1
 62
    7
 10
416.49999999999977
 20
2387.5
 11
986
 21
2387.5
  0
LINE
  8
_0-6_
  6
DASHED1
 62
    7
 10
416.49999999999977
 20
2098.5
 11
986
 21
2098.5
  0
LINE
  8
_0-6_
  6
DASHED1
 62
    7
 10
1015
 20
2387.5
 11
1383.5
 21
2387.5
  0
LINE
  8
_0-6_
  6
DASHED1
 62
    7
 10
1015
 20
2098.5
 11
1383.5
 21
2098.5
  0
LINE
  8
_1-1_
  6
DASHED1
 62
    7
 10
1063.4999999999993
 20
2086.5000000000004
 11
1062.9999999999993
 21
2086.5000000000004
  0
LINE
  8
_1-1_
  6
DASHED1
 62
    7
 10
1040.4999999999993
 20
2086.5000000000004
 11
1040.9999999999993
 21
2086.5000000000004
  0
LINE
  8
_1-1_
  6
DASHED1
 62
    7
 10
1043.4999999999993
 20
2146.5000000000004
 11
1060.4999999999993
 21
2146.5000000000004
  0
LINE
  8
_1-1_
  6
DASHED1
 62
    7
 10
1043.9999999999993
 20
2111.5000000000004
 11
1059.9999999999993
 21
2111.5000000000004
  0
LINE
  8
_1-1_
  6
DASHED1
 62
    7
 10
1063.4999999999993
 20
2086.5000000000004
 11
1062.9999999999993
 21
2086.5000000000004
  0
LINE
  8
_1-1_
  6
DASHED1
 62
    7
 10
1069.4999999999993
 20
2113.5000000000004
 11
1070.4999999999993
 21
2113.5000000000004
  0
LINE
  8
_1-1_
  6
DASHED1
 62
    7
 10
1069.4999999999993
 20
2137.5000000000004
 11
1069.4999999999993
 21
2113.5000000000004
  0
LINE
  8
_1-1_
  6
DASHED1
 62
    7
 10
1034.4999999999993
 20
2113.5000000000004
 11
1033.4999999999993
 21
2113.5000000000004
  0
LINE
  8
_1-1_
  6
DASHED1
 62
    7
 10
1034.4999999999993
 20
2137.5000000000004
 11
1034.4999999999993
 21
2113.5000000000004
  0
LINE
  8
_1-1_
  6
DASHED1
 62
    7
 10
1033.1099999999992
 20
2116.5000000000004
 11
1040.4999999999993
 21
2116.5000000000004
  0
LINE
  8
_1-1_
  6
DASHED1
 62
    7
 10
1063.4999999999993
 20
2116.5000000000004
 11
1071.5999999999992
 21
2116.5000000000004
  0
LINE
  8
_1-1_
  6
DASHED1
 62
    7
 10
1041.9999999999993
 20
2111.5000000000004
 11
1041.9999999999993
 21
2108.7000000000007
  0
LINE
  8
_1-1_
  6
DASHED1
 62
    7
 10
1043.4999999999993
 20
2110.1000000000003
 11
1042.4999999999993
 21
2110.1000000000003
  0
LINE
  8
_1-1_
  6
DASHED1
 62
    7
 10
1060.4999999999993
 20
2110.1000000000003
 11
1061.4999999999993
 21
2110.1000000000003
  0
LINE
  8
_1-1_
  6
DASHED1
 62
    7
 10
1061.9999999999993
 20
2111.5000000000004
 11
1061.9999999999993
 21
2108.7000000000007
  0
LINE
  8
_1-1_
  6
DASHED1
 62
    7
 10
1059.9999999999993
 20
2111.5000000000004
 11
1059.9999999999993
 21
2089.5000000000004
  0
LINE
  8
_1-1_
  6
DASHED1
 62
    7
 10
1043.9999999999993
 20
2111.5000000000004
 11
1043.9999999999993
 21
2089.5000000000004
  0
LINE
  8
_1-1_
  6
DASHED1
 62
    7
 10
1049.7639499999993
 20
2084.5000500000005
 11
1054.2360499999992
 21
2084.5000500000005
  0
LINE
  8
_1-1_
  6
DASHED1
 62
    7
 10
1055.4999999999993
 20
2082.5000500000005
 11
1055.4999999999993
 21
2080.5000500000005
  0
LINE
  8
_1-1_
  6
DASHED1
 62
    7
 10
1048.4999999999993
 20
2082.5000500000005
 11
1048.4999999999993
 21
2080.5000500000005
  0
LINE
  8
_1-1_
  6
DASHED1
 62
    7
 10
1048.4999999999993
 20
2080.5000500000005
 11
1048.9999999999993
 21
2080.5000500000005
  0
LINE
  8
_1-1_
  6
DASHED1
 62
    7
 10
1054.9999999999993
 20
2080.5000500000005
 11
1055.4999999999993
 21
2080.5000500000005
  0
LINE
  8
_1-1_
  6
DASHED1
 62
    7
 10
1055.4999999999993
 20
2075.5000500000005
 11
1048.4999999999993
 21
2075.5000500000005
  0
LINE
  8
_1-1_
  6
DASHED1
 62
    7
 10
1055.5459499999992
 20
2075.5460000000002
 11
1055.4999999999993
 21
2075.5000500000005
  0
LINE
  8
_1-1_
  6
DASHED1
 62
    7
 10
1048.4540499999993
 20
2075.5460000000002
 11
1048.4999999999993
 21
2075.5000500000005
  0
LINE
  8
_1-1_
  6
DASHED1
 62
    7
 10
1054.9999999999993
 20
2082.5000500000005
 11
1054.9999999999993
 21
2076.5000500000001
  0
LINE
  8
_1-1_
  6
DASHED1
 62
    7
 10
1048.9999999999993
 20
2082.5000500000005
 11
1048.9999999999993
 21
2076.5000500000001
  0
LINE
  8
_1-1_
  6
DASHED1
 62
    7
 10
1048.9999999999993
 20
2080.5000500000005
 11
1054.9999999999993
 21
2080.5000500000005
  0
LINE
  8
_1-1_
  6
DASHED1
 62
    7
 10
1047.4289499999993
 20
2076.5711000000005
 11
1048.4540499999993
 21
2075.5460000000002
  0
LINE
  8
_1-1_
  6
DASHED1
 62
    7
 10
1056.5710499999993
 20
2076.5711000000005
 11
1055.5459499999992
 21
2075.5460000000002
  0
LINE
  8
_1-1_
  6
DASHED1
 62
    7
 10
1059.4999999999993
 20
2083.6421500000005
 11
1059.4999999999993
 21
2111.5000000000004
  0
LINE
  8
_1-1_
  6
DASHED1
 62
    7
 10
1044.4999999999993
 20
2083.6421500000005
 11
1044.4999999999993
 21
2111.5000000000004
  0
LINE
  8
_1-1_
  6
DASHED1
 62
    7
 10
1038.8245499999993
 20
2103.2626000000004
 11
1038.6130499999992
 21
2103.5381000000006
  0
LINE
  8
_1-1_
  6
DASHED1
 62
    7
 10
1038.8245499999993
 20
2103.2626000000004
 11
1039.4999999999993
 21
2104.0000000000004
  0
LINE
  8
_1-1_
  6
DASHED1
 62
    7
 10
1038.6130499999992
 20
2103.5381000000006
 11
1039.4999999999993
 21
2104.0000000000004
  0
LINE
  8
_1-1_
  6
DASHED1
 62
    7
 10
1059.9999999999993
 20
2111.5000000000004
 11
1069.1999999999991
 21
2111.5000000000004
  0
LINE
  8
_1-1_
  6
DASHED1
 62
    7
 10
1043.9999999999993
 20
2111.5000000000004
 11
1034.7999999999994
 21
2111.5000000000004
  0
LINE
  8
_1-1_
  6
DASHED1
 62
    7
 10
1052.9999999999993
 20
2111.5000000000004
 11
1052.9999999999993
 21
2102.0004000000008
  0
LINE
  8
_1-1_
  6
DASHED1
 62
    7
 10
1050.9999999999993
 20
2111.5000000000004
 11
1050.9999999999993
 21
2102.0004000000008
  0
LINE
  8
_1-1_
  6
DASHED1
 62
    7
 10
1051.4999999999993
 20
2101.5004000000003
 11
1052.4999999999993
 21
2101.5004000000003
  0
LINE
  8
_1-1_
  6
DASHED1
 62
    7
 10
1050.9999999999993
 20
2105.7200000000007
 11
1044.4999999999993
 21
2105.7200000000007
  0
LINE
  8
_1-1_
  6
DASHED1
 62
    7
 10
1059.4999999999993
 20
2105.7200000000007
 11
1052.9999999999993
 21
2105.7200000000007
  0
LINE
  8
_1-1_
  6
DASHED1
 62
    7
 10
1050.9999999999993
 20
2106.0900000000006
 11
1049.9392499999992
 21
2106.0900000000006
  0
LINE
  8
_1-1_
  6
DASHED1
 62
    7
 10
1047.5607499999994
 20
2106.0900000000006
 11
1044.4999999999993
 21
2106.0900000000006
  0
LINE
  8
_1-1_
  6
DASHED1
 62
    7
 10
1059.4999999999993
 20
2106.0900000000006
 11
1056.4392499999992
 21
2106.0900000000006
  0
LINE
  8
_1-1_
  6
DASHED1
 62
    7
 10
1054.0607499999991
 20
2106.0900000000006
 11
1052.9999999999993
 21
2106.0900000000006
  0
LINE
  8
_1-1_
  6
DASHED1
 62
    7
 10
1071.4999999999993
 20
2101.5000000000004
 11
1071.4999999999993
 21
2112.5000000000004
  0
LINE
  8
_1-1_
  6
DASHED1
 62
    7
 10
1069.4999999999993
 20
2100.5000000000009
 11
1070.4999999999993
 21
2100.5000000000009
  0
LINE
  8
_1-1_
  6
DASHED1
 62
    7
 10
1069.4999999999993
 20
2111.2000000000007
 11
1069.4999999999993
 21
2092.5000000000004
  0
LINE
  8
_1-1_
  6
DASHED1
 62
    7
 10
1032.4999999999993
 20
2101.5000000000004
 11
1032.4999999999993
 21
2112.5000000000004
  0
LINE
  8
_1-1_
  6
DASHED1
 62
    7
 10
1034.4999999999993
 20
2100.5000000000009
 11
1033.4999999999993
 21
2100.5000000000009
  0
LINE
  8
_1-1_
  6
DASHED1
 62
    7
 10
1034.4999999999993
 20
2111.2000000000007
 11
1034.4999999999993
 21
2092.5000000000004
  0
LINE
  8
_1-1_
  6
DASHED1
 62
    7
 10
1051.9999999999993
 20
2148.2000000000007
 11
1051.9999999999993
 21
2072.9
  0
LINE
  8
_1-1_
  6
DASHED1
 62
    7
 10
1033.3699999999992
 20
2129.0000000000004
 11
1072.3999999999994
 21
2129.0000000000004
  0
LINE
  8
_1-1_
  6
DASHED1
 62
    7
 10
1039.4999999999993
 20
2108.1500000000005
 11
1039.4999999999993
 21
2099.9000000000005
  0
LINE
  8
_1-1_
  6
DASHED1
 62
    7
 10
1042.7499999999993
 20
2104.0000000000004
 11
1036.1999999999991
 21
2104.0000000000004
  0
LINE
  8
_1-1_
  6
DASHED1
 62
    7
 10
1064.4999999999993
 20
2107.8200000000006
 11
1064.4999999999993
 21
2100.1000000000003
  0
LINE
  8
_1-1_
  6
DASHED1
 62
    7
 10
1061.2299999999993
 20
2104.0000000000004
 11
1068.2399999999993
 21
2104.0000000000004
  0
LINE
  8
_1-1_
  6
DASHED1
 62
    7
 10
1055.5599999999992
 20
2078.0000500000005
 11
1048.2899999999992
 21
2078.0000500000005
  0
ARC
  8
_1-1_
  6
DASHED1
 62
    7
 10
1060.4999999999993
 20
2137.5000000000004
 40
9
 50
0.0000000000000254
 51
90.000000000000056
  0
ARC
  8
_1-1_
  6
DASHED1
 62
    7
 10
1063.4999999999993
 20
2092.5000000000004
 40
6.0000000000000008
 50
270
 51
0
  0
ARC
  8
_1-1_
  6
DASHED1
 62
    7
 10
1062.9999999999993
 20
2089.5000000000004
 40
3.0000000000000004
 50
180.00000000000005
 51
270.00000000000005
  0
ARC
  8
_1-1_
  6
DASHED1
 62
    7
 10
1043.4999999999993
 20
2137.5000000000004
 40
9
 50
90.000000000000056
 51
180.00000000000011
  0
ARC
  8
_1-1_
  6
DASHED1
 62
    7
 10
1040.4999999999993
 20
2092.5000000000004
 40
6.0000000000000008
 50
180.00000000000005
 51
270.00000000000005
  0
ARC
  8
_1-1_
  6
DASHED1
 62
    7
 10
1040.9999999999993
 20
2089.5000000000004
 40
3.0000000000000004
 50
270
 51
0
  0
CIRCLE
  8
_1-1_
  6
DASHED1
 62
    7
 10
1039.4999999999993
 20
2104.0000000000004
 40
1.8999999999999999
  0
CIRCLE
  8
_1-1_
  6
DASHED1
 62
    7
 10
1064.4999999999993
 20
2104.0000000000004
 40
1.8999999999999999
  0
ARC
  8
_1-1_
  6
DASHED1
 62
    7
 10
1070.4999999999993
 20
2112.5000000000004
 40
1
 50
0.0000000000000254
 51
90.000000000000056
  0
ARC
  8
_1-1_
  6
DASHED1
 62
    7
 10
1033.4999999999993
 20
2112.5000000000004
 40
1
 50
90.000000000000056
 51
180.00000000000011
  0
ARC
  8
_1-1_
  6
DASHED1
 62
    7
 10
1036.4999999999993
 20
2113.5000000000004
 40
2
 50
180.00000000000005
 51
270.00000000000005
  0
ARC
  8
_1-1_
  6
DASHED1
 62
    7
 10
1043.4999999999993
 20
2110.6000000000003
 40
0.5
 50
270
 51
0
  0
ARC
  8
_1-1_
  6
DASHED1
 62
    7
 10
1042.4999999999993
 20
2110.6000000000003
 40
0.5
 50
180.00000000000005
 51
270.00000000000005
  0
ARC
  8
_1-1_
  6
DASHED1
 62
    7
 10
1060.4999999999993
 20
2110.6000000000003
 40
0.5
 50
180.00000000000005
 51
270.00000000000005
  0
ARC
  8
_1-1_
  6
DASHED1
 62
    7
 10
1061.4999999999993
 20
2110.6000000000003
 40
0.5
 50
270
 51
0
  0
ARC
  8
_1-1_
  6
DASHED1
 62
    7
 10
1067.4999999999993
 20
2113.5000000000004
 40
2
 50
270
 51
0
  0
ARC
  8
_1-1_
  6
DASHED1
 62
    7
 10
1051.9999999999993
 20
2082.5000500000005
 40
3.5000000000000008
 50
90.000000000000056
 51
180.00000000000011
  0
ARC
  8
_1-1_
  6
DASHED1
 62
    7
 10
1051.9999999999993
 20
2082.5000500000005
 40
3.5000000000000008
 50
0.0000000000000254
 51
90.000000000000056
  0
ARC
  8
_1-1_
  6
DASHED1
 62
    7
 10
1051.9999999999993
 20
2082.5000500000005
 40
3.0000000000000004
 50
138.19000000000005
 51
180.00000000000011
  0
ARC
  8
_1-1_
  6
DASHED1
 62
    7
 10
1051.9999999999993
 20
2082.5000500000005
 40
3.0000000000000004
 50
0.0000000000000254
 51
41.810000000000023
  0
ARC
  8
_1-1_
  6
DASHED1
 62
    7
 10
1049.9999999999993
 20
2076.5000500000001
 40
1
 50
180.00000000000005
 51
270.00000000000005
  0
ARC
  8
_1-1_
  6
DASHED1
 62
    7
 10
1053.9999999999993
 20
2076.5000500000001
 40
1
 50
270
 51
0
  0
ARC
  8
_1-1_
  6
DASHED1
 62
    7
 10
1054.4999999999993
 20
2083.6421500000005
 40
10
 50
180.00000000000005
 51
225.00000000000005
  0
ARC
  8
_1-1_
  6
DASHED1
 62
    7
 10
1049.4999999999993
 20
2083.6421500000005
 40
10
 50
315
 51
0
  0
ARC
  8
_1-1_
  6
DASHED1
 62
    7
 10
1069.1999999999991
 20
2111.2000000000007
 40
0.2999999999999998
 50
0.0000000000000254
 51
90.000000000000056
  0
ARC
  8
_1-1_
  6
DASHED1
 62
    7
 10
1034.7999999999994
 20
2111.2000000000007
 40
0.2999999999999998
 50
90.000000000000056
 51
180.00000000000011
  0
ARC
  8
_1-1_
  6
DASHED1
 62
    7
 10
1052.4999999999993
 20
2102.0004000000008
 40
0.5
 50
270
 51
0
  0
ARC
  8
_1-1_
  6
DASHED1
 62
    7
 10
1051.4999999999993
 20
2102.0004000000008
 40
0.5
 50
180.00000000000005
 51
270.00000000000005
  0
ARC
  8
_1-1_
  6
DASHED1
 62
    7
 10
1070.4999999999993
 20
2101.5000000000004
 40
1
 50
270
 51
0
  0
ARC
  8
_1-1_
  6
DASHED1
 62
    7
 10
1033.4999999999993
 20
2101.5000000000004
 40
1
 50
180.00000000000005
 51
270.00000000000005
  0
CIRCLE
  8
_1-1_
  6
DASHED1
 62
    7
 10
1055.2499999999993
 20
2101.5000500000001
 40
2.3250000000000001
  0
CIRCLE
  8
_1-1_
  6
DASHED1
 62
    7
 10
1048.7499999999993
 20
2101.5000500000001
 40
2.3250000000000001
  0
CIRCLE
  8
_1-1_
  6
DASHED1
 62
    7
 10
1048.7499999999993
 20
2108.0000500000005
 40
2.3250000000000001
  0
CIRCLE
  8
_1-1_
  6
DASHED1
 62
    7
 10
1055.2499999999993
 20
2108.0000500000005
 40
2.3250000000000001
  0
CIRCLE
  8
_1-1_
  6
DASHED1
 62
    7
 10
1051.9999999999993
 20
2078.0000500000005
 40
1.25
  0
LINE
  8
_1-1_
  6
DASHED1
 62
    7
 10
659.50000000000045
 20
2086.5000000000004
 11
659.00000000000068
 21
2086.5000000000004
  0
LINE
  8
_1-1_
  6
DASHED1
 62
    7
 10
636.50000000000068
 20
2086.5000000000004
 11
637.00000000000045
 21
2086.5000000000004
  0
LINE
  8
_1-1_
  6
DASHED1
 62
    7
 10
639.50000000000045
 20
2146.5000000000004
 11
656.50000000000068
 21
2146.5000000000004
  0
LINE
  8
_1-1_
  6
DASHED1
 62
    7
 10
640.00000000000056
 20
2111.5000000000004
 11
656.00000000000045
 21
2111.5000000000004
  0
LINE
  8
_1-1_
  6
DASHED1
 62
    7
 10
659.50000000000045
 20
2086.5000000000004
 11
659.00000000000068
 21
2086.5000000000004
  0
LINE
  8
_1-1_
  6
DASHED1
 62
    7
 10
665.50000000000068
 20
2113.5000000000004
 11
666.50000000000068
 21
2113.5000000000004
  0
LINE
  8
_1-1_
  6
DASHED1
 62
    7
 10
665.50000000000068
 20
2137.5000000000004
 11
665.50000000000068
 21
2113.5000000000004
  0
LINE
  8
_1-1_
  6
DASHED1
 62
    7
 10
630.50000000000068
 20
2113.5000000000004
 11
629.50000000000045
 21
2113.5000000000004
  0
LINE
  8
_1-1_
  6
DASHED1
 62
    7
 10
630.50000000000068
 20
2137.5000000000004
 11
630.50000000000068
 21
2113.5000000000004
  0
LINE
  8
_1-1_
  6
DASHED1
 62
    7
 10
629.11000000000058
 20
2116.5000000000004
 11
636.50000000000068
 21
2116.5000000000004
  0
LINE
  8
_1-1_
  6
DASHED1
 62
    7
 10
659.50000000000045
 20
2116.5000000000004
 11
667.60000000000047
 21
2116.5000000000004
  0
LINE
  8
_1-1_
  6
DASHED1
 62
    7
 10
638.00000000000068
 20
2111.5000000000004
 11
638.00000000000068
 21
2108.7000000000007
  0
LINE
  8
_1-1_
  6
DASHED1
 62
    7
 10
639.50000000000045
 20
2110.1000000000003
 11
638.50000000000045
 21
2110.1000000000003
  0
LINE
  8
_1-1_
  6
DASHED1
 62
    7
 10
656.50000000000068
 20
2110.1000000000003
 11
657.50000000000056
 21
2110.1000000000003
  0
LINE
  8
_1-1_
  6
DASHED1
 62
    7
 10
658.00000000000068
 20
2111.5000000000004
 11
658.00000000000068
 21
2108.7000000000007
  0
LINE
  8
_1-1_
  6
DASHED1
 62
    7
 10
656.00000000000045
 20
2111.5000000000004
 11
656.00000000000045
 21
2089.5000000000004
  0
LINE
  8
_1-1_
  6
DASHED1
 62
    7
 10
640.00000000000056
 20
2111.5000000000004
 11
640.00000000000056
 21
2089.5000000000004
  0
LINE
  8
_1-1_
  6
DASHED1
 62
    7
 10
645.76395000000047
 20
2084.5000500000005
 11
650.23605000000065
 21
2084.5000500000005
  0
LINE
  8
_1-1_
  6
DASHED1
 62
    7
 10
651.50000000000068
 20
2082.5000500000005
 11
651.50000000000068
 21
2080.5000500000005
  0
LINE
  8
_1-1_
  6
DASHED1
 62
    7
 10
644.50000000000045
 20
2082.5000500000005
 11
644.50000000000045
 21
2080.5000500000005
  0
LINE
  8
_1-1_
  6
DASHED1
 62
    7
 10
644.50000000000045
 20
2080.5000500000005
 11
645.00000000000056
 21
2080.5000500000005
  0
LINE
  8
_1-1_
  6
DASHED1
 62
    7
 10
651.00000000000045
 20
2080.5000500000005
 11
651.50000000000068
 21
2080.5000500000005
  0
LINE
  8
_1-1_
  6
DASHED1
 62
    7
 10
651.50000000000068
 20
2075.5000500000005
 11
644.50000000000045
 21
2075.5000500000005
  0
LINE
  8
_1-1_
  6
DASHED1
 62
    7
 10
651.54595000000063
 20
2075.5460000000002
 11
651.50000000000068
 21
2075.5000500000005
  0
LINE
  8
_1-1_
  6
DASHED1
 62
    7
 10
644.4540500000005
 20
2075.5460000000002
 11
644.50000000000045
 21
2075.5000500000005
  0
LINE
  8
_1-1_
  6
DASHED1
 62
    7
 10
651.00000000000045
 20
2082.5000500000005
 11
651.00000000000045
 21
2076.5000500000001
  0
LINE
  8
_1-1_
  6
DASHED1
 62
    7
 10
645.00000000000056
 20
2082.5000500000005
 11
645.00000000000056
 21
2076.5000500000001
  0
LINE
  8
_1-1_
  6
DASHED1
 62
    7
 10
645.00000000000056
 20
2080.5000500000005
 11
651.00000000000045
 21
2080.5000500000005
  0
LINE
  8
_1-1_
  6
DASHED1
 62
    7
 10
643.42895000000055
 20
2076.5711000000005
 11
644.4540500000005
 21
2075.5460000000002
  0
LINE
  8
_1-1_
  6
DASHED1
 62
    7
 10
652.57105000000046
 20
2076.5711000000005
 11
651.54595000000063
 21
2075.5460000000002
  0
LINE
  8
_1-1_
  6
DASHED1
 62
    7
 10
655.50000000000068
 20
2083.6421500000005
 11
655.50000000000068
 21
2111.5000000000004
  0
LINE
  8
_1-1_
  6
DASHED1
 62
    7
 10
640.50000000000068
 20
2083.6421500000005
 11
640.50000000000068
 21
2111.5000000000004
  0
LINE
  8
_1-1_
  6
DASHED1
 62
    7
 10
634.82455000000072
 20
2103.2626000000004
 11
634.61305000000038
 21
2103.5381000000006
  0
LINE
  8
_1-1_
  6
DASHED1
 62
    7
 10
634.82455000000072
 20
2103.2626000000004
 11
635.50000000000068
 21
2104.0000000000004
  0
LINE
  8
_1-1_
  6
DASHED1
 62
    7
 10
634.61305000000038
 20
2103.5381000000006
 11
635.50000000000068
 21
2104.0000000000004
  0
LINE
  8
_1-1_
  6
DASHED1
 62
    7
 10
656.00000000000045
 20
2111.5000000000004
 11
665.20000000000038
 21
2111.5000000000004
  0
LINE
  8
_1-1_
  6
DASHED1
 62
    7
 10
640.00000000000056
 20
2111.5000000000004
 11
630.80000000000063
 21
2111.5000000000004
  0
LINE
  8
_1-1_
  6
DASHED1
 62
    7
 10
649.00000000000068
 20
2111.5000000000004
 11
649.00000000000068
 21
2102.0004000000008
  0
LINE
  8
_1-1_
  6
DASHED1
 62
    7
 10
647.00000000000045
 20
2111.5000000000004
 11
647.00000000000045
 21
2102.0004000000008
  0
LINE
  8
_1-1_
  6
DASHED1
 62
    7
 10
647.50000000000056
 20
2101.5004000000003
 11
648.50000000000045
 21
2101.5004000000003
  0
LINE
  8
_1-1_
  6
DASHED1
 62
    7
 10
647.00000000000045
 20
2105.7200000000007
 11
640.50000000000068
 21
2105.7200000000007
  0
LINE
  8
_1-1_
  6
DASHED1
 62
    7
 10
655.50000000000068
 20
2105.7200000000007
 11
649.00000000000068
 21
2105.7200000000007
  0
LINE
  8
_1-1_
  6
DASHED1
 62
    7
 10
647.00000000000045
 20
2106.0900000000006
 11
645.93925000000035
 21
2106.0900000000006
  0
LINE
  8
_1-1_
  6
DASHED1
 62
    7
 10
643.56075000000055
 20
2106.0900000000006
 11
640.50000000000068
 21
2106.0900000000006
  0
LINE
  8
_1-1_
  6
DASHED1
 62
    7
 10
655.50000000000068
 20
2106.0900000000006
 11
652.43925000000047
 21
2106.0900000000006
  0
LINE
  8
_1-1_
  6
DASHED1
 62
    7
 10
650.06075000000032
 20
2106.0900000000006
 11
649.00000000000068
 21
2106.0900000000006
  0
LINE
  8
_1-1_
  6
DASHED1
 62
    7
 10
667.50000000000056
 20
2101.5000000000004
 11
667.50000000000056
 21
2112.5000000000004
  0
LINE
  8
_1-1_
  6
DASHED1
 62
    7
 10
665.50000000000068
 20
2100.5000000000009
 11
666.50000000000068
 21
2100.5000000000009
  0
LINE
  8
_1-1_
  6
DASHED1
 62
    7
 10
665.50000000000068
 20
2111.2000000000007
 11
665.50000000000068
 21
2092.5000000000004
  0
LINE
  8
_1-1_
  6
DASHED1
 62
    7
 10
628.50000000000045
 20
2101.5000000000004
 11
628.50000000000045
 21
2112.5000000000004
  0
LINE
  8
_1-1_
  6
DASHED1
 62
    7
 10
630.50000000000068
 20
2100.5000000000009
 11
629.50000000000045
 21
2100.5000000000009
  0
LINE
  8
_1-1_
  6
DASHED1
 62
    7
 10
630.50000000000068
 20
2111.2000000000007
 11
630.50000000000068
 21
2092.5000000000004
  0
LINE
  8
_1-1_
  6
DASHED1
 62
    7
 10
648.00000000000068
 20
2148.2000000000007
 11
648.00000000000068
 21
2072.9
  0
LINE
  8
_1-1_
  6
DASHED1
 62
    7
 10
629.37000000000034
 20
2129.0000000000004
 11
668.40000000000054
 21
2129.0000000000004
  0
LINE
  8
_1-1_
  6
DASHED1
 62
    7
 10
635.50000000000068
 20
2108.1500000000005
 11
635.50000000000068
 21
2099.9000000000005
  0
LINE
  8
_1-1_
  6
DASHED1
 62
    7
 10
638.75000000000056
 20
2104.0000000000004
 11
632.20000000000027
 21
2104.0000000000004
  0
LINE
  8
_1-1_
  6
DASHED1
 62
    7
 10
660.50000000000068
 20
2107.8200000000006
 11
660.50000000000068
 21
2100.1000000000003
  0
LINE
  8
_1-1_
  6
DASHED1
 62
    7
 10
657.2300000000007
 20
2104.0000000000004
 11
664.24000000000069
 21
2104.0000000000004
  0
LINE
  8
_1-1_
  6
DASHED1
 62
    7
 10
651.56000000000062
 20
2078.0000500000005
 11
644.29000000000064
 21
2078.0000500000005
  0
ARC
  8
_1-1_
  6
DASHED1
 62
    7
 10
656.50000000000068
 20
2137.5000000000004
 40
9
 50
0.0000000000000254
 51
90.000000000000056
  0
ARC
  8
_1-1_
  6
DASHED1
 62
    7
 10
659.50000000000045
 20
2092.5000000000004
 40
6.0000000000000008
 50
270
 51
0
  0
ARC
  8
_1-1_
  6
DASHED1
 62
    7
 10
659.00000000000068
 20
2089.5000000000004
 40
3.0000000000000004
 50
180.00000000000005
 51
270.00000000000005
  0
ARC
  8
_1-1_
  6
DASHED1
 62
    7
 10
639.50000000000045
 20
2137.5000000000004
 40
9
 50
90.000000000000056
 51
180.00000000000011
  0
ARC
  8
_1-1_
  6
DASHED1
 62
    7
 10
636.50000000000068
 20
2092.5000000000004
 40
6.0000000000000008
 50
180.00000000000005
 51
270.00000000000005
  0
ARC
  8
_1-1_
  6
DASHED1
 62
    7
 10
637.00000000000045
 20
2089.5000000000004
 40
3.0000000000000004
 50
270
 51
0
  0
CIRCLE
  8
_1-1_
  6
DASHED1
 62
    7
 10
635.50000000000068
 20
2104.0000000000004
 40
1.8999999999999999
  0
CIRCLE
  8
_1-1_
  6
DASHED1
 62
    7
 10
660.50000000000068
 20
2104.0000000000004
 40
1.8999999999999999
  0
ARC
  8
_1-1_
  6
DASHED1
 62
    7
 10
666.50000000000068
 20
2112.5000000000004
 40
1
 50
0.0000000000000254
 51
90.000000000000056
  0
ARC
  8
_1-1_
  6
DASHED1
 62
    7
 10
629.50000000000045
 20
2112.5000000000004
 40
1
 50
90.000000000000056
 51
180.00000000000011
  0
ARC
  8
_1-1_
  6
DASHED1
 62
    7
 10
632.50000000000056
 20
2113.5000000000004
 40
2
 50
180.00000000000005
 51
270.00000000000005
  0
ARC
  8
_1-1_
  6
DASHED1
 62
    7
 10
639.50000000000045
 20
2110.6000000000003
 40
0.5
 50
270
 51
0
  0
ARC
  8
_1-1_
  6
DASHED1
 62
    7
 10
638.50000000000045
 20
2110.6000000000003
 40
0.5
 50
180.00000000000005
 51
270.00000000000005
  0
ARC
  8
_1-1_
  6
DASHED1
 62
    7
 10
656.50000000000068
 20
2110.6000000000003
 40
0.5
 50
180.00000000000005
 51
270.00000000000005
  0
ARC
  8
_1-1_
  6
DASHED1
 62
    7
 10
657.50000000000056
 20
2110.6000000000003
 40
0.5
 50
270
 51
0
  0
ARC
  8
_1-1_
  6
DASHED1
 62
    7
 10
663.50000000000045
 20
2113.5000000000004
 40
2
 50
270
 51
0
  0
ARC
  8
_1-1_
  6
DASHED1
 62
    7
 10
648.00000000000068
 20
2082.5000500000005
 40
3.5000000000000008
 50
90.000000000000056
 51
180.00000000000011
  0
ARC
  8
_1-1_
  6
DASHED1
 62
    7
 10
648.00000000000068
 20
2082.5000500000005
 40
3.5000000000000008
 50
0.0000000000000254
 51
90.000000000000056
  0
ARC
  8
_1-1_
  6
DASHED1
 62
    7
 10
648.00000000000068
 20
2082.5000500000005
 40
3.0000000000000004
 50
138.19000000000005
 51
180.00000000000011
  0
ARC
  8
_1-1_
  6
DASHED1
 62
    7
 10
648.00000000000068
 20
2082.5000500000005
 40
3.0000000000000004
 50
0.0000000000000254
 51
41.810000000000023
  0
ARC
  8
_1-1_
  6
DASHED1
 62
    7
 10
646.00000000000045
 20
2076.5000500000001
 40
1
 50
180.00000000000005
 51
270.00000000000005
  0
ARC
  8
_1-1_
  6
DASHED1
 62
    7
 10
650.00000000000056
 20
2076.5000500000001
 40
1
 50
270
 51
0
  0
ARC
  8
_1-1_
  6
DASHED1
 62
    7
 10
650.50000000000068
 20
2083.6421500000005
 40
10
 50
180.00000000000005
 51
225.00000000000005
  0
ARC
  8
_1-1_
  6
DASHED1
 62
    7
 10
645.50000000000068
 20
2083.6421500000005
 40
10
 50
315
 51
0
  0
ARC
  8
_1-1_
  6
DASHED1
 62
    7
 10
665.20000000000038
 20
2111.2000000000007
 40
0.2999999999999998
 50
0.0000000000000254
 51
90.000000000000056
  0
ARC
  8
_1-1_
  6
DASHED1
 62
    7
 10
630.80000000000063
 20
2111.2000000000007
 40
0.2999999999999998
 50
90.000000000000056
 51
180.00000000000011
  0
ARC
  8
_1-1_
  6
DASHED1
 62
    7
 10
648.50000000000045
 20
2102.0004000000008
 40
0.5
 50
270
 51
0
  0
ARC
  8
_1-1_
  6
DASHED1
 62
    7
 10
647.50000000000056
 20
2102.0004000000008
 40
0.5
 50
180.00000000000005
 51
270.00000000000005
  0
ARC
  8
_1-1_
  6
DASHED1
 62
    7
 10
666.50000000000068
 20
2101.5000000000004
 40
1
 50
270
 51
0
  0
ARC
  8
_1-1_
  6
DASHED1
 62
    7
 10
629.50000000000045
 20
2101.5000000000004
 40
1
 50
180.00000000000005
 51
270.00000000000005
  0
CIRCLE
  8
_1-1_
  6
DASHED1
 62
    7
 10
651.25000000000056
 20
2101.5000500000001
 40
2.3250000000000001
  0
CIRCLE
  8
_1-1_
  6
DASHED1
 62
    7
 10
644.75000000000045
 20
2101.5000500000001
 40
2.3250000000000001
  0
CIRCLE
  8
_1-1_
  6
DASHED1
 62
    7
 10
644.75000000000045
 20
2108.0000500000005
 40
2.3250000000000001
  0
CIRCLE
  8
_1-1_
  6
DASHED1
 62
    7
 10
651.25000000000056
 20
2108.0000500000005
 40
2.3250000000000001
  0
CIRCLE
  8
_1-1_
  6
DASHED1
 62
    7
 10
648.00000000000068
 20
2078.0000500000005
 40
1.25
  0
LINE
  8
_1-1_
  6
DASHED1
 62
    7
 10
760.50000000000045
 20
2086.5000000000004
 11
760.00000000000056
 21
2086.5000000000004
  0
LINE
  8
_1-1_
  6
DASHED1
 62
    7
 10
737.50000000000056
 20
2086.5000000000004
 11
738.00000000000045
 21
2086.5000000000004
  0
LINE
  8
_1-1_
  6
DASHED1
 62
    7
 10
740.50000000000045
 20
2146.5000000000004
 11
757.50000000000056
 21
2146.5000000000004
  0
LINE
  8
_1-1_
  6
DASHED1
 62
    7
 10
741.00000000000022
 20
2111.5000000000004
 11
757.00000000000045
 21
2111.5000000000004
  0
LINE
  8
_1-1_
  6
DASHED1
 62
    7
 10
760.50000000000045
 20
2086.5000000000004
 11
760.00000000000056
 21
2086.5000000000004
  0
LINE
  8
_1-1_
  6
DASHED1
 62
    7
 10
766.50000000000034
 20
2113.5000000000004
 11
767.50000000000056
 21
2113.5000000000004
  0
LINE
  8
_1-1_
  6
DASHED1
 62
    7
 10
766.50000000000034
 20
2137.5000000000004
 11
766.50000000000034
 21
2113.5000000000004
  0
LINE
  8
_1-1_
  6
DASHED1
 62
    7
 10
731.50000000000034
 20
2113.5000000000004
 11
730.50000000000045
 21
2113.5000000000004
  0
LINE
  8
_1-1_
  6
DASHED1
 62
    7
 10
731.50000000000034
 20
2137.5000000000004
 11
731.50000000000034
 21
2113.5000000000004
  0
LINE
  8
_1-1_
  6
DASHED1
 62
    7
 10
730.11000000000024
 20
2116.5000000000004
 11
737.50000000000056
 21
2116.5000000000004
  0
LINE
  8
_1-1_
  6
DASHED1
 62
    7
 10
760.50000000000045
 20
2116.5000000000004
 11
768.60000000000013
 21
2116.5000000000004
  0
LINE
  8
_1-1_
  6
DASHED1
 62
    7
 10
739.00000000000034
 20
2111.5000000000004
 11
739.00000000000034
 21
2108.7000000000007
  0
LINE
  8
_1-1_
  6
DASHED1
 62
    7
 10
740.50000000000045
 20
2110.1000000000003
 11
739.50000000000045
 21
2110.1000000000003
  0
LINE
  8
_1-1_
  6
DASHED1
 62
    7
 10
757.50000000000056
 20
2110.1000000000003
 11
758.50000000000022
 21
2110.1000000000003
  0
LINE
  8
_1-1_
  6
DASHED1
 62
    7
 10
759.00000000000034
 20
2111.5000000000004
 11
759.00000000000034
 21
2108.7000000000007
  0
LINE
  8
_1-1_
  6
DASHED1
 62
    7
 10
757.00000000000045
 20
2111.5000000000004
 11
757.00000000000045
 21
2089.5000000000004
  0
LINE
  8
_1-1_
  6
DASHED1
 62
    7
 10
741.00000000000022
 20
2111.5000000000004
 11
741.00000000000022
 21
2089.5000000000004
  0
LINE
  8
_1-1_
  6
DASHED1
 62
    7
 10
746.76395000000047
 20
2084.5000500000005
 11
751.23605000000054
 21
2084.5000500000005
  0
LINE
  8
_1-1_
  6
DASHED1
 62
    7
 10
752.50000000000056
 20
2082.5000500000005
 11
752.50000000000056
 21
2080.5000500000005
  0
LINE
  8
_1-1_
  6
DASHED1
 62
    7
 10
745.50000000000045
 20
2082.5000500000005
 11
745.50000000000045
 21
2080.5000500000005
  0
LINE
  8
_1-1_
  6
DASHED1
 62
    7
 10
745.50000000000045
 20
2080.5000500000005
 11
746.00000000000022
 21
2080.5000500000005
  0
LINE
  8
_1-1_
  6
DASHED1
 62
    7
 10
752.00000000000045
 20
2080.5000500000005
 11
752.50000000000056
 21
2080.5000500000005
  0
LINE
  8
_1-1_
  6
DASHED1
 62
    7
 10
752.50000000000056
 20
2075.5000500000005
 11
745.50000000000045
 21
2075.5000500000005
  0
LINE
  8
_1-1_
  6
DASHED1
 62
    7
 10
752.54595000000051
 20
2075.5460000000002
 11
752.50000000000056
 21
2075.5000500000005
  0
LINE
  8
_1-1_
  6
DASHED1
 62
    7
 10
745.4540500000005
 20
2075.5460000000002
 11
745.50000000000045
 21
2075.5000500000005
  0
LINE
  8
_1-1_
  6
DASHED1
 62
    7
 10
752.00000000000045
 20
2082.5000500000005
 11
752.00000000000045
 21
2076.5000500000001
  0
LINE
  8
_1-1_
  6
DASHED1
 62
    7
 10
746.00000000000022
 20
2082.5000500000005
 11
746.00000000000022
 21
2076.5000500000001
  0
LINE
  8
_1-1_
  6
DASHED1
 62
    7
 10
746.00000000000022
 20
2080.5000500000005
 11
752.00000000000045
 21
2080.5000500000005
  0
LINE
  8
_1-1_
  6
DASHED1
 62
    7
 10
744.42895000000021
 20
2076.5711000000005
 11
745.4540500000005
 21
2075.5460000000002
  0
LINE
  8
_1-1_
  6
DASHED1
 62
    7
 10
753.57105000000046
 20
2076.5711000000005
 11
752.54595000000051
 21
2075.5460000000002
  0
LINE
  8
_1-1_
  6
DASHED1
 62
    7
 10
756.50000000000034
 20
2083.6421500000005
 11
756.50000000000034
 21
2111.5000000000004
  0
LINE
  8
_1-1_
  6
DASHED1
 62
    7
 10
741.50000000000034
 20
2083.6421500000005
 11
741.50000000000034
 21
2111.5000000000004
  0
LINE
  8
_1-1_
  6
DASHED1
 62
    7
 10
735.82455000000038
 20
2103.2626000000004
 11
735.61305000000038
 21
2103.5381000000006
  0
LINE
  8
_1-1_
  6
DASHED1
 62
    7
 10
735.82455000000038
 20
2103.2626000000004
 11
736.50000000000034
 21
2104.0000000000004
  0
LINE
  8
_1-1_
  6
DASHED1
 62
    7
 10
735.61305000000038
 20
2103.5381000000006
 11
736.50000000000034
 21
2104.0000000000004
  0
LINE
  8
_1-1_
  6
DASHED1
 62
    7
 10
757.00000000000045
 20
2111.5000000000004
 11
766.20000000000004
 21
2111.5000000000004
  0
LINE
  8
_1-1_
  6
DASHED1
 62
    7
 10
741.00000000000022
 20
2111.5000000000004
 11
731.80000000000063
 21
2111.5000000000004
  0
LINE
  8
_1-1_
  6
DASHED1
 62
    7
 10
750.00000000000056
 20
2111.5000000000004
 11
750.00000000000056
 21
2102.0004000000008
  0
LINE
  8
_1-1_
  6
DASHED1
 62
    7
 10
748.00000000000045
 20
2111.5000000000004
 11
748.00000000000045
 21
2102.0004000000008
  0
LINE
  8
_1-1_
  6
DASHED1
 62
    7
 10
748.50000000000022
 20
2101.5004000000003
 11
749.50000000000045
 21
2101.5004000000003
  0
LINE
  8
_1-1_
  6
DASHED1
 62
    7
 10
748.00000000000045
 20
2105.7200000000007
 11
741.50000000000034
 21
2105.7200000000007
  0
LINE
  8
_1-1_
  6
DASHED1
 62
    7
 10
756.50000000000034
 20
2105.7200000000007
 11
750.00000000000056
 21
2105.7200000000007
  0
LINE
  8
_1-1_
  6
DASHED1
 62
    7
 10
748.00000000000045
 20
2106.0900000000006
 11
746.93925000000035
 21
2106.0900000000006
  0
LINE
  8
_1-1_
  6
DASHED1
 62
    7
 10
744.56075000000055
 20
2106.0900000000006
 11
741.50000000000034
 21
2106.0900000000006
  0
LINE
  8
_1-1_
  6
DASHED1
 62
    7
 10
756.50000000000034
 20
2106.0900000000006
 11
753.43925000000012
 21
2106.0900000000006
  0
LINE
  8
_1-1_
  6
DASHED1
 62
    7
 10
751.06075000000032
 20
2106.0900000000006
 11
750.00000000000056
 21
2106.0900000000006
  0
LINE
  8
_1-1_
  6
DASHED1
 62
    7
 10
768.50000000000022
 20
2101.5000000000004
 11
768.50000000000022
 21
2112.5000000000004
  0
LINE
  8
_1-1_
  6
DASHED1
 62
    7
 10
766.50000000000034
 20
2100.5000000000009
 11
767.50000000000056
 21
2100.5000000000009
  0
LINE
  8
_1-1_
  6
DASHED1
 62
    7
 10
766.50000000000034
 20
2111.2000000000007
 11
766.50000000000034
 21
2092.5000000000004
  0
LINE
  8
_1-1_
  6
DASHED1
 62
    7
 10
729.50000000000045
 20
2101.5000000000004
 11
729.50000000000045
 21
2112.5000000000004
  0
LINE
  8
_1-1_
  6
DASHED1
 62
    7
 10
731.50000000000034
 20
2100.5000000000009
 11
730.50000000000045
 21
2100.5000000000009
  0
LINE
  8
_1-1_
  6
DASHED1
 62
    7
 10
731.50000000000034
 20
2111.2000000000007
 11
731.50000000000034
 21
2092.5000000000004
  0
LINE
  8
_1-1_
  6
DASHED1
 62
    7
 10
749.00000000000034
 20
2148.2000000000007
 11
749.00000000000034
 21
2072.9
  0
LINE
  8
_1-1_
  6
DASHED1
 62
    7
 10
730.37000000000034
 20
2129.0000000000004
 11
769.40000000000054
 21
2129.0000000000004
  0
LINE
  8
_1-1_
  6
DASHED1
 62
    7
 10
736.50000000000034
 20
2108.1500000000005
 11
736.50000000000034
 21
2099.9000000000005
  0
LINE
  8
_1-1_
  6
DASHED1
 62
    7
 10
739.75000000000022
 20
2104.0000000000004
 11
733.20000000000027
 21
2104.0000000000004
  0
LINE
  8
_1-1_
  6
DASHED1
 62
    7
 10
761.50000000000034
 20
2107.8200000000006
 11
761.50000000000034
 21
2100.1000000000003
  0
LINE
  8
_1-1_
  6
DASHED1
 62
    7
 10
758.23000000000035
 20
2104.0000000000004
 11
765.24000000000057
 21
2104.0000000000004
  0
LINE
  8
_1-1_
  6
DASHED1
 62
    7
 10
752.56000000000028
 20
2078.0000500000005
 11
745.29000000000053
 21
2078.0000500000005
  0
ARC
  8
_1-1_
  6
DASHED1
 62
    7
 10
757.50000000000056
 20
2137.5000000000004
 40
9
 50
0.0000000000000254
 51
90.000000000000056
  0
ARC
  8
_1-1_
  6
DASHED1
 62
    7
 10
760.50000000000045
 20
2092.5000000000004
 40
6.0000000000000008
 50
270
 51
0
  0
ARC
  8
_1-1_
  6
DASHED1
 62
    7
 10
760.00000000000056
 20
2089.5000000000004
 40
3.0000000000000004
 50
180.00000000000005
 51
270.00000000000005
  0
ARC
  8
_1-1_
  6
DASHED1
 62
    7
 10
740.50000000000045
 20
2137.5000000000004
 40
9
 50
90.000000000000056
 51
180.00000000000011
  0
ARC
  8
_1-1_
  6
DASHED1
 62
    7
 10
737.50000000000056
 20
2092.5000000000004
 40
6.0000000000000008
 50
180.00000000000005
 51
270.00000000000005
  0
ARC
  8
_1-1_
  6
DASHED1
 62
    7
 10
738.00000000000045
 20
2089.5000000000004
 40
3.0000000000000004
 50
270
 51
0
  0
CIRCLE
  8
_1-1_
  6
DASHED1
 62
    7
 10
736.50000000000034
 20
2104.0000000000004
 40
1.8999999999999999
  0
CIRCLE
  8
_1-1_
  6
DASHED1
 62
    7
 10
761.50000000000034
 20
2104.0000000000004
 40
1.8999999999999999
  0
ARC
  8
_1-1_
  6
DASHED1
 62
    7
 10
767.50000000000056
 20
2112.5000000000004
 40
1
 50
0.0000000000000254
 51
90.000000000000056
  0
ARC
  8
_1-1_
  6
DASHED1
 62
    7
 10
730.50000000000045
 20
2112.5000000000004
 40
1
 50
90.000000000000056
 51
180.00000000000011
  0
ARC
  8
_1-1_
  6
DASHED1
 62
    7
 10
733.50000000000022
 20
2113.5000000000004
 40
2
 50
180.00000000000005
 51
270.00000000000005
  0
ARC
  8
_1-1_
  6
DASHED1
 62
    7
 10
740.50000000000045
 20
2110.6000000000003
 40
0.5
 50
270
 51
0
  0
ARC
  8
_1-1_
  6
DASHED1
 62
    7
 10
739.50000000000045
 20
2110.6000000000003
 40
0.5
 50
180.00000000000005
 51
270.00000000000005
  0
ARC
  8
_1-1_
  6
DASHED1
 62
    7
 10
757.50000000000056
 20
2110.6000000000003
 40
0.5
 50
180.00000000000005
 51
270.00000000000005
  0
ARC
  8
_1-1_
  6
DASHED1
 62
    7
 10
758.50000000000022
 20
2110.6000000000003
 40
0.5
 50
270
 51
0
  0
ARC
  8
_1-1_
  6
DASHED1
 62
    7
 10
764.50000000000045
 20
2113.5000000000004
 40
2
 50
270
 51
0
  0
ARC
  8
_1-1_
  6
DASHED1
 62
    7
 10
749.00000000000034
 20
2082.5000500000005
 40
3.5000000000000008
 50
90.000000000000056
 51
180.00000000000011
  0
ARC
  8
_1-1_
  6
DASHED1
 62
    7
 10
749.00000000000034
 20
2082.5000500000005
 40
3.5000000000000008
 50
0.0000000000000254
 51
90.000000000000056
  0
ARC
  8
_1-1_
  6
DASHED1
 62
    7
 10
749.00000000000034
 20
2082.5000500000005
 40
3.0000000000000004
 50
138.19000000000005
 51
180.00000000000011
  0
ARC
  8
_1-1_
  6
DASHED1
 62
    7
 10
749.00000000000034
 20
2082.5000500000005
 40
3.0000000000000004
 50
0.0000000000000254
 51
41.810000000000023
  0
ARC
  8
_1-1_
  6
DASHED1
 62
    7
 10
747.00000000000045
 20
2076.5000500000001
 40
1
 50
180.00000000000005
 51
270.00000000000005
  0
ARC
  8
_1-1_
  6
DASHED1
 62
    7
 10
751.00000000000022
 20
2076.5000500000001
 40
1
 50
270
 51
0
  0
ARC
  8
_1-1_
  6
DASHED1
 62
    7
 10
751.50000000000034
 20
2083.6421500000005
 40
10
 50
180.00000000000005
 51
225.00000000000005
  0
ARC
  8
_1-1_
  6
DASHED1
 62
    7
 10
746.50000000000034
 20
2083.6421500000005
 40
10
 50
315
 51
0
  0
ARC
  8
_1-1_
  6
DASHED1
 62
    7
 10
766.20000000000004
 20
2111.2000000000007
 40
0.2999999999999998
 50
0.0000000000000254
 51
90.000000000000056
  0
ARC
  8
_1-1_
  6
DASHED1
 62
    7
 10
731.80000000000063
 20
2111.2000000000007
 40
0.2999999999999998
 50
90.000000000000056
 51
180.00000000000011
  0
ARC
  8
_1-1_
  6
DASHED1
 62
    7
 10
749.50000000000045
 20
2102.0004000000008
 40
0.5
 50
270
 51
0
  0
ARC
  8
_1-1_
  6
DASHED1
 62
    7
 10
748.50000000000022
 20
2102.0004000000008
 40
0.5
 50
180.00000000000005
 51
270.00000000000005
  0
ARC
  8
_1-1_
  6
DASHED1
 62
    7
 10
767.50000000000056
 20
2101.5000000000004
 40
1
 50
270
 51
0
  0
ARC
  8
_1-1_
  6
DASHED1
 62
    7
 10
730.50000000000045
 20
2101.5000000000004
 40
1
 50
180.00000000000005
 51
270.00000000000005
  0
CIRCLE
  8
_1-1_
  6
DASHED1
 62
    7
 10
752.25000000000022
 20
2101.5000500000001
 40
2.3250000000000001
  0
CIRCLE
  8
_1-1_
  6
DASHED1
 62
    7
 10
745.75000000000045
 20
2101.5000500000001
 40
2.3250000000000001
  0
CIRCLE
  8
_1-1_
  6
DASHED1
 62
    7
 10
745.75000000000045
 20
2108.0000500000005
 40
2.3250000000000001
  0
CIRCLE
  8
_1-1_
  6
DASHED1
 62
    7
 10
752.25000000000022
 20
2108.0000500000005
 40
2.3250000000000001
  0
CIRCLE
  8
_1-1_
  6
DASHED1
 62
    7
 10
749.00000000000034
 20
2078.0000500000005
 40
1.25
  0
LINE
  8
_0-6_
  6
DASHED1
 62
    7
 10
1015
 20
1002
 11
1015
 21
987
  0
LINE
  8
_0-3_
  6
DASHED1
 62
    2
 10
403.00000000000039
 20
757
 11
1395.5
 21
757
  0
LINE
  8
ADD_LINE
  6
DOT
 62
    9
 10
2850
 20
1237
 11
2850
 21
727
  0
POINT
  8
_0-9_
 62
    3
 10
2880
 20
1437
  0
LINE
  8
_0-9_
  6
CONTINUOUS
 62
    4
 10
2880
 20
1447
 11
2880
 21
1237
  0
LINE
  8
_0-9_
  6
CONTINUOUS
 62
    4
 10
1660
 20
757
 11
1430
 21
757
  0
POINT
  8
_0-9_
 62
    3
 10
1650
 20
757
  0
LINE
  8
_0-9_
  6
CONTINUOUS
 62
    4
 10
1650
 20
757
 11
1650
 21
1207
  0
TEXT
  8
_0-9_
 62
    7
 10
1648
 20
948.89999999999997
 40
35
 41
0.6285714285714286
 50
90
  1
４５０
  0
POINT
  8
_0-9_
 62
    3
 10
1650
 20
1207
  0
LINE
  8
_0-9_
  6
CONTINUOUS
 62
    4
 10
1650
 20
1207
 11
1430
 21
1207
  0
LINE
  8
_0-9_
  6
CONTINUOUS
 62
    4
 10
1400
 20
1447
 11
1400
 21
1237
  0
POINT
  8
_0-9_
 62
    3
 10
1400
 20
1437
  0
LINE
  8
_0-3_
  6
CONTINUOUS
 62
    5
 10
1400
 20
1207
 11
1400
 21
757
  0
LINE
  8
_0-3_
  6
CONTINUOUS
 62
    5
 10
1395.5
 20
757
 11
1400
 21
757
  0
LINE
  8
ADD_LINE
  6
DOT
 62
    9
 10
1430
 20
607
 11
1554.5673050558664
 21
607
  0
LINE
  8
ADD_LINE
  6
DOT
 62
    9
 10
1430
 20
527
 11
1554.5673050558664
 21
527
  0
LINE
  8
ADD_LINE
  6
DOT
 62
    9
 10
2000
 20
727
 11
2418
 21
727
  0
LINE
  8
_0-9_
  6
CONTINUOUS
 62
    4
 10
2568
 20
757
 11
2418
 21
757
  0
POINT
  8
_0-9_
 62
    3
 10
2558
 20
757
  0
LINE
  8
ADD_LINE
  6
DOT
 62
    9
 10
2000
 20
1237
 11
2000
 21
727
  0
LINE
  8
ADD_LINE
  6
DOT
 62
    9
 10
2418
 20
1237
 11
2418
 21
727
  0
LINE
  8
_0-9_
  6
CONTINUOUS
 62
    4
 10
2388
 20
1437
 11
2388
 21
1237
  0
POINT
  8
_0-9_
 62
    3
 10
2388
 20
1437
  0
LINE
  8
_0-9_
  6
CONTINUOUS
 62
    4
 10
2568
 20
1207
 11
2418
 21
1207
  0
LINE
  8
ADD_LINE
  6
DOT
 62
    9
 10
2558
 20
1256.5344723558589
 11
2558
 21
1336.5344723558589
  0
POINT
  8
_0-9_
 62
    3
 10
2558
 20
1207
  0
LINE
  8
_0-9_
  6
CONTINUOUS
 62
    4
 10
2558
 20
757
 11
2558
 21
1207
  0
TEXT
  8
_0-9_
 62
    7
 10
2558
 20
948.89999999999997
 40
35
 41
0.6285714285714286
 50
90
  1
４５０
  0
LINE
  8
ADD_LINE
  6
DOT
 62
    9
 10
2708
 20
1256.5344723558589
 11
2708
 21
1336.5344723558589
  0
LINE
  8
ADD_LINE
  6
DOT
 62
    9
 10
2788
 20
1256.5344723558589
 11
2788
 21
1336.5344723558589
  0
LINE
  8
_0-9_
  6
CONTINUOUS
 62
    4
 10
400
 20
1437
 11
1400
 21
1437
  0
TEXT
  8
_0-9_
 62
    7
 10
844.80000000000018
 20
1437
 40
35
 41
0.6285714285714286
 50
0
  1
１，０００
  0
LINE
  8
_0-9_
  6
CONTINUOUS
 62
    4
 10
400
 20
1447
 11
400
 21
1237
  0
POINT
  8
_0-9_
 62
    3
 10
400
 20
1437
  0
LINE
  8
ADD_LINE
  6
DOT
 62
    9
 10
370
 20
1237
 11
370
 21
727
  0
LINE
  8
_0-3_
  6
CONTINUOUS
 62
    5
 10
400
 20
1207
 11
400
 21
757
  0
LINE
  8
_0-3_
  6
CONTINUOUS
 62
    5
 10
400
 20
1207
 11
1400
 21
1207
  0
LINE
  8
_0-3_
  6
CONTINUOUS
 62
    5
 10
400
 20
757
 11
403.00000000000039
 21
757
  0
LINE
  8
ADD_LINE
  6
DOT
 62
    9
 10
3910
 20
1237
 11
3910
 21
727
  0
POINT
  8
_0-9_
 62
    3
 10
3880
 20
1437
  0
LINE
  8
_0-9_
  6
CONTINUOUS
 62
    4
 10
3880
 20
1447
 11
3880
 21
1237
  0
LINE
  8
ADD_LINE
  6
DOT
 62
    9
 10
2850
 20
727
 11
3910
 21
727
  0
LINE
  8
ADD_LINE
  6
DOT
 62
    9
 10
3910
 20
1237
 11
2850
 21
1237
  0
LINE
  8
_0-9_
  6
CONTINUOUS
 62
    4
 10
2880
 20
1437
 11
3880
 21
1437
  0
TEXT
  8
_0-9_
 62
    7
 10
3324.8000000000001
 20
1437
 40
35
 41
0.6285714285714286
 50
0
  1
１，０００
  0
LINE
  8
_0-9_
  6
CONTINUOUS
 62
    4
 10
3868
 20
517
 11
3868
 21
727
  0
POINT
  8
_0-9_
 62
    3
 10
3868
 20
527
  0
LINE
  8
_0-9_
  6
CONTINUOUS
 62
    4
 10
2892
 20
517
 11
2892
 21
727
  0
POINT
  8
_0-9_
 62
    3
 10
2892
 20
527
  0
LINE
  8
_0-9_
  6
CONTINUOUS
 62
    4
 10
2892
 20
527
 11
3868
 21
527
  0
TEXT
  8
_0-9_
 62
    7
 10
3346.9
 20
527
 40
35
 41
0.6285714285714286
 50
0
  1
９７６
  0
LINE
  8
_0-8_
  6
CONTINUOUS
 62
    4
 10
2084
 20
427
 11
2334
 21
427
  0
LINE
  8
_0-8_
  6
CONTINUOUS
 62
    4
 10
2334
 20
427
 11
2334
 21
357
  0
LINE
  8
_0-8_
  6
CONTINUOUS
 62
    4
 10
2084
 20
357
 11
2334
 21
357
  0
LINE
  8
_0-8_
  6
CONTINUOUS
 62
    4
 10
2084
 20
427
 11
2084
 21
357
  0
LINE
  8
ADD_LINE
  6
DOT
 62
    9
 10
2084
 20
392
 11
2334
 21
392
  0
LINE
  8
ADD_LINE
  6
DOT
 62
    9
 10
2209
 20
357
 11
2209
 21
427
  0
TEXT
  8
_0-8_
 62
    7
 10
2163.8999999999996
 20
374.5
 40
35
 41
0.8571428571428569
 50
0
  1
断面図
  0
TEXT
  8
_0-8_
 62
    7
 10
854.90000000000009
 20
374.5
 40
35
 41
0.8571428571428569
 50
0
  1
立面図
  0
LINE
  8
ADD_LINE
  6
DOT
 62
    9
 10
900
 20
357
 11
900
 21
427
  0
LINE
  8
ADD_LINE
  6
DOT
 62
    9
 10
775
 20
392
 11
1025
 21
392
  0
LINE
  8
_0-8_
  6
CONTINUOUS
 62
    4
 10
775
 20
427
 11
775
 21
357
  0
LINE
  8
_0-8_
  6
CONTINUOUS
 62
    4
 10
775
 20
357
 11
1025
 21
357
  0
LINE
  8
_0-8_
  6
CONTINUOUS
 62
    4
 10
1025
 20
427
 11
1025
 21
357
  0
LINE
  8
_0-8_
  6
CONTINUOUS
 62
    4
 10
775
 20
427
 11
1025
 21
427
  0
LINE
  8
_0-8_
  6
CONTINUOUS
 62
    4
 10
3255
 20
427
 11
3505
 21
427
  0
LINE
  8
_0-8_
  6
CONTINUOUS
 62
    4
 10
3505
 20
427
 11
3505
 21
357
  0
LINE
  8
_0-8_
  6
CONTINUOUS
 62
    4
 10
3255
 20
357
 11
3505
 21
357
  0
LINE
  8
_0-8_
  6
CONTINUOUS
 62
    4
 10
3255
 20
427
 11
3255
 21
357
  0
LINE
  8
ADD_LINE
  6
DOT
 62
    9
 10
3255
 20
392
 11
3505
 21
392
  0
LINE
  8
ADD_LINE
  6
DOT
 62
    9
 10
3380
 20
357
 11
3380
 21
427
  0
TEXT
  8
_0-8_
 62
    7
 10
3334.9
 20
374.5
 40
35
 41
0.8571428571428569
 50
0
  1
背面図
  0
LINE
  8
_0-4_
  6
CONTINUOUS
 62
    3
 10
698.00000000000011
 20
1202.0000000000002
 11
698.00000000000011
 21
750.00000000000022
  0
LINE
  8
_0-4_
  6
CONTINUOUS
 62
    3
 10
699.00000000000034
 20
1202.0000000000002
 11
699.00000000000034
 21
750.00000000000022
  0
LINE
  8
_0-4_
  6
CONTINUOUS
 62
    3
 10
1001.9999999999995
 20
1202.0000000000002
 11
1001.9999999999995
 21
750.00000000000022
  0
LINE
  8
_0-4_
  6
CONTINUOUS
 62
    3
 10
698.00000000000011
 20
750.00000000000022
 11
698.00000000000011
 21
742.00000000000034
  0
LINE
  8
_0-4_
  6
CONTINUOUS
 62
    3
 10
699.00000000000034
 20
750.00000000000022
 11
699.00000000000034
 21
742.00000000000034
  0
LINE
  8
_0-4_
  6
CONTINUOUS
 62
    3
 10
1001.9999999999995
 20
750.00000000000022
 11
1001.9999999999995
 21
742.00000000000034
  0
LINE
  8
ADD_LINE
  6
DOT
 62
    9
 10
1430
 20
1237
 11
370
 21
1237
  0
LINE
  8
ADD_LINE
  6
DOT
 62
    9
 10
370
 20
727
 11
1430
 21
727
  0
POINT
  8
_0-9_
 62
    3
 10
1650
 20
757
  0
LINE
  8
ADD_LINE
  6
DOT
 62
    9
 10
1430
 20
1237
 11
1430
 21
727
  0
LINE
  8
_0-9_
  6
CONTINUOUS
 62
    4
 10
2030
 20
1437
 11
2030
 21
1237
  0
POINT
  8
_0-9_
 62
    3
 10
2030
 20
1437
  0
POINT
  8
_0-9_
 62
    3
 10
2030
 20
1437
  0
POINT
  8
_0-9_
 62
    3
 10
2388
 20
1437
  0
LINE
  8
_0-9_
  6
CONTINUOUS
 62
    4
 10
2030
 20
1437
 11
2388
 21
1437
  0
TEXT
  8
_0-9_
 62
    7
 10
2175.9
 20
1437
 40
35
 41
0.6285714285714286
 50
0
  1
３５８
  0
LINE
  8
_0-9_
  6
CONTINUOUS
 62
    4
 10
1650
 20
742.00000000000022
 11
1650
 21
695.65019346039446
  0
TEXT
  8
_0-9_
 62
    7
 10
1648.9174448688822
 20
696.04065946959178
 40
35
 41
0.6285714285714286
 50
90
  1
１５
  0
POINT
  8
_0-9_
 62
    4
 10
1650
 20
742.00000000000022
  0
LINE
  8
_0-9_
  6
CONTINUOUS
 62
    4
 10
1660
 20
742.00000000000022
 11
1430
 21
742.00000000000022
  0
LINE
  8
_0-9_
  6
CONTINUOUS
 62
    4
 10
1650
 20
757
 11
1650
 21
742.00000000000022
  0
POINT
  8
_0-9_
 62
    4
 10
2478
 20
757
  0
LINE
  8
_0-9_
  6
CONTINUOUS
 62
    4
 10
2488
 20
757
 11
2448
 21
757
  0
LINE
  8
_0-9_
  6
CONTINUOUS
 62
    4
 10
2488
 20
922
 11
2418
 21
922
  0
LINE
  8
_0-9_
  6
CONTINUOUS
 62
    4
 10
2488
 20
1042
 11
2418
 21
1042
  0
LINE
  8
_0-9_
  6
CONTINUOUS
 62
    4
 10
2488
 20
982
 11
2418
 21
982
  0
POINT
  8
_0-9_
 62
    4
 10
2370.5
 20
1083.5
  0
LINE
  8
_0-9_
  6
CONTINUOUS
 62
    4
 10
2081
 20
1093.5
 11
2081
 21
1029.5020840946763
  0
LINE
  8
_0-9_
  6
CONTINUOUS
 62
    4
 10
2370.5
 20
1083.5
 11
2081
 21
1083.5
  0
TEXT
  8
_0-9_
 62
    7
 10
2192.6499999999996
 20
1088.5
 40
35
 41
0.6285714285714286
 50
0
  1
２９０
  0
LINE
  8
_0-9_
  6
CONTINUOUS
 62
    4
 10
2478
 20
982
 11
2478
 21
1042
  0
TEXT
  8
_0-9_
 62
    7
 10
2473
 20
989.95000000000004
 40
35
 41
0.6285714285714286
 50
90
  1
６０
  0
LINE
  8
_0-9_
  6
CONTINUOUS
 62
    4
 10
2478
 20
922
 11
2478
 21
982
  0
TEXT
  8
_0-9_
 62
    7
 10
2473
 20
929.95000000000004
 40
35
 41
0.6285714285714286
 50
90
  1
６０
  0
LINE
  8
_0-9_
  6
CONTINUOUS
 62
    4
 10
2478
 20
757
 11
2478
 21
922
  0
TEXT
  8
_0-9_
 62
    7
 10
2473
 20
806.39999999999997
 40
35
 41
0.6285714285714286
 50
90
  1
１６５
  0
LINE
  8
ADD_LINE
  6
DOT
 62
    9
 10
404.00000000000005
 20
1276.9440223055905
 11
404.00000000000005
 21
1202.0000000000002
  0
LINE
  8
_0-4_
  6
CONTINUOUS
 62
    3
 10
992.99999999999977
 20
750.00000000000022
 11
992.99999999999977
 21
742.00000000000034
  0
LINE
  8
_0-4_
  6
CONTINUOUS
 62
    3
 10
1396.0000000000002
 20
1202.0000000000002
 11
1396.0000000000002
 21
750.00000000000022
  0
LINE
  8
_0-4_
  6
CONTINUOUS
 62
    3
 10
1396.0000000000002
 20
750.00000000000022
 11
1396.0000000000002
 21
742.00000000000034
  0
LINE
  8
_0-4_
  6
CONTINUOUS
 62
    3
 10
1001.9999999999995
 20
1202.0000000000002
 11
1396.0000000000002
 21
1202.0000000000002
  0
LINE
  8
_0-4_
  6
CONTINUOUS
 62
    3
 10
1396.0000000000002
 20
1202.0000000000002
 11
1396.0000000000002
 21
742.00000000000034
  0
LINE
  8
_0-4_
  6
CONTINUOUS
 62
    3
 10
699.00000000000034
 20
1202.0000000000002
 11
992.99999999999977
 21
1202.0000000000002
  0
LINE
  8
_0-4_
  6
CONTINUOUS
 62
    3
 10
992.99999999999977
 20
1202.0000000000002
 11
992.99999999999977
 21
750.00000000000022
  0
LINE
  8
_0-4_
  6
CONTINUOUS
 62
    3
 10
404.00000000000005
 20
1202.0000000000002
 11
698.00000000000011
 21
1202.0000000000002
  0
LINE
  8
_0-4_
  6
CONTINUOUS
 62
    3
 10
404.00000000000005
 20
1202.0000000000002
 11
404.00000000000005
 21
751.23617819483899
  0
LINE
  8
_0-4_
  6
CENTER2
 62
    4
 10
698.00000000000011
 20
1202.0000000000002
 11
404.00000000000005
 21
976.00000000000022
  0
LINE
  8
_0-4_
  6
CENTER2
 62
    4
 10
404.00000000000005
 20
976.00000000000022
 11
698.00000000000011
 21
742.00000000000034
  0
LINE
  8
_0-4_
  6
CENTER2
 62
    4
 10
699.00000000000034
 20
742.00000000000034
 11
992.99999999999977
 21
976.00000000000022
  0
LINE
  8
_0-4_
  6
CENTER2
 62
    4
 10
992.99999999999977
 20
976.00000000000022
 11
699.00000000000034
 21
1202.0000000000002
  0
LINE
  8
_0-4_
  6
CENTER2
 62
    4
 10
1001.9999999999995
 20
1202.0000000000002
 11
1396.0000000000002
 21
976.00000000000022
  0
LINE
  8
_0-4_
  6
CENTER2
 62
    4
 10
1396.0000000000002
 20
976.00000000000022
 11
1001.9999999999995
 21
742.00000000000034
  0
LINE
  8
_0-4_
  6
CONTINUOUS
 62
    3
 10
404.00000000000005
 20
751.23617819483899
 11
404.00000000000005
 21
742.00000000000034
  0
ARC
  8
_0-5_
  6
CONTINUOUS
 62
    4
 10
695
 20
746.00000000000011
 40
3.0000000000000004
 50
0
 51
90
  0
ARC
  8
_0-5_
  6
CONTINUOUS
 62
    4
 10
702.00000000000022
 20
746.00000000000011
 40
3.0000000000000004
 50
90
 51
180
  0
ARC
  8
_0-5_
  6
CONTINUOUS
 62
    4
 10
1004.9999999999995
 20
746.00000000000011
 40
3.0000000000000004
 50
90
 51
180
  0
LINE
  8
_0-5_
  6
CONTINUOUS
 62
    4
 10
1396.0000000000002
 20
777.99999999999977
 11
1001.9999999999995
 21
777.99999999999977
  0
LINE
  8
_0-5_
  6
CONTINUOUS
 62
    4
 10
1396.0000000000002
 20
770.39999999999724
 11
1001.9999999999995
 21
770.39999999999724
  0
ARC
  8
_0-5_
  6
CONTINUOUS
 62
    4
 10
1393
 20
746.00000000000011
 40
3.0000000000000004
 50
0
 51
90
  0
LINE
  8
_0-5_
  6
CONTINUOUS
 62
    4
 10
1004.9999999999995
 20
749
 11
1393
 21
749
  0
LINE
  8
_0-5_
  6
CONTINUOUS
 62
    4
 10
992.99999999999977
 20
777.99999999999977
 11
698.99999999999977
 21
777.99999999999977
  0
LINE
  8
_0-5_
  6
CONTINUOUS
 62
    4
 10
992.99999999999977
 20
770.39999999999724
 11
698.99999999999977
 21
770.39999999999724
  0
ARC
  8
_0-5_
  6
CONTINUOUS
 62
    4
 10
990
 20
746.00000000000011
 40
3.0000000000000004
 50
0
 51
90
  0
LINE
  8
_0-5_
  6
CONTINUOUS
 62
    4
 10
702.00000000000022
 20
749
 11
990
 21
749
  0
LINE
  8
_0-5_
  6
CONTINUOUS
 62
    4
 10
698.00000000000045
 20
777.99999999999977
 11
404.00000000000005
 21
777.99999999999977
  0
LINE
  8
_0-5_
  6
CONTINUOUS
 62
    4
 10
698.00000000000045
 20
770.39999999999724
 11
404.00000000000005
 21
770.39999999999724
  0
ARC
  8
_0-5_
  6
CONTINUOUS
 62
    4
 10
407.00000000000017
 20
746.00000000000011
 40
3.0000000000000004
 50
90
 51
180
  0
LINE
  8
_0-5_
  6
CONTINUOUS
 62
    4
 10
407.00000000000017
 20
749
 11
695
 21
749
  0
LINE
  8
_0-5_
  6
CONTINUOUS
 62
    4
 10
1396.0000000000002
 20
742.00000000000034
 11
1001.9999999999995
 21
742.00000000000034
  0
LINE
  8
_0-5_
  6
CONTINUOUS
 62
    4
 10
992.99999999999977
 20
742.00000000000034
 11
699.00000000000034
 21
742.00000000000034
  0
LINE
  8
_0-5_
  6
CONTINUOUS
 62
    4
 10
698.00000000000011
 20
742.00000000000034
 11
404.00000000000005
 21
742.00000000000034
  0
LINE
  8
_0-3_
  6
CONTINUOUS
 62
    5
 10
2880
 20
1207
 11
2880
 21
757
  0
LINE
  8
_0-3_
  6
CONTINUOUS
 62
    5
 10
3880
 20
1207
 11
3880
 21
757
  0
LINE
  8
_0-3_
  6
CONTINUOUS
 62
    5
 10
2880
 20
1207
 11
3880
 21
1207
  0
LINE
  8
_0-3_
  6
CONTINUOUS
 62
    5
 10
2880
 20
757
 11
3880
 21
757
  0
LINE
  8
_0-a_
  6
CONTINUOUS
 62
    4
 10
3760.1933598375576
 20
1121.999999999999
 11
3845.1933598375544
 21
1206.9999999999968
  0
LINE
  8
_0-a_
  6
CONTINUOUS
 62
    4
 10
3731.9090885900877
 20
1121.9999999999963
 11
3816.9090885900909
 21
1206.9999999999993
  0
LINE
  8
_0-a_
  6
CONTINUOUS
 62
    4
 10
3703.6248173426429
 20
1122.0000000000002
 11
3788.6248173426406
 21
1206.9999999999979
  0
LINE
  8
_0-a_
  6
CONTINUOUS
 62
    4
 10
3675.340546095178
 20
1122.0000000000015
 11
3760.3405460951762
 21
1206.9999999999997
  0
LINE
  8
_0-a_
  6
CONTINUOUS
 62
    4
 10
3647.0562748477095
 20
1122
 11
3732.0562748477073
 21
1206.9999999999977
  0
LINE
  8
_0-a_
  6
CONTINUOUS
 62
    4
 10
3618.7720036002497
 20
1121.9999999999979
 11
3703.7720036002529
 21
1207.0000000000006
  0
LINE
  8
_0-a_
  6
CONTINUOUS
 62
    4
 10
3590.4877323527953
 20
1122.0000000000011
 11
3675.4877323527935
 21
1206.9999999999986
  0
LINE
  8
_0-a_
  6
CONTINUOUS
 62
    4
 10
3562.2034611053295
 20
1122.0000000000018
 11
3647.2034611053277
 21
1207
  0
LINE
  8
_0-a_
  6
CONTINUOUS
 62
    4
 10
3533.9191898578615
 20
1122.0000000000006
 11
3618.9191898578592
 21
1206.9999999999984
  0
LINE
  8
_0-a_
  6
CONTINUOUS
 62
    4
 10
3505.6349186104116
 20
1121.999999999999
 11
3590.6349186104148
 21
1207.0000000000022
  0
LINE
  8
_0-a_
  6
CONTINUOUS
 62
    4
 10
3477.3506473629477
 20
1122.0000000000018
 11
3562.3506473629454
 21
1206.9999999999995
  0
LINE
  8
_0-a_
  6
CONTINUOUS
 62
    4
 10
3449.0663761154814
 20
1122.0000000000018
 11
3534.0663761154792
 21
1207.0000000000002
  0
LINE
  8
_0-a_
  6
CONTINUOUS
 62
    4
 10
3420.7821048680084
 20
1121.9999999999961
 11
3505.7821048680116
 21
1206.999999999999
  0
LINE
  8
_0-a_
  6
CONTINUOUS
 62
    4
 10
3392.497833620564
 20
1122.0000000000002
 11
3477.4978336205617
 21
1206.9999999999979
  0
LINE
  8
_0-a_
  6
CONTINUOUS
 62
    4
 10
3364.2135623730996
 20
1122.0000000000025
 11
3449.2135623730978
 21
1207.0000000000002
  0
LINE
  8
_0-a_
  6
CONTINUOUS
 62
    4
 10
3335.9292911256306
 20
1122
 11
3420.9292911256284
 21
1206.9999999999974
  0
LINE
  8
_0-a_
  6
CONTINUOUS
 62
    4
 10
3307.6450198781612
 20
1121.999999999997
 11
3392.645019878164
 21
1207
  0
LINE
  8
_0-a_
  6
CONTINUOUS
 62
    4
 10
3279.3607486307164
 20
1122.0000000000009
 11
3364.3607486307146
 21
1206.9999999999984
  0
LINE
  8
_0-a_
  6
CONTINUOUS
 62
    4
 10
3251.0764773832524
 20
1122.0000000000031
 11
3336.0764773832497
 21
1207.0000000000011
  0
LINE
  8
_0-a_
  6
CONTINUOUS
 62
    4
 10
3222.7922061357826
 20
1122.0000000000004
 11
3307.7922061357803
 21
1206.9999999999984
  0
LINE
  8
_0-a_
  6
CONTINUOUS
 62
    4
 10
3194.5079348883132
 20
1121.9999999999979
 11
3279.5079348883164
 21
1207.0000000000006
  0
LINE
  8
_0-a_
  6
CONTINUOUS
 62
    4
 10
3166.2236636408688
 20
1122.0000000000018
 11
3251.2236636408665
 21
1206.9999999999995
  0
LINE
  8
_0-a_
  6
CONTINUOUS
 62
    4
 10
3137.9393923934003
 20
1122.0000000000002
 11
3222.9393923933985
 21
1206.9999999999984
  0
LINE
  8
_0-a_
  6
CONTINUOUS
 62
    4
 10
3109.6551211459345
 20
1122.0000000000013
 11
3194.6551211459327
 21
1206.999999999999
  0
LINE
  8
_0-a_
  6
CONTINUOUS
 62
    4
 10
3081.370849898466
 20
1121.9999999999986
 11
3166.3708498984688
 21
1207.0000000000015
  0
LINE
  8
_0-a_
  6
CONTINUOUS
 62
    4
 10
3053.0865786510207
 20
1122.0000000000025
 11
3138.0865786510184
 21
1207.0000000000002
  0
LINE
  8
_0-a_
  6
CONTINUOUS
 62
    4
 10
3024.8023074035522
 20
1122.0000000000004
 11
3109.8023074035509
 21
1206.9999999999986
  0
LINE
  8
_0-a_
  6
CONTINUOUS
 62
    4
 10
2996.5180361560874
 20
1122.0000000000022
 11
3081.5180361560851
 21
1207
  0
LINE
  8
_0-a_
  6
CONTINUOUS
 62
    4
 10
2968.2337649086375
 20
1122.0000000000006
 11
3053.2337649086407
 21
1207.0000000000038
  0
LINE
  8
_0-a_
  6
CONTINUOUS
 62
    4
 10
2939.9494936611736
 20
1122.0000000000031
 11
3024.9494936611708
 21
1207.0000000000009
  0
LINE
  8
_0-a_
  6
CONTINUOUS
 62
    4
 10
2911.6652224137037
 20
1122.0000000000004
 11
2996.6652224137023
 21
1206.9999999999986
  0
LINE
  8
_0-a_
  6
CONTINUOUS
 62
    4
 10
3798.1731573020351
 20
763.9999999999984
 11
3843.1731573020333
 21
808.99999999999647
  0
LINE
  8
_0-a_
  6
CONTINUOUS
 62
    4
 10
3769.8888860545707
 20
764.00000000000068
 11
3814.8888860545694
 21
808.9999999999992
  0
LINE
  8
_0-a_
  6
CONTINUOUS
 62
    4
 10
3741.6046148071063
 20
764.00000000000261
 11
3786.6046148071054
 21
809.00000000000113
  0
LINE
  8
_0-a_
  6
CONTINUOUS
 62
    4
 10
3713.3203435596324
 20
763.99999999999522
 11
3758.320343559636
 21
808.99999999999886
  0
LINE
  8
_0-a_
  6
CONTINUOUS
 62
    4
 10
3685.0360723121875
 20
763.99999999999909
 11
3730.0360723121862
 21
808.99999999999749
  0
LINE
  8
_0-a_
  6
CONTINUOUS
 62
    4
 10
3656.7518010647236
 20
764.00000000000147
 11
3701.7518010647222
 21
809
  0
LINE
  8
_0-a_
  6
CONTINUOUS
 62
    4
 10
3628.4675298172528
 20
763.99999999999761
 11
3673.4675298172569
 21
809.00000000000147
  0
LINE
  8
_0-a_
  6
CONTINUOUS
 62
    4
 10
3600.1832585697843
 20
763.99999999999613
 11
3645.1832585697884
 21
808.99999999999977
  0
LINE
  8
_0-a_
  6
CONTINUOUS
 62
    4
 10
3571.8989873223399
 20
764
 11
3616.8989873223381
 21
808.9999999999984
  0
LINE
  8
_0-a_
  6
CONTINUOUS
 62
    4
 10
3543.614716074876
 20
764.0000000000025
 11
3588.6147160748737
 21
809.00000000000068
  0
LINE
  8
_0-a_
  6
CONTINUOUS
 62
    4
 10
3515.3304448274006
 20
763.99999999999431
 11
3560.3304448274047
 21
808.99999999999772
  0
LINE
  8
_0-a_
  6
CONTINUOUS
 62
    4
 10
3487.0461735799372
 20
763.99999999999681
 11
3532.0461735799403
 21
809.00000000000034
  0
LINE
  8
_0-a_
  6
CONTINUOUS
 62
    4
 10
3458.7619023324918
 20
764.00000000000068
 11
3503.7619023324905
 21
808.99999999999886
  0
LINE
  8
_0-a_
  6
CONTINUOUS
 62
    4
 10
3430.4776310850279
 20
764.00000000000318
 11
3475.4776310850265
 21
809.00000000000147
  0
LINE
  8
_0-a_
  6
CONTINUOUS
 62
    4
 10
3402.1933598375535
 20
763.99999999999522
 11
3447.1933598375567
 21
808.99999999999863
  0
LINE
  8
_0-a_
  6
CONTINUOUS
 62
    4
 10
3373.9090885900891
 20
763.99999999999761
 11
3418.9090885900873
 21
808.99999999999579
  0
LINE
  8
_0-a_
  6
CONTINUOUS
 62
    4
 10
3345.6248173426447
 20
764.00000000000147
 11
3390.6248173426429
 21
808.99999999999977
  0
LINE
  8
_0-a_
  6
CONTINUOUS
 62
    4
 10
3317.3405460951771
 20
764.0000000000009
 11
3362.3405460951753
 21
808.99999999999965
  0
LINE
  8
_0-a_
  6
CONTINUOUS
 62
    4
 10
3289.0562748477054
 20
763.9999999999959
 11
3334.0562748477086
 21
808.99999999999954
  0
LINE
  8
_0-a_
  6
CONTINUOUS
 62
    4
 10
3260.772003600251
 20
763.9999999999992
 11
3305.7720036002497
 21
808.99999999999749
  0
LINE
  8
_0-a_
  6
CONTINUOUS
 62
    4
 10
3232.4877323527971
 20
764.00000000000227
 11
3277.4877323527948
 21
809.00000000000068
  0
LINE
  8
_0-a_
  6
CONTINUOUS
 62
    4
 10
3204.2034611053286
 20
764.00000000000113
 11
3249.2034611053277
 21
808.99999999999977
  0
LINE
  8
_0-a_
  6
CONTINUOUS
 62
    4
 10
3175.9191898578583
 20
763.99999999999681
 11
3220.9191898578615
 21
809.00000000000034
  0
LINE
  8
_0-a_
  6
CONTINUOUS
 62
    4
 10
3147.634918610413
 20
764.00000000000068
 11
3192.6349186104116
 21
808.99999999999886
  0
LINE
  8
_0-a_
  6
CONTINUOUS
 62
    4
 10
3119.350647362949
 20
764.00000000000318
 11
3164.3506473629477
 21
809.00000000000147
  0
LINE
  8
_0-a_
  6
CONTINUOUS
 62
    4
 10
3091.0663761154751
 20
763.99999999999613
 11
3136.0663761154792
 21
808.99999999999988
  0
LINE
  8
_0-a_
  6
CONTINUOUS
 62
    4
 10
3062.7821048680102
 20
763.99999999999749
 11
3107.7821048680134
 21
809.00000000000113
  0
LINE
  8
_0-a_
  6
CONTINUOUS
 62
    4
 10
3034.4978336205658
 20
764.00000000000147
 11
3079.497833620564
 21
808.99999999999977
  0
LINE
  8
_0-a_
  6
CONTINUOUS
 62
    4
 10
3006.213562373101
 20
764.00000000000386
 11
3051.2135623730996
 21
809.00000000000216
  0
LINE
  8
_0-a_
  6
CONTINUOUS
 62
    4
 10
2977.9292911256266
 20
763.99999999999579
 11
3022.9292911256297
 21
808.99999999999931
  0
LINE
  8
_0-a_
  6
CONTINUOUS
 62
    4
 10
2949.6450198781622
 20
763.9999999999984
 11
2994.6450198781658
 21
809.00000000000193
  0
LINE
  8
_0-a_
  6
CONTINUOUS
 62
    4
 10
2921.3607486307178
 20
764.00000000000227
 11
2966.3607486307159
 21
809.00000000000068
  0
POINT
  8
_0-9_
 62
    3
 10
1650
 20
742.00000000000022
  0
POINT
  8
_0-9_
 62
    3
 10
2788
 20
1207
  0
POINT
  8
_0-9_
 62
    3
 10
2788
 20
1122
  0
LINE
  8
_0-9_
  6
CONTINUOUS
 62
    4
 10
2778
 20
1207
 11
2850
 21
1207
  0
LINE
  8
_0-9_
  6
CONTINUOUS
 62
    4
 10
2778
 20
1122
 11
2850
 21
1122
  0
LINE
  8
_0-9_
  6
CONTINUOUS
 62
    4
 10
2788
 20
1207
 11
2788
 21
1122
  0
TEXT
  8
_0-9_
 62
    7
 10
2783
 20
1142.45
 40
35
 41
0.6285714285714286
 50
90
  1
８５
  0
POINT
  8
_0-9_
 62
    3
 10
2788
 20
809.00000000000022
  0
POINT
  8
_0-9_
 62
    3
 10
2788
 20
764.00000000000477
  0
LINE
  8
_0-9_
  6
CONTINUOUS
 62
    4
 10
2778
 20
809.00000000000022
 11
2850
 21
809.00000000000022
  0
LINE
  8
_0-9_
  6
CONTINUOUS
 62
    4
 10
2778
 20
764.00000000000477
 11
2850
 21
764.00000000000477
  0
LINE
  8
_0-9_
  6
CONTINUOUS
 62
    4
 10
2788
 20
809.00000000000022
 11
2788
 21
764.00000000000477
  0
TEXT
  8
_0-9_
 62
    7
 10
2783
 20
715.56213961165337
 40
35
 41
0.6285714285714286
 50
90
  1
４５
  0
LINE
  8
_0-9_
  6
CONTINUOUS
 62
    4
 10
2788
 20
764.00000000000477
 11
2788
 21
717.70299212777047
  0
POINT
  8
_0-9_
 62
    3
 10
1396.0000000000002
 20
527
  0
POINT
  8
_0-9_
 62
    3
 10
1001.9999999999995
 20
527
  0
LINE
  8
_0-9_
  6
CONTINUOUS
 62
    4
 10
1396.0000000000002
 20
517
 11
1396.0000000000002
 21
727
  0
LINE
  8
_0-9_
  6
CONTINUOUS
 62
    4
 10
1001.9999999999995
 20
517
 11
1001.9999999999995
 21
727
  0
LINE
  8
_0-9_
  6
CONTINUOUS
 62
    4
 10
1396.0000000000002
 20
527
 11
1001.9999999999995
 21
527
  0
TEXT
  8
_0-9_
 62
    7
 10
1165.8999999999996
 20
532
 40
35
 41
0.6285714285714286
 50
0
  1
３９４
  0
POINT
  8
_0-9_
 62
    3
 10
992.99999999999977
 20
527
  0
POINT
  8
_0-9_
 62
    3
 10
699.00000000000034
 20
527
  0
LINE
  8
_0-9_
  6
CONTINUOUS
 62
    4
 10
992.99999999999977
 20
517
 11
992.99999999999977
 21
727
  0
LINE
  8
_0-9_
  6
CONTINUOUS
 62
    4
 10
699.00000000000034
 20
517
 11
699.00000000000034
 21
727
  0
LINE
  8
_0-9_
  6
CONTINUOUS
 62
    4
 10
992.99999999999977
 20
527
 11
699.00000000000034
 21
527
  0
TEXT
  8
_0-9_
 62
    7
 10
812.9000000000002
 20
532
 40
35
 41
0.6285714285714286
 50
0
  1
２９４
  0
POINT
  8
_0-9_
 62
    3
 10
698.00000000000011
 20
527
  0
POINT
  8
_0-9_
 62
    3
 10
404.00000000000005
 20
527
  0
LINE
  8
_0-9_
  6
CONTINUOUS
 62
    4
 10
698.00000000000011
 20
517
 11
698.00000000000011
 21
727
  0
LINE
  8
_0-9_
  6
CONTINUOUS
 62
    4
 10
404.00000000000005
 20
517
 11
404.00000000000005
 21
727
  0
LINE
  8
_0-9_
  6
CONTINUOUS
 62
    4
 10
698.00000000000011
 20
527
 11
404.00000000000005
 21
527
  0
TEXT
  8
_0-9_
 62
    7
 10
517.9000000000002
 20
532
 40
35
 41
0.6285714285714286
 50
0
  1
２９４
  0
LINE
  8
_0-3_
  6
DASHED1
 62
    2
 10
414.49999999999988
 20
1207
 11
414.49999999999988
 21
757
  0
LINE
  8
_0-3_
  6
DASHED1
 62
    2
 10
1385.5
 20
1207
 11
1385.5
 21
757
  0
LINE
  8
_0-3_
  6
CONTINUOUS
 62
    5
 10
2894.5
 20
1207
 11
2894.5
 21
757
  0
LINE
  8
_0-3_
  6
CONTINUOUS
 62
    5
 10
3865.5
 20
1207
 11
3865.5
 21
757
  0
LINE
  8
_0-a_
  6
CONTINUOUS
 62
    4
 10
2894.5
 20
1189.6875913286785
 11
2911.8124086713232
 21
1207.0000000000018
  0
LINE
  8
_0-a_
  6
CONTINUOUS
 62
    4
 10
2894.5
 20
1161.4033200812118
 11
2940.0966799187876
 21
1206.9999999999993
  0
LINE
  8
_0-a_
  6
CONTINUOUS
 62
    4
 10
2894.5
 20
1133.1190488337633
 11
2968.3809511662375
 21
1207.0000000000006
  0
LINE
  8
_0-a_
  6
CONTINUOUS
 62
    4
 10
2894.5
 20
793.70779386421781
 11
2909.7922061357826
 21
809.00000000000022
  0
LINE
  8
_0-a_
  6
CONTINUOUS
 62
    4
 10
2894.5
 20
765.42352261675114
 11
2938.0764773832515
 21
809.00000000000306
  0
LINE
  8
_0-a_
  6
CONTINUOUS
 62
    4
 10
3788.477631085027
 20
1122.000000000002
 11
3865.5
 21
1199.0223689149752
  0
LINE
  8
_0-a_
  6
CONTINUOUS
 62
    4
 10
3816.7619023324909
 20
1121.9999999999993
 11
3865.5
 21
1170.7380976675085
  0
LINE
  8
_0-a_
  6
CONTINUOUS
 62
    4
 10
3845.0461735799353
 20
1121.9999999999954
 11
3865.5
 21
1142.4538264200602
  0
LINE
  8
_0-a_
  6
CONTINUOUS
 62
    4
 10
3826.45742854948
 20
763.99999999999454
 11
3865.5
 21
803.04257145051451
  0
LINE
  8
_0-a_
  6
CONTINUOUS
 62
    4
 10
3854.7416997969548
 20
764.0000000000025
 11
3865.5
 21
774.75830020304783
  0
LINE
  8
_0-3_
  6
CONTINUOUS
 62
    2
 10
2894.5
 20
1122
 11
3865.5
 21
1122
  0
LINE
  8
_0-3_
  6
CONTINUOUS
 62
    4
 10
2894.5
 20
763.99999999999988
 11
3865.5
 21
763.99999999999988
  0
LINE
  8
_0-3_
  6
CONTINUOUS
 62
    2
 10
2894.5
 20
809.00000000000022
 11
3865.5
 21
809.00000000000022
  0
LINE
  8
_0-3_
  6
DASHED1
 62
    2
 10
414.49999999999988
 20
777.5
 11
1385.5
 21
777.5
  0
LINE
  8
_0-3_
  6
DASHED1
 62
    2
 10
988
 20
1169
 11
988
 21
777.5
  0
LINE
  8
_0-3_
  6
DASHED1
 62
    2
 10
1013
 20
1169
 11
1013
 21
777.5
  0
LINE
  8
_0-3_
  6
DASHED1
 62
    2
 10
988
 20
1169
 11
988
 21
1192
  0
LINE
  8
_0-3_
  6
DASHED1
 62
    2
 10
1013
 20
1169
 11
1013
 21
1192
  0
CIRCLE
  8
_0-0_
  6
CONTINUOUS
 62
    7
 10
2095.0000000000009
 20
982
 40
1.5000000000000002
  0
LINE
  8
_0-0_
  6
CONTINUOUS
 62
    7
 10
2100.0000000000009
 20
983.06887500000004
 11
2100.0000000000009
 21
984
  0
LINE
  8
_0-0_
  6
CONTINUOUS
 62
    7
 10
2100.0000000000009
 20
984
 11
2100.9287750000012
 21
984.066325
  0
LINE
  8
_0-0_
  6
CONTINUOUS
 62
    7
 10
2090.0000000000009
 20
982
 11
2090.0000000000009
 21
983
  0
LINE
  8
_0-0_
  6
CONTINUOUS
 62
    7
 10
2089.0000000000009
 20
984
 11
2076.5000000000009
 21
984
  0
LINE
  8
_0-0_
  6
CONTINUOUS
 62
    7
 10
2100.0000000000009
 20
982
 11
2100.0000000000009
 21
983.06887500000004
  0
LINE
  8
_0-0_
  6
CONTINUOUS
 62
    7
 10
2100.9287750000012
 20
984.066325
 11
2113.0712500000008
 21
984.93364999999994
  0
LINE
  8
_0-0_
  6
CONTINUOUS
 62
    7
 10
2114.0000000000009
 20
985.93110000000001
 11
2114.0000000000009
 21
986
  0
LINE
  8
_0-0_
  6
CONTINUOUS
 62
    7
 10
2081.6339750000006
 20
1004
 11
2079.7576000000008
 21
1007.25
  0
LINE
  8
_0-0_
  6
CONTINUOUS
 62
    7
 10
2113.0000000000009
 20
987
 11
2077.5000000000009
 21
987
  0
LINE
  8
_0-0_
  6
CONTINUOUS
 62
    7
 10
2080.7679500000008
 20
1002.5
 11
2077.5000000000009
 21
1002.5
  0
LINE
  8
_0-0_
  6
CONTINUOUS
 62
    7
 10
2076.5000000000009
 20
1001.5
 11
2076.5000000000009
 21
988
  0
ARC
  8
_0-0_
  6
CONTINUOUS
 62
    7
 10
2076.5000000000009
 20
987.79999999999995
 40
3.7999999999999998
 50
177.46800000000004
 51
270.00000000000005
  0
ARC
  8
_0-0_
  6
CONTINUOUS
 62
    7
 10
2095.0000000000009
 20
982
 40
5
 50
180.00000000000005
 51
0.0000000000001017
  0
CIRCLE
  8
_0-0_
  6
PHANTOM2
 62
    7
 10
2095.0000000000009
 20
982
 40
4.0999999999999996
  0
CIRCLE
  8
_0-0_
  6
PHANTOM2
 62
    7
 10
2095.0000000000009
 20
982
 40
1.925
  0
ARC
  8
_0-0_
  6
CONTINUOUS
 62
    7
 10
2074.6567750000008
 20
1006.5
 40
1
 50
90.000000000000028
 51
177.46800000000004
  0
ARC
  8
_0-0_
  6
CONTINUOUS
 62
    7
 10
2079.324575000001
 20
1007
 40
0.5
 50
30.000000000000003
 51
90.000000000000028
  0
ARC
  8
_0-0_
  6
CONTINUOUS
 62
    7
 10
2089.0000000000009
 20
983
 40
1
 50
0
 51
90.000000000000028
  0
ARC
  8
_0-0_
  6
CONTINUOUS
 62
    7
 10
2101.0000000000009
 20
983.06887500000004
 40
1
 50
94.086000000000041
 51
180.00000000000005
  0
ARC
  8
_0-0_
  6
CONTINUOUS
 62
    7
 10
2113.0000000000009
 20
985.93110000000001
 40
1
 50
274.08600000000006
 51
0.0000000000000508
  0
ARC
  8
_0-0_
  6
CONTINUOUS
 62
    7
 10
2113.0000000000009
 20
986
 40
1
 50
0
 51
90.000000000000028
  0
ARC
  8
_0-0_
  6
CONTINUOUS
 62
    7
 10
2080.7679500000008
 20
1003.5
 40
1
 50
270.00000000000005
 51
30.000000000000042
  0
ARC
  8
_0-0_
  6
CONTINUOUS
 62
    7
 10
2077.5000000000009
 20
1001.5
 40
1
 50
90.000000000000028
 51
180.00000000000005
  0
ARC
  8
_0-0_
  6
CONTINUOUS
 62
    7
 10
2077.5000000000009
 20
988
 40
1
 50
180.00000000000005
 51
270.00000000000005
  0
LINE
  8
_0-0_
  6
CONTINUOUS
 62
    7
 10
2074.6567750000008
 20
1007.5
 11
2079.324575000001
 21
1007.5
  0
LINE
  8
_0-0_
  6
CONTINUOUS
 62
    7
 10
2072.7037250000007
 20
987.96784999999999
 11
2073.6584719492498
 21
1006.5582324553936
  0
LINE
  8
_0-0_
  6
CENTER1
 62
    7
 10
2095.0000000000009
 20
982
 11
2095.0000000000009
 21
975.8852721223418
  0
LINE
  8
_0-0_
  6
CENTER1
 62
    7
 10
2095.0000000000009
 20
982
 11
2095.0000000000009
 21
988.09740295205278
  0
LINE
  8
_0-0_
  6
CENTER1
 62
    7
 10
2095.1128620711206
 20
982
 11
2092.4332236491886
 21
982
  0
LINE
  8
_0-0_
  6
CENTER1
 62
    7
 10
2095.1128620711206
 20
982
 11
2097.7781451757659
 21
982
  0
ARC
  8
_0-0_
  6
CONTINUOUS
 62
    7
 10
2361.2320500000009
 20
1003.5
 40
1
 50
149.99999999999994
 51
269.99999999999994
  0
CIRCLE
  8
_0-0_
  6
CONTINUOUS
 62
    7
 10
2347.0000000000009
 20
982
 40
1.5000000000000002
  0
LINE
  8
_0-0_
  6
CONTINUOUS
 62
    7
 10
2342.0000000000009
 20
983.06887500000004
 11
2342.0000000000009
 21
984
  0
LINE
  8
_0-0_
  6
CONTINUOUS
 62
    7
 10
2342.0000000000009
 20
984
 11
2341.071225000001
 21
984.066325
  0
LINE
  8
_0-0_
  6
CONTINUOUS
 62
    7
 10
2352.0000000000009
 20
982
 11
2352.0000000000009
 21
983
  0
LINE
  8
_0-0_
  6
CONTINUOUS
 62
    7
 10
2353.0000000000009
 20
984
 11
2365.5000000000009
 21
984
  0
LINE
  8
_0-0_
  6
CONTINUOUS
 62
    7
 10
2342.0000000000009
 20
982
 11
2342.0000000000009
 21
983.06887500000004
  0
LINE
  8
_0-0_
  6
CONTINUOUS
 62
    7
 10
2341.071225000001
 20
984.066325
 11
2328.9287500000009
 21
984.93364999999994
  0
LINE
  8
_0-0_
  6
CONTINUOUS
 62
    7
 10
2328.0000000000009
 20
985.93110000000001
 11
2328.0000000000009
 21
986
  0
LINE
  8
_0-0_
  6
CONTINUOUS
 62
    7
 10
2360.3660250000011
 20
1004
 11
2362.2424000000009
 21
1007.25
  0
LINE
  8
_0-0_
  6
CONTINUOUS
 62
    7
 10
2329.0000000000009
 20
987
 11
2364.5000000000009
 21
987
  0
LINE
  8
_0-0_
  6
CONTINUOUS
 62
    7
 10
2361.2320500000009
 20
1002.5
 11
2364.5000000000009
 21
1002.5
  0
LINE
  8
_0-0_
  6
CONTINUOUS
 62
    7
 10
2365.5000000000009
 20
1001.5
 11
2365.5000000000009
 21
988
  0
ARC
  8
_0-0_
  6
CONTINUOUS
 62
    7
 10
2365.5000000000009
 20
987.79999999999995
 40
3.7999999999999998
 50
269.99999999999994
 51
2.5319999999999902
  0
ARC
  8
_0-0_
  6
CONTINUOUS
 62
    7
 10
2347.0000000000009
 20
982
 40
5
 50
179.99999999999985
 51
359.99999999999988
  0
CIRCLE
  8
_0-0_
  6
PHANTOM2
 62
    7
 10
2347.0000000000009
 20
982
 40
4.0999999999999996
  0
CIRCLE
  8
_0-0_
  6
PHANTOM2
 62
    7
 10
2347.0000000000009
 20
982
 40
1.925
  0
ARC
  8
_0-0_
  6
CONTINUOUS
 62
    7
 10
2367.3432250000009
 20
1006.5
 40
1
 50
2.531999999999964
 51
89.999999999999943
  0
ARC
  8
_0-0_
  6
CONTINUOUS
 62
    7
 10
2362.6754250000012
 20
1007
 40
0.5
 50
89.999999999999985
 51
149.99999999999997
  0
ARC
  8
_0-0_
  6
CONTINUOUS
 62
    7
 10
2353.0000000000009
 20
983
 40
1
 50
89.999999999999971
 51
180
  0
ARC
  8
_0-0_
  6
CONTINUOUS
 62
    7
 10
2341.0000000000009
 20
983.06887500000004
 40
1
 50
359.99999999999994
 51
85.913999999999987
  0
ARC
  8
_0-0_
  6
CONTINUOUS
 62
    7
 10
2329.0000000000009
 20
985.93110000000001
 40
1
 50
179.99999999999994
 51
265.91399999999993
  0
ARC
  8
_0-0_
  6
CONTINUOUS
 62
    7
 10
2329.0000000000009
 20
986
 40
1
 50
89.999999999999971
 51
180
  0
ARC
  8
_0-0_
  6
CONTINUOUS
 62
    7
 10
2364.5000000000009
 20
1001.5
 40
1
 50
359.99999999999994
 51
89.999999999999943
  0
ARC
  8
_0-0_
  6
CONTINUOUS
 62
    7
 10
2364.5000000000009
 20
988
 40
1
 50
269.99999999999988
 51
359.99999999999988
  0
LINE
  8
_0-0_
  6
CONTINUOUS
 62
    7
 10
2367.3432250000009
 20
1007.5
 11
2362.6754250000012
 21
1007.5
  0
LINE
  8
_0-0_
  6
CONTINUOUS
 62
    7
 10
2369.296275000001
 20
987.96784999999999
 11
2368.341528050752
 21
1006.5582324553936
  0
LINE
  8
_0-0_
  6
CENTER1
 62
    7
 10
2347.0000000000009
 20
982
 11
2347.0000000000009
 21
975.8852721223418
  0
LINE
  8
_0-0_
  6
CENTER1
 62
    7
 10
2347.0000000000009
 20
982
 11
2347.0000000000009
 21
988.09740295205278
  0
LINE
  8
_0-0_
  6
CENTER1
 62
    7
 10
2346.8871379288812
 20
982
 11
2349.5667763508126
 21
982
  0
LINE
  8
_0-0_
  6
CENTER1
 62
    7
 10
2346.8871379288812
 20
982
 11
2344.2218548242358
 21
982
  0
ARC
  8
_0-0_
  6
CONTINUOUS
 62
    7
 10
2095.0000000000009
 20
982
 40
7.0000000000000017
 50
45.585000000000007
 51
134.41500000000002
  0
ARC
  8
_0-0_
  6
CONTINUOUS
 62
    7
 10
2095.0000000000009
 20
982
 40
11
 50
27.036000000000012
 51
152.96400000000005
  0
ARC
  8
_0-0_
  6
CONTINUOUS
 62
    7
 10
2347.0000000000009
 20
982
 40
7.0000000000000017
 50
45.585000000000007
 51
134.41500000000002
  0
ARC
  8
_0-0_
  6
CONTINUOUS
 62
    7
 10
2347.0000000000009
 20
982
 40
11
 50
27.036000000000012
 51
152.96400000000005
  0
LINE
  8
_0-0_
  6
DASHED1
 62
    7
 10
1384.5000000000004
 20
987
 11
1375.5
 21
987
  0
LINE
  8
_0-0_
  6
DASHED1
 62
    7
 10
1385.5
 20
987
 11
1375.5
 21
987
  0
LINE
  8
_0-0_
  6
DASHED1
 62
    7
 10
1395.4946999999997
 20
982
 11
1373.2137749999997
 21
982
  0
LINE
  8
_0-0_
  6
DASHED1
 62
    7
 10
1385.5
 20
978.40000000000009
 11
1385.5
 21
985.60000000000002
  0
LINE
  8
_0-0_
  6
DASHED1
 62
    7
 10
1384.7000000000002
 20
984.5
 11
1384.7000000000002
 21
979.5
  0
LINE
  8
_0-0_
  6
DASHED1
 62
    7
 10
1376.7000000000002
 20
980
 11
1384.2000000000002
 21
980
  0
LINE
  8
_0-0_
  6
DASHED1
 62
    7
 10
1384.7000000000002
 20
979.5
 11
1384.7000000000002
 21
978.40000000000009
  0
LINE
  8
_0-0_
  6
DASHED1
 62
    7
 10
1385.9999999999995
 20
979.5999999999999
 11
1394.0000000000004
 21
979.5999999999999
  0
LINE
  8
_0-0_
  6
DASHED1
 62
    7
 10
1394.5000000000004
 20
980.10000000000002
 11
1394.5000000000004
 21
983.89999999999997
  0
LINE
  8
_0-0_
  6
DASHED1
 62
    7
 10
1394.0000000000004
 20
984.39999999999997
 11
1385.9999999999995
 21
984.39999999999997
  0
LINE
  8
_0-0_
  6
DASHED1
 62
    7
 10
1384.7000000000002
 20
985.60000000000002
 11
1384.7000000000002
 21
984.5
  0
LINE
  8
_0-0_
  6
DASHED1
 62
    7
 10
1384.2000000000002
 20
984
 11
1376.7000000000002
 21
984
  0
LINE
  8
_0-0_
  6
DASHED1
 62
    7
 10
1376.7000000000002
 20
984
 11
1376.7000000000002
 21
980
  0
LINE
  8
_0-0_
  6
DASHED1
 62
    7
 10
1376.3000000000006
 20
983.5
 11
1376.3000000000006
 21
984
  0
LINE
  8
_0-0_
  6
DASHED1
 62
    7
 10
1375.5
 20
986.10000000000002
 11
1375.5
 21
977.5
  0
LINE
  8
_0-0_
  6
DASHED1
 62
    7
 10
1376.3000000000006
 20
983.5
 11
1375.5
 21
983.5
  0
LINE
  8
_0-0_
  6
DASHED1
 62
    7
 10
1376.3000000000006
 20
980.5
 11
1375.5
 21
980.5
  0
LINE
  8
_0-0_
  6
DASHED1
 62
    7
 10
1385.5
 20
980
 11
1376.7000000000002
 21
980
  0
LINE
  8
_0-0_
  6
DASHED1
 62
    7
 10
1385.5
 20
977.5
 11
1385.5
 21
980
  0
LINE
  8
_0-0_
  6
DASHED1
 62
    7
 10
1376.7000000000002
 20
980
 11
1376.3000000000006
 21
980
  0
LINE
  8
_0-0_
  6
DASHED1
 62
    7
 10
1385.5
 20
984
 11
1376.3000000000006
 21
984
  0
LINE
  8
_0-0_
  6
DASHED1
 62
    7
 10
1376.3000000000006
 20
980
 11
1376.3000000000006
 21
980.5
  0
LINE
  8
_0-0_
  6
DASHED1
 62
    7
 10
1385.5
 20
984.93364999999994
 11
1375.5
 21
984.93364999999994
  0
LINE
  8
_0-0_
  6
DASHED1
 62
    7
 10
1376.3000000000006
 20
984
 11
1375.5
 21
984
  0
LINE
  8
_0-0_
  6
DASHED1
 62
    7
 10
1375.5
 20
987
 11
1375.5
 21
986.10000000000002
  0
LINE
  8
_0-0_
  6
DASHED1
 62
    7
 10
1385.5
 20
980
 11
1385.5
 21
987
  0
LINE
  8
_0-0_
  6
DASHED1
 62
    7
 10
1385.0000000000004
 20
1007.5
 11
1375.9999999999995
 21
1007.5
  0
LINE
  8
_0-0_
  6
DASHED1
 62
    7
 10
1375.9999999999995
 20
977
 11
1385.0000000000004
 21
977
  0
LINE
  8
_0-0_
  6
DASHED1
 62
    7
 10
1386.9774000000002
 20
982
 11
1373.9035749999998
 21
982
  0
LINE
  8
_0-0_
  6
DASHED1
 62
    7
 10
1375.5
 20
1007
 11
1375.5
 21
987
  0
ARC
  8
_0-0_
  6
DASHED1
 62
    7
 10
1385.9999999999995
 20
984.89999999999997
 40
0.5
 50
179.99999999999991
 51
269.99999999999994
  0
ARC
  8
_0-0_
  6
DASHED1
 62
    7
 10
1385.9999999999995
 20
979.0999999999999
 40
0.5
 50
89.999999999999971
 51
180
  0
ARC
  8
_0-0_
  6
DASHED1
 62
    7
 10
1384.2000000000002
 20
979.5
 40
0.5
 50
359.99999999999994
 51
89.999999999999943
  0
ARC
  8
_0-0_
  6
DASHED1
 62
    7
 10
1384.2000000000002
 20
984.5
 40
0.5
 50
269.99999999999988
 51
359.99999999999988
  0
ARC
  8
_0-0_
  6
DASHED1
 62
    7
 10
1394.0000000000004
 20
983.89999999999997
 40
0.5
 50
359.99999999999994
 51
89.999999999999943
  0
ARC
  8
_0-0_
  6
DASHED1
 62
    7
 10
1394.0000000000004
 20
980.10000000000002
 40
0.5
 50
269.99999999999988
 51
359.99999999999988
  0
ARC
  8
_0-0_
  6
DASHED1
 62
    7
 10
1385.1000000000003
 20
978.40000000000009
 40
0.4
 50
179.99999999999991
 51
269.99999999999994
  0
ARC
  8
_0-0_
  6
DASHED1
 62
    7
 10
1385.1000000000003
 20
978.40000000000009
 40
0.4
 50
269.99999999999988
 51
359.99999999999988
  0
ARC
  8
_0-0_
  6
DASHED1
 62
    7
 10
1385.1000000000003
 20
985.60000000000002
 40
0.4
 50
359.99999999999994
 51
89.999999999999943
  0
ARC
  8
_0-0_
  6
DASHED1
 62
    7
 10
1385.1000000000003
 20
985.60000000000002
 40
0.4
 50
89.999999999999971
 51
180
  0
ARC
  8
_0-0_
  6
DASHED1
 62
    7
 10
1385.0000000000004
 20
1007
 40
0.5
 50
359.99999999999994
 51
89.999999999999943
  0
ARC
  8
_0-0_
  6
DASHED1
 62
    7
 10
1375.9999999999995
 20
1007
 40
0.5
 50
89.999999999999971
 51
180
  0
ARC
  8
_0-0_
  6
DASHED1
 62
    7
 10
1375.9999999999995
 20
977.5
 40
0.5
 50
179.99999999999991
 51
269.99999999999994
  0
ARC
  8
_0-0_
  6
DASHED1
 62
    7
 10
1385.0000000000004
 20
977.5
 40
0.5
 50
269.99999999999988
 51
359.99999999999988
  0
LINE
  8
_0-0_
  6
DASHED1
 62
    7
 10
1385.5
 20
987
 11
1385.5
 21
1007
  0
LINE
  8
_0-0_
  6
DASHED1
 62
    7
 10
1013.9999999999995
 20
987
 11
1023
 21
987
  0
LINE
  8
_0-0_
  6
DASHED1
 62
    7
 10
1013
 20
987
 11
1023
 21
987
  0
LINE
  8
_0-0_
  6
DASHED1
 62
    7
 10
1003.0052999999998
 20
982
 11
1025.2862249999998
 21
982
  0
LINE
  8
_0-0_
  6
DASHED1
 62
    7
 10
1013
 20
978.40000000000009
 11
1013
 21
985.60000000000002
  0
LINE
  8
_0-0_
  6
DASHED1
 62
    7
 10
1013.7999999999999
 20
984.5
 11
1013.7999999999999
 21
979.5
  0
LINE
  8
_0-0_
  6
DASHED1
 62
    7
 10
1021.8000000000001
 20
980
 11
1014.3000000000001
 21
980
  0
LINE
  8
_0-0_
  6
DASHED1
 62
    7
 10
1013.7999999999999
 20
979.5
 11
1013.7999999999999
 21
978.40000000000009
  0
LINE
  8
_0-0_
  6
DASHED1
 62
    7
 10
1012.5
 20
979.5999999999999
 11
1004.5
 21
979.5999999999999
  0
LINE
  8
_0-0_
  6
DASHED1
 62
    7
 10
1003.9999999999995
 20
980.10000000000002
 11
1003.9999999999995
 21
983.89999999999997
  0
LINE
  8
_0-0_
  6
DASHED1
 62
    7
 10
1004.5
 20
984.39999999999997
 11
1012.5
 21
984.39999999999997
  0
LINE
  8
_0-0_
  6
DASHED1
 62
    7
 10
1013.7999999999999
 20
985.60000000000002
 11
1013.7999999999999
 21
984.5
  0
LINE
  8
_0-0_
  6
DASHED1
 62
    7
 10
1014.3000000000001
 20
984
 11
1021.8000000000001
 21
984
  0
LINE
  8
_0-0_
  6
DASHED1
 62
    7
 10
1021.8000000000001
 20
984
 11
1021.8000000000001
 21
980
  0
LINE
  8
_0-0_
  6
DASHED1
 62
    7
 10
1022.1999999999998
 20
983.5
 11
1022.1999999999998
 21
984
  0
LINE
  8
_0-0_
  6
DASHED1
 62
    7
 10
1023
 20
986.10000000000002
 11
1023
 21
977.5
  0
LINE
  8
_0-0_
  6
DASHED1
 62
    7
 10
1022.1999999999998
 20
983.5
 11
1023
 21
983.5
  0
LINE
  8
_0-0_
  6
DASHED1
 62
    7
 10
1022.1999999999998
 20
980.5
 11
1023
 21
980.5
  0
LINE
  8
_0-0_
  6
DASHED1
 62
    7
 10
1013
 20
980
 11
1021.8000000000001
 21
980
  0
LINE
  8
_0-0_
  6
DASHED1
 62
    7
 10
1013
 20
977.5
 11
1013
 21
980
  0
LINE
  8
_0-0_
  6
DASHED1
 62
    7
 10
1021.8000000000001
 20
980
 11
1022.1999999999998
 21
980
  0
LINE
  8
_0-0_
  6
DASHED1
 62
    7
 10
1013
 20
984
 11
1022.1999999999998
 21
984
  0
LINE
  8
_0-0_
  6
DASHED1
 62
    7
 10
1022.1999999999998
 20
980
 11
1022.1999999999998
 21
980.5
  0
LINE
  8
_0-0_
  6
DASHED1
 62
    7
 10
1013
 20
984.93364999999994
 11
1023
 21
984.93364999999994
  0
LINE
  8
_0-0_
  6
DASHED1
 62
    7
 10
1022.1999999999998
 20
984
 11
1023
 21
984
  0
LINE
  8
_0-0_
  6
DASHED1
 62
    7
 10
1023
 20
987
 11
1023
 21
986.10000000000002
  0
LINE
  8
_0-0_
  6
DASHED1
 62
    7
 10
1013
 20
980
 11
1013
 21
987
  0
LINE
  8
_0-0_
  6
DASHED1
 62
    7
 10
1013.5
 20
1007.5
 11
1022.5
 21
1007.5
  0
LINE
  8
_0-0_
  6
DASHED1
 62
    7
 10
1022.5
 20
977
 11
1013.5
 21
977
  0
LINE
  8
_0-0_
  6
DASHED1
 62
    7
 10
1011.5226000000002
 20
982
 11
1024.5964249999997
 21
982
  0
LINE
  8
_0-0_
  6
DASHED1
 62
    7
 10
1023
 20
1007
 11
1023
 21
987
  0
ARC
  8
_0-0_
  6
DASHED1
 62
    7
 10
1012.5
 20
984.89999999999997
 40
0.5
 50
270.00000000000005
 51
0.0000000000000508
  0
ARC
  8
_0-0_
  6
DASHED1
 62
    7
 10
1012.5
 20
979.0999999999999
 40
0.5
 50
0
 51
90.000000000000028
  0
ARC
  8
_0-0_
  6
DASHED1
 62
    7
 10
1014.3000000000001
 20
979.5
 40
0.5
 50
90.000000000000028
 51
180.00000000000005
  0
ARC
  8
_0-0_
  6
DASHED1
 62
    7
 10
1014.3000000000001
 20
984.5
 40
0.5
 50
180.00000000000005
 51
270.00000000000005
  0
ARC
  8
_0-0_
  6
DASHED1
 62
    7
 10
1004.5
 20
983.89999999999997
 40
0.5
 50
90.000000000000028
 51
180.00000000000005
  0
ARC
  8
_0-0_
  6
DASHED1
 62
    7
 10
1004.5
 20
980.10000000000002
 40
0.5
 50
180.00000000000005
 51
270.00000000000005
  0
ARC
  8
_0-0_
  6
DASHED1
 62
    7
 10
1013.4
 20
978.40000000000009
 40
0.4
 50
270.00000000000005
 51
0.0000000000000508
  0
ARC
  8
_0-0_
  6
DASHED1
 62
    7
 10
1013.4
 20
978.40000000000009
 40
0.4
 50
180.00000000000005
 51
270.00000000000005
  0
ARC
  8
_0-0_
  6
DASHED1
 62
    7
 10
1013.4
 20
985.60000000000002
 40
0.4
 50
90.000000000000028
 51
180.00000000000005
  0
ARC
  8
_0-0_
  6
DASHED1
 62
    7
 10
1013.4
 20
985.60000000000002
 40
0.4
 50
0
 51
90.000000000000028
  0
ARC
  8
_0-0_
  6
DASHED1
 62
    7
 10
1013.5
 20
1007
 40
0.5
 50
90.000000000000028
 51
180.00000000000005
  0
ARC
  8
_0-0_
  6
DASHED1
 62
    7
 10
1022.5
 20
1007
 40
0.5
 50
0
 51
90.000000000000028
  0
ARC
  8
_0-0_
  6
DASHED1
 62
    7
 10
1022.5
 20
977.5
 40
0.5
 50
270.00000000000005
 51
0.0000000000000508
  0
ARC
  8
_0-0_
  6
DASHED1
 62
    7
 10
1013.5
 20
977.5
 40
0.5
 50
180.00000000000005
 51
270.00000000000005
  0
LINE
  8
_0-0_
  6
DASHED1
 62
    7
 10
1013
 20
987
 11
1013
 21
1007
  0
LINE
  8
_0-0_
  6
DASHED1
 62
    7
 10
987.00000000000045
 20
987
 11
978
 21
987
  0
LINE
  8
_0-0_
  6
DASHED1
 62
    7
 10
988
 20
987
 11
978
 21
987
  0
LINE
  8
_0-0_
  6
DASHED1
 62
    7
 10
997.99470000000019
 20
982
 11
975.71377500000016
 21
982
  0
LINE
  8
_0-0_
  6
DASHED1
 62
    7
 10
988
 20
978.40000000000009
 11
988
 21
985.60000000000002
  0
LINE
  8
_0-0_
  6
DASHED1
 62
    7
 10
987.20000000000027
 20
984.5
 11
987.20000000000027
 21
979.5
  0
LINE
  8
_0-0_
  6
DASHED1
 62
    7
 10
979.20000000000027
 20
980
 11
986.70000000000027
 21
980
  0
LINE
  8
_0-0_
  6
DASHED1
 62
    7
 10
987.20000000000027
 20
979.5
 11
987.20000000000027
 21
978.40000000000009
  0
LINE
  8
_0-0_
  6
DASHED1
 62
    7
 10
988.5
 20
979.5999999999999
 11
996.50000000000045
 21
979.5999999999999
  0
LINE
  8
_0-0_
  6
DASHED1
 62
    7
 10
997.00000000000045
 20
980.10000000000002
 11
997.00000000000045
 21
983.89999999999997
  0
LINE
  8
_0-0_
  6
DASHED1
 62
    7
 10
996.50000000000045
 20
984.39999999999997
 11
988.5
 21
984.39999999999997
  0
LINE
  8
_0-0_
  6
DASHED1
 62
    7
 10
987.20000000000027
 20
985.60000000000002
 11
987.20000000000027
 21
984.5
  0
LINE
  8
_0-0_
  6
DASHED1
 62
    7
 10
986.70000000000027
 20
984
 11
979.20000000000027
 21
984
  0
LINE
  8
_0-0_
  6
DASHED1
 62
    7
 10
979.20000000000027
 20
984
 11
979.20000000000027
 21
980
  0
LINE
  8
_0-0_
  6
DASHED1
 62
    7
 10
978.80000000000063
 20
983.5
 11
978.80000000000063
 21
984
  0
LINE
  8
_0-0_
  6
DASHED1
 62
    7
 10
978
 20
986.10000000000002
 11
978
 21
977.5
  0
LINE
  8
_0-0_
  6
DASHED1
 62
    7
 10
978.80000000000063
 20
983.5
 11
978
 21
983.5
  0
LINE
  8
_0-0_
  6
DASHED1
 62
    7
 10
978.80000000000063
 20
980.5
 11
978
 21
980.5
  0
LINE
  8
_0-0_
  6
DASHED1
 62
    7
 10
988
 20
980
 11
979.20000000000027
 21
980
  0
LINE
  8
_0-0_
  6
DASHED1
 62
    7
 10
988
 20
977.5
 11
988
 21
980
  0
LINE
  8
_0-0_
  6
DASHED1
 62
    7
 10
979.20000000000027
 20
980
 11
978.80000000000063
 21
980
  0
LINE
  8
_0-0_
  6
DASHED1
 62
    7
 10
988
 20
984
 11
978.80000000000063
 21
984
  0
LINE
  8
_0-0_
  6
DASHED1
 62
    7
 10
978.80000000000063
 20
980
 11
978.80000000000063
 21
980.5
  0
LINE
  8
_0-0_
  6
DASHED1
 62
    7
 10
988
 20
984.93364999999994
 11
978
 21
984.93364999999994
  0
LINE
  8
_0-0_
  6
DASHED1
 62
    7
 10
978.80000000000063
 20
984
 11
978
 21
984
  0
LINE
  8
_0-0_
  6
DASHED1
 62
    7
 10
978
 20
987
 11
978
 21
986.10000000000002
  0
LINE
  8
_0-0_
  6
DASHED1
 62
    7
 10
988
 20
980
 11
988
 21
987
  0
LINE
  8
_0-0_
  6
DASHED1
 62
    7
 10
987.50000000000045
 20
1007.5
 11
978.5
 21
1007.5
  0
LINE
  8
_0-0_
  6
DASHED1
 62
    7
 10
978.5
 20
977
 11
987.50000000000045
 21
977
  0
LINE
  8
_0-0_
  6
DASHED1
 62
    7
 10
989.47740000000021
 20
982
 11
976.40357500000027
 21
982
  0
LINE
  8
_0-0_
  6
DASHED1
 62
    7
 10
978
 20
1007
 11
978
 21
987
  0
ARC
  8
_0-0_
  6
DASHED1
 62
    7
 10
988.5
 20
984.89999999999997
 40
0.5
 50
179.99999999999991
 51
269.99999999999994
  0
ARC
  8
_0-0_
  6
DASHED1
 62
    7
 10
988.5
 20
979.0999999999999
 40
0.5
 50
89.999999999999971
 51
180
  0
ARC
  8
_0-0_
  6
DASHED1
 62
    7
 10
986.70000000000027
 20
979.5
 40
0.5
 50
359.99999999999994
 51
89.999999999999943
  0
ARC
  8
_0-0_
  6
DASHED1
 62
    7
 10
986.70000000000027
 20
984.5
 40
0.5
 50
269.99999999999988
 51
359.99999999999988
  0
ARC
  8
_0-0_
  6
DASHED1
 62
    7
 10
996.50000000000045
 20
983.89999999999997
 40
0.5
 50
359.99999999999994
 51
89.999999999999943
  0
ARC
  8
_0-0_
  6
DASHED1
 62
    7
 10
996.50000000000045
 20
980.10000000000002
 40
0.5
 50
269.99999999999988
 51
359.99999999999988
  0
ARC
  8
_0-0_
  6
DASHED1
 62
    7
 10
987.60000000000036
 20
978.40000000000009
 40
0.4
 50
179.99999999999991
 51
269.99999999999994
  0
ARC
  8
_0-0_
  6
DASHED1
 62
    7
 10
987.60000000000036
 20
978.40000000000009
 40
0.4
 50
269.99999999999988
 51
359.99999999999988
  0
ARC
  8
_0-0_
  6
DASHED1
 62
    7
 10
987.60000000000036
 20
985.60000000000002
 40
0.4
 50
359.99999999999994
 51
89.999999999999943
  0
ARC
  8
_0-0_
  6
DASHED1
 62
    7
 10
987.60000000000036
 20
985.60000000000002
 40
0.4
 50
89.999999999999971
 51
180
  0
ARC
  8
_0-0_
  6
DASHED1
 62
    7
 10
987.50000000000045
 20
1007
 40
0.5
 50
359.99999999999994
 51
89.999999999999943
  0
ARC
  8
_0-0_
  6
DASHED1
 62
    7
 10
978.5
 20
1007
 40
0.5
 50
89.999999999999971
 51
180
  0
ARC
  8
_0-0_
  6
DASHED1
 62
    7
 10
978.5
 20
977.5
 40
0.5
 50
179.99999999999991
 51
269.99999999999994
  0
ARC
  8
_0-0_
  6
DASHED1
 62
    7
 10
987.50000000000045
 20
977.5
 40
0.5
 50
269.99999999999988
 51
359.99999999999988
  0
LINE
  8
_0-0_
  6
DASHED1
 62
    7
 10
988
 20
987
 11
988
 21
1007
  0
LINE
  8
_0-0_
  6
DASHED1
 62
    7
 10
415.49999999999954
 20
987
 11
424.49999999999988
 21
987
  0
LINE
  8
_0-0_
  6
DASHED1
 62
    7
 10
414.49999999999988
 20
987
 11
424.49999999999988
 21
987
  0
LINE
  8
_0-0_
  6
DASHED1
 62
    7
 10
404.50529999999957
 20
982
 11
426.7862249999996
 21
982
  0
LINE
  8
_0-0_
  6
DASHED1
 62
    7
 10
414.49999999999988
 20
978.40000000000009
 11
414.49999999999988
 21
985.60000000000002
  0
LINE
  8
_0-0_
  6
DASHED1
 62
    7
 10
415.29999999999972
 20
984.5
 11
415.29999999999972
 21
979.5
  0
LINE
  8
_0-0_
  6
DASHED1
 62
    7
 10
423.29999999999984
 20
980
 11
415.79999999999984
 21
980
  0
LINE
  8
_0-0_
  6
DASHED1
 62
    7
 10
415.29999999999972
 20
979.5
 11
415.29999999999972
 21
978.40000000000009
  0
LINE
  8
_0-0_
  6
DASHED1
 62
    7
 10
413.99999999999977
 20
979.5999999999999
 11
405.99999999999965
 21
979.5999999999999
  0
LINE
  8
_0-0_
  6
DASHED1
 62
    7
 10
405.49999999999954
 20
980.10000000000002
 11
405.49999999999954
 21
983.89999999999997
  0
LINE
  8
_0-0_
  6
DASHED1
 62
    7
 10
405.99999999999965
 20
984.39999999999997
 11
413.99999999999977
 21
984.39999999999997
  0
LINE
  8
_0-0_
  6
DASHED1
 62
    7
 10
415.29999999999972
 20
985.60000000000002
 11
415.29999999999972
 21
984.5
  0
LINE
  8
_0-0_
  6
DASHED1
 62
    7
 10
415.79999999999984
 20
984
 11
423.29999999999984
 21
984
  0
LINE
  8
_0-0_
  6
DASHED1
 62
    7
 10
423.29999999999984
 20
984
 11
423.29999999999984
 21
980
  0
LINE
  8
_0-0_
  6
DASHED1
 62
    7
 10
423.69999999999947
 20
983.5
 11
423.69999999999947
 21
984
  0
LINE
  8
_0-0_
  6
DASHED1
 62
    7
 10
424.49999999999988
 20
986.10000000000002
 11
424.49999999999988
 21
977.5
  0
LINE
  8
_0-0_
  6
DASHED1
 62
    7
 10
423.69999999999947
 20
983.5
 11
424.49999999999988
 21
983.5
  0
LINE
  8
_0-0_
  6
DASHED1
 62
    7
 10
423.69999999999947
 20
980.5
 11
424.49999999999988
 21
980.5
  0
LINE
  8
_0-0_
  6
DASHED1
 62
    7
 10
414.49999999999988
 20
980
 11
423.29999999999984
 21
980
  0
LINE
  8
_0-0_
  6
DASHED1
 62
    7
 10
414.49999999999988
 20
977.5
 11
414.49999999999988
 21
980
  0
LINE
  8
_0-0_
  6
DASHED1
 62
    7
 10
423.29999999999984
 20
980
 11
423.69999999999947
 21
980
  0
LINE
  8
_0-0_
  6
DASHED1
 62
    7
 10
414.49999999999988
 20
984
 11
423.69999999999947
 21
984
  0
LINE
  8
_0-0_
  6
DASHED1
 62
    7
 10
423.69999999999947
 20
980
 11
423.69999999999947
 21
980.5
  0
LINE
  8
_0-0_
  6
DASHED1
 62
    7
 10
414.49999999999988
 20
984.93364999999994
 11
424.49999999999988
 21
984.93364999999994
  0
LINE
  8
_0-0_
  6
DASHED1
 62
    7
 10
423.69999999999947
 20
984
 11
424.49999999999988
 21
984
  0
LINE
  8
_0-0_
  6
DASHED1
 62
    7
 10
424.49999999999988
 20
987
 11
424.49999999999988
 21
986.10000000000002
  0
LINE
  8
_0-0_
  6
DASHED1
 62
    7
 10
414.49999999999988
 20
980
 11
414.49999999999988
 21
987
  0
LINE
  8
_0-0_
  6
DASHED1
 62
    7
 10
415
 20
1007.5
 11
423.99999999999977
 21
1007.5
  0
LINE
  8
_0-0_
  6
DASHED1
 62
    7
 10
423.99999999999977
 20
977
 11
415
 21
977
  0
LINE
  8
_0-0_
  6
DASHED1
 62
    7
 10
413.02259999999989
 20
982
 11
426.09642499999949
 21
982
  0
LINE
  8
_0-0_
  6
DASHED1
 62
    7
 10
424.49999999999988
 20
1007
 11
424.49999999999988
 21
987
  0
ARC
  8
_0-0_
  6
DASHED1
 62
    7
 10
413.99999999999977
 20
984.89999999999997
 40
0.5
 50
270.00000000000005
 51
0.0000000000000508
  0
ARC
  8
_0-0_
  6
DASHED1
 62
    7
 10
413.99999999999977
 20
979.0999999999999
 40
0.5
 50
0
 51
90.000000000000028
  0
ARC
  8
_0-0_
  6
DASHED1
 62
    7
 10
415.79999999999984
 20
979.5
 40
0.5
 50
90.000000000000028
 51
180.00000000000005
  0
ARC
  8
_0-0_
  6
DASHED1
 62
    7
 10
415.79999999999984
 20
984.5
 40
0.5
 50
180.00000000000005
 51
270.00000000000005
  0
ARC
  8
_0-0_
  6
DASHED1
 62
    7
 10
405.99999999999965
 20
983.89999999999997
 40
0.5
 50
90.000000000000028
 51
180.00000000000005
  0
ARC
  8
_0-0_
  6
DASHED1
 62
    7
 10
405.99999999999965
 20
980.10000000000002
 40
0.5
 50
180.00000000000005
 51
270.00000000000005
  0
ARC
  8
_0-0_
  6
DASHED1
 62
    7
 10
414.90000000000009
 20
978.40000000000009
 40
0.4
 50
270.00000000000005
 51
0.0000000000000508
  0
ARC
  8
_0-0_
  6
DASHED1
 62
    7
 10
414.90000000000009
 20
978.40000000000009
 40
0.4
 50
180.00000000000005
 51
270.00000000000005
  0
ARC
  8
_0-0_
  6
DASHED1
 62
    7
 10
414.90000000000009
 20
985.60000000000002
 40
0.4
 50
90.000000000000028
 51
180.00000000000005
  0
ARC
  8
_0-0_
  6
DASHED1
 62
    7
 10
414.90000000000009
 20
985.60000000000002
 40
0.4
 50
0
 51
90.000000000000028
  0
ARC
  8
_0-0_
  6
DASHED1
 62
    7
 10
415
 20
1007
 40
0.5
 50
90.000000000000028
 51
180.00000000000005
  0
ARC
  8
_0-0_
  6
DASHED1
 62
    7
 10
423.99999999999977
 20
1007
 40
0.5
 50
0
 51
90.000000000000028
  0
ARC
  8
_0-0_
  6
DASHED1
 62
    7
 10
423.99999999999977
 20
977.5
 40
0.5
 50
270.00000000000005
 51
0.0000000000000508
  0
ARC
  8
_0-0_
  6
DASHED1
 62
    7
 10
415
 20
977.5
 40
0.5
 50
180.00000000000005
 51
270.00000000000005
  0
LINE
  8
_0-0_
  6
DASHED1
 62
    7
 10
414.49999999999988
 20
987
 11
414.49999999999988
 21
1007
  0
LINE
  8
_0-3_
  6
DASHED1
 62
    4
 10
414.49999999999988
 20
1192
 11
1385.5
 21
1192
  0
LINE
  8
_0-3_
  6
CONTINUOUS
 62
    4
 10
2046.0000000000009
 20
1207
 11
2388
 21
1207
  0
LINE
  8
_0-3_
  6
CONTINUOUS
 62
    4
 10
2388
 20
1189.0000000000002
 11
2388
 21
1193
  0
LINE
  8
_0-3_
  6
CONTINUOUS
 62
    4
 10
2388
 20
1207
 11
2388
 21
1193
  0
LINE
  8
_0-3_
  6
CONTINUOUS
 62
    5
 10
2388
 20
764.00000000000022
 11
2388
 21
757
  0
LINE
  8
_0-3_
  6
CONTINUOUS
 62
    5
 10
2046.0000000000009
 20
757
 11
2388
 21
757
  0
LINE
  8
_0-3_
  6
CONTINUOUS
 62
    4
 10
2388
 20
1189.0000000000002
 11
2388
 21
764.00000000000022
  0
LINE
  8
_0-3_
  6
CONTINUOUS
 62
    5
 10
2046.0000000000009
 20
772
 11
2046.0000000000009
 21
757
  0
LINE
  8
_0-3_
  6
CONTINUOUS
 62
    4
 10
2373
 20
764.00000000000022
 11
2373
 21
1207
  0
LINE
  8
_0-3_
  6
CONTINUOUS
 62
    4
 10
2046.0000000000009
 20
1207
 11
2046.0000000000009
 21
772
  0
CIRCLE
  8
_0-3_
  6
CONTINUOUS
 62
    4
 10
2095.0000000000009
 20
1042
 40
2.5
  0
CIRCLE
  8
_0-3_
  6
CONTINUOUS
 62
    4
 10
2095.0000000000009
 20
982
 40
2.5
  0
CIRCLE
  8
_0-3_
  6
CONTINUOUS
 62
    4
 10
2095.0000000000009
 20
922
 40
2.5
  0
LINE
  8
_0-3_
  6
CONTINUOUS
 62
    4
 10
2373
 20
1122
 11
2388
 21
1122
  0
LINE
  8
_0-3_
  6
CONTINUOUS
 62
    4
 10
2388
 20
809.00000000000022
 11
2373
 21
764.00000000000022
  0
LINE
  8
_0-3_
  6
CONTINUOUS
 62
    4
 10
2373
 20
809.00000000000022
 11
2388
 21
809.00000000000022
  0
LINE
  8
_0-3_
  6
CONTINUOUS
 62
    4
 10
2388
 20
1207
 11
2373
 21
1122
  0
LINE
  8
_0-3_
  6
CONTINUOUS
 62
    4
 10
2046.0000000000009
 20
1192
 11
2370
 21
1192
  0
LINE
  8
_0-3_
  6
CONTINUOUS
 62
    5
 10
2046.0000000000009
 20
777.5
 11
2370
 21
777.5
  0
LINE
  8
_0-3_
  6
CONTINUOUS
 62
    5
 10
2370
 20
777.5
 11
2370
 21
764.00000000000022
  0
LINE
  8
_0-3_
  6
CONTINUOUS
 62
    4
 10
2370
 20
777.5
 11
2370
 21
1207
  0
LINE
  8
_0-3_
  6
CONTINUOUS
 62
    5
 10
2370
 20
764.00000000000022
 11
2388
 21
764.00000000000022
  0
LINE
  8
_0-3_
  6
CONTINUOUS
 62
    7
 10
2335.0000000000009
 20
1042
 11
2352.0590257789285
 21
1042
  0
CIRCLE
  8
_0-3_
  6
CONTINUOUS
 62
    4
 10
2095.0000000000009
 20
1042
 40
2.5
  0
CIRCLE
  8
_0-3_
  6
CONTINUOUS
 62
    4
 10
2095.0000000000009
 20
982
 40
2.5
  0
CIRCLE
  8
_0-3_
  6
CONTINUOUS
 62
    4
 10
2095.0000000000009
 20
922
 40
2.5
  0
LINE
  8
ADD_LINE
  6
DOT
 62
    9
 10
2095.0000000000009
 20
1042
 11
2065.2300033914202
 21
1042
  0
CIRCLE
  8
_0-3_
  6
CONTINUOUS
 62
    7
 10
2095.0000000000009
 20
1042
 40
2.5
  0
CIRCLE
  8
_0-3_
  6
CONTINUOUS
 62
    7
 10
2095.0000000000009
 20
922
 40
2.5
  0
CIRCLE
  8
_0-3_
  6
CONTINUOUS
 62
    7
 10
2095.0000000000009
 20
982
 40
2.5
  0
LINE
  8
_0-3_
  6
CENTER2
 62
    4
 10
2095.0000000000009
 20
1052
 11
2095.0000000000009
 21
1032
  0
LINE
  8
_0-3_
  6
CENTER2
 62
    4
 10
2085.0000000000009
 20
1042
 11
2107.5000000000009
 21
1042
  0
LINE
  8
_0-3_
  6
CENTER2
 62
    4
 10
2095.0000000000009
 20
992
 11
2095.0000000000009
 21
971.99999999999988
  0
LINE
  8
_0-3_
  6
CENTER2
 62
    4
 10
2085.0000000000009
 20
982
 11
2107.5000000000009
 21
982
  0
LINE
  8
_0-3_
  6
CENTER2
 62
    4
 10
2095.0000000000009
 20
932
 11
2095.0000000000009
 21
912
  0
LINE
  8
_0-3_
  6
CENTER2
 62
    4
 10
2085.0000000000009
 20
922
 11
2107.5000000000009
 21
922
  0
LINE
  8
ADD_LINE
  6
DOT
 62
    9
 10
2335.0000000000009
 20
1042
 11
2353.9077978494315
 21
1042
  0
CIRCLE
  8
_0-3_
  6
CONTINUOUS
 62
    4
 10
2347.0000000000009
 20
982
 40
2.5
  0
CIRCLE
  8
_0-3_
  6
CONTINUOUS
 62
    4
 10
2347.0000000000009
 20
922
 40
2.5
  0
CIRCLE
  8
_0-3_
  6
CONTINUOUS
 62
    7
 10
2347.0000000000009
 20
922
 40
2.5
  0
CIRCLE
  8
_0-3_
  6
CONTINUOUS
 62
    7
 10
2347.0000000000009
 20
982
 40
2.5
  0
LINE
  8
_0-3_
  6
CENTER2
 62
    4
 10
2347.0000000000009
 20
992
 11
2347.0000000000009
 21
971.99999999999988
  0
LINE
  8
_0-3_
  6
CENTER2
 62
    4
 10
2337.0000000000009
 20
982
 11
2359.5000000000009
 21
982
  0
LINE
  8
_0-3_
  6
CENTER2
 62
    4
 10
2347.0000000000009
 20
932
 11
2347.0000000000009
 21
912
  0
LINE
  8
_0-3_
  6
CENTER2
 62
    4
 10
2337.0000000000009
 20
922
 11
2359.5000000000009
 21
922
  0
CIRCLE
  8
_0-3_
  6
CONTINUOUS
 62
    4
 10
2347.0000000000009
 20
1042
 40
2.5
  0
CIRCLE
  8
_0-3_
  6
CONTINUOUS
 62
    7
 10
2347.0000000000009
 20
1042
 40
2.5
  0
LINE
  8
_0-3_
  6
CENTER2
 62
    4
 10
2347.0000000000009
 20
1052
 11
2347.0000000000009
 21
1032
  0
LINE
  8
_0-3_
  6
CENTER2
 62
    4
 10
2337.0000000000009
 20
1042
 11
2359.5000000000009
 21
1042
  0
LINE
  8
_0-6_
  6
CONTINUOUS
 62
    7
 10
2076.5000000000009
 20
987
 11
2365.5000000000009
 21
987
  0
LINE
  8
_0-6_
  6
CONTINUOUS
 62
    7
 10
2365.5000000000009
 20
987
 11
2365.5000000000009
 21
1002
  0
LINE
  8
_0-6_
  6
CONTINUOUS
 62
    7
 10
2365.5000000000009
 20
1002
 11
2076.5000000000009
 21
1002
  0
LINE
  8
_0-6_
  6
CONTINUOUS
 62
    7
 10
2076.5000000000009
 20
1002
 11
2076.5000000000009
 21
987
  0
LINE
  8
_0-6_
  6
DASHED1
 62
    7
 10
1383.5
 20
987
 11
1383.5
 21
1002
  0
LINE
  8
_0-6_
  6
DASHED1
 62
    7
 10
986
 20
1002
 11
986
 21
987
  0
LINE
  8
_0-6_
  6
DASHED1
 62
    7
 10
986
 20
1002
 11
416.49999999999977
 21
1002
  0
LINE
  8
_0-6_
  6
DASHED1
 62
    7
 10
986
 20
987
 11
416.49999999999977
 21
987
  0
LINE
  8
_0-6_
  6
DASHED1
 62
    7
 10
416.49999999999977
 20
1002
 11
416.49999999999977
 21
987
  0
LINE
  8
_0-6_
  6
DASHED1
 62
    7
 10
1383.5
 20
1002
 11
1015
 21
1002
  0
LINE
  8
_0-6_
  6
DASHED1
 62
    7
 10
1383.5
 20
987
 11
1015
 21
987
  0
LINE
  8
_0-4_
  6
CONTINUOUS
 62
    3
 10
2030
 20
1202
 11
2042.0000000000004
 21
1202
  0
ARC
  8
_0-5_
  6
CONTINUOUS
 62
    4
 10
2041.5999999999996
 20
744
 40
1.9999999999999995
 50
269.99999999999994
 51
359.99999999999994
  0
ARC
  8
_0-5_
  6
CONTINUOUS
 62
    4
 10
2041.5999999999996
 20
744
 40
0.6999999999999997
 50
270
 51
0
  0
LINE
  8
_0-5_
  6
CONTINUOUS
 62
    4
 10
2043.6000000000001
 20
786.00000000000022
 11
2043.6000000000001
 21
744
  0
ARC
  8
_0-5_
  6
CONTINUOUS
 62
    4
 10
2043.0999999999999
 20
786.00000000000022
 40
0.4999999999999997
 50
0
 51
90
  0
ARC
  8
_0-5_
  6
CONTINUOUS
 62
    4
 10
2042.8000000000001
 20
785.70000000000027
 40
0.8000000000000001
 50
89.999999999999971
 51
231.31781254650667
  0
LINE
  8
_0-5_
  6
CONTINUOUS
 62
    4
 10
2043.0999999999999
 20
786.5
 11
2042.8000000000001
 21
786.5
  0
LINE
  8
_0-5_
  6
CONTINUOUS
 62
    4
 10
2042.3000000000006
 20
777.72449979984003
 11
2042.3000000000006
 21
785.0755002001606
  0
ARC
  8
_0-5_
  6
CONTINUOUS
 62
    4
 10
2042.8000000000001
 20
777.10000000000013
 40
0.8000000000000001
 50
128.68218745349335
 51
231.31781254650667
  0
LINE
  8
_0-5_
  6
CONTINUOUS
 62
    4
 10
2042.3000000000006
 20
772.30000000000018
 11
2042.3000000000006
 21
776.47550020016046
  0
ARC
  8
_0-5_
  6
CONTINUOUS
 62
    4
 10
2042.0000000000004
 20
772.30000000000018
 40
0.2999999999999998
 50
270
 51
0
  0
LINE
  8
_0-5_
  6
CONTINUOUS
 62
    4
 10
2042.3000000000006
 20
768.55038733822539
 11
2042.3000000000006
 21
744
  0
ARC
  8
_0-5_
  6
CONTINUOUS
 62
    4
 10
2041.2999999999999
 20
768.55038733822539
 40
0.9999999999999995
 50
359.99999999999994
 51
87.03906386583624
  0
ARC
  8
_0-5_
  6
CONTINUOUS
 62
    4
 10
2028.5000000000002
 20
777.20000000000004
 40
0.8000000000000001
 50
0.0000000000000254
 51
179.99999999999997
  0
LINE
  8
_0-5_
  6
CONTINUOUS
 62
    4
 10
2030.8285714285721
 20
742.00000000000022
 11
2041.5999999999996
 21
742.00000000000022
  0
ARC
  8
_0-5_
  6
CONTINUOUS
 62
    4
 10
2030.8285714285721
 20
744
 40
1.9999999999999995
 50
198.92464441605042
 51
270
  0
ARC
  8
_0-5_
  6
CONTINUOUS
 62
    4
 10
2030.8285714285721
 20
744
 40
0.6999999999999997
 50
198.92464441604994
 51
270
  0
LINE
  8
_0-5_
  6
CONTINUOUS
 62
    4
 10
2041.5999999999996
 20
743.30000000000018
 11
2030.8285714285721
 21
743.30000000000018
  0
LINE
  8
_0-5_
  6
CONTINUOUS
 62
    4
 10
2030.1664092664088
 20
743.77297297297309
 11
2029.0375798523666
 21
747.06539209726429
  0
ARC
  8
_0-5_
  6
CONTINUOUS
 62
    4
 10
2029.2267690415553
 20
747.13025696212889
 40
0.2
 50
133.54896276822287
 51
198.92464441605298
  0
ARC
  8
_0-5_
  6
CONTINUOUS
 62
    4
 10
2028.4000000000003
 20
747.99999999999977
 40
0.9999999999999995
 50
313.54896276821995
 51
198.92464441604971
  0
LINE
  8
_0-5_
  6
CONTINUOUS
 62
    4
 10
2028.93667953668
 20
743.35135135135146
 11
2027.4540540540544
 21
747.67567567567562
  0
LINE
  8
_0-5_
  6
CONTINUOUS
 62
    4
 10
2029.2999999999994
 20
772.30000000000018
 11
2029.2999999999994
 21
777.20000000000004
  0
ARC
  8
_0-5_
  6
CONTINUOUS
 62
    4
 10
2029.6000000000003
 20
772.30000000000018
 40
0.2999999999999998
 50
179.99999999999997
 51
270
  0
LINE
  8
_0-5_
  6
CONTINUOUS
 62
    4
 10
2042.0000000000004
 20
772.00000000000022
 11
2029.6000000000003
 21
772.00000000000022
  0
LINE
  8
_0-5_
  6
CONTINUOUS
 62
    4
 10
2027.7000000000002
 20
771.34961266177469
 11
2027.7000000000002
 21
777.20000000000004
  0
ARC
  8
_0-5_
  6
CONTINUOUS
 62
    4
 10
2028.7
 20
771.34961266177469
 40
0.9999999999999995
 50
180
 51
267.03906386583628
  0
LINE
  8
_0-5_
  6
CONTINUOUS
 62
    4
 10
2041.3516550854278
 20
769.54905232316741
 11
2028.6483449145714
 21
770.35094767683267
  0
LINE
  8
ADD_LINE
  6
DOT
 62
    9
 10
2029.4884681165062
 20
777.99999999999977
 11
2027.3827734741996
 21
777.99999999999977
  0
LINE
  8
ADD_LINE
  6
DOT
 62
    9
 10
2027.7000000000002
 20
771.34961266177469
 11
2027.7000000000002
 21
770.39999999999736
  0
LINE
  8
ADD_LINE
  6
DOT
 62
    9
 10
2028.6483449145714
 20
770.35094767683267
 11
2027.7000000000002
 21
770.39999999999736
  0
LINE
  8
ADD_LINE
  6
DOT
 62
    9
 10
2030.8493185782872
 20
749
 11
2025.727911566006
 21
749
  0
LINE
  8
ADD_LINE
  6
DOT
 62
    7
 10
2041.6787085833893
 20
777.10000000000013
 11
2042.5793231943025
 21
777.10000000000013
  0
LINE
  8
_0-4_
  6
CONTINUOUS
 62
    3
 10
2030
 20
1202
 11
2030
 21
772.00000000000022
  0
LINE
  8
_0-4_
  6
CONTINUOUS
 62
    3
 10
2042.0000000000004
 20
1202
 11
2042.0000000000004
 21
772.00000000000022
  0
LINE
  8
ADD_LINE
  6
DOT
 62
    9
 10
3532.3037764167247
 20
2834.6992207634707
 11
3532.3037764167247
 21
2769.6992207634693
  0
LINE
  8
_0-d_
  6
CONTINUOUS
 62
    7
 10
2957.3037764167247
 20
2769.6992207634693
 11
4107.3037764167256
 21
2769.6992207634693
  0
LINE
  8
_0-d_
  6
CONTINUOUS
 62
    7
 10
2957.3037764167247
 20
2764.6992207634693
 11
4107.3037764167256
 21
2764.6992207634693
  0
LINE
  8
_0-d_
  6
CONTINUOUS
 62
    3
 10
2957.3037764167247
 20
2834.6992207634707
 11
4107.3037764167256
 21
2834.6992207634707
  0
LINE
  8
ADD_LINE
  6
DOT
 62
    9
 10
2957.3037764167247
 20
2729.6992207634693
 11
4107.3037764167256
 21
2729.6992207634693
  0
LINE
  8
ADD_LINE
  6
DOT
 62
    9
 10
2957.3037764167247
 20
2799.6992207634707
 11
4107.3037764167256
 21
2799.6992207634707
  0
LINE
  8
_0-d_
  6
CONTINUOUS
 62
    7
 10
2957.3037764167247
 20
2624.6992207634693
 11
4107.3037764167256
 21
2624.6992207634693
  0
LINE
  8
_0-d_
  6
CONTINUOUS
 62
    7
 10
2957.3037764167247
 20
2554.6992207634698
 11
4107.3037764167256
 21
2554.6992207634698
  0
LINE
  8
_0-d_
  6
CONTINUOUS
 62
    7
 10
2957.3037764167247
 20
2484.6992207634698
 11
4107.3037764167256
 21
2484.6992207634698
  0
LINE
  8
_0-d_
  6
CONTINUOUS
 62
    7
 10
2957.3037764167247
 20
2414.6992207634698
 11
4107.3037764167256
 21
2414.6992207634698
  0
LINE
  8
ADD_LINE
  6
DOT
 62
    9
 10
2957.3037764167247
 20
2379.6992207634698
 11
4107.3037764167256
 21
2379.6992207634698
  0
LINE
  8
ADD_LINE
  6
DOT
 62
    9
 10
2957.3037764167247
 20
2449.6992207634698
 11
4107.3037764167256
 21
2449.6992207634698
  0
LINE
  8
ADD_LINE
  6
DOT
 62
    9
 10
2957.3037764167247
 20
2519.6992207634698
 11
4107.3037764167256
 21
2519.6992207634698
  0
LINE
  8
ADD_LINE
  6
DOT
 62
    9
 10
2957.3037764167247
 20
2589.6992207634693
 11
4107.3037764167256
 21
2589.6992207634693
  0
LINE
  8
_0-d_
  6
CONTINUOUS
 62
    7
 10
2957.3037764167247
 20
2694.6992207634693
 11
4107.3037764167256
 21
2694.6992207634693
  0
LINE
  8
ADD_LINE
  6
DOT
 62
    9
 10
2957.3037764167247
 20
2659.6992207634693
 11
4107.3037764167256
 21
2659.6992207634693
  0
TEXT
  8
_0-d_
 62
    7
 10
3442.0537764167247
 20
2782.1992207634693
 40
35
 41
0.8571428571428569
 50
0
  1
仕　　　　様
  0
TEXT
  8
_0-d_
 62
    7
 10
3047.1537764167242
 20
2712.1992207634693
 40
35
 41
0.8571428571428569
 50
0
  1
天　　板
  0
TEXT
  8
_0-d_
 62
    7
 10
3282.3037764167247
 20
2712.1992207634693
 40
35
 41
0.8571428571428569
 50
0
  1
片面化粧パーティクルボード　１５ｔ
  0
TEXT
  8
_0-d_
 62
    7
 10
3047.1537764167242
 20
2642.1992207634693
 40
35
 41
0.8571428571428569
 50
0
  1
側　　板
  0
TEXT
  8
_0-d_
 62
    7
 10
3032.103776416724
 20
2572.1992207634693
 40
35
 41
0.8571428571428569
 50
0
  1
見　上　板
  0
TEXT
  8
_0-d_
 62
    7
 10
3282.3037764167247
 20
2572.1992207634693
 40
35
 41
0.8571428571428569
 50
0
  1
両面フラッシュ　２０．５ｔ　片面不燃材６ｔ貼
  0
TEXT
  8
_0-d_
 62
    7
 10
3047.1537764167242
 20
2502.1992207634698
 40
35
 41
0.8571428571428569
 50
0
  1
背　　板
  0
TEXT
  8
_0-d_
 62
    7
 10
3092.3037764167247
 20
2432.1992207634698
 40
35
 41
0.8571428571428569
 50
0
  1
扉
  0
LINE
  8
ADD_LINE
  6
DOT
 62
    9
 10
2957.3037764167247
 20
2319.6992207634698
 11
4107.3037764167256
 21
2319.6992207634698
  0
LINE
  8
_0-d_
  6
CONTINUOUS
 62
    7
 10
2957.3037764167247
 20
2354.6992207634698
 11
4107.3037764167256
 21
2354.6992207634698
  0
LINE
  8
_0-d_
  6
CONTINUOUS
 62
    3
 10
2957.3037764167247
 20
2284.6992207634698
 11
4107.3037764167256
 21
2284.6992207634698
  0
TEXT
  8
_0-d_
 62
    7
 10
3047.1537764167242
 20
2362.1992207634698
 40
35
 41
0.8571428571428569
 50
0
  1
丁　　番
  0
TEXT
  8
_0-d_
 62
    7
 10
3047.1537764167242
 20
2302.1992207634698
 40
35
 41
0.8571428571428569
 50
0
  1
棚　　板
  0
TEXT
  8
_0-d_
 62
    7
 10
3282.3037764167247
 20
2302.1992207634698
 40
35
 41
0.8571428571428569
 50
0
  1
可動式　棚板　１５ｔ
  0
TEXT
  8
_0-d_
 62
    7
 10
3282.3037764167247
 20
2642.1992207634693
 40
35
 41
0.8571428571428569
 50
0
  1
両面フラッシュ　１４．５ｔ　両側不燃材９ｔ貼
  0
LINE
  8
_0-d_
  6
CONTINUOUS
 62
    3
 10
2957.3037764167247
 20
2214.6992207634693
 11
4107.3037764167256
 21
2214.6992207634693
  0
LINE
  8
_0-d_
  6
CONTINUOUS
 62
    3
 10
2957.3037764167247
 20
2834.6992207634707
 11
2957.3037764167247
 21
2214.6992207634693
  0
LINE
  8
_0-d_
  6
CONTINUOUS
 62
    3
 10
4107.3037764167256
 20
2834.6992207634707
 11
4107.3037764167256
 21
2214.6992207634693
  0
LINE
  8
ADD_LINE
  6
DOT
 62
    9
 10
3107.3037764167247
 20
2214.6992207634693
 11
3107.3037764167247
 21
2764.6992207634693
  0
LINE
  8
_0-d_
  6
CONTINUOUS
 62
    3
 10
3257.3037764167247
 20
2764.6992207634693
 11
3257.3037764167247
 21
2214.6992207634693
  0
LINE
  8
ADD_LINE
  6
DOT
 62
    9
 10
3282.3037764167247
 20
2764.6992207634693
 11
3282.3037764167247
 21
2214.6992207634693
  0
LINE
  8
ADD_LINE
  6
DOT
 62
    9
 10
2957.3037764167247
 20
2249.6992207634698
 11
4107.3037764167256
 21
2249.6992207634698
  0
TEXT
  8
_0-d_
 62
    7
 10
3044.3037764167238
 20
2232.1992207634698
 40
35
 41
0.8571428571428569
 50
0
  1
把　　手
  0
TEXT
  8
_0-d_
 62
    7
 10
3282.3037764167247
 20
2232.1992207634698
 40
35
 41
0.8571428571428569
 50
0
  1
アルミ一文字把手
  0
TEXT
  8
_0-d_
 62
    7
 10
3282.3037764167256
 20
2502.1992207634698
 40
35
 41
0.8571428571428569
 50
0
  1
カラーＭＤＦ・落し込み
  0
TEXT
  8
_0-d_
 62
    7
 10
3282.3037764167256
 20
2362.1992207634698
 40
35
 41
0.8571428571428569
 50
0
  1
ワンタッチスライド式丁番
  0
TEXT
  8
_0-d_
 62
    7
 10
3852.9248366298861
 20
2149.6992207634693
 40
35
 41
0.8571428571428569
 50
0
  1
扉　色
  0
TEXT
  8
_0-d_
 62
    7
 10
3708.0159964356221
 20
2082.1992207634693
 40
35
 41
0.8571428571428569
 50
0
  1
ＳＷ
  0
TEXT
  8
_0-d_
 62
    7
 10
3822.5458968430461
 20
2082.1992207634693
 40
35
 41
0.8571428571428569
 50
0
  1
ホワイト
  0
TEXT
  8
_0-d_
 62
    7
 10
3713.0074518453102
 20
2022.7885475792502
 40
35
 41
0.8571428571428569
 50
0
  1
ＬＧ
  0
TEXT
  8
_0-d_
 62
    7
 10
3822.6448907480812
 20
2022.7885475792502
 40
35
 41
0.8571428571428569
 50
0
  1
木　　目
  0
TEXT
  8
_0-d_
 62
    7
 10
3708.0159964356221
 20
1957.1992207634696
 40
35
 41
0.8571428571428569
 50
0
  1
ＵＷ
  0
TEXT
  8
_0-d_
 62
    7
 10
3822.5458968430457
 20
1957.1992207634696
 40
35
 41
0.8571428571428569
 50
0
  1
ｳﾙﾄﾗﾎﾜｲﾄ（艶有）
  0
TEXT
  8
_0-d_
 62
    7
 10
3713.0074518453102
 20
1897.78854757925
 40
35
 41
0.8571428571428569
 50
0
  1
ＷＮ
  0
TEXT
  8
_0-d_
 62
    7
 10
3822.5458968430461
 20
1897.1992207634696
 40
35
 41
0.8571428571428569
 50
0
  1
ｳｨﾝｻﾞｰﾅｯﾄ（艶有）
  0
LINE
  8
ADD_LINE
  6
DOT
 62
    9
 10
3677.5458968430461
 20
2199.6992207634693
 11
3692.5458968430461
 21
2199.6992207634693
  0
LINE
  8
ADD_LINE
  6
DOT
 62
    9
 10
3692.5458968430461
 20
2199.6992207634693
 11
3692.5458968430461
 21
2214.6992207634693
  0
LINE
  8
ADD_LINE
  6
DOT
 62
    9
 10
3692.5458968430461
 20
2214.6992207634693
 11
3677.5458968430461
 21
2214.6992207634693
  0
LINE
  8
ADD_LINE
  6
DOT
 62
    9
 10
3677.5458968430461
 20
2214.6992207634693
 11
3677.5458968430461
 21
2199.6992207634693
  0
LINE
  8
_0-d_
  6
CONTINUOUS
 62
    3
 10
4107.3037764167256
 20
2199.6992207634693
 11
4107.3037764167256
 21
1704.6992207634689
  0
LINE
  8
ADD_LINE
  6
DOT
 62
    9
 10
3822.5458968430461
 20
2129.6992207634693
 11
3822.5458968430461
 21
2009.6992207634696
  0
LINE
  8
_0-d_
  6
CONTINUOUS
 62
    7
 10
3792.5458968430461
 20
2129.6992207634693
 11
3792.5458968430461
 21
2009.6992207634696
  0
TEXT
  8
_0-d_
 62
    7
 10
3713.0074518453102
 20
1837.78854757925
 40
35
 41
0.8571428571428569
 50
0
  1
ＢＳ
  0
TEXT
  8
_0-d_
 62
    7
 10
3822.6448907480812
 20
1837.78854757925
 40
35
 41
0.8571428571428569
 50
0
  1
ブラックストーン
  0
LINE
  8
ADD_LINE
  6
DOT
 62
    9
 10
3742.5458968430461
 20
2129.6992207634693
 11
3742.5458968430461
 21
2009.6992207634696
  0
LINE
  8
_0-d_
  6
CONTINUOUS
 62
    3
 10
3692.5458968430461
 20
2199.6992207634693
 11
3692.5458968430461
 21
1704.6992207634689
  0
LINE
  8
_0-d_
  6
CONTINUOUS
 62
    7
 10
3792.5458968430461
 20
2004.6992207634696
 11
3792.5458968430461
 21
1704.6992207634689
  0
LINE
  8
ADD_LINE
  6
DOT
 62
    9
 10
3822.5458968430461
 20
2004.6992207634696
 11
3822.5458968430461
 21
1704.6992207634689
  0
LINE
  8
ADD_LINE
  6
DOT
 62
    9
 10
3742.5458968430461
 20
2004.6992207634696
 11
3742.5458968430461
 21
1704.6992207634689
  0
TEXT
  8
_0-d_
 62
    7
 10
3713.0074518453102
 20
1777.7885475792493
 40
35
 41
0.8571428571428569
 50
0
  1
ＰＭ
  0
TEXT
  8
_0-d_
 62
    7
 10
3822.6448907480826
 20
1777.7885475792493
 40
35
 41
0.8571428571428569
 50
0
  1
ペールグレイン
  0
TEXT
  8
_0-d_
 62
    7
 10
3713.0074518453102
 20
1717.7885475792493
 40
35
 41
0.8571428571428569
 50
0
  1
ＭＤ
  0
TEXT
  8
_0-d_
 62
    7
 10
3822.6448907480826
 20
1717.7885475792493
 40
35
 41
0.8571428571428569
 50
0
  1
ダークグレイン
  0
LINE
  8
_0-d_
  6
CONTINUOUS
 62
    3
 10
4107.3037764167256
 20
2199.6992207634693
 11
3692.5458968430461
 21
2199.6992207634693
  0
LINE
  8
_0-d_
  6
CONTINUOUS
 62
    3
 10
4107.3037764167256
 20
1704.6992207634689
 11
3692.5458968430461
 21
1704.6992207634689
  0
LINE
  8
_0-d_
  6
CONTINUOUS
 62
    7
 10
3692.5458968430461
 20
2069.6992207634693
 11
4107.3037764167256
 21
2069.6992207634693
  0
LINE
  8
_0-d_
  6
CONTINUOUS
 62
    7
 10
4107.3037764167256
 20
2069.6992207634693
 11
3692.5458968430461
 21
2069.6992207634693
  0
LINE
  8
_0-d_
  6
CONTINUOUS
 62
    3
 10
4107.3037764167256
 20
2069.6992207634693
 11
3692.5458968430461
 21
2069.6992207634693
  0
LINE
  8
_0-d_
  6
CONTINUOUS
 62
    3
 10
4107.3037764167256
 20
2009.6992207634696
 11
3692.5458968430461
 21
2009.6992207634696
  0
LINE
  8
ADD_LINE
  6
DOT
 62
    9
 10
3692.5458968430461
 20
2039.6992207634696
 11
4107.3037764167256
 21
2039.6992207634696
  0
LINE
  8
_0-d_
  6
CONTINUOUS
 62
    7
 10
4107.3037764167256
 20
1944.6992207634696
 11
3692.5458968430461
 21
1944.6992207634696
  0
LINE
  8
_0-d_
  6
CONTINUOUS
 62
    3
 10
4107.3037764167256
 20
1944.6992207634696
 11
3692.5458968430461
 21
1944.6992207634696
  0
LINE
  8
_0-d_
  6
CONTINUOUS
 62
    3
 10
4107.3037764167256
 20
1884.6992207634696
 11
3692.5458968430461
 21
1884.6992207634696
  0
LINE
  8
_0-d_
  6
CONTINUOUS
 62
    7
 10
3692.5458968430461
 20
1944.6992207634696
 11
4107.3037764167256
 21
1944.6992207634696
  0
LINE
  8
_0-d_
  6
CONTINUOUS
 62
    7
 10
4107.3037764167256
 20
2009.6992207634696
 11
3692.5458968430461
 21
2009.6992207634696
  0
LINE
  8
_0-d_
  6
CONTINUOUS
 62
    7
 10
4107.3037764167256
 20
2004.6992207634696
 11
3692.5458968430461
 21
2004.6992207634696
  0
LINE
  8
ADD_LINE
  6
DOT
 62
    9
 10
3692.5458968430461
 20
1974.6992207634696
 11
4107.3037764167256
 21
1974.6992207634696
  0
LINE
  8
ADD_LINE
  6
DOT
 62
    9
 10
3692.5458968430461
 20
1914.6992207634696
 11
4107.3037764167256
 21
1914.6992207634696
  0
LINE
  8
_0-d_
  6
CONTINUOUS
 62
    7
 10
4107.3037764167256
 20
1884.6992207634696
 11
3692.5458968430461
 21
1884.6992207634696
  0
LINE
  8
_0-d_
  6
CONTINUOUS
 62
    3
 10
4107.3037764167256
 20
1884.6992207634696
 11
3692.5458968430461
 21
1884.6992207634696
  0
LINE
  8
_0-d_
  6
CONTINUOUS
 62
    3
 10
4107.3037764167256
 20
1824.6992207634693
 11
3692.5458968430461
 21
1824.6992207634693
  0
LINE
  8
_0-d_
  6
CONTINUOUS
 62
    7
 10
3692.5458968430461
 20
1884.6992207634696
 11
4107.3037764167256
 21
1884.6992207634696
  0
LINE
  8
ADD_LINE
  6
DOT
 62
    9
 10
3692.5458968430461
 20
1854.6992207634693
 11
4107.3037764167256
 21
1854.6992207634693
  0
LINE
  8
_0-d_
  6
CONTINUOUS
 62
    7
 10
4107.3037764167256
 20
1824.6992207634693
 11
3692.5458968430461
 21
1824.6992207634693
  0
LINE
  8
_0-d_
  6
CONTINUOUS
 62
    3
 10
4107.3037764167256
 20
1824.6992207634693
 11
3692.5458968430461
 21
1824.6992207634693
  0
LINE
  8
_0-d_
  6
CONTINUOUS
 62
    3
 10
4107.3037764167256
 20
1764.6992207634693
 11
3692.5458968430461
 21
1764.6992207634693
  0
LINE
  8
_0-d_
  6
CONTINUOUS
 62
    7
 10
3692.5458968430461
 20
1824.6992207634693
 11
4107.3037764167256
 21
1824.6992207634693
  0
LINE
  8
ADD_LINE
  6
DOT
 62
    9
 10
3692.5458968430461
 20
1794.6992207634693
 11
4107.3037764167256
 21
1794.6992207634693
  0
LINE
  8
_0-d_
  6
CONTINUOUS
 62
    7
 10
4107.3037764167256
 20
1764.6992207634693
 11
3692.5458968430461
 21
1764.6992207634693
  0
LINE
  8
_0-d_
  6
CONTINUOUS
 62
    3
 10
4107.3037764167256
 20
1764.6992207634693
 11
3692.5458968430461
 21
1764.6992207634693
  0
LINE
  8
_0-d_
  6
CONTINUOUS
 62
    7
 10
3692.5458968430461
 20
1764.6992207634693
 11
4107.3037764167256
 21
1764.6992207634693
  0
LINE
  8
ADD_LINE
  6
DOT
 62
    9
 10
3692.5458968430461
 20
1734.6992207634689
 11
4107.3037764167256
 21
1734.6992207634689
  0
LINE
  8
ADD_LINE
  6
DOT
 62
    9
 10
3692.5458968430461
 20
2099.6992207634693
 11
4107.3037764167256
 21
2099.6992207634693
  0
LINE
  8
_0-d_
  6
CONTINUOUS
 62
    7
 10
4107.3037764167256
 20
2129.6992207634693
 11
3692.5458968430461
 21
2129.6992207634693
  0
LINE
  8
ADD_LINE
  6
DOT
 62
    9
 10
3692.5458968430461
 20
2167.1992207634693
 11
4107.3037764167256
 21
2167.1992207634693
  0
LINE
  8
_0-d_
  6
CONTINUOUS
 62
    7
 10
4107.3037764167256
 20
2134.6992207634693
 11
3692.5458968430461
 21
2134.6992207634693
  0
LINE
  8
ADD_LINE
  6
DOT
 62
    9
 10
3899.9248366298861
 20
2199.6992207634693
 11
3899.9248366298861
 21
2134.6992207634693
  0
LINE
  8
ADD_LINE
  6
DOT
 62
    9
 10
4107.3037764167256
 20
2834.6992207634707
 11
4130
 21
2834.6992207634707
  0
LINE
  8
ADD_LINE
  6
DOT
 62
    9
 10
4130
 20
2834.6992207634707
 11
4130
 21
2860
  0
LINE
  8
ADD_LINE
  6
DOT
 62
    9
 10
4130
 20
2860
 11
4107.3037764167256
 21
2860
  0
LINE
  8
ADD_LINE
  6
DOT
 62
    9
 10
4107.3037764167256
 20
2860
 11
4107.3037764167256
 21
2834.6992207634707
  0
LINE
  8
ADD_LINE
  6
DOT
 62
    9
 10
4110
 20
120
 11
4130
 21
120
  0
LINE
  8
ADD_LINE
  6
DOT
 62
    9
 10
4130
 20
120
 11
4130
 21
100
  0
LINE
  8
ADD_LINE
  6
DOT
 62
    9
 10
4130
 20
100
 11
4110
 21
100
  0
LINE
  8
ADD_LINE
  6
DOT
 62
    9
 10
4110
 20
100
 11
4110
 21
120
  0
POINT
  8
_0-9_
 62
    3
 10
2478
 20
1042
  0
POINT
  8
_0-9_
 62
    3
 10
2478
 20
982
  0
POINT
  8
_0-9_
 62
    3
 10
2478
 20
922
  0
POINT
  8
_0-9_
 62
    3
 10
2478
 20
757
  0
POINT
  8
_0-9_
 62
    3
 10
2370.5
 20
1083.5
  0
POINT
  8
_0-9_
 62
    3
 10
2081
 20
1083.5
  0
LINE
  8
_e-7_
  6
CONTINUOUS
 62
    7
 10
2243.7859302690862
 20
199.51965480360598
 11
2272.9339284698526
 21
210.12865853712995
  0
LINE
  8
_e-7_
  6
CONTINUOUS
 62
    7
 10
2237.6336615052869
 20
191.95952323799758
 11
2287.5529504706664
 21
210.12865853712895
  0
LINE
  8
_e-7_
  6
CONTINUOUS
 62
    7
 10
2234.2067375789874
 20
185.39133607135255
 11
2263.8643430051365
 21
196.18582166608263
  0
LINE
  8
_e-7_
  6
CONTINUOUS
 62
    7
 10
2232.2119570371696
 20
179.34440646785787
 11
2253.9586582709303
 21
187.25955841042662
  0
LINE
  8
_e-7_
  6
CONTINUOUS
 62
    7
 10
2231.2024514117433
 20
173.65608760649877
 11
2249.4574587956462
 21
180.3003669205492
  0
LINE
  8
_e-7_
  6
CONTINUOUS
 62
    7
 10
2230.9649088875535
 20
168.248740335938
 11
2249.3748102388385
 21
174.94939644358311
  0
LINE
  8
_e-7_
  6
CONTINUOUS
 62
    7
 10
2231.3837497438626
 20
163.08029707814966
 11
2249.8286640768283
 21
169.79369686893903
  0
LINE
  8
_e-7_
  6
CONTINUOUS
 62
    7
 10
2232.3950068941753
 20
158.12747571767488
 11
2251.269568818267
 21
164.99725444285843
  0
LINE
  8
_e-7_
  6
CONTINUOUS
 62
    7
 10
2233.9675550564961
 20
153.37894757832998
 11
2253.6625167678698
 21
160.54732740628253
  0
LINE
  8
_e-7_
  6
CONTINUOUS
 62
    7
 10
2236.0955302019183
 20
148.83257832814223
 11
2257.099910488102
 21
156.47754754152117
  0
LINE
  8
_e-7_
  6
CONTINUOUS
 62
    7
 10
2238.7970089264299
 20
144.49494730998821
 11
2261.880116002736
 21
152.89651120014326
  0
LINE
  8
_e-7_
  6
CONTINUOUS
 62
    7
 10
2242.1181877425701
 20
140.38286867935909
 11
2268.9468388985251
 21
150.14769912563821
  0
LINE
  8
_e-7_
  6
CONTINUOUS
 62
    7
 10
2246.1455691824353
 20
136.52782678312661
 11
2284.5651405528205
 21
150.51140717521263
  0
LINE
  8
_e-7_
  6
CONTINUOUS
 62
    7
 10
2251.0351047702797
 20
132.98658333410969
 11
2279.1844822576495
 21
143.2321188526356
  0
LINE
  8
_e-7_
  6
CONTINUOUS
 62
    7
 10
2279.5849322183671
 20
201.90764820482513
 11
2302.1719724714803
 21
210.12865853713066
  0
LINE
  8
_e-7_
  6
CONTINUOUS
 62
    7
 10
2260.5624543087296
 20
189.663143601351
 11
2313.0511299164636
 21
208.76745915862059
  0
LINE
  8
_e-7_
  6
CONTINUOUS
 62
    7
 10
2273.0696188494734
 20
188.89449034687174
 11
2313.0511299164636
 21
203.44657029624102
  0
LINE
  8
_e-7_
  6
CONTINUOUS
 62
    7
 10
2287.6886408502887
 20
188.89449034687174
 11
2313.0511299164636
 21
198.12568143386158
  0
LINE
  8
_e-7_
  6
CONTINUOUS
 62
    7
 10
2291.8751463425487
 20
185.09736486926669
 11
2313.0511299164636
 21
192.80479257148215
  0
LINE
  8
_e-7_
  6
CONTINUOUS
 62
    7
 10
2291.8751463425487
 20
179.77647600688726
 11
2313.0511299164636
 21
187.48390370910215
  0
LINE
  8
_e-7_
  6
CONTINUOUS
 62
    7
 10
2291.8751463425487
 20
174.45558714450783
 11
2313.0511299164636
 21
182.16301484672271
  0
LINE
  8
_e-7_
  6
CONTINUOUS
 62
    7
 10
2291.8751463425487
 20
169.13469828212839
 11
2313.0511299164636
 21
176.84212598434328
  0
LINE
  8
_e-7_
  6
CONTINUOUS
 62
    7
 10
2291.8008475696451
 20
163.78676687796939
 11
2313.0511299164636
 21
171.52123712196384
  0
LINE
  8
_e-7_
  6
CONTINUOUS
 62
    7
 10
2290.6539909363364
 20
158.04845633809463
 11
2313.0511299164636
 21
166.20034825958413
  0
LINE
  8
_e-7_
  6
CONTINUOUS
 62
    7
 10
2288.3949962857823
 20
151.90536066354695
 11
2313.0511299164636
 21
160.87945939720469
  0
LINE
  8
_e-7_
  6
CONTINUOUS
 62
    7
 10
2284.4003861827632
 20
145.13055262616916
 11
2311.8608666367176
 21
155.12535013005759
  0
LINE
  8
_e-7_
  6
CONTINUOUS
 62
    7
 10
2275.7463468865153
 20
136.65985105378524
 11
2309.0387712913652
 21
148.77730256370853
  0
LINE
  8
_e-7_
  6
CONTINUOUS
 62
    7
 10
2266.9791201478205
 20
128.14795262145821
 11
2304.1703780821812
 21
141.68446348448242
  0
LINE
  8
_e-7_
  6
CONTINUOUS
 62
    7
 10
2282.1376414569663
 20
128.34431431109749
 11
2292.7244583873175
 21
132.19760054937069
  0
LINE
  8
_e-7_
  6
CONTINUOUS
 62
    3
 10
2266.4464672734898
 20
197.56612819678281
 11
2262.3244734593249
 21
194.75680664380121
  0
LINE
  8
_e-7_
  6
CONTINUOUS
 62
    3
 10
2282.3868421919432
 20
128.14795262145651
 11
2266.9204010401704
 21
128.14795262145651
  0
ARC
  8
_e-7_
  6
CONTINUOUS
 62
    3
 10
2282.3868421919432
 20
133.14795262145651
 40
5
 50
270
 51
286.20399351045659
  0
LINE
  8
_e-7_
  6
CONTINUOUS
 62
    3
 10
2313.2288608412613
 20
210.12865853712895
 11
2313.2288608412613
 21
159.77346730566921
  0
ARC
  8
_e-7_
  6
CONTINUOUS
 62
    3
 10
2271.9221657766447
 20
169.15823653484835
 40
42.5
 50
286.20399351045648
 51
345.50707147989851
  0
ARC
  8
_e-7_
  6
CONTINUOUS
 62
    3
 10
2308.2288608412613
 20
159.77346730566921
 40
5
 50
345.50707147989879
 51
0.0000000000000159
  0
ARC
  8
_e-7_
  6
CONTINUOUS
 62
    3
 10
2250.0927387377205
 20
170.4956084628958
 40
40
 50
279.71265316664215
 51
332.69093929010892
  0
ARC
  8
_e-7_
  6
CONTINUOUS
 62
    3
 10
2255.9974857549714
 20
135.99729020443191
 40
5
 50
241.9452628118
 51
279.71265316664221
  0
ARC
  8
_e-7_
  6
CONTINUOUS
 62
    3
 10
2263.2643122966178
 20
205.12865853712895
 40
5
 50
90
 51
106.05338143786268
  0
LINE
  8
_e-7_
  6
CONTINUOUS
 62
    3
 10
2288.4334989152221
 20
210.12865853712881
 11
2278.2181989551913
 21
205.24067691222057
  0
LINE
  8
_e-7_
  6
CONTINUOUS
 62
    3
 10
2278.2181989551913
 20
205.24067691222057
 11
2272.2994583375816
 21
201.4444897898403
  0
LINE
  8
_e-7_
  6
CONTINUOUS
 62
    3
 10
2266.4464672734898
 20
197.56612819678252
 11
2272.2994583375816
 21
201.4444897898403
  0
ARC
  8
_e-7_
  6
CONTINUOUS
 62
    3
 10
2263.2643122966178
 20
205.12865853712895
 40
5
 50
90
 51
106.05338143786268
  0
ARC
  8
_e-7_
  6
CONTINUOUS
 62
    3
 10
2263.2643122966178
 20
205.12865853712895
 40
5
 50
90
 51
106.05338143786268
  0
LINE
  8
_e-7_
  6
CONTINUOUS
 62
    3
 10
2288.4334989152221
 20
210.12865853712895
 11
2263.2643122966178
 21
210.12865853712895
  0
ARC
  8
_e-7_
  6
CONTINUOUS
 62
    3
 10
2273.6342932765642
 20
169.09099082020304
 40
42.5
 50
106.05338143786271
 51
241.94526281180051
  0
ARC
  8
_e-7_
  6
CONTINUOUS
 62
    3
 10
2263.2643122966178
 20
205.12865853712895
 40
5
 50
90
 51
106.05338143786268
  0
LINE
  8
_e-7_
  6
CONTINUOUS
 62
    3
 10
2299.1719829458552
 20
210.12865853712895
 11
2313.2288608412613
 21
210.12865853712895
  0
ARC
  8
_e-7_
  6
CONTINUOUS
 62
    3
 10
2299.1719829458552
 20
205.12865853712895
 40
5
 50
90
 51
112.84552721528326
  0
LINE
  8
_e-7_
  6
CONTINUOUS
 62
    3
 10
2292.0528772673465
 20
188.89449034687004
 11
2269.0173546029673
 21
188.89449034687004
  0
ARC
  8
_e-7_
  6
CONTINUOUS
 62
    3
 10
2269.0173546029673
 20
183.89449034687004
 40
5
 50
90
 51
110.93110431809542
  0
ARC
  8
_e-7_
  6
CONTINUOUS
 62
    3
 10
2254.2292662802574
 20
177.70386452217394
 40
0.5
 50
165.368776721252
 51
224.67319701305797
  0
LINE
  8
_e-7_
  6
CONTINUOUS
 62
    3
 10
2253.8737020580624
 20
177.3523334653737
 11
2253.6837582739271
 21
177.54445650133447
  0
ARC
  8
_e-7_
  6
CONTINUOUS
 62
    3
 10
2276.1622566207875
 20
165.2142768803236
 40
25
 50
110.93110431809527
 51
150.17701829297226
  0
ARC
  8
_e-7_
  6
CONTINUOUS
 62
    3
 10
2254.0393224961217
 20
177.89598755813472
 40
0.5
 50
224.67319701305652
 51
330.17701829297561
  0
LINE
  8
_e-7_
  6
CONTINUOUS
 62
    3
 10
2297.2307430642558
 20
209.73643324104926
 11
2283.5233941157548
 21
203.96157353985984
  0
LINE
  8
_e-7_
  6
CONTINUOUS
 62
    3
 10
2283.5233941157548
 20
203.96157353985984
 11
2277.114528385443
 21
200.4613679180602
  0
ARC
  8
_e-7_
  6
CONTINUOUS
 62
    3
 10
2277.9347719955744
 20
171.51524603489747
 40
25
 50
126.05682261028302
 51
165.36877672125814
  0
ARC
  8
_e-7_
  6
CONTINUOUS
 62
    3
 10
2322.0287923520791
 20
111.11536133502738
 40
100
 50
116.68868989749238
 51
126.03335467187628
  0
LINE
  8
_e-7_
  6
CONTINUOUS
 62
    3
 10
2262.3244734593245
 20
194.75680664380149
 11
2254.3560414411385
 21
187.50185893935451
  0
LINE
  8
_e-7_
  6
CONTINUOUS
 62
    3
 10
2254.3560414411385
 20
187.50185893935451
 11
2252.5108960046536
 21
185.36863764275494
  0
ARC
  8
_e-7_
  6
CONTINUOUS
 62
    3
 10
2274.5493829743445
 20
174.5520307550089
 40
25
 50
169.07329675873063
 51
296.32138326661799
  0
LINE
  8
_e-7_
  6
CONTINUOUS
 62
    3
 10
2252.5108960046541
 20
185.36863764275494
 11
2250.002621066113
 21
179.29085759512361
  0
LINE
  8
_e-7_
  6
CONTINUOUS
 62
    3
 10
2292.0528772673465
 20
188.89449034687004
 11
2292.0528772673465
 21
164.42425885831653
  0
ARC
  8
_e-7_
  6
CONTINUOUS
 62
    3
 10
2277.2840925230507
 20
144.13090983307199
 40
5
 50
311.4163090429962
 51
326.13300916724881
  0
ARC
  8
_e-7_
  6
CONTINUOUS
 62
    3
 10
2252.285941088533
 20
168.73596234419835
 40
40
 50
316.78132524618342
 51
353.81191653224226
  0
ARC
  8
_e-7_
  6
CONTINUOUS
 62
    3
 10
2240.9001979970053
 20
185.376663785662
 40
60
 50
294.69555798319504
 51
311.41630904299643
  0
ARC
  8
_e-7_
  6
CONTINUOUS
 62
    3
 10
2271.9268153318698
 20
202.98067150791609
 40
75
 50
264.68313230529076
 51
266.17253517307824
  0
ARC
  8
_e-7_
  6
CONTINUOUS
 62
    3
 10
2265.0233680716155
 20
128.80121063143832
 40
0.5
 50
174.02086603460466
 51
264.68313230528985
  0
ARC
  8
_e-7_
  6
CONTINUOUS
 62
    3
 10
2267.0124878650103
 20
128.59287809071872
 40
2.5
 50
114.69555798319522
 51
174.02086603461154
  0
LINE
  8
_e-7_
  6
CONTINUOUS
 62
    7
 10
2376.8899919095943
 20
169.43032024062034
 11
2388.2618909747961
 21
173.56935300743344
  0
LINE
  8
_e-7_
  6
CONTINUOUS
 62
    3
 10
2436.2585234464268
 20
162.63312492519389
 11
2436.2585234464268
 21
136.49018622829544
  0
CIRCLE
  8
_e-7_
  6
CONTINUOUS
 62
    3
 10
2365.5167430510387
 20
162.46293449130519
 40
13.33773795583065
  0
CIRCLE
  8
_e-7_
  6
CONTINUOUS
 62
    3
 10
2365.2330256036634
 20
162.17921704393006
 40
25.691707563897665
  0
LINE
  8
_e-7_
  6
CONTINUOUS
 62
    3
 10
2399.4939617252575
 20
188.26250382114977
 11
2399.4939617252575
 21
136.49018622829544
  0
LINE
  8
_e-7_
  6
CONTINUOUS
 62
    3
 10
2399.4939617252575
 20
136.49018622829544
 11
2414.856930753669
 21
136.49018622829544
  0
LINE
  8
_e-7_
  6
CONTINUOUS
 62
    3
 10
2414.856930753669
 20
136.49018622829544
 11
2414.856930753669
 21
172.63312492519389
  0
LINE
  8
_e-7_
  6
CONTINUOUS
 62
    3
 10
2451.1774760289304
 20
136.49018622829544
 11
2436.2585234464268
 21
136.49018622829544
  0
LINE
  8
_e-7_
  6
CONTINUOUS
 62
    3
 10
2426.2585234464268
 20
172.63312492519389
 11
2414.856930753669
 21
172.63312492519389
  0
ARC
  8
_e-7_
  6
CONTINUOUS
 62
    3
 10
2426.2585234464268
 20
162.63312492519389
 40
10
 50
0
 51
90
  0
LINE
  8
_e-7_
  6
CONTINUOUS
 62
    3
 10
2426.1774760289299
 20
188.26250382114977
 11
2399.4939617252575
 21
188.26250382114977
  0
LINE
  8
_e-7_
  6
CONTINUOUS
 62
    3
 10
2451.1774760289304
 20
163.26250382114977
 11
2451.1774760289304
 21
136.49018622829544
  0
ARC
  8
_e-7_
  6
CONTINUOUS
 62
    3
 10
2426.1774760289299
 20
163.26250382114977
 40
25
 50
0
 51
90
  0
ARC
  8
_e-7_
  6
CONTINUOUS
 62
    3
 10
2486.2452606175233
 20
162.17653762406428
 40
13.33773795583065
 50
23.422555400004949
 51
97.191484740792631
  0
LINE
  8
_e-7_
  6
CONTINUOUS
 62
    3
 10
2474.0065761310629
 20
167.47841048365671
 11
2498.4839451039833
 21
167.47841048365671
  0
ARC
  8
_e-7_
  6
CONTINUOUS
 62
    3
 10
2486.2452606175233
 20
162.17653762406428
 40
13.33773795583065
 50
92.530763017635237
 51
156.57744459999506
  0
ARC
  8
_e-7_
  6
CONTINUOUS
 62
    3
 10
2486.2452606175233
 20
162.17653762406428
 40
13.33773795583065
 50
204.21097500392608
 51
316.0067678116265
  0
LINE
  8
_e-7_
  6
CONTINUOUS
 62
    3
 10
2474.0806890359867
 20
156.70676139316753
 11
2511.5200753562385
 21
156.70676139316753
  0
LINE
  8
_e-7_
  6
CONTINUOUS
 62
    3
 10
2495.8407207162626
 20
152.91249966689292
 11
2508.7092412098891
 21
149.78943472664496
  0
ARC
  8
_e-7_
  6
CONTINUOUS
 62
    3
 10
2486.5655867677851
 20
162.8171899245882
 40
25.691707563897665
 50
346.24110979921471
 51
329.53046432565093
  0
ARC
  8
_e-7_
  6
CONTINUOUS
 62
    3
 10
2546.5135590423406
 20
162.14309845353909
 40
11.089756641867943
 50
94.502189492040685
 51
357.22978420280037
  0
LINE
  8
_e-7_
  6
CONTINUOUS
 62
    3
 10
2556.5903561511468
 20
173.19863581905565
 11
2545.6430442891501
 21
173.19863581905565
  0
LINE
  8
_e-7_
  6
CONTINUOUS
 62
    3
 10
2557.5903561511468
 20
172.19863581905599
 11
2557.5903561511468
 21
161.60712439988742
  0
ARC
  8
_e-7_
  6
CONTINUOUS
 62
    3
 10
2556.5903561511468
 20
172.19863581905599
 40
1
 50
0
 51
90
  0
LINE
  8
_e-7_
  6
CONTINUOUS
 62
    3
 10
2548.9703457355517
 20
188.29058742736094
 11
2557.3930775458175
 21
188.29058742736094
  0
ARC
  8
_e-7_
  6
CONTINUOUS
 62
    3
 10
2546.9662856612039
 20
162.67716163604518
 40
25.691707563897665
 50
85.526146014136969
 51
347.40557840019874
  0
LINE
  8
_e-7_
  6
CONTINUOUS
 62
    3
 10
2557.3930775458175
 20
209.12865853712901
 11
2557.3930775458175
 21
188.29058742736094
  0
ARC
  8
_e-7_
  6
CONTINUOUS
 62
    3
 10
2558.3930775458175
 20
209.12865853712901
 40
1
 50
90
 51
180
  0
LINE
  8
_e-7_
  6
CONTINUOUS
 62
    3
 10
2572.0397992563612
 20
209.12865853712901
 11
2572.0397992563612
 21
157.07513043814088
  0
LINE
  8
_e-7_
  6
CONTINUOUS
 62
    3
 10
2571.0397992563616
 20
210.12865853712895
 11
2558.3930775458175
 21
210.12865853712895
  0
ARC
  8
_e-7_
  6
CONTINUOUS
 62
    3
 10
2571.0397992563616
 20
209.12865853712901
 40
1
 50
0
 51
90
  0
CIRCLE
  8
_e-7_
  6
CONTINUOUS
 62
    3
 10
2607.4932845795829
 20
162.61858771142584
 40
13.33773795583065
  0
CIRCLE
  8
_e-7_
  6
CONTINUOUS
 62
    3
 10
2607.2095671322085
 20
162.334870264051
 40
25.691707563897665
  0
ARC
  8
_e-7_
  6
CONTINUOUS
 62
    3
 10
2361.3056445788688
 20
183.56108960512415
 40
5
 50
90
 51
106.05338143786268
  0
ARC
  8
_e-7_
  6
CONTINUOUS
 62
    3
 10
2361.3056445788688
 20
183.56108960512415
 40
5
 50
90
 51
106.05338143786268
  0
ARC
  8
_e-7_
  6
CONTINUOUS
 62
    3
 10
2361.3056445788688
 20
183.56108960512415
 40
5
 50
90
 51
106.05338143786268
  0
ARC
  8
_e-7_
  6
CONTINUOUS
 62
    3
 10
2361.3056445788688
 20
183.56108960512415
 40
5
 50
90
 51
106.05338143786268
  0
LINE
  8
_e-7_
  6
CONTINUOUS
 62
    7
 10
2346.3470804331013
 20
179.59716504486777
 11
2368.5044577934554
 21
187.66179087344028
  0
LINE
  8
_e-7_
  6
CONTINUOUS
 62
    7
 10
2361.2415063076145
 20
179.69740385729494
 11
2376.5205845613304
 21
185.25853354867166
  0
LINE
  8
_e-7_
  6
CONTINUOUS
 62
    7
 10
2341.7511550984831
 20
172.60349616177705
 11
2361.2415063076145
 21
179.69740385729494
  0
LINE
  8
_e-7_
  6
CONTINUOUS
 62
    7
 10
2339.9278406436087
 20
166.61897511011602
 11
2357.2356669233163
 21
172.91850869577984
  0
LINE
  8
_e-7_
  6
CONTINUOUS
 62
    7
 10
2339.5613566552269
 20
161.16469698463049
 11
2352.6357267551816
 21
165.92337853279389
  0
LINE
  8
_e-7_
  6
CONTINUOUS
 62
    7
 10
2340.2704529847874
 20
156.10189807943811
 11
2352.3257797311662
 21
160.489678179473
  0
LINE
  8
_e-7_
  6
CONTINUOUS
 62
    7
 10
2341.9204823498939
 20
151.38157079162255
 11
2353.9794571535694
 21
155.77067867592631
  0
LINE
  8
_e-7_
  6
CONTINUOUS
 62
    7
 10
2344.504128974107
 20
147.00105239631881
 11
2357.564943671171
 21
151.75480018131679
  0
LINE
  8
_e-7_
  6
CONTINUOUS
 62
    7
 10
2348.1361647674011
 20
143.00211645248765
 11
2364.9879954656798
 21
149.13568121955449
  0
LINE
  8
_e-7_
  6
CONTINUOUS
 62
    7
 10
2353.1501292054063
 20
139.50616140121155
 11
2375.2534753949121
 21
147.55112149187283
  0
LINE
  8
_e-7_
  6
CONTINUOUS
 62
    7
 10
2360.6217579801264
 20
136.90472301431668
 11
2375.3071030149835
 21
142.24975148693374
  0
LINE
  8
_e-7_
  6
CONTINUOUS
 62
    7
 10
2375.3071030149835
 20
142.24975148693374
 11
2385.0115931457403
 21
145.78189703325932
  0
LINE
  8
_e-7_
  6
CONTINUOUS
 62
    7
 10
2374.4001538198344
 20
147.24053783828736
 11
2389.063020487204
 21
152.57738485422379
  0
LINE
  8
_e-7_
  6
CONTINUOUS
 62
    7
 10
2374.4883804748506
 20
152.59353857696169
 11
2390.6567834919524
 21
158.47835601080646
  0
LINE
  8
_e-7_
  6
CONTINUOUS
 62
    7
 10
2378.4912308361026
 20
159.37134582305873
 11
2390.8686178519897
 21
163.87634627483464
  0
LINE
  8
_e-7_
  6
CONTINUOUS
 62
    7
 10
2378.6565159204478
 20
164.75239353630797
 11
2390.0320630429459
 21
168.89275408738967
  0
LINE
  8
_e-7_
  6
CONTINUOUS
 62
    7
 10
2365.1397018509305
 20
175.7953421400316
 11
2381.7641004494612
 21
181.84612839247364
  0
LINE
  8
_e-7_
  6
CONTINUOUS
 62
    7
 10
2373.159843452322
 20
173.39354609515908
 11
2385.5507858710998
 21
177.90348031010012
  0
LINE
  8
_e-7_
  6
CONTINUOUS
 62
    7
 10
2399.4939617252575
 20
182.97838129215278
 11
2414.0119690553087
 21
188.26250382114977
  0
LINE
  8
_e-7_
  6
CONTINUOUS
 62
    7
 10
2399.4939617252575
 20
177.65749242977335
 11
2428.3670442872125
 21
188.16643505383524
  0
LINE
  8
_e-7_
  6
CONTINUOUS
 62
    7
 10
2399.4939617252575
 20
172.33660356739392
 11
2436.7743097980664
 21
185.90554058897964
  0
LINE
  8
_e-7_
  6
CONTINUOUS
 62
    7
 10
2399.4939617252575
 20
167.01571470501448
 11
2442.1110032081055
 21
182.52704927725858
  0
LINE
  8
_e-7_
  6
CONTINUOUS
 62
    7
 10
2399.4939617252575
 20
161.69482584263505
 11
2414.856930753669
 21
167.28648927893004
  0
LINE
  8
_e-7_
  6
CONTINUOUS
 62
    7
 10
2428.7090082786239
 20
172.32823318076128
 11
2445.9244086202584
 21
178.5941264760919
  0
LINE
  8
_e-7_
  6
CONTINUOUS
 62
    7
 10
2399.4939617252575
 20
156.37393698025562
 11
2414.856930753669
 21
161.96560041655061
  0
LINE
  8
_e-7_
  6
CONTINUOUS
 62
    7
 10
2403.3398935234458
 20
136.49018622829544
 11
2414.856930753669
 21
140.68204496703231
  0
LINE
  8
_e-7_
  6
CONTINUOUS
 62
    7
 10
2399.4939617252575
 20
140.41127039311675
 11
2414.856930753669
 21
146.00293382941202
  0
LINE
  8
_e-7_
  6
CONTINUOUS
 62
    7
 10
2399.4939617252575
 20
145.73215925549646
 11
2414.856930753669
 21
151.32382269179146
  0
LINE
  8
_e-7_
  6
CONTINUOUS
 62
    7
 10
2399.4939617252575
 20
151.0530481178759
 11
2414.856930753669
 21
156.64471155417118
  0
LINE
  8
_e-7_
  6
CONTINUOUS
 62
    7
 10
2436.2585234464268
 20
159.113365397844
 11
2451.1774760289304
 21
164.5434200643038
  0
LINE
  8
_e-7_
  6
CONTINUOUS
 62
    7
 10
2436.2585234464268
 20
153.79247653546485
 11
2451.1774760289304
 21
159.22253120192465
  0
LINE
  8
_e-7_
  6
CONTINUOUS
 62
    7
 10
2436.105047565391
 20
164.37839360784892
 11
2450.3687179376247
 21
169.56994505472636
  0
LINE
  8
_e-7_
  6
CONTINUOUS
 62
    7
 10
2436.2585234464268
 20
148.47158767308542
 11
2451.1774760289304
 21
153.90164233954521
  0
LINE
  8
_e-7_
  6
CONTINUOUS
 62
    7
 10
2436.2585234464268
 20
143.1506988107057
 11
2451.1774760289304
 21
148.5807534771655
  0
LINE
  8
_e-7_
  6
CONTINUOUS
 62
    7
 10
2436.2585234464268
 20
137.82980994832598
 11
2451.1774760289304
 21
143.25986461478606
  0
LINE
  8
_e-7_
  6
CONTINUOUS
 62
    7
 10
2447.1969595258929
 20
136.49018622829544
 11
2451.1774760289304
 21
137.93897575240634
  0
LINE
  8
_e-7_
  6
CONTINUOUS
 62
    7
 10
2434.0189024056153
 20
168.93998772771169
 11
2448.6296862431445
 21
174.25787814386978
  0
LINE
  8
_e-7_
  6
CONTINUOUS
 62
    7
 10
2469.1883842563338
 20
181.74063227593791
 11
2487.7135419125711
 21
188.48323824789645
  0
LINE
  8
_e-7_
  6
CONTINUOUS
 62
    7
 10
2463.6316388937825
 20
174.39725350219305
 11
2496.6904887083792
 21
186.42969081378254
  0
LINE
  8
_e-7_
  6
CONTINUOUS
 62
    7
 10
2461.4628990865917
 20
168.28700790412767
 11
2502.2794299488264
 21
183.14301020398858
  0
LINE
  8
_e-7_
  6
CONTINUOUS
 62
    7
 10
2461.4992419870632
 20
162.97934677574687
 11
2473.9894671720021
 21
167.52541696234658
  0
LINE
  8
_e-7_
  6
CONTINUOUS
 62
    7
 10
2492.1508316310541
 20
174.13561303910114
 11
2506.2885679576884
 21
179.28132824190015
  0
LINE
  8
_e-7_
  6
CONTINUOUS
 62
    7
 10
2496.6927278595248
 20
170.46783921101109
 11
2509.1784918759253
 21
175.01228566505261
  0
LINE
  8
_e-7_
  6
CONTINUOUS
 62
    7
 10
2463.2093427036916
 20
158.28088367181749
 11
2488.4793399340492
 21
167.47841048365671
  0
LINE
  8
_e-7_
  6
CONTINUOUS
 62
    7
 10
2462.8888794596255
 20
152.84335572742151
 11
2511.1140538755621
 21
170.39588375711787
  0
LINE
  8
_e-7_
  6
CONTINUOUS
 62
    7
 10
2465.300291731432
 20
148.400149154524
 11
2476.9283430630944
 21
152.63241372176821
  0
LINE
  8
_e-7_
  6
CONTINUOUS
 62
    7
 10
2488.1225212892722
 20
156.70676139316753
 11
2512.1228430370119
 21
165.44216412215632
  0
LINE
  8
_e-7_
  6
CONTINUOUS
 62
    7
 10
2502.7415432900879
 20
156.70676139316753
 11
2512.1151621126959
 21
160.11847963195407
  0
LINE
  8
_e-7_
  6
CONTINUOUS
 62
    7
 10
2468.7281740890052
 20
144.32690743686691
 11
2482.5550140975401
 21
149.35946563393486
  0
LINE
  8
_e-7_
  6
CONTINUOUS
 62
    7
 10
2473.4508580764295
 20
140.72493497175571
 11
2502.4973614552445
 21
151.29699761115659
  0
LINE
  8
_e-7_
  6
CONTINUOUS
 62
    7
 10
2480.3069495598269
 20
137.89945933273884
 11
2507.3767895083869
 21
147.75207532036432
  0
LINE
  8
_e-7_
  6
CONTINUOUS
 62
    7
 10
2552.6231690921717
 20
137.61596638527407
 11
2558.7418873346696
 21
139.84299769740459
  0
LINE
  8
_e-7_
  6
CONTINUOUS
 62
    7
 10
2539.4012676014826
 20
138.12447666464265
 11
2568.5435873921023
 21
148.73141362589478
  0
LINE
  8
_e-7_
  6
CONTINUOUS
 62
    7
 10
2532.9976800904732
 20
141.11465028049622
 11
2571.5269734698549
 21
155.13816621790056
  0
LINE
  8
_e-7_
  6
CONTINUOUS
 62
    7
 10
2522.081864354775
 20
169.06695144424446
 11
2572.0397992563612
 21
187.25015271383
  0
LINE
  8
_e-7_
  6
CONTINUOUS
 62
    7
 10
2524.5896829795606
 20
175.30061163898437
 11
2572.0397992563612
 21
192.57104157620943
  0
LINE
  8
_e-7_
  6
CONTINUOUS
 62
    7
 10
2557.3930775458175
 20
208.52362629350906
 11
2561.8028673926596
 21
210.12865853712895
  0
LINE
  8
_e-7_
  6
CONTINUOUS
 62
    7
 10
2557.3930775458175
 20
203.20273743112977
 11
2572.0397992563612
 21
208.53370816334788
  0
LINE
  8
_e-7_
  6
CONTINUOUS
 62
    7
 10
2557.3930775458175
 20
197.88184856875005
 11
2572.0397992563612
 21
203.21281930096859
  0
LINE
  8
_e-7_
  6
CONTINUOUS
 62
    7
 10
2557.3930775458175
 20
192.56095970637034
 11
2572.0397992563612
 21
197.89193043858915
  0
LINE
  8
_e-7_
  6
CONTINUOUS
 62
    7
 10
2531.3600319802562
 20
183.08570601321093
 11
2545.8030101140193
 21
188.34252014805827
  0
LINE
  8
_e-7_
  6
CONTINUOUS
 62
    7
 10
2548.0525958796984
 20
173.19863581905565
 11
2572.0397992563612
 21
181.92926385145057
  0
LINE
  8
_e-7_
  6
CONTINUOUS
 62
    7
 10
2521.2864022906337
 20
163.45653806802943
 11
2538.3752084417083
 21
169.67635484616607
  0
LINE
  8
_e-7_
  6
CONTINUOUS
 62
    7
 10
2521.6554107736333
 20
158.26995730965364
 11
2535.4846691325356
 21
163.30339571427089
  0
LINE
  8
_e-7_
  6
CONTINUOUS
 62
    7
 10
2522.9940114609526
 20
153.43627925302655
 11
2536.1404517985765
 21
158.22119222247806
  0
LINE
  8
_e-7_
  6
CONTINUOUS
 62
    7
 10
2525.2563435788042
 20
148.93881194156961
 11
2539.0354883761397
 21
153.95401050144357
  0
LINE
  8
_e-7_
  6
CONTINUOUS
 62
    7
 10
2528.5117312327797
 20
144.80278728623488
 11
2545.7561370732087
 21
151.07923771975691
  0
LINE
  8
_e-7_
  6
CONTINUOUS
 62
    7
 10
2554.2054905278623
 20
154.15455087604527
 11
2572.0397992563612
 21
160.64570840193255
  0
LINE
  8
_e-7_
  6
CONTINUOUS
 62
    7
 10
2557.505937791675
 20
160.67670430221767
 11
2572.0397992563612
 21
165.96659726431198
  0
LINE
  8
_e-7_
  6
CONTINUOUS
 62
    7
 10
2557.5903561511468
 20
166.02831893467055
 11
2572.0397992563612
 21
171.28748612669141
  0
LINE
  8
_e-7_
  6
CONTINUOUS
 62
    7
 10
2557.5903561511468
 20
171.34920779704998
 11
2572.0397992563612
 21
176.60837498907085
  0
LINE
  8
_e-7_
  6
CONTINUOUS
 62
    7
 10
2595.1467628188602
 20
185.01862193009401
 11
2601.869376832742
 21
187.46545332760774
  0
LINE
  8
_e-7_
  6
CONTINUOUS
 62
    7
 10
2585.5936460434281
 20
176.22068291698809
 11
2614.8426950414304
 21
186.86646613285404
  0
LINE
  8
_e-7_
  6
CONTINUOUS
 62
    7
 10
2608.5181174973608
 20
136.67650840108905
 11
2622.7000364868072
 21
141.83830477802189
  0
LINE
  8
_e-7_
  6
CONTINUOUS
 62
    7
 10
2598.2444761483161
 20
138.25809761488983
 11
2629.5534764025951
 21
149.65364177207987
  0
LINE
  8
_e-7_
  6
CONTINUOUS
 62
    7
 10
2582.6330921261528
 20
169.82224055178022
 11
2621.2234503919626
 21
183.86798229020314
  0
LINE
  8
_e-7_
  6
CONTINUOUS
 62
    7
 10
2592.2968185805402
 20
141.41421615899105
 11
2632.0809325371146
 21
155.89444943583799
  0
LINE
  8
_e-7_
  6
CONTINUOUS
 62
    7
 10
2588.0695495912832
 20
145.19650493704432
 11
2602.246111940276
 21
150.35635165629656
  0
LINE
  8
_e-7_
  6
CONTINUOUS
 62
    7
 10
2585.0094293819529
 20
149.40360112995108
 11
2597.3909335115822
 21
153.91010008858017
  0
LINE
  8
_e-7_
  6
CONTINUOUS
 62
    7
 10
2582.919829983693
 20
153.96393800982366
 11
2594.8695180063709
 21
158.31326875884542
  0
LINE
  8
_e-7_
  6
CONTINUOUS
 62
    7
 10
2581.7538748691904
 20
158.86045391603374
 11
2594.1774270088017
 21
163.38225709870641
  0
LINE
  8
_e-7_
  6
CONTINUOUS
 62
    7
 10
2581.5798124660104
 20
164.11798924475078
 11
2595.9853391150813
 21
169.36117215394091
  0
LINE
  8
_e-7_
  6
CONTINUOUS
 62
    7
 10
2611.9748325174678
 20
175.18087181340547
 11
2625.6969314853622
 21
180.17530738937352
  0
LINE
  8
_e-7_
  6
CONTINUOUS
 62
    7
 10
2617.2029460570038
 20
171.76286066078091
 11
2628.9430705154381
 21
176.03591651023151
  0
LINE
  8
_e-7_
  6
CONTINUOUS
 62
    7
 10
2619.9310564926913
 20
167.43492279278257
 11
2631.1973168341919
 21
171.53550620858254
  0
LINE
  8
_e-7_
  6
CONTINUOUS
 62
    7
 10
2620.8298424207368
 20
162.44116525518904
 11
2632.5279188691888
 21
166.69891688059578
  0
LINE
  8
_e-7_
  6
CONTINUOUS
 62
    7
 10
2619.394865425299
 20
156.5979874796136
 11
2632.8880000931144
 21
161.50908686564349
  0
LINE
  8
ADD_LINE
  6
DOT
 62
    9
 10
2339.5613566552269
 20
120
 11
2339.5613566552269
 21
220
  0
LINE
  8
ADD_LINE
  6
DOT
 62
    9
 10
2486.2246783741707
 20
220
 11
2486.2246783741707
 21
120
  0
LINE
  8
ADD_LINE
  6
DOT
 62
    9
 10
2632.8880000931144
 20
120
 11
2632.8880000931144
 21
220
  0
LINE
  8
ADD_LINE
  6
DOT
 62
    9
 10
2220
 20
220
 11
2220
 21
120
  0
LINE
  8
ADD_LINE
  6
DOT
 62
    9
 10
2710
 20
220
 11
2710
 21
120
  0
TEXT
  8
_e-7_
 62
    7
 10
2642.8586825750176
 20
180.56247057449553
 40
35
 41
0.5714285714285712
 50
0
  1
ワンド
  0
TEXT
  8
_e-7_
 62
    7
 10
2649.7045100149039
 20
147.0179161190498
 40
30
 41
0.6666666666666666
 50
0
  1
株式
  0
TEXT
  8
_e-7_
 62
    7
 10
2649.0199272709155
 20
118.95002361551377
 40
30
 41
0.6666666666666666
 50
0
  1
会社
  0
TEXT
  8
_f-a_
 62
    7
 10
1562.872340425532
 20
137.5
 40
45
 41
0.6666666666666666
 50
0
  1
ＫＴＤ３－４５－１００ＦＨ
  0
TEXT
  8
_f-a_
 62
    7
 10
3043.0000000000009
 20
142.5
 40
35
 41
0.5714285714285712
 50
0
  1
２０２３．０５．０１
  0
TEXT
  8
_f-a_
 62
    7
 10
3582
 20
145
 40
30
 41
0.733333333333333
 50
0
  1
Ｔ．Ｋ
  0
LINE
  8
ADD_LINE
  6
DOT
 62
    9
 10
1490
 20
727
 11
1490
 21
664.96113536658526
  0
LINE
  8
ADD_LINE
  6
DOT
 62
    9
 10
1570
 20
727
 11
1570
 21
664.96113536658526
  0
LINE
  8
ADD_LINE
  6
DOT
 62
    9
 10
1730
 20
727
 11
1730
 21
664.96113536658526
  0
LINE
  8
ADD_LINE
  6
DOT
 62
    9
 10
1880
 20
727
 11
1880
 21
664.96113536658526
  0
LINE
  8
ADD_LINE
  6
DOT
 62
    9
 10
1960
 20
727
 11
1960
 21
664.96113536658526
  0
LINE
  8
ADD_LINE
  6
DOT
 62
    9
 10
2000
 20
1277
 11
1872.512793525595
 21
1277
  0
LINE
  8
ADD_LINE
  6
DOT
 62
    9
 10
2000
 20
1437
 11
1872.512793525595
 21
1437
  0
LINE
  8
ADD_LINE
  6
DOT
 62
    9
 10
2000
 20
1357
 11
1872.512793525595
 21
1357
  0
TEXT
  8
_0-d_
 62
    7
 10
3282.3037764167247
 20
2432.1992207634698
 40
35
 41
0.8571428571428569
 50
0
  1
両面化粧パ－ティクルボ－ド　１２ｔ　耐震ラッチ付
  0
TEXT
  8
_f-a_
 62
    7
 10
644.31301386265033
 20
134.89144027884947
 40
45
 41
0.8
 50
0
  1
不燃仕様吊戸棚　高さ４５ｃｍタイプ
  0
LINE
  8
_1-1_
  6
DASHED1
 62
    7
 10
2124.5000000000009
 20
1189.4235499999999
 11
2123.3933500000007
 21
1190.0625
  0
LINE
  8
_1-1_
  6
DASHED1
 62
    7
 10
2124.5000000000009
 20
1188.5575499999999
 11
2122.5000000000009
 21
1189.71225
  0
LINE
  8
_1-1_
  6
DASHED1
 62
    7
 10
2124.5000000000009
 20
1187.6914999999999
 11
2122.5000000000009
 21
1188.8461999999999
  0
LINE
  8
_1-1_
  6
DASHED1
 62
    7
 10
2124.5000000000009
 20
1186.8255000000001
 11
2122.5000000000009
 21
1187.9801999999999
  0
LINE
  8
_1-1_
  6
DASHED1
 62
    7
 10
2124.5000000000009
 20
1185.95945
 11
2122.5000000000009
 21
1187.1141500000001
  0
LINE
  8
_1-1_
  6
DASHED1
 62
    7
 10
2124.5000000000009
 20
1185.0934499999998
 11
2122.5000000000009
 21
1186.2481499999998
  0
LINE
  8
_1-1_
  6
DASHED1
 62
    7
 10
2124.5000000000009
 20
1184.2273999999999
 11
2122.5000000000009
 21
1185.3821
  0
LINE
  8
_1-1_
  6
DASHED1
 62
    7
 10
2124.5000000000009
 20
1183.3614
 11
2122.5000000000009
 21
1184.5161
  0
LINE
  8
_1-1_
  6
DASHED1
 62
    7
 10
2124.5000000000009
 20
1182.4953499999999
 11
2122.5000000000009
 21
1183.6500499999999
  0
LINE
  8
_1-1_
  6
DASHED1
 62
    7
 10
2124.5000000000009
 20
1181.6293500000001
 11
2122.5000000000009
 21
1182.7840499999999
  0
LINE
  8
_1-1_
  6
DASHED1
 62
    7
 10
2124.5000000000009
 20
1180.7633
 11
2122.5000000000009
 21
1181.9180000000001
  0
LINE
  8
_1-1_
  6
DASHED1
 62
    7
 10
2124.5000000000009
 20
1179.8972999999998
 11
2122.5000000000009
 21
1181.0519999999999
  0
LINE
  8
_1-1_
  6
DASHED1
 62
    7
 10
2124.5000000000009
 20
1179.03125
 11
2122.5000000000009
 21
1180.18595
  0
LINE
  8
_1-1_
  6
DASHED1
 62
    7
 10
2124.5000000000009
 20
1178.16525
 11
2122.5000000000009
 21
1179.31995
  0
LINE
  8
_1-1_
  6
DASHED1
 62
    7
 10
2124.5000000000009
 20
1177.2991999999999
 11
2122.5000000000009
 21
1178.4538999999999
  0
LINE
  8
_1-1_
  6
DASHED1
 62
    7
 10
2124.5000000000009
 20
1176.4331999999999
 11
2122.5000000000009
 21
1177.5878999999999
  0
LINE
  8
_1-1_
  6
DASHED1
 62
    7
 10
2124.5000000000009
 20
1175.5671499999998
 11
2122.5000000000009
 21
1176.7218499999999
  0
LINE
  8
_1-1_
  6
DASHED1
 62
    7
 10
2124.5000000000009
 20
1174.7011499999998
 11
2122.5000000000009
 21
1175.8558499999999
  0
LINE
  8
_1-1_
  6
DASHED1
 62
    7
 10
2124.5000000000009
 20
1173.8351
 11
2122.5000000000009
 21
1174.9898
  0
LINE
  8
_1-1_
  6
DASHED1
 62
    7
 10
2124.5000000000009
 20
1172.9691
 11
2122.5000000000009
 21
1174.1238
  0
LINE
  8
_1-1_
  6
DASHED1
 62
    7
 10
2124.5000000000009
 20
1172.1030500000001
 11
2122.5000000000009
 21
1173.2577499999999
  0
LINE
  8
_1-1_
  6
DASHED1
 62
    7
 10
2124.5000000000009
 20
1171.2370499999999
 11
2122.5000000000009
 21
1172.39175
  0
LINE
  8
_1-1_
  6
DASHED1
 62
    7
 10
2124.5000000000009
 20
1170.3709999999998
 11
2122.5000000000009
 21
1171.5256999999999
  0
LINE
  8
_1-1_
  6
DASHED1
 62
    7
 10
2124.5000000000009
 20
1169.5050000000001
 11
2122.5000000000009
 21
1170.6596999999999
  0
LINE
  8
_1-1_
  6
DASHED1
 62
    7
 10
2124.5000000000009
 20
1168.63895
 11
2122.5000000000009
 21
1169.79365
  0
LINE
  8
_1-1_
  6
DASHED1
 62
    7
 10
2124.3899500000006
 20
1167.8364999999998
 11
2122.5000000000009
 21
1168.92765
  0
LINE
  8
_1-1_
  6
DASHED1
 62
    7
 10
2124.269200000001
 20
1167.04015
 11
2122.427900000001
 21
1168.1032500000001
  0
LINE
  8
_1-1_
  6
DASHED1
 62
    7
 10
2123.996450000001
 20
1166.3315999999999
 11
2122.2399000000009
 21
1167.3457499999999
  0
LINE
  8
_1-1_
  6
DASHED1
 62
    7
 10
2123.651600000001
 20
1165.6647
 11
2121.939600000001
 21
1166.6530999999999
  0
LINE
  8
_1-1_
  6
DASHED1
 62
    7
 10
2123.3067500000011
 20
1164.9977499999999
 11
2121.3915500000011
 21
1166.1034999999999
  0
LINE
  8
_1-1_
  6
DASHED1
 62
    7
 10
2122.8042000000009
 20
1164.4219
 11
2120.8965500000012
 21
1165.5232499999999
  0
LINE
  8
_1-1_
  6
DASHED1
 62
    7
 10
2122.2266000000008
 20
1163.8893
 11
2119.675000000001
 21
1165.3624999999999
  0
LINE
  8
_1-1_
  6
DASHED1
 62
    7
 10
2121.5576500000006
 20
1163.4094999999999
 11
2118.175000000001
 21
1165.3624999999999
  0
LINE
  8
_1-1_
  6
DASHED1
 62
    7
 10
2120.6692500000008
 20
1163.0563999999999
 11
2116.675000000001
 21
1165.3624999999999
  0
LINE
  8
_1-1_
  6
DASHED1
 62
    7
 10
2119.7549500000009
 20
1162.7182500000001
 11
2115.175000000001
 21
1165.3624999999999
  0
LINE
  8
_1-1_
  6
DASHED1
 62
    7
 10
2117.0247500000009
 20
1162.5625
 11
2112.7099500000008
 21
1165.05365
  0
LINE
  8
_1-1_
  6
DASHED1
 62
    7
 10
2118.4746000000009
 20
1162.5914500000001
 11
2113.7345000000009
 21
1165.32815
  0
LINE
  8
_1-1_
  6
DASHED1
 62
    7
 10
2115.5247500000009
 20
1162.5625
 11
2111.6854500000008
 21
1164.7790999999999
  0
LINE
  8
_1-1_
  6
DASHED1
 62
    7
 10
2112.5247500000009
 20
1162.5625
 11
2109.6364000000007
 21
1164.2300500000001
  0
LINE
  8
_1-1_
  6
DASHED1
 62
    7
 10
2114.0247500000009
 20
1162.5625
 11
2110.6609500000008
 21
1164.5045999999999
  0
LINE
  8
_1-1_
  6
DASHED1
 62
    7
 10
2111.0247500000009
 20
1162.5625
 11
2108.2484000000013
 21
1164.1653999999998
  0
LINE
  8
_1-1_
  6
DASHED1
 62
    7
 10
2109.5247500000009
 20
1162.5625
 11
2106.8046000000008
 21
1164.1329999999998
  0
LINE
  8
_1-1_
  6
DASHED1
 62
    7
 10
2108.0247500000009
 20
1162.5625
 11
2104.9489000000007
 21
1164.3382999999998
  0
LINE
  8
_1-1_
  6
DASHED1
 62
    7
 10
2106.5247500000009
 20
1162.5625
 11
2102.5749000000009
 21
1164.8429499999999
  0
LINE
  8
_1-1_
  6
DASHED1
 62
    7
 10
2105.0247500000009
 20
1162.5625
 11
2100.2009000000007
 21
1165.3475499999999
  0
LINE
  8
_1-1_
  6
DASHED1
 62
    7
 10
2103.5247500000009
 20
1162.5625
 11
2097.8269000000009
 21
1165.8521500000001
  0
LINE
  8
_1-1_
  6
DASHED1
 62
    7
 10
2102.0247500000009
 20
1162.5625
 11
2095.452850000001
 21
1166.3567499999999
  0
LINE
  8
_1-1_
  6
DASHED1
 62
    7
 10
2100.5247500000009
 20
1162.5625
 11
2093.0788500000007
 21
1166.8614
  0
LINE
  8
_1-1_
  6
DASHED1
 62
    7
 10
2099.0247500000009
 20
1162.5625
 11
2081.1846000000009
 21
1172.8624999999999
  0
LINE
  8
_1-1_
  6
DASHED1
 62
    7
 10
2097.5247500000009
 20
1162.5625
 11
2078.5000000000009
 21
1173.54645
  0
LINE
  8
_1-1_
  6
DASHED1
 62
    7
 10
2096.0247500000009
 20
1162.5625
 11
2078.5000000000009
 21
1172.6803999999999
  0
LINE
  8
_1-1_
  6
DASHED1
 62
    7
 10
2094.5247500000009
 20
1162.5625
 11
2078.5000000000009
 21
1171.8143999999999
  0
LINE
  8
_1-1_
  6
DASHED1
 62
    7
 10
2091.5000000000009
 20
1178.16525
 11
2089.5000000000009
 21
1179.31995
  0
LINE
  8
_1-1_
  6
DASHED1
 62
    7
 10
2091.5000000000009
 20
1177.2991999999999
 11
2089.5000000000009
 21
1178.4538999999999
  0
LINE
  8
_1-1_
  6
DASHED1
 62
    7
 10
2091.5000000000009
 20
1176.4331999999999
 11
2089.5000000000009
 21
1177.5878999999999
  0
LINE
  8
_1-1_
  6
DASHED1
 62
    7
 10
2091.5000000000009
 20
1175.5671499999998
 11
2089.2292000000006
 21
1176.8782000000001
  0
LINE
  8
_1-1_
  6
DASHED1
 62
    7
 10
2091.5000000000009
 20
1174.7011499999998
 11
2088.191600000001
 21
1176.6112499999999
  0
LINE
  8
_1-1_
  6
DASHED1
 62
    7
 10
2091.5000000000009
 20
1173.8351
 11
2086.7760000000007
 21
1176.5625
  0
LINE
  8
_1-1_
  6
DASHED1
 62
    7
 10
2091.5000000000009
 20
1172.9691
 11
2085.2760000000007
 21
1176.5625
  0
LINE
  8
_1-1_
  6
DASHED1
 62
    7
 10
2091.5000000000009
 20
1172.1030500000001
 11
2083.7760000000007
 21
1176.5625
  0
LINE
  8
_1-1_
  6
DASHED1
 62
    7
 10
2091.5000000000009
 20
1171.2370499999999
 11
2088.6846000000009
 21
1172.8624999999999
  0
LINE
  8
_1-1_
  6
DASHED1
 62
    7
 10
2091.5000000000009
 20
1170.3709999999998
 11
2087.1846000000009
 21
1172.8624999999999
  0
LINE
  8
_1-1_
  6
DASHED1
 62
    7
 10
2091.5000000000009
 20
1169.5050000000001
 11
2085.6846000000009
 21
1172.8624999999999
  0
LINE
  8
_1-1_
  6
DASHED1
 62
    7
 10
2091.5034000000009
 20
1168.6369999999999
 11
2084.1846000000009
 21
1172.8624999999999
  0
LINE
  8
_1-1_
  6
DASHED1
 62
    7
 10
2091.6351500000009
 20
1167.6948999999999
 11
2082.6846000000009
 21
1172.8624999999999
  0
LINE
  8
_1-1_
  6
DASHED1
 62
    7
 10
2088.6846000000009
 20
1172.8624999999999
 11
2082.2760000000012
 21
1176.5625
  0
LINE
  8
_1-1_
  6
DASHED1
 62
    7
 10
2087.1846000000009
 20
1172.8624999999999
 11
2080.7760000000012
 21
1176.5625
  0
LINE
  8
_1-1_
  6
DASHED1
 62
    7
 10
2085.6846000000009
 20
1172.8624999999999
 11
2079.5000000000009
 21
1176.4331999999999
  0
LINE
  8
_1-1_
  6
DASHED1
 62
    7
 10
2084.1846000000009
 20
1172.8624999999999
 11
2078.5000000000009
 21
1176.1445000000001
  0
LINE
  8
_1-1_
  6
DASHED1
 62
    7
 10
2082.6846000000009
 20
1172.8624999999999
 11
2078.5000000000009
 21
1175.2784999999998
  0
LINE
  8
_1-1_
  6
DASHED1
 62
    7
 10
2081.1846000000009
 20
1172.8624999999999
 11
2078.5000000000009
 21
1174.41245
  0
LINE
  8
_1-1_
  6
DASHED1
 62
    7
 10
2124.5000000000009
 20
1190.1735499999999
 11
2123.5000000000009
 21
1190.7509
  0
LINE
  8
_1-1_
  6
DASHED1
 62
    7
 10
2124.5000000000009
 20
1190.1735499999999
 11
2123.3933500000007
 21
1190.8125
  0
LINE
  8
_1-1_
  6
DASHED1
 62
    7
 10
2124.5000000000009
 20
1190.9235499999999
 11
2123.7397500000006
 21
1191.3624999999999
  0
LINE
  8
_1-1_
  6
DASHED1
 62
    7
 10
2089.5000000000009
 20
1181.0625
 11
2089.5000000000009
 21
1183.0625
  0
LINE
  8
_1-1_
  6
DASHED1
 62
    7
 10
2109.5000000000009
 20
1164.1934999999998
 11
2107.0000000000009
 21
1164.0625
  0
LINE
  8
_1-1_
  6
DASHED1
 62
    7
 10
2113.8627000000005
 20
1165.3624999999999
 11
2109.5000000000009
 21
1164.1934999999998
  0
LINE
  8
_1-1_
  6
DASHED1
 62
    7
 10
2091.5000000000009
 20
1178.4077999999999
 11
2089.5000000000009
 21
1179.5625
  0
LINE
  8
_1-1_
  6
DASHED1
 62
    7
 10
2091.5000000000009
 20
1168.6706999999998
 11
2091.5000000000009
 21
1178.4077999999999
  0
LINE
  8
_1-1_
  6
DASHED1
 62
    7
 10
2114.550000000001
 20
1190.0625
 11
2114.550000000001
 21
1189.0625
  0
LINE
  8
_1-1_
  6
DASHED1
 62
    7
 10
2087.7679500000012
 20
1183.5625
 11
2089.5000000000009
 21
1180.5625
  0
LINE
  8
_1-1_
  6
DASHED1
 62
    7
 10
2106.0000000000009
 20
1164.1149
 11
2107.0000000000009
 21
1164.0625
  0
LINE
  8
_1-1_
  6
DASHED1
 62
    7
 10
2091.8080000000009
 20
1167.1314999999999
 11
2106.0000000000009
 21
1164.1149
  0
LINE
  8
_1-1_
  6
DASHED1
 62
    7
 10
2122.5000000000009
 20
1190.0625
 11
2122.5000000000009
 21
1168.6601999999998
  0
LINE
  8
_1-1_
  6
DASHED1
 62
    7
 10
2113.8627000000005
 20
1165.3624999999999
 11
2120.7639000000008
 21
1165.3624999999999
  0
LINE
  8
_1-1_
  6
DASHED1
 62
    7
 10
2082.0000000000009
 20
1185.2625
 11
2082.0000000000009
 21
1192.8624999999999
  0
LINE
  8
_1-1_
  6
DASHED1
 62
    7
 10
2096.800000000001
 20
1189.0625
 11
2114.550000000001
 21
1189.0625
  0
LINE
  8
_1-1_
  6
DASHED1
 62
    7
 10
2124.5000000000009
 20
1168.5625
 11
2124.5000000000009
 21
1191.3624999999999
  0
LINE
  8
_1-1_
  6
DASHED1
 62
    7
 10
2123.5000000000009
 20
1190.0625
 11
2123.5000000000009
 21
1191.3791499999999
  0
LINE
  8
_1-1_
  6
DASHED1
 62
    7
 10
2124.5000000000009
 20
1191.3624999999999
 11
2064.5000000000009
 21
1192.2625
  0
LINE
  8
_1-1_
  6
DASHED1
 62
    7
 10
2065.5000000000009
 20
1192.2625
 11
2065.5000000000009
 21
1190.9625
  0
LINE
  8
_1-1_
  6
DASHED1
 62
    7
 10
2086.7595500000011
 20
1190.9625
 11
2091.0000000000009
 21
1190.9625
  0
LINE
  8
_1-1_
  6
DASHED1
 62
    7
 10
2074.6785500000009
 20
1190.9625
 11
2065.6000000000008
 21
1190.9625
  0
LINE
  8
_1-1_
  6
DASHED1
 62
    7
 10
2091.0000000000009
 20
1189.0625
 11
2092.2000000000007
 21
1189.0625
  0
LINE
  8
_1-1_
  6
DASHED1
 62
    7
 10
2055.500050000001
 20
1181.0625
 11
2053.500050000001
 21
1183.0625
  0
LINE
  8
_1-1_
  6
DASHED1
 62
    7
 10
2053.500050000001
 20
1183.0625
 11
2053.500050000001
 21
1190.0625
  0
LINE
  8
_1-1_
  6
DASHED1
 62
    7
 10
2058.500050000001
 20
1187.0625
 11
2058.500050000001
 21
1185.7625
  0
LINE
  8
_1-1_
  6
DASHED1
 62
    7
 10
2094.5000000000009
 20
1186.9625
 11
2094.5000000000009
 21
1175.7625
  0
LINE
  8
_1-1_
  6
DASHED1
 62
    7
 10
2053.500050000001
 20
1187.0625
 11
2083.4284000000006
 21
1187.0625
  0
LINE
  8
_1-1_
  6
DASHED1
 62
    7
 10
2084.8426500000009
 20
1186.4767000000001
 11
2092.3784000000009
 21
1178.9409
  0
LINE
  8
_1-1_
  6
DASHED1
 62
    7
 10
2086.6710500000008
 20
1191.0625
 11
2054.500050000001
 21
1191.0625
  0
LINE
  8
_1-1_
  6
DASHED1
 62
    7
 10
2090.2066000000008
 20
1189.59805
 11
2093.9847500000009
 21
1185.81985
  0
LINE
  8
_1-1_
  6
DASHED1
 62
    7
 10
2089.300000000001
 20
1181.0625
 11
2098.610000000001
 21
1181.0625
  0
LINE
  8
_1-1_
  6
DASHED1
 62
    7
 10
2108.0000000000009
 20
1170.1324999999999
 11
2108.0000000000009
 21
1190.8524999999999
  0
LINE
  8
_1-1_
  6
DASHED1
 62
    7
 10
2064.0000500000005
 20
1187.0625
 11
2064.0000500000005
 21
1191.0625
  0
LINE
  8
_1-1_
  6
DASHED1
 62
    7
 10
2058.500050000001
 20
1191.0625
 11
2058.500050000001
 21
1187.0625
  0
LINE
  8
_1-1_
  6
DASHED1
 62
    7
 10
2055.500050000001
 20
1181.0625
 11
2062.500050000001
 21
1181.0625
  0
LINE
  8
_1-1_
  6
DASHED1
 62
    7
 10
2062.500050000001
 20
1182.2225
 11
2062.500050000001
 21
1181.0625
  0
LINE
  8
_1-1_
  6
DASHED1
 62
    7
 10
2062.500050000001
 20
1182.2225
 11
2058.500050000001
 21
1185.7625
  0
LINE
  8
_1-1_
  6
DASHED1
 62
    7
 10
2120.9291000000011
 20
1175.34065
 11
2121.8894000000009
 21
1183.1619
  0
LINE
  8
_1-1_
  6
DASHED1
 62
    7
 10
2121.8941500000009
 20
1183.1603500000001
 11
2116.2091500000005
 21
1185.0625
  0
LINE
  8
_1-1_
  6
DASHED1
 62
    7
 10
2106.0000000000009
 20
1184.0625
 11
2094.5000000000009
 21
1184.0625
  0
LINE
  8
_1-1_
  6
DASHED1
 62
    7
 10
2106.0000000000009
 20
1184.0625
 11
2106.0000000000009
 21
1185.0625
  0
LINE
  8
_1-1_
  6
DASHED1
 62
    7
 10
2106.0000000000009
 20
1185.0625
 11
2116.2091500000005
 21
1185.0625
  0
LINE
  8
_1-1_
  6
DASHED1
 62
    7
 10
2102.8941500000009
 20
1178.1486999999999
 11
2102.8941500000009
 21
1177.44685
  0
LINE
  8
_1-1_
  6
DASHED1
 62
    7
 10
2102.8941500000009
 20
1178.1486999999999
 11
2106.3941500000009
 21
1181.0261
  0
LINE
  8
_1-1_
  6
DASHED1
 62
    7
 10
2113.3941500000009
 20
1180.1782
 11
2113.3941500000009
 21
1176.5588499999998
  0
LINE
  8
_1-1_
  6
DASHED1
 62
    7
 10
2102.8941500000009
 20
1177.44685
 11
2106.3941500000009
 21
1180.6078999999999
  0
LINE
  8
_1-1_
  6
DASHED1
 62
    7
 10
2113.3941500000009
 20
1176.5588499999998
 11
2113.3941500000009
 21
1177.0774000000001
  0
LINE
  8
_1-1_
  6
DASHED1
 62
    7
 10
2096.800000000001
 20
1189.0625
 11
2096.800000000001
 21
1184.23475
  0
LINE
  8
_1-1_
  6
DASHED1
 62
    7
 10
2092.2000000000007
 20
1189.0625
 11
2092.2000000000007
 21
1187.6045999999998
  0
LINE
  8
_1-1_
  6
DASHED1
 62
    7
 10
2092.2000000000007
 20
1187.6045999999998
 11
2092.2000000000007
 21
1180.3999499999999
  0
LINE
  8
_1-1_
  6
DASHED1
 62
    7
 10
2096.800000000001
 20
1184.23475
 11
2096.800000000001
 21
1181.0625
  0
LINE
  8
_1-1_
  6
DASHED1
 62
    7
 10
2091.0000000000009
 20
1188.8045999999999
 11
2091.0000000000009
 21
1191.865
  0
LINE
  8
_1-1_
  6
DASHED1
 62
    7
 10
2091.0000000000009
 20
1178.6965
 11
2091.0000000000009
 21
1180.3193499999999
  0
LINE
  8
_1-1_
  6
DASHED1
 62
    7
 10
2091.0000000000009
 20
1188.8045999999999
 11
2091.0000000000009
 21
1180.3193499999999
  0
LINE
  8
_1-1_
  6
DASHED1
 62
    7
 10
2087.5000000000009
 20
1185.0625
 11
2087.5000000000009
 21
1184.5625
  0
LINE
  8
_1-1_
  6
DASHED1
 62
    7
 10
2083.4284000000006
 20
1187.0625
 11
2065.5000000000009
 21
1187.0625
  0
LINE
  8
_1-1_
  6
DASHED1
 62
    7
 10
2085.5000000000009
 20
1187.0625
 11
2083.900000000001
 21
1187.0625
  0
LINE
  8
_1-1_
  6
DASHED1
 62
    7
 10
2074.6785500000009
 20
1190.9625
 11
2079.1000000000008
 21
1190.9625
  0
LINE
  8
_1-1_
  6
DASHED1
 62
    7
 10
2079.1070000000008
 20
1192.0190499999998
 11
2079.1011000000007
 21
1190.9625
  0
LINE
  8
_1-1_
  6
DASHED1
 62
    7
 10
2084.893500000001
 20
1191.9226000000001
 11
2084.898900000001
 21
1190.9625
  0
LINE
  8
_1-1_
  6
DASHED1
 62
    7
 10
2084.900000000001
 20
1190.9625
 11
2086.7595500000011
 21
1190.9625
  0
LINE
  8
_1-1_
  6
DASHED1
 62
    7
 10
2083.900000000001
 20
1187.0625
 11
2083.900000000001
 21
1191.9715000000001
  0
LINE
  8
_1-1_
  6
DASHED1
 62
    7
 10
2080.1000000000012
 20
1187.0625
 11
2080.1000000000012
 21
1192.00305
  0
LINE
  8
_1-1_
  6
DASHED1
 62
    7
 10
2107.0000000000009
 20
1187.5625
 11
2107.0000000000009
 21
1192.5625
  0
LINE
  8
_1-1_
  6
DASHED1
 62
    7
 10
2096.800000000001
 20
1189.0625
 11
2096.800000000001
 21
1184.2625
  0
LINE
  8
_1-1_
  6
DASHED1
 62
    7
 10
2110.300000000001
 20
1189.0625
 11
2091.1000000000008
 21
1189.0625
  0
LINE
  8
_1-1_
  6
DASHED1
 62
    7
 10
2093.1000000000008
 20
1189.0625
 11
2093.1000000000008
 21
1184.0625
  0
LINE
  8
_1-1_
  6
DASHED1
 62
    7
 10
2093.1000000000008
 20
1184.0625
 11
2092.5000000000009
 21
1184.0625
  0
LINE
  8
_1-1_
  6
DASHED1
 62
    7
 10
2110.300000000001
 20
1189.0625
 11
2112.5000000000009
 21
1190.0625
  0
LINE
  8
_1-1_
  6
DASHED1
 62
    7
 10
2121.800000000001
 20
1190.0625
 11
2121.800000000001
 21
1188.0625
  0
LINE
  8
_1-1_
  6
DASHED1
 62
    7
 10
2123.5000000000009
 20
1190.0625
 11
2112.5000000000009
 21
1190.0625
  0
LINE
  8
_1-1_
  6
DASHED1
 62
    7
 10
2123.5000000000009
 20
1191.2625
 11
2091.1000000000008
 21
1191.7625
  0
LINE
  8
_1-1_
  6
DASHED1
 62
    7
 10
2123.5000000000009
 20
1191.2625
 11
2123.5000000000009
 21
1190.0625
  0
LINE
  8
_1-1_
  6
DASHED1
 62
    7
 10
2122.5000000000009
 20
1188.0625
 11
2121.800000000001
 21
1188.0625
  0
LINE
  8
_1-1_
  6
DASHED1
 62
    7
 10
2091.1000000000008
 20
1184.0625
 11
2092.5000000000009
 21
1184.0625
  0
LINE
  8
_1-1_
  6
DASHED1
 62
    7
 10
2091.1000000000008
 20
1191.7625
 11
2091.1000000000008
 21
1188.7046
  0
LINE
  8
_1-1_
  6
DASHED1
 62
    7
 10
2092.5000000000009
 20
1189.0625
 11
2092.5000000000009
 21
1187.3046000000001
  0
LINE
  8
_1-1_
  6
DASHED1
 62
    7
 10
2092.5000000000009
 20
1187.3046000000001
 11
2092.5000000000009
 21
1184.2625
  0
LINE
  8
_1-1_
  6
DASHED1
 62
    7
 10
2091.1000000000008
 20
1188.7046
 11
2091.1000000000008
 21
1184.0625
  0
LINE
  8
_1-1_
  6
DASHED1
 62
    7
 10
2095.800000000001
 20
1183.2625
 11
2093.5000000000009
 21
1183.2625
  0
LINE
  8
_1-1_
  6
DASHED1
 62
    7
 10
2122.5000000000009
 20
1190.9625
 11
2092.1000000000008
 21
1190.9625
  0
LINE
  8
_1-1_
  6
DASHED1
 62
    7
 10
2092.1000000000008
 20
1190.9625
 11
2092.1000000000008
 21
1191.7440000000001
  0
LINE
  8
_1-1_
  6
DASHED1
 62
    7
 10
2114.550000000001
 20
1190.0625
 11
2123.5000000000009
 21
1190.0625
  0
LINE
  8
_1-1_
  6
DASHED1
 62
    7
 10
2122.5000000000009
 20
1190.9625
 11
2122.5000000000009
 21
1191.2779500000001
  0
LINE
  8
_1-1_
  6
DASHED1
 62
    7
 10
2091.1602500000008
 20
1191.7614
 11
2091.1000000000008
 21
1191.7265999999999
  0
LINE
  8
_1-1_
  6
DASHED1
 62
    7
 10
2098.7765500000009
 20
1190.9625
 11
2095.4856500000009
 21
1189.0625
  0
LINE
  8
_1-1_
  6
DASHED1
 62
    7
 10
2097.2765500000009
 20
1190.9625
 11
2093.9856500000009
 21
1189.0625
  0
LINE
  8
_1-1_
  6
DASHED1
 62
    7
 10
2095.7765500000009
 20
1190.9625
 11
2092.4856500000009
 21
1189.0625
  0
LINE
  8
_1-1_
  6
DASHED1
 62
    7
 10
2094.2765500000009
 20
1190.9625
 11
2091.1000000000008
 21
1189.1285
  0
LINE
  8
_1-1_
  6
DASHED1
 62
    7
 10
2092.7765500000009
 20
1190.9625
 11
2091.1000000000008
 21
1189.9945499999998
  0
LINE
  8
_1-1_
  6
DASHED1
 62
    7
 10
2092.1000000000008
 20
1191.4378999999998
 11
2091.1000000000008
 21
1190.8605500000001
  0
LINE
  8
_1-1_
  6
DASHED1
 62
    7
 10
2112.2765500000009
 20
1190.9625
 11
2108.9856500000009
 21
1189.0625
  0
LINE
  8
_1-1_
  6
DASHED1
 62
    7
 10
2110.7765500000009
 20
1190.9625
 11
2107.4856500000009
 21
1189.0625
  0
LINE
  8
_1-1_
  6
DASHED1
 62
    7
 10
2109.2765500000009
 20
1190.9625
 11
2105.9856500000009
 21
1189.0625
  0
LINE
  8
_1-1_
  6
DASHED1
 62
    7
 10
2107.7765500000009
 20
1190.9625
 11
2104.4856500000009
 21
1189.0625
  0
LINE
  8
_1-1_
  6
DASHED1
 62
    7
 10
2106.2765500000009
 20
1190.9625
 11
2102.9856500000009
 21
1189.0625
  0
LINE
  8
_1-1_
  6
DASHED1
 62
    7
 10
2104.7765500000009
 20
1190.9625
 11
2101.4856500000009
 21
1189.0625
  0
LINE
  8
_1-1_
  6
DASHED1
 62
    7
 10
2103.2765500000009
 20
1190.9625
 11
2099.9856500000009
 21
1189.0625
  0
LINE
  8
_1-1_
  6
DASHED1
 62
    7
 10
2101.7765500000009
 20
1190.9625
 11
2098.4856500000009
 21
1189.0625
  0
LINE
  8
_1-1_
  6
DASHED1
 62
    7
 10
2100.2765500000009
 20
1190.9625
 11
2096.9856500000009
 21
1189.0625
  0
LINE
  8
_1-1_
  6
DASHED1
 62
    7
 10
2113.7765500000009
 20
1190.9625
 11
2111.1728500000008
 21
1189.4592500000001
  0
LINE
  8
_1-1_
  6
DASHED1
 62
    7
 10
2115.2765500000009
 20
1190.9625
 11
2113.717700000001
 21
1190.0625
  0
LINE
  8
_1-1_
  6
DASHED1
 62
    7
 10
2116.7765500000009
 20
1190.9625
 11
2115.217700000001
 21
1190.0625
  0
LINE
  8
_1-1_
  6
DASHED1
 62
    7
 10
2118.2765500000009
 20
1190.9625
 11
2116.717700000001
 21
1190.0625
  0
LINE
  8
_1-1_
  6
DASHED1
 62
    7
 10
2119.7765500000009
 20
1190.9625
 11
2118.217700000001
 21
1190.0625
  0
LINE
  8
_1-1_
  6
DASHED1
 62
    7
 10
2121.2765500000009
 20
1190.9625
 11
2119.717700000001
 21
1190.0625
  0
LINE
  8
_1-1_
  6
DASHED1
 62
    7
 10
2123.3014500000008
 20
1191.26555
 11
2121.217700000001
 21
1190.0625
  0
LINE
  8
_1-1_
  6
DASHED1
 62
    7
 10
2123.5000000000009
 20
1190.5141499999999
 11
2122.717700000001
 21
1190.0625
  0
LINE
  8
_1-1_
  6
DASHED1
 62
    7
 10
2064.5000000000009
 20
1192.2625
 11
2064.5000000000009
 21
1191.0625
  0
LINE
  8
_1-1_
  6
DASHED1
 62
    7
 10
2064.5000000000009
 20
1191.0625
 11
2064.5000000000009
 21
1188.0625
  0
LINE
  8
_1-1_
  6
DASHED1
 62
    7
 10
2093.0247500000009
 20
1162.5625
 11
2078.5000000000009
 21
1170.9483500000001
  0
LINE
  8
_1-1_
  6
DASHED1
 62
    7
 10
2091.5247500000009
 20
1162.5625
 11
2078.5000000000009
 21
1170.0823499999999
  0
LINE
  8
_1-1_
  6
DASHED1
 62
    7
 10
2090.0247500000009
 20
1162.5625
 11
2078.4756500000007
 21
1169.2303999999999
  0
LINE
  8
_1-1_
  6
DASHED1
 62
    7
 10
2088.5247500000009
 20
1162.5625
 11
2078.5000000000009
 21
1168.3503
  0
LINE
  8
_1-1_
  6
DASHED1
 62
    7
 10
2087.0247500000009
 20
1162.5625
 11
2078.5000000000009
 21
1167.4842499999999
  0
LINE
  8
_1-1_
  6
DASHED1
 62
    7
 10
2085.5247500000009
 20
1162.5625
 11
2078.5000000000009
 21
1166.6182499999999
  0
LINE
  8
_1-1_
  6
DASHED1
 62
    7
 10
2084.0247500000009
 20
1162.5625
 11
2078.5000000000009
 21
1165.7521999999999
  0
LINE
  8
_1-1_
  6
DASHED1
 62
    7
 10
2082.5247500000009
 20
1162.5625
 11
2078.5000000000009
 21
1164.8861999999999
  0
LINE
  8
_1-1_
  6
DASHED1
 62
    7
 10
2081.0247500000009
 20
1162.5625
 11
2078.5904000000009
 21
1163.9679499999999
  0
LINE
  8
_1-1_
  6
DASHED1
 62
    7
 10
2089.5000000000009
 20
1181.0625
 11
2089.5000000000009
 21
1177.5625
  0
LINE
  8
_1-1_
  6
DASHED1
 62
    7
 10
2078.5000000000009
 20
1164.5625
 11
2078.5000000000009
 21
1187.0625
  0
LINE
  8
_1-1_
  6
DASHED1
 62
    7
 10
2080.5000000000009
 20
1162.5625
 11
2118.5000000000009
 21
1162.5625
  0
LINE
  8
_1-1_
  6
DASHED1
 62
    7
 10
2088.5000000000009
 20
1176.5625
 11
2078.5000000000009
 21
1176.5625
  0
LINE
  8
_1-1_
  6
DASHED1
 62
    7
 10
2118.7088000000007
 20
1164.67615
 11
2109.5000000000009
 21
1164.1934999999998
  0
LINE
  8
_1-1_
  6
DASHED1
 62
    7
 10
2095.2906500000008
 20
1164.67615
 11
2106.0000000000009
 21
1164.1149
  0
LINE
  8
_1-1_
  6
DASHED1
 62
    7
 10
2106.3941500000009
 20
1181.0261
 11
2106.3941500000009
 21
1180.6078999999999
  0
LINE
  8
_1-1_
  6
DASHED1
 62
    7
 10
2120.3617000000008
 20
1176.4254499999999
 11
2108.0000000000009
 21
1183.5625
  0
LINE
  8
_1-1_
  6
DASHED1
 62
    7
 10
2121.3534000000008
 20
1178.7962999999999
 11
2110.5000000000009
 21
1185.0625
  0
LINE
  8
_1-1_
  6
DASHED1
 62
    7
 10
2092.5924000000009
 20
1179.43405
 11
2108.0000000000009
 21
1183.5625
  0
LINE
  8
_1-1_
  6
DASHED1
 62
    7
 10
2089.5000000000009
 20
1172.8624999999999
 11
2080.5000000000009
 21
1172.8624999999999
  0
LINE
  8
_1-1_
  6
DASHED1
 62
    7
 10
2089.5000000000009
 20
1172.8624999999999
 11
2089.5000000000009
 21
1168.5625
  0
LINE
  8
_1-1_
  6
DASHED1
 62
    7
 10
2089.5000000000009
 20
1172.8624999999999
 11
2089.5000000000009
 21
1177.5625
  0
LINE
  8
_1-1_
  6
DASHED1
 62
    7
 10
2057.250050000001
 20
1183.5625
 11
2054.750050000001
 21
1183.5625
  0
LINE
  8
_1-1_
  6
DASHED1
 62
    7
 10
2054.750050000001
 20
1191.0625
 11
2054.750050000001
 21
1183.5625
  0
LINE
  8
_1-1_
  6
DASHED1
 62
    7
 10
2057.250050000001
 20
1191.0625
 11
2057.250050000001
 21
1183.5625
  0
LINE
  8
_1-1_
  6
DASHED1
 62
    7
 10
2056.000050000001
 20
1181.9724999999998
 11
2056.000050000001
 21
1193.0625
  0
ARC
  8
_1-1_
  6
DASHED1
 62
    7
 10
2118.5000000000009
 20
1168.5625
 40
6.0000000000000008
 50
269.99999999999988
 51
359.99999999999988
  0
ARC
  8
_1-1_
  6
DASHED1
 62
    7
 10
2095.5000000000009
 20
1168.6706999999998
 40
4
 50
179.99999999999991
 51
202.63099999999988
  0
ARC
  8
_1-1_
  6
DASHED1
 62
    7
 10
2118.5000000000009
 20
1168.6601999999998
 40
4
 50
304.46999999999991
 51
0.0000000000000318
  0
ARC
  8
_1-1_
  6
DASHED1
 62
    7
 10
2085.5000000000009
 20
1183.0625
 40
4
 50
84.812999999999973
 51
89.999999999999971
  0
ARC
  8
_1-1_
  6
DASHED1
 62
    7
 10
2085.5000000000009
 20
1183.0625
 40
4
 50
359.99999999999994
 51
84.813000000000002
  0
CIRCLE
  8
_1-1_
  6
DASHED1
 62
    7
 10
2094.5000000000009
 20
1181.0625
 40
2.1
  0
CIRCLE
  8
_1-1_
  6
DASHED1
 62
    7
 10
2094.5000000000009
 20
1181.0625
 40
3.0000000000000004
  0
ARC
  8
_1-1_
  6
DASHED1
 62
    7
 10
2054.500050000001
 20
1190.0625
 40
1
 50
89.999999999999971
 51
180
  0
ARC
  8
_1-1_
  6
DASHED1
 62
    7
 10
2096.6676500000007
 20
1183.1364499999999
 40
6.0000000000000008
 50
223.73399999999995
 51
281.21399999999994
  0
CIRCLE
  8
_1-1_
  6
DASHED1
 62
    7
 10
2094.5000000000009
 20
1181.0625
 40
3.0000000000000004
  0
CIRCLE
  8
_1-1_
  6
DASHED1
 62
    7
 10
2094.5000000000009
 20
1181.0625
 40
2.1
  0
ARC
  8
_1-1_
  6
DASHED1
 62
    7
 10
2083.4284000000006
 20
1185.0625
 40
2
 50
44.999999999999964
 51
89.999999999999971
  0
ARC
  8
_1-1_
  6
DASHED1
 62
    7
 10
2086.6710500000008
 20
1186.0625
 40
5
 50
44.999999999999964
 51
89.999999999999971
  0
ARC
  8
_1-1_
  6
DASHED1
 62
    7
 10
2098.2274000000011
 20
1190.0625
 40
6.0000000000000008
 50
224.99999999999994
 51
269.99999999999994
  0
ARC
  8
_1-1_
  6
DASHED1
 62
    7
 10
2092.3336000000008
 20
1180.3999499999999
 40
1
 50
224.99999999999991
 51
284.99999999999994
  0
ARC
  8
_1-1_
  6
DASHED1
 62
    7
 10
2121.8659500000007
 20
1184.2532499999999
 40
10
 50
240.93599999999992
 51
257.62099999999992
  0
ARC
  8
_1-1_
  6
DASHED1
 62
    7
 10
2119.9365500000012
 20
1175.4625
 40
1
 50
257.62099999999986
 51
352.99999999999994
  0
ARC
  8
_1-1_
  6
DASHED1
 62
    7
 10
2106.1000000000008
 20
1135.5625
 40
42.00685
 50
86.96199999999996
 51
94.376999999999995
  0
ARC
  8
_1-1_
  6
DASHED1
 62
    7
 10
2107.2924500000008
 20
1158.0308999999999
 40
19.50685
 50
71.771999999999977
 51
86.961999999999974
  0
ARC
  8
_1-1_
  6
DASHED1
 62
    7
 10
2106.1000000000008
 20
1135.5625
 40
42.706699999999997
 50
86.96199999999996
 51
94.304999999999992
  0
ARC
  8
_1-1_
  6
DASHED1
 62
    7
 10
2107.2924500000008
 20
1158.0308999999999
 40
20.206700000000004
 50
72.423999999999978
 51
86.961999999999974
  0
ARC
  8
_1-1_
  6
DASHED1
 62
    7
 10
2106.1000000000008
 20
1135.5625
 40
42.5
 50
86.96199999999996
 51
101.21399999999999
  0
ARC
  8
_1-1_
  6
DASHED1
 62
    7
 10
2107.2924500000008
 20
1158.0308999999999
 40
20
 50
60.935999999999985
 51
87.972999999999984
  0
ARC
  8
_1-1_
  6
DASHED1
 62
    7
 10
2120.6117000000008
 20
1176.8585
 40
0.5
 50
239.99999999999994
 51
352.99999999999994
  0
ARC
  8
_1-1_
  6
DASHED1
 62
    7
 10
2094.5000000000009
 20
1181.0625
 40
2.2999999999999998
 50
179.99999999999985
 51
359.99999999999988
  0
ARC
  8
_1-1_
  6
DASHED1
 62
    7
 10
2085.5000000000009
 20
1185.0625
 40
2
 50
359.99999999999994
 51
89.999999999999943
  0
ARC
  8
_1-1_
  6
DASHED1
 62
    7
 10
2089.5000000000009
 20
1184.5625
 40
2
 50
179.99999999999985
 51
209.99999999999991
  0
ARC
  8
_1-1_
  6
DASHED1
 62
    7
 10
2093.5000000000009
 20
1184.2625
 40
1
 50
179.99999999999991
 51
269.99999999999994
  0
ARC
  8
_1-1_
  6
DASHED1
 62
    7
 10
2095.800000000001
 20
1184.2625
 40
1
 50
269.99999999999988
 51
359.99999999999988
  0
ARC
  8
_1-1_
  6
DASHED1
 62
    7
 10
2065.5000000000009
 20
1188.0625
 40
1
 50
179.99999999999991
 51
269.99999999999994
  0
ARC
  8
_1-1_
  6
DASHED1
 62
    7
 10
2107.5600000000008
 20
1172.8524999999999
 40
8.7300000000000004
 50
146.57599999999996
 51
22.665999999999996
  0
ARC
  8
_1-1_
  6
DASHED1
 62
    7
 10
2080.5000000000009
 20
1173.8624999999999
 40
1
 50
179.99999999999991
 51
269.99999999999994
  0
ARC
  8
_1-1_
  6
DASHED1
 62
    7
 10
2088.5000000000009
 20
1177.5625
 40
1
 50
269.99999999999988
 51
359.99999999999988
  0
ARC
  8
_1-1_
  6
DASHED1
 62
    7
 10
2080.5000000000009
 20
1164.5625
 40
2
 50
179.99999999999991
 51
269.99999999999994
  0
ARC
  8
_1-1_
  6
DASHED1
 62
    7
 10
2118.5000000000009
 20
1168.6601999999998
 40
4
 50
273
 51
304.46999999999991
  0
ARC
  8
_1-1_
  6
DASHED1
 62
    7
 10
2095.5000000000009
 20
1168.6706999999998
 40
4
 50
202.63099999999991
 51
266.99999999999994
  0
ARC
  8
_1-1_
  6
DASHED1
 62
    7
 10
2106.1000000000008
 20
1135.5625
 40
45.472499999999996
 50
86.96199999999996
 51
89.629000000000004
  0
ARC
  8
_1-1_
  6
DASHED1
 62
    7
 10
2106.1000000000008
 20
1135.5625
 40
45.046349999999996
 50
86.96199999999996
 51
89.625999999999976
  0
ARC
  8
_1-1_
  6
DASHED1
 62
    7
 10
2107.2924500000008
 20
1158.0308999999999
 40
22.54635
 50
74.297999999999973
 51
86.961999999999974
  0
ARC
  8
_1-1_
  6
DASHED1
 62
    7
 10
2107.2924500000008
 20
1158.0308999999999
 40
22.9725
 50
74.596999999999965
 51
86.96199999999996
  0
ARC
  8
_1-1_
  6
DASHED1
 62
    7
 10
2107.5600000000008
 20
1172.8524999999999
 40
8.7300000000000004
 50
22.665999999999975
 51
146.57599999999999
  0
ARC
  8
_1-1_
  6
DASHED1
 62
    7
 10
2095.5000000000009
 20
1168.5625
 40
6.0000000000000008
 50
179.99999999999991
 51
269.99999999999994
  0
LINE
  8
_1-1_
  6
DASHED1
 62
    7
 10
2107.0000000000009
 20
1193.1624999999999
 11
2107.0000000000009
 21
1158.7625
  0
ARC
  8
_1-1_
  6
DASHED1
 62
    7
 10
2043.2000000000005
 20
1177
 40
1.1999999999999999
 50
90.000000000000028
 51
180.00000000000005
  0
ARC
  8
_1-1_
  6
DASHED1
 62
    7
 10
2043.2000000000005
 20
1177
 40
1.1999999999999999
 50
90.000000000000028
 51
180.00000000000005
  0
LINE
  8
_1-1_
  6
DASHED1
 62
    7
 10
2042.0000000000004
 20
1174
 11
2043.2000000000005
 21
1174
  0
LINE
  8
_1-1_
  6
DASHED1
 62
    7
 10
2043.2000000000005
 20
1177
 11
2043.2000000000005
 21
1157
  0
LINE
  8
_1-1_
  6
DASHED1
 62
    7
 10
2042.0000000000004
 20
1157
 11
2043.2000000000005
 21
1157
  0
LINE
  8
_1-1_
  6
DASHED1
 62
    7
 10
2042.0000000000004
 20
1177
 11
2042.0000000000004
 21
1157
  0
LINE
  8
_1-1_
  6
DASHED1
 62
    7
 10
2043.2000000000005
 20
1176.5
 11
2043.2000000000005
 21
1161.3593
  0
LINE
  8
_1-1_
  6
DASHED1
 62
    7
 10
2043.7000000000007
 20
1177
 11
2058.8407000000001
 21
1177
  0
LINE
  8
_1-1_
  6
DASHED1
 62
    7
 10
2073.0000000000004
 20
1177
 11
2073.0000000000004
 21
1178.1999999999998
  0
LINE
  8
_1-1_
  6
DASHED1
 62
    7
 10
2043.2000000000005
 20
1178.1999999999998
 11
2079.0000000000004
 21
1178.1999999999998
  0
LINE
  8
_1-1_
  6
DASHED1
 62
    7
 10
2043.2000000000005
 20
1177
 11
2079.0000000000004
 21
1177
  0
LINE
  8
_1-1_
  6
DASHED1
 62
    7
 10
2079.0000000000004
 20
1178.1999999999998
 11
2079.0000000000004
 21
1177
  0
LINE
  8
_1-1_
  6
DASHED1
 62
    7
 10
1064.4999999999995
 20
1193.9
 11
1064.4999999999995
 21
1185.5
  0
LINE
  8
_1-1_
  6
DASHED1
 62
    7
 10
1063.4999999999995
 20
1162.2999999999999
 11
1040.4999999999997
 21
1162.2999999999999
  0
LINE
  8
_1-1_
  6
DASHED1
 62
    7
 10
1051.9999999999995
 20
1179.3000000000001
 11
1044.4999999999995
 21
1179.3000000000001
  0
LINE
  8
_1-1_
  6
DASHED1
 62
    7
 10
1041.9999999999995
 20
1186.8000000000001
 11
1041.9999999999995
 21
1181.2999999999997
  0
LINE
  8
_1-1_
  6
DASHED1
 62
    7
 10
1043.4999999999995
 20
1180.7999999999999
 11
1042.4999999999995
 21
1180.7999999999999
  0
LINE
  8
_1-1_
  6
DASHED1
 62
    7
 10
1071.5799999999994
 20
1190.25
 11
1071.5999999999994
 21
1190.25
  0
LINE
  8
_1-1_
  6
DASHED1
 62
    7
 10
1034.4999999999995
 20
1172.6000000000001
 11
1033.4999999999995
 21
1172.6000000000001
  0
LINE
  8
_1-1_
  6
DASHED1
 62
    7
 10
1035.4999999999997
 20
1186.8000000000001
 11
1042.9999999999997
 21
1186.8000000000001
  0
LINE
  8
_1-1_
  6
DASHED1
 62
    7
 10
1034.4999999999995
 20
1185.7999999999999
 11
1034.4999999999995
 21
1168.2999999999999
  0
LINE
  8
_1-1_
  6
DASHED1
 62
    7
 10
1032.4999999999995
 20
1192
 11
1032.4999999999995
 21
1173.5999999999999
  0
LINE
  8
_1-1_
  6
DASHED1
 62
    7
 10
1043.9999999999995
 20
1192
 11
1032.4999999999995
 21
1192
  0
LINE
  8
_1-1_
  6
DASHED1
 62
    7
 10
1034.4999999999995
 20
1192
 11
1034.4999999999995
 21
1187.7999999999999
  0
LINE
  8
_1-1_
  6
DASHED1
 62
    7
 10
1043.9999999999995
 20
1192
 11
1043.9999999999995
 21
1179.7999999999999
  0
LINE
  8
_1-1_
  6
DASHED1
 62
    7
 10
1069.4999999999995
 20
1192
 11
1069.4999999999995
 21
1168.2999999999999
  0
LINE
  8
_1-1_
  6
DASHED1
 62
    7
 10
1059.9999999999995
 20
1192
 11
1071.4999999999995
 21
1192
  0
LINE
  8
_1-1_
  6
DASHED1
 62
    7
 10
1071.4999999999995
 20
1192
 11
1071.4999999999995
 21
1173.5999999999999
  0
LINE
  8
_1-1_
  6
DASHED1
 62
    7
 10
1069.4999999999995
 20
1172.6000000000001
 11
1070.4999999999997
 21
1172.6000000000001
  0
LINE
  8
_1-1_
  6
DASHED1
 62
    7
 10
1043.9999999999995
 20
1191.0999999999999
 11
1059.9999999999995
 21
1191.0999999999999
  0
LINE
  8
_1-1_
  6
DASHED1
 62
    7
 10
1059.9999999999995
 20
1192
 11
1059.9999999999995
 21
1179.7999999999999
  0
LINE
  8
_1-1_
  6
DASHED1
 62
    7
 10
1051.9999999999995
 20
1179.3000000000001
 11
1059.4999999999995
 21
1179.3000000000001
  0
LINE
  8
_1-1_
  6
DASHED1
 62
    7
 10
1068.4999999999995
 20
1186.8000000000001
 11
1060.9999999999995
 21
1186.8000000000001
  0
LINE
  8
_1-1_
  6
DASHED1
 62
    7
 10
1058.4999999999995
 20
1190.7999999999999
 11
1045.4999999999997
 21
1190.7999999999999
  0
LINE
  8
_1-1_
  6
DASHED1
 62
    7
 10
1048.9999999999995
 20
1186.8000000000001
 11
1048.9999999999995
 21
1181.8000000000001
  0
LINE
  8
_1-1_
  6
DASHED1
 62
    7
 10
1053.9999999999995
 20
1180.7999999999999
 11
1049.9999999999995
 21
1180.7999999999999
  0
LINE
  8
_1-1_
  6
DASHED1
 62
    7
 10
1054.9999999999995
 20
1186.8000000000001
 11
1054.9999999999995
 21
1181.8000000000001
  0
LINE
  8
_1-1_
  6
DASHED1
 62
    7
 10
1058.4999999999995
 20
1186.8000000000001
 11
1054.9999999999995
 21
1186.8000000000001
  0
LINE
  8
_1-1_
  6
DASHED1
 62
    7
 10
1048.9999999999995
 20
1186.8000000000001
 11
1045.4999999999997
 21
1186.8000000000001
  0
LINE
  8
_1-1_
  6
DASHED1
 62
    7
 10
1046.4999999999995
 20
1180.4038499999999
 11
1046.3033999999995
 21
1180.8635999999999
  0
LINE
  8
_1-1_
  6
DASHED1
 62
    7
 10
1057.4999999999995
 20
1180.4038499999999
 11
1057.6965999999995
 21
1180.8635999999999
  0
LINE
  8
_1-1_
  6
DASHED1
 62
    7
 10
1059.4999999999995
 20
1179.3000000000001
 11
1059.4999999999995
 21
1189.7999999999999
  0
LINE
  8
_1-1_
  6
DASHED1
 62
    7
 10
1044.4999999999995
 20
1179.3000000000001
 11
1044.4999999999995
 21
1189.7999999999999
  0
LINE
  8
_1-1_
  6
DASHED1
 62
    7
 10
1060.4999999999997
 20
1180.7999999999999
 11
1061.4999999999995
 21
1180.7999999999999
  0
LINE
  8
_1-1_
  6
DASHED1
 62
    7
 10
1061.9999999999995
 20
1186.8000000000001
 11
1061.9999999999995
 21
1181.2999999999997
  0
LINE
  8
_1-1_
  6
DASHED1
 62
    7
 10
1043.9999999999995
 20
1184.7999999999999
 11
1044.4999999999995
 21
1184.7999999999999
  0
LINE
  8
_1-1_
  6
DASHED1
 62
    7
 10
1043.9999999999995
 20
1183.8000000000001
 11
1044.4999999999995
 21
1183.8000000000001
  0
LINE
  8
_1-1_
  6
DASHED1
 62
    7
 10
1059.4999999999995
 20
1183.8000000000001
 11
1059.9999999999995
 21
1183.8000000000001
  0
LINE
  8
_1-1_
  6
DASHED1
 62
    7
 10
1059.4999999999995
 20
1184.7999999999999
 11
1059.9999999999995
 21
1184.7999999999999
  0
LINE
  8
_1-1_
  6
DASHED1
 62
    7
 10
1043.9999999999995
 20
1191.5
 11
1059.9999999999995
 21
1191.5
  0
LINE
  8
_1-1_
  6
DASHED1
 62
    7
 10
1051.9999999999995
 20
1162.2999999999999
 11
1051.2999999999994
 21
1162.2999999999999
  0
LINE
  8
_1-1_
  6
DASHED1
 62
    7
 10
1051.9999999999995
 20
1162.2999999999999
 11
1052.6999999999995
 21
1162.2999999999999
  0
LINE
  8
_1-1_
  6
DASHED1
 62
    7
 10
1051.4999999999995
 20
1176.2999999999997
 11
1051.9999999999995
 21
1176.2999999999997
  0
LINE
  8
_1-1_
  6
DASHED1
 62
    7
 10
1050.9999999999995
 20
1162.6000000000001
 11
1050.9999999999995
 21
1175.7999999999999
  0
LINE
  8
_1-1_
  6
DASHED1
 62
    7
 10
1052.9999999999997
 20
1162.6000000000001
 11
1052.9999999999997
 21
1175.7999999999999
  0
LINE
  8
_1-1_
  6
DASHED1
 62
    7
 10
1051.9999999999995
 20
1176.2999999999997
 11
1052.4999999999995
 21
1176.2999999999997
  0
LINE
  8
_1-1_
  6
DASHED1
 62
    7
 10
1051.9999999999995
 20
1192.6000000000001
 11
1051.9999999999995
 21
1159.6000000000001
  0
ARC
  8
_1-1_
  6
DASHED1
 62
    7
 10
1040.4999999999997
 20
1168.2999999999999
 40
6.0000000000000008
 50
180.00000000000005
 51
270.00000000000005
  0
ARC
  8
_1-1_
  6
DASHED1
 62
    7
 10
1063.4999999999995
 20
1168.2999999999999
 40
6.0000000000000008
 50
270.00000000000005
 51
0.0000000000000508
  0
ARC
  8
_1-1_
  6
DASHED1
 62
    7
 10
1042.9999999999997
 20
1187.7999999999999
 40
1
 50
270.00000000000005
 51
0.0000000000000508
  0
ARC
  8
_1-1_
  6
DASHED1
 62
    7
 10
1035.4999999999997
 20
1187.7999999999999
 40
1
 50
180.00000000000005
 51
270.00000000000005
  0
ARC
  8
_1-1_
  6
DASHED1
 62
    7
 10
1044.4999999999995
 20
1179.7999999999999
 40
0.5
 50
180.00000000000005
 51
270.00000000000005
  0
ARC
  8
_1-1_
  6
DASHED1
 62
    7
 10
1043.4999999999995
 20
1181.2999999999997
 40
0.5
 50
270.00000000000005
 51
0.0000000000000508
  0
ARC
  8
_1-1_
  6
DASHED1
 62
    7
 10
1042.4999999999995
 20
1181.2999999999997
 40
0.5
 50
180.00000000000005
 51
270.00000000000005
  0
ARC
  8
_1-1_
  6
DASHED1
 62
    7
 10
1033.4999999999995
 20
1173.5999999999999
 40
1
 50
180.00000000000005
 51
270.00000000000005
  0
ARC
  8
_1-1_
  6
DASHED1
 62
    7
 10
1035.4999999999997
 20
1185.7999999999999
 40
1
 50
90.000000000000028
 51
180.00000000000005
  0
ARC
  8
_1-1_
  6
DASHED1
 62
    7
 10
1070.4999999999997
 20
1173.5999999999999
 40
1
 50
270.00000000000005
 51
0.0000000000000508
  0
ARC
  8
_1-1_
  6
DASHED1
 62
    7
 10
1059.4999999999995
 20
1179.7999999999999
 40
0.5
 50
270.00000000000005
 51
0.0000000000000508
  0
ARC
  8
_1-1_
  6
DASHED1
 62
    7
 10
1060.9999999999995
 20
1187.7999999999999
 40
1
 50
180.00000000000005
 51
270.00000000000005
  0
ARC
  8
_1-1_
  6
DASHED1
 62
    7
 10
1068.4999999999995
 20
1187.7999999999999
 40
1
 50
270.00000000000005
 51
0.0000000000000508
  0
ARC
  8
_1-1_
  6
DASHED1
 62
    7
 10
1045.4999999999997
 20
1189.7999999999999
 40
1
 50
90.000000000000028
 51
180.00000000000005
  0
ARC
  8
_1-1_
  6
DASHED1
 62
    7
 10
1058.4999999999995
 20
1189.7999999999999
 40
1
 50
0
 51
90.000000000000028
  0
ARC
  8
_1-1_
  6
DASHED1
 62
    7
 10
1045.4999999999997
 20
1187.7999999999999
 40
1
 50
180.00000000000005
 51
270.00000000000005
  0
ARC
  8
_1-1_
  6
DASHED1
 62
    7
 10
1058.4999999999995
 20
1187.7999999999999
 40
1
 50
270.00000000000005
 51
0.0000000000000508
  0
ARC
  8
_1-1_
  6
DASHED1
 62
    7
 10
1049.9999999999995
 20
1181.8000000000001
 40
1
 50
180.00000000000005
 51
270.00000000000005
  0
ARC
  8
_1-1_
  6
DASHED1
 62
    7
 10
1053.9999999999995
 20
1181.8000000000001
 40
1
 50
270.00000000000005
 51
0.0000000000000508
  0
ARC
  8
_1-1_
  6
DASHED1
 62
    7
 10
1060.4999999999997
 20
1181.2999999999997
 40
0.5
 50
180.00000000000005
 51
270.00000000000005
  0
ARC
  8
_1-1_
  6
DASHED1
 62
    7
 10
1061.4999999999995
 20
1181.2999999999997
 40
0.5
 50
270.00000000000005
 51
0.0000000000000508
  0
ARC
  8
_1-1_
  6
DASHED1
 62
    7
 10
1051.2999999999994
 20
1162.6000000000001
 40
0.2999999999999998
 50
180.00000000000005
 51
270.00000000000005
  0
ARC
  8
_1-1_
  6
DASHED1
 62
    7
 10
1052.6999999999995
 20
1162.6000000000001
 40
0.2999999999999998
 50
270.00000000000005
 51
0.0000000000000508
  0
ARC
  8
_1-1_
  6
DASHED1
 62
    7
 10
1051.4999999999995
 20
1175.7999999999999
 40
0.5
 50
90.000000000000028
 51
180.00000000000005
  0
ARC
  8
_1-1_
  6
DASHED1
 62
    7
 10
1052.4999999999995
 20
1175.7999999999999
 40
0.5
 50
0
 51
90.000000000000028
  0
LINE
  8
_1-1_
  6
DASHED1
 62
    7
 10
1039.4999999999995
 20
1193.9
 11
1039.4999999999995
 21
1185.5
  0
LINE
  8
_1-1_
  6
DASHED1
 62
    7
 10
660.50000000000068
 20
1193.9
 11
660.50000000000068
 21
1185.5
  0
LINE
  8
_1-1_
  6
DASHED1
 62
    7
 10
659.50000000000045
 20
1162.2999999999999
 11
636.50000000000068
 21
1162.2999999999999
  0
LINE
  8
_1-1_
  6
DASHED1
 62
    7
 10
648.00000000000068
 20
1179.3000000000001
 11
640.50000000000068
 21
1179.3000000000001
  0
LINE
  8
_1-1_
  6
DASHED1
 62
    7
 10
638.00000000000068
 20
1186.8000000000001
 11
638.00000000000068
 21
1181.2999999999997
  0
LINE
  8
_1-1_
  6
DASHED1
 62
    7
 10
639.50000000000045
 20
1180.7999999999999
 11
638.50000000000045
 21
1180.7999999999999
  0
LINE
  8
_1-1_
  6
DASHED1
 62
    7
 10
667.58000000000038
 20
1190.25
 11
667.60000000000047
 21
1190.25
  0
LINE
  8
_1-1_
  6
DASHED1
 62
    7
 10
630.50000000000068
 20
1172.6000000000001
 11
629.50000000000045
 21
1172.6000000000001
  0
LINE
  8
_1-1_
  6
DASHED1
 62
    7
 10
631.50000000000068
 20
1186.8000000000001
 11
639.00000000000068
 21
1186.8000000000001
  0
LINE
  8
_1-1_
  6
DASHED1
 62
    7
 10
630.50000000000068
 20
1185.7999999999999
 11
630.50000000000068
 21
1168.2999999999999
  0
LINE
  8
_1-1_
  6
DASHED1
 62
    7
 10
628.50000000000045
 20
1192
 11
628.50000000000045
 21
1173.5999999999999
  0
LINE
  8
_1-1_
  6
DASHED1
 62
    7
 10
640.00000000000056
 20
1192
 11
628.50000000000045
 21
1192
  0
LINE
  8
_1-1_
  6
DASHED1
 62
    7
 10
630.50000000000068
 20
1192
 11
630.50000000000068
 21
1187.7999999999999
  0
LINE
  8
_1-1_
  6
DASHED1
 62
    7
 10
640.00000000000056
 20
1192
 11
640.00000000000056
 21
1179.7999999999999
  0
LINE
  8
_1-1_
  6
DASHED1
 62
    7
 10
665.50000000000068
 20
1192
 11
665.50000000000068
 21
1168.2999999999999
  0
LINE
  8
_1-1_
  6
DASHED1
 62
    7
 10
656.00000000000045
 20
1192
 11
667.50000000000056
 21
1192
  0
LINE
  8
_1-1_
  6
DASHED1
 62
    7
 10
667.50000000000056
 20
1192
 11
667.50000000000056
 21
1173.5999999999999
  0
LINE
  8
_1-1_
  6
DASHED1
 62
    7
 10
665.50000000000068
 20
1172.6000000000001
 11
666.50000000000068
 21
1172.6000000000001
  0
LINE
  8
_1-1_
  6
DASHED1
 62
    7
 10
640.00000000000056
 20
1191.0999999999999
 11
656.00000000000045
 21
1191.0999999999999
  0
LINE
  8
_1-1_
  6
DASHED1
 62
    7
 10
656.00000000000045
 20
1192
 11
656.00000000000045
 21
1179.7999999999999
  0
LINE
  8
_1-1_
  6
DASHED1
 62
    7
 10
648.00000000000068
 20
1179.3000000000001
 11
655.50000000000068
 21
1179.3000000000001
  0
LINE
  8
_1-1_
  6
DASHED1
 62
    7
 10
664.50000000000045
 20
1186.8000000000001
 11
657.00000000000045
 21
1186.8000000000001
  0
LINE
  8
_1-1_
  6
DASHED1
 62
    7
 10
654.50000000000045
 20
1190.7999999999999
 11
641.50000000000068
 21
1190.7999999999999
  0
LINE
  8
_1-1_
  6
DASHED1
 62
    7
 10
645.00000000000056
 20
1186.8000000000001
 11
645.00000000000056
 21
1181.8000000000001
  0
LINE
  8
_1-1_
  6
DASHED1
 62
    7
 10
650.00000000000056
 20
1180.7999999999999
 11
646.00000000000045
 21
1180.7999999999999
  0
LINE
  8
_1-1_
  6
DASHED1
 62
    7
 10
651.00000000000045
 20
1186.8000000000001
 11
651.00000000000045
 21
1181.8000000000001
  0
LINE
  8
_1-1_
  6
DASHED1
 62
    7
 10
654.50000000000045
 20
1186.8000000000001
 11
651.00000000000045
 21
1186.8000000000001
  0
LINE
  8
_1-1_
  6
DASHED1
 62
    7
 10
645.00000000000056
 20
1186.8000000000001
 11
641.50000000000068
 21
1186.8000000000001
  0
LINE
  8
_1-1_
  6
DASHED1
 62
    7
 10
642.50000000000056
 20
1180.4038499999999
 11
642.30340000000069
 21
1180.8635999999999
  0
LINE
  8
_1-1_
  6
DASHED1
 62
    7
 10
653.50000000000045
 20
1180.4038499999999
 11
653.69660000000067
 21
1180.8635999999999
  0
LINE
  8
_1-1_
  6
DASHED1
 62
    7
 10
655.50000000000068
 20
1179.3000000000001
 11
655.50000000000068
 21
1189.7999999999999
  0
LINE
  8
_1-1_
  6
DASHED1
 62
    7
 10
640.50000000000068
 20
1179.3000000000001
 11
640.50000000000068
 21
1189.7999999999999
  0
LINE
  8
_1-1_
  6
DASHED1
 62
    7
 10
656.50000000000068
 20
1180.7999999999999
 11
657.50000000000056
 21
1180.7999999999999
  0
LINE
  8
_1-1_
  6
DASHED1
 62
    7
 10
658.00000000000068
 20
1186.8000000000001
 11
658.00000000000068
 21
1181.2999999999997
  0
LINE
  8
_1-1_
  6
DASHED1
 62
    7
 10
640.00000000000056
 20
1184.7999999999999
 11
640.50000000000068
 21
1184.7999999999999
  0
LINE
  8
_1-1_
  6
DASHED1
 62
    7
 10
640.00000000000056
 20
1183.8000000000001
 11
640.50000000000068
 21
1183.8000000000001
  0
LINE
  8
_1-1_
  6
DASHED1
 62
    7
 10
655.50000000000068
 20
1183.8000000000001
 11
656.00000000000045
 21
1183.8000000000001
  0
LINE
  8
_1-1_
  6
DASHED1
 62
    7
 10
655.50000000000068
 20
1184.7999999999999
 11
656.00000000000045
 21
1184.7999999999999
  0
LINE
  8
_1-1_
  6
DASHED1
 62
    7
 10
640.00000000000056
 20
1191.5
 11
656.00000000000045
 21
1191.5
  0
LINE
  8
_1-1_
  6
DASHED1
 62
    7
 10
648.00000000000068
 20
1162.2999999999999
 11
647.3000000000004
 21
1162.2999999999999
  0
LINE
  8
_1-1_
  6
DASHED1
 62
    7
 10
648.00000000000068
 20
1162.2999999999999
 11
648.70000000000061
 21
1162.2999999999999
  0
LINE
  8
_1-1_
  6
DASHED1
 62
    7
 10
647.50000000000056
 20
1176.2999999999997
 11
648.00000000000068
 21
1176.2999999999997
  0
LINE
  8
_1-1_
  6
DASHED1
 62
    7
 10
647.00000000000045
 20
1162.6000000000001
 11
647.00000000000045
 21
1175.7999999999999
  0
LINE
  8
_1-1_
  6
DASHED1
 62
    7
 10
649.00000000000068
 20
1162.6000000000001
 11
649.00000000000068
 21
1175.7999999999999
  0
LINE
  8
_1-1_
  6
DASHED1
 62
    7
 10
648.00000000000068
 20
1176.2999999999997
 11
648.50000000000045
 21
1176.2999999999997
  0
LINE
  8
_1-1_
  6
DASHED1
 62
    7
 10
648.00000000000068
 20
1192.6000000000001
 11
648.00000000000068
 21
1159.6000000000001
  0
ARC
  8
_1-1_
  6
DASHED1
 62
    7
 10
636.50000000000068
 20
1168.2999999999999
 40
6.0000000000000008
 50
180.00000000000005
 51
270.00000000000005
  0
ARC
  8
_1-1_
  6
DASHED1
 62
    7
 10
659.50000000000045
 20
1168.2999999999999
 40
6.0000000000000008
 50
270.00000000000005
 51
0.0000000000000508
  0
ARC
  8
_1-1_
  6
DASHED1
 62
    7
 10
639.00000000000068
 20
1187.7999999999999
 40
1
 50
270.00000000000005
 51
0.0000000000000508
  0
ARC
  8
_1-1_
  6
DASHED1
 62
    7
 10
631.50000000000068
 20
1187.7999999999999
 40
1
 50
180.00000000000005
 51
270.00000000000005
  0
ARC
  8
_1-1_
  6
DASHED1
 62
    7
 10
640.50000000000068
 20
1179.7999999999999
 40
0.5
 50
180.00000000000005
 51
270.00000000000005
  0
ARC
  8
_1-1_
  6
DASHED1
 62
    7
 10
639.50000000000045
 20
1181.2999999999997
 40
0.5
 50
270.00000000000005
 51
0.0000000000000508
  0
ARC
  8
_1-1_
  6
DASHED1
 62
    7
 10
638.50000000000045
 20
1181.2999999999997
 40
0.5
 50
180.00000000000005
 51
270.00000000000005
  0
ARC
  8
_1-1_
  6
DASHED1
 62
    7
 10
629.50000000000045
 20
1173.5999999999999
 40
1
 50
180.00000000000005
 51
270.00000000000005
  0
ARC
  8
_1-1_
  6
DASHED1
 62
    7
 10
631.50000000000068
 20
1185.7999999999999
 40
1
 50
90.000000000000028
 51
180.00000000000005
  0
ARC
  8
_1-1_
  6
DASHED1
 62
    7
 10
666.50000000000068
 20
1173.5999999999999
 40
1
 50
270.00000000000005
 51
0.0000000000000508
  0
ARC
  8
_1-1_
  6
DASHED1
 62
    7
 10
655.50000000000068
 20
1179.7999999999999
 40
0.5
 50
270.00000000000005
 51
0.0000000000000508
  0
ARC
  8
_1-1_
  6
DASHED1
 62
    7
 10
657.00000000000045
 20
1187.7999999999999
 40
1
 50
180.00000000000005
 51
270.00000000000005
  0
ARC
  8
_1-1_
  6
DASHED1
 62
    7
 10
664.50000000000045
 20
1187.7999999999999
 40
1
 50
270.00000000000005
 51
0.0000000000000508
  0
ARC
  8
_1-1_
  6
DASHED1
 62
    7
 10
641.50000000000068
 20
1189.7999999999999
 40
1
 50
90.000000000000028
 51
180.00000000000005
  0
ARC
  8
_1-1_
  6
DASHED1
 62
    7
 10
654.50000000000045
 20
1189.7999999999999
 40
1
 50
0
 51
90.000000000000028
  0
ARC
  8
_1-1_
  6
DASHED1
 62
    7
 10
641.50000000000068
 20
1187.7999999999999
 40
1
 50
180.00000000000005
 51
270.00000000000005
  0
ARC
  8
_1-1_
  6
DASHED1
 62
    7
 10
654.50000000000045
 20
1187.7999999999999
 40
1
 50
270.00000000000005
 51
0.0000000000000508
  0
ARC
  8
_1-1_
  6
DASHED1
 62
    7
 10
646.00000000000045
 20
1181.8000000000001
 40
1
 50
180.00000000000005
 51
270.00000000000005
  0
ARC
  8
_1-1_
  6
DASHED1
 62
    7
 10
650.00000000000056
 20
1181.8000000000001
 40
1
 50
270.00000000000005
 51
0.0000000000000508
  0
ARC
  8
_1-1_
  6
DASHED1
 62
    7
 10
656.50000000000068
 20
1181.2999999999997
 40
0.5
 50
180.00000000000005
 51
270.00000000000005
  0
ARC
  8
_1-1_
  6
DASHED1
 62
    7
 10
657.50000000000056
 20
1181.2999999999997
 40
0.5
 50
270.00000000000005
 51
0.0000000000000508
  0
ARC
  8
_1-1_
  6
DASHED1
 62
    7
 10
647.3000000000004
 20
1162.6000000000001
 40
0.2999999999999998
 50
180.00000000000005
 51
270.00000000000005
  0
ARC
  8
_1-1_
  6
DASHED1
 62
    7
 10
648.70000000000061
 20
1162.6000000000001
 40
0.2999999999999998
 50
270.00000000000005
 51
0.0000000000000508
  0
ARC
  8
_1-1_
  6
DASHED1
 62
    7
 10
647.50000000000056
 20
1175.7999999999999
 40
0.5
 50
90.000000000000028
 51
180.00000000000005
  0
ARC
  8
_1-1_
  6
DASHED1
 62
    7
 10
648.50000000000045
 20
1175.7999999999999
 40
0.5
 50
0
 51
90.000000000000028
  0
LINE
  8
_1-1_
  6
DASHED1
 62
    7
 10
635.50000000000068
 20
1193.9
 11
635.50000000000068
 21
1185.5
  0
LINE
  8
_1-1_
  6
DASHED1
 62
    7
 10
761.50000000000034
 20
1193.9
 11
761.50000000000034
 21
1185.5
  0
LINE
  8
_1-1_
  6
DASHED1
 62
    7
 10
760.50000000000045
 20
1162.2999999999999
 11
737.50000000000056
 21
1162.2999999999999
  0
LINE
  8
_1-1_
  6
DASHED1
 62
    7
 10
749.00000000000034
 20
1179.3000000000001
 11
741.50000000000034
 21
1179.3000000000001
  0
LINE
  8
_1-1_
  6
DASHED1
 62
    7
 10
739.00000000000034
 20
1186.8000000000001
 11
739.00000000000034
 21
1181.2999999999997
  0
LINE
  8
_1-1_
  6
DASHED1
 62
    7
 10
740.50000000000045
 20
1180.7999999999999
 11
739.50000000000045
 21
1180.7999999999999
  0
LINE
  8
_1-1_
  6
DASHED1
 62
    7
 10
768.58000000000038
 20
1190.25
 11
768.60000000000013
 21
1190.25
  0
LINE
  8
_1-1_
  6
DASHED1
 62
    7
 10
731.50000000000034
 20
1172.6000000000001
 11
730.50000000000045
 21
1172.6000000000001
  0
LINE
  8
_1-1_
  6
DASHED1
 62
    7
 10
732.50000000000056
 20
1186.8000000000001
 11
740.00000000000056
 21
1186.8000000000001
  0
LINE
  8
_1-1_
  6
DASHED1
 62
    7
 10
731.50000000000034
 20
1185.7999999999999
 11
731.50000000000034
 21
1168.2999999999999
  0
LINE
  8
_1-1_
  6
DASHED1
 62
    7
 10
729.50000000000045
 20
1192
 11
729.50000000000045
 21
1173.5999999999999
  0
LINE
  8
_1-1_
  6
DASHED1
 62
    7
 10
741.00000000000022
 20
1192
 11
729.50000000000045
 21
1192
  0
LINE
  8
_1-1_
  6
DASHED1
 62
    7
 10
731.50000000000034
 20
1192
 11
731.50000000000034
 21
1187.7999999999999
  0
LINE
  8
_1-1_
  6
DASHED1
 62
    7
 10
741.00000000000022
 20
1192
 11
741.00000000000022
 21
1179.7999999999999
  0
LINE
  8
_1-1_
  6
DASHED1
 62
    7
 10
766.50000000000034
 20
1192
 11
766.50000000000034
 21
1168.2999999999999
  0
LINE
  8
_1-1_
  6
DASHED1
 62
    7
 10
757.00000000000045
 20
1192
 11
768.50000000000022
 21
1192
  0
LINE
  8
_1-1_
  6
DASHED1
 62
    7
 10
768.50000000000022
 20
1192
 11
768.50000000000022
 21
1173.5999999999999
  0
LINE
  8
_1-1_
  6
DASHED1
 62
    7
 10
766.50000000000034
 20
1172.6000000000001
 11
767.50000000000056
 21
1172.6000000000001
  0
LINE
  8
_1-1_
  6
DASHED1
 62
    7
 10
741.00000000000022
 20
1191.0999999999999
 11
757.00000000000045
 21
1191.0999999999999
  0
LINE
  8
_1-1_
  6
DASHED1
 62
    7
 10
757.00000000000045
 20
1192
 11
757.00000000000045
 21
1179.7999999999999
  0
LINE
  8
_1-1_
  6
DASHED1
 62
    7
 10
749.00000000000034
 20
1179.3000000000001
 11
756.50000000000034
 21
1179.3000000000001
  0
LINE
  8
_1-1_
  6
DASHED1
 62
    7
 10
765.50000000000045
 20
1186.8000000000001
 11
758.00000000000045
 21
1186.8000000000001
  0
LINE
  8
_1-1_
  6
DASHED1
 62
    7
 10
755.50000000000045
 20
1190.7999999999999
 11
742.50000000000056
 21
1190.7999999999999
  0
LINE
  8
_1-1_
  6
DASHED1
 62
    7
 10
746.00000000000022
 20
1186.8000000000001
 11
746.00000000000022
 21
1181.8000000000001
  0
LINE
  8
_1-1_
  6
DASHED1
 62
    7
 10
751.00000000000022
 20
1180.7999999999999
 11
747.00000000000045
 21
1180.7999999999999
  0
LINE
  8
_1-1_
  6
DASHED1
 62
    7
 10
752.00000000000045
 20
1186.8000000000001
 11
752.00000000000045
 21
1181.8000000000001
  0
LINE
  8
_1-1_
  6
DASHED1
 62
    7
 10
755.50000000000045
 20
1186.8000000000001
 11
752.00000000000045
 21
1186.8000000000001
  0
LINE
  8
_1-1_
  6
DASHED1
 62
    7
 10
746.00000000000022
 20
1186.8000000000001
 11
742.50000000000056
 21
1186.8000000000001
  0
LINE
  8
_1-1_
  6
DASHED1
 62
    7
 10
743.50000000000022
 20
1180.4038499999999
 11
743.30340000000035
 21
1180.8635999999999
  0
LINE
  8
_1-1_
  6
DASHED1
 62
    7
 10
754.50000000000045
 20
1180.4038499999999
 11
754.69660000000033
 21
1180.8635999999999
  0
LINE
  8
_1-1_
  6
DASHED1
 62
    7
 10
756.50000000000034
 20
1179.3000000000001
 11
756.50000000000034
 21
1189.7999999999999
  0
LINE
  8
_1-1_
  6
DASHED1
 62
    7
 10
741.50000000000034
 20
1179.3000000000001
 11
741.50000000000034
 21
1189.7999999999999
  0
LINE
  8
_1-1_
  6
DASHED1
 62
    7
 10
757.50000000000056
 20
1180.7999999999999
 11
758.50000000000022
 21
1180.7999999999999
  0
LINE
  8
_1-1_
  6
DASHED1
 62
    7
 10
759.00000000000034
 20
1186.8000000000001
 11
759.00000000000034
 21
1181.2999999999997
  0
LINE
  8
_1-1_
  6
DASHED1
 62
    7
 10
741.00000000000022
 20
1184.7999999999999
 11
741.50000000000034
 21
1184.7999999999999
  0
LINE
  8
_1-1_
  6
DASHED1
 62
    7
 10
741.00000000000022
 20
1183.8000000000001
 11
741.50000000000034
 21
1183.8000000000001
  0
LINE
  8
_1-1_
  6
DASHED1
 62
    7
 10
756.50000000000034
 20
1183.8000000000001
 11
757.00000000000045
 21
1183.8000000000001
  0
LINE
  8
_1-1_
  6
DASHED1
 62
    7
 10
756.50000000000034
 20
1184.7999999999999
 11
757.00000000000045
 21
1184.7999999999999
  0
LINE
  8
_1-1_
  6
DASHED1
 62
    7
 10
741.00000000000022
 20
1191.5
 11
757.00000000000045
 21
1191.5
  0
LINE
  8
_1-1_
  6
DASHED1
 62
    7
 10
749.00000000000034
 20
1162.2999999999999
 11
748.3000000000004
 21
1162.2999999999999
  0
LINE
  8
_1-1_
  6
DASHED1
 62
    7
 10
749.00000000000034
 20
1162.2999999999999
 11
749.70000000000027
 21
1162.2999999999999
  0
LINE
  8
_1-1_
  6
DASHED1
 62
    7
 10
748.50000000000022
 20
1176.2999999999997
 11
749.00000000000034
 21
1176.2999999999997
  0
LINE
  8
_1-1_
  6
DASHED1
 62
    7
 10
748.00000000000045
 20
1162.6000000000001
 11
748.00000000000045
 21
1175.7999999999999
  0
LINE
  8
_1-1_
  6
DASHED1
 62
    7
 10
750.00000000000056
 20
1162.6000000000001
 11
750.00000000000056
 21
1175.7999999999999
  0
LINE
  8
_1-1_
  6
DASHED1
 62
    7
 10
749.00000000000034
 20
1176.2999999999997
 11
749.50000000000045
 21
1176.2999999999997
  0
LINE
  8
_1-1_
  6
DASHED1
 62
    7
 10
749.00000000000034
 20
1192.6000000000001
 11
749.00000000000034
 21
1159.6000000000001
  0
ARC
  8
_1-1_
  6
DASHED1
 62
    7
 10
737.50000000000056
 20
1168.2999999999999
 40
6.0000000000000008
 50
180.00000000000005
 51
270.00000000000005
  0
ARC
  8
_1-1_
  6
DASHED1
 62
    7
 10
760.50000000000045
 20
1168.2999999999999
 40
6.0000000000000008
 50
270.00000000000005
 51
0.0000000000000508
  0
ARC
  8
_1-1_
  6
DASHED1
 62
    7
 10
740.00000000000056
 20
1187.7999999999999
 40
1
 50
270.00000000000005
 51
0.0000000000000508
  0
ARC
  8
_1-1_
  6
DASHED1
 62
    7
 10
732.50000000000056
 20
1187.7999999999999
 40
1
 50
180.00000000000005
 51
270.00000000000005
  0
ARC
  8
_1-1_
  6
DASHED1
 62
    7
 10
741.50000000000034
 20
1179.7999999999999
 40
0.5
 50
180.00000000000005
 51
270.00000000000005
  0
ARC
  8
_1-1_
  6
DASHED1
 62
    7
 10
740.50000000000045
 20
1181.2999999999997
 40
0.5
 50
270.00000000000005
 51
0.0000000000000508
  0
ARC
  8
_1-1_
  6
DASHED1
 62
    7
 10
739.50000000000045
 20
1181.2999999999997
 40
0.5
 50
180.00000000000005
 51
270.00000000000005
  0
ARC
  8
_1-1_
  6
DASHED1
 62
    7
 10
730.50000000000045
 20
1173.5999999999999
 40
1
 50
180.00000000000005
 51
270.00000000000005
  0
ARC
  8
_1-1_
  6
DASHED1
 62
    7
 10
732.50000000000056
 20
1185.7999999999999
 40
1
 50
90.000000000000028
 51
180.00000000000005
  0
ARC
  8
_1-1_
  6
DASHED1
 62
    7
 10
767.50000000000056
 20
1173.5999999999999
 40
1
 50
270.00000000000005
 51
0.0000000000000508
  0
ARC
  8
_1-1_
  6
DASHED1
 62
    7
 10
756.50000000000034
 20
1179.7999999999999
 40
0.5
 50
270.00000000000005
 51
0.0000000000000508
  0
ARC
  8
_1-1_
  6
DASHED1
 62
    7
 10
758.00000000000045
 20
1187.7999999999999
 40
1
 50
180.00000000000005
 51
270.00000000000005
  0
ARC
  8
_1-1_
  6
DASHED1
 62
    7
 10
765.50000000000045
 20
1187.7999999999999
 40
1
 50
270.00000000000005
 51
0.0000000000000508
  0
ARC
  8
_1-1_
  6
DASHED1
 62
    7
 10
742.50000000000056
 20
1189.7999999999999
 40
1
 50
90.000000000000028
 51
180.00000000000005
  0
ARC
  8
_1-1_
  6
DASHED1
 62
    7
 10
755.50000000000045
 20
1189.7999999999999
 40
1
 50
0
 51
90.000000000000028
  0
ARC
  8
_1-1_
  6
DASHED1
 62
    7
 10
742.50000000000056
 20
1187.7999999999999
 40
1
 50
180.00000000000005
 51
270.00000000000005
  0
ARC
  8
_1-1_
  6
DASHED1
 62
    7
 10
755.50000000000045
 20
1187.7999999999999
 40
1
 50
270.00000000000005
 51
0.0000000000000508
  0
ARC
  8
_1-1_
  6
DASHED1
 62
    7
 10
747.00000000000045
 20
1181.8000000000001
 40
1
 50
180.00000000000005
 51
270.00000000000005
  0
ARC
  8
_1-1_
  6
DASHED1
 62
    7
 10
751.00000000000022
 20
1181.8000000000001
 40
1
 50
270.00000000000005
 51
0.0000000000000508
  0
ARC
  8
_1-1_
  6
DASHED1
 62
    7
 10
757.50000000000056
 20
1181.2999999999997
 40
0.5
 50
180.00000000000005
 51
270.00000000000005
  0
ARC
  8
_1-1_
  6
DASHED1
 62
    7
 10
758.50000000000022
 20
1181.2999999999997
 40
0.5
 50
270.00000000000005
 51
0.0000000000000508
  0
ARC
  8
_1-1_
  6
DASHED1
 62
    7
 10
748.3000000000004
 20
1162.6000000000001
 40
0.2999999999999998
 50
180.00000000000005
 51
270.00000000000005
  0
ARC
  8
_1-1_
  6
DASHED1
 62
    7
 10
749.70000000000027
 20
1162.6000000000001
 40
0.2999999999999998
 50
270.00000000000005
 51
0.0000000000000508
  0
ARC
  8
_1-1_
  6
DASHED1
 62
    7
 10
748.50000000000022
 20
1175.7999999999999
 40
0.5
 50
90.000000000000028
 51
180.00000000000005
  0
ARC
  8
_1-1_
  6
DASHED1
 62
    7
 10
749.50000000000045
 20
1175.7999999999999
 40
0.5
 50
0
 51
90.000000000000028
  0
LINE
  8
_1-1_
  6
DASHED1
 62
    7
 10
736.50000000000034
 20
1193.9
 11
736.50000000000034
 21
1185.5
  0
ENDSEC
  0
EOF
