  0
SECTION
  2
HEADER
  9
$ACADVER
  1
AC1009
  9
$INSBASE
 10
0
 20
0
 30
0
  9
$EXTMIN
 10
0
 20
0
  9
$EXTMAX
 10
4200
 20
2970
  9
$LIMMIN
 10
0
 20
0
  9
$LIMMAX
 10
4200
 20
2970
  9
$LTSCALE
 40
10
  0
ENDSEC
  0
SECTION
  2
TABLES
  0
TABLE
  2
LTYPE
 70
     9
  0
LTYPE
  2
CONTINUOUS
 70
    64
  3
実線
 72
    65
 73
     0
 40
0.0
  0
LTYPE
  2
DASHED1
 70
    64
  3
--  --  --  --  --  --  --  --  
 72
    65
 73
     2
 40
2.5
 49
1.25
 49
-1.25
  0
LTYPE
  2
DASHED2
 70
    64
  3
----    ----    ----    ----    
 72
    65
 73
     2
 40
5.0
 49
2.5
 49
-2.5
  0
LTYPE
  2
DASHED3
 70
    64
  3
------  ------  ------  ------  
 72
    65
 73
     2
 40
5.0
 49
3.75
 49
-1.25
  0
LTYPE
  2
CENTER1
 70
    64
  3
----- - ----- - ----- - ----- - 
 72
    65
 73
     4
 40
10.0
 49
6.25
 49
-1.25
 49
1.25
 49
-1.25
  0
LTYPE
  2
CENTER2
 70
    64
  3
----------  --  ----------  --  
 72
    65
 73
     4
 40
20.0
 49
12.5
 49
-2.5
 49
2.5
 49
-2.5
  0
LTYPE
  2
PHANTOM1
 70
    64
  3
--- - - --- - - --- - - --- - - 
 72
    65
 73
     6
 40
10.0
 49
3.25
 49
-1.25
 49
1.25
 49
-1.25
 49
1.25
 49
-1.25
  0
LTYPE
  2
PHANTOM2
 70
    64
  3
--------  -  -  --------  -  -  
 72
    65
 73
     6
 40
20.0
 49
10.0
 49
-2.5
 49
1.25
 49
-2.5
 49
1.25
 49
-2.5
  0
LTYPE
  2
DOT
 70
    64
  3
-   -   -   -   -   -   -   -   
 72
    65
 73
     2
 40
2.5
 49
0.625
 49
-1.875
  0
LTYPE
  2
DUMMY
 70
    64
  3
ダミー
 72
    65
 73
     0
 40
0.0
  0
LTYPE
  2
RAND1
 70
    64
  3
ランダム線1
 72
    65
 73
     4
 40
10.0
 49
1.0
 49
-2.0
 49
3.0
 49
-4.0
  0
LTYPE
  2
RAND2
 70
    64
  3
ランダム線2
 72
    65
 73
     4
 40
14.0
 49
2.0
 49
-3.0
 49
4.0
 49
-5.0
  0
LTYPE
  2
RAND3
 70
    64
  3
ランダム線3
 72
    65
 73
     4
 40
18.0
 49
3.0
 49
-4.0
 49
5.0
 49
-6.0
  0
LTYPE
  2
RAND4
 70
    64
  3
ランダム線4
 72
    65
 73
     4
 40
22.0
 49
4.0
 49
-5.0
 49
6.0
 49
-7.0
  0
LTYPE
  2
RAND5
 70
    64
  3
ランダム線5
 72
    65
 73
     4
 40
26.0
 49
5.0
 49
-6.0
 49
7.0
 49
-8.0
  0
LTYPE
  2
LONG1
 70
    64
  3
----------  --  ----------  --  
 72
    65
 73
     4
 40
40.0
 49
32.5
 49
-2.5
 49
2.5
 49
-2.5
  0
LTYPE
  2
LONG2
 70
    64
  3
--------  -  -  --------  -  -  
 72
    65
 73
     6
 40
40.0
 49
30.0
 49
-2.5
 49
1.25
 49
-2.5
 49
1.25
 49
-2.5
  0
LTYPE
  2
LONG3
 70
    64
  3
+++++++++++++++..+++++++++++++++
 72
    65
 73
     2
 40
40.0
 49
37.5
 49
-2.5
  0
LTYPE
  2
LONG4
 70
    64
  3
+++++++++++++++..+++++++++++++++
 72
    65
 73
     2
 40
80.0
 49
75.0
 49
-5.0
  0
LTYPE
  2
LONG5
 70
    64
  3
----------  --  ----------  --  
 72
    65
 73
     4
 40
60.0
 49
37.5
 49
-7.5
 49
7.5
 49
-7.5
  0
LTYPE
  2
dashed
 70
   64
  3
-------   -------------   ------
 72
   65
 73
    2
 40
7.5
 49
6
 49
-1.5
  0
LTYPE
  2
dashed_spaced
 70
   64
  3
----        --------        ----
 72
   65
 73
    2
 40
12
 49
6
 49
-6
  0
LTYPE
  2
long_dashed_dotted
 70
   64
  3
------------- --- --------------
 72
   65
 73
    4
 40
15.25
 49
12
 49
-1.5
 49
0.25
 49
-1.5
  0
LTYPE
  2
long_dashed_double-dotted
 70
   64
  3
----------- --- --- ------------
 72
   65
 73
    6
 40
17
 49
12
 49
-1.5
 49
0.25
 49
-1.5
 49
0.25
 49
-1.5
  0
LTYPE
  2
long_dashed_triplicate-dotted
 70
   64
  3
--------- --- --- --- ----------
 72
   65
 73
    8
 40
18.75
 49
12
 49
-1.5
 49
0.25
 49
-1.5
 49
0.25
 49
-1.5
 49
0.25
 49
-1.5
  0
LTYPE
  2
dotted
 70
   64
  3
   -       -       -       -    
 72
   65
 73
    2
 40
1.75
 49
0.25
 49
-1.5
  0
LTYPE
  2
chain
 70
   64
  3
-------------- -- --------------
 72
   65
 73
    4
 40
18.5
 49
12
 49
-1.5
 49
3.5
 49
-1.5
  0
LTYPE
  2
chain_double_dash
 70
   64
  3
------------ -- -- -------------
 72
   65
 73
    6
 40
23.5
 49
12
 49
-1.5
 49
3.5
 49
-1.5
 49
3.5
 49
-1.5
  0
LTYPE
  2
dashed_dotted
 70
   64
  3
-----------     -     ----------
 72
   65
 73
    4
 40
9.25
 49
6
 49
-1.5
 49
0.25
 49
-1.5
  0
LTYPE
  2
double-dashed_dotted
 70
   64
  3
------   -----------   -   -----
 72
   65
 73
    6
 40
16.75
 49
6
 49
-1.5
 49
6
 49
-1.5
 49
0.25
 49
-1.5
  0
LTYPE
  2
dashed_double-dotted
 70
   64
  3
---------    -    -    ---------
 72
   65
 73
    6
 40
11
 49
6
 49
-1.5
 49
0.25
 49
-1.5
 49
0.25
 49
-1.5
  0
LTYPE
  2
double-dashed_double-dotted
 70
   64
  3
-----   ---------   -   -   ----
 72
   65
 73
    8
 40
18.5
 49
6
 49
-1.5
 49
6
 49
-1.5
 49
0.25
 49
-1.5
 49
0.25
 49
-1.5
  0
LTYPE
  2
dashed_triplicate-dotted
 70
   64
  3
-------    -    -    -    ------
 72
   65
 73
    8
 40
12.75
 49
6
 49
-1.5
 49
0.25
 49
-1.5
 49
0.25
 49
-1.5
 49
0.25
 49
-1.5
  0
LTYPE
  2
double-dashed_triplicate-dotted
 70
   64
  3
-----  ---------  -  -  -  -----
 72
   65
 73
   10
 40
20.25
 49
6
 49
-1.5
 49
6
 49
-1.5
 49
0.25
 49
-1.5
 49
0.25
 49
-1.5
 49
0.25
 49
-1.5
  0
LTYPE
  2
undefined
 70
   64
  3
--------------------------------
 72
   65
 73
    0
 40
0
  0
LTYPE
  2
_
 70
   64
  3
                                
 72
   65
 73
    0
 40
0
  0
LTYPE
  2
__18
 70
   64
  3
                                
 72
   65
 73
    0
 40
0
  0
LTYPE
  2
__19
 70
   64
  3
                                
 72
   65
 73
    0
 40
0
  0
LTYPE
  2
__20
 70
   64
  3
                                
 72
   65
 73
    0
 40
0
  0
LTYPE
  2
__21
 70
   64
  3
                                
 72
   65
 73
    0
 40
0
  0
LTYPE
  2
__22
 70
   64
  3
                                
 72
   65
 73
    0
 40
0
  0
LTYPE
  2
__23
 70
   64
  3
                                
 72
   65
 73
    0
 40
0
  0
LTYPE
  2
__24
 70
   64
  3
                                
 72
   65
 73
    0
 40
0
  0
LTYPE
  2
__25
 70
   64
  3
                                
 72
   65
 73
    0
 40
0
  0
LTYPE
  2
__26
 70
   64
  3
                                
 72
   65
 73
    0
 40
0
  0
LTYPE
  2
__27
 70
   64
  3
                                
 72
   65
 73
    0
 40
0
  0
LTYPE
  2
__28
 70
   64
  3
                                
 72
   65
 73
    0
 40
0
  0
LTYPE
  2
__29
 70
   64
  3
                                
 72
   65
 73
    0
 40
0
  0
LTYPE
  2
__30
 70
   64
  3
                                
 72
   65
 73
    0
 40
0
  0
LTYPE
  2
__31
 70
   64
  3
                                
 72
   65
 73
    0
 40
0
  0
LTYPE
  2
__32
 70
   64
  3
                                
 72
   65
 73
    0
 40
0
  0
ENDTAB
  0
TABLE
  2
STYLE
  5
3
100
AcDbSymbolTable
 70
     1
  0
STYLE
  5
10
100
AcDbSymbolTableRecord
100
AcDbTextStyleTableRecord
  2
STANDARD
 70
     0
 40
0.0
 41
1.0
 50
0.0
 71
     0
 42
0.2
  3
txt
  4
bigfont.shx
  0
STYLE
  5
26
100
AcDbSymbolTableRecord
100
AcDbTextStyleTableRecord
  2
TATEGAKI
 70
    68
 40
0.0
 41
1.0
 50
0.0
 71
     0
 42
1.0
  3
txt
  4
bigfont.shx
  0
ENDTAB
  0
TABLE
  2
LAYER
 70
   17
  0
LAYER
  2
_0-0_
 70
   64
 62
    7
  6
CONTINUOUS
  0
LAYER
  2
_0-3_
 70
   64
 62
    7
  6
CONTINUOUS
  0
LAYER
  2
_0-4_
 70
   64
 62
    7
  6
CONTINUOUS
  0
LAYER
  2
_0-5_
 70
   64
 62
    7
  6
CONTINUOUS
  0
LAYER
  2
_0-6_
 70
   64
 62
    7
  6
CONTINUOUS
  0
LAYER
  2
_0-8_
 70
   64
 62
    7
  6
CONTINUOUS
  0
LAYER
  2
_0-9_
 70
   64
 62
    7
  6
CONTINUOUS
  0
LAYER
  2
_0-a_
 70
   64
 62
    7
  6
CONTINUOUS
  0
LAYER
  2
_0-d_
 70
   64
 62
    7
  6
CONTINUOUS
  0
LAYER
  2
_1-2_
 70
   64
 62
    7
  6
CONTINUOUS
  0
LAYER
  2
_e-0_
 70
   64
 62
    7
  6
CONTINUOUS
  0
LAYER
  2
_f-7_
 70
   64
 62
    7
  6
CONTINUOUS
  0
LAYER
  2
_f-8_
 70
   64
 62
    7
  6
CONTINUOUS
  0
LAYER
  2
_f-9_
 70
   64
 62
    7
  6
CONTINUOUS
  0
LAYER
  2
_f-d_固定文字
 70
   64
 62
    7
  6
CONTINUOUS
  0
LAYER
  2
_f-f_ADD_LINE
 70
   64
 62
    7
  6
CONTINUOUS
  0
LAYER
  2
ADD_LINE
 70
   64
 62
    7
  6
CONTINUOUS
  0
ENDTAB
  0
ENDSEC
  0
SECTION
  2
BLOCKS
  0
ENDSEC
  0
SECTION
  2
ENTITIES
  0
LINE
  8
_0-4_
  6
CONTINUOUS
 62
    3
 10
3507.5
 20
1165
 11
3507.5
 21
705
  0
LINE
  8
_0-3_
  6
CONTINUOUS
 62
    5
 10
450
 20
1170
 11
450
 21
720
  0
LINE
  8
_0-9_
  6
CONTINUOUS
 62
    4
 10
1302.0000000000002
 20
1127.5
 11
1229.9999999999997
 21
1127.5
  0
LINE
  8
_0-3_
  6
CONTINUOUS
 62
    4
 10
2074.499999999999
 20
1170
 11
2091.999999999999
 21
1170
  0
POINT
  8
_0-9_
 62
    3
 10
3970
 20
720
  0
LINE
  8
_0-9_
  6
CONTINUOUS
 62
    4
 10
2740
 20
720
 11
2530
 21
720
  0
POINT
  8
_0-9_
 62
    3
 10
2730
 20
720
  0
POINT
  8
_0-9_
 62
    3
 10
2730
 20
720
  0
LINE
  8
ADD_LINE
  6
DOT
 62
    9
 10
74.98500000000007
 20
55
 11
4144.9850000000005
 21
55
  0
LINE
  8
ADD_LINE
  6
DOT
 62
    9
 10
74.98500000000007
 20
2875
 11
74.98500000000007
 21
55
  0
LINE
  8
ADD_LINE
  6
DOT
 62
    9
 10
120.02999999999985
 20
65
 11
120.02999999999985
 21
2860
  0
LINE
  8
ADD_LINE
  6
DOT
 62
    9
 10
4144.9850000000005
 20
2875
 11
74.98500000000007
 21
2875
  0
LINE
  8
ADD_LINE
  6
DOT
 62
    9
 10
4144.9850000000005
 20
55
 11
4144.9850000000005
 21
2875
  0
LINE
  8
_f-9_
  6
CONTINUOUS
 62
    7
 10
630
 20
120
 11
630
 21
220
  0
LINE
  8
ADD_LINE
  6
DOT
 62
    9
 10
170
 20
120
 11
170
 21
220
  0
LINE
  8
ADD_LINE
  6
DOT
 62
    9
 10
610
 20
120
 11
610
 21
220
  0
LINE
  8
_f-9_
  6
CONTINUOUS
 62
    7
 10
170
 20
120
 11
610
 21
120
  0
LINE
  8
_f-9_
  6
CONTINUOUS
 62
    7
 10
170
 20
220
 11
610
 21
220
  0
LINE
  8
_f-9_
  6
CONTINUOUS
 62
    7
 10
1420
 20
120
 11
1420
 21
220
  0
LINE
  8
_f-9_
  6
CONTINUOUS
 62
    7
 10
2210
 20
120
 11
2210
 21
220
  0
LINE
  8
_f-9_
  6
CONTINUOUS
 62
    7
 10
2220
 20
120
 11
2220
 21
220
  0
LINE
  8
_f-9_
  6
CONTINUOUS
 62
    7
 10
630
 20
120
 11
2210
 21
120
  0
LINE
  8
_f-9_
  6
CONTINUOUS
 62
    7
 10
630
 20
220
 11
2210
 21
220
  0
LINE
  8
_f-9_
  6
CONTINUOUS
 62
    7
 10
2710
 20
120
 11
2710
 21
220
  0
LINE
  8
_f-9_
  6
CONTINUOUS
 62
    7
 10
2720
 20
120
 11
2720
 21
220
  0
LINE
  8
_f-9_
  6
CONTINUOUS
 62
    7
 10
2220
 20
120
 11
2710
 21
120
  0
LINE
  8
_f-9_
  6
CONTINUOUS
 62
    7
 10
2220
 20
220
 11
2710
 21
220
  0
LINE
  8
_f-9_
  6
CONTINUOUS
 62
    7
 10
3020
 20
120
 11
3020
 21
220
  0
LINE
  8
_f-9_
  6
CONTINUOUS
 62
    7
 10
3320
 20
120
 11
3320
 21
220
  0
LINE
  8
_f-9_
  6
CONTINUOUS
 62
    7
 10
3700
 20
120
 11
3700
 21
220
  0
LINE
  8
_f-9_
  6
CONTINUOUS
 62
    7
 10
2720
 20
120
 11
4110
 21
120
  0
LINE
  8
_f-9_
  6
CONTINUOUS
 62
    7
 10
4110
 20
120
 11
4110
 21
220
  0
LINE
  8
_f-9_
  6
CONTINUOUS
 62
    7
 10
2720
 20
220
 11
4110
 21
220
  0
LINE
  8
_0-0_
  6
CONTINUOUS
 62
    7
 10
4130
 20
2860
 11
4130
 21
100
  0
LINE
  8
_0-0_
  6
CONTINUOUS
 62
    7
 10
150
 20
2860
 11
4130
 21
2860
  0
LINE
  8
_0-0_
  6
CONTINUOUS
 62
    7
 10
150
 20
100
 11
4130
 21
100
  0
LINE
  8
_0-0_
  6
CONTINUOUS
 62
    7
 10
150
 20
100
 11
150
 21
2860
  0
LINE
  8
ADD_LINE
  6
DOT
 62
    9
 10
630
 20
200
 11
2210
 21
200
  0
LINE
  8
ADD_LINE
  6
DOT
 62
    9
 10
2720
 20
200
 11
4110
 21
200
  0
LINE
  8
ADD_LINE
  6
DOT
 62
    9
 10
2740
 20
120
 11
2740
 21
220
  0
LINE
  8
ADD_LINE
  6
DOT
 62
    9
 10
3040
 20
120
 11
3040
 21
220
  0
LINE
  8
ADD_LINE
  6
DOT
 62
    9
 10
3340
 20
120
 11
3340
 21
220
  0
LINE
  8
ADD_LINE
  6
DOT
 62
    9
 10
3720
 20
120
 11
3720
 21
220
  0
LINE
  8
ADD_LINE
  6
DOT
 62
    9
 10
1445
 20
120
 11
1445
 21
220
  0
LINE
  8
ADD_LINE
  6
DOT
 62
    9
 10
655
 20
120
 11
655
 21
220
  0
LINE
  8
ADD_LINE
  6
DOT
 62
    9
 10
3660
 20
120
 11
3660
 21
220
  0
LINE
  8
ADD_LINE
  6
DOT
 62
    9
 10
2720
 20
160
 11
4110
 21
160
  0
TEXT
  8
_f-8_
 62
    7
 10
3040
 20
187.5
 40
25
 41
0.64
 50
0
  1
ＤＡＴＡ
  0
TEXT
  8
_f-8_
 62
    7
 10
3340
 20
187.5
 40
25
 41
0.64
 50
0
  1
ＣＨＥＣＫＥＤ
  0
TEXT
  8
_f-8_
 62
    7
 10
3720
 20
187.5
 40
25
 41
0.64
 50
0
  1
ＳＨＥＥＴ　ＮＯ．
  0
TEXT
  8
_f-8_
 62
    7
 10
3542
 20
187.5
 40
25
 41
0.64
 50
0
  1
ＤＲＡＷＩＮＧ
  0
LINE
  8
ADD_LINE
  6
DOT
 62
    9
 10
135
 20
65
 11
135
 21
2860
  0
LINE
  8
_f-9_
  6
CONTINUOUS
 62
    7
 10
170
 20
170
 11
610
 21
170
  0
LINE
  8
ADD_LINE
  6
DOT
 62
    9
 10
2910
 20
120
 11
2910
 21
220
  0
LINE
  8
ADD_LINE
  6
DOT
 62
    9
 10
3170
 20
120
 11
3170
 21
220
  0
LINE
  8
ADD_LINE
  6
DOT
 62
    9
 10
3500
 20
220
 11
3500
 21
120
  0
LINE
  8
ADD_LINE
  6
DOT
 62
    9
 10
630
 20
160
 11
2210
 21
160
  0
LINE
  8
ADD_LINE
  6
DOT
 62
    9
 10
1025
 20
220
 11
1025
 21
120
  0
TEXT
  8
_f-8_
 62
    7
 10
2861
 20
142.5
 40
35
 41
0.5714285714285713
 50
0
  1
１／１０
  0
TEXT
  8
_f-8_
 62
    7
 10
2740.3739840854213
 20
187.46937299484983
 40
25
 41
0.64
 50
0
  1
ＳＣＡＬＥ
  0
TEXT
  8
_f-8_
 62
    7
 10
1445
 20
187.5
 40
25
 41
0.8
 50
0
  1
図面名称
  0
TEXT
  8
_f-8_
 62
    7
 10
655
 20
187.5
 40
25
 41
0.8
 50
0
  1
名　称
  0
LINE
  8
ADD_LINE
  6
DOT
 62
    9
 10
1815
 20
120
 11
1815
 21
220
  0
LINE
  8
_f-8_
  6
CONTINUOUS
 62
    7
 10
2165
 20
2872
 11
2166.15
 21
2874.0000000000004
  0
LINE
  8
_f-8_
  6
CONTINUOUS
 62
    7
 10
2158.6399999999998
 20
2877
 11
2165
 21
2866
  0
LINE
  8
_f-8_
  6
CONTINUOUS
 62
    7
 10
2165
 20
2866
 11
2171.3499999999999
 21
2877
  0
LINE
  8
_f-8_
  6
CONTINUOUS
 62
    7
 10
2165
 20
2860
 11
2176.5399999999999
 21
2880
  0
LINE
  8
_f-8_
  6
CONTINUOUS
 62
    7
 10
2153.4499999999998
 20
2880
 11
2165
 21
2860
  0
LINE
  8
_f-8_
  6
CONTINUOUS
 62
    7
 10
2176.5399999999999
 20
2880
 11
2153.4499999999998
 21
2880
  0
LINE
  8
_f-8_
  6
CONTINUOUS
 62
    7
 10
2163.8400000000001
 20
2874.0000000000004
 11
2165
 21
2872
  0
LINE
  8
_f-8_
  6
CONTINUOUS
 62
    7
 10
2166.15
 20
2874.0000000000004
 11
2163.8400000000001
 21
2874.0000000000004
  0
LINE
  8
_f-8_
  6
CONTINUOUS
 62
    7
 10
2171.3499999999999
 20
2877
 11
2158.6399999999998
 21
2877
  0
LINE
  8
_f-7_
  6
CONTINUOUS
 62
    7
 10
120
 20
1462.6794919243113
 11
120
 21
1497.3205080756886
  0
LINE
  8
_f-7_
  6
CONTINUOUS
 62
    7
 10
120
 20
1497.3205080756886
 11
150
 21
1480
  0
LINE
  8
_f-7_
  6
CONTINUOUS
 62
    7
 10
150
 20
1480
 11
120
 21
1462.6794919243113
  0
LINE
  8
_f-7_
  6
CONTINUOUS
 62
    7
 10
125
 20
1471.3397459621555
 11
125
 21
1488.6602540378444
  0
LINE
  8
_f-7_
  6
CONTINUOUS
 62
    7
 10
125
 20
1488.6602540378444
 11
140
 21
1480
  0
LINE
  8
_f-7_
  6
CONTINUOUS
 62
    7
 10
140
 20
1480
 11
125
 21
1471.3397459621555
  0
LINE
  8
_f-7_
  6
CONTINUOUS
 62
    7
 10
128.99999999999977
 20
1478.2679491924309
 11
128.99999999999977
 21
1481.732050807569
  0
LINE
  8
_f-7_
  6
CONTINUOUS
 62
    7
 10
128.99999999999977
 20
1481.732050807569
 11
132.00000000000045
 21
1480
  0
LINE
  8
_f-7_
  6
CONTINUOUS
 62
    7
 10
132.00000000000045
 20
1480
 11
128.99999999999977
 21
1478.2679491924309
  0
LINE
  8
_f-7_
  6
CONTINUOUS
 62
    7
 10
4160
 20
1462.6794919243113
 11
4160
 21
1497.3205080756886
  0
LINE
  8
_f-7_
  6
CONTINUOUS
 62
    7
 10
4160
 20
1497.3205080756886
 11
4130
 21
1480
  0
LINE
  8
_f-7_
  6
CONTINUOUS
 62
    7
 10
4130
 20
1480
 11
4160
 21
1462.6794919243113
  0
LINE
  8
_f-7_
  6
CONTINUOUS
 62
    7
 10
4155
 20
1471.3397459621555
 11
4155
 21
1488.6602540378444
  0
LINE
  8
_f-7_
  6
CONTINUOUS
 62
    7
 10
4155
 20
1488.6602540378444
 11
4140
 21
1480
  0
LINE
  8
_f-7_
  6
CONTINUOUS
 62
    7
 10
4140
 20
1480
 11
4155
 21
1471.3397459621555
  0
LINE
  8
_f-7_
  6
CONTINUOUS
 62
    7
 10
4151
 20
1478.2679491924309
 11
4151
 21
1481.732050807569
  0
LINE
  8
_f-7_
  6
CONTINUOUS
 62
    7
 10
4151
 20
1481.732050807569
 11
4148
 21
1480
  0
LINE
  8
_f-7_
  6
CONTINUOUS
 62
    7
 10
4148
 20
1480
 11
4151
 21
1478.2679491924309
  0
LINE
  8
ADD_LINE
  6
DOT
 62
    9
 10
1075
 20
220
 11
1075
 21
120
  0
LINE
  8
ADD_LINE
  6
DOT
 62
    9
 10
1865
 20
120
 11
1865
 21
220
  0
TEXT
  8
_f-d_固定文字
 62
    7
 10
149.98500000000007
 20
65
 40
20
 41
1
 50
0
  1
%f
  0
LINE
  8
ADD_LINE
  6
DOT
 62
    9
 10
149.98500000000007
 20
100
 11
149.98500000000007
 21
65
  0
LINE
  8
ADD_LINE
  6
DOT
 62
    9
 10
149.98500000000007
 20
65
 11
179.98500000000007
 21
65.000000646005844
  0
LINE
  8
ADD_LINE
  6
DOT
 62
    9
 10
179.98500000000007
 20
100
 11
179.98500000000007
 21
65.000000646005844
  0
LINE
  8
ADD_LINE
  6
DOT
 62
    9
 10
150.01499999999992
 20
65
 11
120.02999999999985
 21
65
  0
TEXT
  8
_f-d_固定文字
 62
    7
 10
3990
 20
65.00000323002979
 40
20
 41
1
 50
0
  1
%y
  0
TEXT
  8
_f-d_固定文字
 62
    7
 10
4020
 20
65.00000323002979
 40
20
 41
1
 50
0
  1
．
  0
TEXT
  8
_f-d_固定文字
 62
    7
 10
4050
 20
65.00000323002979
 40
20
 41
1
 50
0
  1
%m
  0
TEXT
  8
_f-d_固定文字
 62
    7
 10
4080
 20
65.00000323002979
 40
20
 41
1
 50
0
  1
．
  0
TEXT
  8
_f-d_固定文字
 62
    7
 10
4110
 20
65.00000323002979
 40
20
 41
1
 50
0
  1
%d
  0
LINE
  8
ADD_LINE
  6
DOT
 62
    9
 10
4130
 20
100
 11
4130
 21
65.00000323002979
  0
LINE
  8
ADD_LINE
  6
DOT
 62
    9
 10
4100
 20
100
 11
4100
 21
65.00000323002979
  0
LINE
  8
ADD_LINE
  6
DOT
 62
    9
 10
4070
 20
100
 11
4070
 21
65.00000323002979
  0
LINE
  8
ADD_LINE
  6
DOT
 62
    9
 10
4040
 20
100
 11
4040
 21
65.00000323002979
  0
LINE
  8
ADD_LINE
  6
DOT
 62
    9
 10
4010
 20
100
 11
4010
 21
65.00000323002979
  0
LINE
  8
ADD_LINE
  6
DOT
 62
    9
 10
3980
 20
100
 11
3980
 21
65
  0
LINE
  8
ADD_LINE
  6
DOT
 62
    9
 10
3980
 20
65
 11
4130
 21
65.00000323002979
  0
LINE
  8
_0-9_
  6
CONTINUOUS
 62
    4
 10
3880
 20
1400
 11
3880
 21
1200
  0
POINT
  8
_0-9_
 62
    3
 10
3880
 20
1400
  0
LINE
  8
_0-9_
  6
CONTINUOUS
 62
    4
 10
4060
 20
1170
 11
3910
 21
1170
  0
LINE
  8
ADD_LINE
  6
DOT
 62
    9
 10
4050
 20
1219.5344723558584
 11
4050
 21
1299.5344723558584
  0
POINT
  8
_0-9_
 62
    3
 10
4050
 20
1170
  0
LINE
  8
_0-3_
  6
CONTINUOUS
 62
    5
 10
3538.0000000000009
 20
1170
 11
3538.0000000000009
 21
1110
  0
LINE
  8
_0-9_
  6
CONTINUOUS
 62
    4
 10
4060
 20
720
 11
3910
 21
720
  0
POINT
  8
_0-9_
 62
    3
 10
4050
 20
720
  0
LINE
  8
ADD_LINE
  6
DOT
 62
    9
 10
3910
 20
1200
 11
3910
 21
690
  0
LINE
  8
_0-9_
  6
CONTINUOUS
 62
    4
 10
4050
 20
720
 11
4050
 21
1170
  0
TEXT
  8
_0-9_
 62
    7
 10
4050
 20
911.89999999999997
 40
35
 41
0.6285714285714286
 50
90
  1
４５０
  0
LINE
  8
_0-3_
  6
CONTINUOUS
 62
    5
 10
3880
 20
727.00000000000022
 11
3880
 21
720
  0
LINE
  8
_0-3_
  6
CONTINUOUS
 62
    4
 10
3865
 20
727.00000000000022
 11
3880
 21
768.99999999999977
  0
LINE
  8
_0-3_
  6
CONTINUOUS
 62
    5
 10
3538.0000000000009
 20
720
 11
3880
 21
720
  0
LINE
  8
_0-3_
  6
CONTINUOUS
 62
    5
 10
3862.5
 20
740
 11
3862.5
 21
727.00000000000022
  0
LINE
  8
ADD_LINE
  6
DOT
 62
    9
 10
3100
 20
1200
 11
3100
 21
690
  0
LINE
  8
_0-3_
  6
CONTINUOUS
 62
    5
 10
3130
 20
1170
 11
3130
 21
720
  0
LINE
  8
_0-3_
  6
CONTINUOUS
 62
    5
 10
3130
 20
720
 11
3133.0000000000009
 21
720
  0
LINE
  8
_0-3_
  6
DASHED1
 62
    4
 10
3142
 20
1170
 11
3142
 21
720
  0
LINE
  8
ADD_LINE
  6
DOT
 62
    9
 10
2980
 20
720
 11
2980
 21
627.96113536658481
  0
LINE
  8
ADD_LINE
  6
DOT
 62
    9
 10
3060
 20
720
 11
3060
 21
627.96113536658481
  0
LINE
  8
_0-3_
  6
CONTINUOUS
 62
    5
 10
3130
 20
1170
 11
3538.0000000000009
 21
1170
  0
LINE
  8
_0-3_
  6
CONTINUOUS
 62
    5
 10
3504.5000000000004
 20
720
 11
3517.4
 21
720
  0
POINT
  8
_0-9_
 62
    3
 10
2900
 20
720
  0
LINE
  8
_0-9_
  6
CONTINUOUS
 62
    4
 10
2890
 20
720
 11
3100
 21
720
  0
POINT
  8
_0-9_
 62
    3
 10
2900
 20
1170
  0
LINE
  8
_0-9_
  6
CONTINUOUS
 62
    4
 10
2890
 20
1170
 11
3100
 21
1170
  0
LINE
  8
_0-9_
  6
CONTINUOUS
 62
    4
 10
2900
 20
720
 11
2900
 21
1170
  0
TEXT
  8
_0-9_
 62
    7
 10
2900
 20
911.89999999999997
 40
35
 41
0.6285714285714286
 50
90
  1
４５０
  0
LINE
  8
ADD_LINE
  6
DOT
 62
    9
 10
3130
 20
1240
 11
2974.512793525595
 21
1240
  0
LINE
  8
ADD_LINE
  6
DOT
 62
    9
 10
3130
 20
1320
 11
2974.512793525595
 21
1320
  0
LINE
  8
ADD_LINE
  6
DOT
 62
    9
 10
3130
 20
1400
 11
2974.512793525595
 21
1400
  0
POINT
  8
_0-9_
 62
    3
 10
3130
 20
1400
  0
LINE
  8
_0-9_
  6
CONTINUOUS
 62
    4
 10
3130
 20
1410
 11
3130
 21
1200
  0
LINE
  8
ADD_LINE
  6
DOT
 62
    9
 10
3100
 20
690
 11
3910
 21
690
  0
LINE
  8
_0-8_
  6
CONTINUOUS
 62
    4
 10
3380
 20
390
 11
3630
 21
390
  0
LINE
  8
_0-8_
  6
CONTINUOUS
 62
    4
 10
3630
 20
390
 11
3630
 21
320
  0
LINE
  8
_0-8_
  6
CONTINUOUS
 62
    4
 10
3380
 20
320
 11
3630
 21
320
  0
LINE
  8
_0-8_
  6
CONTINUOUS
 62
    4
 10
3380
 20
390
 11
3380
 21
320
  0
LINE
  8
ADD_LINE
  6
DOT
 62
    9
 10
3380
 20
355
 11
3630
 21
355
  0
LINE
  8
ADD_LINE
  6
DOT
 62
    9
 10
3505
 20
320
 11
3505
 21
390
  0
LINE
  8
_0-9_
  6
CONTINUOUS
 62
    4
 10
1750
 20
1400
 11
1750
 21
1200
  0
POINT
  8
_0-9_
 62
    3
 10
1750
 20
1400
  0
LINE
  8
_0-9_
  6
CONTINUOUS
 62
    4
 10
1570
 20
1170
 11
1720
 21
1170
  0
LINE
  8
ADD_LINE
  6
DOT
 62
    9
 10
1580
 20
1219.5344723558584
 11
1580
 21
1299.5344723558584
  0
LINE
  8
_0-3_
  6
CONTINUOUS
 62
    5
 10
2091.999999999999
 20
1170
 11
2091.999999999999
 21
1110
  0
LINE
  8
_0-9_
  6
CONTINUOUS
 62
    4
 10
1570
 20
720
 11
1720
 21
720
  0
LINE
  8
ADD_LINE
  6
DOT
 62
    9
 10
1720
 20
1200
 11
1720
 21
690
  0
LINE
  8
_0-3_
  6
CONTINUOUS
 62
    5
 10
1750
 20
727.00000000000022
 11
1750
 21
720
  0
LINE
  8
_0-3_
  6
CONTINUOUS
 62
    5
 10
2091.999999999999
 20
720
 11
1750
 21
720
  0
LINE
  8
_0-3_
  6
CONTINUOUS
 62
    5
 10
1767.5
 20
740
 11
1767.5
 21
727.00000000000022
  0
LINE
  8
_0-3_
  6
CONTINUOUS
 62
    5
 10
2500
 20
1170
 11
2500
 21
720
  0
LINE
  8
_0-3_
  6
CONTINUOUS
 62
    5
 10
2500
 20
720
 11
2496.999999999999
 21
720
  0
LINE
  8
_0-3_
  6
DASHED1
 62
    4
 10
2488
 20
1170
 11
2488
 21
720
  0
LINE
  8
ADD_LINE
  6
DOT
 62
    9
 10
2650
 20
720
 11
2650
 21
627.96113536658481
  0
LINE
  8
ADD_LINE
  6
DOT
 62
    9
 10
2570
 20
720
 11
2570
 21
627.96113536658481
  0
LINE
  8
_0-3_
  6
CONTINUOUS
 62
    5
 10
2500
 20
1170
 11
2091.999999999999
 21
1170
  0
LINE
  8
_0-9_
  6
CONTINUOUS
 62
    4
 10
2740
 20
1170
 11
2530
 21
1170
  0
LINE
  8
ADD_LINE
  6
DOT
 62
    9
 10
2500
 20
1240
 11
2655.4872064744049
 21
1240
  0
LINE
  8
ADD_LINE
  6
DOT
 62
    9
 10
2500
 20
1320
 11
2655.4872064744049
 21
1320
  0
LINE
  8
ADD_LINE
  6
DOT
 62
    9
 10
2500
 20
1400
 11
2655.4872064744049
 21
1400
  0
POINT
  8
_0-9_
 62
    3
 10
2500
 20
1400
  0
LINE
  8
_0-9_
  6
CONTINUOUS
 62
    4
 10
2500
 20
1410
 11
2500
 21
1200
  0
LINE
  8
ADD_LINE
  6
DOT
 62
    9
 10
2530
 20
690
 11
1720
 21
690
  0
LINE
  8
_0-8_
  6
CONTINUOUS
 62
    4
 10
2250
 20
390
 11
2000
 21
390
  0
LINE
  8
_0-8_
  6
CONTINUOUS
 62
    4
 10
2000
 20
390
 11
2000
 21
320
  0
LINE
  8
_0-8_
  6
CONTINUOUS
 62
    4
 10
2250
 20
320
 11
2000
 21
320
  0
LINE
  8
_0-8_
  6
CONTINUOUS
 62
    4
 10
2250
 20
390
 11
2250
 21
320
  0
LINE
  8
ADD_LINE
  6
DOT
 62
    9
 10
2250
 20
355
 11
2000
 21
355
  0
LINE
  8
ADD_LINE
  6
DOT
 62
    9
 10
2125
 20
320
 11
2125
 21
390
  0
POINT
  8
_0-9_
 62
    3
 10
1580
 20
1170
  0
POINT
  8
_0-9_
 62
    3
 10
1580
 20
720
  0
LINE
  8
_0-9_
  6
CONTINUOUS
 62
    4
 10
1580
 20
720
 11
1580
 21
1170
  0
TEXT
  8
_0-9_
 62
    7
 10
1580
 20
911.89999999999997
 40
35
 41
0.6285714285714286
 50
90
  1
４５０
  0
POINT
  8
_0-9_
 62
    3
 10
2730
 20
1170
  0
LINE
  8
_0-9_
  6
CONTINUOUS
 62
    4
 10
2730
 20
720
 11
2730
 21
1170
  0
TEXT
  8
_0-9_
 62
    7
 10
2730
 20
911.89999999999997
 40
35
 41
0.6285714285714286
 50
90
  1
４５０
  0
TEXT
  8
_0-8_
 62
    7
 10
2034.7500000000002
 20
337.5
 40
35
 41
0.857142857142857
 50
0
  1
Ａ－Ａ断面図
  0
TEXT
  8
_0-8_
 62
    7
 10
3414.75
 20
337.5
 40
35
 41
0.857142857142857
 50
0
  1
Ｂ－Ｂ断面図
  0
LINE
  8
ADD_LINE
  6
DOT
 62
    9
 10
1229.9999999999997
 20
1200
 11
1229.9999999999997
 21
690
  0
LINE
  8
ADD_LINE
  6
DOT
 62
    9
 10
277.99999999999954
 20
1219.5344723558584
 11
277.99999999999954
 21
1299.5344723558584
  0
LINE
  8
ADD_LINE
  6
DOT
 62
    9
 10
357.99999999999954
 20
1219.5344723558584
 11
357.99999999999954
 21
1299.5344723558584
  0
LINE
  8
ADD_LINE
  6
DOT
 62
    9
 10
420
 20
1200
 11
420
 21
690
  0
LINE
  8
ADD_LINE
  6
DOT
 62
    9
 10
1229.9999999999997
 20
1200
 11
420
 21
1200
  0
LINE
  8
ADD_LINE
  6
DOT
 62
    9
 10
420
 20
690
 11
1229.9999999999997
 21
690
  0
LINE
  8
_0-3_
  6
CONTINUOUS
 62
    5
 10
1750
 20
2218
 11
1750
 21
2560
  0
LINE
  8
_0-3_
  6
CONTINUOUS
 62
    5
 10
2500
 20
2218
 11
2500
 21
2560
  0
LINE
  8
_0-3_
  6
CONTINUOUS
 62
    5
 10
2488
 20
2218
 11
2500
 21
2218
  0
LINE
  8
_0-9_
  6
CONTINUOUS
 62
    4
 10
2773.3796675245298
 20
2560
 11
2530
 21
2560
  0
POINT
  8
_0-9_
 62
    3
 10
2773.3796675245298
 20
2560
  0
LINE
  8
_0-3_
  6
CONTINUOUS
 62
    2
 10
2488
 20
2218
 11
2488
 21
2560
  0
LINE
  8
_0-3_
  6
CONTINUOUS
 62
    5
 10
1750
 20
2560
 11
2500
 21
2560
  0
POINT
  8
_0-9_
 62
    3
 10
1199.9999999999997
 20
1320
  0
LINE
  8
_0-9_
  6
CONTINUOUS
 62
    4
 10
1199.9999999999997
 20
1330
 11
1199.9999999999997
 21
1200
  0
POINT
  8
_0-9_
 62
    3
 10
450
 20
1320
  0
LINE
  8
_0-9_
  6
CONTINUOUS
 62
    4
 10
450
 20
1330
 11
450
 21
1200
  0
LINE
  8
_0-9_
  6
CONTINUOUS
 62
    4
 10
450
 20
1320
 11
1199.9999999999997
 21
1320
  0
TEXT
  8
_0-9_
 62
    7
 10
791.89999999999997
 20
1320
 40
35
 41
0.6285714285714286
 50
0
  1
７５０
  0
LINE
  8
_0-3_
  6
CONTINUOUS
 62
    5
 10
2092
 20
2560
 11
1750
 21
2560
  0
LINE
  8
_0-3_
  6
CONTINUOUS
 62
    5
 10
2092
 20
1810
 11
1750
 21
1810
  0
LINE
  8
_0-3_
  6
CONTINUOUS
 62
    5
 10
2092
 20
1822
 11
2092
 21
1810
  0
LINE
  8
_0-3_
  6
DASHED1
 62
    9
 10
1765
 20
1847
 11
1750
 21
1847
  0
LINE
  8
_0-3_
  6
DASHED1
 62
    9
 10
1765
 20
1847
 11
1750
 21
1822
  0
LINE
  8
_0-3_
  6
CONTINUOUS
 62
    2
 10
2092
 20
1822
 11
1750
 21
1822
  0
LINE
  8
_0-3_
  6
CONTINUOUS
 62
    5
 10
1750
 20
2560
 11
1750
 21
1810
  0
LINE
  8
_0-3_
  6
CONTINUOUS
 62
    4
 10
2092
 20
2218
 11
2092
 21
1822
  0
LINE
  8
ADD_LINE
  6
DOT
 62
    9
 10
1594.5127935255948
 20
1500.0000000000002
 11
1750
 21
1500.0000000000002
  0
LINE
  8
ADD_LINE
  6
DOT
 62
    9
 10
1594.5127935255948
 20
1580.0000000000002
 11
1750
 21
1580.0000000000002
  0
LINE
  8
ADD_LINE
  6
DOT
 62
    9
 10
1594.5127935255948
 20
1660.0000000000002
 11
1750
 21
1660.0000000000002
  0
POINT
  8
_0-9_
 62
    3
 10
1750
 20
1500.0000000000002
  0
LINE
  8
_0-9_
  6
CONTINUOUS
 62
    4
 10
1750
 20
1490.0000000000002
 11
1750
 21
1780
  0
POINT
  8
_0-9_
 62
    3
 10
1580
 20
1810
  0
POINT
  8
_0-9_
 62
    3
 10
1580
 20
2560
  0
LINE
  8
_0-9_
  6
CONTINUOUS
 62
    4
 10
1570
 20
1810
 11
1720
 21
1810
  0
LINE
  8
_0-9_
  6
CONTINUOUS
 62
    4
 10
1570
 20
2560
 11
1720
 21
2560
  0
LINE
  8
_0-9_
  6
CONTINUOUS
 62
    4
 10
1580
 20
1810
 11
1580
 21
2560
  0
TEXT
  8
_0-9_
 62
    7
 10
1580
 20
2151.9
 40
35
 41
0.6285714285714286
 50
90
  1
７５０
  0
LINE
  8
_0-8_
  6
PHANTOM2
 62
    4
 10
1670
 20
2040
 11
2580
 21
2040
  0
LINE
  8
_0-8_
  6
PHANTOM2
 62
    4
 10
1670
 20
2040
 11
1670
 21
2140
  0
LINE
  8
_0-8_
  6
PHANTOM2
 62
    4
 10
2580
 20
2040
 11
2580
 21
2140
  0
LINE
  8
_0-8_
  6
CONTINUOUS
 62
    4
 10
1670
 20
2140
 11
1662.2354286469244
 21
2111.022225211328
  0
LINE
  8
_0-8_
  6
CONTINUOUS
 62
    4
 10
1670
 20
2140
 11
1677.7645713530755
 21
2111.022225211328
  0
LINE
  8
_0-8_
  6
CONTINUOUS
 62
    4
 10
2580
 20
2140
 11
2572.2354286469244
 21
2111.022225211328
  0
LINE
  8
_0-8_
  6
CONTINUOUS
 62
    4
 10
2580
 20
2140
 11
2587.7645713530755
 21
2111.022225211328
  0
TEXT
  8
_0-8_
 62
    7
 10
2565
 20
2140
 40
35
 41
0.857142857142857
 50
0
  1
Ａ
  0
TEXT
  8
_0-8_
 62
    7
 10
1655
 20
2140
 40
35
 41
0.857142857142857
 50
0
  1
Ａ
  0
LINE
  8
_0-9_
  6
CONTINUOUS
 62
    4
 10
1750
 20
2730
 11
1750
 21
2590
  0
LINE
  8
ADD_LINE
  6
DOT
 62
    9
 10
1750
 20
2730
 11
1690
 21
2730
  0
POINT
  8
_0-9_
 62
    3
 10
1750
 20
2730
  0
LINE
  8
_0-9_
  6
CONTINUOUS
 62
    4
 10
2500
 20
2730
 11
2500
 21
2590
  0
POINT
  8
_0-9_
 62
    3
 10
2500
 20
2730
  0
LINE
  8
_0-9_
  6
CONTINUOUS
 62
    4
 10
1750
 20
2730
 11
2500
 21
2730
  0
TEXT
  8
_0-9_
 62
    7
 10
2091.9
 20
2732.0000000000004
 40
35
 41
0.6285714285714286
 50
0
  1
７５０
  0
LINE
  8
_0-8_
  6
PHANTOM2
 62
    4
 10
1670
 20
2810
 11
2580
 21
2810
  0
LINE
  8
_0-8_
  6
PHANTOM2
 62
    4
 10
1670
 20
2810
 11
1670
 21
2710
  0
LINE
  8
_0-8_
  6
PHANTOM2
 62
    4
 10
2580
 20
2810
 11
2580
 21
2710
  0
LINE
  8
_0-8_
  6
CONTINUOUS
 62
    4
 10
1670
 20
2710
 11
1662.2354286469244
 21
2738.9777747886719
  0
LINE
  8
_0-8_
  6
CONTINUOUS
 62
    4
 10
1670
 20
2710
 11
1677.7645713530755
 21
2738.9777747886719
  0
LINE
  8
_0-8_
  6
CONTINUOUS
 62
    4
 10
2580
 20
2710
 11
2572.2354286469244
 21
2738.9777747886719
  0
LINE
  8
_0-8_
  6
CONTINUOUS
 62
    4
 10
2580
 20
2710
 11
2587.7645713530755
 21
2738.9777747886719
  0
TEXT
  8
_0-8_
 62
    7
 10
1655
 20
2675
 40
35
 41
0.857142857142857
 50
0
  1
Ｃ
  0
TEXT
  8
_0-8_
 62
    7
 10
2565
 20
2675
 40
35
 41
0.857142857142857
 50
0
  1
Ｃ
  0
LINE
  8
_0-8_
  6
PHANTOM2
 62
    4
 10
2270
 20
1700
 11
2270
 21
2610
  0
LINE
  8
_0-8_
  6
PHANTOM2
 62
    4
 10
2270
 20
1700
 11
2170
 21
1700
  0
LINE
  8
_0-8_
  6
PHANTOM2
 62
    4
 10
2270
 20
2610
 11
2170
 21
2610
  0
LINE
  8
_0-8_
  6
CONTINUOUS
 62
    4
 10
2170
 20
1700
 11
2198.9777747886719
 21
1692.2354286469244
  0
LINE
  8
_0-8_
  6
CONTINUOUS
 62
    4
 10
2170
 20
1700
 11
2198.9777747886719
 21
1707.7645713530755
  0
LINE
  8
_0-8_
  6
CONTINUOUS
 62
    4
 10
2170
 20
2610
 11
2198.9777747886719
 21
2602.2354286469244
  0
LINE
  8
_0-8_
  6
CONTINUOUS
 62
    4
 10
2170
 20
2610
 11
2198.9777747886719
 21
2617.7645713530755
  0
TEXT
  8
_0-8_
 62
    7
 10
2140
 20
2592.5
 40
35
 41
0.857142857142857
 50
0
  1
Ｂ
  0
TEXT
  8
_0-8_
 62
    7
 10
2140
 20
1682.5
 40
35
 41
0.857142857142857
 50
0
  1
Ｂ
  0
LINE
  8
ADD_LINE
  6
DOT
 62
    9
 10
1292.0000000000002
 20
1219.5344723558584
 11
1292.0000000000002
 21
1299.5344723558584
  0
LINE
  8
ADD_LINE
  6
DOT
 62
    9
 10
1372.0000000000002
 20
1219.5344723558584
 11
1372.0000000000002
 21
1299.5344723558584
  0
LINE
  8
ADD_LINE
  6
DOT
 62
    9
 10
1452.0000000000002
 20
1219.5344723558584
 11
1452.0000000000002
 21
1299.5344723558584
  0
POINT
  8
_0-9_
 62
    3
 10
1372.0000000000002
 20
726.99999999999988
  0
LINE
  8
_0-9_
  6
CONTINUOUS
 62
    4
 10
1382.0000000000002
 20
726.99999999999988
 11
1229.9999999999997
 21
726.99999999999988
  0
POINT
  8
_0-9_
 62
    3
 10
277.99999999999954
 20
720
  0
POINT
  8
_0-9_
 62
    3
 10
277.99999999999954
 20
1170
  0
LINE
  8
_0-9_
  6
CONTINUOUS
 62
    4
 10
267.99999999999954
 20
720
 11
420
 21
720
  0
LINE
  8
_0-9_
  6
CONTINUOUS
 62
    4
 10
267.99999999999954
 20
1170
 11
420
 21
1170
  0
LINE
  8
_0-9_
  6
CONTINUOUS
 62
    4
 10
277.99999999999954
 20
720
 11
277.99999999999954
 21
1170
  0
TEXT
  8
_0-9_
 62
    7
 10
277.99999999999954
 20
911.89999999999997
 40
35
 41
0.6285714285714286
 50
90
  1
４５０
  0
LINE
  8
_0-8_
  6
CONTINUOUS
 62
    4
 10
2370
 20
1650.0000000000002
 11
2620
 21
1650.0000000000002
  0
LINE
  8
_0-8_
  6
CONTINUOUS
 62
    4
 10
2620
 20
1650.0000000000002
 11
2620
 21
1580.0000000000002
  0
LINE
  8
_0-8_
  6
CONTINUOUS
 62
    4
 10
2370
 20
1580.0000000000002
 11
2620
 21
1580.0000000000002
  0
LINE
  8
_0-8_
  6
CONTINUOUS
 62
    4
 10
2370
 20
1650.0000000000002
 11
2370
 21
1580.0000000000002
  0
LINE
  8
ADD_LINE
  6
DOT
 62
    9
 10
2370
 20
1615.0000000000002
 11
2620
 21
1615.0000000000002
  0
LINE
  8
ADD_LINE
  6
DOT
 62
    9
 10
2495
 20
1580.0000000000002
 11
2495
 21
1650.0000000000002
  0
TEXT
  8
_0-8_
 62
    7
 10
2449.8999999999978
 20
1597.5000000000002
 40
35
 41
0.857142857142857
 50
0
  1
平面図
  0
LINE
  8
_0-3_
  6
CONTINUOUS
 62
    5
 10
1199.9999999999997
 20
1170
 11
1199.9999999999997
 21
720
  0
LINE
  8
_0-3_
  6
CONTINUOUS
 62
    5
 10
1199.9999999999997
 20
1170
 11
450
 21
1170
  0
LINE
  8
_0-3_
  6
CONTINUOUS
 62
    5
 10
1199.9999999999997
 20
720
 11
450
 21
720
  0
LINE
  8
_0-3_
  6
DASHED1
 62
    2
 10
1767.5
 20
2542.5
 11
2488
 21
2542.5
  0
LINE
  8
_0-3_
  6
DASHED1
 62
    2
 10
1767.5
 20
2560
 11
1767.5
 21
1822
  0
LINE
  8
_0-3_
  6
CONTINUOUS
 62
    4
 10
1750
 20
1170
 11
2074.499999999999
 21
1170
  0
LINE
  8
_0-3_
  6
CONTINUOUS
 62
    4
 10
1765
 20
1170
 11
1765
 21
727.00000000000022
  0
LINE
  8
_0-3_
  6
CONTINUOUS
 62
    4
 10
1767.5
 20
1155
 11
2074.499999999999
 21
1155
  0
LINE
  8
_0-3_
  6
CONTINUOUS
 62
    4
 10
1750
 20
1127.5
 11
1765
 21
1127.5
  0
LINE
  8
_0-3_
  6
CONTINUOUS
 62
    4
 10
1750
 20
1170
 11
1765
 21
1127.5
  0
LINE
  8
_0-3_
  6
CONTINUOUS
 62
    4
 10
1765
 20
769.49999999999977
 11
1750
 21
769.49999999999977
  0
LINE
  8
_0-3_
  6
CONTINUOUS
 62
    4
 10
1750
 20
769.49999999999977
 11
1765
 21
727.00000000000022
  0
LINE
  8
_0-3_
  6
CONTINUOUS
 62
    4
 10
3865
 20
1127.5
 11
3880
 21
1127.5
  0
LINE
  8
_0-3_
  6
CONTINUOUS
 62
    4
 10
3880
 20
1170
 11
3555.5000000000009
 21
1170
  0
LINE
  8
_0-3_
  6
CONTINUOUS
 62
    4
 10
3880
 20
1170
 11
3865
 21
1127.5
  0
LINE
  8
_0-3_
  6
CONTINUOUS
 62
    4
 10
3865
 20
769.49999999999977
 11
3880
 21
769.49999999999977
  0
LINE
  8
_0-3_
  6
CONTINUOUS
 62
    4
 10
3862.5
 20
1155
 11
3555.5000000000009
 21
1155
  0
LINE
  8
_0-4_
  6
CONTINUOUS
 62
    3
 10
2495.5
 20
2202
 11
2495.5
 21
2214
  0
LINE
  8
_0-4_
  6
CONTINUOUS
 62
    3
 10
2125.5000000000009
 20
2202
 11
2125.5000000000009
 21
2214
  0
LINE
  8
_0-4_
  6
CONTINUOUS
 62
    3
 10
2125.5000000000009
 20
2214
 11
2495.5
 21
2214
  0
LINE
  8
_0-4_
  6
CONTINUOUS
 62
    3
 10
2125.5000000000009
 20
2202
 11
2495.5
 21
2202
  0
LINE
  8
_0-4_
  6
CONTINUOUS
 62
    3
 10
2108
 20
1814.5
 11
2096
 21
1814.5
  0
LINE
  8
_0-4_
  6
CONTINUOUS
 62
    3
 10
2108
 20
2184.499999999999
 11
2096
 21
2184.499999999999
  0
LINE
  8
_0-4_
  6
CONTINUOUS
 62
    3
 10
2096
 20
2184.499999999999
 11
2096
 21
1814.5
  0
LINE
  8
_0-4_
  6
CONTINUOUS
 62
    3
 10
2108
 20
2184.499999999999
 11
2108
 21
1814.5
  0
LINE
  8
_0-4_
  6
CONTINUOUS
 62
    3
 10
2108
 20
1165
 11
2095.9999999999995
 21
1165
  0
LINE
  8
_0-4_
  6
CONTINUOUS
 62
    3
 10
3522
 20
1165
 11
3534.0000000000004
 21
1165
  0
LINE
  8
_0-9_
  6
CONTINUOUS
 62
    4
 10
2773.3796675245298
 20
2202
 11
2530
 21
2202
  0
POINT
  8
_0-9_
 62
    3
 10
2773.3796675245298
 20
2202
  0
POINT
  8
_0-9_
 62
    3
 10
2773.3796675245298
 20
2560
  0
POINT
  8
_0-9_
 62
    3
 10
2773.3796675245298
 20
2202
  0
LINE
  8
_0-9_
  6
CONTINUOUS
 62
    4
 10
2773.3796675245298
 20
2560
 11
2773.3796675245298
 21
2202
  0
TEXT
  8
_0-9_
 62
    7
 10
2773.3796675245298
 20
2347.9
 40
35
 41
0.6285714285714286
 50
90
  1
３５８
  0
POINT
  8
_0-9_
 62
    3
 10
2108
 20
1500.0000000000002
  0
LINE
  8
_0-9_
  6
CONTINUOUS
 62
    4
 10
2108
 20
1490.0000000000002
 11
2108
 21
1780
  0
POINT
  8
_0-9_
 62
    3
 10
1750
 20
1500.0000000000002
  0
POINT
  8
_0-9_
 62
    3
 10
2108
 20
1500.0000000000002
  0
LINE
  8
_0-9_
  6
CONTINUOUS
 62
    4
 10
1750
 20
1500.0000000000002
 11
2108
 21
1500.0000000000002
  0
TEXT
  8
_0-9_
 62
    7
 10
1895.9
 20
1500.0000000000002
 40
35
 41
0.6285714285714286
 50
0
  1
３５８
  0
LINE
  8
ADD_LINE
  6
DOT
 62
    9
 10
2530
 20
2170
 11
2530
 21
2590
  0
LINE
  8
ADD_LINE
  6
DOT
 62
    9
 10
1720
 20
2590
 11
2530
 21
2590
  0
LINE
  8
ADD_LINE
  6
DOT
 62
    9
 10
1720
 20
1780
 11
1720
 21
2590
  0
LINE
  8
ADD_LINE
  6
DOT
 62
    9
 10
2140
 20
1780
 11
1720
 21
1780
  0
LINE
  8
ADD_LINE
  6
DOT
 62
    9
 10
2140
 20
2170
 11
2140
 21
1780
  0
LINE
  8
ADD_LINE
  6
DOT
 62
    9
 10
2140
 20
2170
 11
2530
 21
2170
  0
LINE
  8
ADD_LINE
  6
DOT
 62
    9
 10
1750
 20
2650
 11
1690
 21
2650
  0
POINT
  8
_0-9_
 62
    3
 10
1372.0000000000002
 20
769.50000000000022
  0
LINE
  8
_0-9_
  6
CONTINUOUS
 62
    4
 10
1382.0000000000002
 20
769.50000000000022
 11
1229.9999999999997
 21
769.50000000000022
  0
LINE
  8
_0-9_
  6
CONTINUOUS
 62
    4
 10
1302.0000000000002
 20
769.50000000000022
 11
1229.9999999999997
 21
769.50000000000022
  0
POINT
  8
_0-9_
 62
    3
 10
1372.0000000000002
 20
1127.5
  0
POINT
  8
_0-9_
 62
    3
 10
1372.0000000000002
 20
726.99999999999988
  0
POINT
  8
_0-9_
 62
    3
 10
1372.0000000000002
 20
769.50000000000022
  0
POINT
  8
_0-9_
 62
    3
 10
1372.0000000000002
 20
1127.5
  0
LINE
  8
_0-9_
  6
CONTINUOUS
 62
    4
 10
1372.0000000000002
 20
769.50000000000022
 11
1372.0000000000002
 21
1127.5
  0
TEXT
  8
_0-9_
 62
    7
 10
1372.0000000000002
 20
915.40000000000009
 40
35
 41
0.6285714285714286
 50
90
  1
３５８
  0
POINT
  8
_0-9_
 62
    3
 10
1372.0000000000002
 20
1170
  0
LINE
  8
_0-9_
  6
CONTINUOUS
 62
    4
 10
1382.0000000000002
 20
1170
 11
1229.9999999999997
 21
1170
  0
LINE
  8
_0-9_
  6
CONTINUOUS
 62
    4
 10
1372.0000000000002
 20
1170
 11
1372.0000000000002
 21
1264.3608588772387
  0
LINE
  8
_0-9_
  6
CONTINUOUS
 62
    4
 10
1382.0000000000002
 20
720
 11
1229.9999999999997
 21
720
  0
LINE
  8
_0-9_
  6
CONTINUOUS
 62
    4
 10
1382.0000000000002
 20
726.99999999999988
 11
1229.9999999999997
 21
726.99999999999988
  0
POINT
  8
_0-9_
 62
    3
 10
1372.0000000000002
 20
726.99999999999988
  0
POINT
  8
_0-9_
 62
    3
 10
1372.0000000000002
 20
720
  0
LINE
  8
_0-9_
  6
CONTINUOUS
 62
    4
 10
1372.0000000000002
 20
726.99999999999988
 11
1372.0000000000002
 21
720
  0
TEXT
  8
_0-9_
 62
    7
 10
1370.8829477661518
 20
696.56972209935941
 40
35
 41
0.6285714285714286
 50
90
  1
７
  0
LINE
  8
_0-9_
  6
CONTINUOUS
 62
    4
 10
1372.0000000000002
 20
726.99999999999988
 11
1372.0000000000002
 21
686.36407977611474
  0
LINE
  8
_0-3_
  6
CONTINUOUS
 62
    4
 10
2074.499999999999
 20
1155
 11
2091.999999999999
 21
1155
  0
LINE
  8
_0-9_
  6
CONTINUOUS
 62
    4
 10
2740
 20
704.99999999999988
 11
2530
 21
704.99999999999988
  0
POINT
  8
_0-9_
 62
    3
 10
2730
 20
704.99999999999988
  0
LINE
  8
_0-9_
  6
CONTINUOUS
 62
    4
 10
2730
 20
704.99999999999988
 11
2730
 21
666.75008073608739
  0
POINT
  8
_0-9_
 62
    3
 10
2730
 20
704.99999999999988
  0
LINE
  8
_0-9_
  6
CONTINUOUS
 62
    4
 10
2730
 20
720
 11
2730
 21
704.99999999999988
  0
TEXT
  8
_0-9_
 62
    7
 10
2728.9645311794511
 20
656.30774845733196
 40
35
 41
0.6285714285714286
 50
90
  1
１５
  0
LINE
  8
ADD_LINE
  6
DOT
 62
    9
 10
1660
 20
1219.5344723558584
 11
1660
 21
1299.5344723558584
  0
LINE
  8
ADD_LINE
  6
DOT
 62
    9
 10
1720
 20
1200
 11
2530
 21
1200
  0
LINE
  8
_0-3_
  6
CONTINUOUS
 62
    4
 10
3555.5000000000009
 20
1170
 11
3538.0000000000009
 21
1170
  0
LINE
  8
_0-3_
  6
CONTINUOUS
 62
    4
 10
3555.5000000000009
 20
1155
 11
3538.0000000000009
 21
1155
  0
LINE
  8
ADD_LINE
  6
DOT
 62
    9
 10
3910
 20
1200
 11
3100
 21
1200
  0
POINT
  8
_0-9_
 62
    3
 10
2900
 20
704.99999999999988
  0
LINE
  8
_0-9_
  6
CONTINUOUS
 62
    4
 10
2890
 20
704.99999999999988
 11
3100
 21
704.99999999999988
  0
LINE
  8
_0-9_
  6
CONTINUOUS
 62
    4
 10
2900
 20
704.99999999999988
 11
2900
 21
666.75008073608739
  0
POINT
  8
_0-9_
 62
    3
 10
2900
 20
720
  0
POINT
  8
_0-9_
 62
    3
 10
2900
 20
704.99999999999988
  0
LINE
  8
_0-9_
  6
CONTINUOUS
 62
    4
 10
2900
 20
720
 11
2900
 21
704.99999999999988
  0
TEXT
  8
_0-9_
 62
    7
 10
2898.1957414481371
 20
659.23290487418569
 40
35
 41
0.6285714285714286
 50
90
  1
１５
  0
LINE
  8
_0-6_
  6
DASHED1
 62
    7
 10
1767.5
 20
2252.5
 11
2488
 21
2252.5
  0
POINT
  8
_0-9_
 62
    3
 10
3970
 20
720
  0
POINT
  8
_0-9_
 62
    3
 10
3970
 20
885
  0
LINE
  8
_0-9_
  6
CONTINUOUS
 62
    4
 10
3980
 20
720
 11
3910
 21
720
  0
LINE
  8
_0-9_
  6
CONTINUOUS
 62
    4
 10
3980
 20
885
 11
3910
 21
885
  0
LINE
  8
_0-9_
  6
CONTINUOUS
 62
    4
 10
3970
 20
720
 11
3970
 21
885
  0
TEXT
  8
_0-9_
 62
    7
 10
3970
 20
769.39999999999997
 40
35
 41
0.6285714285714286
 50
90
  1
１６５
  0
POINT
  8
_0-9_
 62
    3
 10
3970
 20
945
  0
LINE
  8
_0-9_
  6
CONTINUOUS
 62
    4
 10
3980
 20
945
 11
3910
 21
945
  0
LINE
  8
_0-9_
  6
CONTINUOUS
 62
    4
 10
3970
 20
885
 11
3970
 21
945
  0
TEXT
  8
_0-9_
 62
    7
 10
3970
 20
892.95000000000004
 40
35
 41
0.6285714285714286
 50
90
  1
６０
  0
POINT
  8
_0-9_
 62
    3
 10
3970
 20
1005
  0
LINE
  8
_0-9_
  6
CONTINUOUS
 62
    4
 10
3980
 20
1005
 11
3910
 21
1005
  0
LINE
  8
_0-9_
  6
CONTINUOUS
 62
    4
 10
3970
 20
945
 11
3970
 21
1005
  0
TEXT
  8
_0-9_
 62
    7
 10
3970
 20
952.95000000000004
 40
35
 41
0.6285714285714286
 50
90
  1
６０
  0
LINE
  8
_0-3_
  6
DASHED1
 62
    9
 10
2091.999999999999
 20
1155
 11
2488
 21
1155
  0
LINE
  8
_0-3_
  6
CONTINUOUS
 62
    5
 10
1767.5
 20
726.5
 11
1750
 21
726.5
  0
LINE
  8
_0-3_
  6
CONTINUOUS
 62
    5
 10
2091.999999999999
 20
735
 11
1767.5
 21
735
  0
LINE
  8
_0-3_
  6
CONTINUOUS
 62
    4
 10
1767.5
 20
1170
 11
1767.5
 21
726.5
  0
LINE
  8
_0-3_
  6
CONTINUOUS
 62
    4
 10
1750
 20
1170
 11
1750
 21
726.5
  0
LINE
  8
_0-3_
  6
DASHED1
 62
    9
 10
3142
 20
1155
 11
3538.0000000000009
 21
1155
  0
LINE
  8
_0-3_
  6
CONTINUOUS
 62
    4
 10
2091.999999999999
 20
1110
 11
2091.999999999999
 21
735
  0
LINE
  8
_0-3_
  6
CONTINUOUS
 62
    5
 10
2091.999999999999
 20
735
 11
2091.999999999999
 21
720
  0
LINE
  8
_0-3_
  6
CONTINUOUS
 62
    5
 10
3538.0000000000009
 20
735
 11
3538.0000000000009
 21
720
  0
LINE
  8
_0-3_
  6
CONTINUOUS
 62
    4
 10
3538.0000000000009
 20
1110
 11
3538.0000000000009
 21
735
  0
LINE
  8
_0-3_
  6
CONTINUOUS
 62
    4
 10
3862.5
 20
1170
 11
3862.5
 21
726.5
  0
LINE
  8
_0-3_
  6
CONTINUOUS
 62
    4
 10
3880
 20
1170
 11
3880
 21
726.5
  0
LINE
  8
_0-3_
  6
CONTINUOUS
 62
    4
 10
3865
 20
1170
 11
3865
 21
726.5
  0
LINE
  8
_0-9_
  6
CONTINUOUS
 62
    4
 10
1372.0000000000002
 20
1127.5
 11
1372.0000000000002
 21
1170
  0
TEXT
  8
_0-9_
 62
    7
 10
1364.4408769377412
 20
1180.1330896001607
 40
35
 41
0.6285714285714286
 50
90
  1
４２.５
  0
LINE
  8
_0-9_
  6
CONTINUOUS
 62
    4
 10
1372.0000000000002
 20
726.99999999999988
 11
1372.0000000000002
 21
769.50000000000022
  0
TEXT
  8
_0-9_
 62
    7
 10
1428.2847539256508
 20
710.42456604625488
 40
35
 41
0.6285714285714286
 50
90
  1
４２.５
  0
ARC
  8
_0-5_
  6
CONTINUOUS
 62
    4
 10
3533.5999999999994
 20
706.99999999999988
 40
1.9999999999999995
 50
269.99999999999994
 51
359.99999999999994
  0
ARC
  8
_0-5_
  6
CONTINUOUS
 62
    4
 10
3533.5999999999994
 20
706.99999999999988
 40
0.6999999999999999
 50
270
 51
0
  0
LINE
  8
_0-5_
  6
CONTINUOUS
 62
    4
 10
3535.5999999999999
 20
749
 11
3535.5999999999999
 21
706.99999999999988
  0
ARC
  8
_0-5_
  6
CONTINUOUS
 62
    4
 10
3535.0999999999999
 20
749
 40
0.4999999999999997
 50
0
 51
90
  0
ARC
  8
_0-5_
  6
CONTINUOUS
 62
    4
 10
3534.8000000000001
 20
748.70000000000004
 40
0.8000000000000001
 50
89.999999999999971
 51
231.31781254650667
  0
LINE
  8
_0-5_
  6
CONTINUOUS
 62
    4
 10
3535.0999999999999
 20
749.49999999999988
 11
3534.8000000000001
 21
749.49999999999988
  0
LINE
  8
_0-5_
  6
CONTINUOUS
 62
    4
 10
3534.3000000000006
 20
740.7244997998398
 11
3534.3000000000006
 21
748.07550020016037
  0
ARC
  8
_0-5_
  6
CONTINUOUS
 62
    4
 10
3534.8000000000001
 20
740.0999999999999
 40
0.8000000000000001
 50
128.68218745349335
 51
231.31781254650667
  0
LINE
  8
_0-5_
  6
CONTINUOUS
 62
    4
 10
3534.3000000000006
 20
735.29999999999984
 11
3534.3000000000006
 21
739.47550020016024
  0
ARC
  8
_0-5_
  6
CONTINUOUS
 62
    4
 10
3534.0000000000004
 20
735.29999999999984
 40
0.2999999999999998
 50
270
 51
0
  0
LINE
  8
_0-5_
  6
CONTINUOUS
 62
    4
 10
3534.3000000000006
 20
731.55038733822505
 11
3534.3000000000006
 21
706.99999999999988
  0
ARC
  8
_0-5_
  6
CONTINUOUS
 62
    4
 10
3533.2999999999997
 20
731.55038733822505
 40
0.9999999999999996
 50
359.99999999999994
 51
87.03906386583624
  0
ARC
  8
_0-5_
  6
CONTINUOUS
 62
    4
 10
3520.5
 20
740.19999999999981
 40
0.8000000000000001
 50
0.0000000000000254
 51
179.99999999999997
  0
LINE
  8
_0-5_
  6
CONTINUOUS
 62
    4
 10
3522.8285714285721
 20
704.99999999999988
 11
3533.5999999999994
 21
704.99999999999988
  0
ARC
  8
_0-5_
  6
CONTINUOUS
 62
    4
 10
3522.8285714285721
 20
706.99999999999988
 40
1.9999999999999995
 50
198.92464441605042
 51
270
  0
ARC
  8
_0-5_
  6
CONTINUOUS
 62
    4
 10
3522.8285714285721
 20
706.99999999999988
 40
0.6999999999999999
 50
198.92464441604994
 51
270
  0
LINE
  8
_0-5_
  6
CONTINUOUS
 62
    4
 10
3533.5999999999994
 20
706.29999999999984
 11
3522.8285714285721
 21
706.29999999999984
  0
LINE
  8
_0-5_
  6
CONTINUOUS
 62
    4
 10
3522.1664092664086
 20
706.77297297297275
 11
3521.0375798523664
 21
710.06539209726406
  0
ARC
  8
_0-5_
  6
CONTINUOUS
 62
    4
 10
3521.2267690415551
 20
710.13025696212878
 40
0.2
 50
133.54896276822287
 51
198.92464441605298
  0
ARC
  8
_0-5_
  6
CONTINUOUS
 62
    4
 10
3520.4
 20
710.99999999999965
 40
0.9999999999999996
 50
313.54896276821995
 51
198.92464441604971
  0
LINE
  8
_0-5_
  6
CONTINUOUS
 62
    4
 10
3520.93667953668
 20
706.35135135135124
 11
3519.4540540540542
 21
710.6756756756755
  0
LINE
  8
_0-5_
  6
CONTINUOUS
 62
    4
 10
3521.2999999999992
 20
735.29999999999984
 11
3521.2999999999992
 21
740.19999999999981
  0
ARC
  8
_0-5_
  6
CONTINUOUS
 62
    4
 10
3521.6000000000003
 20
735.29999999999984
 40
0.2999999999999998
 50
179.99999999999997
 51
270
  0
LINE
  8
_0-5_
  6
CONTINUOUS
 62
    4
 10
3534.0000000000004
 20
734.99999999999988
 11
3521.6000000000003
 21
734.99999999999988
  0
LINE
  8
_0-5_
  6
CONTINUOUS
 62
    4
 10
3519.7000000000002
 20
734.34961266177435
 11
3519.7000000000002
 21
740.19999999999981
  0
ARC
  8
_0-5_
  6
CONTINUOUS
 62
    4
 10
3520.6999999999998
 20
734.34961266177435
 40
0.9999999999999996
 50
180
 51
267.03906386583628
  0
LINE
  8
_0-5_
  6
CONTINUOUS
 62
    4
 10
3533.3516550854278
 20
732.5490523231673
 11
3520.6483449145712
 21
733.35094767683233
  0
LINE
  8
ADD_LINE
  6
DOT
 62
    9
 10
3521.4884681165062
 20
740.99999999999965
 11
3519.3827734741994
 21
740.99999999999965
  0
LINE
  8
ADD_LINE
  6
DOT
 62
    9
 10
3519.7000000000002
 20
734.34961266177435
 11
3519.7000000000002
 21
733.39999999999702
  0
LINE
  8
ADD_LINE
  6
DOT
 62
    9
 10
3520.6483449145712
 20
733.35094767683233
 11
3519.7000000000002
 21
733.39999999999702
  0
LINE
  8
ADD_LINE
  6
DOT
 62
    9
 10
3522.8493185782872
 20
711.99999999999988
 11
3517.7279115660057
 21
711.99999999999988
  0
LINE
  8
ADD_LINE
  6
DOT
 62
    7
 10
3533.6787085833893
 20
740.0999999999999
 11
3534.5793231943025
 21
740.0999999999999
  0
ARC
  8
_0-5_
  6
CONTINUOUS
 62
    4
 10
2096.4
 20
706.99999999999988
 40
1.9999999999999995
 50
180.00000000000005
 51
270.00000000000005
  0
ARC
  8
_0-5_
  6
CONTINUOUS
 62
    4
 10
2096.4
 20
706.99999999999988
 40
0.6999999999999999
 50
180.00000000000005
 51
270
  0
LINE
  8
_0-5_
  6
CONTINUOUS
 62
    4
 10
2094.3999999999996
 20
749
 11
2094.3999999999996
 21
706.99999999999988
  0
ARC
  8
_0-5_
  6
CONTINUOUS
 62
    4
 10
2094.8999999999996
 20
749
 40
0.4999999999999997
 50
90
 51
180
  0
ARC
  8
_0-5_
  6
CONTINUOUS
 62
    4
 10
2095.1999999999993
 20
748.70000000000004
 40
0.8000000000000001
 50
308.68218745349338
 51
90
  0
LINE
  8
_0-5_
  6
CONTINUOUS
 62
    4
 10
2094.8999999999996
 20
749.49999999999988
 11
2095.1999999999993
 21
749.49999999999988
  0
LINE
  8
_0-5_
  6
CONTINUOUS
 62
    4
 10
2095.6999999999989
 20
740.7244997998398
 11
2095.6999999999989
 21
748.07550020016037
  0
ARC
  8
_0-5_
  6
CONTINUOUS
 62
    4
 10
2095.1999999999993
 20
740.0999999999999
 40
0.8000000000000001
 50
308.68218745349338
 51
51.317812546506594
  0
LINE
  8
_0-5_
  6
CONTINUOUS
 62
    4
 10
2095.6999999999989
 20
735.29999999999984
 11
2095.6999999999989
 21
739.47550020016024
  0
ARC
  8
_0-5_
  6
CONTINUOUS
 62
    4
 10
2095.9999999999995
 20
735.29999999999984
 40
0.2999999999999998
 50
180.00000000000005
 51
270
  0
LINE
  8
_0-5_
  6
CONTINUOUS
 62
    4
 10
2095.6999999999989
 20
731.55038733822505
 11
2095.6999999999989
 21
706.99999999999988
  0
ARC
  8
_0-5_
  6
CONTINUOUS
 62
    4
 10
2096.6999999999998
 20
731.55038733822505
 40
0.9999999999999996
 50
92.960936134163787
 51
180.00000000000005
  0
ARC
  8
_0-5_
  6
CONTINUOUS
 62
    4
 10
2109.4999999999995
 20
740.19999999999981
 40
0.8000000000000001
 50
0.0000000000000286
 51
179.99999999999997
  0
LINE
  8
_0-5_
  6
CONTINUOUS
 62
    4
 10
2107.1714285714274
 20
704.99999999999988
 11
2096.4
 21
704.99999999999988
  0
ARC
  8
_0-5_
  6
CONTINUOUS
 62
    4
 10
2107.1714285714274
 20
706.99999999999988
 40
1.9999999999999995
 50
270
 51
341.07535558394954
  0
ARC
  8
_0-5_
  6
CONTINUOUS
 62
    4
 10
2107.1714285714274
 20
706.99999999999988
 40
0.6999999999999999
 50
270
 51
341.07535558395005
  0
LINE
  8
_0-5_
  6
CONTINUOUS
 62
    4
 10
2096.4
 20
706.29999999999984
 11
2107.1714285714274
 21
706.29999999999984
  0
LINE
  8
_0-5_
  6
CONTINUOUS
 62
    4
 10
2107.8335907335908
 20
706.77297297297275
 11
2108.9624201476331
 21
710.06539209726406
  0
ARC
  8
_0-5_
  6
CONTINUOUS
 62
    4
 10
2108.7732309584444
 20
710.13025696212878
 40
0.2
 50
341.07535558394704
 51
46.451037231777071
  0
ARC
  8
_0-5_
  6
CONTINUOUS
 62
    4
 10
2109.5999999999994
 20
710.99999999999965
 40
0.9999999999999996
 50
341.07535558395028
 51
226.4510372317801
  0
LINE
  8
_0-5_
  6
CONTINUOUS
 62
    4
 10
2109.0633204633199
 20
706.35135135135124
 11
2110.5459459459452
 21
710.6756756756755
  0
LINE
  8
_0-5_
  6
CONTINUOUS
 62
    4
 10
2108.7000000000002
 20
735.29999999999984
 11
2108.7000000000002
 21
740.19999999999981
  0
ARC
  8
_0-5_
  6
CONTINUOUS
 62
    4
 10
2108.3999999999996
 20
735.29999999999984
 40
0.2999999999999998
 50
270
 51
0
  0
LINE
  8
_0-5_
  6
CONTINUOUS
 62
    4
 10
2095.9999999999995
 20
734.99999999999988
 11
2108.3999999999996
 21
734.99999999999988
  0
LINE
  8
_0-5_
  6
CONTINUOUS
 62
    4
 10
2110.2999999999992
 20
734.34961266177435
 11
2110.2999999999992
 21
740.19999999999981
  0
ARC
  8
_0-5_
  6
CONTINUOUS
 62
    4
 10
2109.2999999999997
 20
734.34961266177435
 40
0.9999999999999996
 50
272.96093613416371
 51
359.99999999999994
  0
LINE
  8
_0-5_
  6
CONTINUOUS
 62
    4
 10
2096.6483449145716
 20
732.5490523231673
 11
2109.3516550854283
 21
733.35094767683233
  0
LINE
  8
ADD_LINE
  6
DOT
 62
    9
 10
2108.5115318834932
 20
740.99999999999965
 11
2110.6172265258001
 21
740.99999999999965
  0
LINE
  8
ADD_LINE
  6
DOT
 62
    9
 10
2110.2999999999992
 20
734.34961266177435
 11
2110.2999999999992
 21
733.39999999999702
  0
LINE
  8
ADD_LINE
  6
DOT
 62
    9
 10
2109.3516550854283
 20
733.35094767683233
 11
2110.2999999999992
 21
733.39999999999702
  0
LINE
  8
ADD_LINE
  6
DOT
 62
    9
 10
2107.1506814217123
 20
711.99999999999988
 11
2112.2720884339937
 21
711.99999999999988
  0
LINE
  8
ADD_LINE
  6
DOT
 62
    7
 10
2096.3212914166106
 20
740.0999999999999
 11
2095.4206768056969
 21
740.0999999999999
  0
LINE
  8
_0-4_
  6
CONTINUOUS
 62
    3
 10
2496.5
 20
1165
 11
2496.5
 21
705
  0
ARC
  8
_0-5_
  6
CONTINUOUS
 62
    4
 10
2493.5
 20
708.99999999999988
 40
3.0000000000000004
 50
0
 51
90
  0
LINE
  8
_0-4_
  6
CONTINUOUS
 62
    3
 10
3133.5
 20
1165
 11
3133.5
 21
705
  0
ARC
  8
_0-5_
  6
CONTINUOUS
 62
    4
 10
3136.5
 20
708.99999999999988
 40
3.0000000000000004
 50
90
 51
180
  0
LINE
  8
_0-3_
  6
CONTINUOUS
 62
    4
 10
2092
 20
2218
 11
2488
 21
2218
  0
LINE
  8
_0-3_
  6
CONTINUOUS
 62
    2
 10
2091.5
 20
2218
 11
2151.5
 21
2218
  0
LINE
  8
_0-3_
  6
CONTINUOUS
 62
    2
 10
2151.5
 20
2218
 11
2151.5
 21
2236
  0
LINE
  8
_0-3_
  6
CONTINUOUS
 62
    2
 10
2151.5
 20
2236
 11
2091.5
 21
2236
  0
LINE
  8
_0-3_
  6
CONTINUOUS
 62
    2
 10
2091.5
 20
2236
 11
2091.5
 21
2218
  0
LINE
  8
ADD_LINE
  6
DOT
 62
    2
 10
2121.5
 20
2236
 11
2121.5
 21
2218
  0
LINE
  8
ADD_LINE
  6
DOT
 62
    2
 10
2151.5
 20
2227.5
 11
2091.5
 21
2227.5
  0
LINE
  8
_0-3_
  6
CONTINUOUS
 62
    2
 10
2091.5
 20
2160
 11
2091.5
 21
2220
  0
LINE
  8
_0-3_
  6
CONTINUOUS
 62
    2
 10
2091.5
 20
2220
 11
2073.5
 21
2220
  0
LINE
  8
_0-3_
  6
CONTINUOUS
 62
    2
 10
2073.5
 20
2220
 11
2073.5
 21
2160
  0
LINE
  8
_0-3_
  6
CONTINUOUS
 62
    2
 10
2073.5
 20
2160
 11
2091.5
 21
2160
  0
LINE
  8
ADD_LINE
  6
DOT
 62
    2
 10
2073.5
 20
2190
 11
2091.5
 21
2190
  0
LINE
  8
ADD_LINE
  6
DOT
 62
    2
 10
2083
 20
2160
 11
2083
 21
2220
  0
LINE
  8
_0-3_
  6
DASHED1
 62
    2
 10
2151.5
 20
1155
 11
2151.5
 21
735
  0
LINE
  8
_0-3_
  6
CONTINUOUS
 62
    2
 10
2073.5
 20
947.50048874200774
 11
2073.5
 21
735
  0
LINE
  8
_0-3_
  6
CONTINUOUS
 62
    2
 10
2073.5
 20
1155
 11
2073.5
 21
947.50048874200774
  0
LINE
  8
_0-6_
  6
CONTINUOUS
 62
    7
 10
2073.5
 20
962.50048874200774
 11
1767.5
 21
962.50048874200774
  0
LINE
  8
_0-6_
  6
CONTINUOUS
 62
    7
 10
2073.5
 20
947.50048874200774
 11
1767.5
 21
947.50048874200774
  0
LINE
  8
_0-6_
  6
DASHED1
 62
    7
 10
2073.5
 20
962.50048874200774
 11
2488
 21
962.50048874200774
  0
LINE
  8
_0-6_
  6
DASHED1
 62
    7
 10
2073.5
 20
947.50048874200774
 11
2488
 21
947.50048874200774
  0
LINE
  8
_0-3_
  6
CONTINUOUS
 62
    2
 10
3555.5000000000009
 20
1155
 11
3555.5000000000009
 21
735
  0
LINE
  8
_0-4_
  6
CONTINUOUS
 62
    3
 10
2095.9999999999995
 20
1165
 11
2095.9999999999995
 21
734.99999999999988
  0
LINE
  8
_0-4_
  6
CONTINUOUS
 62
    3
 10
2108
 20
1165
 11
2108
 21
734.99999999999988
  0
LINE
  8
_0-4_
  6
CONTINUOUS
 62
    3
 10
3522
 20
1165
 11
3522
 21
734.99999999999988
  0
LINE
  8
_0-4_
  6
CONTINUOUS
 62
    3
 10
3534.0000000000004
 20
1165
 11
3534.0000000000004
 21
735.29999999999984
  0
POINT
  8
_0-9_
 62
    3
 10
1750
 20
1400
  0
POINT
  8
_0-9_
 62
    3
 10
2108
 20
1400
  0
LINE
  8
_0-9_
  6
CONTINUOUS
 62
    4
 10
1750
 20
1410
 11
1750
 21
1200
  0
LINE
  8
_0-9_
  6
CONTINUOUS
 62
    4
 10
1750
 20
1400
 11
2108
 21
1400
  0
TEXT
  8
_0-9_
 62
    7
 10
1895.9
 20
1405
 40
35
 41
0.6285714285714286
 50
0
  1
３５８
  0
LINE
  8
_0-9_
  6
CONTINUOUS
 62
    4
 10
2108
 20
1410
 11
2108
 21
1200
  0
POINT
  8
_0-9_
 62
    3
 10
2108
 20
1400
  0
POINT
  8
_0-9_
 62
    3
 10
2500
 20
1400
  0
LINE
  8
_0-9_
  6
CONTINUOUS
 62
    4
 10
2108
 20
1400
 11
2500
 21
1400
  0
TEXT
  8
_0-9_
 62
    7
 10
2270.9
 20
1405
 40
35
 41
0.6285714285714286
 50
0
  1
３９２
  0
POINT
  8
_0-9_
 62
    3
 10
3522
 20
1400
  0
POINT
  8
_0-9_
 62
    3
 10
3880
 20
1400
  0
LINE
  8
_0-9_
  6
CONTINUOUS
 62
    4
 10
3522
 20
1410
 11
3522
 21
1200
  0
LINE
  8
_0-9_
  6
CONTINUOUS
 62
    4
 10
3880
 20
1410
 11
3880
 21
1200
  0
LINE
  8
_0-9_
  6
CONTINUOUS
 62
    4
 10
3522
 20
1400
 11
3880
 21
1400
  0
TEXT
  8
_0-9_
 62
    7
 10
3667.8999999999996
 20
1405
 40
35
 41
0.6285714285714286
 50
0
  1
３５８
  0
POINT
  8
_0-9_
 62
    3
 10
3522
 20
1400
  0
POINT
  8
_0-9_
 62
    3
 10
3130
 20
1400
  0
LINE
  8
_0-9_
  6
CONTINUOUS
 62
    4
 10
3522
 20
1410
 11
3522
 21
1200
  0
LINE
  8
_0-9_
  6
CONTINUOUS
 62
    4
 10
3130
 20
1410
 11
3130
 21
1200
  0
LINE
  8
_0-9_
  6
CONTINUOUS
 62
    4
 10
3522
 20
1400
 11
3130
 21
1400
  0
TEXT
  8
_0-9_
 62
    7
 10
3292.8999999999996
 20
1405
 40
35
 41
0.6285714285714286
 50
0
  1
３９２
  0
POINT
  8
_0-9_
 62
    4
 10
2496.5
 20
570
  0
LINE
  8
_0-9_
  6
CONTINUOUS
 62
    4
 10
2496.5
 20
560
 11
2496.5
 21
690
  0
POINT
  8
_0-9_
 62
    4
 10
2496.5
 20
570
  0
POINT
  8
_0-9_
 62
    4
 10
2496.5
 20
570
  0
POINT
  8
_0-9_
 62
    3
 10
2496.5
 20
570
  0
LINE
  8
_0-9_
  6
CONTINUOUS
 62
    4
 10
2496.5
 20
560
 11
2496.5
 21
690
  0
POINT
  8
_0-9_
 62
    4
 10
3133.5
 20
570
  0
LINE
  8
_0-9_
  6
CONTINUOUS
 62
    4
 10
3133.5
 20
560
 11
3133.5
 21
690
  0
POINT
  8
_0-9_
 62
    4
 10
3133.5
 20
570
  0
POINT
  8
_0-9_
 62
    3
 10
3133.5
 20
570
  0
LINE
  8
_0-9_
  6
CONTINUOUS
 62
    4
 10
3133.5
 20
560
 11
3133.5
 21
690
  0
LINE
  8
_0-3_
  6
CONTINUOUS
 62
    5
 10
3880
 20
726.5
 11
3862.5
 21
726.5
  0
LINE
  8
_0-3_
  6
CONTINUOUS
 62
    5
 10
3538.0000000000009
 20
735
 11
3862.5
 21
735
  0
LINE
  8
_0-3_
  6
CONTINUOUS
 62
    5
 10
3535.5999999999999
 20
720
 11
3538.0000000000009
 21
720
  0
LINE
  8
_0-3_
  6
DASHED1
 62
    4
 10
3142
 20
735
 11
3498.5
 21
735
  0
LINE
  8
_0-3_
  6
CONTINUOUS
 62
    4
 10
3498.5
 20
735
 11
3519.7000000000002
 21
735
  0
LINE
  8
_0-3_
  6
CONTINUOUS
 62
    4
 10
3538.0000000000009
 20
735
 11
3535.5999999999999
 21
735
  0
LINE
  8
_0-3_
  6
DASHED1
 62
    4
 10
3133.0000000000009
 20
720
 11
3498.5
 21
720
  0
LINE
  8
_0-3_
  6
CONTINUOUS
 62
    5
 10
3498.5
 20
720
 11
3534.3000000000006
 21
720
  0
LINE
  8
_0-3_
  6
DASHED1
 62
    4
 10
2488
 20
735
 11
2131.5
 21
735
  0
LINE
  8
_0-3_
  6
DASHED1
 62
    4
 10
2496.999999999999
 20
720
 11
2131.5
 21
720
  0
LINE
  8
_0-3_
  6
CONTINUOUS
 62
    5
 10
2131.5
 20
720
 11
2112.5999999999999
 21
720
  0
LINE
  8
_0-3_
  6
CONTINUOUS
 62
    4
 10
2110.2999999999992
 20
735
 11
2131.5
 21
735
  0
LINE
  8
_0-3_
  6
CONTINUOUS
 62
    4
 10
2091.999999999999
 20
735
 11
2094.3999999999996
 21
735
  0
LINE
  8
_0-3_
  6
CONTINUOUS
 62
    5
 10
2094.3999999999996
 20
720
 11
2091.999999999999
 21
720
  0
LINE
  8
_0-3_
  6
CONTINUOUS
 62
    5
 10
2095.6999999999989
 20
720
 11
2112.5999999999999
 21
720
  0
LINE
  8
_0-3_
  6
CONTINUOUS
 62
    5
 10
1187.9999999999997
 20
1170
 11
1187.9999999999997
 21
720
  0
LINE
  8
_0-3_
  6
CONTINUOUS
 62
    2
 10
1162.9999999999997
 20
1127.5
 11
1162.9999999999997
 21
768.50000000000011
  0
LINE
  8
_0-a_
  6
CONTINUOUS
 62
    4
 10
1176.8145750507569
 20
1127.4999999999997
 11
1187.9999999999997
 21
1138.6854249492423
  0
LINE
  8
_0-a_
  6
CONTINUOUS
 62
    4
 10
1148.5303038033071
 20
1127.4999999999981
 11
1188
 21
1166.969696196691
  0
LINE
  8
_0-a_
  6
CONTINUOUS
 62
    4
 10
1120.2460325558429
 20
1127.5000000000006
 11
1162.746032555839
 21
1169.999999999997
  0
LINE
  8
_0-a_
  6
CONTINUOUS
 62
    4
 10
1091.9617613083787
 20
1127.5000000000031
 11
1134.4617613083751
 21
1169.9999999999995
  0
LINE
  8
_0-a_
  6
CONTINUOUS
 62
    4
 10
1063.6774900609038
 20
1127.4999999999949
 11
1106.1774900609054
 21
1169.9999999999965
  0
LINE
  8
_0-a_
  6
CONTINUOUS
 62
    4
 10
1035.3932188134592
 20
1127.499999999999
 11
1077.8932188134608
 21
1170.0000000000004
  0
LINE
  8
_0-a_
  6
CONTINUOUS
 62
    4
 10
1007.1089475659953
 20
1127.5000000000015
 11
1049.6089475659912
 21
1169.9999999999977
  0
LINE
  8
_0-a_
  6
CONTINUOUS
 62
    4
 10
978.82467631852409
 20
1127.4999999999972
 11
1021.3246763185261
 21
1169.999999999999
  0
LINE
  8
_0-a_
  6
CONTINUOUS
 62
    4
 10
950.54040507105628
 20
1127.4999999999959
 11
993.04040507105787
 21
1169.9999999999974
  0
LINE
  8
_0-a_
  6
CONTINUOUS
 62
    4
 10
922.25613382361166
 20
1127.4999999999997
 11
964.75613382361325
 21
1170.0000000000013
  0
LINE
  8
_0-a_
  6
CONTINUOUS
 62
    4
 10
893.97186257614748
 20
1127.5000000000025
 11
936.47186257614362
 21
1169.9999999999986
  0
LINE
  8
_0-a_
  6
CONTINUOUS
 62
    4
 10
865.6875913286758
 20
1127.4999999999972
 11
908.18759132867739
 21
1169.999999999999
  0
LINE
  8
_0-a_
  6
CONTINUOUS
 62
    4
 10
837.40332008120822
 20
1127.4999999999965
 11
879.90332008121004
 21
1169.9999999999981
  0
LINE
  8
_0-a_
  6
CONTINUOUS
 62
    4
 10
809.11904883376394
 20
1127.5000000000006
 11
851.61904883376541
 21
1170.000000000002
  0
LINE
  8
_0-a_
  6
CONTINUOUS
 62
    4
 10
780.83477758629953
 20
1127.5000000000029
 11
823.33477758629601
 21
1169.9999999999995
  0
LINE
  8
_0-a_
  6
CONTINUOUS
 62
    4
 10
752.55050633882717
 20
1127.4999999999972
 11
795.05050633882888
 21
1169.999999999999
  0
LINE
  8
_0-a_
  6
CONTINUOUS
 62
    4
 10
724.26623509136049
 20
1127.4999999999974
 11
766.7662350913622
 21
1169.9999999999988
  0
LINE
  8
_0-a_
  6
CONTINUOUS
 62
    4
 10
695.98196384391599
 20
1127.5000000000013
 11
738.48196384391258
 21
1169.9999999999974
  0
LINE
  8
_0-a_
  6
CONTINUOUS
 62
    4
 10
667.69769259645181
 20
1127.5000000000038
 11
710.19769259644817
 21
1170.0000000000002
  0
LINE
  8
_0-a_
  6
CONTINUOUS
 62
    4
 10
639.41342134897865
 20
1127.4999999999972
 11
681.91342134898036
 21
1169.9999999999988
  0
LINE
  8
_0-a_
  6
CONTINUOUS
 62
    4
 10
611.12915010153244
 20
1127.4999999999995
 11
653.62915010153415
 21
1170.0000000000013
  0
LINE
  8
_0-a_
  6
CONTINUOUS
 62
    4
 10
582.84487885406804
 20
1127.5000000000018
 11
625.34487885406463
 21
1169.9999999999984
  0
LINE
  8
_0-a_
  6
CONTINUOUS
 62
    4
 10
554.5606076066042
 20
1127.5000000000047
 11
597.06060760660056
 21
1170.0000000000009
  0
LINE
  8
_0-a_
  6
CONTINUOUS
 62
    4
 10
526.27633635912957
 20
1127.4999999999965
 11
568.77633635913093
 21
1169.9999999999981
  0
LINE
  8
_0-a_
  6
CONTINUOUS
 62
    4
 10
497.99206511168449
 20
1127.5000000000004
 11
540.4920651116862
 21
1170.0000000000018
  0
LINE
  8
_0-a_
  6
CONTINUOUS
 62
    4
 10
469.70779386422066
 20
1127.5000000000029
 11
512.20779386421668
 21
1169.999999999999
  0
LINE
  8
_0-a_
  6
CONTINUOUS
 62
    4
 10
1185.5101012677721
 20
768.50000000000261
 11
1187.999999999997
 21
770.98989873222751
  0
LINE
  8
_0-a_
  6
CONTINUOUS
 62
    4
 10
1162.9999999999963
 20
774.27416997969328
 11
1187.9999999999952
 21
799.27416997969226
  0
LINE
  8
_0-a_
  6
CONTINUOUS
 62
    4
 10
1162.999999999999
 20
802.55844122716302
 11
1188.0000000000029
 21
827.55844122716678
  0
LINE
  8
_0-a_
  6
CONTINUOUS
 62
    4
 10
1163.0000000000006
 20
830.84271247461299
 11
1187.9999999999993
 21
855.84271247461163
  0
LINE
  8
_0-a_
  6
CONTINUOUS
 62
    4
 10
1162.9999999999984
 20
859.12698372207739
 11
1187.999999999997
 21
884.12698372207592
  0
LINE
  8
_0-a_
  6
CONTINUOUS
 62
    4
 10
1163.0000000000013
 20
887.41125496954714
 11
1188
 21
912.41125496954578
  0
LINE
  8
_0-a_
  6
CONTINUOUS
 62
    4
 10
1162.9999999999993
 20
915.69552621701154
 11
1188.0000000000029
 21
940.69552621701529
  0
LINE
  8
_0-a_
  6
CONTINUOUS
 62
    4
 10
1163.0000000000009
 20
943.97979746446151
 11
1187.9999999999993
 21
968.97979746446026
  0
LINE
  8
_0-a_
  6
CONTINUOUS
 62
    4
 10
1162.9999999999986
 20
972.26406871192591
 11
1187.999999999997
 21
997.26406871192455
  0
LINE
  8
_0-a_
  6
CONTINUOUS
 62
    4
 10
1163.0000000000015
 20
1000.5483399593957
 11
1188
 21
1025.5483399593942
  0
LINE
  8
_0-a_
  6
CONTINUOUS
 62
    4
 10
1162.999999999999
 20
1028.83261120686
 11
1188.0000000000031
 21
1053.8326112068639
  0
LINE
  8
_0-a_
  6
CONTINUOUS
 62
    4
 10
1163.0000000000009
 20
1057.1168824543101
 11
1187.9999999999993
 21
1082.1168824543087
  0
LINE
  8
_0-a_
  6
CONTINUOUS
 62
    4
 10
1162.9999999999986
 20
1085.4011537017745
 11
1187.9999999999972
 21
1110.4011537017731
  0
LINE
  8
_0-a_
  6
CONTINUOUS
 62
    4
 10
1163.0000000000015
 20
1113.6854249492441
 11
1176.8145750507562
 21
1127.499999999999
  0
LINE
  8
_0-a_
  6
CONTINUOUS
 62
    4
 10
1171.7943725152342
 20
726.49999999999806
 11
1188.0000000000009
 21
742.70562748476459
  0
LINE
  8
_0-a_
  6
CONTINUOUS
 62
    4
 10
1143.5101012677648
 20
726.49999999999533
 11
1185.5101012677721
 21
768.50000000000261
  0
LINE
  8
_0-a_
  6
CONTINUOUS
 62
    4
 10
1115.2258300203002
 20
726.49999999999738
 11
1157.2258300203079
 21
768.500000000005
  0
LINE
  8
_0-a_
  6
CONTINUOUS
 62
    4
 10
1086.941558772831
 20
726.49999999999499
 11
1128.9415587728333
 21
768.49999999999727
  0
LINE
  8
_0-a_
  6
CONTINUOUS
 62
    4
 10
1058.6572875253866
 20
726.49999999999886
 11
1100.6572875253889
 21
768.50000000000125
  0
LINE
  8
_0-a_
  6
CONTINUOUS
 62
    4
 10
1030.373016277917
 20
726.49999999999613
 11
1072.3730162779245
 21
768.50000000000352
  0
LINE
  8
_0-a_
  6
CONTINUOUS
 62
    4
 10
1002.0887450304517
 20
726.49999999999749
 11
1044.0887450304539
 21
768.49999999999965
  0
LINE
  8
_0-a_
  6
CONTINUOUS
 62
    4
 10
973.80447378298345
 20
726.4999999999959
 11
1015.8044737829854
 21
768.49999999999795
  0
LINE
  8
_0-a_
  6
CONTINUOUS
 62
    4
 10
945.52020253553882
 20
726.49999999999965
 11
987.52020253554087
 21
768.50000000000181
  0
LINE
  8
_0-a_
  6
CONTINUOUS
 62
    4
 10
917.23593128806919
 20
726.49999999999681
 11
959.23593128807692
 21
768.50000000000454
  0
LINE
  8
_0-a_
  6
CONTINUOUS
 62
    4
 10
888.95166004060274
 20
726.49999999999727
 11
930.95166004060524
 21
768.49999999999954
  0
LINE
  8
_0-a_
  6
CONTINUOUS
 62
    4
 10
860.66738879313561
 20
726.49999999999647
 11
902.66738879313788
 21
768.49999999999886
  0
LINE
  8
_0-a_
  6
CONTINUOUS
 62
    4
 10
832.38311754569122
 20
726.50000000000045
 11
874.38311754569326
 21
768.50000000000261
  0
LINE
  8
_0-a_
  6
CONTINUOUS
 62
    4
 10
804.09884629822158
 20
726.49999999999761
 11
846.09884629822909
 21
768.500000000005
  0
LINE
  8
_0-a_
  6
CONTINUOUS
 62
    4
 10
775.81457505075434
 20
726.49999999999727
 11
817.81457505075707
 21
768.49999999999965
  0
LINE
  8
_0-a_
  6
CONTINUOUS
 62
    4
 10
747.53030380330756
 20
726.49999999999886
 11
789.53030380330972
 21
768.5000000000009
  0
LINE
  8
_0-a_
  6
CONTINUOUS
 62
    4
 10
719.24603255584338
 20
726.50000000000136
 11
761.24603255584531
 21
768.50000000000341
  0
LINE
  8
_0-a_
  6
CONTINUOUS
 62
    4
 10
690.96176130837397
 20
726.49999999999852
 11
732.96176130838148
 21
768.50000000000591
  0
LINE
  8
_0-a_
  6
CONTINUOUS
 62
    4
 10
662.67749006090434
 20
726.49999999999567
 11
704.67749006090662
 21
768.49999999999795
  0
LINE
  8
_0-a_
  6
CONTINUOUS
 62
    4
 10
634.39321881345995
 20
726.49999999999965
 11
676.39321881346177
 21
768.50000000000159
  0
LINE
  8
_0-a_
  6
CONTINUOUS
 62
    4
 10
606.10894756599009
 20
726.49999999999658
 11
648.10894756599793
 21
768.5000000000042
  0
LINE
  8
_0-a_
  6
CONTINUOUS
 62
    4
 10
577.82467631852171
 20
726.49999999999499
 11
619.82467631852955
 21
768.50000000000261
  0
LINE
  8
_0-a_
  6
CONTINUOUS
 62
    4
 10
549.54040507105673
 20
726.49999999999647
 11
591.54040507105889
 21
768.49999999999852
  0
LINE
  8
_0-a_
  6
CONTINUOUS
 62
    4
 10
521.25613382361188
 20
726.50000000000034
 11
563.25613382361439
 21
768.5000000000025
  0
LINE
  8
_0-a_
  6
CONTINUOUS
 62
    4
 10
492.97186257614242
 20
726.49999999999749
 11
534.97186257614998
 21
768.500000000005
  0
LINE
  8
_0-3_
  6
CONTINUOUS
 62
    4
 10
1187.9999999999997
 20
726.5
 11
450
 21
726.5
  0
LINE
  8
_0-3_
  6
CONTINUOUS
 62
    2
 10
758.99999999999977
 20
1127.5
 11
758.99999999999977
 21
768.50000000000011
  0
LINE
  8
_0-3_
  6
CONTINUOUS
 62
    2
 10
728.99999999999977
 20
1127.5
 11
728.99999999999977
 21
768.50000000000011
  0
LINE
  8
_0-3_
  6
CONTINUOUS
 62
    2
 10
525.99999999999965
 20
1127.5
 11
525.99999999999965
 21
768.50000000000011
  0
LINE
  8
_0-a_
  6
CONTINUOUS
 62
    4
 10
506.68759132867648
 20
768.49999999999818
 11
526.00000000000227
 21
787.81240867132396
  0
LINE
  8
_0-a_
  6
CONTINUOUS
 62
    4
 10
467.99999999999897
 20
786.38095116623605
 11
526.00000000000193
 21
844.38095116623856
  0
LINE
  8
_0-a_
  6
CONTINUOUS
 62
    4
 10
467.99999999999698
 20
814.66522241370046
 11
525.99999999999931
 21
872.66522241370284
  0
LINE
  8
_0-a_
  6
CONTINUOUS
 62
    4
 10
467.99999999999982
 20
842.94949366116998
 11
526.0000000000025
 21
900.94949366117259
  0
LINE
  8
_0-a_
  6
CONTINUOUS
 62
    4
 10
468.00000000000295
 20
871.23376490863984
 11
526.00000000000022
 21
929.23376490863699
  0
LINE
  8
_0-a_
  6
CONTINUOUS
 62
    4
 10
467.99999999999897
 20
899.51803615608446
 11
526.00000000000159
 21
957.51803615608707
  0
LINE
  8
_0-a_
  6
CONTINUOUS
 62
    4
 10
467.99999999999698
 20
927.80230740354897
 11
525.99999999999931
 21
985.80230740355136
  0
LINE
  8
_0-a_
  6
CONTINUOUS
 62
    4
 10
468.00000000000011
 20
956.08657865101861
 11
526.0000000000025
 21
1014.0865786510212
  0
LINE
  8
_0-a_
  6
CONTINUOUS
 62
    4
 10
468.00000000000125
 20
984.37084989846869
 11
525.99999999999886
 21
1042.3708498984658
  0
LINE
  8
_0-a_
  6
CONTINUOUS
 62
    4
 10
467.99999999999926
 20
1012.655121145933
 11
526.00000000000159
 21
1070.6551211459354
  0
LINE
  8
_0-a_
  6
CONTINUOUS
 62
    4
 10
467.99999999999727
 20
1040.9393923933976
 11
525.99999999999965
 21
1098.9393923933998
  0
LINE
  8
_0-a_
  6
CONTINUOUS
 62
    4
 10
468.00000000000011
 20
1069.223663640867
 11
526.0000000000025
 21
1127.2236636408697
  0
LINE
  8
_0-a_
  6
CONTINUOUS
 62
    4
 10
468.00000000000153
 20
1097.5079348883173
 11
497.99206511168108
 21
1127.4999999999968
  0
LINE
  8
_0-a_
  6
CONTINUOUS
 62
    4
 10
467.99999999999926
 20
1125.7922061357814
 11
469.70779386421781
 21
1127.5000000000002
  0
LINE
  8
_0-a_
  6
CONTINUOUS
 62
    4
 10
732.96176130838261
 20
768.50000000000727
 11
758.99999999999499
 21
794.53823869161954
  0
LINE
  8
_0-a_
  6
CONTINUOUS
 62
    4
 10
729.00000000000034
 20
792.8225099390919
 11
758.99999999999772
 21
822.82250993908905
  0
LINE
  8
_0-a_
  6
CONTINUOUS
 62
    4
 10
728.99999999999693
 20
821.10678118653686
 11
758.99999999999408
 21
851.1067811865339
  0
LINE
  8
_0-a_
  6
CONTINUOUS
 62
    4
 10
728.99999999999465
 20
849.39105243400103
 11
758.99999999999727
 21
879.39105243400365
  0
LINE
  8
_0-a_
  6
CONTINUOUS
 62
    4
 10
728.99999999999386
 20
877.67532368146692
 11
758.99999999999693
 21
907.67532368146999
  0
LINE
  8
_0-a_
  6
CONTINUOUS
 62
    4
 10
729.00000000000068
 20
905.95959492894053
 11
758.99999999999806
 21
935.95959492893769
  0
LINE
  8
_0-a_
  6
CONTINUOUS
 62
    4
 10
728.99999999999693
 20
934.24386617638515
 11
758.99999999999408
 21
964.24386617638242
  0
LINE
  8
_0-a_
  6
CONTINUOUS
 62
    4
 10
728.99999999999465
 20
962.52813742384944
 11
758.99999999999727
 21
992.52813742385217
  0
LINE
  8
_0-a_
  6
CONTINUOUS
 62
    4
 10
728.99999999999772
 20
990.81240867131941
 11
759.00000000000034
 21
1020.8124086713218
  0
LINE
  8
_0-a_
  6
CONTINUOUS
 62
    4
 10
729.00000000000068
 20
1019.0966799187889
 11
758.99999999999806
 21
1049.0966799187863
  0
LINE
  8
_0-a_
  6
CONTINUOUS
 62
    4
 10
728.99999999999693
 20
1047.3809511662338
 11
758.99999999999954
 21
1077.3809511662361
  0
LINE
  8
_0-a_
  6
CONTINUOUS
 62
    4
 10
728.99999999999465
 20
1075.665222413698
 11
758.99999999999749
 21
1105.6652224137008
  0
LINE
  8
_0-a_
  6
CONTINUOUS
 62
    4
 10
728.99999999999772
 20
1103.9494936611679
 11
752.55050633883001
 21
1127.5000000000002
  0
LINE
  8
_0-3_
  6
CONTINUOUS
 62
    2
 10
1187.9999999999997
 20
1127.5
 11
467.99999999999926
 21
1127.5
  0
LINE
  8
_0-3_
  6
CONTINUOUS
 62
    2
 10
1187.9999999999997
 20
768.50000000000011
 11
467.99999999999954
 21
768.50000000000011
  0
LINE
  8
_0-a_
  6
CONTINUOUS
 62
    4
 10
467.99999999999954
 20
1154.0764773832484
 11
483.92352261674773
 21
1169.9999999999965
  0
LINE
  8
_0-a_
  6
CONTINUOUS
 62
    4
 10
467.99999999999954
 20
758.09667991878791
 11
526.00000000000022
 21
816.09667991878836
  0
LINE
  8
_0-3_
  6
CONTINUOUS
 62
    2
 10
467.99999999999954
 20
1170
 11
467.99999999999954
 21
726.5
  0
LINE
  8
_0-3_
  6
CONTINUOUS
 62
    4
 10
465.49999999999954
 20
1170
 11
465.49999999999954
 21
726.5
  0
LINE
  8
_0-a_
  6
CONTINUOUS
 62
    4
 10
467.99999999999954
 20
729.81240867132123
 11
506.68759132867592
 21
768.49999999999738
  0
POINT
  8
_0-9_
 62
    3
 10
467.99999999999954
 20
570
  0
POINT
  8
_0-9_
 62
    3
 10
525.99999999999965
 20
570
  0
LINE
  8
_0-9_
  6
CONTINUOUS
 62
    4
 10
467.99999999999954
 20
560
 11
467.99999999999954
 21
690
  0
LINE
  8
_0-9_
  6
CONTINUOUS
 62
    4
 10
525.99999999999965
 20
560
 11
525.99999999999965
 21
690
  0
LINE
  8
_0-9_
  6
CONTINUOUS
 62
    4
 10
467.99999999999954
 20
570
 11
525.99999999999965
 21
570
  0
TEXT
  8
_0-9_
 62
    7
 10
474.94999999999947
 20
575
 40
35
 41
0.6285714285714286
 50
0
  1
５８
  0
POINT
  8
_0-9_
 62
    3
 10
728.99999999999977
 20
570
  0
LINE
  8
_0-9_
  6
CONTINUOUS
 62
    4
 10
728.99999999999977
 20
560
 11
728.99999999999977
 21
690
  0
LINE
  8
_0-9_
  6
CONTINUOUS
 62
    4
 10
525.99999999999965
 20
570
 11
728.99999999999977
 21
570
  0
TEXT
  8
_0-9_
 62
    7
 10
594.39999999999963
 20
575
 40
35
 41
0.6285714285714286
 50
0
  1
２０３
  0
POINT
  8
_0-9_
 62
    3
 10
758.99999999999977
 20
570
  0
LINE
  8
_0-9_
  6
CONTINUOUS
 62
    4
 10
758.99999999999977
 20
560
 11
758.99999999999977
 21
690
  0
POINT
  8
_0-9_
 62
    3
 10
1162.9999999999997
 20
570
  0
LINE
  8
_0-9_
  6
CONTINUOUS
 62
    4
 10
1162.9999999999997
 20
560
 11
1162.9999999999997
 21
690
  0
LINE
  8
_0-9_
  6
CONTINUOUS
 62
    4
 10
758.99999999999977
 20
570
 11
1162.9999999999997
 21
570
  0
TEXT
  8
_0-9_
 62
    7
 10
927.89999999999963
 20
575
 40
35
 41
0.6285714285714286
 50
0
  1
４０４
  0
POINT
  8
_0-9_
 62
    3
 10
1187.9999999999997
 20
570
  0
LINE
  8
_0-9_
  6
CONTINUOUS
 62
    4
 10
1187.9999999999997
 20
560
 11
1187.9999999999997
 21
690
  0
LINE
  8
_0-9_
  6
CONTINUOUS
 62
    4
 10
728.99999999999977
 20
570
 11
758.99999999999977
 21
570
  0
TEXT
  8
_0-9_
 62
    7
 10
766.37348934358578
 20
575
 40
35
 41
0.6285714285714286
 50
0
  1
３０
  0
LINE
  8
_0-9_
  6
CONTINUOUS
 62
    4
 10
1162.9999999999997
 20
570
 11
1187.9999999999997
 21
570
  0
TEXT
  8
_0-9_
 62
    7
 10
1119.2995463374397
 20
575
 40
35
 41
0.6285714285714286
 50
0
  1
２５
  0
LINE
  8
_0-3_
  6
DASHED1
 62
    2
 10
3478.5000000000013
 20
1155
 11
3478.5000000000013
 21
735
  0
LINE
  8
_0-3_
  6
CONTINUOUS
 62
    5
 10
1263.7297913950453
 20
2560
 11
1263.7297913950453
 21
2110
  0
LINE
  8
_0-3_
  6
CONTINUOUS
 62
    5
 10
513.72979139504559
 20
2560
 11
513.72979139504559
 21
2110
  0
LINE
  8
_0-3_
  6
CONTINUOUS
 62
    5
 10
513.72979139504559
 20
2560
 11
1263.7297913950453
 21
2560
  0
LINE
  8
_0-3_
  6
CONTINUOUS
 62
    5
 10
513.72979139504559
 20
2110
 11
1263.7297913950453
 21
2110
  0
LINE
  8
_0-3_
  6
CONTINUOUS
 62
    2
 10
525.72979139504559
 20
2560
 11
525.72979139504559
 21
2110
  0
LINE
  8
_0-3_
  6
CONTINUOUS
 62
    2
 10
525.72979139504559
 20
2517.25
 11
1263.7297913950453
 21
2517.25
  0
LINE
  8
_0-3_
  6
CONTINUOUS
 62
    2
 10
525.72979139504559
 20
2159.5
 11
1263.7297913950453
 21
2159.5
  0
LINE
  8
_0-3_
  6
CONTINUOUS
 62
    4
 10
525.72979139504559
 20
2117
 11
1263.7297913950453
 21
2117
  0
LINE
  8
_0-3_
  6
CONTINUOUS
 62
    2
 10
550.72979139504559
 20
2517.25
 11
550.72979139504559
 21
2159.5
  0
LINE
  8
_0-3_
  6
CONTINUOUS
 62
    2
 10
1237.7297913950453
 20
2517.25
 11
1237.7297913950453
 21
2159.5
  0
LINE
  8
_0-3_
  6
CONTINUOUS
 62
    2
 10
879.22979139504559
 20
2517.25
 11
879.22979139504559
 21
2159.5
  0
LINE
  8
_0-3_
  6
CONTINUOUS
 62
    2
 10
909.22979139504559
 20
2517.25
 11
909.22979139504559
 21
2159.5
  0
LINE
  8
_0-a_
  6
CONTINUOUS
 62
    4
 10
1240.7021057342767
 20
2517.2499999999968
 11
1263.7297913950478
 21
2540.2776856607679
  0
LINE
  8
_0-a_
  6
CONTINUOUS
 62
    4
 10
1212.4178344868321
 20
2517.2500000000004
 11
1255.1678344868282
 21
2559.9999999999963
  0
LINE
  8
_0-a_
  6
CONTINUOUS
 62
    4
 10
1184.1335632393677
 20
2517.2500000000031
 11
1226.8835632393638
 21
2559.999999999999
  0
LINE
  8
_0-a_
  6
CONTINUOUS
 62
    4
 10
1155.8492919919031
 20
2517.2500000000045
 11
1198.5992919918992
 21
2560.0000000000009
  0
LINE
  8
_0-a_
  6
CONTINUOUS
 62
    4
 10
1127.5650207444289
 20
2517.2499999999972
 11
1170.3150207444302
 21
2559.9999999999986
  0
LINE
  8
_0-a_
  6
CONTINUOUS
 62
    4
 10
1099.2807494969842
 20
2517.2500000000013
 11
1142.0307494969804
 21
2559.9999999999972
  0
LINE
  8
_0-a_
  6
CONTINUOUS
 62
    4
 10
1070.9964782495201
 20
2517.2500000000036
 11
1113.746478249516
 21
2559.9999999999995
  0
LINE
  8
_0-a_
  6
CONTINUOUS
 62
    4
 10
1042.7122070020545
 20
2517.2500000000045
 11
1085.4622070020504
 21
2560.0000000000009
  0
LINE
  8
_0-a_
  6
CONTINUOUS
 62
    4
 10
1014.4279357545813
 20
2517.2499999999981
 11
1057.1779357545824
 21
2559.9999999999995
  0
LINE
  8
_0-a_
  6
CONTINUOUS
 62
    4
 10
986.14366450713669
 20
2517.2500000000018
 11
1028.8936645071325
 21
2559.9999999999981
  0
LINE
  8
_0-a_
  6
CONTINUOUS
 62
    4
 10
957.85939325967228
 20
2517.2500000000045
 11
1000.6093932596681
 21
2560.0000000000004
  0
LINE
  8
_0-a_
  6
CONTINUOUS
 62
    4
 10
929.5751220122006
 20
2517.2499999999995
 11
972.32512201220197
 21
2560.0000000000009
  0
LINE
  8
_0-a_
  6
CONTINUOUS
 62
    4
 10
901.29085076473347
 20
2517.249999999999
 11
944.04085076473461
 21
2560
  0
LINE
  8
_0-a_
  6
CONTINUOUS
 62
    4
 10
873.00657951728885
 20
2517.2500000000027
 11
915.75657951728499
 21
2559.999999999999
  0
LINE
  8
_0-a_
  6
CONTINUOUS
 62
    4
 10
844.72230826982467
 20
2517.2500000000054
 11
887.47230826982058
 21
2560.0000000000009
  0
LINE
  8
_0-a_
  6
CONTINUOUS
 62
    4
 10
816.43803702235209
 20
2517.2499999999995
 11
859.18803702235345
 21
2560.0000000000009
  0
LINE
  8
_0-a_
  6
CONTINUOUS
 62
    4
 10
788.15376577488564
 20
2517.2499999999995
 11
830.90376577488677
 21
2560.0000000000009
  0
LINE
  8
_0-a_
  6
CONTINUOUS
 62
    4
 10
759.86949452744113
 20
2517.2500000000036
 11
802.61949452743692
 21
2559.9999999999995
  0
LINE
  8
_0-a_
  6
CONTINUOUS
 62
    4
 10
731.58522327997673
 20
2517.2500000000059
 11
774.33522327997275
 21
2560.0000000000022
  0
LINE
  8
_0-a_
  6
CONTINUOUS
 62
    4
 10
703.30095203250209
 20
2517.2499999999981
 11
746.05095203250334
 21
2559.999999999999
  0
LINE
  8
_0-a_
  6
CONTINUOUS
 62
    4
 10
675.01668078505758
 20
2517.2500000000018
 11
717.76668078505338
 21
2559.9999999999977
  0
LINE
  8
_0-a_
  6
CONTINUOUS
 62
    4
 10
646.73240953759318
 20
2517.250000000004
 11
689.48240953758931
 21
2560
  0
LINE
  8
_0-a_
  6
CONTINUOUS
 62
    4
 10
618.44813829012446
 20
2517.2500000000022
 11
661.19813829012059
 21
2559.9999999999981
  0
LINE
  8
_0-a_
  6
CONTINUOUS
 62
    4
 10
590.16386704265437
 20
2517.2499999999986
 11
632.91386704265562
 21
2560
  0
LINE
  8
_0-a_
  6
CONTINUOUS
 62
    4
 10
561.87959579520963
 20
2517.2500000000027
 11
604.62959579520565
 21
2559.9999999999986
  0
LINE
  8
_0-a_
  6
CONTINUOUS
 62
    4
 10
533.59532454774557
 20
2517.250000000005
 11
576.34532454774125
 21
2560.0000000000009
  0
LINE
  8
_0-a_
  6
CONTINUOUS
 62
    4
 10
525.72979139504525
 20
2537.6687380947714
 11
548.06105330027207
 21
2559.9999999999981
  0
LINE
  8
_0-a_
  6
CONTINUOUS
 62
    4
 10
1250.6476319512889
 20
2159.4999999999963
 11
1263.7297913950469
 21
2172.5821594437547
  0
LINE
  8
_0-a_
  6
CONTINUOUS
 62
    4
 10
1237.7297913950474
 20
2174.8664306912219
 11
1263.7297913950442
 21
2200.8664306912187
  0
LINE
  8
_0-a_
  6
CONTINUOUS
 62
    4
 10
1237.7297913950505
 20
2203.1507019386917
 11
1263.7297913950476
 21
2229.1507019386885
  0
LINE
  8
_0-a_
  6
CONTINUOUS
 62
    4
 10
1237.7297913950467
 20
2231.4349731861366
 11
1263.7297913950437
 21
2257.4349731861334
  0
LINE
  8
_0-a_
  6
CONTINUOUS
 62
    4
 10
1237.7297913950442
 20
2259.7192444336005
 11
1263.7297913950415
 21
2285.7192444335978
  0
LINE
  8
_0-a_
  6
CONTINUOUS
 62
    4
 10
1237.7297913950437
 20
2288.0035156810668
 11
1263.7297913950415
 21
2314.0035156810645
  0
LINE
  8
_0-a_
  6
CONTINUOUS
 62
    4
 10
1237.7297913950471
 20
2316.2877869285366
 11
1263.7297913950446
 21
2342.2877869285343
  0
LINE
  8
_0-a_
  6
CONTINUOUS
 62
    4
 10
1237.7297913950487
 20
2344.5720581759869
 11
1263.7297913950455
 21
2370.5720581759837
  0
LINE
  8
_0-a_
  6
CONTINUOUS
 62
    4
 10
1237.729791395046
 20
2372.8563294234509
 11
1263.7297913950426
 21
2398.8563294234477
  0
LINE
  8
_0-a_
  6
CONTINUOUS
 62
    4
 10
1237.7297913950469
 20
2401.1406006709185
 11
1263.729791395049
 21
2427.1406006709207
  0
LINE
  8
_0-a_
  6
CONTINUOUS
 62
    4
 10
1237.7297913950487
 20
2429.4248719183779
 11
1263.729791395046
 21
2455.4248719183751
  0
LINE
  8
_0-a_
  6
CONTINUOUS
 62
    4
 10
1237.7297913950458
 20
2457.7091431658323
 11
1263.7297913950428
 21
2483.7091431658295
  0
LINE
  8
_0-a_
  6
CONTINUOUS
 62
    4
 10
1237.7297913950433
 20
2485.9934144132967
 11
1263.7297913950405
 21
2511.9934144132939
  0
LINE
  8
_0-a_
  6
CONTINUOUS
 62
    4
 10
1237.7297913950515
 20
2514.2776856607715
 11
1240.7021057342742
 21
2517.249999999994
  0
LINE
  8
_0-a_
  6
CONTINUOUS
 62
    4
 10
882.95210573428312
 20
2159.5000000000031
 11
909.22979139504468
 21
2185.7776856607647
  0
LINE
  8
_0-a_
  6
CONTINUOUS
 62
    4
 10
879.22979139504832
 20
2184.0619569082168
 11
909.22979139505036
 21
2214.0619569082186
  0
LINE
  8
_0-a_
  6
CONTINUOUS
 62
    4
 10
879.22979139505082
 20
2212.3462281556858
 11
909.22979139504741
 21
2242.346228155683
  0
LINE
  8
_0-a_
  6
CONTINUOUS
 62
    4
 10
879.22979139504809
 20
2240.6304994031497
 11
909.22979139504468
 21
2270.6304994031465
  0
LINE
  8
_0-a_
  6
CONTINUOUS
 62
    4
 10
879.22979139504673
 20
2268.9147706506155
 11
909.22979139504923
 21
2298.9147706506178
  0
LINE
  8
_0-a_
  6
CONTINUOUS
 62
    4
 10
879.22979139504286
 20
2297.1990418980599
 11
909.22979139504559
 21
2327.1990418980622
  0
LINE
  8
_0-a_
  6
CONTINUOUS
 62
    4
 10
879.22979139504604
 20
2325.4833131455297
 11
909.22979139504286
 21
2355.483313145527
  0
LINE
  8
_0-a_
  6
CONTINUOUS
 62
    4
 10
879.22979139504354
 20
2353.7675843929937
 11
909.22979139504059
 21
2383.767584392991
  0
LINE
  8
_0-a_
  6
CONTINUOUS
 62
    4
 10
879.22979139504423
 20
2382.0518556404613
 11
909.22979139504718
 21
2412.051855640464
  0
LINE
  8
_0-a_
  6
CONTINUOUS
 62
    4
 10
879.229791395044
 20
2410.3361268879098
 11
909.22979139504604
 21
2440.3361268879116
  0
LINE
  8
_0-a_
  6
CONTINUOUS
 62
    4
 10
879.2297913950465
 20
2438.6203981353787
 11
909.22979139504332
 21
2468.6203981353755
  0
LINE
  8
_0-a_
  6
CONTINUOUS
 62
    4
 10
879.22979139504832
 20
2466.9046693828472
 11
909.22979139504559
 21
2496.904669382844
  0
LINE
  8
_0-a_
  6
CONTINUOUS
 62
    4
 10
879.22979139504604
 20
2495.1889406303116
 11
901.29085076473211
 21
2517.2499999999977
  0
LINE
  8
_0-a_
  6
CONTINUOUS
 62
    4
 10
543.54085076473529
 20
2159.5000000000009
 11
550.72979139504377
 21
2166.6889406303098
  0
LINE
  8
_0-a_
  6
CONTINUOUS
 62
    4
 10
525.72979139504184
 20
2169.9732118777556
 11
550.72979139504525
 21
2194.9732118777596
  0
LINE
  8
_0-a_
  6
CONTINUOUS
 62
    4
 10
525.72979139503922
 20
2198.25748312522
 11
550.72979139504298
 21
2223.2574831252236
  0
LINE
  8
_0-a_
  6
CONTINUOUS
 62
    4
 10
525.72979139504298
 20
2226.5417543726907
 11
550.72979139504218
 21
2251.5417543726894
  0
LINE
  8
_0-a_
  6
CONTINUOUS
 62
    4
 10
525.72979139504127
 20
2254.8260256201551
 11
550.72979139504013
 21
2279.8260256201542
  0
LINE
  8
_0-a_
  6
CONTINUOUS
 62
    4
 10
525.72979139504468
 20
2283.1102968676073
 11
550.72979139504809
 21
2308.1102968676104
  0
LINE
  8
_0-a_
  6
CONTINUOUS
 62
    4
 10
525.72979139504184
 20
2311.3945681150707
 11
550.72979139504525
 21
2336.3945681150744
  0
LINE
  8
_0-a_
  6
CONTINUOUS
 62
    4
 10
525.72979139504695
 20
2339.6788393625429
 11
550.72979139504559
 21
2364.6788393625415
  0
LINE
  8
_0-a_
  6
CONTINUOUS
 62
    4
 10
525.72979139504332
 20
2367.9631106099877
 11
550.72979139504184
 21
2392.9631106099859
  0
LINE
  8
_0-a_
  6
CONTINUOUS
 62
    4
 10
525.7297913950407
 20
2396.2473818574517
 11
550.72979139504468
 21
2421.2473818574558
  0
LINE
  8
_0-a_
  6
CONTINUOUS
 62
    4
 10
525.72979139504354
 20
2424.5316531049215
 11
550.72979139504218
 21
2449.5316531049202
  0
LINE
  8
_0-a_
  6
CONTINUOUS
 62
    4
 10
525.72979139504559
 20
2452.81592435239
 11
550.72979139504445
 21
2477.8159243523891
  0
LINE
  8
_0-a_
  6
CONTINUOUS
 62
    4
 10
525.72979139504332
 20
2481.1001955998362
 11
550.72979139504127
 21
2506.1001955998344
  0
LINE
  8
_0-a_
  6
CONTINUOUS
 62
    4
 10
525.72979139504036
 20
2509.3844668472997
 11
533.59532454774443
 21
2517.250000000004
  0
LINE
  8
_0-a_
  6
CONTINUOUS
 62
    4
 10
1236.4319031987583
 20
2116.999999999999
 11
1263.7297913950483
 21
2144.297888196289
  0
LINE
  8
_0-a_
  6
CONTINUOUS
 62
    4
 10
1208.1476319512942
 20
2117.0000000000018
 11
1250.6476319512903
 21
2159.4999999999981
  0
LINE
  8
_0-a_
  6
CONTINUOUS
 62
    4
 10
1179.8633607038239
 20
2116.9999999999986
 11
1222.3633607038257
 21
2159.5
  0
LINE
  8
_0-a_
  6
CONTINUOUS
 62
    4
 10
1151.5790894563551
 20
2116.9999999999963
 11
1194.0790894563567
 21
2159.4999999999977
  0
LINE
  8
_0-a_
  6
CONTINUOUS
 62
    4
 10
1123.2948182089157
 20
2117.0000000000054
 11
1165.7948182089121
 21
2159.5000000000018
  0
LINE
  8
_0-a_
  6
CONTINUOUS
 62
    4
 10
1095.0105469614463
 20
2117.0000000000027
 11
1137.5105469614479
 21
2159.500000000004
  0
LINE
  8
_0-a_
  6
CONTINUOUS
 62
    4
 10
1066.7262757139806
 20
2117.0000000000036
 11
1109.2262757139824
 21
2159.5000000000054
  0
LINE
  8
_0-a_
  6
CONTINUOUS
 62
    4
 10
1038.4420044665127
 20
2117.0000000000022
 11
1080.9420044665141
 21
2159.5000000000036
  0
LINE
  8
_0-a_
  6
CONTINUOUS
 62
    4
 10
1010.1577332190627
 20
2117.0000000000009
 11
1052.657733219059
 21
2159.4999999999972
  0
LINE
  8
_0-a_
  6
CONTINUOUS
 62
    4
 10
981.87346197159331
 20
2116.9999999999981
 11
1024.3734619715949
 21
2159.4999999999995
  0
LINE
  8
_0-a_
  6
CONTINUOUS
 62
    4
 10
953.5891907241239
 20
2116.9999999999954
 11
996.08919072412527
 21
2159.4999999999968
  0
LINE
  8
_0-a_
  6
CONTINUOUS
 62
    4
 10
925.30491947666951
 20
2116.9999999999986
 11
967.80491947667087
 21
2159.5
  0
LINE
  8
_0-a_
  6
CONTINUOUS
 62
    4
 10
897.02064822921511
 20
2117.0000000000018
 11
939.52064822921647
 21
2159.5000000000031
  0
LINE
  8
_0-a_
  6
CONTINUOUS
 62
    4
 10
868.73637698174798
 20
2117.0000000000013
 11
911.23637698174979
 21
2159.5000000000031
  0
LINE
  8
_0-a_
  6
CONTINUOUS
 62
    4
 10
840.4521057342813
 20
2117.0000000000013
 11
882.95210573428289
 21
2159.5000000000027
  0
LINE
  8
_0-a_
  6
CONTINUOUS
 62
    4
 10
812.16783448683145
 20
2117
 11
854.66783448682781
 21
2159.4999999999963
  0
LINE
  8
_0-a_
  6
CONTINUOUS
 62
    4
 10
783.88356323936727
 20
2117.0000000000022
 11
826.38356323936341
 21
2159.4999999999986
  0
LINE
  8
_0-a_
  6
CONTINUOUS
 62
    4
 10
755.59929199189411
 20
2116.9999999999959
 11
798.09929199189582
 21
2159.4999999999977
  0
LINE
  8
_0-a_
  6
CONTINUOUS
 62
    4
 10
727.31502074442823
 20
2116.9999999999968
 11
769.81502074442971
 21
2159.4999999999981
  0
LINE
  8
_0-a_
  6
CONTINUOUS
 62
    4
 10
699.03074949698884
 20
2117.0000000000059
 11
741.5307494969852
 21
2159.5000000000022
  0
LINE
  8
_0-a_
  6
CONTINUOUS
 62
    4
 10
670.74647824951966
 20
2117.0000000000031
 11
713.24647824952103
 21
2159.5000000000045
  0
LINE
  8
_0-a_
  6
CONTINUOUS
 62
    4
 10
642.46220700205094
 20
2117.0000000000013
 11
684.96220700205276
 21
2159.5000000000031
  0
LINE
  8
_0-a_
  6
CONTINUOUS
 62
    4
 10
614.17793575458574
 20
2117.0000000000027
 11
656.67793575458745
 21
2159.5000000000045
  0
LINE
  8
_0-a_
  6
CONTINUOUS
 62
    4
 10
585.89366450713578
 20
2117.0000000000018
 11
628.39366450713214
 21
2159.4999999999977
  0
LINE
  8
_0-a_
  6
CONTINUOUS
 62
    4
 10
557.6093932596666
 20
2116.9999999999986
 11
600.10939325966796
 21
2159.5000000000004
  0
LINE
  8
_0-a_
  6
CONTINUOUS
 62
    4
 10
529.32512201219708
 20
2116.9999999999959
 11
571.82512201219878
 21
2159.4999999999977
  0
LINE
  8
_0-a_
  6
CONTINUOUS
 62
    4
 10
525.72979139504604
 20
2141.6889406303116
 11
543.54085076473438
 21
2159.5
  0
LINE
  8
ADD_LINE
  6
DOT
 62
    9
 10
1293.7297913950453
 20
2590
 11
1293.7297913950453
 21
2080
  0
LINE
  8
ADD_LINE
  6
DOT
 62
    9
 10
341.72979139504491
 20
2609.5344723558582
 11
341.72979139504491
 21
2689.5344723558582
  0
LINE
  8
ADD_LINE
  6
DOT
 62
    9
 10
421.72979139504519
 20
2609.5344723558582
 11
421.72979139504519
 21
2689.5344723558582
  0
LINE
  8
ADD_LINE
  6
DOT
 62
    9
 10
483.72979139504565
 20
2590
 11
483.72979139504565
 21
2080
  0
LINE
  8
ADD_LINE
  6
DOT
 62
    9
 10
1293.7297913950453
 20
2590
 11
483.72979139504565
 21
2590
  0
LINE
  8
ADD_LINE
  6
DOT
 62
    9
 10
483.72979139504565
 20
2080
 11
1293.7297913950453
 21
2080
  0
POINT
  8
_0-9_
 62
    3
 10
341.72979139504519
 20
2110
  0
POINT
  8
_0-9_
 62
    3
 10
341.72979139504519
 20
2560
  0
LINE
  8
_0-9_
  6
CONTINUOUS
 62
    4
 10
331.72979139504519
 20
2110
 11
483.72979139504565
 21
2110
  0
LINE
  8
_0-9_
  6
CONTINUOUS
 62
    4
 10
331.72979139504519
 20
2560
 11
483.72979139504565
 21
2560
  0
LINE
  8
_0-9_
  6
CONTINUOUS
 62
    4
 10
341.72979139504519
 20
2110
 11
341.72979139504519
 21
2560
  0
TEXT
  8
_0-9_
 62
    7
 10
341.72979139504519
 20
2301.9
 40
35
 41
0.6285714285714286
 50
90
  1
４５０
  0
POINT
  8
_0-9_
 62
    3
 10
1413.7297913950453
 20
2560
  0
LINE
  8
_0-9_
  6
CONTINUOUS
 62
    4
 10
1413.7297913950453
 20
2560
 11
1413.7297913950453
 21
2674.8472382481313
  0
POINT
  8
_0-9_
 62
    3
 10
1413.7297913950453
 20
2560
  0
POINT
  8
_0-9_
 62
    3
 10
1413.7297913950453
 20
2517.5
  0
POINT
  8
_0-9_
 62
    3
 10
1413.7297913950453
 20
2159.5
  0
POINT
  8
_0-9_
 62
    3
 10
1413.7297913950453
 20
2117
  0
POINT
  8
_0-9_
 62
    3
 10
1413.7297913950453
 20
2110
  0
LINE
  8
_0-9_
  6
CONTINUOUS
 62
    4
 10
1423.7297913950453
 20
2110
 11
1293.7297913950453
 21
2110
  0
LINE
  8
_0-9_
  6
CONTINUOUS
 62
    4
 10
1423.7297913950453
 20
2117
 11
1293.7297913950453
 21
2117
  0
LINE
  8
_0-9_
  6
CONTINUOUS
 62
    4
 10
1423.7297913950453
 20
2159.5
 11
1293.7297913950453
 21
2159.5
  0
LINE
  8
_0-9_
  6
CONTINUOUS
 62
    4
 10
1423.7297913950453
 20
2517.5
 11
1293.7297913950453
 21
2517.5
  0
LINE
  8
_0-9_
  6
CONTINUOUS
 62
    4
 10
1413.7297913950453
 20
2560
 11
1293.7297913950453
 21
2560
  0
LINE
  8
_0-9_
  6
CONTINUOUS
 62
    4
 10
1413.7297913950453
 20
2110
 11
1413.7297913950453
 21
2072.16443671057
  0
LINE
  8
_0-9_
  6
CONTINUOUS
 62
    4
 10
1413.7297913950453
 20
2560
 11
1413.7297913950453
 21
2517.5
  0
TEXT
  8
_0-9_
 62
    7
 10
1408.56875191278
 20
2581.8375495409622
 40
35
 41
0.6285714285714286
 50
90
  1
４２.５
  0
LINE
  8
_0-9_
  6
CONTINUOUS
 62
    4
 10
1413.7297913950453
 20
2117
 11
1413.7297913950453
 21
2110
  0
TEXT
  8
_0-9_
 62
    7
 10
1412.2256994209915
 20
2086.4637461623965
 40
35
 41
0.6285714285714286
 50
90
  1
７
  0
LINE
  8
_0-9_
  6
CONTINUOUS
 62
    4
 10
1413.7297913950453
 20
2517.5
 11
1413.7297913950453
 21
2159.5
  0
TEXT
  8
_0-9_
 62
    7
 10
1413.7297913950453
 20
2305.4
 40
35
 41
0.6285714285714286
 50
90
  1
３５８
  0
LINE
  8
_0-9_
  6
CONTINUOUS
 62
    4
 10
1413.7297913950453
 20
2159.5
 11
1413.7297913950453
 21
2117
  0
TEXT
  8
_0-9_
 62
    7
 10
1462.9609658294007
 20
2099.625
 40
35
 41
0.6285714285714286
 50
90
  1
４２.５
  0
POINT
  8
_0-9_
 62
    3
 10
1263.7297913950453
 20
2730
  0
POINT
  8
_0-9_
 62
    3
 10
513.72979139504559
 20
2730
  0
LINE
  8
_0-9_
  6
CONTINUOUS
 62
    4
 10
1263.7297913950453
 20
2740
 11
1263.7297913950453
 21
2590
  0
LINE
  8
_0-9_
  6
CONTINUOUS
 62
    4
 10
513.72979139504559
 20
2740
 11
513.72979139504559
 21
2590
  0
LINE
  8
_0-9_
  6
CONTINUOUS
 62
    4
 10
1263.7297913950453
 20
2730
 11
513.72979139504559
 21
2730
  0
TEXT
  8
_0-9_
 62
    7
 10
855.62979139504545
 20
2735
 40
35
 41
0.6285714285714286
 50
0
  1
７５０
  0
POINT
  8
_0-9_
 62
    3
 10
525.72979139504559
 20
1926.0397653194263
  0
POINT
  8
_0-9_
 62
    3
 10
525.72979139504559
 20
1926.0397653194263
  0
POINT
  8
_0-9_
 62
    3
 10
550.72979139504559
 20
1926.0397653194263
  0
POINT
  8
_0-9_
 62
    3
 10
879.22979139504559
 20
1926.0397653194263
  0
LINE
  8
_0-9_
  6
CONTINUOUS
 62
    4
 10
550.72979139504559
 20
1926.0397653194263
 11
879.22979139504559
 21
1926.0397653194263
  0
TEXT
  8
_0-9_
 62
    7
 10
665.30479139504541
 20
1931.0397653194263
 40
35
 41
0.6285714285714286
 50
0
  1
３２８.５
  0
POINT
  8
_0-9_
 62
    3
 10
909.22979139504559
 20
1926.0397653194263
  0
POINT
  8
_0-9_
 62
    3
 10
1237.7297913950453
 20
1926.0397653194263
  0
LINE
  8
_0-9_
  6
CONTINUOUS
 62
    4
 10
909.22979139504559
 20
1926.0397653194263
 11
1237.7297913950453
 21
1926.0397653194263
  0
TEXT
  8
_0-9_
 62
    7
 10
1023.8047913950454
 20
1931.0397653194263
 40
35
 41
0.6285714285714286
 50
0
  1
３２８.５
  0
LINE
  8
_0-9_
  6
CONTINUOUS
 62
    4
 10
879.22979139504559
 20
1926.0397653194263
 11
909.22979139504559
 21
1926.0397653194263
  0
TEXT
  8
_0-9_
 62
    7
 10
835.09605007583195
 20
1931.0397653194263
 40
35
 41
0.6285714285714286
 50
0
  1
３０
  0
LINE
  8
_0-9_
  6
CONTINUOUS
 62
    4
 10
525.72979139504559
 20
1926.0397653194263
 11
550.72979139504559
 21
1926.0397653194263
  0
TEXT
  8
_0-9_
 62
    7
 10
475.6196910837346
 20
1931.0397653194263
 40
35
 41
0.6285714285714286
 50
0
  1
２５
  0
POINT
  8
_0-9_
 62
    3
 10
1237.7297913950453
 20
1926.0397653194263
  0
POINT
  8
_0-9_
 62
    3
 10
1262.7297913950453
 20
1926.0397653194263
  0
LINE
  8
_0-9_
  6
CONTINUOUS
 62
    4
 10
1237.7297913950453
 20
1926.0397653194263
 11
1262.7297913950453
 21
1926.0397653194263
  0
TEXT
  8
_0-9_
 62
    7
 10
1271.156502940159
 20
1931.0397653194263
 40
35
 41
0.6285714285714286
 50
0
  1
２５
  0
LINE
  8
_0-3_
  6
DASHED1
 62
    9
 10
1765
 20
2251
 11
1750
 21
2251
  0
LINE
  8
_0-3_
  6
DASHED1
 62
    9
 10
1765
 20
2281
 11
1750
 21
2281
  0
LINE
  8
_0-3_
  6
DASHED1
 62
    9
 10
1765
 20
2281
 11
1750
 21
2251
  0
LINE
  8
_0-3_
  6
DASHED1
 62
    9
 10
1765
 20
2484
 11
1750
 21
2484
  0
LINE
  8
_0-3_
  6
DASHED1
 62
    9
 10
1765
 20
2541
 11
1750
 21
2541
  0
LINE
  8
_0-3_
  6
DASHED1
 62
    9
 10
1765
 20
2541
 11
1750
 21
2484
  0
LINE
  8
_0-3_
  6
DASHED1
 62
    9
 10
1775
 20
2560
 11
1775
 21
2542.5
  0
LINE
  8
_0-3_
  6
DASHED1
 62
    9
 10
2103.5
 20
2560
 11
2103.5
 21
2542.5
  0
LINE
  8
_0-3_
  6
DASHED1
 62
    9
 10
2133.5
 20
2560
 11
2133.5
 21
2542.5
  0
LINE
  8
_0-3_
  6
DASHED1
 62
    9
 10
2133.5
 20
2560
 11
2103.5
 21
2542.5
  0
LINE
  8
_0-3_
  6
DASHED1
 62
    9
 10
2463
 20
2542.5
 11
2463
 21
2560
  0
LINE
  8
_0-3_
  6
DASHED1
 62
    9
 10
2488
 20
2560
 11
2463
 21
2542.5
  0
LINE
  8
_0-9_
  6
CONTINUOUS
 62
    4
 10
1262.7297913950453
 20
1916.0397653194263
 11
1262.7297913950453
 21
2080
  0
LINE
  8
_0-9_
  6
CONTINUOUS
 62
    4
 10
1237.7297913950453
 20
1916.0397653194263
 11
1237.7297913950453
 21
2080
  0
LINE
  8
_0-9_
  6
CONTINUOUS
 62
    4
 10
525.72979139504559
 20
1916.0397653194263
 11
525.72979139504559
 21
2080
  0
LINE
  8
_0-9_
  6
CONTINUOUS
 62
    4
 10
525.72979139504559
 20
1916.0397653194263
 11
525.72979139504559
 21
2080
  0
LINE
  8
_0-9_
  6
CONTINUOUS
 62
    4
 10
550.72979139504559
 20
1916.0397653194263
 11
550.72979139504559
 21
2080
  0
LINE
  8
_0-9_
  6
CONTINUOUS
 62
    4
 10
879.22979139504559
 20
1916.0397653194263
 11
879.22979139504559
 21
2080
  0
LINE
  8
_0-9_
  6
CONTINUOUS
 62
    4
 10
909.22979139504559
 20
1916.0397653194263
 11
909.22979139504559
 21
2080
  0
LINE
  8
_0-9_
  6
CONTINUOUS
 62
    4
 10
1237.7297913950453
 20
1916.0397653194263
 11
1237.7297913950453
 21
2080
  0
LINE
  8
_0-a_
  6
CONTINUOUS
 62
    4
 10
464.68759132867234
 20
726.49999999999397
 11
465.50000000000551
 21
727.31240867132714
  0
LINE
  8
_0-a_
  6
CONTINUOUS
 62
    4
 10
450.00000000000284
 20
740.09667991879109
 11
465.50000000000295
 21
755.59667991879132
  0
LINE
  8
_0-a_
  6
CONTINUOUS
 62
    4
 10
449.99999999999886
 20
768.38095116623571
 11
465.49999999999897
 21
783.88095116623594
  0
LINE
  8
_0-a_
  6
CONTINUOUS
 62
    4
 10
450.0000000000017
 20
796.66522241370512
 11
465.50000000000181
 21
812.16522241370523
  0
LINE
  8
_0-a_
  6
CONTINUOUS
 62
    4
 10
450.00000000000397
 20
824.94949366117441
 11
465.50000000000466
 21
840.44949366117475
  0
LINE
  8
_0-a_
  6
CONTINUOUS
 62
    4
 10
450.0000000000017
 20
853.2337649086387
 11
465.50000000000181
 21
868.73376490863893
  0
LINE
  8
_0-a_
  6
CONTINUOUS
 62
    4
 10
449.99999999999943
 20
881.51803615608503
 11
465.50000000000011
 21
897.01803615608537
  0
LINE
  8
_0-a_
  6
CONTINUOUS
 62
    4
 10
450.00000000000056
 20
909.8023074035525
 11
465.50000000000068
 21
925.30230740355261
  0
LINE
  8
_0-a_
  6
CONTINUOUS
 62
    4
 10
450.00000000000341
 20
938.08657865102202
 11
465.50000000000352
 21
953.58657865102202
  0
LINE
  8
_0-a_
  6
CONTINUOUS
 62
    4
 10
449.99999999999943
 20
966.37084989846653
 11
465.49999999999954
 21
981.87084989846675
  0
LINE
  8
_0-a_
  6
CONTINUOUS
 62
    4
 10
450
 20
994.65512114593377
 11
465.50000000000039
 21
1010.1551211459342
  0
LINE
  8
_0-a_
  6
CONTINUOUS
 62
    4
 10
449.99999999999943
 20
1022.9393923934001
 11
465.50000000000522
 21
1038.4393923934055
  0
LINE
  8
_0-a_
  6
CONTINUOUS
 62
    4
 10
450.00000000000227
 20
1051.2236636408695
 11
465.50000000000238
 21
1066.7236636408697
  0
LINE
  8
_0-a_
  6
CONTINUOUS
 62
    4
 10
449.99999999999829
 20
1079.5079348883139
 11
465.4999999999984
 21
1095.0079348883141
  0
LINE
  8
_0-a_
  6
CONTINUOUS
 62
    4
 10
450.00000000000113
 20
1107.7922061357835
 11
465.50000000000125
 21
1123.2922061357835
  0
LINE
  8
_0-a_
  6
CONTINUOUS
 62
    4
 10
450.00000000000341
 20
1136.0764773832524
 11
465.50000000000409
 21
1151.5764773832531
  0
LINE
  8
_0-a_
  6
CONTINUOUS
 62
    4
 10
450.00000000000113
 20
1164.3607486307168
 11
455.63925136928276
 21
1169.9999999999986
  0
LINE
  8
_0-9_
  6
CONTINUOUS
 62
    4
 10
1600
 20
2640
 11
1571.022225211328
 21
2647.7645713530755
  0
LINE
  8
_0-9_
  6
CONTINUOUS
 62
    4
 10
1600
 20
2640
 11
1571.022225211328
 21
2632.2354286469244
  0
LINE
  8
_0-9_
  6
PHANTOM2
 62
    4
 10
1500
 20
2640
 11
1600
 21
2640
  0
TEXT
  8
_0-9_
 62
    7
 10
1603.0652047321746
 20
2622.5
 40
35
 41
0.857142857142857
 50
0
  1
Ｄ
  0
LINE
  8
_0-9_
  6
PHANTOM2
 62
    4
 10
1500
 20
2640
 11
1500
 21
1730
  0
LINE
  8
_0-9_
  6
PHANTOM2
 62
    4
 10
1500
 20
1730
 11
1600
 21
1730
  0
TEXT
  8
_0-9_
 62
    7
 10
1603.0652047321746
 20
1712.5
 40
35
 41
0.857142857142857
 50
0
  1
Ｄ
  0
LINE
  8
_0-9_
  6
CONTINUOUS
 62
    4
 10
1600
 20
1730
 11
1571.022225211328
 21
1737.7645713530755
  0
LINE
  8
_0-9_
  6
CONTINUOUS
 62
    4
 10
1600
 20
1730
 11
1571.0222252113276
 21
1722.2354286469244
  0
LINE
  8
ADD_LINE
  6
DOT
 62
    9
 10
3544.1949478739797
 20
1134.2
 11
3527.0335358677084
 21
1134.2
  0
LINE
  8
_1-2_
  6
DASHED1
 62
    4
 10
3544.2000000000007
 20
1135.5
 11
3548.7000000000007
 21
1137.7920467793796
  0
LINE
  8
_1-2_
  6
DASHED1
 62
    4
 10
3544.2000000000007
 20
1135.5
 11
3544.2000000000007
 21
1125.4878658602779
  0
LINE
  8
_1-2_
  6
DASHED1
 62
    4
 10
3544.2000000000007
 20
1155
 11
3584.2000000000007
 21
1155
  0
LINE
  8
_1-2_
  6
DASHED1
 62
    4
 10
3535.7185157441886
 20
1137.6013624327906
 11
3535.3917355251728
 21
1137.2732553464036
  0
LINE
  8
_1-2_
  6
DASHED1
 62
    4
 10
3535.3917355251728
 20
1137.2732553464036
 11
3535.2463990570795
 21
1136.7827447665877
  0
LINE
  8
_1-2_
  6
DASHED1
 62
    4
 10
3535.2463990570795
 20
1136.7827447665877
 11
3535.2100649400563
 21
1136.1105636016545
  0
LINE
  8
_1-2_
  6
DASHED1
 62
    4
 10
3535.2100649400563
 20
1136.1105636016545
 11
3535.2827331741032
 21
1133.8396812876912
  0
LINE
  8
_1-2_
  6
DASHED1
 62
    4
 10
3535.2827331741032
 20
1133.8396812876912
 11
3535.6325522391325
 21
1133.1216316278935
  0
LINE
  8
_1-2_
  6
DASHED1
 62
    4
 10
3541.6329318247057
 20
1127.0021978777099
 11
3538.5556012711185
 21
1129.402377492222
  0
LINE
  8
_1-2_
  6
DASHED1
 62
    4
 10
3541.6329318247057
 20
1127.0021978777099
 11
3543.1449154325082
 21
1125.6985197713913
  0
LINE
  8
_1-2_
  6
DASHED1
 62
    4
 10
3543.1449154325082
 20
1125.6985197713913
 11
3543.4428181892908
 21
1125.4668176272273
  0
ARC
  8
_1-2_
  6
DASHED1
 62
    4
 10
3543.8086274596753
 20
1125.9371438320074
 40
0.5958382005226686
 50
232.1250163489023
 51
311.05959377676362
  0
ARC
  8
_1-2_
  6
DASHED1
 62
    4
 10
3562.5000000000004
 20
1127
 40
2
 50
180
 51
270
  0
LINE
  8
_1-2_
  6
DASHED1
 62
    4
 10
3582.2000000000007
 20
1125
 11
3562.5000000000004
 21
1125
  0
LINE
  8
_1-2_
  6
DASHED1
 62
    4
 10
3584.2000000000007
 20
1127
 11
3584.2000000000007
 21
1155
  0
ARC
  8
_1-2_
  6
DASHED1
 62
    4
 10
3582.2000000000007
 20
1127
 40
2
 50
270
 51
0
  0
LINE
  8
_1-2_
  6
DASHED1
 62
    4
 10
3544.2000000000007
 20
1143.3678089202321
 11
3535.7185157441886
 21
1137.6013624327906
  0
LINE
  8
_1-2_
  6
DASHED1
 62
    4
 10
3566.3500000000003
 20
1152.5
 11
3566.3500000000003
 21
1125
  0
LINE
  8
_1-2_
  6
DASHED1
 62
    4
 10
3560.5000000000009
 20
1130.7921327125613
 11
3560.5000000000009
 21
1127
  0
ARC
  8
_1-2_
  6
DASHED1
 62
    4
 10
3558.5
 20
1130.7921327125613
 40
2
 50
0
 51
64.02038324662044
  0
LINE
  8
_1-2_
  6
DASHED1
 62
    4
 10
3544.2000000000007
 20
1141.2354637558544
 11
3544.2000000000007
 21
1155
  0
LINE
  8
_1-2_
  6
DASHED1
 62
    4
 10
3545.3238972624203
 20
1139.437563871766
 11
3559.3761027375803
 21
1132.5900325966499
  0
ARC
  8
_1-2_
  6
DASHED1
 62
    4
 10
3546.2000000000007
 20
1141.2354637558544
 40
2
 50
179.99999999999994
 51
244.02038324662041
  0
LINE
  8
_1-2_
  6
DASHED1
 62
    4
 10
3562.5000000000004
 20
1125
 11
3562.5000000000004
 21
1152.5
  0
LINE
  8
_1-2_
  6
DASHED1
 62
    4
 10
3584.2000000000007
 20
1152.5
 11
3544.2000000000007
 21
1152.5
  0
LINE
  8
_1-2_
  6
DASHED1
 62
    4
 10
3538.5556012711185
 20
1129.402377492222
 11
3535.6323784167116
 21
1133.121988421285
  0
LINE
  8
_1-2_
  6
DASHED1
 62
    4
 10
3537.0000000000004
 20
1140.7
 11
3534.0000000000004
 21
1140.7
  0
LINE
  8
_1-2_
  6
DASHED1
 62
    4
 10
3534.0000000000004
 20
1140.7
 11
3534.0000000000004
 21
1126.7
  0
LINE
  8
_1-2_
  6
DASHED1
 62
    4
 10
3535.5000000000009
 20
1140.7
 11
3535.5000000000009
 21
1126.7000000000002
  0
LINE
  8
_1-2_
  6
DASHED1
 62
    4
 10
3559.0000000000004
 20
1126.7
 11
3534.0000000000004
 21
1126.7
  0
ARC
  8
_1-2_
  6
DASHED1
 62
    4
 10
3559.0000000000004
 20
1128.7
 40
2
 50
270
 51
0
  0
LINE
  8
_1-2_
  6
DASHED1
 62
    4
 10
3561.0000000000009
 20
1128.7138865546567
 11
3561.0000000000009
 21
1128.7
  0
LINE
  8
_1-2_
  6
DASHED1
 62
    4
 10
3560.2480096898252
 20
1129.8927357307004
 11
3537.0000000000004
 21
1140.7
  0
ARC
  8
_1-2_
  6
DASHED1
 62
    4
 10
3559.7000000000007
 20
1128.7138865546567
 40
1.3
 50
0
 51
65.067773887701051
  0
LINE
  8
ADD_LINE
  6
DOT
 62
    9
 10
2085.8050521260202
 20
1134.2
 11
2102.9664641322915
 21
1134.2
  0
LINE
  8
_1-2_
  6
DASHED1
 62
    4
 10
2085.7999999999992
 20
1135.5
 11
2081.2999999999992
 21
1137.7920467793796
  0
LINE
  8
_1-2_
  6
DASHED1
 62
    4
 10
2085.7999999999992
 20
1135.5
 11
2085.7999999999992
 21
1125.4878658602779
  0
LINE
  8
_1-2_
  6
DASHED1
 62
    4
 10
2085.7999999999992
 20
1155
 11
2045.7999999999992
 21
1155
  0
LINE
  8
_1-2_
  6
DASHED1
 62
    4
 10
2094.2814842558113
 20
1137.6013624327906
 11
2094.6082644748271
 21
1137.2732553464036
  0
LINE
  8
_1-2_
  6
DASHED1
 62
    4
 10
2094.6082644748271
 20
1137.2732553464036
 11
2094.7536009429204
 21
1136.7827447665877
  0
LINE
  8
_1-2_
  6
DASHED1
 62
    4
 10
2094.7536009429204
 20
1136.7827447665877
 11
2094.7899350599436
 21
1136.1105636016545
  0
LINE
  8
_1-2_
  6
DASHED1
 62
    4
 10
2094.7899350599436
 20
1136.1105636016545
 11
2094.7172668258967
 21
1133.8396812876912
  0
LINE
  8
_1-2_
  6
DASHED1
 62
    4
 10
2094.7172668258967
 20
1133.8396812876912
 11
2094.3674477608674
 21
1133.1216316278935
  0
LINE
  8
_1-2_
  6
DASHED1
 62
    4
 10
2088.3670681752942
 20
1127.0021978777099
 11
2091.4443987288814
 21
1129.402377492222
  0
LINE
  8
_1-2_
  6
DASHED1
 62
    4
 10
2088.3670681752942
 20
1127.0021978777099
 11
2086.8550845674917
 21
1125.6985197713913
  0
LINE
  8
_1-2_
  6
DASHED1
 62
    4
 10
2086.8550845674917
 20
1125.6985197713913
 11
2086.5571818107091
 21
1125.4668176272273
  0
ARC
  8
_1-2_
  6
DASHED1
 62
    4
 10
2086.1913725403246
 20
1125.9371438320074
 40
0.5958382005226686
 50
228.94040622323635
 51
307.87498365109757
  0
ARC
  8
_1-2_
  6
DASHED1
 62
    4
 10
2067.4999999999995
 20
1127
 40
2
 50
270
 51
0
  0
LINE
  8
_1-2_
  6
DASHED1
 62
    4
 10
2047.7999999999992
 20
1125
 11
2067.4999999999995
 21
1125
  0
LINE
  8
_1-2_
  6
DASHED1
 62
    4
 10
2045.7999999999992
 20
1127
 11
2045.7999999999992
 21
1155
  0
ARC
  8
_1-2_
  6
DASHED1
 62
    4
 10
2047.7999999999992
 20
1127
 40
2
 50
180
 51
270
  0
LINE
  8
_1-2_
  6
DASHED1
 62
    4
 10
2085.7999999999992
 20
1143.3678089202321
 11
2094.2814842558113
 21
1137.6013624327906
  0
LINE
  8
_1-2_
  6
DASHED1
 62
    4
 10
2063.6499999999996
 20
1152.5
 11
2063.6499999999996
 21
1125
  0
LINE
  8
_1-2_
  6
DASHED1
 62
    4
 10
2069.499999999999
 20
1130.7921327125613
 11
2069.499999999999
 21
1127
  0
ARC
  8
_1-2_
  6
DASHED1
 62
    4
 10
2071.5
 20
1130.7921327125613
 40
2
 50
115.97961675337953
 51
180
  0
LINE
  8
_1-2_
  6
DASHED1
 62
    4
 10
2085.7999999999992
 20
1141.2354637558544
 11
2085.7999999999992
 21
1155
  0
LINE
  8
_1-2_
  6
DASHED1
 62
    4
 10
2084.6761027375796
 20
1139.437563871766
 11
2070.6238972624196
 21
1132.5900325966499
  0
ARC
  8
_1-2_
  6
DASHED1
 62
    4
 10
2083.7999999999992
 20
1141.2354637558544
 40
2
 50
295.97961675337955
 51
0.0000000000000763
  0
LINE
  8
_1-2_
  6
DASHED1
 62
    4
 10
2067.4999999999995
 20
1125
 11
2067.4999999999995
 21
1152.5
  0
LINE
  8
_1-2_
  6
DASHED1
 62
    4
 10
2045.7999999999992
 20
1152.5
 11
2085.7999999999992
 21
1152.5
  0
LINE
  8
_1-2_
  6
DASHED1
 62
    4
 10
2091.4443987288814
 20
1129.402377492222
 11
2094.3676215832883
 21
1133.121988421285
  0
LINE
  8
_1-2_
  6
DASHED1
 62
    4
 10
2092.9999999999995
 20
1140.7
 11
2095.9999999999995
 21
1140.7
  0
LINE
  8
_1-2_
  6
DASHED1
 62
    4
 10
2095.9999999999995
 20
1140.7
 11
2095.9999999999995
 21
1126.7
  0
LINE
  8
_1-2_
  6
DASHED1
 62
    4
 10
2094.499999999999
 20
1140.7
 11
2094.499999999999
 21
1126.7000000000002
  0
LINE
  8
_1-2_
  6
DASHED1
 62
    4
 10
2070.9999999999995
 20
1126.7
 11
2095.9999999999995
 21
1126.7
  0
ARC
  8
_1-2_
  6
DASHED1
 62
    4
 10
2070.9999999999995
 20
1128.7
 40
2
 50
180
 51
270
  0
LINE
  8
_1-2_
  6
DASHED1
 62
    4
 10
2068.999999999999
 20
1128.7138865546567
 11
2068.999999999999
 21
1128.7
  0
LINE
  8
_1-2_
  6
DASHED1
 62
    4
 10
2069.7519903101747
 20
1129.8927357307004
 11
2092.9999999999995
 21
1140.7
  0
ARC
  8
_1-2_
  6
DASHED1
 62
    4
 10
2070.2999999999992
 20
1128.7138865546567
 40
1.3
 50
114.93222611229894
 51
180
  0
LINE
  8
ADD_LINE
  6
DOT
 62
    9
 10
3375.4999999999995
 20
1134.2
 11
3421.9
 21
1134.2
  0
LINE
  8
ADD_LINE
  6
DOT
 62
    9
 10
3379.5
 20
1125.1530751592656
 11
3379.5
 21
1145.8603232247412
  0
LINE
  8
ADD_LINE
  6
DOT
 62
    9
 10
3417.5
 20
1125.1530751592656
 11
3417.5
 21
1145.8603232247412
  0
ARC
  8
_1-2_
  6
DASHED1
 62
    4
 10
3385.1999999999998
 20
1127.1530751592654
 40
2
 50
180
 51
270
  0
LINE
  8
_1-2_
  6
DASHED1
 62
    4
 10
3375.4999999999995
 20
1155.1530751592656
 11
3421.9
 21
1155.1530751592656
  0
ARC
  8
_1-2_
  6
DASHED1
 62
    4
 10
3386.5499999999997
 20
1127.1530751592654
 40
2
 50
180
 51
270
  0
ARC
  8
_1-2_
  6
DASHED1
 62
    4
 10
3412.1999999999998
 20
1127.1530751592654
 40
2
 50
270
 51
0
  0
LINE
  8
_1-2_
  6
DASHED1
 62
    4
 10
3412.1999999999998
 20
1125.1530751592656
 11
3385.1999999999998
 21
1125.1530751592656
  0
ARC
  8
_1-2_
  6
DASHED1
 62
    4
 10
3410.8499999999999
 20
1127.1530751592654
 40
2
 50
270
 51
0
  0
LINE
  8
_1-2_
  6
DASHED1
 62
    4
 10
3393.4999999999995
 20
1155.1530751592656
 11
3393.4999999999995
 21
1125.1530751592656
  0
LINE
  8
_1-2_
  6
DASHED1
 62
    4
 10
3403.8999999999996
 20
1155.1530751592656
 11
3403.8999999999996
 21
1125.1530751592656
  0
LINE
  8
_1-2_
  6
DASHED1
 62
    4
 10
3375.4999999999995
 20
1153.1530751592654
 11
3375.4999999999995
 21
1155.1530751592656
  0
ARC
  8
_1-2_
  6
DASHED1
 62
    4
 10
3376.5
 20
1153.1530751592654
 40
1
 50
180
 51
270
  0
LINE
  8
_1-2_
  6
DASHED1
 62
    4
 10
3421.9
 20
1153.1530751592654
 11
3421.9
 21
1155.1530751592656
  0
ARC
  8
_1-2_
  6
DASHED1
 62
    4
 10
3420.8999999999996
 20
1153.1530751592654
 40
1
 50
270
 51
0
  0
LINE
  8
_1-2_
  6
DASHED1
 62
    4
 10
3384.5499999999997
 20
1150.1530751592656
 11
3384.5499999999997
 21
1127.1530751592654
  0
ARC
  8
_1-2_
  6
DASHED1
 62
    4
 10
3382.5500000000001
 20
1150.1530751592656
 40
2
 50
0.0000000000000035
 51
90
  0
LINE
  8
_1-2_
  6
DASHED1
 62
    4
 10
3381.1999999999993
 20
1152.1530751592654
 11
3376.5
 21
1152.1530751592654
  0
LINE
  8
_1-2_
  6
DASHED1
 62
    4
 10
3383.1999999999993
 20
1150.1530751592656
 11
3383.1999999999993
 21
1127.1530751592654
  0
ARC
  8
_1-2_
  6
DASHED1
 62
    4
 10
3381.1999999999993
 20
1150.1530751592656
 40
2
 50
0.0000000000000035
 51
90
  0
LINE
  8
_1-2_
  6
DASHED1
 62
    4
 10
3412.8499999999994
 20
1150.1530751592656
 11
3412.8499999999994
 21
1127.1530751592654
  0
ARC
  8
_1-2_
  6
DASHED1
 62
    4
 10
3414.8500000000003
 20
1150.1530751592656
 40
2
 50
90
 51
180
  0
LINE
  8
_1-2_
  6
DASHED1
 62
    4
 10
3416.1999999999998
 20
1152.1530751592654
 11
3420.8999999999996
 21
1152.1530751592654
  0
LINE
  8
_1-2_
  6
DASHED1
 62
    4
 10
3414.1999999999998
 20
1150.1530751592656
 11
3414.1999999999998
 21
1127.1530751592654
  0
ARC
  8
_1-2_
  6
DASHED1
 62
    4
 10
3416.1999999999998
 20
1150.1530751592656
 40
2
 50
90
 51
180
  0
LINE
  8
_1-2_
  6
DASHED1
 62
    4
 10
3382.5500000000001
 20
1152.1530751592654
 11
3381.3673732786351
 21
1152.1603427350678
  0
LINE
  8
_1-2_
  6
DASHED1
 62
    4
 10
3414.8500000000003
 20
1152.1530751592654
 11
3416.2257560758876
 21
1152.1594632025444
  0
LINE
  8
_1-2_
  6
DASHED1
 62
    4
 10
3381.3499999999999
 20
1132.7469248407342
 11
3381.3499999999999
 21
1135.7469248407344
  0
LINE
  8
_1-2_
  6
DASHED1
 62
    4
 10
3377.6499999999996
 20
1132.7469248407342
 11
3377.6499999999996
 21
1135.7469248407344
  0
LINE
  8
_1-2_
  6
DASHED1
 62
    4
 10
3376.5
 20
1132.7469248407342
 11
3376.5
 21
1135.7469248407344
  0
LINE
  8
_1-2_
  6
DASHED1
 62
    4
 10
3382.5
 20
1132.7469248407342
 11
3382.5
 21
1135.7469248407344
  0
LINE
  8
_1-2_
  6
DASHED1
 62
    4
 10
3414.5
 20
1132.7469248407342
 11
3414.5
 21
1135.7469248407344
  0
LINE
  8
_1-2_
  6
DASHED1
 62
    4
 10
3415.65
 20
1132.7469248407342
 11
3415.65
 21
1135.7469248407344
  0
LINE
  8
_1-2_
  6
DASHED1
 62
    4
 10
3419.3499999999999
 20
1132.7469248407342
 11
3419.3499999999999
 21
1135.7469248407344
  0
LINE
  8
_1-2_
  6
DASHED1
 62
    4
 10
3420.5
 20
1132.7469248407342
 11
3420.5
 21
1135.7469248407344
  0
ARC
  8
_1-2_
  6
DASHED1
 62
    4
 10
3377
 20
1129.2469248407342
 40
2
 50
180
 51
270
  0
LINE
  8
_1-2_
  6
DASHED1
 62
    4
 10
3375
 20
1139.2469248407342
 11
3375
 21
1129.2469248407342
  0
ARC
  8
_1-2_
  6
DASHED1
 62
    4
 10
3377
 20
1139.2469248407342
 40
2
 50
90
 51
180
  0
LINE
  8
_1-2_
  6
DASHED1
 62
    4
 10
3420
 20
1141.2469248407344
 11
3377
 21
1141.2469248407344
  0
ARC
  8
_1-2_
  6
DASHED1
 62
    4
 10
3420
 20
1139.2469248407342
 40
2
 50
0.0000000000000127
 51
90.000000000000014
  0
LINE
  8
_1-2_
  6
DASHED1
 62
    4
 10
3420
 20
1127.2469248407344
 11
3377
 21
1127.2469248407344
  0
LINE
  8
_1-2_
  6
DASHED1
 62
    4
 10
3422
 20
1129.2469248407342
 11
3422
 21
1139.2469248407342
  0
ARC
  8
_1-2_
  6
DASHED1
 62
    4
 10
3420
 20
1129.2469248407342
 40
2
 50
270
 51
0
  0
ARC
  8
_1-2_
  6
DASHED1
 62
    4
 10
3417.5
 20
1132.7469248407342
 40
2.9999999999999982
 50
180
 51
0
  0
ARC
  8
_1-2_
  6
DASHED1
 62
    4
 10
3417.5
 20
1135.7469248407344
 40
2.9999999999999982
 50
0
 51
180
  0
ARC
  8
_1-2_
  6
DASHED1
 62
    4
 10
3379.5
 20
1132.7469248407342
 40
2.9999999999999893
 50
180
 51
0
  0
ARC
  8
_1-2_
  6
DASHED1
 62
    4
 10
3379.5
 20
1135.7469248407344
 40
3.0000000000000071
 50
0
 51
180
  0
ARC
  8
_1-2_
  6
DASHED1
 62
    4
 10
3379.5
 20
1135.7469248407344
 40
1.8500000000000582
 50
0
 51
180
  0
ARC
  8
_1-2_
  6
DASHED1
 62
    4
 10
3379.5
 20
1132.7469248407342
 40
1.8500000000000049
 50
180
 51
0
  0
ARC
  8
_1-2_
  6
DASHED1
 62
    4
 10
3417.5
 20
1132.7469248407342
 40
1.8499999999999694
 50
180
 51
0
  0
ARC
  8
_1-2_
  6
DASHED1
 62
    4
 10
3417.5
 20
1135.7469248407344
 40
1.8499999999999694
 50
0
 51
180
  0
LINE
  8
ADD_LINE
  6
DOT
 62
    9
 10
2208.4999999999995
 20
1134.2
 11
2254.9
 21
1134.2
  0
LINE
  8
ADD_LINE
  6
DOT
 62
    9
 10
2212.5
 20
1125.1530751592656
 11
2212.5
 21
1145.8603232247412
  0
LINE
  8
ADD_LINE
  6
DOT
 62
    9
 10
2250.5
 20
1125.1530751592656
 11
2250.5
 21
1145.8603232247412
  0
ARC
  8
_1-2_
  6
DASHED1
 62
    4
 10
2218.1999999999998
 20
1127.1530751592654
 40
2
 50
180
 51
270
  0
LINE
  8
_1-2_
  6
DASHED1
 62
    4
 10
2208.4999999999995
 20
1155.1530751592656
 11
2254.9
 21
1155.1530751592656
  0
ARC
  8
_1-2_
  6
DASHED1
 62
    4
 10
2219.5499999999997
 20
1127.1530751592654
 40
2
 50
180
 51
270
  0
ARC
  8
_1-2_
  6
DASHED1
 62
    4
 10
2245.1999999999998
 20
1127.1530751592654
 40
2
 50
270
 51
0
  0
LINE
  8
_1-2_
  6
DASHED1
 62
    4
 10
2245.1999999999998
 20
1125.1530751592656
 11
2218.1999999999998
 21
1125.1530751592656
  0
ARC
  8
_1-2_
  6
DASHED1
 62
    4
 10
2243.8499999999999
 20
1127.1530751592654
 40
2
 50
270
 51
0
  0
LINE
  8
_1-2_
  6
DASHED1
 62
    4
 10
2226.5
 20
1155.1530751592656
 11
2226.5
 21
1125.1530751592656
  0
LINE
  8
_1-2_
  6
DASHED1
 62
    4
 10
2236.9
 20
1155.1530751592656
 11
2236.9
 21
1125.1530751592656
  0
LINE
  8
_1-2_
  6
DASHED1
 62
    4
 10
2208.4999999999995
 20
1153.1530751592654
 11
2208.4999999999995
 21
1155.1530751592656
  0
ARC
  8
_1-2_
  6
DASHED1
 62
    4
 10
2209.5
 20
1153.1530751592654
 40
1
 50
180
 51
270
  0
LINE
  8
_1-2_
  6
DASHED1
 62
    4
 10
2254.9
 20
1153.1530751592654
 11
2254.9
 21
1155.1530751592656
  0
ARC
  8
_1-2_
  6
DASHED1
 62
    4
 10
2253.8999999999996
 20
1153.1530751592654
 40
1
 50
270
 51
0
  0
LINE
  8
_1-2_
  6
DASHED1
 62
    4
 10
2217.5500000000001
 20
1150.1530751592656
 11
2217.5500000000001
 21
1127.1530751592654
  0
ARC
  8
_1-2_
  6
DASHED1
 62
    4
 10
2215.5500000000001
 20
1150.1530751592656
 40
2
 50
0.0000000000000035
 51
90
  0
LINE
  8
_1-2_
  6
DASHED1
 62
    4
 10
2214.1999999999998
 20
1152.1530751592654
 11
2209.5
 21
1152.1530751592654
  0
LINE
  8
_1-2_
  6
DASHED1
 62
    4
 10
2216.1999999999993
 20
1150.1530751592656
 11
2216.1999999999993
 21
1127.1530751592654
  0
ARC
  8
_1-2_
  6
DASHED1
 62
    4
 10
2214.1999999999998
 20
1150.1530751592656
 40
2
 50
0.0000000000000035
 51
90
  0
LINE
  8
_1-2_
  6
DASHED1
 62
    4
 10
2245.8499999999999
 20
1150.1530751592656
 11
2245.8499999999999
 21
1127.1530751592654
  0
ARC
  8
_1-2_
  6
DASHED1
 62
    4
 10
2247.8500000000003
 20
1150.1530751592656
 40
2
 50
90
 51
180
  0
LINE
  8
_1-2_
  6
DASHED1
 62
    4
 10
2249.2000000000002
 20
1152.1530751592654
 11
2253.8999999999996
 21
1152.1530751592654
  0
LINE
  8
_1-2_
  6
DASHED1
 62
    4
 10
2247.1999999999998
 20
1150.1530751592656
 11
2247.1999999999998
 21
1127.1530751592654
  0
ARC
  8
_1-2_
  6
DASHED1
 62
    4
 10
2249.2000000000002
 20
1150.1530751592656
 40
2
 50
90
 51
180
  0
LINE
  8
_1-2_
  6
DASHED1
 62
    4
 10
2215.5500000000001
 20
1152.1530751592654
 11
2214.3673732786351
 21
1152.1603427350678
  0
LINE
  8
_1-2_
  6
DASHED1
 62
    4
 10
2247.8500000000003
 20
1152.1530751592654
 11
2249.225756075888
 21
1152.1594632025444
  0
LINE
  8
_1-2_
  6
DASHED1
 62
    4
 10
2214.3499999999999
 20
1132.7469248407342
 11
2214.3499999999999
 21
1135.7469248407344
  0
LINE
  8
_1-2_
  6
DASHED1
 62
    4
 10
2210.65
 20
1132.7469248407342
 11
2210.65
 21
1135.7469248407344
  0
LINE
  8
_1-2_
  6
DASHED1
 62
    4
 10
2209.5
 20
1132.7469248407342
 11
2209.5
 21
1135.7469248407344
  0
LINE
  8
_1-2_
  6
DASHED1
 62
    4
 10
2215.5
 20
1132.7469248407342
 11
2215.5
 21
1135.7469248407344
  0
LINE
  8
_1-2_
  6
DASHED1
 62
    4
 10
2247.5
 20
1132.7469248407342
 11
2247.5
 21
1135.7469248407344
  0
LINE
  8
_1-2_
  6
DASHED1
 62
    4
 10
2248.65
 20
1132.7469248407342
 11
2248.65
 21
1135.7469248407344
  0
LINE
  8
_1-2_
  6
DASHED1
 62
    4
 10
2252.3500000000003
 20
1132.7469248407342
 11
2252.3500000000003
 21
1135.7469248407344
  0
LINE
  8
_1-2_
  6
DASHED1
 62
    4
 10
2253.5
 20
1132.7469248407342
 11
2253.5
 21
1135.7469248407344
  0
ARC
  8
_1-2_
  6
DASHED1
 62
    4
 10
2210
 20
1129.2469248407342
 40
2
 50
180
 51
270
  0
LINE
  8
_1-2_
  6
DASHED1
 62
    4
 10
2208
 20
1139.2469248407342
 11
2208
 21
1129.2469248407342
  0
ARC
  8
_1-2_
  6
DASHED1
 62
    4
 10
2210
 20
1139.2469248407342
 40
2
 50
90
 51
180
  0
LINE
  8
_1-2_
  6
DASHED1
 62
    4
 10
2253
 20
1141.2469248407344
 11
2210
 21
1141.2469248407344
  0
ARC
  8
_1-2_
  6
DASHED1
 62
    4
 10
2253
 20
1139.2469248407342
 40
2
 50
0.0000000000000127
 51
90.000000000000014
  0
LINE
  8
_1-2_
  6
DASHED1
 62
    4
 10
2253
 20
1127.2469248407344
 11
2210
 21
1127.2469248407344
  0
LINE
  8
_1-2_
  6
DASHED1
 62
    4
 10
2255
 20
1129.2469248407342
 11
2255
 21
1139.2469248407342
  0
ARC
  8
_1-2_
  6
DASHED1
 62
    4
 10
2253
 20
1129.2469248407342
 40
2
 50
270
 51
0
  0
ARC
  8
_1-2_
  6
DASHED1
 62
    4
 10
2250.5
 20
1132.7469248407342
 40
2.9999999999999982
 50
180
 51
0
  0
ARC
  8
_1-2_
  6
DASHED1
 62
    4
 10
2250.5
 20
1135.7469248407344
 40
2.9999999999999982
 50
0
 51
180
  0
ARC
  8
_1-2_
  6
DASHED1
 62
    4
 10
2212.5
 20
1132.7469248407342
 40
2.9999999999999893
 50
180
 51
0
  0
ARC
  8
_1-2_
  6
DASHED1
 62
    4
 10
2212.5
 20
1135.7469248407344
 40
3.0000000000000071
 50
0
 51
180
  0
ARC
  8
_1-2_
  6
DASHED1
 62
    4
 10
2212.5
 20
1135.7469248407344
 40
1.8500000000000582
 50
0
 51
180
  0
ARC
  8
_1-2_
  6
DASHED1
 62
    4
 10
2212.5
 20
1132.7469248407342
 40
1.8500000000000049
 50
180
 51
0
  0
ARC
  8
_1-2_
  6
DASHED1
 62
    4
 10
2250.5
 20
1132.7469248407342
 40
1.8499999999999694
 50
180
 51
0
  0
ARC
  8
_1-2_
  6
DASHED1
 62
    4
 10
2250.5
 20
1135.7469248407344
 40
1.8499999999999694
 50
0
 51
180
  0
LINE
  8
_0-4_
  6
CONTINUOUS
 62
    3
 10
2122.5
 20
1165
 11
2122.5
 21
705
  0
POINT
  8
_0-9_
 62
    3
 10
2122.5
 20
570
  0
LINE
  8
_0-9_
  6
CONTINUOUS
 62
    4
 10
2122.5
 20
560
 11
2122.5
 21
690
  0
LINE
  8
_0-9_
  6
CONTINUOUS
 62
    4
 10
2496.5
 20
570
 11
2122.5
 21
570
  0
TEXT
  8
_0-9_
 62
    7
 10
2276.3999999999996
 20
575
 40
35
 41
0.6285714285714286
 50
0
  1
３７４
  0
LINE
  8
_0-4_
  6
CONTINUOUS
 62
    3
 10
2122.5
 20
705
 11
2496.5
 21
705
  0
LINE
  8
_0-4_
  6
CONTINUOUS
 62
    3
 10
2496.5
 20
1165
 11
2122.5
 21
1165
  0
POINT
  8
_0-9_
 62
    3
 10
3507.5
 20
570
  0
LINE
  8
_0-9_
  6
CONTINUOUS
 62
    4
 10
3507.5
 20
560
 11
3507.5
 21
690
  0
LINE
  8
_0-9_
  6
CONTINUOUS
 62
    4
 10
3133.5
 20
570
 11
3507.5
 21
570
  0
TEXT
  8
_0-9_
 62
    7
 10
3287.4
 20
575
 40
35
 41
0.6285714285714286
 50
0
  1
３７４
  0
LINE
  8
_0-4_
  6
CONTINUOUS
 62
    3
 10
3507.5
 20
705
 11
3133.5
 21
705
  0
LINE
  8
_0-4_
  6
CONTINUOUS
 62
    3
 10
3133.5
 20
1165
 11
3507.5
 21
1165
  0
LINE
  8
_0-4_
  6
CENTER1
 62
    4
 10
2122.5
 20
1165
 11
2496.5
 21
935
  0
LINE
  8
_0-4_
  6
CENTER1
 62
    4
 10
2496.5
 20
935
 11
2122.5
 21
705
  0
LINE
  8
_0-4_
  6
CENTER1
 62
    4
 10
3507.5
 20
705
 11
3133.5
 21
935
  0
LINE
  8
_0-4_
  6
CENTER1
 62
    4
 10
3133.5
 20
935
 11
3507.5
 21
1165
  0
ARC
  8
_0-5_
  6
CONTINUOUS
 62
    4
 10
2125.5
 20
708.99999999999988
 40
3.0000000000000004
 50
90
 51
180
  0
LINE
  8
_0-5_
  6
CONTINUOUS
 62
    4
 10
2125.5
 20
711.99999999999988
 11
2493.5
 21
711.99999999999988
  0
LINE
  8
_0-5_
  6
CONTINUOUS
 62
    4
 10
2496.5
 20
733.39999999999702
 11
2122.5
 21
733.39999999999702
  0
LINE
  8
_0-5_
  6
CONTINUOUS
 62
    4
 10
2496.5
 20
740.99999999999965
 11
2122.5
 21
740.99999999999965
  0
ARC
  8
_0-5_
  6
CONTINUOUS
 62
    4
 10
3504.5
 20
708.99999999999988
 40
3.0000000000000004
 50
0
 51
90
  0
LINE
  8
_0-5_
  6
CONTINUOUS
 62
    4
 10
3504.5
 20
711.99999999999988
 11
3136.5
 21
711.99999999999988
  0
LINE
  8
_0-5_
  6
CONTINUOUS
 62
    4
 10
3133.5
 20
733.39999999999702
 11
3507.5
 21
733.39999999999702
  0
LINE
  8
_0-5_
  6
CONTINUOUS
 62
    4
 10
3133.5
 20
740.99999999999965
 11
3507.5
 21
740.99999999999965
  0
CIRCLE
  8
_0-3_
  6
CONTINUOUS
 62
    4
 10
3587.0000000000009
 20
1005
 40
2.5
  0
LINE
  8
ADD_LINE
  6
DOT
 62
    9
 10
3587.0000000000009
 20
1005
 11
3557.2300033914198
 21
1005
  0
CIRCLE
  8
_0-3_
  6
CONTINUOUS
 62
    7
 10
3587.0000000000009
 20
1005
 40
2.5
  0
LINE
  8
_0-3_
  6
CENTER2
 62
    4
 10
3587.0000000000009
 20
1015
 11
3587.0000000000009
 21
995
  0
LINE
  8
_0-3_
  6
CENTER2
 62
    4
 10
3577.0000000000009
 20
1005
 11
3599.5000000000009
 21
1005
  0
LINE
  8
ADD_LINE
  6
DOT
 62
    9
 10
3827.0000000000009
 20
1005
 11
3845.9077978494315
 21
1005
  0
CIRCLE
  8
_0-3_
  6
CONTINUOUS
 62
    4
 10
3839.0000000000009
 20
1005
 40
2.5
  0
CIRCLE
  8
_0-3_
  6
CONTINUOUS
 62
    7
 10
3839.0000000000009
 20
1005
 40
2.5
  0
LINE
  8
_0-3_
  6
CENTER2
 62
    4
 10
3839.0000000000009
 20
1015
 11
3839.0000000000009
 21
995
  0
LINE
  8
_0-3_
  6
CENTER2
 62
    4
 10
3829.0000000000009
 20
1005
 11
3851.5000000000009
 21
1005
  0
CIRCLE
  8
_0-3_
  6
CONTINUOUS
 62
    4
 10
3587.0000000000009
 20
945
 40
2.5
  0
LINE
  8
ADD_LINE
  6
DOT
 62
    9
 10
3587.0000000000009
 20
945
 11
3557.2300033914198
 21
945
  0
CIRCLE
  8
_0-3_
  6
CONTINUOUS
 62
    7
 10
3587.0000000000009
 20
945
 40
2.5
  0
LINE
  8
_0-3_
  6
CENTER2
 62
    4
 10
3587.0000000000009
 20
955
 11
3587.0000000000009
 21
935
  0
LINE
  8
_0-3_
  6
CENTER2
 62
    4
 10
3577.0000000000009
 20
945
 11
3599.5000000000009
 21
945
  0
LINE
  8
ADD_LINE
  6
DOT
 62
    9
 10
3827.0000000000009
 20
945
 11
3845.9077978494315
 21
945
  0
CIRCLE
  8
_0-3_
  6
CONTINUOUS
 62
    4
 10
3839.0000000000009
 20
945
 40
2.5
  0
CIRCLE
  8
_0-3_
  6
CONTINUOUS
 62
    7
 10
3839.0000000000009
 20
945
 40
2.5
  0
LINE
  8
_0-3_
  6
CENTER2
 62
    4
 10
3839.0000000000009
 20
955
 11
3839.0000000000009
 21
935
  0
LINE
  8
_0-3_
  6
CENTER2
 62
    4
 10
3829.0000000000009
 20
945
 11
3851.5000000000009
 21
945
  0
CIRCLE
  8
_0-3_
  6
CONTINUOUS
 62
    4
 10
3588.4401630790362
 20
885
 40
2.5
  0
LINE
  8
ADD_LINE
  6
DOT
 62
    9
 10
3588.4401630790362
 20
885
 11
3558.670166470456
 21
885
  0
CIRCLE
  8
_0-3_
  6
CONTINUOUS
 62
    7
 10
3588.4401630790362
 20
885
 40
2.5
  0
LINE
  8
_0-3_
  6
CENTER2
 62
    4
 10
3588.4401630790362
 20
895
 11
3588.4401630790362
 21
875
  0
LINE
  8
_0-3_
  6
CENTER2
 62
    4
 10
3578.4401630790362
 20
885
 11
3600.9401630790362
 21
885
  0
LINE
  8
ADD_LINE
  6
DOT
 62
    9
 10
3828.4401630790362
 20
885
 11
3847.3479609284677
 21
885
  0
CIRCLE
  8
_0-3_
  6
CONTINUOUS
 62
    4
 10
3840.4401630790371
 20
885
 40
2.5
  0
CIRCLE
  8
_0-3_
  6
CONTINUOUS
 62
    7
 10
3840.4401630790371
 20
885
 40
2.5
  0
LINE
  8
_0-3_
  6
CENTER2
 62
    4
 10
3840.4401630790371
 20
895
 11
3840.4401630790371
 21
875
  0
LINE
  8
_0-3_
  6
CENTER2
 62
    4
 10
3830.4401630790371
 20
885
 11
3852.9401630790371
 21
885
  0
LINE
  8
_0-3_
  6
CONTINUOUS
 62
    7
 10
3568.5000000000009
 20
950
 11
3857.5000000000009
 21
950
  0
LINE
  8
_0-3_
  6
CONTINUOUS
 62
    7
 10
3857.5000000000009
 20
950
 11
3857.5000000000009
 21
965
  0
LINE
  8
_0-3_
  6
CONTINUOUS
 62
    7
 10
3857.5000000000009
 20
965
 11
3568.5000000000009
 21
965
  0
LINE
  8
_0-3_
  6
CONTINUOUS
 62
    7
 10
3568.5000000000009
 20
965
 11
3568.5000000000009
 21
950
  0
CIRCLE
  8
_0-0_
  6
CONTINUOUS
 62
    7
 10
3587.0000000000009
 20
945
 40
1.5000000000000002
  0
LINE
  8
_0-0_
  6
CONTINUOUS
 62
    7
 10
3592.0000000000009
 20
946.06887499999993
 11
3592.0000000000009
 21
947
  0
LINE
  8
_0-0_
  6
CONTINUOUS
 62
    7
 10
3592.0000000000009
 20
947
 11
3592.9287750000007
 21
947.066325
  0
LINE
  8
_0-0_
  6
CONTINUOUS
 62
    7
 10
3582.0000000000009
 20
945
 11
3582.0000000000009
 21
946
  0
LINE
  8
_0-0_
  6
CONTINUOUS
 62
    7
 10
3581.0000000000009
 20
947
 11
3568.5000000000009
 21
947
  0
LINE
  8
_0-0_
  6
CONTINUOUS
 62
    7
 10
3592.0000000000009
 20
945
 11
3592.0000000000009
 21
946.06887499999993
  0
LINE
  8
_0-0_
  6
CONTINUOUS
 62
    7
 10
3592.9287750000007
 20
947.066325
 11
3605.0712500000008
 21
947.93364999999994
  0
LINE
  8
_0-0_
  6
CONTINUOUS
 62
    7
 10
3606.0000000000009
 20
948.9310999999999
 11
3606.0000000000009
 21
948.99999999999988
  0
LINE
  8
_0-0_
  6
CONTINUOUS
 62
    7
 10
3573.6339750000006
 20
967
 11
3571.7576000000008
 21
970.24999999999988
  0
LINE
  8
_0-0_
  6
CONTINUOUS
 62
    7
 10
3605.0000000000009
 20
950
 11
3569.5000000000009
 21
950
  0
LINE
  8
_0-0_
  6
CONTINUOUS
 62
    7
 10
3572.7679500000012
 20
965.5
 11
3569.5000000000009
 21
965.5
  0
LINE
  8
_0-0_
  6
CONTINUOUS
 62
    7
 10
3568.5000000000009
 20
964.5
 11
3568.5000000000009
 21
951
  0
ARC
  8
_0-0_
  6
CONTINUOUS
 62
    7
 10
3568.5000000000009
 20
950.79999999999995
 40
3.7999999999999998
 50
177.46800000000004
 51
270.00000000000005
  0
ARC
  8
_0-0_
  6
CONTINUOUS
 62
    7
 10
3587.0000000000009
 20
945
 40
5
 50
180.00000000000005
 51
0.0000000000001017
  0
CIRCLE
  8
_0-0_
  6
PHANTOM2
 62
    7
 10
3587.0000000000009
 20
945
 40
4.0999999999999996
  0
CIRCLE
  8
_0-0_
  6
PHANTOM2
 62
    7
 10
3587.0000000000009
 20
945
 40
1.925
  0
ARC
  8
_0-0_
  6
CONTINUOUS
 62
    7
 10
3566.6567750000008
 20
969.5
 40
1
 50
90.000000000000028
 51
177.46800000000004
  0
ARC
  8
_0-0_
  6
CONTINUOUS
 62
    7
 10
3571.324575000001
 20
970
 40
0.5
 50
30.000000000000003
 51
90.000000000000028
  0
ARC
  8
_0-0_
  6
CONTINUOUS
 62
    7
 10
3581.0000000000009
 20
946
 40
1
 50
0
 51
90.000000000000028
  0
ARC
  8
_0-0_
  6
CONTINUOUS
 62
    7
 10
3593.0000000000009
 20
946.06887499999993
 40
1
 50
94.086000000000041
 51
180.00000000000005
  0
ARC
  8
_0-0_
  6
CONTINUOUS
 62
    7
 10
3605.0000000000009
 20
948.9310999999999
 40
1
 50
274.08600000000006
 51
0.0000000000000508
  0
ARC
  8
_0-0_
  6
CONTINUOUS
 62
    7
 10
3605.0000000000009
 20
948.99999999999988
 40
1
 50
0
 51
90.000000000000028
  0
ARC
  8
_0-0_
  6
CONTINUOUS
 62
    7
 10
3572.7679500000012
 20
966.49999999999988
 40
1
 50
270.00000000000005
 51
30.000000000000042
  0
ARC
  8
_0-0_
  6
CONTINUOUS
 62
    7
 10
3569.5000000000009
 20
964.5
 40
1
 50
90.000000000000028
 51
180.00000000000005
  0
ARC
  8
_0-0_
  6
CONTINUOUS
 62
    7
 10
3569.5000000000009
 20
951
 40
1
 50
180.00000000000005
 51
270.00000000000005
  0
LINE
  8
_0-0_
  6
CONTINUOUS
 62
    7
 10
3566.6567750000008
 20
970.5
 11
3571.324575000001
 21
970.5
  0
LINE
  8
_0-0_
  6
CONTINUOUS
 62
    7
 10
3564.7037250000003
 20
950.96784999999999
 11
3565.6584719492498
 21
969.55823245539363
  0
LINE
  8
_0-0_
  6
CENTER1
 62
    7
 10
3587.0000000000009
 20
945
 11
3587.0000000000009
 21
938.8852721223418
  0
LINE
  8
_0-0_
  6
CENTER1
 62
    7
 10
3587.0000000000009
 20
945
 11
3587.0000000000009
 21
951.09740295205267
  0
LINE
  8
_0-0_
  6
CENTER1
 62
    7
 10
3587.1128620711206
 20
945
 11
3584.4332236491891
 21
945
  0
LINE
  8
_0-0_
  6
CENTER1
 62
    7
 10
3587.1128620711206
 20
945
 11
3589.7781451757655
 21
945
  0
ARC
  8
_0-0_
  6
CONTINUOUS
 62
    7
 10
3853.2320500000009
 20
966.49999999999988
 40
1
 50
149.99999999999994
 51
269.99999999999994
  0
CIRCLE
  8
_0-0_
  6
CONTINUOUS
 62
    7
 10
3839.0000000000009
 20
945
 40
1.5000000000000002
  0
LINE
  8
_0-0_
  6
CONTINUOUS
 62
    7
 10
3834.0000000000009
 20
946.06887499999993
 11
3834.0000000000009
 21
947
  0
LINE
  8
_0-0_
  6
CONTINUOUS
 62
    7
 10
3834.0000000000009
 20
947
 11
3833.071225000001
 21
947.066325
  0
LINE
  8
_0-0_
  6
CONTINUOUS
 62
    7
 10
3844.0000000000009
 20
945
 11
3844.0000000000009
 21
946
  0
LINE
  8
_0-0_
  6
CONTINUOUS
 62
    7
 10
3845.0000000000009
 20
947
 11
3857.5000000000009
 21
947
  0
LINE
  8
_0-0_
  6
CONTINUOUS
 62
    7
 10
3834.0000000000009
 20
945
 11
3834.0000000000009
 21
946.06887499999993
  0
LINE
  8
_0-0_
  6
CONTINUOUS
 62
    7
 10
3833.071225000001
 20
947.066325
 11
3820.9287500000009
 21
947.93364999999994
  0
LINE
  8
_0-0_
  6
CONTINUOUS
 62
    7
 10
3820.0000000000009
 20
948.9310999999999
 11
3820.0000000000009
 21
948.99999999999988
  0
LINE
  8
_0-0_
  6
CONTINUOUS
 62
    7
 10
3852.3660250000011
 20
967
 11
3854.2424000000009
 21
970.24999999999988
  0
LINE
  8
_0-0_
  6
CONTINUOUS
 62
    7
 10
3821.0000000000009
 20
950
 11
3856.5000000000009
 21
950
  0
LINE
  8
_0-0_
  6
CONTINUOUS
 62
    7
 10
3853.2320500000009
 20
965.5
 11
3856.5000000000009
 21
965.5
  0
LINE
  8
_0-0_
  6
CONTINUOUS
 62
    7
 10
3857.5000000000009
 20
964.5
 11
3857.5000000000009
 21
951
  0
ARC
  8
_0-0_
  6
CONTINUOUS
 62
    7
 10
3857.5000000000009
 20
950.79999999999995
 40
3.7999999999999998
 50
269.99999999999994
 51
2.5319999999999902
  0
ARC
  8
_0-0_
  6
CONTINUOUS
 62
    7
 10
3839.0000000000009
 20
945
 40
5
 50
179.99999999999985
 51
359.99999999999988
  0
CIRCLE
  8
_0-0_
  6
PHANTOM2
 62
    7
 10
3839.0000000000009
 20
945
 40
4.0999999999999996
  0
CIRCLE
  8
_0-0_
  6
PHANTOM2
 62
    7
 10
3839.0000000000009
 20
945
 40
1.925
  0
ARC
  8
_0-0_
  6
CONTINUOUS
 62
    7
 10
3859.3432250000014
 20
969.5
 40
1
 50
2.531999999999964
 51
89.999999999999957
  0
ARC
  8
_0-0_
  6
CONTINUOUS
 62
    7
 10
3854.6754250000008
 20
970
 40
0.5
 50
89.999999999999985
 51
149.99999999999997
  0
ARC
  8
_0-0_
  6
CONTINUOUS
 62
    7
 10
3845.0000000000009
 20
946
 40
1
 50
89.999999999999971
 51
180
  0
ARC
  8
_0-0_
  6
CONTINUOUS
 62
    7
 10
3833.0000000000009
 20
946.06887499999993
 40
1
 50
359.99999999999994
 51
85.913999999999987
  0
ARC
  8
_0-0_
  6
CONTINUOUS
 62
    7
 10
3821.0000000000009
 20
948.9310999999999
 40
1
 50
179.99999999999994
 51
265.91399999999993
  0
ARC
  8
_0-0_
  6
CONTINUOUS
 62
    7
 10
3821.0000000000009
 20
948.99999999999988
 40
1
 50
89.999999999999971
 51
180
  0
ARC
  8
_0-0_
  6
CONTINUOUS
 62
    7
 10
3856.5000000000009
 20
964.5
 40
1
 50
359.99999999999994
 51
89.999999999999943
  0
ARC
  8
_0-0_
  6
CONTINUOUS
 62
    7
 10
3856.5000000000009
 20
951
 40
1
 50
269.99999999999988
 51
359.99999999999988
  0
LINE
  8
_0-0_
  6
CONTINUOUS
 62
    7
 10
3859.3432250000014
 20
970.5
 11
3854.6754250000008
 21
970.5
  0
LINE
  8
_0-0_
  6
CONTINUOUS
 62
    7
 10
3861.2962750000006
 20
950.96784999999999
 11
3860.3415280507524
 21
969.55823245539363
  0
LINE
  8
_0-0_
  6
CENTER1
 62
    7
 10
3839.0000000000009
 20
945
 11
3839.0000000000009
 21
938.8852721223418
  0
LINE
  8
_0-0_
  6
CENTER1
 62
    7
 10
3839.0000000000009
 20
945
 11
3839.0000000000009
 21
951.09740295205267
  0
LINE
  8
_0-0_
  6
CENTER1
 62
    7
 10
3838.8871379288816
 20
945
 11
3841.5667763508135
 21
945
  0
LINE
  8
_0-0_
  6
CENTER1
 62
    7
 10
3838.8871379288816
 20
945
 11
3836.2218548242362
 21
945
  0
ARC
  8
_0-0_
  6
CONTINUOUS
 62
    7
 10
3587.0000000000009
 20
945
 40
7.0000000000000017
 50
45.585000000000007
 51
134.41500000000002
  0
ARC
  8
_0-0_
  6
CONTINUOUS
 62
    7
 10
3587.0000000000009
 20
945
 40
11
 50
27.036000000000012
 51
152.96400000000005
  0
ARC
  8
_0-0_
  6
CONTINUOUS
 62
    7
 10
3839.0000000000009
 20
945
 40
7.0000000000000017
 50
45.585000000000007
 51
134.41500000000002
  0
ARC
  8
_0-0_
  6
CONTINUOUS
 62
    7
 10
3839.0000000000009
 20
945
 40
11
 50
27.036000000000012
 51
152.96400000000005
  0
LINE
  8
_e-0_
  6
CONTINUOUS
 62
    7
 10
2243.7859302690862
 20
199.51965480360598
 11
2272.9339284698526
 21
210.12865853712995
  0
LINE
  8
_e-0_
  6
CONTINUOUS
 62
    7
 10
2237.6336615052869
 20
191.95952323799758
 11
2287.5529504706664
 21
210.12865853712895
  0
LINE
  8
_e-0_
  6
CONTINUOUS
 62
    7
 10
2234.2067375789874
 20
185.39133607135255
 11
2263.8643430051365
 21
196.18582166608263
  0
LINE
  8
_e-0_
  6
CONTINUOUS
 62
    7
 10
2232.2119570371696
 20
179.34440646785787
 11
2253.9586582709303
 21
187.25955841042662
  0
LINE
  8
_e-0_
  6
CONTINUOUS
 62
    7
 10
2231.2024514117433
 20
173.65608760649877
 11
2249.4574587956462
 21
180.3003669205492
  0
LINE
  8
_e-0_
  6
CONTINUOUS
 62
    7
 10
2230.9649088875535
 20
168.248740335938
 11
2249.3748102388385
 21
174.94939644358311
  0
LINE
  8
_e-0_
  6
CONTINUOUS
 62
    7
 10
2231.3837497438626
 20
163.08029707814966
 11
2249.8286640768283
 21
169.79369686893903
  0
LINE
  8
_e-0_
  6
CONTINUOUS
 62
    7
 10
2232.3950068941753
 20
158.12747571767488
 11
2251.269568818267
 21
164.99725444285843
  0
LINE
  8
_e-0_
  6
CONTINUOUS
 62
    7
 10
2233.9675550564961
 20
153.37894757832998
 11
2253.6625167678698
 21
160.54732740628253
  0
LINE
  8
_e-0_
  6
CONTINUOUS
 62
    7
 10
2236.0955302019183
 20
148.83257832814223
 11
2257.099910488102
 21
156.47754754152117
  0
LINE
  8
_e-0_
  6
CONTINUOUS
 62
    7
 10
2238.7970089264299
 20
144.49494730998821
 11
2261.880116002736
 21
152.89651120014326
  0
LINE
  8
_e-0_
  6
CONTINUOUS
 62
    7
 10
2242.1181877425701
 20
140.38286867935909
 11
2268.9468388985251
 21
150.14769912563821
  0
LINE
  8
_e-0_
  6
CONTINUOUS
 62
    7
 10
2246.1455691824353
 20
136.52782678312661
 11
2284.5651405528205
 21
150.51140717521263
  0
LINE
  8
_e-0_
  6
CONTINUOUS
 62
    7
 10
2251.0351047702797
 20
132.98658333410969
 11
2279.1844822576495
 21
143.2321188526356
  0
LINE
  8
_e-0_
  6
CONTINUOUS
 62
    7
 10
2279.5849322183671
 20
201.90764820482513
 11
2302.1719724714803
 21
210.12865853713066
  0
LINE
  8
_e-0_
  6
CONTINUOUS
 62
    7
 10
2260.5624543087296
 20
189.663143601351
 11
2313.0511299164636
 21
208.76745915862059
  0
LINE
  8
_e-0_
  6
CONTINUOUS
 62
    7
 10
2273.0696188494734
 20
188.89449034687174
 11
2313.0511299164636
 21
203.44657029624102
  0
LINE
  8
_e-0_
  6
CONTINUOUS
 62
    7
 10
2287.6886408502887
 20
188.89449034687174
 11
2313.0511299164636
 21
198.12568143386158
  0
LINE
  8
_e-0_
  6
CONTINUOUS
 62
    7
 10
2291.8751463425487
 20
185.09736486926669
 11
2313.0511299164636
 21
192.80479257148215
  0
LINE
  8
_e-0_
  6
CONTINUOUS
 62
    7
 10
2291.8751463425487
 20
179.77647600688726
 11
2313.0511299164636
 21
187.48390370910215
  0
LINE
  8
_e-0_
  6
CONTINUOUS
 62
    7
 10
2291.8751463425487
 20
174.45558714450783
 11
2313.0511299164636
 21
182.16301484672271
  0
LINE
  8
_e-0_
  6
CONTINUOUS
 62
    7
 10
2291.8751463425487
 20
169.13469828212839
 11
2313.0511299164636
 21
176.84212598434328
  0
LINE
  8
_e-0_
  6
CONTINUOUS
 62
    7
 10
2291.8008475696451
 20
163.78676687796939
 11
2313.0511299164636
 21
171.52123712196384
  0
LINE
  8
_e-0_
  6
CONTINUOUS
 62
    7
 10
2290.6539909363364
 20
158.04845633809463
 11
2313.0511299164636
 21
166.20034825958413
  0
LINE
  8
_e-0_
  6
CONTINUOUS
 62
    7
 10
2288.3949962857823
 20
151.90536066354695
 11
2313.0511299164636
 21
160.87945939720469
  0
LINE
  8
_e-0_
  6
CONTINUOUS
 62
    7
 10
2284.4003861827632
 20
145.13055262616916
 11
2311.8608666367176
 21
155.12535013005759
  0
LINE
  8
_e-0_
  6
CONTINUOUS
 62
    7
 10
2275.7463468865153
 20
136.65985105378524
 11
2309.0387712913652
 21
148.77730256370853
  0
LINE
  8
_e-0_
  6
CONTINUOUS
 62
    7
 10
2266.9791201478205
 20
128.14795262145821
 11
2304.1703780821812
 21
141.68446348448242
  0
LINE
  8
_e-0_
  6
CONTINUOUS
 62
    7
 10
2282.1376414569663
 20
128.34431431109749
 11
2292.7244583873175
 21
132.19760054937069
  0
LINE
  8
_e-0_
  6
CONTINUOUS
 62
    3
 10
2266.4464672734898
 20
197.56612819678281
 11
2262.3244734593249
 21
194.75680664380121
  0
LINE
  8
_e-0_
  6
CONTINUOUS
 62
    3
 10
2282.3868421919432
 20
128.14795262145651
 11
2266.9204010401704
 21
128.14795262145651
  0
ARC
  8
_e-0_
  6
CONTINUOUS
 62
    3
 10
2282.3868421919432
 20
133.14795262145651
 40
5
 50
270
 51
286.20399351045659
  0
LINE
  8
_e-0_
  6
CONTINUOUS
 62
    3
 10
2313.2288608412613
 20
210.12865853712895
 11
2313.2288608412613
 21
159.77346730566921
  0
ARC
  8
_e-0_
  6
CONTINUOUS
 62
    3
 10
2271.9221657766447
 20
169.15823653484835
 40
42.5
 50
286.20399351045648
 51
345.50707147989851
  0
ARC
  8
_e-0_
  6
CONTINUOUS
 62
    3
 10
2308.2288608412613
 20
159.77346730566921
 40
5
 50
345.50707147989879
 51
0.0000000000000159
  0
ARC
  8
_e-0_
  6
CONTINUOUS
 62
    3
 10
2250.0927387377205
 20
170.4956084628958
 40
40
 50
279.71265316664215
 51
332.69093929010892
  0
ARC
  8
_e-0_
  6
CONTINUOUS
 62
    3
 10
2255.9974857549714
 20
135.99729020443191
 40
5
 50
241.9452628118
 51
279.71265316664221
  0
ARC
  8
_e-0_
  6
CONTINUOUS
 62
    3
 10
2263.2643122966178
 20
205.12865853712895
 40
5
 50
90
 51
106.05338143786269
  0
LINE
  8
_e-0_
  6
CONTINUOUS
 62
    3
 10
2288.4334989152221
 20
210.12865853712881
 11
2278.2181989551913
 21
205.24067691222057
  0
LINE
  8
_e-0_
  6
CONTINUOUS
 62
    3
 10
2278.2181989551913
 20
205.24067691222057
 11
2272.2994583375816
 21
201.4444897898403
  0
LINE
  8
_e-0_
  6
CONTINUOUS
 62
    3
 10
2266.4464672734898
 20
197.56612819678252
 11
2272.2994583375816
 21
201.4444897898403
  0
ARC
  8
_e-0_
  6
CONTINUOUS
 62
    3
 10
2263.2643122966178
 20
205.12865853712895
 40
5
 50
90
 51
106.05338143786269
  0
ARC
  8
_e-0_
  6
CONTINUOUS
 62
    3
 10
2263.2643122966178
 20
205.12865853712895
 40
5
 50
90
 51
106.05338143786269
  0
LINE
  8
_e-0_
  6
CONTINUOUS
 62
    3
 10
2288.4334989152221
 20
210.12865853712895
 11
2263.2643122966178
 21
210.12865853712895
  0
ARC
  8
_e-0_
  6
CONTINUOUS
 62
    3
 10
2273.6342932765642
 20
169.09099082020304
 40
42.5
 50
106.05338143786271
 51
241.94526281180051
  0
ARC
  8
_e-0_
  6
CONTINUOUS
 62
    3
 10
2263.2643122966178
 20
205.12865853712895
 40
5
 50
90
 51
106.05338143786269
  0
LINE
  8
_e-0_
  6
CONTINUOUS
 62
    3
 10
2299.1719829458552
 20
210.12865853712895
 11
2313.2288608412613
 21
210.12865853712895
  0
ARC
  8
_e-0_
  6
CONTINUOUS
 62
    3
 10
2299.1719829458552
 20
205.12865853712895
 40
5
 50
90
 51
112.84552721528329
  0
LINE
  8
_e-0_
  6
CONTINUOUS
 62
    3
 10
2292.0528772673465
 20
188.89449034687004
 11
2269.0173546029673
 21
188.89449034687004
  0
ARC
  8
_e-0_
  6
CONTINUOUS
 62
    3
 10
2269.0173546029673
 20
183.89449034687004
 40
5
 50
90
 51
110.93110431809542
  0
ARC
  8
_e-0_
  6
CONTINUOUS
 62
    3
 10
2254.2292662802574
 20
177.70386452217394
 40
0.5
 50
165.368776721252
 51
224.67319701305797
  0
LINE
  8
_e-0_
  6
CONTINUOUS
 62
    3
 10
2253.8737020580624
 20
177.3523334653737
 11
2253.6837582739271
 21
177.54445650133447
  0
ARC
  8
_e-0_
  6
CONTINUOUS
 62
    3
 10
2276.1622566207875
 20
165.2142768803236
 40
25
 50
110.93110431809527
 51
150.17701829297226
  0
ARC
  8
_e-0_
  6
CONTINUOUS
 62
    3
 10
2254.0393224961217
 20
177.89598755813472
 40
0.5
 50
224.67319701305652
 51
330.17701829297561
  0
LINE
  8
_e-0_
  6
CONTINUOUS
 62
    3
 10
2297.2307430642558
 20
209.73643324104926
 11
2283.5233941157548
 21
203.96157353985984
  0
LINE
  8
_e-0_
  6
CONTINUOUS
 62
    3
 10
2283.5233941157548
 20
203.96157353985984
 11
2277.114528385443
 21
200.4613679180602
  0
ARC
  8
_e-0_
  6
CONTINUOUS
 62
    3
 10
2277.9347719955744
 20
171.51524603489747
 40
25
 50
126.05682261028304
 51
165.36877672125814
  0
ARC
  8
_e-0_
  6
CONTINUOUS
 62
    3
 10
2322.0287923520791
 20
111.11536133502738
 40
100
 50
116.6886898974924
 51
126.03335467187628
  0
LINE
  8
_e-0_
  6
CONTINUOUS
 62
    3
 10
2262.3244734593245
 20
194.75680664380149
 11
2254.3560414411385
 21
187.50185893935451
  0
LINE
  8
_e-0_
  6
CONTINUOUS
 62
    3
 10
2254.3560414411385
 20
187.50185893935451
 11
2252.5108960046536
 21
185.36863764275494
  0
ARC
  8
_e-0_
  6
CONTINUOUS
 62
    3
 10
2274.5493829743445
 20
174.5520307550089
 40
25
 50
169.07329675873063
 51
296.32138326661799
  0
LINE
  8
_e-0_
  6
CONTINUOUS
 62
    3
 10
2252.5108960046541
 20
185.36863764275494
 11
2250.002621066113
 21
179.29085759512361
  0
LINE
  8
_e-0_
  6
CONTINUOUS
 62
    3
 10
2292.0528772673465
 20
188.89449034687004
 11
2292.0528772673465
 21
164.42425885831653
  0
ARC
  8
_e-0_
  6
CONTINUOUS
 62
    3
 10
2277.2840925230507
 20
144.13090983307199
 40
5
 50
311.4163090429962
 51
326.13300916724881
  0
ARC
  8
_e-0_
  6
CONTINUOUS
 62
    3
 10
2252.285941088533
 20
168.73596234419835
 40
40
 50
316.78132524618342
 51
353.81191653224226
  0
ARC
  8
_e-0_
  6
CONTINUOUS
 62
    3
 10
2240.9001979970053
 20
185.376663785662
 40
60
 50
294.69555798319504
 51
311.41630904299643
  0
ARC
  8
_e-0_
  6
CONTINUOUS
 62
    3
 10
2271.9268153318698
 20
202.98067150791609
 40
75
 50
264.68313230529076
 51
266.17253517307824
  0
ARC
  8
_e-0_
  6
CONTINUOUS
 62
    3
 10
2265.0233680716155
 20
128.80121063143832
 40
0.5
 50
174.02086603460466
 51
264.68313230528985
  0
ARC
  8
_e-0_
  6
CONTINUOUS
 62
    3
 10
2267.0124878650103
 20
128.59287809071872
 40
2.5
 50
114.69555798319522
 51
174.02086603461154
  0
LINE
  8
_e-0_
  6
CONTINUOUS
 62
    7
 10
2376.8899919095943
 20
169.43032024062034
 11
2388.2618909747961
 21
173.56935300743344
  0
LINE
  8
_e-0_
  6
CONTINUOUS
 62
    3
 10
2436.2585234464268
 20
162.63312492519389
 11
2436.2585234464268
 21
136.49018622829544
  0
CIRCLE
  8
_e-0_
  6
CONTINUOUS
 62
    3
 10
2365.5167430510387
 20
162.46293449130519
 40
13.33773795583065
  0
CIRCLE
  8
_e-0_
  6
CONTINUOUS
 62
    3
 10
2365.2330256036634
 20
162.17921704393006
 40
25.691707563897665
  0
LINE
  8
_e-0_
  6
CONTINUOUS
 62
    3
 10
2399.4939617252575
 20
188.26250382114977
 11
2399.4939617252575
 21
136.49018622829544
  0
LINE
  8
_e-0_
  6
CONTINUOUS
 62
    3
 10
2399.4939617252575
 20
136.49018622829544
 11
2414.856930753669
 21
136.49018622829544
  0
LINE
  8
_e-0_
  6
CONTINUOUS
 62
    3
 10
2414.856930753669
 20
136.49018622829544
 11
2414.856930753669
 21
172.63312492519389
  0
LINE
  8
_e-0_
  6
CONTINUOUS
 62
    3
 10
2451.1774760289304
 20
136.49018622829544
 11
2436.2585234464268
 21
136.49018622829544
  0
LINE
  8
_e-0_
  6
CONTINUOUS
 62
    3
 10
2426.2585234464268
 20
172.63312492519389
 11
2414.856930753669
 21
172.63312492519389
  0
ARC
  8
_e-0_
  6
CONTINUOUS
 62
    3
 10
2426.2585234464268
 20
162.63312492519389
 40
10
 50
0
 51
90
  0
LINE
  8
_e-0_
  6
CONTINUOUS
 62
    3
 10
2426.1774760289299
 20
188.26250382114977
 11
2399.4939617252575
 21
188.26250382114977
  0
LINE
  8
_e-0_
  6
CONTINUOUS
 62
    3
 10
2451.1774760289304
 20
163.26250382114977
 11
2451.1774760289304
 21
136.49018622829544
  0
ARC
  8
_e-0_
  6
CONTINUOUS
 62
    3
 10
2426.1774760289299
 20
163.26250382114977
 40
25
 50
0
 51
90
  0
ARC
  8
_e-0_
  6
CONTINUOUS
 62
    3
 10
2486.2452606175233
 20
162.17653762406428
 40
13.33773795583065
 50
23.422555400004949
 51
97.191484740792631
  0
LINE
  8
_e-0_
  6
CONTINUOUS
 62
    3
 10
2474.0065761310629
 20
167.47841048365671
 11
2498.4839451039833
 21
167.47841048365671
  0
ARC
  8
_e-0_
  6
CONTINUOUS
 62
    3
 10
2486.2452606175233
 20
162.17653762406428
 40
13.33773795583065
 50
92.530763017635251
 51
156.57744459999506
  0
ARC
  8
_e-0_
  6
CONTINUOUS
 62
    3
 10
2486.2452606175233
 20
162.17653762406428
 40
13.33773795583065
 50
204.21097500392608
 51
316.0067678116265
  0
LINE
  8
_e-0_
  6
CONTINUOUS
 62
    3
 10
2474.0806890359867
 20
156.70676139316753
 11
2511.5200753562385
 21
156.70676139316753
  0
LINE
  8
_e-0_
  6
CONTINUOUS
 62
    3
 10
2495.8407207162626
 20
152.91249966689292
 11
2508.7092412098891
 21
149.78943472664496
  0
ARC
  8
_e-0_
  6
CONTINUOUS
 62
    3
 10
2486.5655867677851
 20
162.8171899245882
 40
25.691707563897665
 50
346.24110979921471
 51
329.53046432565099
  0
ARC
  8
_e-0_
  6
CONTINUOUS
 62
    3
 10
2546.5135590423406
 20
162.14309845353909
 40
11.089756641867943
 50
94.502189492040685
 51
357.22978420280037
  0
LINE
  8
_e-0_
  6
CONTINUOUS
 62
    3
 10
2556.5903561511468
 20
173.19863581905565
 11
2545.6430442891501
 21
173.19863581905565
  0
LINE
  8
_e-0_
  6
CONTINUOUS
 62
    3
 10
2557.5903561511468
 20
172.19863581905599
 11
2557.5903561511468
 21
161.60712439988742
  0
ARC
  8
_e-0_
  6
CONTINUOUS
 62
    3
 10
2556.5903561511468
 20
172.19863581905599
 40
1
 50
0
 51
90
  0
LINE
  8
_e-0_
  6
CONTINUOUS
 62
    3
 10
2548.9703457355517
 20
188.29058742736094
 11
2557.3930775458175
 21
188.29058742736094
  0
ARC
  8
_e-0_
  6
CONTINUOUS
 62
    3
 10
2546.9662856612039
 20
162.67716163604518
 40
25.691707563897665
 50
85.526146014136969
 51
347.40557840019874
  0
LINE
  8
_e-0_
  6
CONTINUOUS
 62
    3
 10
2557.3930775458175
 20
209.12865853712901
 11
2557.3930775458175
 21
188.29058742736094
  0
ARC
  8
_e-0_
  6
CONTINUOUS
 62
    3
 10
2558.3930775458175
 20
209.12865853712901
 40
1
 50
90
 51
180
  0
LINE
  8
_e-0_
  6
CONTINUOUS
 62
    3
 10
2572.0397992563612
 20
209.12865853712901
 11
2572.0397992563612
 21
157.07513043814088
  0
LINE
  8
_e-0_
  6
CONTINUOUS
 62
    3
 10
2571.0397992563616
 20
210.12865853712895
 11
2558.3930775458175
 21
210.12865853712895
  0
ARC
  8
_e-0_
  6
CONTINUOUS
 62
    3
 10
2571.0397992563616
 20
209.12865853712901
 40
1
 50
0
 51
90
  0
CIRCLE
  8
_e-0_
  6
CONTINUOUS
 62
    3
 10
2607.4932845795829
 20
162.61858771142584
 40
13.33773795583065
  0
CIRCLE
  8
_e-0_
  6
CONTINUOUS
 62
    3
 10
2607.2095671322085
 20
162.334870264051
 40
25.691707563897665
  0
ARC
  8
_e-0_
  6
CONTINUOUS
 62
    3
 10
2361.3056445788688
 20
183.56108960512415
 40
5
 50
90
 51
106.05338143786269
  0
ARC
  8
_e-0_
  6
CONTINUOUS
 62
    3
 10
2361.3056445788688
 20
183.56108960512415
 40
5
 50
90
 51
106.05338143786269
  0
ARC
  8
_e-0_
  6
CONTINUOUS
 62
    3
 10
2361.3056445788688
 20
183.56108960512415
 40
5
 50
90
 51
106.05338143786269
  0
ARC
  8
_e-0_
  6
CONTINUOUS
 62
    3
 10
2361.3056445788688
 20
183.56108960512415
 40
5
 50
90
 51
106.05338143786269
  0
LINE
  8
_e-0_
  6
CONTINUOUS
 62
    7
 10
2346.3470804331013
 20
179.59716504486777
 11
2368.5044577934554
 21
187.66179087344028
  0
LINE
  8
_e-0_
  6
CONTINUOUS
 62
    7
 10
2361.2415063076145
 20
179.69740385729494
 11
2376.5205845613304
 21
185.25853354867166
  0
LINE
  8
_e-0_
  6
CONTINUOUS
 62
    7
 10
2341.7511550984831
 20
172.60349616177705
 11
2361.2415063076145
 21
179.69740385729494
  0
LINE
  8
_e-0_
  6
CONTINUOUS
 62
    7
 10
2339.9278406436087
 20
166.61897511011602
 11
2357.2356669233163
 21
172.91850869577984
  0
LINE
  8
_e-0_
  6
CONTINUOUS
 62
    7
 10
2339.5613566552269
 20
161.16469698463049
 11
2352.6357267551816
 21
165.92337853279389
  0
LINE
  8
_e-0_
  6
CONTINUOUS
 62
    7
 10
2340.2704529847874
 20
156.10189807943811
 11
2352.3257797311662
 21
160.489678179473
  0
LINE
  8
_e-0_
  6
CONTINUOUS
 62
    7
 10
2341.9204823498939
 20
151.38157079162255
 11
2353.9794571535694
 21
155.77067867592631
  0
LINE
  8
_e-0_
  6
CONTINUOUS
 62
    7
 10
2344.504128974107
 20
147.00105239631881
 11
2357.564943671171
 21
151.75480018131679
  0
LINE
  8
_e-0_
  6
CONTINUOUS
 62
    7
 10
2348.1361647674011
 20
143.00211645248765
 11
2364.9879954656798
 21
149.13568121955449
  0
LINE
  8
_e-0_
  6
CONTINUOUS
 62
    7
 10
2353.1501292054063
 20
139.50616140121155
 11
2375.2534753949121
 21
147.55112149187283
  0
LINE
  8
_e-0_
  6
CONTINUOUS
 62
    7
 10
2360.6217579801264
 20
136.90472301431668
 11
2375.3071030149835
 21
142.24975148693374
  0
LINE
  8
_e-0_
  6
CONTINUOUS
 62
    7
 10
2375.3071030149835
 20
142.24975148693374
 11
2385.0115931457403
 21
145.78189703325932
  0
LINE
  8
_e-0_
  6
CONTINUOUS
 62
    7
 10
2374.4001538198344
 20
147.24053783828736
 11
2389.063020487204
 21
152.57738485422379
  0
LINE
  8
_e-0_
  6
CONTINUOUS
 62
    7
 10
2374.4883804748506
 20
152.59353857696169
 11
2390.6567834919524
 21
158.47835601080646
  0
LINE
  8
_e-0_
  6
CONTINUOUS
 62
    7
 10
2378.4912308361026
 20
159.37134582305873
 11
2390.8686178519897
 21
163.87634627483464
  0
LINE
  8
_e-0_
  6
CONTINUOUS
 62
    7
 10
2378.6565159204478
 20
164.75239353630797
 11
2390.0320630429459
 21
168.89275408738967
  0
LINE
  8
_e-0_
  6
CONTINUOUS
 62
    7
 10
2365.1397018509305
 20
175.7953421400316
 11
2381.7641004494612
 21
181.84612839247364
  0
LINE
  8
_e-0_
  6
CONTINUOUS
 62
    7
 10
2373.159843452322
 20
173.39354609515908
 11
2385.5507858710998
 21
177.90348031010012
  0
LINE
  8
_e-0_
  6
CONTINUOUS
 62
    7
 10
2399.4939617252575
 20
182.97838129215278
 11
2414.0119690553087
 21
188.26250382114977
  0
LINE
  8
_e-0_
  6
CONTINUOUS
 62
    7
 10
2399.4939617252575
 20
177.65749242977335
 11
2428.3670442872125
 21
188.16643505383524
  0
LINE
  8
_e-0_
  6
CONTINUOUS
 62
    7
 10
2399.4939617252575
 20
172.33660356739392
 11
2436.7743097980664
 21
185.90554058897964
  0
LINE
  8
_e-0_
  6
CONTINUOUS
 62
    7
 10
2399.4939617252575
 20
167.01571470501448
 11
2442.1110032081055
 21
182.52704927725858
  0
LINE
  8
_e-0_
  6
CONTINUOUS
 62
    7
 10
2399.4939617252575
 20
161.69482584263505
 11
2414.856930753669
 21
167.28648927893004
  0
LINE
  8
_e-0_
  6
CONTINUOUS
 62
    7
 10
2428.7090082786239
 20
172.32823318076128
 11
2445.9244086202584
 21
178.5941264760919
  0
LINE
  8
_e-0_
  6
CONTINUOUS
 62
    7
 10
2399.4939617252575
 20
156.37393698025562
 11
2414.856930753669
 21
161.96560041655061
  0
LINE
  8
_e-0_
  6
CONTINUOUS
 62
    7
 10
2403.3398935234458
 20
136.49018622829544
 11
2414.856930753669
 21
140.68204496703231
  0
LINE
  8
_e-0_
  6
CONTINUOUS
 62
    7
 10
2399.4939617252575
 20
140.41127039311675
 11
2414.856930753669
 21
146.00293382941202
  0
LINE
  8
_e-0_
  6
CONTINUOUS
 62
    7
 10
2399.4939617252575
 20
145.73215925549646
 11
2414.856930753669
 21
151.32382269179146
  0
LINE
  8
_e-0_
  6
CONTINUOUS
 62
    7
 10
2399.4939617252575
 20
151.0530481178759
 11
2414.856930753669
 21
156.64471155417118
  0
LINE
  8
_e-0_
  6
CONTINUOUS
 62
    7
 10
2436.2585234464268
 20
159.113365397844
 11
2451.1774760289304
 21
164.5434200643038
  0
LINE
  8
_e-0_
  6
CONTINUOUS
 62
    7
 10
2436.2585234464268
 20
153.79247653546485
 11
2451.1774760289304
 21
159.22253120192465
  0
LINE
  8
_e-0_
  6
CONTINUOUS
 62
    7
 10
2436.105047565391
 20
164.37839360784892
 11
2450.3687179376247
 21
169.56994505472636
  0
LINE
  8
_e-0_
  6
CONTINUOUS
 62
    7
 10
2436.2585234464268
 20
148.47158767308542
 11
2451.1774760289304
 21
153.90164233954521
  0
LINE
  8
_e-0_
  6
CONTINUOUS
 62
    7
 10
2436.2585234464268
 20
143.1506988107057
 11
2451.1774760289304
 21
148.5807534771655
  0
LINE
  8
_e-0_
  6
CONTINUOUS
 62
    7
 10
2436.2585234464268
 20
137.82980994832598
 11
2451.1774760289304
 21
143.25986461478606
  0
LINE
  8
_e-0_
  6
CONTINUOUS
 62
    7
 10
2447.1969595258929
 20
136.49018622829544
 11
2451.1774760289304
 21
137.93897575240634
  0
LINE
  8
_e-0_
  6
CONTINUOUS
 62
    7
 10
2434.0189024056153
 20
168.93998772771169
 11
2448.6296862431445
 21
174.25787814386978
  0
LINE
  8
_e-0_
  6
CONTINUOUS
 62
    7
 10
2469.1883842563338
 20
181.74063227593791
 11
2487.7135419125711
 21
188.48323824789645
  0
LINE
  8
_e-0_
  6
CONTINUOUS
 62
    7
 10
2463.6316388937825
 20
174.39725350219305
 11
2496.6904887083792
 21
186.42969081378254
  0
LINE
  8
_e-0_
  6
CONTINUOUS
 62
    7
 10
2461.4628990865917
 20
168.28700790412767
 11
2502.2794299488264
 21
183.14301020398858
  0
LINE
  8
_e-0_
  6
CONTINUOUS
 62
    7
 10
2461.4992419870632
 20
162.97934677574687
 11
2473.9894671720021
 21
167.52541696234658
  0
LINE
  8
_e-0_
  6
CONTINUOUS
 62
    7
 10
2492.1508316310541
 20
174.13561303910114
 11
2506.2885679576884
 21
179.28132824190015
  0
LINE
  8
_e-0_
  6
CONTINUOUS
 62
    7
 10
2496.6927278595248
 20
170.46783921101109
 11
2509.1784918759253
 21
175.01228566505261
  0
LINE
  8
_e-0_
  6
CONTINUOUS
 62
    7
 10
2463.2093427036916
 20
158.28088367181749
 11
2488.4793399340492
 21
167.47841048365671
  0
LINE
  8
_e-0_
  6
CONTINUOUS
 62
    7
 10
2462.8888794596255
 20
152.84335572742151
 11
2511.1140538755621
 21
170.39588375711787
  0
LINE
  8
_e-0_
  6
CONTINUOUS
 62
    7
 10
2465.300291731432
 20
148.400149154524
 11
2476.9283430630944
 21
152.63241372176821
  0
LINE
  8
_e-0_
  6
CONTINUOUS
 62
    7
 10
2488.1225212892722
 20
156.70676139316753
 11
2512.1228430370119
 21
165.44216412215632
  0
LINE
  8
_e-0_
  6
CONTINUOUS
 62
    7
 10
2502.7415432900879
 20
156.70676139316753
 11
2512.1151621126959
 21
160.11847963195407
  0
LINE
  8
_e-0_
  6
CONTINUOUS
 62
    7
 10
2468.7281740890052
 20
144.32690743686691
 11
2482.5550140975401
 21
149.35946563393486
  0
LINE
  8
_e-0_
  6
CONTINUOUS
 62
    7
 10
2473.4508580764295
 20
140.72493497175571
 11
2502.4973614552445
 21
151.29699761115659
  0
LINE
  8
_e-0_
  6
CONTINUOUS
 62
    7
 10
2480.3069495598269
 20
137.89945933273884
 11
2507.3767895083869
 21
147.75207532036432
  0
LINE
  8
_e-0_
  6
CONTINUOUS
 62
    7
 10
2552.6231690921717
 20
137.61596638527407
 11
2558.7418873346696
 21
139.84299769740459
  0
LINE
  8
_e-0_
  6
CONTINUOUS
 62
    7
 10
2539.4012676014826
 20
138.12447666464265
 11
2568.5435873921023
 21
148.73141362589478
  0
LINE
  8
_e-0_
  6
CONTINUOUS
 62
    7
 10
2532.9976800904732
 20
141.11465028049622
 11
2571.5269734698549
 21
155.13816621790056
  0
LINE
  8
_e-0_
  6
CONTINUOUS
 62
    7
 10
2522.081864354775
 20
169.06695144424446
 11
2572.0397992563612
 21
187.25015271383
  0
LINE
  8
_e-0_
  6
CONTINUOUS
 62
    7
 10
2524.5896829795606
 20
175.30061163898437
 11
2572.0397992563612
 21
192.57104157620943
  0
LINE
  8
_e-0_
  6
CONTINUOUS
 62
    7
 10
2557.3930775458175
 20
208.52362629350906
 11
2561.8028673926596
 21
210.12865853712895
  0
LINE
  8
_e-0_
  6
CONTINUOUS
 62
    7
 10
2557.3930775458175
 20
203.20273743112977
 11
2572.0397992563612
 21
208.53370816334788
  0
LINE
  8
_e-0_
  6
CONTINUOUS
 62
    7
 10
2557.3930775458175
 20
197.88184856875005
 11
2572.0397992563612
 21
203.21281930096859
  0
LINE
  8
_e-0_
  6
CONTINUOUS
 62
    7
 10
2557.3930775458175
 20
192.56095970637034
 11
2572.0397992563612
 21
197.89193043858915
  0
LINE
  8
_e-0_
  6
CONTINUOUS
 62
    7
 10
2531.3600319802562
 20
183.08570601321093
 11
2545.8030101140193
 21
188.34252014805827
  0
LINE
  8
_e-0_
  6
CONTINUOUS
 62
    7
 10
2548.0525958796984
 20
173.19863581905565
 11
2572.0397992563612
 21
181.92926385145057
  0
LINE
  8
_e-0_
  6
CONTINUOUS
 62
    7
 10
2521.2864022906337
 20
163.45653806802943
 11
2538.3752084417083
 21
169.67635484616607
  0
LINE
  8
_e-0_
  6
CONTINUOUS
 62
    7
 10
2521.6554107736333
 20
158.26995730965364
 11
2535.4846691325356
 21
163.30339571427089
  0
LINE
  8
_e-0_
  6
CONTINUOUS
 62
    7
 10
2522.9940114609526
 20
153.43627925302655
 11
2536.1404517985765
 21
158.22119222247806
  0
LINE
  8
_e-0_
  6
CONTINUOUS
 62
    7
 10
2525.2563435788042
 20
148.93881194156961
 11
2539.0354883761397
 21
153.95401050144357
  0
LINE
  8
_e-0_
  6
CONTINUOUS
 62
    7
 10
2528.5117312327797
 20
144.80278728623488
 11
2545.7561370732087
 21
151.07923771975691
  0
LINE
  8
_e-0_
  6
CONTINUOUS
 62
    7
 10
2554.2054905278623
 20
154.15455087604527
 11
2572.0397992563612
 21
160.64570840193255
  0
LINE
  8
_e-0_
  6
CONTINUOUS
 62
    7
 10
2557.505937791675
 20
160.67670430221767
 11
2572.0397992563612
 21
165.96659726431198
  0
LINE
  8
_e-0_
  6
CONTINUOUS
 62
    7
 10
2557.5903561511468
 20
166.02831893467055
 11
2572.0397992563612
 21
171.28748612669141
  0
LINE
  8
_e-0_
  6
CONTINUOUS
 62
    7
 10
2557.5903561511468
 20
171.34920779704998
 11
2572.0397992563612
 21
176.60837498907085
  0
LINE
  8
_e-0_
  6
CONTINUOUS
 62
    7
 10
2595.1467628188602
 20
185.01862193009401
 11
2601.869376832742
 21
187.46545332760774
  0
LINE
  8
_e-0_
  6
CONTINUOUS
 62
    7
 10
2585.5936460434281
 20
176.22068291698809
 11
2614.8426950414304
 21
186.86646613285404
  0
LINE
  8
_e-0_
  6
CONTINUOUS
 62
    7
 10
2608.5181174973608
 20
136.67650840108905
 11
2622.7000364868072
 21
141.83830477802189
  0
LINE
  8
_e-0_
  6
CONTINUOUS
 62
    7
 10
2598.2444761483161
 20
138.25809761488983
 11
2629.5534764025951
 21
149.65364177207987
  0
LINE
  8
_e-0_
  6
CONTINUOUS
 62
    7
 10
2582.6330921261528
 20
169.82224055178022
 11
2621.2234503919626
 21
183.86798229020314
  0
LINE
  8
_e-0_
  6
CONTINUOUS
 62
    7
 10
2592.2968185805402
 20
141.41421615899105
 11
2632.0809325371146
 21
155.89444943583799
  0
LINE
  8
_e-0_
  6
CONTINUOUS
 62
    7
 10
2588.0695495912832
 20
145.19650493704432
 11
2602.246111940276
 21
150.35635165629656
  0
LINE
  8
_e-0_
  6
CONTINUOUS
 62
    7
 10
2585.0094293819529
 20
149.40360112995108
 11
2597.3909335115822
 21
153.91010008858017
  0
LINE
  8
_e-0_
  6
CONTINUOUS
 62
    7
 10
2582.919829983693
 20
153.96393800982366
 11
2594.8695180063709
 21
158.31326875884542
  0
LINE
  8
_e-0_
  6
CONTINUOUS
 62
    7
 10
2581.7538748691904
 20
158.86045391603374
 11
2594.1774270088017
 21
163.38225709870641
  0
LINE
  8
_e-0_
  6
CONTINUOUS
 62
    7
 10
2581.5798124660104
 20
164.11798924475078
 11
2595.9853391150813
 21
169.36117215394091
  0
LINE
  8
_e-0_
  6
CONTINUOUS
 62
    7
 10
2611.9748325174678
 20
175.18087181340547
 11
2625.6969314853622
 21
180.17530738937352
  0
LINE
  8
_e-0_
  6
CONTINUOUS
 62
    7
 10
2617.2029460570038
 20
171.76286066078091
 11
2628.9430705154381
 21
176.03591651023151
  0
LINE
  8
_e-0_
  6
CONTINUOUS
 62
    7
 10
2619.9310564926913
 20
167.43492279278257
 11
2631.1973168341919
 21
171.53550620858254
  0
LINE
  8
_e-0_
  6
CONTINUOUS
 62
    7
 10
2620.8298424207368
 20
162.44116525518904
 11
2632.5279188691888
 21
166.69891688059578
  0
LINE
  8
_e-0_
  6
CONTINUOUS
 62
    7
 10
2619.394865425299
 20
156.5979874796136
 11
2632.8880000931144
 21
161.50908686564349
  0
LINE
  8
ADD_LINE
  6
DOT
 62
    9
 10
2339.5613566552269
 20
120
 11
2339.5613566552269
 21
220
  0
LINE
  8
ADD_LINE
  6
DOT
 62
    9
 10
2486.2246783741707
 20
220
 11
2486.2246783741707
 21
120
  0
LINE
  8
ADD_LINE
  6
DOT
 62
    9
 10
2632.8880000931144
 20
120
 11
2632.8880000931144
 21
220
  0
LINE
  8
ADD_LINE
  6
DOT
 62
    9
 10
2220
 20
220
 11
2220
 21
120
  0
LINE
  8
ADD_LINE
  6
DOT
 62
    9
 10
2710
 20
220
 11
2710
 21
120
  0
TEXT
  8
_e-0_
 62
    7
 10
2642.8586825750176
 20
180.56247057449553
 40
35
 41
0.5714285714285713
 50
0
  1
ワンド
  0
TEXT
  8
_e-0_
 62
    7
 10
2649.7045100149039
 20
147.0179161190498
 40
30
 41
0.6666666666666666
 50
0
  1
株式
  0
TEXT
  8
_e-0_
 62
    7
 10
2649.0199272709155
 20
118.95002361551377
 40
30
 41
0.6666666666666666
 50
0
  1
会社
  0
TEXT
  8
_f-8_
 62
    7
 10
670.3608534198961
 20
136.89446932753355
 40
45
 41
0.8
 50
0
  1
隅吊り戸棚　高さ４５ｃｍタイプ
  0
TEXT
  8
_f-8_
 62
    7
 10
1584.9893617021277
 20
137.4973985431842
 40
45
 41
0.6666666666666666
 50
0
  1
ＫＴＤ３－４５－７５ＨＣ
  0
TEXT
  8
_f-8_
 62
    7
 10
3043
 20
142.5
 40
35
 41
0.5714285714285713
 50
0
  1
２０２３．０５．０１
  0
TEXT
  8
_f-8_
 62
    7
 10
3582
 20
145
 40
30
 41
0.7333333333333332
 50
0
  1
Ｔ．Ｋ
  0
LINE
  8
ADD_LINE
  6
DOT
 62
    9
 10
4115
 20
2845
 11
4130
 21
2845
  0
LINE
  8
ADD_LINE
  6
DOT
 62
    9
 10
4130
 20
2845
 11
4130
 21
2860
  0
LINE
  8
ADD_LINE
  6
DOT
 62
    9
 10
4130
 20
2860
 11
4115
 21
2860
  0
LINE
  8
ADD_LINE
  6
DOT
 62
    9
 10
4115
 20
2860
 11
4115
 21
2845
  0
LINE
  8
_0-d_
  6
CONTINUOUS
 62
    7
 10
4115
 20
2284.9999999999995
 11
2834.7428029255934
 21
2284.9999999999995
  0
TEXT
  8
_0-d_
 62
    7
 10
2914.5955739690975
 20
2724.6800031696598
 40
35
 41
0.857142857142857
 50
0
  1
天　板
  0
LINE
  8
_0-d_
  6
CONTINUOUS
 62
    3
 10
4115
 20
2845
 11
2834.7428029255934
 21
2845
  0
TEXT
  8
_0-d_
 62
    7
 10
3280.2433029255939
 20
2795
 40
35
 41
0.857142857142857
 50
0
  1
仕　様
  0
TEXT
  8
_0-d_
 62
    7
 10
3174.7428029255934
 20
2722.4999999999995
 40
35
 41
0.857142857142857
 50
0
  1
片面化粧パーティクルボード　１５ｔ
  0
LINE
  8
_0-d_
  6
CONTINUOUS
 62
    3
 10
2834.7428029255934
 20
2214.9999999999995
 11
4115
 21
2214.9999999999995
  0
LINE
  8
_0-d_
  6
CONTINUOUS
 62
    7
 10
4115
 20
2564.9999999999995
 11
2834.7428029255934
 21
2564.9999999999995
  0
LINE
  8
_0-d_
  6
CONTINUOUS
 62
    7
 10
4115
 20
2494.9999999999995
 11
2834.7428029255934
 21
2494.9999999999995
  0
LINE
  8
_0-d_
  6
CONTINUOUS
 62
    7
 10
4115
 20
2424.9999999999995
 11
2834.7428029255934
 21
2424.9999999999995
  0
LINE
  8
_0-d_
  6
CONTINUOUS
 62
    7
 10
4115
 20
2354.9999999999995
 11
2834.7428029255934
 21
2354.9999999999995
  0
LINE
  8
_0-d_
  6
CONTINUOUS
 62
    7
 10
4115
 20
2634.9999999999995
 11
2834.7428029255934
 21
2634.9999999999995
  0
LINE
  8
_0-d_
  6
CONTINUOUS
 62
    7
 10
4115
 20
2704.9999999999995
 11
2834.7428029255934
 21
2704.9999999999995
  0
LINE
  8
_0-d_
  6
CONTINUOUS
 62
    7
 10
4115
 20
2775
 11
2834.7428029255934
 21
2775
  0
LINE
  8
_0-d_
  6
CONTINUOUS
 62
    7
 10
4115
 20
2780
 11
2834.7428029255934
 21
2780
  0
TEXT
  8
_0-d_
 62
    7
 10
2914.7428029255925
 20
2232.4999999999995
 40
35
 41
0.857142857142857
 50
0
  1
棚　板
  0
TEXT
  8
_0-d_
 62
    7
 10
2914.7428029255925
 20
2302.4999999999995
 40
35
 41
0.857142857142857
 50
0
  1
丁　番
  0
TEXT
  8
_0-d_
 62
    7
 10
2914.7428029255943
 20
2372.4999999999995
 40
35
 41
0.857142857142857
 50
0
  1
　扉
  0
TEXT
  8
_0-d_
 62
    7
 10
2914.7428029255925
 20
2442.4999999999995
 40
35
 41
0.857142857142857
 50
0
  1
背　板
  0
TEXT
  8
_0-d_
 62
    7
 10
2914.7428029255925
 20
2512.4999999999995
 40
35
 41
0.857142857142857
 50
0
  1
見　上　板
  0
TEXT
  8
_0-d_
 62
    7
 10
2914.7428029255925
 20
2652.4999999999995
 40
35
 41
0.857142857142857
 50
0
  1
左　側　板
  0
TEXT
  8
_0-d_
 62
    7
 10
2914.7428029255925
 20
2582.4999999999995
 40
35
 41
0.857142857142857
 50
0
  1
右　側　板
  0
LINE
  8
ADD_LINE
  6
DOT
 62
    9
 10
2835.9793253758125
 20
2812.5
 11
4115
 21
2812.5
  0
LINE
  8
ADD_LINE
  6
DOT
 62
    9
 10
3327.2433029255935
 20
2845
 11
3327.2433029255935
 21
2780
  0
LINE
  8
ADD_LINE
  6
DOT
 62
    9
 10
2837.6083976402992
 20
2739.9999999999995
 11
4115
 21
2739.9999999999995
  0
LINE
  8
ADD_LINE
  6
DOT
 62
    9
 10
2837.6083976402992
 20
2669.9999999999995
 11
4115
 21
2669.9999999999995
  0
LINE
  8
ADD_LINE
  6
DOT
 62
    9
 10
2835.9793253758125
 20
2599.9999999999995
 11
4115
 21
2599.9999999999995
  0
LINE
  8
ADD_LINE
  6
DOT
 62
    9
 10
2835.9793253758125
 20
2529.9999999999995
 11
4115
 21
2529.9999999999995
  0
LINE
  8
ADD_LINE
  6
DOT
 62
    9
 10
2835.9793253758125
 20
2459.9999999999995
 11
4115
 21
2459.9999999999995
  0
LINE
  8
ADD_LINE
  6
DOT
 62
    9
 10
2835.9793253758125
 20
2389.9999999999995
 11
4115
 21
2389.9999999999995
  0
LINE
  8
ADD_LINE
  6
DOT
 62
    9
 10
2835.9793253758125
 20
2319.9999999999995
 11
4115
 21
2319.9999999999995
  0
LINE
  8
ADD_LINE
  6
DOT
 62
    9
 10
2834.7428029255934
 20
2249.9999999999995
 11
4115
 21
2249.9999999999995
  0
LINE
  8
_0-d_
  6
CONTINUOUS
 62
    7
 10
4115
 20
2214.9999999999995
 11
2834.7428029255934
 21
2214.9999999999995
  0
LINE
  8
_0-d_
  6
CONTINUOUS
 62
    3
 10
2834.7428029255934
 20
2144.9999999999995
 11
4115
 21
2144.9999999999995
  0
LINE
  8
ADD_LINE
  6
DOT
 62
    9
 10
2834.7428029255934
 20
2179.9999999999995
 11
4115
 21
2179.9999999999995
  0
LINE
  8
_0-d_
  6
CONTINUOUS
 62
    3
 10
2834.7428029255934
 20
2845
 11
2834.7428029255934
 21
2144.9999999999995
  0
LINE
  8
_0-d_
  6
CONTINUOUS
 62
    3
 10
4115
 20
2845
 11
4115
 21
2144.9999999999995
  0
LINE
  8
_0-d_
  6
CONTINUOUS
 62
    7
 10
3134.7428029255934
 20
2775
 11
3134.7428029255934
 21
2144.9999999999995
  0
LINE
  8
ADD_LINE
  6
DOT
 62
    9
 10
2914.7428029255934
 20
2775
 11
2914.7428029255934
 21
2144.9999999999995
  0
LINE
  8
ADD_LINE
  6
DOT
 62
    9
 10
3174.7428029255934
 20
2775
 11
3174.7428029255934
 21
2144.9999999999995
  0
TEXT
  8
_0-d_
 62
    7
 10
3174.7428029255929
 20
2162.4999999999995
 40
35
 41
0.857142857142857
 50
0
  1
アルミ一文字把手
  0
TEXT
  8
_0-d_
 62
    7
 10
3175.7226805597765
 20
2583.714337742108
 40
35
 41
0.857142857142857
 50
0
  1
低圧メラミン化粧パーティクルボード　１２ｔ
  0
TEXT
  8
_0-d_
 62
    7
 10
3174.7428029255934
 20
2652.4999999999995
 40
35
 41
0.857142857142857
 50
0
  1
低圧メラミン化粧パーティクルボード　１２ｔ
  0
TEXT
  8
_0-d_
 62
    7
 10
3174.7428029255934
 20
2512.4999999999995
 40
35
 41
0.857142857142857
 50
0
  1
低圧メラミン化粧パーティクルボード　１５ｔ
  0
TEXT
  8
_0-d_
 62
    7
 10
3174.7428029255934
 20
2442.4999999999995
 40
35
 41
0.857142857142857
 50
0
  1
カラーＭＤＦ・落とし込み
  0
TEXT
  8
_0-d_
 62
    7
 10
2914.7428029255934
 20
2162.4999999999995
 40
35
 41
0.857142857142857
 50
0
  1
把　手
  0
TEXT
  8
_0-d_
 62
    7
 10
3174.7428029255934
 20
2232.4999999999995
 40
35
 41
0.857142857142857
 50
0
  1
可動式　棚板　１５ｔ
  0
TEXT
  8
_0-d_
 62
    7
 10
3174.7428029255929
 20
2302.4999999999995
 40
35
 41
0.857142857142857
 50
0
  1
ワンタッチスライド式丁番
  0
TEXT
  8
_0-d_
 62
    7
 10
3174.7428029255938
 20
2372.4999999999995
 40
35
 41
0.857142857142857
 50
0
  1
両面化粧パ－ティクルボ－ド　１２ｔ　耐震ラッチ付
  0
TEXT
  8
_0-d_
 62
    7
 10
3860.6210602131609
 20
2079.9999999999995
 40
35
 41
0.857142857142857
 50
0
  1
扉　色
  0
TEXT
  8
_0-d_
 62
    7
 10
3715.7122200188973
 20
2012.4999999999995
 40
35
 41
0.857142857142857
 50
0
  1
ＳＷ
  0
TEXT
  8
_0-d_
 62
    7
 10
3830.24212042632
 20
2012.4999999999995
 40
35
 41
0.857142857142857
 50
0
  1
ホワイト
  0
TEXT
  8
_0-d_
 62
    7
 10
3720.7036754285845
 20
1953.0893268157797
 40
35
 41
0.857142857142857
 50
0
  1
ＬＧ
  0
TEXT
  8
_0-d_
 62
    7
 10
3830.3411143313564
 20
1953.0893268157797
 40
35
 41
0.857142857142857
 50
0
  1
木　　目
  0
TEXT
  8
_0-d_
 62
    7
 10
3715.7122200188973
 20
1887.4999999999988
 40
35
 41
0.857142857142857
 50
0
  1
ＵＷ
  0
TEXT
  8
_0-d_
 62
    7
 10
3830.24212042632
 20
1887.4999999999988
 40
35
 41
0.857142857142857
 50
0
  1
ｳﾙﾄﾗﾎﾜｲﾄ（艶有）
  0
TEXT
  8
_0-d_
 62
    7
 10
3720.7036754285845
 20
1828.0893268157794
 40
35
 41
0.857142857142857
 50
0
  1
ＷＮ
  0
TEXT
  8
_0-d_
 62
    7
 10
3830.24212042632
 20
1827.4999999999988
 40
35
 41
0.857142857142857
 50
0
  1
ｳｨﾝｻﾞｰﾅｯﾄ（艶有）
  0
LINE
  8
ADD_LINE
  6
DOT
 62
    9
 10
3685.2421204263209
 20
2129.9999999999995
 11
3700.2421204263209
 21
2129.9999999999995
  0
LINE
  8
ADD_LINE
  6
DOT
 62
    9
 10
3700.2421204263209
 20
2129.9999999999995
 11
3700.2421204263209
 21
2144.9999999999995
  0
LINE
  8
ADD_LINE
  6
DOT
 62
    9
 10
3700.2421204263209
 20
2144.9999999999995
 11
3685.2421204263209
 21
2144.9999999999995
  0
LINE
  8
ADD_LINE
  6
DOT
 62
    9
 10
3685.2421204263209
 20
2144.9999999999995
 11
3685.2421204263209
 21
2129.9999999999995
  0
LINE
  8
_0-d_
  6
CONTINUOUS
 62
    3
 10
4115
 20
2129.9999999999995
 11
4115
 21
1634.9999999999986
  0
LINE
  8
ADD_LINE
  6
DOT
 62
    9
 10
3830.24212042632
 20
2059.9999999999995
 11
3830.24212042632
 21
1939.9999999999988
  0
LINE
  8
_0-d_
  6
CONTINUOUS
 62
    7
 10
3800.2421204263214
 20
2059.9999999999995
 11
3800.2421204263214
 21
1939.9999999999988
  0
TEXT
  8
_0-d_
 62
    7
 10
3720.7036754285845
 20
1768.0893268157792
 40
35
 41
0.857142857142857
 50
0
  1
ＢＳ
  0
TEXT
  8
_0-d_
 62
    7
 10
3830.341114331356
 20
1768.0893268157792
 40
35
 41
0.857142857142857
 50
0
  1
ブラックストーン
  0
LINE
  8
ADD_LINE
  6
DOT
 62
    9
 10
3750.2421204263214
 20
2059.9999999999995
 11
3750.2421204263214
 21
1939.9999999999988
  0
LINE
  8
_0-d_
  6
CONTINUOUS
 62
    3
 10
3700.2421204263214
 20
2129.9999999999995
 11
3700.2421204263214
 21
1634.9999999999986
  0
LINE
  8
_0-d_
  6
CONTINUOUS
 62
    7
 10
3800.2421204263214
 20
1934.9999999999988
 11
3800.2421204263214
 21
1634.9999999999986
  0
LINE
  8
ADD_LINE
  6
DOT
 62
    9
 10
3830.24212042632
 20
1934.9999999999988
 11
3830.24212042632
 21
1634.9999999999986
  0
LINE
  8
ADD_LINE
  6
DOT
 62
    9
 10
3750.2421204263214
 20
1934.9999999999988
 11
3750.2421204263214
 21
1634.9999999999986
  0
TEXT
  8
_0-d_
 62
    7
 10
3720.7036754285845
 20
1708.0893268157792
 40
35
 41
0.857142857142857
 50
0
  1
ＰＭ
  0
TEXT
  8
_0-d_
 62
    7
 10
3830.3411143313564
 20
1708.0893268157792
 40
35
 41
0.857142857142857
 50
0
  1
ペールグレイン
  0
TEXT
  8
_0-d_
 62
    7
 10
3720.7036754285845
 20
1648.0893268157792
 40
35
 41
0.857142857142857
 50
0
  1
ＭＤ
  0
TEXT
  8
_0-d_
 62
    7
 10
3830.3411143313564
 20
1648.0893268157792
 40
35
 41
0.857142857142857
 50
0
  1
ダークグレイン
  0
LINE
  8
_0-d_
  6
CONTINUOUS
 62
    3
 10
4115
 20
2129.9999999999995
 11
3700.2421204263214
 21
2129.9999999999995
  0
LINE
  8
_0-d_
  6
CONTINUOUS
 62
    3
 10
4115
 20
1634.9999999999986
 11
3700.2421204263214
 21
1634.9999999999986
  0
LINE
  8
_0-d_
  6
CONTINUOUS
 62
    7
 10
3700.2421204263214
 20
1999.9999999999995
 11
4115
 21
1999.9999999999995
  0
LINE
  8
_0-d_
  6
CONTINUOUS
 62
    7
 10
4115
 20
1999.9999999999995
 11
3700.2421204263214
 21
1999.9999999999995
  0
LINE
  8
_0-d_
  6
CONTINUOUS
 62
    3
 10
4115
 20
1999.9999999999995
 11
3700.2421204263214
 21
1999.9999999999995
  0
LINE
  8
_0-d_
  6
CONTINUOUS
 62
    3
 10
4115
 20
1939.9999999999988
 11
3700.2421204263214
 21
1939.9999999999988
  0
LINE
  8
ADD_LINE
  6
DOT
 62
    9
 10
3700.2421204263214
 20
1969.9999999999988
 11
4115
 21
1969.9999999999988
  0
LINE
  8
_0-d_
  6
CONTINUOUS
 62
    7
 10
4115
 20
1874.9999999999988
 11
3700.2421204263214
 21
1874.9999999999988
  0
LINE
  8
_0-d_
  6
CONTINUOUS
 62
    3
 10
4115
 20
1874.9999999999988
 11
3700.2421204263214
 21
1874.9999999999988
  0
LINE
  8
_0-d_
  6
CONTINUOUS
 62
    3
 10
4115
 20
1814.9999999999988
 11
3700.2421204263214
 21
1814.9999999999988
  0
LINE
  8
_0-d_
  6
CONTINUOUS
 62
    7
 10
3700.2421204263214
 20
1874.9999999999988
 11
4115
 21
1874.9999999999988
  0
LINE
  8
_0-d_
  6
CONTINUOUS
 62
    7
 10
4115
 20
1939.9999999999988
 11
3700.2421204263214
 21
1939.9999999999988
  0
LINE
  8
_0-d_
  6
CONTINUOUS
 62
    7
 10
4115
 20
1934.9999999999988
 11
3700.2421204263214
 21
1934.9999999999988
  0
LINE
  8
ADD_LINE
  6
DOT
 62
    9
 10
3700.2421204263214
 20
1904.9999999999988
 11
4115
 21
1904.9999999999988
  0
LINE
  8
ADD_LINE
  6
DOT
 62
    9
 10
3700.2421204263214
 20
1844.9999999999988
 11
4115
 21
1844.9999999999988
  0
LINE
  8
_0-d_
  6
CONTINUOUS
 62
    7
 10
4115
 20
1814.9999999999988
 11
3700.2421204263214
 21
1814.9999999999988
  0
LINE
  8
_0-d_
  6
CONTINUOUS
 62
    3
 10
4115
 20
1814.9999999999988
 11
3700.2421204263214
 21
1814.9999999999988
  0
LINE
  8
_0-d_
  6
CONTINUOUS
 62
    3
 10
4115
 20
1754.9999999999986
 11
3700.2421204263214
 21
1754.9999999999986
  0
LINE
  8
_0-d_
  6
CONTINUOUS
 62
    7
 10
3700.2421204263214
 20
1814.9999999999988
 11
4115
 21
1814.9999999999988
  0
LINE
  8
ADD_LINE
  6
DOT
 62
    9
 10
3700.2421204263214
 20
1784.9999999999986
 11
4115
 21
1784.9999999999986
  0
LINE
  8
_0-d_
  6
CONTINUOUS
 62
    7
 10
4115
 20
1754.9999999999986
 11
3700.2421204263214
 21
1754.9999999999986
  0
LINE
  8
_0-d_
  6
CONTINUOUS
 62
    3
 10
4115
 20
1754.9999999999986
 11
3700.2421204263214
 21
1754.9999999999986
  0
LINE
  8
_0-d_
  6
CONTINUOUS
 62
    3
 10
4115
 20
1694.9999999999986
 11
3700.2421204263214
 21
1694.9999999999986
  0
LINE
  8
_0-d_
  6
CONTINUOUS
 62
    7
 10
3700.2421204263214
 20
1754.9999999999986
 11
4115
 21
1754.9999999999986
  0
LINE
  8
ADD_LINE
  6
DOT
 62
    9
 10
3700.2421204263214
 20
1724.9999999999986
 11
4115
 21
1724.9999999999986
  0
LINE
  8
_0-d_
  6
CONTINUOUS
 62
    7
 10
4115
 20
1694.9999999999986
 11
3700.2421204263214
 21
1694.9999999999986
  0
LINE
  8
_0-d_
  6
CONTINUOUS
 62
    3
 10
4115
 20
1694.9999999999986
 11
3700.2421204263214
 21
1694.9999999999986
  0
LINE
  8
_0-d_
  6
CONTINUOUS
 62
    7
 10
3700.2421204263214
 20
1694.9999999999986
 11
4115
 21
1694.9999999999986
  0
LINE
  8
ADD_LINE
  6
DOT
 62
    9
 10
3700.2421204263214
 20
1664.9999999999986
 11
4115
 21
1664.9999999999986
  0
LINE
  8
ADD_LINE
  6
DOT
 62
    9
 10
3700.2421204263214
 20
2029.9999999999995
 11
4115
 21
2029.9999999999995
  0
LINE
  8
_0-d_
  6
CONTINUOUS
 62
    7
 10
4115
 20
2059.9999999999995
 11
3700.2421204263214
 21
2059.9999999999995
  0
LINE
  8
ADD_LINE
  6
DOT
 62
    9
 10
3700.2421204263214
 20
2097.4999999999995
 11
4115
 21
2097.4999999999995
  0
LINE
  8
_0-d_
  6
CONTINUOUS
 62
    7
 10
4115
 20
2064.9999999999995
 11
3700.2421204263214
 21
2064.9999999999995
  0
LINE
  8
ADD_LINE
  6
DOT
 62
    9
 10
3907.6210602131604
 20
2129.9999999999995
 11
3907.6210602131604
 21
2064.9999999999995
  0
POINT
  8
_0-9_
 62
    3
 10
3858.5000000000009
 20
1021.4999999999997
  0
POINT
  8
_0-9_
 62
    3
 10
3858.5000000000009
 20
1021.4999999999997
  0
POINT
  8
_0-9_
 62
    3
 10
3568.5000000000009
 20
1021.4999999999997
  0
LINE
  8
_0-9_
  6
CONTINUOUS
 62
    4
 10
3858.5000000000009
 20
1021.4999999999997
 11
3568.5000000000009
 21
1021.4999999999997
  0
TEXT
  8
_0-9_
 62
    7
 10
3680.4000000000005
 20
1021.4999999999997
 40
35
 41
0.6285714285714286
 50
0
  1
２９０
  0
LINE
  8
_0-9_
  6
CONTINUOUS
 62
    4
 10
3568.5000000000009
 20
1031.4999999999997
 11
3568.5000000000009
 21
982.36212086917157
  0
LINE
  8
_0-9_
  6
CONTINUOUS
 62
    4
 10
3858.5000000000009
 20
1031.4999999999997
 11
3858.5000000000009
 21
982.36212086917157
  0
LINE
  8
ADD_LINE
  6
DOT
 62
    9
 10
763.72979139504536
 20
357.5
 11
1013.7297913950455
 21
357.5
  0
LINE
  8
ADD_LINE
  6
DOT
 62
    9
 10
888.72979139504559
 20
322.5
 11
888.72979139504559
 21
392.5
  0
LINE
  8
ADD_LINE
  6
DOT
 62
    9
 10
888.72979139504559
 20
1580.0000000000002
 11
888.72979139504559
 21
1650.0000000000002
  0
LINE
  8
_0-8_
  6
CONTINUOUS
 62
    4
 10
1063.7297913950455
 20
1650.0000000000002
 11
1063.7297913950455
 21
1580.0000000000002
  0
LINE
  8
_0-8_
  6
CONTINUOUS
 62
    4
 10
713.72979139504536
 20
1650.0000000000002
 11
713.72979139504536
 21
1580.0000000000002
  0
LINE
  8
_0-8_
  6
CONTINUOUS
 62
    4
 10
713.72979139504536
 20
1650.0000000000002
 11
1063.7297913950455
 21
1650.0000000000002
  0
LINE
  8
_0-8_
  6
CONTINUOUS
 62
    4
 10
713.72979139504536
 20
1580.0000000000002
 11
1063.7297913950455
 21
1580.0000000000002
  0
LINE
  8
ADD_LINE
  6
DOT
 62
    9
 10
713.72979139504536
 20
1615.0000000000002
 11
1063.7297913950455
 21
1615.0000000000002
  0
TEXT
  8
_0-8_
 62
    7
 10
738.27979139504464
 20
1597.5000000000002
 40
35
 41
0.857142857142857
 50
0
  1
背面図（矢視Ｃ－Ｃ）
  0
LINE
  8
_0-8_
  6
CONTINUOUS
 62
    4
 10
1063.7297913950455
 20
395
 11
1063.7297913950455
 21
325
  0
LINE
  8
_0-8_
  6
CONTINUOUS
 62
    4
 10
713.72979139504536
 20
395
 11
713.72979139504536
 21
325
  0
LINE
  8
_0-8_
  6
CONTINUOUS
 62
    4
 10
713.72979139504536
 20
395
 11
1063.7297913950455
 21
395
  0
LINE
  8
_0-8_
  6
CONTINUOUS
 62
    4
 10
713.72979139504536
 20
325
 11
1063.7297913950455
 21
325
  0
TEXT
  8
_0-8_
 62
    7
 10
738.27979139504464
 20
342.5
 40
35
 41
0.857142857142857
 50
0
  1
背面図（矢視Ｄ－Ｄ）
  0
LINE
  8
ADD_LINE
  6
DOT
 62
    9
 10
2530
 20
1200
 11
2530
 21
690
  0
LINE
  8
_0-9_
  6
CONTINUOUS
 62
    4
 10
1382.0000000000002
 20
1127.5
 11
1229.9999999999997
 21
1127.5
  0
ENDSEC
  0
EOF
