  0
SECTION
  2
HEADER
  9
$ACADVER
  1
AC1009
  9
$INSBASE
 10
0
 20
0
 30
0
  9
$EXTMIN
 10
0
 20
0
  9
$EXTMAX
 10
4200
 20
2970
  9
$LIMMIN
 10
0
 20
0
  9
$LIMMAX
 10
4200
 20
2970
  9
$LTSCALE
 40
10
  0
ENDSEC
  0
SECTION
  2
TABLES
  0
TABLE
  2
LTYPE
 70
     9
  0
LTYPE
  2
CONTINUOUS
 70
    64
  3
実線
 72
    65
 73
     0
 40
0.0
  0
LTYPE
  2
DASHED1
 70
    64
  3
--  --  --  --  --  --  --  --  
 72
    65
 73
     2
 40
2.5
 49
1.25
 49
-1.25
  0
LTYPE
  2
DASHED2
 70
    64
  3
----    ----    ----    ----    
 72
    65
 73
     2
 40
5.0
 49
2.5
 49
-2.5
  0
LTYPE
  2
DASHED3
 70
    64
  3
------  ------  ------  ------  
 72
    65
 73
     2
 40
5.0
 49
3.75
 49
-1.25
  0
LTYPE
  2
CENTER1
 70
    64
  3
----- - ----- - ----- - ----- - 
 72
    65
 73
     4
 40
10.0
 49
6.25
 49
-1.25
 49
1.25
 49
-1.25
  0
LTYPE
  2
CENTER2
 70
    64
  3
----------  --  ----------  --  
 72
    65
 73
     4
 40
20.0
 49
12.5
 49
-2.5
 49
2.5
 49
-2.5
  0
LTYPE
  2
PHANTOM1
 70
    64
  3
--- - - --- - - --- - - --- - - 
 72
    65
 73
     6
 40
10.0
 49
3.25
 49
-1.25
 49
1.25
 49
-1.25
 49
1.25
 49
-1.25
  0
LTYPE
  2
PHANTOM2
 70
    64
  3
--------  -  -  --------  -  -  
 72
    65
 73
     6
 40
20.0
 49
10.0
 49
-2.5
 49
1.25
 49
-2.5
 49
1.25
 49
-2.5
  0
LTYPE
  2
DOT
 70
    64
  3
-   -   -   -   -   -   -   -   
 72
    65
 73
     2
 40
2.5
 49
0.625
 49
-1.875
  0
LTYPE
  2
DUMMY
 70
    64
  3
ダミー
 72
    65
 73
     0
 40
0.0
  0
LTYPE
  2
RAND1
 70
    64
  3
ランダム線1
 72
    65
 73
     4
 40
10.0
 49
1.0
 49
-2.0
 49
3.0
 49
-4.0
  0
LTYPE
  2
RAND2
 70
    64
  3
ランダム線2
 72
    65
 73
     4
 40
14.0
 49
2.0
 49
-3.0
 49
4.0
 49
-5.0
  0
LTYPE
  2
RAND3
 70
    64
  3
ランダム線3
 72
    65
 73
     4
 40
18.0
 49
3.0
 49
-4.0
 49
5.0
 49
-6.0
  0
LTYPE
  2
RAND4
 70
    64
  3
ランダム線4
 72
    65
 73
     4
 40
22.0
 49
4.0
 49
-5.0
 49
6.0
 49
-7.0
  0
LTYPE
  2
RAND5
 70
    64
  3
ランダム線5
 72
    65
 73
     4
 40
26.0
 49
5.0
 49
-6.0
 49
7.0
 49
-8.0
  0
LTYPE
  2
LONG1
 70
    64
  3
----------  --  ----------  --  
 72
    65
 73
     4
 40
40.0
 49
32.5
 49
-2.5
 49
2.5
 49
-2.5
  0
LTYPE
  2
LONG2
 70
    64
  3
--------  -  -  --------  -  -  
 72
    65
 73
     6
 40
40.0
 49
30.0
 49
-2.5
 49
1.25
 49
-2.5
 49
1.25
 49
-2.5
  0
LTYPE
  2
LONG3
 70
    64
  3
+++++++++++++++..+++++++++++++++
 72
    65
 73
     2
 40
40.0
 49
37.5
 49
-2.5
  0
LTYPE
  2
LONG4
 70
    64
  3
+++++++++++++++..+++++++++++++++
 72
    65
 73
     2
 40
80.0
 49
75.0
 49
-5.0
  0
LTYPE
  2
LONG5
 70
    64
  3
----------  --  ----------  --  
 72
    65
 73
     4
 40
60.0
 49
37.5
 49
-7.5
 49
7.5
 49
-7.5
  0
LTYPE
  2
dashed
 70
   64
  3
-------   -------------   ------
 72
   65
 73
    2
 40
7.5
 49
6
 49
-1.5
  0
LTYPE
  2
dashed_spaced
 70
   64
  3
----        --------        ----
 72
   65
 73
    2
 40
12
 49
6
 49
-6
  0
LTYPE
  2
long_dashed_dotted
 70
   64
  3
------------- --- --------------
 72
   65
 73
    4
 40
15.25
 49
12
 49
-1.5
 49
0.25
 49
-1.5
  0
LTYPE
  2
long_dashed_double-dotted
 70
   64
  3
----------- --- --- ------------
 72
   65
 73
    6
 40
17
 49
12
 49
-1.5
 49
0.25
 49
-1.5
 49
0.25
 49
-1.5
  0
LTYPE
  2
long_dashed_triplicate-dotted
 70
   64
  3
--------- --- --- --- ----------
 72
   65
 73
    8
 40
18.75
 49
12
 49
-1.5
 49
0.25
 49
-1.5
 49
0.25
 49
-1.5
 49
0.25
 49
-1.5
  0
LTYPE
  2
dotted
 70
   64
  3
   -       -       -       -    
 72
   65
 73
    2
 40
1.75
 49
0.25
 49
-1.5
  0
LTYPE
  2
chain
 70
   64
  3
-------------- -- --------------
 72
   65
 73
    4
 40
18.5
 49
12
 49
-1.5
 49
3.5
 49
-1.5
  0
LTYPE
  2
chain_double_dash
 70
   64
  3
------------ -- -- -------------
 72
   65
 73
    6
 40
23.5
 49
12
 49
-1.5
 49
3.5
 49
-1.5
 49
3.5
 49
-1.5
  0
LTYPE
  2
dashed_dotted
 70
   64
  3
-----------     -     ----------
 72
   65
 73
    4
 40
9.25
 49
6
 49
-1.5
 49
0.25
 49
-1.5
  0
LTYPE
  2
double-dashed_dotted
 70
   64
  3
------   -----------   -   -----
 72
   65
 73
    6
 40
16.75
 49
6
 49
-1.5
 49
6
 49
-1.5
 49
0.25
 49
-1.5
  0
LTYPE
  2
dashed_double-dotted
 70
   64
  3
---------    -    -    ---------
 72
   65
 73
    6
 40
11
 49
6
 49
-1.5
 49
0.25
 49
-1.5
 49
0.25
 49
-1.5
  0
LTYPE
  2
double-dashed_double-dotted
 70
   64
  3
-----   ---------   -   -   ----
 72
   65
 73
    8
 40
18.5
 49
6
 49
-1.5
 49
6
 49
-1.5
 49
0.25
 49
-1.5
 49
0.25
 49
-1.5
  0
LTYPE
  2
dashed_triplicate-dotted
 70
   64
  3
-------    -    -    -    ------
 72
   65
 73
    8
 40
12.75
 49
6
 49
-1.5
 49
0.25
 49
-1.5
 49
0.25
 49
-1.5
 49
0.25
 49
-1.5
  0
LTYPE
  2
double-dashed_triplicate-dotted
 70
   64
  3
-----  ---------  -  -  -  -----
 72
   65
 73
   10
 40
20.25
 49
6
 49
-1.5
 49
6
 49
-1.5
 49
0.25
 49
-1.5
 49
0.25
 49
-1.5
 49
0.25
 49
-1.5
  0
LTYPE
  2
undefined
 70
   64
  3
--------------------------------
 72
   65
 73
    0
 40
0
  0
LTYPE
  2
_
 70
   64
  3
                                
 72
   65
 73
    0
 40
0
  0
LTYPE
  2
__18
 70
   64
  3
                                
 72
   65
 73
    0
 40
0
  0
LTYPE
  2
__19
 70
   64
  3
                                
 72
   65
 73
    0
 40
0
  0
LTYPE
  2
__20
 70
   64
  3
                                
 72
   65
 73
    0
 40
0
  0
LTYPE
  2
__21
 70
   64
  3
                                
 72
   65
 73
    0
 40
0
  0
LTYPE
  2
__22
 70
   64
  3
                                
 72
   65
 73
    0
 40
0
  0
LTYPE
  2
__23
 70
   64
  3
                                
 72
   65
 73
    0
 40
0
  0
LTYPE
  2
__24
 70
   64
  3
                                
 72
   65
 73
    0
 40
0
  0
LTYPE
  2
__25
 70
   64
  3
                                
 72
   65
 73
    0
 40
0
  0
LTYPE
  2
__26
 70
   64
  3
                                
 72
   65
 73
    0
 40
0
  0
LTYPE
  2
__27
 70
   64
  3
                                
 72
   65
 73
    0
 40
0
  0
LTYPE
  2
__28
 70
   64
  3
                                
 72
   65
 73
    0
 40
0
  0
LTYPE
  2
__29
 70
   64
  3
                                
 72
   65
 73
    0
 40
0
  0
LTYPE
  2
__30
 70
   64
  3
                                
 72
   65
 73
    0
 40
0
  0
LTYPE
  2
__31
 70
   64
  3
                                
 72
   65
 73
    0
 40
0
  0
LTYPE
  2
__32
 70
   64
  3
                                
 72
   65
 73
    0
 40
0
  0
ENDTAB
  0
TABLE
  2
STYLE
  5
3
100
AcDbSymbolTable
 70
     1
  0
STYLE
  5
10
100
AcDbSymbolTableRecord
100
AcDbTextStyleTableRecord
  2
STANDARD
 70
     0
 40
0.0
 41
1.0
 50
0.0
 71
     0
 42
0.2
  3
txt
  4
bigfont.shx
  0
STYLE
  5
26
100
AcDbSymbolTableRecord
100
AcDbTextStyleTableRecord
  2
TATEGAKI
 70
    68
 40
0.0
 41
1.0
 50
0.0
 71
     0
 42
1.0
  3
txt
  4
bigfont.shx
  0
ENDTAB
  0
TABLE
  2
LAYER
 70
   19
  0
LAYER
  2
_0-0_
 70
   64
 62
    7
  6
CONTINUOUS
  0
LAYER
  2
_0-3_
 70
   64
 62
    7
  6
CONTINUOUS
  0
LAYER
  2
_0-4_
 70
   64
 62
    7
  6
CONTINUOUS
  0
LAYER
  2
_0-5_
 70
   64
 62
    7
  6
CONTINUOUS
  0
LAYER
  2
_0-6_
 70
   64
 62
    7
  6
CONTINUOUS
  0
LAYER
  2
_0-8_
 70
   64
 62
    7
  6
CONTINUOUS
  0
LAYER
  2
_0-9_
 70
   64
 62
    7
  6
CONTINUOUS
  0
LAYER
  2
_0-a_
 70
   64
 62
    7
  6
CONTINUOUS
  0
LAYER
  2
_0-d_
 70
   64
 62
    7
  6
CONTINUOUS
  0
LAYER
  2
_1-1_
 70
   64
 62
    7
  6
CONTINUOUS
  0
LAYER
  2
_e-0_
 70
   64
 62
    7
  6
CONTINUOUS
  0
LAYER
  2
_f-0_
 70
   64
 62
    7
  6
CONTINUOUS
  0
LAYER
  2
_f-7_
 70
   64
 62
    7
  6
CONTINUOUS
  0
LAYER
  2
_f-8_
 70
   64
 62
    7
  6
CONTINUOUS
  0
LAYER
  2
_f-9_
 70
   64
 62
    7
  6
CONTINUOUS
  0
LAYER
  2
_f-d_固定文字
 70
   64
 62
    7
  6
CONTINUOUS
  0
LAYER
  2
_f-e_
 70
   64
 62
    7
  6
CONTINUOUS
  0
LAYER
  2
_f-f_図面枠
 70
   64
 62
    7
  6
CONTINUOUS
  0
LAYER
  2
ADD_LINE
 70
   64
 62
    7
  6
CONTINUOUS
  0
ENDTAB
  0
ENDSEC
  0
SECTION
  2
BLOCKS
  0
ENDSEC
  0
SECTION
  2
ENTITIES
  0
LINE
  8
ADD_LINE
  6
DOT
 62
    9
 10
74.98500000000007
 20
55
 11
4144.9850000000006
 21
55
  0
LINE
  8
ADD_LINE
  6
DOT
 62
    9
 10
74.98500000000007
 20
2875
 11
74.98500000000007
 21
55
  0
LINE
  8
ADD_LINE
  6
DOT
 62
    9
 10
120.02999999999986
 20
65
 11
120.02999999999986
 21
2860
  0
LINE
  8
ADD_LINE
  6
DOT
 62
    9
 10
4144.9850000000006
 20
2875
 11
74.98500000000007
 21
2875
  0
LINE
  8
ADD_LINE
  6
DOT
 62
    9
 10
4144.9850000000006
 20
55
 11
4144.9850000000006
 21
2875
  0
LINE
  8
_f-9_
  6
CONTINUOUS
 62
    7
 10
630
 20
120
 11
630
 21
220
  0
LINE
  8
ADD_LINE
  6
DOT
 62
    9
 10
170
 20
120
 11
170
 21
220
  0
LINE
  8
ADD_LINE
  6
DOT
 62
    9
 10
610
 20
120
 11
610
 21
220
  0
LINE
  8
_f-9_
  6
CONTINUOUS
 62
    7
 10
170
 20
120
 11
610
 21
120
  0
LINE
  8
_f-9_
  6
CONTINUOUS
 62
    7
 10
170
 20
220
 11
610
 21
220
  0
LINE
  8
_f-9_
  6
CONTINUOUS
 62
    7
 10
1420
 20
120
 11
1420
 21
220
  0
LINE
  8
_f-9_
  6
CONTINUOUS
 62
    7
 10
2210
 20
120
 11
2210
 21
220
  0
LINE
  8
_f-9_
  6
CONTINUOUS
 62
    7
 10
2220
 20
120
 11
2220
 21
220
  0
LINE
  8
_f-9_
  6
CONTINUOUS
 62
    7
 10
630
 20
120
 11
2210
 21
120
  0
LINE
  8
_f-9_
  6
CONTINUOUS
 62
    7
 10
630
 20
220
 11
2210
 21
220
  0
LINE
  8
_f-9_
  6
CONTINUOUS
 62
    7
 10
2710
 20
120
 11
2710
 21
220
  0
LINE
  8
_f-9_
  6
CONTINUOUS
 62
    7
 10
2720
 20
120
 11
2720
 21
220
  0
LINE
  8
_f-9_
  6
CONTINUOUS
 62
    7
 10
2220
 20
120
 11
2710
 21
120
  0
LINE
  8
_f-9_
  6
CONTINUOUS
 62
    7
 10
2220
 20
220
 11
2710
 21
220
  0
LINE
  8
_f-9_
  6
CONTINUOUS
 62
    7
 10
3020
 20
120
 11
3020
 21
220
  0
LINE
  8
_f-9_
  6
CONTINUOUS
 62
    7
 10
3320
 20
120
 11
3320
 21
220
  0
LINE
  8
_f-9_
  6
CONTINUOUS
 62
    7
 10
3700
 20
120
 11
3700
 21
220
  0
LINE
  8
_f-9_
  6
CONTINUOUS
 62
    7
 10
2720
 20
120
 11
4110
 21
120
  0
LINE
  8
_f-9_
  6
CONTINUOUS
 62
    7
 10
4110
 20
120
 11
4110
 21
220
  0
LINE
  8
_f-9_
  6
CONTINUOUS
 62
    7
 10
2720
 20
220
 11
4110
 21
220
  0
LINE
  8
_f-f_図面枠
  6
CONTINUOUS
 62
  230
 10
4130
 20
2860
 11
4130
 21
100
  0
LINE
  8
_f-f_図面枠
  6
CONTINUOUS
 62
  230
 10
150
 20
2860
 11
4130
 21
2860
  0
LINE
  8
_f-f_図面枠
  6
CONTINUOUS
 62
  230
 10
150
 20
100
 11
4130
 21
100
  0
LINE
  8
_f-f_図面枠
  6
CONTINUOUS
 62
  230
 10
150
 20
100
 11
150
 21
2860
  0
LINE
  8
ADD_LINE
  6
DOT
 62
    9
 10
630
 20
200
 11
2210
 21
200
  0
LINE
  8
ADD_LINE
  6
DOT
 62
    9
 10
2720
 20
200
 11
4110
 21
200
  0
LINE
  8
ADD_LINE
  6
DOT
 62
    9
 10
2740
 20
120
 11
2740
 21
220
  0
LINE
  8
ADD_LINE
  6
DOT
 62
    9
 10
3040
 20
120
 11
3040
 21
220
  0
LINE
  8
ADD_LINE
  6
DOT
 62
    9
 10
3340
 20
120
 11
3340
 21
220
  0
LINE
  8
ADD_LINE
  6
DOT
 62
    9
 10
3720
 20
120
 11
3720
 21
220
  0
LINE
  8
ADD_LINE
  6
DOT
 62
    9
 10
1445
 20
120
 11
1445
 21
220
  0
LINE
  8
ADD_LINE
  6
DOT
 62
    9
 10
655
 20
120
 11
655
 21
220
  0
LINE
  8
ADD_LINE
  6
DOT
 62
    9
 10
3660
 20
120
 11
3660
 21
220
  0
LINE
  8
ADD_LINE
  6
DOT
 62
    9
 10
2720
 20
160
 11
4110
 21
160
  0
TEXT
  8
_f-8_
 62
    7
 10
3340
 20
187.5
 40
25
 41
0.64
 50
0
  1
ＣＨＥＣＫＥＤ
  0
TEXT
  8
_f-8_
 62
    7
 10
3720
 20
187.5
 40
25
 41
0.64
 50
0
  1
ＳＨＥＥＴ　ＮＯ．
  0
TEXT
  8
_f-8_
 62
    7
 10
3542
 20
187.5
 40
25
 41
0.64
 50
0
  1
ＤＲＡＷＩＮＧ
  0
LINE
  8
ADD_LINE
  6
DOT
 62
    9
 10
135
 20
65
 11
135
 21
2860
  0
LINE
  8
_f-9_
  6
CONTINUOUS
 62
    7
 10
170
 20
170
 11
610
 21
170
  0
LINE
  8
ADD_LINE
  6
DOT
 62
    9
 10
2910
 20
120
 11
2910
 21
220
  0
LINE
  8
ADD_LINE
  6
DOT
 62
    9
 10
3170
 20
120
 11
3170
 21
220
  0
LINE
  8
ADD_LINE
  6
DOT
 62
    9
 10
3500
 20
220
 11
3500
 21
120
  0
LINE
  8
ADD_LINE
  6
DOT
 62
    9
 10
630
 20
160
 11
2210
 21
160
  0
LINE
  8
ADD_LINE
  6
DOT
 62
    9
 10
1025
 20
220
 11
1025
 21
120
  0
TEXT
  8
_f-8_
 62
    7
 10
2861
 20
142.5
 40
35
 41
0.5714285714285714
 50
0
  1
１／１０
  0
TEXT
  8
_f-8_
 62
    7
 10
2740.3739840854214
 20
187.46937299484983
 40
25
 41
0.64
 50
0
  1
ＳＣＡＬＥ
  0
TEXT
  8
_f-8_
 62
    7
 10
1445
 20
187.5
 40
25
 41
0.8
 50
0
  1
図面名称
  0
TEXT
  8
_f-8_
 62
    7
 10
655
 20
187.5
 40
25
 41
0.8
 50
0
  1
名　称
  0
LINE
  8
ADD_LINE
  6
DOT
 62
    9
 10
1815
 20
120
 11
1815
 21
220
  0
LINE
  8
_f-7_
  6
CONTINUOUS
 62
    7
 10
120
 20
1462.6794919243114
 11
120
 21
1497.3205080756886
  0
LINE
  8
_f-7_
  6
CONTINUOUS
 62
    7
 10
120
 20
1497.3205080756886
 11
150
 21
1480
  0
LINE
  8
_f-7_
  6
CONTINUOUS
 62
    7
 10
150
 20
1480
 11
120
 21
1462.6794919243114
  0
LINE
  8
_f-7_
  6
CONTINUOUS
 62
    7
 10
125
 20
1471.3397459621556
 11
125
 21
1488.6602540378444
  0
LINE
  8
_f-7_
  6
CONTINUOUS
 62
    7
 10
125
 20
1488.6602540378444
 11
140
 21
1480
  0
LINE
  8
_f-7_
  6
CONTINUOUS
 62
    7
 10
140
 20
1480
 11
125
 21
1471.3397459621556
  0
LINE
  8
_f-7_
  6
CONTINUOUS
 62
    7
 10
128.99999999999977
 20
1478.2679491924309
 11
128.99999999999977
 21
1481.7320508075691
  0
LINE
  8
_f-7_
  6
CONTINUOUS
 62
    7
 10
128.99999999999977
 20
1481.7320508075691
 11
132.00000000000045
 21
1480
  0
LINE
  8
_f-7_
  6
CONTINUOUS
 62
    7
 10
132.00000000000045
 20
1480
 11
128.99999999999977
 21
1478.2679491924309
  0
LINE
  8
_f-7_
  6
CONTINUOUS
 62
    7
 10
4160
 20
1462.6794919243114
 11
4160
 21
1497.3205080756886
  0
LINE
  8
_f-7_
  6
CONTINUOUS
 62
    7
 10
4160
 20
1497.3205080756886
 11
4130
 21
1480
  0
LINE
  8
_f-7_
  6
CONTINUOUS
 62
    7
 10
4130
 20
1480
 11
4160
 21
1462.6794919243114
  0
LINE
  8
_f-7_
  6
CONTINUOUS
 62
    7
 10
4155
 20
1471.3397459621556
 11
4155
 21
1488.6602540378444
  0
LINE
  8
_f-7_
  6
CONTINUOUS
 62
    7
 10
4155
 20
1488.6602540378444
 11
4140
 21
1480
  0
LINE
  8
_f-7_
  6
CONTINUOUS
 62
    7
 10
4140
 20
1480
 11
4155
 21
1471.3397459621556
  0
LINE
  8
_f-7_
  6
CONTINUOUS
 62
    7
 10
4151
 20
1478.2679491924309
 11
4151
 21
1481.7320508075691
  0
LINE
  8
_f-7_
  6
CONTINUOUS
 62
    7
 10
4151
 20
1481.7320508075691
 11
4148
 21
1480
  0
LINE
  8
_f-7_
  6
CONTINUOUS
 62
    7
 10
4148
 20
1480
 11
4151
 21
1478.2679491924309
  0
LINE
  8
ADD_LINE
  6
DOT
 62
    9
 10
1075
 20
220
 11
1075
 21
120
  0
LINE
  8
ADD_LINE
  6
DOT
 62
    9
 10
1865
 20
120
 11
1865
 21
220
  0
TEXT
  8
_f-d_固定文字
 62
    7
 10
149.98500000000007
 20
65
 40
20
 41
1
 50
0
  1
%f
  0
LINE
  8
ADD_LINE
  6
DOT
 62
    9
 10
149.98500000000007
 20
100
 11
149.98500000000007
 21
65
  0
LINE
  8
ADD_LINE
  6
DOT
 62
    9
 10
149.98500000000007
 20
65
 11
179.98500000000007
 21
65.000000646005844
  0
LINE
  8
ADD_LINE
  6
DOT
 62
    9
 10
179.98500000000007
 20
100
 11
179.98500000000007
 21
65.000000646005844
  0
LINE
  8
ADD_LINE
  6
DOT
 62
    9
 10
150.01499999999993
 20
65
 11
120.02999999999986
 21
65
  0
TEXT
  8
_f-d_固定文字
 62
    7
 10
3990
 20
65.00000323002979
 40
20
 41
1
 50
0
  1
%y
  0
TEXT
  8
_f-d_固定文字
 62
    7
 10
4020
 20
65.00000323002979
 40
20
 41
1
 50
0
  1
．
  0
TEXT
  8
_f-d_固定文字
 62
    7
 10
4050
 20
65.00000323002979
 40
20
 41
1
 50
0
  1
%m
  0
TEXT
  8
_f-d_固定文字
 62
    7
 10
4080
 20
65.00000323002979
 40
20
 41
1
 50
0
  1
．
  0
TEXT
  8
_f-d_固定文字
 62
    7
 10
4110
 20
65.00000323002979
 40
20
 41
1
 50
0
  1
%d
  0
LINE
  8
ADD_LINE
  6
DOT
 62
    9
 10
4130
 20
100
 11
4130
 21
65.00000323002979
  0
LINE
  8
ADD_LINE
  6
DOT
 62
    9
 10
4100
 20
100
 11
4100
 21
65.00000323002979
  0
LINE
  8
ADD_LINE
  6
DOT
 62
    9
 10
4070
 20
100
 11
4070
 21
65.00000323002979
  0
LINE
  8
ADD_LINE
  6
DOT
 62
    9
 10
4040
 20
100
 11
4040
 21
65.00000323002979
  0
LINE
  8
ADD_LINE
  6
DOT
 62
    9
 10
4010
 20
100
 11
4010
 21
65.00000323002979
  0
LINE
  8
ADD_LINE
  6
DOT
 62
    9
 10
3980
 20
100
 11
3980
 21
65
  0
LINE
  8
ADD_LINE
  6
DOT
 62
    9
 10
3980
 20
65
 11
4130
 21
65.00000323002979
  0
LINE
  8
_0-9_
  6
CONTINUOUS
 62
    4
 10
700
 20
2610
 11
700
 21
2440
  0
LINE
  8
ADD_LINE
  6
DOT
 62
    9
 10
700
 20
2610
 11
640
 21
2610
  0
POINT
  8
_0-9_
 62
    3
 10
700
 20
2610
  0
LINE
  8
_0-3_
  6
CONTINUOUS
 62
    5
 10
700
 20
2068
 11
700
 21
2410
  0
LINE
  8
ADD_LINE
  6
DOT
 62
    9
 10
670
 20
2020
 11
670
 21
2440
  0
LINE
  8
_0-9_
  6
CONTINUOUS
 62
    4
 10
1400
 20
2610
 11
1400
 21
2440
  0
POINT
  8
_0-9_
 62
    3
 10
1400
 20
2610
  0
LINE
  8
_0-3_
  6
CONTINUOUS
 62
    5
 10
1400
 20
2068
 11
1400
 21
2410
  0
LINE
  8
ADD_LINE
  6
DOT
 62
    9
 10
1430
 20
2020
 11
1430
 21
2440
  0
LINE
  8
_0-9_
  6
CONTINUOUS
 62
    4
 10
1673.3796675245299
 20
2410
 11
1430
 21
2410
  0
POINT
  8
_0-9_
 62
    3
 10
1673.3796675245299
 20
2410
  0
LINE
  8
_0-3_
  6
CONTINUOUS
 62
    5
 10
700
 20
2410
 11
1400
 21
2410
  0
LINE
  8
_0-9_
  6
CONTINUOUS
 62
    4
 10
700
 20
2610
 11
1400
 21
2610
  0
TEXT
  8
_0-9_
 62
    7
 10
1016.9
 20
2612.0000000000005
 40
35
 41
0.6285714285714286
 50
0
  1
７００
  0
LINE
  8
ADD_LINE
  6
DOT
 62
    9
 10
670
 20
2020
 11
1430
 21
2020
  0
LINE
  8
_0-4_
  6
CONTINUOUS
 62
    3
 10
1050.5000000000007
 20
2052
 11
1050.5000000000007
 21
2064
  0
LINE
  8
_0-4_
  6
CONTINUOUS
 62
    3
 10
1049.5000000000005
 20
2052
 11
1049.5000000000005
 21
2064
  0
LINE
  8
ADD_LINE
  6
DOT
 62
    9
 10
700
 20
2530
 11
640
 21
2530
  0
LINE
  8
ADD_LINE
  6
DOT
 62
    9
 10
670
 20
2440
 11
1430
 21
2440
  0
LINE
  8
_0-9_
  6
CONTINUOUS
 62
    4
 10
1673.3796675245299
 20
2052
 11
1430
 21
2052
  0
POINT
  8
_0-9_
 62
    3
 10
1673.3796675245299
 20
2052
  0
POINT
  8
_0-9_
 62
    3
 10
1673.3796675245299
 20
2410
  0
POINT
  8
_0-9_
 62
    3
 10
1673.3796675245299
 20
2052
  0
POINT
  8
_0-9_
 62
    9
 10
1594.5491596254055
 20
2410
  0
POINT
  8
_0-9_
 62
    9
 10
1594.5491596254055
 20
2068
  0
LINE
  8
_0-9_
  6
CONTINUOUS
 62
    9
 10
1604.5491596254055
 20
2068
 11
1430
 21
2068
  0
LINE
  8
_0-9_
  6
CONTINUOUS
 62
    9
 10
1594.5491596254055
 20
2068
 11
1594.5491596254055
 21
2410
  0
TEXT
  8
_0-9_
 62
    1
 10
1594.5491596254055
 20
2205.9000000000001
 40
35
 41
0.6285714285714286
 50
90
  1
３４２
  0
LINE
  8
_0-9_
  6
CONTINUOUS
 62
    4
 10
1673.3796675245299
 20
2410
 11
1673.3796675245299
 21
2052
  0
TEXT
  8
_0-9_
 62
    7
 10
1673.3796675245299
 20
2197.9000000000001
 40
35
 41
0.6285714285714286
 50
90
  1
３５８
  0
LINE
  8
_0-4_
  6
CONTINUOUS
 62
    3
 10
1050.5000000000007
 20
2064
 11
1394.5
 21
2064
  0
LINE
  8
_0-4_
  6
CONTINUOUS
 62
    3
 10
1394.5
 20
2064
 11
1394.5
 21
2052
  0
LINE
  8
_0-4_
  6
CONTINUOUS
 62
    3
 10
1050.5000000000007
 20
2052
 11
1394.5
 21
2052
  0
LINE
  8
_0-4_
  6
CONTINUOUS
 62
    3
 10
705.50000000000045
 20
2064
 11
1049.5000000000005
 21
2064
  0
LINE
  8
_0-4_
  6
CONTINUOUS
 62
    3
 10
705.50000000000045
 20
2052
 11
705.50000000000045
 21
2064
  0
LINE
  8
_0-4_
  6
CONTINUOUS
 62
    3
 10
705.50000000000045
 20
2052
 11
1049.5000000000005
 21
2052
  0
LINE
  8
_0-3_
  6
CONTINUOUS
 62
    2
 10
714.49999999999989
 20
2068
 11
714.49999999999989
 21
2410
  0
LINE
  8
_0-3_
  6
CONTINUOUS
 62
    5
 10
700
 20
2068
 11
714.49999999999989
 21
2068
  0
LINE
  8
_0-3_
  6
CONTINUOUS
 62
    2
 10
1385.5
 20
2068
 11
1385.5
 21
2410
  0
LINE
  8
_0-3_
  6
CONTINUOUS
 62
    4
 10
714.49999999999989
 20
2068
 11
1385.5
 21
2068
  0
LINE
  8
_0-3_
  6
CONTINUOUS
 62
    5
 10
1385.5
 20
2068
 11
1400
 21
2068
  0
LINE
  8
_0-3_
  6
CONTINUOUS
 62
    2
 10
714.49999999999989
 20
2395
 11
1385.5
 21
2395
  0
LINE
  8
_0-8_
  6
CONTINUOUS
 62
    4
 10
924.50000000000045
 20
1962.0000000000002
 11
1174.5000000000005
 21
1962.0000000000002
  0
LINE
  8
_0-8_
  6
CONTINUOUS
 62
    4
 10
1174.5000000000005
 20
1962.0000000000002
 11
1174.5000000000005
 21
1892.0000000000002
  0
LINE
  8
_0-8_
  6
CONTINUOUS
 62
    4
 10
924.50000000000045
 20
1892.0000000000002
 11
1174.5000000000005
 21
1892.0000000000002
  0
LINE
  8
_0-8_
  6
CONTINUOUS
 62
    4
 10
924.50000000000045
 20
1962.0000000000002
 11
924.50000000000045
 21
1892.0000000000002
  0
LINE
  8
ADD_LINE
  6
DOT
 62
    9
 10
924.50000000000045
 20
1927.0000000000002
 11
1174.5000000000005
 21
1927.0000000000002
  0
LINE
  8
ADD_LINE
  6
DOT
 62
    9
 10
1049.5000000000005
 20
1892.0000000000002
 11
1049.5000000000005
 21
1962.0000000000002
  0
TEXT
  8
_0-8_
 62
    7
 10
1004.3999999999983
 20
1909.5000000000002
 40
35
 41
0.8571428571428571
 50
0
  1
平面図
  0
LINE
  8
ADD_LINE
  6
DOT
 62
    9
 10
5080
 20
3220
 11
5080
 21
3920
  0
LINE
  8
_f-8_
  6
CONTINUOUS
 62
    4
 10
3830
 20
3920
 11
3830
 21
3220
  0
LINE
  8
_0-3_
  6
DASHED1
 62
    2
 10
714.49999999999989
 20
2392
 11
1385.5
 21
2392
  0
LINE
  8
_0-6_
  6
DASHED1
 62
    7
 10
1383.5
 20
2098.5
 11
1383.5
 21
2387.5
  0
LINE
  8
_0-6_
  6
DASHED1
 62
    7
 10
716.49999999999977
 20
2098.5
 11
716.49999999999977
 21
2387.5
  0
LINE
  8
_0-6_
  6
DASHED1
 62
    7
 10
716.49999999999977
 20
2387.5
 11
1383.5
 21
2387.5
  0
LINE
  8
_0-6_
  6
DASHED1
 62
    7
 10
716.49999999999977
 20
2098.5
 11
1383.5
 21
2098.5
  0
LINE
  8
_1-1_
  6
DASHED1
 62
    7
 10
1011.0000000000009
 20
2086.5
 11
1010.5000000000009
 21
2086.5
  0
LINE
  8
_1-1_
  6
DASHED1
 62
    7
 10
988.00000000000091
 20
2086.5
 11
988.50000000000091
 21
2086.5
  0
LINE
  8
_1-1_
  6
DASHED1
 62
    7
 10
991.00000000000091
 20
2146.5
 11
1008.0000000000009
 21
2146.5
  0
LINE
  8
_1-1_
  6
DASHED1
 62
    7
 10
991.50000000000091
 20
2111.5
 11
1007.5000000000009
 21
2111.5
  0
LINE
  8
_1-1_
  6
DASHED1
 62
    7
 10
1011.0000000000009
 20
2086.5
 11
1010.5000000000009
 21
2086.5
  0
LINE
  8
_1-1_
  6
DASHED1
 62
    7
 10
1017.0000000000009
 20
2113.5
 11
1018.0000000000009
 21
2113.5
  0
LINE
  8
_1-1_
  6
DASHED1
 62
    7
 10
1017.0000000000009
 20
2137.5
 11
1017.0000000000009
 21
2113.5
  0
LINE
  8
_1-1_
  6
DASHED1
 62
    7
 10
982.00000000000091
 20
2113.5
 11
981.00000000000091
 21
2113.5
  0
LINE
  8
_1-1_
  6
DASHED1
 62
    7
 10
982.00000000000091
 20
2137.5
 11
982.00000000000091
 21
2113.5
  0
LINE
  8
_1-1_
  6
DASHED1
 62
    7
 10
980.61000000000081
 20
2116.5
 11
988.00000000000091
 21
2116.5
  0
LINE
  8
_1-1_
  6
DASHED1
 62
    7
 10
1011.0000000000009
 20
2116.5
 11
1019.1000000000008
 21
2116.5
  0
LINE
  8
_1-1_
  6
DASHED1
 62
    7
 10
989.50000000000091
 20
2111.5
 11
989.50000000000091
 21
2108.6999999999998
  0
LINE
  8
_1-1_
  6
DASHED1
 62
    7
 10
991.00000000000091
 20
2110.0999999999999
 11
990.00000000000091
 21
2110.0999999999999
  0
LINE
  8
_1-1_
  6
DASHED1
 62
    7
 10
1008.0000000000009
 20
2110.0999999999999
 11
1009.0000000000009
 21
2110.0999999999999
  0
LINE
  8
_1-1_
  6
DASHED1
 62
    7
 10
1009.5000000000009
 20
2111.5
 11
1009.5000000000009
 21
2108.6999999999998
  0
LINE
  8
_1-1_
  6
DASHED1
 62
    7
 10
1007.5000000000009
 20
2111.5
 11
1007.5000000000009
 21
2089.5
  0
LINE
  8
_1-1_
  6
DASHED1
 62
    7
 10
991.50000000000091
 20
2111.5
 11
991.50000000000091
 21
2089.5
  0
LINE
  8
_1-1_
  6
DASHED1
 62
    7
 10
997.26395000000093
 20
2084.5000500000006
 11
1001.7360500000009
 21
2084.5000500000006
  0
LINE
  8
_1-1_
  6
DASHED1
 62
    7
 10
1003.0000000000009
 20
2082.5000499999996
 11
1003.0000000000009
 21
2080.5000500000001
  0
LINE
  8
_1-1_
  6
DASHED1
 62
    7
 10
996.00000000000091
 20
2082.5000499999996
 11
996.00000000000091
 21
2080.5000500000001
  0
LINE
  8
_1-1_
  6
DASHED1
 62
    7
 10
996.00000000000091
 20
2080.5000500000001
 11
996.50000000000091
 21
2080.5000500000001
  0
LINE
  8
_1-1_
  6
DASHED1
 62
    7
 10
1002.5000000000009
 20
2080.5000500000001
 11
1003.0000000000009
 21
2080.5000500000001
  0
LINE
  8
_1-1_
  6
DASHED1
 62
    7
 10
1003.0000000000009
 20
2075.5000500000001
 11
996.00000000000091
 21
2075.5000500000001
  0
LINE
  8
_1-1_
  6
DASHED1
 62
    7
 10
1003.0459500000009
 20
2075.5459999999998
 11
1003.0000000000009
 21
2075.5000500000001
  0
LINE
  8
_1-1_
  6
DASHED1
 62
    7
 10
995.95405000000096
 20
2075.5459999999998
 11
996.00000000000091
 21
2075.5000500000001
  0
LINE
  8
_1-1_
  6
DASHED1
 62
    7
 10
1002.5000000000009
 20
2082.5000499999996
 11
1002.5000000000009
 21
2076.5000500000001
  0
LINE
  8
_1-1_
  6
DASHED1
 62
    7
 10
996.50000000000091
 20
2082.5000499999996
 11
996.50000000000091
 21
2076.5000500000001
  0
LINE
  8
_1-1_
  6
DASHED1
 62
    7
 10
996.50000000000091
 20
2080.5000500000001
 11
1002.5000000000009
 21
2080.5000500000001
  0
LINE
  8
_1-1_
  6
DASHED1
 62
    7
 10
994.9289500000009
 20
2076.5711000000001
 11
995.95405000000096
 21
2075.5459999999998
  0
LINE
  8
_1-1_
  6
DASHED1
 62
    7
 10
1004.0710500000009
 20
2076.5711000000001
 11
1003.0459500000009
 21
2075.5459999999998
  0
LINE
  8
_1-1_
  6
DASHED1
 62
    7
 10
1007.0000000000009
 20
2083.6421500000001
 11
1007.0000000000009
 21
2111.5
  0
LINE
  8
_1-1_
  6
DASHED1
 62
    7
 10
992.00000000000091
 20
2083.6421500000001
 11
992.00000000000091
 21
2111.5
  0
LINE
  8
_1-1_
  6
DASHED1
 62
    7
 10
986.32455000000095
 20
2103.2626
 11
986.11305000000084
 21
2103.5381000000002
  0
LINE
  8
_1-1_
  6
DASHED1
 62
    7
 10
986.32455000000095
 20
2103.2626
 11
987.00000000000091
 21
2104
  0
LINE
  8
_1-1_
  6
DASHED1
 62
    7
 10
986.11305000000084
 20
2103.5381000000002
 11
987.00000000000091
 21
2104
  0
LINE
  8
_1-1_
  6
DASHED1
 62
    7
 10
1007.5000000000009
 20
2111.5
 11
1016.7000000000007
 21
2111.5
  0
LINE
  8
_1-1_
  6
DASHED1
 62
    7
 10
991.50000000000091
 20
2111.5
 11
982.30000000000109
 21
2111.5
  0
LINE
  8
_1-1_
  6
DASHED1
 62
    7
 10
1000.5000000000009
 20
2111.5
 11
1000.5000000000009
 21
2102.0003999999999
  0
LINE
  8
_1-1_
  6
DASHED1
 62
    7
 10
998.50000000000091
 20
2111.5
 11
998.50000000000091
 21
2102.0003999999999
  0
LINE
  8
_1-1_
  6
DASHED1
 62
    7
 10
999.00000000000091
 20
2101.5003999999999
 11
1000.0000000000009
 21
2101.5003999999999
  0
LINE
  8
_1-1_
  6
DASHED1
 62
    7
 10
998.50000000000091
 20
2105.7200000000003
 11
992.00000000000091
 21
2105.7200000000003
  0
LINE
  8
_1-1_
  6
DASHED1
 62
    7
 10
1007.0000000000009
 20
2105.7200000000003
 11
1000.5000000000009
 21
2105.7200000000003
  0
LINE
  8
_1-1_
  6
DASHED1
 62
    7
 10
998.50000000000091
 20
2106.0900000000001
 11
997.43925000000081
 21
2106.0900000000001
  0
LINE
  8
_1-1_
  6
DASHED1
 62
    7
 10
995.06075000000101
 20
2106.0900000000001
 11
992.00000000000091
 21
2106.0900000000001
  0
LINE
  8
_1-1_
  6
DASHED1
 62
    7
 10
1007.0000000000009
 20
2106.0900000000001
 11
1003.9392500000008
 21
2106.0900000000001
  0
LINE
  8
_1-1_
  6
DASHED1
 62
    7
 10
1001.5607500000008
 20
2106.0900000000001
 11
1000.5000000000009
 21
2106.0900000000001
  0
LINE
  8
_1-1_
  6
DASHED1
 62
    7
 10
1019.0000000000009
 20
2101.5
 11
1019.0000000000009
 21
2112.5
  0
LINE
  8
_1-1_
  6
DASHED1
 62
    7
 10
1017.0000000000009
 20
2100.5
 11
1018.0000000000009
 21
2100.5
  0
LINE
  8
_1-1_
  6
DASHED1
 62
    7
 10
1017.0000000000009
 20
2111.1999999999998
 11
1017.0000000000009
 21
2092.5
  0
LINE
  8
_1-1_
  6
DASHED1
 62
    7
 10
980.00000000000091
 20
2101.5
 11
980.00000000000091
 21
2112.5
  0
LINE
  8
_1-1_
  6
DASHED1
 62
    7
 10
982.00000000000091
 20
2100.5
 11
981.00000000000091
 21
2100.5
  0
LINE
  8
_1-1_
  6
DASHED1
 62
    7
 10
982.00000000000091
 20
2111.1999999999998
 11
982.00000000000091
 21
2092.5
  0
LINE
  8
_1-1_
  6
DASHED1
 62
    7
 10
999.50000000000091
 20
2148.1999999999998
 11
999.50000000000091
 21
2072.9000000000001
  0
LINE
  8
_1-1_
  6
DASHED1
 62
    7
 10
980.8700000000008
 20
2129
 11
1019.900000000001
 21
2129
  0
LINE
  8
_1-1_
  6
DASHED1
 62
    7
 10
987.00000000000091
 20
2108.1500000000001
 11
987.00000000000091
 21
2099.9000000000001
  0
LINE
  8
_1-1_
  6
DASHED1
 62
    7
 10
990.25000000000091
 20
2104
 11
983.70000000000073
 21
2104
  0
LINE
  8
_1-1_
  6
DASHED1
 62
    7
 10
1012.0000000000009
 20
2107.8200000000006
 11
1012.0000000000009
 21
2100.0999999999999
  0
LINE
  8
_1-1_
  6
DASHED1
 62
    7
 10
1008.7300000000009
 20
2104
 11
1015.7400000000009
 21
2104
  0
LINE
  8
_1-1_
  6
DASHED1
 62
    7
 10
1003.0600000000009
 20
2078.0000500000001
 11
995.79000000000087
 21
2078.0000500000001
  0
ARC
  8
_1-1_
  6
DASHED1
 62
    7
 10
1008.0000000000009
 20
2137.5
 40
9
 50
0.0000000000000254
 51
90.000000000000057
  0
ARC
  8
_1-1_
  6
DASHED1
 62
    7
 10
1011.0000000000009
 20
2092.5
 40
6.0000000000000009
 50
270
 51
0.0000000000000254
  0
ARC
  8
_1-1_
  6
DASHED1
 62
    7
 10
1010.5000000000009
 20
2089.5
 40
3.0000000000000004
 50
180.00000000000006
 51
270.00000000000006
  0
ARC
  8
_1-1_
  6
DASHED1
 62
    7
 10
991.00000000000091
 20
2137.5
 40
9
 50
90.000000000000057
 51
180.00000000000009
  0
ARC
  8
_1-1_
  6
DASHED1
 62
    7
 10
988.00000000000091
 20
2092.5
 40
6.0000000000000009
 50
180.00000000000006
 51
270.00000000000006
  0
ARC
  8
_1-1_
  6
DASHED1
 62
    7
 10
988.50000000000091
 20
2089.5
 40
3.0000000000000004
 50
270
 51
0.0000000000000254
  0
CIRCLE
  8
_1-1_
  6
DASHED1
 62
    7
 10
987.00000000000091
 20
2104
 40
1.8999999999999999
  0
CIRCLE
  8
_1-1_
  6
DASHED1
 62
    7
 10
1012.0000000000009
 20
2104
 40
1.8999999999999999
  0
ARC
  8
_1-1_
  6
DASHED1
 62
    7
 10
1018.0000000000009
 20
2112.5
 40
1
 50
0.0000000000000254
 51
90.000000000000057
  0
ARC
  8
_1-1_
  6
DASHED1
 62
    7
 10
981.00000000000091
 20
2112.5
 40
1
 50
90.000000000000057
 51
180.00000000000009
  0
ARC
  8
_1-1_
  6
DASHED1
 62
    7
 10
984.00000000000091
 20
2113.5
 40
2
 50
180.00000000000006
 51
270.00000000000006
  0
ARC
  8
_1-1_
  6
DASHED1
 62
    7
 10
991.00000000000091
 20
2110.5999999999999
 40
0.5
 50
270
 51
0.0000000000000254
  0
ARC
  8
_1-1_
  6
DASHED1
 62
    7
 10
990.00000000000091
 20
2110.5999999999999
 40
0.5
 50
180.00000000000006
 51
270.00000000000006
  0
ARC
  8
_1-1_
  6
DASHED1
 62
    7
 10
1008.0000000000009
 20
2110.5999999999999
 40
0.5
 50
180.00000000000006
 51
270.00000000000006
  0
ARC
  8
_1-1_
  6
DASHED1
 62
    7
 10
1009.0000000000009
 20
2110.5999999999999
 40
0.5
 50
270
 51
0.0000000000000254
  0
ARC
  8
_1-1_
  6
DASHED1
 62
    7
 10
1015.0000000000009
 20
2113.5
 40
2
 50
270
 51
0.0000000000000254
  0
ARC
  8
_1-1_
  6
DASHED1
 62
    7
 10
999.50000000000091
 20
2082.5000499999996
 40
3.5000000000000009
 50
90.000000000000057
 51
180.00000000000009
  0
ARC
  8
_1-1_
  6
DASHED1
 62
    7
 10
999.50000000000091
 20
2082.5000499999996
 40
3.5000000000000009
 50
0.0000000000000254
 51
90.000000000000057
  0
ARC
  8
_1-1_
  6
DASHED1
 62
    7
 10
999.50000000000091
 20
2082.5000499999996
 40
3.0000000000000004
 50
138.19000000000005
 51
180.00000000000009
  0
ARC
  8
_1-1_
  6
DASHED1
 62
    7
 10
999.50000000000091
 20
2082.5000499999996
 40
3.0000000000000004
 50
0.0000000000000254
 51
41.810000000000038
  0
ARC
  8
_1-1_
  6
DASHED1
 62
    7
 10
997.50000000000091
 20
2076.5000500000001
 40
1
 50
180.00000000000006
 51
270.00000000000006
  0
ARC
  8
_1-1_
  6
DASHED1
 62
    7
 10
1001.5000000000009
 20
2076.5000500000001
 40
1
 50
270
 51
0.0000000000000254
  0
ARC
  8
_1-1_
  6
DASHED1
 62
    7
 10
1002.0000000000009
 20
2083.6421500000001
 40
10
 50
180.00000000000006
 51
225.00000000000006
  0
ARC
  8
_1-1_
  6
DASHED1
 62
    7
 10
997.00000000000091
 20
2083.6421500000001
 40
10
 50
315
 51
0.0000000000000254
  0
ARC
  8
_1-1_
  6
DASHED1
 62
    7
 10
1016.7000000000007
 20
2111.1999999999998
 40
0.2999999999999999
 50
0.0000000000000254
 51
90.000000000000057
  0
ARC
  8
_1-1_
  6
DASHED1
 62
    7
 10
982.30000000000109
 20
2111.1999999999998
 40
0.2999999999999999
 50
90.000000000000057
 51
180.00000000000009
  0
ARC
  8
_1-1_
  6
DASHED1
 62
    7
 10
1000.0000000000009
 20
2102.0003999999999
 40
0.5
 50
270
 51
0.0000000000000254
  0
ARC
  8
_1-1_
  6
DASHED1
 62
    7
 10
999.00000000000091
 20
2102.0003999999999
 40
0.5
 50
180.00000000000006
 51
270.00000000000006
  0
ARC
  8
_1-1_
  6
DASHED1
 62
    7
 10
1018.0000000000009
 20
2101.5
 40
1
 50
270
 51
0.0000000000000254
  0
ARC
  8
_1-1_
  6
DASHED1
 62
    7
 10
981.00000000000091
 20
2101.5
 40
1
 50
180.00000000000006
 51
270.00000000000006
  0
CIRCLE
  8
_1-1_
  6
DASHED1
 62
    7
 10
1002.7500000000009
 20
2101.5000500000001
 40
2.3250000000000002
  0
CIRCLE
  8
_1-1_
  6
DASHED1
 62
    7
 10
996.25000000000091
 20
2101.5000500000001
 40
2.3250000000000002
  0
CIRCLE
  8
_1-1_
  6
DASHED1
 62
    7
 10
996.25000000000091
 20
2108.0000500000001
 40
2.3250000000000002
  0
CIRCLE
  8
_1-1_
  6
DASHED1
 62
    7
 10
1002.7500000000009
 20
2108.0000500000001
 40
2.3250000000000002
  0
CIRCLE
  8
_1-1_
  6
DASHED1
 62
    7
 10
999.50000000000091
 20
2078.0000500000001
 40
1.25
  0
LINE
  8
_1-1_
  6
DASHED1
 62
    7
 10
1112.0000000000007
 20
2086.5
 11
1111.5000000000007
 21
2086.5
  0
LINE
  8
_1-1_
  6
DASHED1
 62
    7
 10
1089.0000000000007
 20
2086.5
 11
1089.5000000000007
 21
2086.5
  0
LINE
  8
_1-1_
  6
DASHED1
 62
    7
 10
1092.0000000000007
 20
2146.5
 11
1109.0000000000007
 21
2146.5
  0
LINE
  8
_1-1_
  6
DASHED1
 62
    7
 10
1092.5000000000007
 20
2111.5
 11
1108.5000000000007
 21
2111.5
  0
LINE
  8
_1-1_
  6
DASHED1
 62
    7
 10
1112.0000000000007
 20
2086.5
 11
1111.5000000000007
 21
2086.5
  0
LINE
  8
_1-1_
  6
DASHED1
 62
    7
 10
1118.0000000000007
 20
2113.5
 11
1119.0000000000007
 21
2113.5
  0
LINE
  8
_1-1_
  6
DASHED1
 62
    7
 10
1118.0000000000007
 20
2137.5
 11
1118.0000000000007
 21
2113.5
  0
LINE
  8
_1-1_
  6
DASHED1
 62
    7
 10
1083.0000000000007
 20
2113.5
 11
1082.0000000000007
 21
2113.5
  0
LINE
  8
_1-1_
  6
DASHED1
 62
    7
 10
1083.0000000000007
 20
2137.5
 11
1083.0000000000007
 21
2113.5
  0
LINE
  8
_1-1_
  6
DASHED1
 62
    7
 10
1081.6100000000006
 20
2116.5
 11
1089.0000000000007
 21
2116.5
  0
LINE
  8
_1-1_
  6
DASHED1
 62
    7
 10
1112.0000000000007
 20
2116.5
 11
1120.1000000000006
 21
2116.5
  0
LINE
  8
_1-1_
  6
DASHED1
 62
    7
 10
1090.5000000000007
 20
2111.5
 11
1090.5000000000007
 21
2108.6999999999998
  0
LINE
  8
_1-1_
  6
DASHED1
 62
    7
 10
1092.0000000000007
 20
2110.0999999999999
 11
1091.0000000000007
 21
2110.0999999999999
  0
LINE
  8
_1-1_
  6
DASHED1
 62
    7
 10
1109.0000000000007
 20
2110.0999999999999
 11
1110.0000000000007
 21
2110.0999999999999
  0
LINE
  8
_1-1_
  6
DASHED1
 62
    7
 10
1110.5000000000007
 20
2111.5
 11
1110.5000000000007
 21
2108.6999999999998
  0
LINE
  8
_1-1_
  6
DASHED1
 62
    7
 10
1108.5000000000007
 20
2111.5
 11
1108.5000000000007
 21
2089.5
  0
LINE
  8
_1-1_
  6
DASHED1
 62
    7
 10
1092.5000000000007
 20
2111.5
 11
1092.5000000000007
 21
2089.5
  0
LINE
  8
_1-1_
  6
DASHED1
 62
    7
 10
1098.2639500000007
 20
2084.5000500000006
 11
1102.7360500000007
 21
2084.5000500000006
  0
LINE
  8
_1-1_
  6
DASHED1
 62
    7
 10
1104.0000000000007
 20
2082.5000499999996
 11
1104.0000000000007
 21
2080.5000500000001
  0
LINE
  8
_1-1_
  6
DASHED1
 62
    7
 10
1097.0000000000007
 20
2082.5000499999996
 11
1097.0000000000007
 21
2080.5000500000001
  0
LINE
  8
_1-1_
  6
DASHED1
 62
    7
 10
1097.0000000000007
 20
2080.5000500000001
 11
1097.5000000000007
 21
2080.5000500000001
  0
LINE
  8
_1-1_
  6
DASHED1
 62
    7
 10
1103.5000000000007
 20
2080.5000500000001
 11
1104.0000000000007
 21
2080.5000500000001
  0
LINE
  8
_1-1_
  6
DASHED1
 62
    7
 10
1104.0000000000007
 20
2075.5000500000001
 11
1097.0000000000007
 21
2075.5000500000001
  0
LINE
  8
_1-1_
  6
DASHED1
 62
    7
 10
1104.0459500000006
 20
2075.5459999999998
 11
1104.0000000000007
 21
2075.5000500000001
  0
LINE
  8
_1-1_
  6
DASHED1
 62
    7
 10
1096.9540500000007
 20
2075.5459999999998
 11
1097.0000000000007
 21
2075.5000500000001
  0
LINE
  8
_1-1_
  6
DASHED1
 62
    7
 10
1103.5000000000007
 20
2082.5000499999996
 11
1103.5000000000007
 21
2076.5000500000001
  0
LINE
  8
_1-1_
  6
DASHED1
 62
    7
 10
1097.5000000000007
 20
2082.5000499999996
 11
1097.5000000000007
 21
2076.5000500000001
  0
LINE
  8
_1-1_
  6
DASHED1
 62
    7
 10
1097.5000000000007
 20
2080.5000500000001
 11
1103.5000000000007
 21
2080.5000500000001
  0
LINE
  8
_1-1_
  6
DASHED1
 62
    7
 10
1095.9289500000007
 20
2076.5711000000001
 11
1096.9540500000007
 21
2075.5459999999998
  0
LINE
  8
_1-1_
  6
DASHED1
 62
    7
 10
1105.0710500000007
 20
2076.5711000000001
 11
1104.0459500000006
 21
2075.5459999999998
  0
LINE
  8
_1-1_
  6
DASHED1
 62
    7
 10
1108.0000000000007
 20
2083.6421500000001
 11
1108.0000000000007
 21
2111.5
  0
LINE
  8
_1-1_
  6
DASHED1
 62
    7
 10
1093.0000000000007
 20
2083.6421500000001
 11
1093.0000000000007
 21
2111.5
  0
LINE
  8
_1-1_
  6
DASHED1
 62
    7
 10
1087.3245500000007
 20
2103.2626
 11
1087.1130500000006
 21
2103.5381000000002
  0
LINE
  8
_1-1_
  6
DASHED1
 62
    7
 10
1087.3245500000007
 20
2103.2626
 11
1088.0000000000007
 21
2104
  0
LINE
  8
_1-1_
  6
DASHED1
 62
    7
 10
1087.1130500000006
 20
2103.5381000000002
 11
1088.0000000000007
 21
2104
  0
LINE
  8
_1-1_
  6
DASHED1
 62
    7
 10
1108.5000000000007
 20
2111.5
 11
1117.7000000000005
 21
2111.5
  0
LINE
  8
_1-1_
  6
DASHED1
 62
    7
 10
1092.5000000000007
 20
2111.5
 11
1083.3000000000009
 21
2111.5
  0
LINE
  8
_1-1_
  6
DASHED1
 62
    7
 10
1101.5000000000007
 20
2111.5
 11
1101.5000000000007
 21
2102.0003999999999
  0
LINE
  8
_1-1_
  6
DASHED1
 62
    7
 10
1099.5000000000007
 20
2111.5
 11
1099.5000000000007
 21
2102.0003999999999
  0
LINE
  8
_1-1_
  6
DASHED1
 62
    7
 10
1100.0000000000007
 20
2101.5003999999999
 11
1101.0000000000007
 21
2101.5003999999999
  0
LINE
  8
_1-1_
  6
DASHED1
 62
    7
 10
1099.5000000000007
 20
2105.7200000000003
 11
1093.0000000000007
 21
2105.7200000000003
  0
LINE
  8
_1-1_
  6
DASHED1
 62
    7
 10
1108.0000000000007
 20
2105.7200000000003
 11
1101.5000000000007
 21
2105.7200000000003
  0
LINE
  8
_1-1_
  6
DASHED1
 62
    7
 10
1099.5000000000007
 20
2106.0900000000001
 11
1098.4392500000006
 21
2106.0900000000001
  0
LINE
  8
_1-1_
  6
DASHED1
 62
    7
 10
1096.0607500000008
 20
2106.0900000000001
 11
1093.0000000000007
 21
2106.0900000000001
  0
LINE
  8
_1-1_
  6
DASHED1
 62
    7
 10
1108.0000000000007
 20
2106.0900000000001
 11
1104.9392500000006
 21
2106.0900000000001
  0
LINE
  8
_1-1_
  6
DASHED1
 62
    7
 10
1102.5607500000006
 20
2106.0900000000001
 11
1101.5000000000007
 21
2106.0900000000001
  0
LINE
  8
_1-1_
  6
DASHED1
 62
    7
 10
1120.0000000000007
 20
2101.5
 11
1120.0000000000007
 21
2112.5
  0
LINE
  8
_1-1_
  6
DASHED1
 62
    7
 10
1118.0000000000007
 20
2100.5
 11
1119.0000000000007
 21
2100.5
  0
LINE
  8
_1-1_
  6
DASHED1
 62
    7
 10
1118.0000000000007
 20
2111.1999999999998
 11
1118.0000000000007
 21
2092.5
  0
LINE
  8
_1-1_
  6
DASHED1
 62
    7
 10
1081.0000000000007
 20
2101.5
 11
1081.0000000000007
 21
2112.5
  0
LINE
  8
_1-1_
  6
DASHED1
 62
    7
 10
1083.0000000000007
 20
2100.5
 11
1082.0000000000007
 21
2100.5
  0
LINE
  8
_1-1_
  6
DASHED1
 62
    7
 10
1083.0000000000007
 20
2111.1999999999998
 11
1083.0000000000007
 21
2092.5
  0
LINE
  8
_1-1_
  6
DASHED1
 62
    7
 10
1100.5000000000007
 20
2148.1999999999998
 11
1100.5000000000007
 21
2072.9000000000001
  0
LINE
  8
_1-1_
  6
DASHED1
 62
    7
 10
1081.8700000000006
 20
2129
 11
1120.9000000000008
 21
2129
  0
LINE
  8
_1-1_
  6
DASHED1
 62
    7
 10
1088.0000000000007
 20
2108.1500000000001
 11
1088.0000000000007
 21
2099.9000000000001
  0
LINE
  8
_1-1_
  6
DASHED1
 62
    7
 10
1091.2500000000007
 20
2104
 11
1084.7000000000005
 21
2104
  0
LINE
  8
_1-1_
  6
DASHED1
 62
    7
 10
1113.0000000000007
 20
2107.8200000000006
 11
1113.0000000000007
 21
2100.0999999999999
  0
LINE
  8
_1-1_
  6
DASHED1
 62
    7
 10
1109.7300000000007
 20
2104
 11
1116.7400000000007
 21
2104
  0
LINE
  8
_1-1_
  6
DASHED1
 62
    7
 10
1104.0600000000006
 20
2078.0000500000001
 11
1096.7900000000006
 21
2078.0000500000001
  0
ARC
  8
_1-1_
  6
DASHED1
 62
    7
 10
1109.0000000000007
 20
2137.5
 40
9
 50
0.0000000000000254
 51
90.000000000000057
  0
ARC
  8
_1-1_
  6
DASHED1
 62
    7
 10
1112.0000000000007
 20
2092.5
 40
6.0000000000000009
 50
270
 51
0.0000000000000254
  0
ARC
  8
_1-1_
  6
DASHED1
 62
    7
 10
1111.5000000000007
 20
2089.5
 40
3.0000000000000004
 50
180.00000000000006
 51
270.00000000000006
  0
ARC
  8
_1-1_
  6
DASHED1
 62
    7
 10
1092.0000000000007
 20
2137.5
 40
9
 50
90.000000000000057
 51
180.00000000000009
  0
ARC
  8
_1-1_
  6
DASHED1
 62
    7
 10
1089.0000000000007
 20
2092.5
 40
6.0000000000000009
 50
180.00000000000006
 51
270.00000000000006
  0
ARC
  8
_1-1_
  6
DASHED1
 62
    7
 10
1089.5000000000007
 20
2089.5
 40
3.0000000000000004
 50
270
 51
0.0000000000000254
  0
CIRCLE
  8
_1-1_
  6
DASHED1
 62
    7
 10
1088.0000000000007
 20
2104
 40
1.8999999999999999
  0
CIRCLE
  8
_1-1_
  6
DASHED1
 62
    7
 10
1113.0000000000007
 20
2104
 40
1.8999999999999999
  0
ARC
  8
_1-1_
  6
DASHED1
 62
    7
 10
1119.0000000000007
 20
2112.5
 40
1
 50
0.0000000000000254
 51
90.000000000000057
  0
ARC
  8
_1-1_
  6
DASHED1
 62
    7
 10
1082.0000000000007
 20
2112.5
 40
1
 50
90.000000000000057
 51
180.00000000000009
  0
ARC
  8
_1-1_
  6
DASHED1
 62
    7
 10
1085.0000000000007
 20
2113.5
 40
2
 50
180.00000000000006
 51
270.00000000000006
  0
ARC
  8
_1-1_
  6
DASHED1
 62
    7
 10
1092.0000000000007
 20
2110.5999999999999
 40
0.5
 50
270
 51
0.0000000000000254
  0
ARC
  8
_1-1_
  6
DASHED1
 62
    7
 10
1091.0000000000007
 20
2110.5999999999999
 40
0.5
 50
180.00000000000006
 51
270.00000000000006
  0
ARC
  8
_1-1_
  6
DASHED1
 62
    7
 10
1109.0000000000007
 20
2110.5999999999999
 40
0.5
 50
180.00000000000006
 51
270.00000000000006
  0
ARC
  8
_1-1_
  6
DASHED1
 62
    7
 10
1110.0000000000007
 20
2110.5999999999999
 40
0.5
 50
270
 51
0.0000000000000254
  0
ARC
  8
_1-1_
  6
DASHED1
 62
    7
 10
1116.0000000000007
 20
2113.5
 40
2
 50
270
 51
0.0000000000000254
  0
ARC
  8
_1-1_
  6
DASHED1
 62
    7
 10
1100.5000000000007
 20
2082.5000499999996
 40
3.5000000000000009
 50
90.000000000000057
 51
180.00000000000009
  0
ARC
  8
_1-1_
  6
DASHED1
 62
    7
 10
1100.5000000000007
 20
2082.5000499999996
 40
3.5000000000000009
 50
0.0000000000000254
 51
90.000000000000057
  0
ARC
  8
_1-1_
  6
DASHED1
 62
    7
 10
1100.5000000000007
 20
2082.5000499999996
 40
3.0000000000000004
 50
138.19000000000005
 51
180.00000000000009
  0
ARC
  8
_1-1_
  6
DASHED1
 62
    7
 10
1100.5000000000007
 20
2082.5000499999996
 40
3.0000000000000004
 50
0.0000000000000254
 51
41.810000000000038
  0
ARC
  8
_1-1_
  6
DASHED1
 62
    7
 10
1098.5000000000007
 20
2076.5000500000001
 40
1
 50
180.00000000000006
 51
270.00000000000006
  0
ARC
  8
_1-1_
  6
DASHED1
 62
    7
 10
1102.5000000000007
 20
2076.5000500000001
 40
1
 50
270
 51
0.0000000000000254
  0
ARC
  8
_1-1_
  6
DASHED1
 62
    7
 10
1103.0000000000007
 20
2083.6421500000001
 40
10
 50
180.00000000000006
 51
225.00000000000006
  0
ARC
  8
_1-1_
  6
DASHED1
 62
    7
 10
1098.0000000000007
 20
2083.6421500000001
 40
10
 50
315
 51
0.0000000000000254
  0
ARC
  8
_1-1_
  6
DASHED1
 62
    7
 10
1117.7000000000005
 20
2111.1999999999998
 40
0.2999999999999999
 50
0.0000000000000254
 51
90.000000000000057
  0
ARC
  8
_1-1_
  6
DASHED1
 62
    7
 10
1083.3000000000009
 20
2111.1999999999998
 40
0.2999999999999999
 50
90.000000000000057
 51
180.00000000000009
  0
ARC
  8
_1-1_
  6
DASHED1
 62
    7
 10
1101.0000000000007
 20
2102.0003999999999
 40
0.5
 50
270
 51
0.0000000000000254
  0
ARC
  8
_1-1_
  6
DASHED1
 62
    7
 10
1100.0000000000007
 20
2102.0003999999999
 40
0.5
 50
180.00000000000006
 51
270.00000000000006
  0
ARC
  8
_1-1_
  6
DASHED1
 62
    7
 10
1119.0000000000007
 20
2101.5
 40
1
 50
270
 51
0.0000000000000254
  0
ARC
  8
_1-1_
  6
DASHED1
 62
    7
 10
1082.0000000000007
 20
2101.5
 40
1
 50
180.00000000000006
 51
270.00000000000006
  0
CIRCLE
  8
_1-1_
  6
DASHED1
 62
    7
 10
1103.7500000000007
 20
2101.5000500000001
 40
2.3250000000000002
  0
CIRCLE
  8
_1-1_
  6
DASHED1
 62
    7
 10
1097.2500000000007
 20
2101.5000500000001
 40
2.3250000000000002
  0
CIRCLE
  8
_1-1_
  6
DASHED1
 62
    7
 10
1097.2500000000007
 20
2108.0000500000001
 40
2.3250000000000002
  0
CIRCLE
  8
_1-1_
  6
DASHED1
 62
    7
 10
1103.7500000000007
 20
2108.0000500000001
 40
2.3250000000000002
  0
CIRCLE
  8
_1-1_
  6
DASHED1
 62
    7
 10
1100.5000000000007
 20
2078.0000500000001
 40
1.25
  0
TEXT
  8
_f-8_
 62
    7
 10
3040
 20
187.5
 40
25
 41
0.64
 50
0
  1
ＤＡＴＡ
  0
LINE
  8
_e-0_
  6
CONTINUOUS
 62
    7
 10
2243.7859302690863
 20
199.51965480360599
 11
2272.9339284698526
 21
210.12865853712981
  0
LINE
  8
_e-0_
  6
CONTINUOUS
 62
    7
 10
2237.6336615052869
 20
191.95952323799759
 11
2287.5529504706665
 21
210.12865853712896
  0
LINE
  8
_e-0_
  6
CONTINUOUS
 62
    7
 10
2234.2067375789875
 20
185.39133607135255
 11
2263.8643430051366
 21
196.18582166608263
  0
LINE
  8
_e-0_
  6
CONTINUOUS
 62
    7
 10
2232.2119570371697
 20
179.34440646785788
 11
2253.9586582709303
 21
187.25955841042662
  0
LINE
  8
_e-0_
  6
CONTINUOUS
 62
    7
 10
2231.2024514117434
 20
173.65608760649877
 11
2249.4574587956463
 21
180.30036692054921
  0
LINE
  8
_e-0_
  6
CONTINUOUS
 62
    7
 10
2230.9649088875535
 20
168.24874033593801
 11
2249.3748102388386
 21
174.94939644358311
  0
LINE
  8
_e-0_
  6
CONTINUOUS
 62
    7
 10
2231.3837497438626
 20
163.08029707814967
 11
2249.8286640768283
 21
169.79369686893904
  0
LINE
  8
_e-0_
  6
CONTINUOUS
 62
    7
 10
2232.3950068941754
 20
158.12747571767488
 11
2251.2695688182671
 21
164.99725444285843
  0
LINE
  8
_e-0_
  6
CONTINUOUS
 62
    7
 10
2233.9675550564962
 20
153.37894757832998
 11
2253.6625167678699
 21
160.54732740628253
  0
LINE
  8
_e-0_
  6
CONTINUOUS
 62
    7
 10
2236.0955302019183
 20
148.83257832814223
 11
2257.0999104881021
 21
156.47754754152118
  0
LINE
  8
_e-0_
  6
CONTINUOUS
 62
    7
 10
2238.79700892643
 20
144.49494730998822
 11
2261.880116002736
 21
152.89651120014327
  0
LINE
  8
_e-0_
  6
CONTINUOUS
 62
    7
 10
2242.1181877425702
 20
140.38286867935909
 11
2268.9468388985251
 21
150.14769912563821
  0
LINE
  8
_e-0_
  6
CONTINUOUS
 62
    7
 10
2246.1455691824353
 20
136.52782678312661
 11
2284.5651405528206
 21
150.51140717521264
  0
LINE
  8
_e-0_
  6
CONTINUOUS
 62
    7
 10
2251.0351047702798
 20
132.9865833341097
 11
2279.1844822576495
 21
143.23211885263561
  0
LINE
  8
_e-0_
  6
CONTINUOUS
 62
    7
 10
2279.5849322183672
 20
201.90764820482514
 11
2302.1719724714803
 21
210.12865853713066
  0
LINE
  8
_e-0_
  6
CONTINUOUS
 62
    7
 10
2260.5624543087297
 20
189.66314360135101
 11
2313.0511299164637
 21
208.76745915862045
  0
LINE
  8
_e-0_
  6
CONTINUOUS
 62
    7
 10
2273.0696188494735
 20
188.89449034687175
 11
2313.0511299164637
 21
203.44657029624102
  0
LINE
  8
_e-0_
  6
CONTINUOUS
 62
    7
 10
2287.6886408502887
 20
188.89449034687175
 11
2313.0511299164637
 21
198.12568143386159
  0
LINE
  8
_e-0_
  6
CONTINUOUS
 62
    7
 10
2291.8751463425488
 20
185.0973648692667
 11
2313.0511299164637
 21
192.80479257148215
  0
LINE
  8
_e-0_
  6
CONTINUOUS
 62
    7
 10
2291.8751463425488
 20
179.77647600688726
 11
2313.0511299164637
 21
187.48390370910215
  0
LINE
  8
_e-0_
  6
CONTINUOUS
 62
    7
 10
2291.8751463425488
 20
174.45558714450783
 11
2313.0511299164637
 21
182.16301484672272
  0
LINE
  8
_e-0_
  6
CONTINUOUS
 62
    7
 10
2291.8751463425488
 20
169.1346982821284
 11
2313.0511299164637
 21
176.84212598434328
  0
LINE
  8
_e-0_
  6
CONTINUOUS
 62
    7
 10
2291.8008475696452
 20
163.7867668779694
 11
2313.0511299164637
 21
171.52123712196385
  0
LINE
  8
_e-0_
  6
CONTINUOUS
 62
    7
 10
2290.6539909363364
 20
158.04845633809464
 11
2313.0511299164637
 21
166.20034825958413
  0
LINE
  8
_e-0_
  6
CONTINUOUS
 62
    7
 10
2288.3949962857823
 20
151.90536066354696
 11
2313.0511299164637
 21
160.8794593972047
  0
LINE
  8
_e-0_
  6
CONTINUOUS
 62
    7
 10
2284.4003861827632
 20
145.13055262616916
 11
2311.8608666367177
 21
155.1253501300576
  0
LINE
  8
_e-0_
  6
CONTINUOUS
 62
    7
 10
2275.7463468865153
 20
136.65985105378525
 11
2309.0387712913653
 21
148.77730256370853
  0
LINE
  8
_e-0_
  6
CONTINUOUS
 62
    7
 10
2266.9791201478206
 20
128.14795262145822
 11
2304.1703780821813
 21
141.68446348448242
  0
LINE
  8
_e-0_
  6
CONTINUOUS
 62
    7
 10
2282.1376414569663
 20
128.34431431109749
 11
2292.7244583873176
 21
132.19760054937069
  0
LINE
  8
_e-0_
  6
CONTINUOUS
 62
    3
 10
2266.4464672734898
 20
197.5661281967827
 11
2266.4464672734898
 21
197.5661281967827
  0
LINE
  8
_e-0_
  6
CONTINUOUS
 62
    3
 10
2266.4464672734898
 20
197.5661281967827
 11
2262.324473459325
 21
194.75680664380121
  0
LINE
  8
_e-0_
  6
CONTINUOUS
 62
    3
 10
2282.3868421919433
 20
128.14795262145651
 11
2266.9204010401704
 21
128.14795262145651
  0
ARC
  8
_e-0_
  6
CONTINUOUS
 62
    3
 10
2282.3868421919433
 20
133.14795262145651
 40
5
 50
270
 51
286.2039935104566
  0
LINE
  8
_e-0_
  6
CONTINUOUS
 62
    3
 10
2313.2288608412614
 20
210.12865853712896
 11
2313.2288608412614
 21
159.77346730566921
  0
ARC
  8
_e-0_
  6
CONTINUOUS
 62
    3
 10
2271.9221657766448
 20
169.15823653484836
 40
42.5
 50
286.20399351045648
 51
345.50707147989851
  0
ARC
  8
_e-0_
  6
CONTINUOUS
 62
    3
 10
2308.2288608412614
 20
159.77346730566921
 40
5
 50
345.5070714798988
 51
0
  0
ARC
  8
_e-0_
  6
CONTINUOUS
 62
    3
 10
2250.0927387377205
 20
170.4956084628958
 40
40
 50
279.71265316664216
 51
332.69093929010893
  0
ARC
  8
_e-0_
  6
CONTINUOUS
 62
    3
 10
2255.9974857549714
 20
135.99729020443192
 40
5
 50
241.94526281180003
 51
279.71265316664227
  0
ARC
  8
_e-0_
  6
CONTINUOUS
 62
    3
 10
2263.2643122966178
 20
205.12865853712896
 40
5
 50
90
 51
106.0533814378627
  0
LINE
  8
_e-0_
  6
CONTINUOUS
 62
    3
 10
2288.4334989152221
 20
210.12865853712884
 11
2288.4334989152221
 21
210.12865853712884
  0
LINE
  8
_e-0_
  6
CONTINUOUS
 62
    3
 10
2288.4334989152221
 20
210.12865853712884
 11
2278.2181989551914
 21
205.24067691222058
  0
LINE
  8
_e-0_
  6
CONTINUOUS
 62
    3
 10
2278.2181989551914
 20
205.24067691222058
 11
2272.2994583375817
 21
201.44448978984022
  0
LINE
  8
_e-0_
  6
CONTINUOUS
 62
    3
 10
2266.4464672734898
 20
197.56612819678253
 11
2272.2994583375817
 21
201.4444897898403
  0
ARC
  8
_e-0_
  6
CONTINUOUS
 62
    3
 10
2263.2643122966178
 20
205.12865853712896
 40
5
 50
90
 51
106.0533814378627
  0
ARC
  8
_e-0_
  6
CONTINUOUS
 62
    3
 10
2263.2643122966178
 20
205.12865853712896
 40
5
 50
90
 51
106.0533814378627
  0
LINE
  8
_e-0_
  6
CONTINUOUS
 62
    3
 10
2288.4334989152221
 20
210.12865853712896
 11
2263.2643122966178
 21
210.12865853712896
  0
ARC
  8
_e-0_
  6
CONTINUOUS
 62
    3
 10
2273.6342932765642
 20
169.09099082020305
 40
42.5
 50
106.0533814378627
 51
241.94526281180052
  0
ARC
  8
_e-0_
  6
CONTINUOUS
 62
    3
 10
2263.2643122966178
 20
205.12865853712896
 40
5
 50
90
 51
106.0533814378627
  0
LINE
  8
_e-0_
  6
CONTINUOUS
 62
    3
 10
2299.1719829458552
 20
210.12865853712896
 11
2313.2288608412614
 21
210.12865853712896
  0
ARC
  8
_e-0_
  6
CONTINUOUS
 62
    3
 10
2299.1719829458552
 20
205.12865853712896
 40
5
 50
90
 51
112.8455272152833
  0
LINE
  8
_e-0_
  6
CONTINUOUS
 62
    3
 10
2292.0528772673465
 20
188.89449034687004
 11
2269.0173546029673
 21
188.89449034687004
  0
ARC
  8
_e-0_
  6
CONTINUOUS
 62
    3
 10
2269.0173546029673
 20
183.89449034687004
 40
5
 50
90
 51
110.93110431809542
  0
ARC
  8
_e-0_
  6
CONTINUOUS
 62
    3
 10
2254.2292662802574
 20
177.70386452217394
 40
0.5
 50
165.368776721252
 51
224.67319701305797
  0
LINE
  8
_e-0_
  6
CONTINUOUS
 62
    3
 10
2253.8737020580625
 20
177.3523334653737
 11
2253.6837582739272
 21
177.54445650133448
  0
ARC
  8
_e-0_
  6
CONTINUOUS
 62
    3
 10
2276.1622566207875
 20
165.21427688032361
 40
25
 50
110.93110431809528
 51
150.17701829297229
  0
ARC
  8
_e-0_
  6
CONTINUOUS
 62
    3
 10
2254.0393224961217
 20
177.89598755813472
 40
0.5
 50
224.67319701305652
 51
330.17701829297562
  0
LINE
  8
_e-0_
  6
CONTINUOUS
 62
    3
 10
2297.2307430642559
 20
209.73643324104927
 11
2283.5233941157549
 21
203.96157353985984
  0
LINE
  8
_e-0_
  6
CONTINUOUS
 62
    3
 10
2283.5233941157549
 20
203.96157353985984
 11
2277.114528385443
 21
200.4613679180602
  0
ARC
  8
_e-0_
  6
CONTINUOUS
 62
    3
 10
2277.9347719955745
 20
171.51524603489747
 40
25
 50
126.05682261028305
 51
165.36877672125814
  0
ARC
  8
_e-0_
  6
CONTINUOUS
 62
    3
 10
2322.0287923520791
 20
111.11536133502739
 40
100
 50
116.68868989749241
 51
126.03335467187628
  0
LINE
  8
_e-0_
  6
CONTINUOUS
 62
    3
 10
2262.3244734593245
 20
194.7568066438013
 11
2262.3244734593245
 21
194.7568066438013
  0
LINE
  8
_e-0_
  6
CONTINUOUS
 62
    3
 10
2262.3244734593245
 20
194.7568066438013
 11
2254.3560414411386
 21
187.50185893935441
  0
LINE
  8
_e-0_
  6
CONTINUOUS
 62
    3
 10
2254.3560414411386
 20
187.50185893935441
 11
2252.5108960046537
 21
185.36863764275498
  0
ARC
  8
_e-0_
  6
CONTINUOUS
 62
    3
 10
2274.5493829743446
 20
174.5520307550089
 40
25
 50
169.07329675873063
 51
296.321383266618
  0
LINE
  8
_e-0_
  6
CONTINUOUS
 62
    3
 10
2252.5108960046541
 20
185.36863764275483
 11
2252.5108960046541
 21
185.36863764275483
  0
LINE
  8
_e-0_
  6
CONTINUOUS
 62
    3
 10
2252.5108960046541
 20
185.36863764275483
 11
2250.0026210661131
 21
179.29085759512347
  0
LINE
  8
_e-0_
  6
CONTINUOUS
 62
    3
 10
2292.0528772673465
 20
188.89449034687004
 11
2292.0528772673465
 21
164.42425885831653
  0
ARC
  8
_e-0_
  6
CONTINUOUS
 62
    3
 10
2277.2840925230507
 20
144.130909833072
 40
5
 50
311.4163090429962
 51
326.13300916724882
  0
ARC
  8
_e-0_
  6
CONTINUOUS
 62
    3
 10
2252.285941088533
 20
168.73596234419836
 40
40
 50
316.78132524618343
 51
353.81191653224226
  0
ARC
  8
_e-0_
  6
CONTINUOUS
 62
    3
 10
2240.9001979970053
 20
185.376663785662
 40
60
 50
294.69555798319504
 51
311.41630904299643
  0
ARC
  8
_e-0_
  6
CONTINUOUS
 62
    3
 10
2271.9268153318699
 20
202.9806715079161
 40
75
 50
264.68313230529077
 51
266.17253517307824
  0
ARC
  8
_e-0_
  6
CONTINUOUS
 62
    3
 10
2265.0233680716156
 20
128.80121063143832
 40
0.5
 50
174.02086603460467
 51
264.68313230528986
  0
ARC
  8
_e-0_
  6
CONTINUOUS
 62
    3
 10
2267.0124878650104
 20
128.59287809071873
 40
2.5
 50
114.69555798319523
 51
174.02086603461154
  0
LINE
  8
_e-0_
  6
CONTINUOUS
 62
    7
 10
2376.8899919095943
 20
169.43032024062035
 11
2388.2618909747962
 21
173.56935300743345
  0
LINE
  8
_e-0_
  6
CONTINUOUS
 62
    3
 10
2436.2585234464268
 20
162.6331249251939
 11
2436.2585234464268
 21
136.49018622829544
  0
CIRCLE
  8
_e-0_
  6
CONTINUOUS
 62
    3
 10
2365.5167430510387
 20
162.46293449130519
 40
13.337737955830651
  0
CIRCLE
  8
_e-0_
  6
CONTINUOUS
 62
    3
 10
2365.2330256036635
 20
162.17921704393007
 40
25.691707563897666
  0
LINE
  8
_e-0_
  6
CONTINUOUS
 62
    3
 10
2399.4939617252576
 20
188.26250382114978
 11
2399.4939617252576
 21
136.49018622829544
  0
LINE
  8
_e-0_
  6
CONTINUOUS
 62
    3
 10
2399.4939617252576
 20
136.49018622829544
 11
2414.8569307536691
 21
136.49018622829544
  0
LINE
  8
_e-0_
  6
CONTINUOUS
 62
    3
 10
2414.8569307536691
 20
136.49018622829544
 11
2414.8569307536691
 21
172.6331249251939
  0
LINE
  8
_e-0_
  6
CONTINUOUS
 62
    3
 10
2451.1774760289304
 20
136.49018622829544
 11
2436.2585234464268
 21
136.49018622829544
  0
LINE
  8
_e-0_
  6
CONTINUOUS
 62
    3
 10
2426.2585234464268
 20
172.6331249251939
 11
2414.8569307536691
 21
172.6331249251939
  0
ARC
  8
_e-0_
  6
CONTINUOUS
 62
    3
 10
2426.2585234464268
 20
162.6331249251939
 40
10
 50
0
 51
90
  0
LINE
  8
_e-0_
  6
CONTINUOUS
 62
    3
 10
2426.17747602893
 20
188.26250382114978
 11
2399.4939617252576
 21
188.26250382114978
  0
LINE
  8
_e-0_
  6
CONTINUOUS
 62
    3
 10
2451.1774760289304
 20
163.26250382114978
 11
2451.1774760289304
 21
136.49018622829544
  0
ARC
  8
_e-0_
  6
CONTINUOUS
 62
    3
 10
2426.17747602893
 20
163.26250382114978
 40
25
 50
0
 51
90
  0
ARC
  8
_e-0_
  6
CONTINUOUS
 62
    3
 10
2486.2452606175234
 20
162.17653762406428
 40
13.337737955830651
 50
23.422555400004953
 51
97.191484740792632
  0
LINE
  8
_e-0_
  6
CONTINUOUS
 62
    3
 10
2474.006576131063
 20
167.47841048365672
 11
2498.4839451039834
 21
167.47841048365672
  0
ARC
  8
_e-0_
  6
CONTINUOUS
 62
    3
 10
2486.2452606175234
 20
162.17653762406428
 40
13.337737955830651
 50
92.530763017635266
 51
156.57744459999506
  0
ARC
  8
_e-0_
  6
CONTINUOUS
 62
    3
 10
2486.2452606175234
 20
162.17653762406428
 40
13.337737955830651
 50
204.21097500392608
 51
316.0067678116265
  0
LINE
  8
_e-0_
  6
CONTINUOUS
 62
    3
 10
2474.0806890359868
 20
156.70676139316754
 11
2511.5200753562385
 21
156.70676139316754
  0
LINE
  8
_e-0_
  6
CONTINUOUS
 62
    3
 10
2495.8407207162627
 20
152.91249966689293
 11
2508.7092412098891
 21
149.78943472664497
  0
ARC
  8
_e-0_
  6
CONTINUOUS
 62
    3
 10
2486.5655867677851
 20
162.81718992458821
 40
25.691707563897666
 50
346.24110979921471
 51
329.53046432565105
  0
ARC
  8
_e-0_
  6
CONTINUOUS
 62
    3
 10
2546.5135590423406
 20
162.1430984535391
 40
11.089756641867943
 50
94.502189492040685
 51
357.22978420280037
  0
LINE
  8
_e-0_
  6
CONTINUOUS
 62
    3
 10
2556.5903561511468
 20
173.19863581905565
 11
2545.6430442891501
 21
173.19863581905565
  0
LINE
  8
_e-0_
  6
CONTINUOUS
 62
    3
 10
2557.5903561511468
 20
172.19863581905599
 11
2557.5903561511468
 21
161.60712439988743
  0
ARC
  8
_e-0_
  6
CONTINUOUS
 62
    3
 10
2556.5903561511468
 20
172.19863581905599
 40
1
 50
0
 51
90
  0
LINE
  8
_e-0_
  6
CONTINUOUS
 62
    3
 10
2548.9703457355517
 20
188.29058742736095
 11
2557.3930775458175
 21
188.29058742736095
  0
ARC
  8
_e-0_
  6
CONTINUOUS
 62
    3
 10
2546.966285661204
 20
162.67716163604518
 40
25.691707563897666
 50
85.52614601413697
 51
347.40557840019875
  0
LINE
  8
_e-0_
  6
CONTINUOUS
 62
    3
 10
2557.3930775458175
 20
209.12865853712901
 11
2557.3930775458175
 21
188.29058742736095
  0
ARC
  8
_e-0_
  6
CONTINUOUS
 62
    3
 10
2558.3930775458175
 20
209.12865853712901
 40
1
 50
90
 51
180
  0
LINE
  8
_e-0_
  6
CONTINUOUS
 62
    3
 10
2572.0397992563612
 20
209.12865853712901
 11
2572.0397992563612
 21
157.07513043814089
  0
LINE
  8
_e-0_
  6
CONTINUOUS
 62
    3
 10
2571.0397992563617
 20
210.12865853712896
 11
2558.3930775458175
 21
210.12865853712896
  0
ARC
  8
_e-0_
  6
CONTINUOUS
 62
    3
 10
2571.0397992563617
 20
209.12865853712901
 40
1
 50
0
 51
90
  0
CIRCLE
  8
_e-0_
  6
CONTINUOUS
 62
    3
 10
2607.4932845795829
 20
162.61858771142585
 40
13.337737955830651
  0
CIRCLE
  8
_e-0_
  6
CONTINUOUS
 62
    3
 10
2607.2095671322086
 20
162.33487026405101
 40
25.691707563897666
  0
ARC
  8
_e-0_
  6
CONTINUOUS
 62
    3
 10
2361.3056445788689
 20
183.56108960512415
 40
5
 50
90
 51
106.0533814378627
  0
ARC
  8
_e-0_
  6
CONTINUOUS
 62
    3
 10
2361.3056445788689
 20
183.56108960512415
 40
5
 50
90
 51
106.0533814378627
  0
ARC
  8
_e-0_
  6
CONTINUOUS
 62
    3
 10
2361.3056445788689
 20
183.56108960512415
 40
5
 50
90
 51
106.0533814378627
  0
ARC
  8
_e-0_
  6
CONTINUOUS
 62
    3
 10
2361.3056445788689
 20
183.56108960512415
 40
5
 50
90
 51
106.0533814378627
  0
LINE
  8
_e-0_
  6
CONTINUOUS
 62
    7
 10
2346.3470804331014
 20
179.59716504486778
 11
2368.5044577934555
 21
187.66179087344028
  0
LINE
  8
_e-0_
  6
CONTINUOUS
 62
    7
 10
2361.2415063076146
 20
179.69740385729494
 11
2376.5205845613305
 21
185.25853354867166
  0
LINE
  8
_e-0_
  6
CONTINUOUS
 62
    7
 10
2341.7511550984832
 20
172.60349616177706
 11
2361.2415063076146
 21
179.69740385729494
  0
LINE
  8
_e-0_
  6
CONTINUOUS
 62
    7
 10
2339.9278406436088
 20
166.61897511011603
 11
2357.2356669233163
 21
172.91850869577985
  0
LINE
  8
_e-0_
  6
CONTINUOUS
 62
    7
 10
2339.561356655227
 20
161.1646969846305
 11
2352.6357267551816
 21
165.92337853279389
  0
LINE
  8
_e-0_
  6
CONTINUOUS
 62
    7
 10
2340.2704529847874
 20
156.10189807943812
 11
2352.3257797311662
 21
160.489678179473
  0
LINE
  8
_e-0_
  6
CONTINUOUS
 62
    7
 10
2341.920482349894
 20
151.38157079162255
 11
2353.9794571535695
 21
155.77067867592632
  0
LINE
  8
_e-0_
  6
CONTINUOUS
 62
    7
 10
2344.5041289741071
 20
147.00105239631881
 11
2357.564943671171
 21
151.7548001813168
  0
LINE
  8
_e-0_
  6
CONTINUOUS
 62
    7
 10
2348.1361647674012
 20
143.00211645248766
 11
2364.9879954656799
 21
149.1356812195545
  0
LINE
  8
_e-0_
  6
CONTINUOUS
 62
    7
 10
2353.1501292054063
 20
139.50616140121156
 11
2375.2534753949121
 21
147.55112149187283
  0
LINE
  8
_e-0_
  6
CONTINUOUS
 62
    7
 10
2360.6217579801264
 20
136.90472301431669
 11
2375.3071030149836
 21
142.24975148693375
  0
LINE
  8
_e-0_
  6
CONTINUOUS
 62
    7
 10
2375.3071030149836
 20
142.24975148693375
 11
2385.0115931457403
 21
145.78189703325933
  0
LINE
  8
_e-0_
  6
CONTINUOUS
 62
    7
 10
2374.4001538198345
 20
147.24053783828737
 11
2389.0630204872041
 21
152.57738485422379
  0
LINE
  8
_e-0_
  6
CONTINUOUS
 62
    7
 10
2374.4883804748506
 20
152.59353857696169
 11
2390.6567834919524
 21
158.47835601080646
  0
LINE
  8
_e-0_
  6
CONTINUOUS
 62
    7
 10
2378.4912308361027
 20
159.37134582305873
 11
2390.8686178519897
 21
163.87634627483465
  0
LINE
  8
_e-0_
  6
CONTINUOUS
 62
    7
 10
2378.6565159204479
 20
164.75239353630798
 11
2390.032063042946
 21
168.89275408738968
  0
LINE
  8
_e-0_
  6
CONTINUOUS
 62
    7
 10
2365.1397018509306
 20
175.79534214003161
 11
2381.7641004494612
 21
181.84612839247364
  0
LINE
  8
_e-0_
  6
CONTINUOUS
 62
    7
 10
2373.1598434523221
 20
173.39354609515908
 11
2385.5507858710998
 21
177.90348031010012
  0
LINE
  8
_e-0_
  6
CONTINUOUS
 62
    7
 10
2399.4939617252576
 20
182.97838129215279
 11
2414.0119690553088
 21
188.26250382114978
  0
LINE
  8
_e-0_
  6
CONTINUOUS
 62
    7
 10
2399.4939617252576
 20
177.65749242977336
 11
2428.3670442872126
 21
188.16643505383524
  0
LINE
  8
_e-0_
  6
CONTINUOUS
 62
    7
 10
2399.4939617252576
 20
172.33660356739392
 11
2436.7743097980665
 21
185.90554058897965
  0
LINE
  8
_e-0_
  6
CONTINUOUS
 62
    7
 10
2399.4939617252576
 20
167.01571470501449
 11
2442.1110032081056
 21
182.52704927725858
  0
LINE
  8
_e-0_
  6
CONTINUOUS
 62
    7
 10
2399.4939617252576
 20
161.69482584263505
 11
2414.8569307536691
 21
167.28648927893005
  0
LINE
  8
_e-0_
  6
CONTINUOUS
 62
    7
 10
2428.709008278624
 20
172.32823318076129
 11
2445.9244086202584
 21
178.5941264760919
  0
LINE
  8
_e-0_
  6
CONTINUOUS
 62
    7
 10
2399.4939617252576
 20
156.37393698025562
 11
2414.8569307536691
 21
161.96560041655061
  0
LINE
  8
_e-0_
  6
CONTINUOUS
 62
    7
 10
2403.3398935234459
 20
136.49018622829544
 11
2414.8569307536691
 21
140.68204496703231
  0
LINE
  8
_e-0_
  6
CONTINUOUS
 62
    7
 10
2399.4939617252576
 20
140.41127039311675
 11
2414.8569307536691
 21
146.00293382941203
  0
LINE
  8
_e-0_
  6
CONTINUOUS
 62
    7
 10
2399.4939617252576
 20
145.73215925549647
 11
2414.8569307536691
 21
151.32382269179146
  0
LINE
  8
_e-0_
  6
CONTINUOUS
 62
    7
 10
2399.4939617252576
 20
151.0530481178759
 11
2414.8569307536691
 21
156.64471155417118
  0
LINE
  8
_e-0_
  6
CONTINUOUS
 62
    7
 10
2436.2585234464268
 20
159.11336539784401
 11
2451.1774760289304
 21
164.5434200643038
  0
LINE
  8
_e-0_
  6
CONTINUOUS
 62
    7
 10
2436.2585234464268
 20
153.79247653546486
 11
2451.1774760289304
 21
159.22253120192465
  0
LINE
  8
_e-0_
  6
CONTINUOUS
 62
    7
 10
2436.105047565391
 20
164.37839360784892
 11
2450.3687179376248
 21
169.56994505472636
  0
LINE
  8
_e-0_
  6
CONTINUOUS
 62
    7
 10
2436.2585234464268
 20
148.47158767308542
 11
2451.1774760289304
 21
153.90164233954522
  0
LINE
  8
_e-0_
  6
CONTINUOUS
 62
    7
 10
2436.2585234464268
 20
143.15069881070571
 11
2451.1774760289304
 21
148.5807534771655
  0
LINE
  8
_e-0_
  6
CONTINUOUS
 62
    7
 10
2436.2585234464268
 20
137.82980994832599
 11
2451.1774760289304
 21
143.25986461478607
  0
LINE
  8
_e-0_
  6
CONTINUOUS
 62
    7
 10
2447.1969595258929
 20
136.49018622829544
 11
2451.1774760289304
 21
137.93897575240635
  0
LINE
  8
_e-0_
  6
CONTINUOUS
 62
    7
 10
2434.0189024056153
 20
168.9399877277117
 11
2448.6296862431445
 21
174.25787814386979
  0
LINE
  8
_e-0_
  6
CONTINUOUS
 62
    7
 10
2469.1883842563338
 20
181.74063227593791
 11
2487.7135419125711
 21
188.48323824789645
  0
LINE
  8
_e-0_
  6
CONTINUOUS
 62
    7
 10
2463.6316388937826
 20
174.39725350219305
 11
2496.6904887083792
 21
186.42969081378254
  0
LINE
  8
_e-0_
  6
CONTINUOUS
 62
    7
 10
2461.4628990865917
 20
168.28700790412768
 11
2502.2794299488264
 21
183.14301020398858
  0
LINE
  8
_e-0_
  6
CONTINUOUS
 62
    7
 10
2461.4992419870632
 20
162.97934677574688
 11
2473.9894671720022
 21
167.52541696234658
  0
LINE
  8
_e-0_
  6
CONTINUOUS
 62
    7
 10
2492.1508316310542
 20
174.13561303910114
 11
2506.2885679576884
 21
179.28132824190016
  0
LINE
  8
_e-0_
  6
CONTINUOUS
 62
    7
 10
2496.6927278595249
 20
170.4678392110111
 11
2509.1784918759254
 21
175.01228566505262
  0
LINE
  8
_e-0_
  6
CONTINUOUS
 62
    7
 10
2463.2093427036916
 20
158.28088367181749
 11
2488.4793399340492
 21
167.47841048365672
  0
LINE
  8
_e-0_
  6
CONTINUOUS
 62
    7
 10
2462.8888794596255
 20
152.84335572742151
 11
2511.1140538755621
 21
170.39588375711787
  0
LINE
  8
_e-0_
  6
CONTINUOUS
 62
    7
 10
2465.300291731432
 20
148.400149154524
 11
2476.9283430630944
 21
152.63241372176822
  0
LINE
  8
_e-0_
  6
CONTINUOUS
 62
    7
 10
2488.1225212892723
 20
156.70676139316754
 11
2512.122843037012
 21
165.44216412215633
  0
LINE
  8
_e-0_
  6
CONTINUOUS
 62
    7
 10
2502.741543290088
 20
156.70676139316754
 11
2512.115162112696
 21
160.11847963195407
  0
LINE
  8
_e-0_
  6
CONTINUOUS
 62
    7
 10
2468.7281740890053
 20
144.32690743686692
 11
2482.5550140975402
 21
149.35946563393486
  0
LINE
  8
_e-0_
  6
CONTINUOUS
 62
    7
 10
2473.4508580764295
 20
140.72493497175572
 11
2502.4973614552446
 21
151.2969976111566
  0
LINE
  8
_e-0_
  6
CONTINUOUS
 62
    7
 10
2480.306949559827
 20
137.89945933273884
 11
2507.376789508387
 21
147.75207532036433
  0
LINE
  8
_e-0_
  6
CONTINUOUS
 62
    7
 10
2552.6231690921718
 20
137.61596638527408
 11
2558.7418873346696
 21
139.8429976974046
  0
LINE
  8
_e-0_
  6
CONTINUOUS
 62
    7
 10
2539.4012676014827
 20
138.12447666464266
 11
2568.5435873921024
 21
148.73141362589479
  0
LINE
  8
_e-0_
  6
CONTINUOUS
 62
    7
 10
2532.9976800904733
 20
141.11465028049622
 11
2571.526973469855
 21
155.13816621790056
  0
LINE
  8
_e-0_
  6
CONTINUOUS
 62
    7
 10
2522.081864354775
 20
169.06695144424447
 11
2572.0397992563612
 21
187.25015271383
  0
LINE
  8
_e-0_
  6
CONTINUOUS
 62
    7
 10
2524.5896829795606
 20
175.30061163898438
 11
2572.0397992563612
 21
192.57104157620944
  0
LINE
  8
_e-0_
  6
CONTINUOUS
 62
    7
 10
2557.3930775458175
 20
208.52362629350921
 11
2561.8028673926597
 21
210.12865853712896
  0
LINE
  8
_e-0_
  6
CONTINUOUS
 62
    7
 10
2557.3930775458175
 20
203.20273743112978
 11
2572.0397992563612
 21
208.53370816334802
  0
LINE
  8
_e-0_
  6
CONTINUOUS
 62
    7
 10
2557.3930775458175
 20
197.88184856875006
 11
2572.0397992563612
 21
203.21281930096859
  0
LINE
  8
_e-0_
  6
CONTINUOUS
 62
    7
 10
2557.3930775458175
 20
192.56095970637034
 11
2572.0397992563612
 21
197.89193043858916
  0
LINE
  8
_e-0_
  6
CONTINUOUS
 62
    7
 10
2531.3600319802563
 20
183.08570601321094
 11
2545.8030101140193
 21
188.34252014805827
  0
LINE
  8
_e-0_
  6
CONTINUOUS
 62
    7
 10
2548.0525958796984
 20
173.19863581905565
 11
2572.0397992563612
 21
181.92926385145057
  0
LINE
  8
_e-0_
  6
CONTINUOUS
 62
    7
 10
2521.2864022906338
 20
163.45653806802943
 11
2538.3752084417083
 21
169.67635484616608
  0
LINE
  8
_e-0_
  6
CONTINUOUS
 62
    7
 10
2521.6554107736333
 20
158.26995730965365
 11
2535.4846691325356
 21
163.30339571427089
  0
LINE
  8
_e-0_
  6
CONTINUOUS
 62
    7
 10
2522.9940114609526
 20
153.43627925302656
 11
2536.1404517985766
 21
158.22119222247807
  0
LINE
  8
_e-0_
  6
CONTINUOUS
 62
    7
 10
2525.2563435788043
 20
148.93881194156961
 11
2539.0354883761397
 21
153.95401050144358
  0
LINE
  8
_e-0_
  6
CONTINUOUS
 62
    7
 10
2528.5117312327798
 20
144.80278728623489
 11
2545.7561370732087
 21
151.07923771975692
  0
LINE
  8
_e-0_
  6
CONTINUOUS
 62
    7
 10
2554.2054905278624
 20
154.15455087604528
 11
2572.0397992563612
 21
160.64570840193255
  0
LINE
  8
_e-0_
  6
CONTINUOUS
 62
    7
 10
2557.505937791675
 20
160.67670430221767
 11
2572.0397992563612
 21
165.96659726431199
  0
LINE
  8
_e-0_
  6
CONTINUOUS
 62
    7
 10
2557.5903561511468
 20
166.02831893467055
 11
2572.0397992563612
 21
171.28748612669142
  0
LINE
  8
_e-0_
  6
CONTINUOUS
 62
    7
 10
2557.5903561511468
 20
171.34920779704998
 11
2572.0397992563612
 21
176.60837498907085
  0
LINE
  8
_e-0_
  6
CONTINUOUS
 62
    7
 10
2595.1467628188602
 20
185.01862193009401
 11
2601.8693768327421
 21
187.46545332760775
  0
LINE
  8
_e-0_
  6
CONTINUOUS
 62
    7
 10
2585.5936460434282
 20
176.2206829169881
 11
2614.8426950414305
 21
186.86646613285404
  0
LINE
  8
_e-0_
  6
CONTINUOUS
 62
    7
 10
2608.5181174973609
 20
136.67650840108905
 11
2622.7000364868072
 21
141.83830477802189
  0
LINE
  8
_e-0_
  6
CONTINUOUS
 62
    7
 10
2598.2444761483162
 20
138.25809761488983
 11
2629.5534764025952
 21
149.65364177207988
  0
LINE
  8
_e-0_
  6
CONTINUOUS
 62
    7
 10
2582.6330921261529
 20
169.82224055178023
 11
2621.2234503919626
 21
183.86798229020314
  0
LINE
  8
_e-0_
  6
CONTINUOUS
 62
    7
 10
2592.2968185805403
 20
141.41421615899105
 11
2632.0809325371147
 21
155.894449435838
  0
LINE
  8
_e-0_
  6
CONTINUOUS
 62
    7
 10
2588.0695495912832
 20
145.19650493704432
 11
2602.246111940276
 21
150.35635165629657
  0
LINE
  8
_e-0_
  6
CONTINUOUS
 62
    7
 10
2585.0094293819529
 20
149.40360112995108
 11
2597.3909335115823
 21
153.91010008858018
  0
LINE
  8
_e-0_
  6
CONTINUOUS
 62
    7
 10
2582.919829983693
 20
153.96393800982366
 11
2594.869518006371
 21
158.31326875884542
  0
LINE
  8
_e-0_
  6
CONTINUOUS
 62
    7
 10
2581.7538748691904
 20
158.86045391603375
 11
2594.1774270088017
 21
163.38225709870642
  0
LINE
  8
_e-0_
  6
CONTINUOUS
 62
    7
 10
2581.5798124660105
 20
164.11798924475079
 11
2595.9853391150814
 21
169.36117215394091
  0
LINE
  8
_e-0_
  6
CONTINUOUS
 62
    7
 10
2611.9748325174678
 20
175.18087181340547
 11
2625.6969314853623
 21
180.17530738937353
  0
LINE
  8
_e-0_
  6
CONTINUOUS
 62
    7
 10
2617.2029460570038
 20
171.76286066078092
 11
2628.9430705154382
 21
176.03591651023152
  0
LINE
  8
_e-0_
  6
CONTINUOUS
 62
    7
 10
2619.9310564926914
 20
167.43492279278257
 11
2631.197316834192
 21
171.53550620858255
  0
LINE
  8
_e-0_
  6
CONTINUOUS
 62
    7
 10
2620.8298424207369
 20
162.44116525518905
 11
2632.5279188691889
 21
166.69891688059579
  0
LINE
  8
_e-0_
  6
CONTINUOUS
 62
    7
 10
2619.394865425299
 20
156.59798747961361
 11
2632.8880000931144
 21
161.5090868656435
  0
LINE
  8
ADD_LINE
  6
DOT
 62
    9
 10
2339.561356655227
 20
120
 11
2339.561356655227
 21
220
  0
LINE
  8
ADD_LINE
  6
DOT
 62
    9
 10
2486.2246783741707
 20
220
 11
2486.2246783741707
 21
120
  0
LINE
  8
ADD_LINE
  6
DOT
 62
    9
 10
2632.8880000931144
 20
120
 11
2632.8880000931144
 21
220
  0
TEXT
  8
_e-0_
 62
    7
 10
2642.8586825750176
 20
180.56247057449553
 40
35
 41
0.5714285714285714
 50
0
  1
ワンド
  0
TEXT
  8
_e-0_
 62
    7
 10
2649.7045100149039
 20
147.0179161190498
 40
30
 41
0.6666666666666666
 50
0
  1
株式
  0
TEXT
  8
_e-0_
 62
    7
 10
2649.0199272709156
 20
118.95002361551377
 40
30
 41
0.6666666666666666
 50
0
  1
会社
  0
TEXT
  8
_f-8_
 62
    7
 10
1575.5106382978724
 20
137.5
 40
45
 41
0.6666666666666666
 50
0
  1
ＫＴＤ３－５０－７０ＦＨ
  0
TEXT
  8
_f-8_
 62
    7
 10
3040
 20
142.5
 40
35
 41
0.5714285714285714
 50
0
  1
２０２３．０５．０１
  0
TEXT
  8
_f-8_
 62
    7
 10
3582
 20
145
 40
30
 41
0.7333333333333333
 50
0
  1
Ｔ．Ｋ
  0
LINE
  8
_0-9_
  6
CONTINUOUS
 62
    4
 10
2381.3796675245299
 20
1487
 11
2381.3796675245299
 21
1287
  0
POINT
  8
_0-9_
 62
    3
 10
2381.3796675245299
 20
1487
  0
LINE
  8
_0-9_
  6
CONTINUOUS
 62
    4
 10
2561.3796675245294
 20
1257
 11
2411.3796675245299
 21
1257
  0
LINE
  8
ADD_LINE
  6
DOT
 62
    9
 10
2551.3796675245299
 20
1306.5344723558587
 11
2551.3796675245299
 21
1386.5344723558587
  0
POINT
  8
_0-9_
 62
    3
 10
2551.3796675245299
 20
1257
  0
LINE
  8
_0-9_
  6
CONTINUOUS
 62
    4
 10
700
 20
1497
 11
700
 21
1287
  0
POINT
  8
_0-9_
 62
    3
 10
700
 20
1487
  0
LINE
  8
ADD_LINE
  6
DOT
 62
    9
 10
1993.3796675245299
 20
727
 11
2411.3796675245299
 21
727
  0
LINE
  8
_0-9_
  6
CONTINUOUS
 62
    4
 10
2561.3796675245294
 20
757
 11
2411.3796675245299
 21
757
  0
POINT
  8
_0-9_
 62
    3
 10
2471.3796675245299
 20
757
  0
POINT
  8
_0-9_
 62
    3
 10
2551.3796675245299
 20
757
  0
LINE
  8
ADD_LINE
  6
DOT
 62
    9
 10
1993.3796675245299
 20
1287
 11
1993.3796675245299
 21
727
  0
LINE
  8
ADD_LINE
  6
DOT
 62
    9
 10
2411.3796675245299
 20
1287
 11
2411.3796675245299
 21
727
  0
LINE
  8
_0-9_
  6
CONTINUOUS
 62
    4
 10
2551.3796675245299
 20
757
 11
2551.3796675245299
 21
1257
  0
TEXT
  8
_0-9_
 62
    7
 10
2551.3796675245299
 20
973.89999999999998
 40
35
 41
0.6285714285714286
 50
90
  1
５００
  0
LINE
  8
ADD_LINE
  6
DOT
 62
    9
 10
670
 20
1287
 11
670
 21
727
  0
LINE
  8
_0-3_
  6
CONTINUOUS
 62
    5
 10
700
 20
1257
 11
700
 21
757
  0
LINE
  8
_0-9_
  6
CONTINUOUS
 62
    4
 10
1400
 20
1497
 11
1400
 21
1287
  0
POINT
  8
_0-9_
 62
    3
 10
1400
 20
1487
  0
POINT
  8
_0-9_
 62
    3
 10
1593.3796675245299
 20
1257
  0
LINE
  8
_0-9_
  6
CONTINUOUS
 62
    4
 10
1593.3796675245299
 20
1257
 11
1430
 21
1257
  0
LINE
  8
_0-9_
  6
CONTINUOUS
 62
    4
 10
700
 20
1487
 11
1400
 21
1487
  0
TEXT
  8
_0-9_
 62
    7
 10
1016.9
 20
1487
 40
35
 41
0.6285714285714286
 50
0
  1
７００
  0
LINE
  8
_0-3_
  6
CONTINUOUS
 62
    5
 10
700
 20
1257
 11
1400
 21
1257
  0
LINE
  8
_0-3_
  6
CONTINUOUS
 62
    5
 10
1400
 20
1257
 11
1400
 21
757
  0
LINE
  8
_0-9_
  6
CONTINUOUS
 62
    4
 10
1603.3796675245299
 20
757
 11
1430
 21
757
  0
POINT
  8
_0-9_
 62
    3
 10
1593.3796675245299
 20
757
  0
LINE
  8
_0-9_
  6
CONTINUOUS
 62
    4
 10
1593.3796675245299
 20
757
 11
1593.3796675245299
 21
1257
  0
TEXT
  8
_0-9_
 62
    7
 10
1591.3796675245317
 20
973.89999999999998
 40
35
 41
0.6285714285714286
 50
90
  1
５００
  0
POINT
  8
_0-9_
 62
    3
 10
2955
 20
1487
  0
LINE
  8
_0-9_
  6
CONTINUOUS
 62
    4
 10
2955
 20
1497
 11
2955
 21
1287
  0
LINE
  8
ADD_LINE
  6
DOT
 62
    9
 10
2782.9999999999995
 20
1306.5344723558587
 11
2782.9999999999995
 21
1386.5344723558587
  0
LINE
  8
ADD_LINE
  6
DOT
 62
    9
 10
2863
 20
1306.5344723558587
 11
2863
 21
1386.5344723558587
  0
LINE
  8
ADD_LINE
  6
DOT
 62
    9
 10
2925
 20
1287
 11
2925
 21
727
  0
LINE
  8
_0-9_
  6
CONTINUOUS
 62
    4
 10
2967
 20
517
 11
2967
 21
727
  0
POINT
  8
_0-9_
 62
    3
 10
2967
 20
527
  0
POINT
  8
_0-9_
 62
    3
 10
3655
 20
1487
  0
LINE
  8
_0-9_
  6
CONTINUOUS
 62
    4
 10
3655
 20
1497
 11
3655
 21
1287
  0
LINE
  8
ADD_LINE
  6
DOT
 62
    9
 10
3685
 20
1287
 11
3685
 21
727
  0
LINE
  8
_0-9_
  6
CONTINUOUS
 62
    4
 10
3643
 20
517
 11
3643
 21
727
  0
POINT
  8
_0-9_
 62
    3
 10
3643
 20
527
  0
LINE
  8
ADD_LINE
  6
DOT
 62
    9
 10
3685
 20
1287
 11
2925
 21
1287
  0
LINE
  8
_0-9_
  6
CONTINUOUS
 62
    4
 10
2955
 20
1487
 11
3655
 21
1487
  0
TEXT
  8
_0-9_
 62
    7
 10
3271.9000000000001
 20
1487
 40
35
 41
0.6285714285714286
 50
0
  1
７００
  0
LINE
  8
ADD_LINE
  6
DOT
 62
    9
 10
2925
 20
727
 11
3685
 21
727
  0
LINE
  8
ADD_LINE
  6
DOT
 62
    9
 10
1430
 20
1287
 11
670
 21
1287
  0
LINE
  8
ADD_LINE
  6
DOT
 62
    9
 10
670
 20
727
 11
1430
 21
727
  0
LINE
  8
_0-9_
  6
CONTINUOUS
 62
    4
 10
1603.3796675245299
 20
741.99999999999989
 11
1430
 21
741.99999999999989
  0
POINT
  8
_0-9_
 62
    3
 10
1593.3796675245299
 20
741.99999999999989
  0
LINE
  8
_0-9_
  6
CONTINUOUS
 62
    4
 10
1593.3796675245299
 20
741.99999999999989
 11
1593.3796675245299
 21
695.65019346039458
  0
POINT
  8
_0-9_
 62
    3
 10
1593.3796675245299
 20
757
  0
POINT
  8
_0-9_
 62
    3
 10
1593.3796675245299
 20
741.99999999999989
  0
POINT
  8
_0-9_
 62
    9
 10
1513.3796675245299
 20
1252
  0
POINT
  8
_0-9_
 62
    9
 10
1513.3796675245299
 20
1257
  0
LINE
  8
_0-9_
  6
CONTINUOUS
 62
    9
 10
1513.3796675245299
 20
1257
 11
1513.3796675245299
 21
1288.7259897731469
  0
LINE
  8
_0-9_
  6
CONTINUOUS
 62
    9
 10
1523.3796675245299
 20
1252
 11
1430
 21
1252
  0
LINE
  8
ADD_LINE
  6
DOT
 62
    9
 10
1430
 20
1287
 11
1430
 21
727
  0
POINT
  8
_0-9_
 62
    9
 10
1513.3796675245299
 20
757
  0
LINE
  8
_0-9_
  6
CONTINUOUS
 62
    9
 10
1513.3796675245299
 20
1252
 11
1513.3796675245299
 21
1257
  0
TEXT
  8
_0-9_
 62
    1
 10
1512.2101754236542
 20
1263.6998590884559
 40
35
 41
0.6285714285714286
 50
90
  1
５
  0
LINE
  8
_0-9_
  6
CONTINUOUS
 62
    9
 10
1513.3796675245299
 20
757
 11
1513.3796675245299
 21
1252
  0
TEXT
  8
_0-9_
 62
    1
 10
1513.3796675245299
 20
971.39999999999998
 40
35
 41
0.6285714285714286
 50
90
  1
４９５
  0
LINE
  8
_0-9_
  6
CONTINUOUS
 62
    4
 10
2023.3796675245296
 20
1487
 11
2023.3796675245296
 21
1287
  0
POINT
  8
_0-9_
 62
    3
 10
2023.3796675245296
 20
1487
  0
POINT
  8
_0-9_
 62
    3
 10
2023.3796675245296
 20
1487
  0
POINT
  8
_0-9_
 62
    3
 10
2381.3796675245299
 20
1487
  0
LINE
  8
_0-9_
  6
CONTINUOUS
 62
    4
 10
2023.3796675245296
 20
1487
 11
2381.3796675245299
 21
1487
  0
TEXT
  8
_0-9_
 62
    7
 10
2169.2796675245295
 20
1487
 40
35
 41
0.6285714285714286
 50
0
  1
３５８
  0
LINE
  8
ADD_LINE
  6
DOT
 62
    9
 10
1993.3796675245299
 20
1287
 11
2411.3796675245299
 21
1287
  0
POINT
  8
_0-9_
 62
    9
 10
2381.3796675245299
 20
1407
  0
LINE
  8
ADD_LINE
  6
DOT
 62
    9
 10
2471.3796675245299
 20
1306.5344723558587
 11
2471.3796675245299
 21
1386.5344723558587
  0
POINT
  8
_0-9_
 62
    9
 10
2039.3796675245308
 20
1407
  0
LINE
  8
_0-9_
  6
CONTINUOUS
 62
    9
 10
2023.3796675245296
 20
1407
 11
1980.1566729846722
 21
1407
  0
POINT
  8
_0-9_
 62
    9
 10
2023.3796675245296
 20
1407
  0
POINT
  8
_0-9_
 62
    9
 10
2023.3796675245296
 20
1407
  0
POINT
  8
_0-9_
 62
    9
 10
2039.3796675245308
 20
1407
  0
LINE
  8
_0-9_
  6
CONTINUOUS
 62
    9
 10
2023.3796675245296
 20
1407
 11
2039.3796675245308
 21
1407
  0
TEXT
  8
_0-9_
 62
    1
 10
1979.324743640042
 20
1406.7060983788781
 40
35
 41
0.6285714285714286
 50
0
  1
１６
  0
LINE
  8
_0-9_
  6
CONTINUOUS
 62
    9
 10
1873.3796675245299
 20
1257
 11
1873.3796675245299
 21
1294.2679661680688
  0
POINT
  8
_0-9_
 62
    9
 10
1873.3796675245299
 20
1257
  0
POINT
  8
_0-9_
 62
    9
 10
1873.3796675245299
 20
1252
  0
LINE
  8
_0-9_
  6
CONTINUOUS
 62
    9
 10
1863.3796675245299
 20
1257
 11
1993.3796675245299
 21
1257
  0
LINE
  8
_0-9_
  6
CONTINUOUS
 62
    9
 10
1863.3796675245299
 20
1252
 11
1993.3796675245299
 21
1252
  0
POINT
  8
_0-9_
 62
    9
 10
1873.3796675245299
 20
757
  0
LINE
  8
_0-9_
  6
CONTINUOUS
 62
    9
 10
1863.3796675245299
 20
757
 11
1993.3796675245299
 21
757
  0
LINE
  8
_0-9_
  6
CONTINUOUS
 62
    9
 10
1873.3796675245299
 20
1252
 11
1873.3796675245299
 21
1257
  0
TEXT
  8
_0-9_
 62
    1
 10
1873.3796675245299
 20
1262.4370931302976
 40
35
 41
0.6285714285714286
 50
90
  1
５
  0
LINE
  8
_0-9_
  6
CONTINUOUS
 62
    9
 10
1873.3796675245299
 20
757
 11
1873.3796675245299
 21
1252
  0
TEXT
  8
_0-9_
 62
    1
 10
1871.3796675245317
 20
971.39999999999998
 40
35
 41
0.6285714285714286
 50
90
  1
４９５
  0
LINE
  8
_0-4_
  6
CONTINUOUS
 62
    3
 10
2023.3796675245296
 20
1252
 11
2035.3796675245301
 21
1252
  0
LINE
  8
_0-4_
  6
DASHED1
 62
    9
 10
2035.3796675245301
 20
1206.5000065983959
 11
2035.3796675245301
 21
1157.4999934016048
  0
LINE
  8
_0-4_
  6
DASHED1
 62
    9
 10
2035.3796675245301
 20
1206.5000065983959
 11
2037.3799710507126
 21
1206.5000065983959
  0
LINE
  8
_0-4_
  6
DASHED1
 62
    9
 10
2035.3796675245301
 20
1157.4999934016048
 11
2037.3799710507126
 21
1157.4999934016048
  0
LINE
  8
_0-4_
  6
DASHED1
 62
    9
 10
2038.3796279341584
 20
1187.4995974978885
 11
2050.3799644523174
 21
1187.4995974978885
  0
LINE
  8
_0-4_
  6
DASHED1
 62
    9
 10
2038.3796279341584
 20
1176.4999076224665
 11
2050.3799644523174
 21
1176.4999076224665
  0
LINE
  8
_0-4_
  6
DASHED1
 62
    9
 10
2038.3796279341584
 20
1205.4998548353042
 11
2038.3796279341584
 21
1158.4994028452281
  0
ARC
  8
_0-4_
  6
DASHED1
 62
    9
 10
2037.3799710507126
 20
1205.4998548353042
 40
0.9999999524773778
 50
0
 51
90
  0
ARC
  8
_0-4_
  6
DASHED1
 62
    9
 10
2037.3799710507126
 20
1158.4994028452281
 40
0.9999999524773778
 50
270
 51
0
  0
POINT
  8
_0-9_
 62
    3
 10
2471.3796675245299
 20
757
  0
POINT
  8
_0-9_
 62
    3
 10
2471.3796675245299
 20
947
  0
LINE
  8
_0-9_
  6
CONTINUOUS
 62
    4
 10
2481.3796675245299
 20
757
 11
2411.3796675245299
 21
757
  0
LINE
  8
_0-9_
  6
CONTINUOUS
 62
    4
 10
2481.3796675245299
 20
947
 11
2411.3796675245299
 21
947
  0
LINE
  8
_0-9_
  6
CONTINUOUS
 62
    4
 10
2471.3796675245299
 20
757
 11
2471.3796675245299
 21
947
  0
TEXT
  8
_0-9_
 62
    7
 10
2471.3796675245299
 20
818.89999999999998
 40
35
 41
0.6285714285714286
 50
90
  1
１９０
  0
POINT
  8
_0-9_
 62
    3
 10
2471.3796675245299
 20
1007
  0
LINE
  8
_0-9_
  6
CONTINUOUS
 62
    4
 10
2481.3796675245299
 20
1007
 11
2411.3796675245299
 21
1007
  0
LINE
  8
_0-9_
  6
CONTINUOUS
 62
    4
 10
2471.3796675245299
 20
947
 11
2471.3796675245299
 21
1007
  0
TEXT
  8
_0-9_
 62
    7
 10
2471.3796675245299
 20
954.95000000000005
 40
35
 41
0.6285714285714286
 50
90
  1
６０
  0
POINT
  8
_0-9_
 62
    3
 10
2471.3796675245299
 20
1067
  0
LINE
  8
_0-9_
  6
CONTINUOUS
 62
    4
 10
2481.3796675245299
 20
1067
 11
2411.3796675245299
 21
1067
  0
LINE
  8
_0-9_
  6
CONTINUOUS
 62
    4
 10
2471.3796675245299
 20
1007
 11
2471.3796675245299
 21
1067
  0
TEXT
  8
_0-9_
 62
    7
 10
2471.3796675245299
 20
1014.95
 40
35
 41
0.6285714285714286
 50
90
  1
６０
  0
LINE
  8
_0-9_
  6
CONTINUOUS
 62
    4
 10
2967
 20
527
 11
3643
 21
527
  0
TEXT
  8
_0-9_
 62
    7
 10
3271.9000000000001
 20
527
 40
35
 41
0.6285714285714286
 50
0
  1
６７６
  0
LINE
  8
_0-9_
  6
CONTINUOUS
 62
    4
 10
1593.3796675245299
 20
757
 11
1593.3796675245299
 21
741.99999999999989
  0
TEXT
  8
_0-9_
 62
    7
 10
1593.1834722356762
 20
697.53256981163406
 40
35
 41
0.6285714285714286
 50
90
  1
１５
  0
ARC
  8
_0-5_
  6
CONTINUOUS
 62
    4
 10
2034.9796675245295
 20
743.99999999999989
 40
1.9999999999999996
 50
269.99999999999994
 51
359.99999999999994
  0
ARC
  8
_0-5_
  6
CONTINUOUS
 62
    4
 10
2034.9796675245295
 20
743.99999999999989
 40
0.7
 50
270
 51
0
  0
LINE
  8
_0-5_
  6
CONTINUOUS
 62
    4
 10
2036.97966752453
 20
786.00000000000011
 11
2036.97966752453
 21
743.99999999999989
  0
ARC
  8
_0-5_
  6
CONTINUOUS
 62
    4
 10
2036.4796675245298
 20
786.00000000000011
 40
0.4999999999999998
 50
0
 51
90
  0
ARC
  8
_0-5_
  6
CONTINUOUS
 62
    4
 10
2036.17966752453
 20
785.69999999999993
 40
0.8000000000000001
 50
89.999999999999972
 51
231.31781254650664
  0
LINE
  8
_0-5_
  6
CONTINUOUS
 62
    4
 10
2036.4796675245298
 20
786.49999999999989
 11
2036.17966752453
 21
786.49999999999989
  0
LINE
  8
_0-5_
  6
CONTINUOUS
 62
    4
 10
2035.6796675245305
 20
777.7244997998398
 11
2035.6796675245305
 21
785.07550020016026
  0
ARC
  8
_0-5_
  6
CONTINUOUS
 62
    4
 10
2036.17966752453
 20
777.0999999999998
 40
0.8000000000000001
 50
128.68218745349336
 51
231.31781254650664
  0
LINE
  8
_0-5_
  6
CONTINUOUS
 62
    4
 10
2035.6796675245305
 20
772.29999999999995
 11
2035.6796675245305
 21
776.47550020016013
  0
ARC
  8
_0-5_
  6
CONTINUOUS
 62
    4
 10
2035.3796675245303
 20
772.29999999999995
 40
0.2999999999999999
 50
270
 51
0
  0
LINE
  8
_0-5_
  6
CONTINUOUS
 62
    4
 10
2035.6796675245305
 20
768.55038733822516
 11
2035.6796675245305
 21
743.99999999999989
  0
ARC
  8
_0-5_
  6
CONTINUOUS
 62
    4
 10
2034.6796675245298
 20
768.55038733822516
 40
0.9999999999999997
 50
359.99999999999994
 51
87.039063865836212
  0
ARC
  8
_0-5_
  6
CONTINUOUS
 62
    4
 10
2021.8796675245301
 20
777.1999999999997
 40
0.8000000000000001
 50
0.0000000000000254
 51
179.99999999999997
  0
LINE
  8
_0-5_
  6
CONTINUOUS
 62
    4
 10
2024.208238953102
 20
741.99999999999989
 11
2034.9796675245295
 21
741.99999999999989
  0
ARC
  8
_0-5_
  6
CONTINUOUS
 62
    4
 10
2024.208238953102
 20
743.99999999999989
 40
1.9999999999999996
 50
198.92464441605046
 51
270
  0
ARC
  8
_0-5_
  6
CONTINUOUS
 62
    4
 10
2024.208238953102
 20
743.99999999999989
 40
0.7
 50
198.92464441604994
 51
270
  0
LINE
  8
_0-5_
  6
CONTINUOUS
 62
    4
 10
2034.9796675245295
 20
743.29999999999984
 11
2024.208238953102
 21
743.29999999999984
  0
LINE
  8
_0-5_
  6
CONTINUOUS
 62
    4
 10
2023.5460767909387
 20
743.77297297297275
 11
2022.4172473768965
 21
747.06539209726418
  0
ARC
  8
_0-5_
  6
CONTINUOUS
 62
    4
 10
2022.6064365660852
 20
747.13025696212878
 40
0.2
 50
133.54896276822288
 51
198.92464441605296
  0
ARC
  8
_0-5_
  6
CONTINUOUS
 62
    4
 10
2021.7796675245302
 20
747.99999999999966
 40
0.9999999999999997
 50
313.54896276821995
 51
198.92464441604972
  0
LINE
  8
_0-5_
  6
CONTINUOUS
 62
    4
 10
2022.3163470612099
 20
743.35135135135135
 11
2020.8337215785843
 21
747.67567567567551
  0
LINE
  8
_0-5_
  6
CONTINUOUS
 62
    4
 10
2022.6796675245293
 20
772.29999999999995
 11
2022.6796675245293
 21
777.1999999999997
  0
ARC
  8
_0-5_
  6
CONTINUOUS
 62
    4
 10
2022.9796675245302
 20
772.29999999999995
 40
0.2999999999999999
 50
179.99999999999997
 51
270
  0
LINE
  8
_0-5_
  6
CONTINUOUS
 62
    4
 10
2035.3796675245303
 20
771.99999999999989
 11
2022.9796675245302
 21
771.99999999999989
  0
LINE
  8
_0-5_
  6
CONTINUOUS
 62
    4
 10
2021.0796675245301
 20
771.34961266177447
 11
2021.0796675245301
 21
777.1999999999997
  0
ARC
  8
_0-5_
  6
CONTINUOUS
 62
    4
 10
2022.0796675245299
 20
771.34961266177447
 40
0.9999999999999997
 50
180
 51
267.03906386583628
  0
LINE
  8
_0-5_
  6
CONTINUOUS
 62
    4
 10
2034.7313226099577
 20
769.5490523231673
 11
2022.0280124391013
 21
770.35094767683233
  0
LINE
  8
ADD_LINE
  6
DOT
 62
    9
 10
2022.8681356410361
 20
777.99999999999966
 11
2020.7624409987295
 21
777.99999999999966
  0
LINE
  8
ADD_LINE
  6
DOT
 62
    9
 10
2021.0796675245301
 20
771.34961266177447
 11
2021.0796675245301
 21
770.39999999999714
  0
LINE
  8
ADD_LINE
  6
DOT
 62
    9
 10
2022.0280124391013
 20
770.35094767683233
 11
2021.0796675245301
 21
770.39999999999714
  0
LINE
  8
ADD_LINE
  6
DOT
 62
    9
 10
2024.2289861028171
 20
748.99999999999989
 11
2019.1075790905359
 21
748.99999999999989
  0
LINE
  8
ADD_LINE
  6
DOT
 62
    7
 10
2035.058376107919
 20
777.0999999999998
 11
2035.9589907188324
 21
777.0999999999998
  0
LINE
  8
_0-4_
  6
CONTINUOUS
 62
    3
 10
705.50000000000011
 20
1252
 11
705.50000000000011
 21
742
  0
LINE
  8
_0-4_
  6
CONTINUOUS
 62
    3
 10
1049.5000000000002
 20
1252
 11
705.50000000000011
 21
1252
  0
LINE
  8
_0-4_
  6
CONTINUOUS
 62
    3
 10
1049.5000000000002
 20
742
 11
705.50000000000011
 21
742
  0
LINE
  8
_0-4_
  6
CONTINUOUS
 62
    3
 10
1049.5000000000002
 20
1252
 11
1049.5000000000002
 21
742
  0
LINE
  8
_0-4_
  6
CENTER2
 62
    4
 10
1049.5000000000002
 20
1252
 11
705.50000000000011
 21
1000.9999999999998
  0
LINE
  8
_0-4_
  6
CENTER2
 62
    4
 10
705.50000000000011
 20
1000.9999999999998
 11
1049.5000000000002
 21
742
  0
ARC
  8
_0-5_
  6
CONTINUOUS
 62
    4
 10
708.50000000000023
 20
746
 40
3.0000000000000004
 50
90
 51
180
  0
LINE
  8
_0-5_
  6
CONTINUOUS
 62
    4
 10
1049.5000000000002
 20
742
 11
705.50000000000011
 21
742
  0
LINE
  8
_0-5_
  6
CONTINUOUS
 62
    4
 10
1049.5000000000002
 20
777.99999999999955
 11
705.50000000000011
 21
777.99999999999955
  0
LINE
  8
_0-5_
  6
CONTINUOUS
 62
    4
 10
1049.5000000000002
 20
770.39999999999714
 11
705.50000000000011
 21
770.39999999999714
  0
ARC
  8
_0-5_
  6
CONTINUOUS
 62
    4
 10
1046.5000000000002
 20
746
 40
3.0000000000000004
 50
0
 51
90
  0
LINE
  8
_0-5_
  6
CONTINUOUS
 62
    4
 10
708.50000000000023
 20
748.99999999999989
 11
1046.5000000000002
 21
748.99999999999989
  0
LINE
  8
_0-4_
  6
CONTINUOUS
 62
    3
 10
2023.3796675245296
 20
1252
 11
2023.3796675245296
 21
771.99999999999989
  0
LINE
  8
_0-4_
  6
CONTINUOUS
 62
    3
 10
2035.3796675245301
 20
1252
 11
2035.3796675245301
 21
771.99999999999989
  0
LINE
  8
_0-3_
  6
CONTINUOUS
 62
    5
 10
2955
 20
1257
 11
2955
 21
756.99999999999989
  0
LINE
  8
_0-3_
  6
CONTINUOUS
 62
    5
 10
3655
 20
1257
 11
3655
 21
756.99999999999989
  0
LINE
  8
_0-3_
  6
CONTINUOUS
 62
    5
 10
2955
 20
1257
 11
3655
 21
1257
  0
LINE
  8
_0-3_
  6
CONTINUOUS
 62
    5
 10
2955
 20
756.99999999999989
 11
3655
 21
756.99999999999989
  0
POINT
  8
_0-9_
 62
    3
 10
2863
 20
1257
  0
POINT
  8
_0-9_
 62
    3
 10
2863
 20
1172
  0
LINE
  8
_0-9_
  6
CONTINUOUS
 62
    4
 10
2853
 20
1257
 11
2925
 21
1257
  0
LINE
  8
_0-9_
  6
CONTINUOUS
 62
    4
 10
2853
 20
1172
 11
2925
 21
1172
  0
LINE
  8
_0-9_
  6
CONTINUOUS
 62
    4
 10
2863
 20
1257
 11
2863
 21
1172
  0
TEXT
  8
_0-9_
 62
    7
 10
2858
 20
1192.45
 40
35
 41
0.6285714285714286
 50
90
  1
８５
  0
POINT
  8
_0-9_
 62
    3
 10
2863
 20
809
  0
POINT
  8
_0-9_
 62
    3
 10
2863
 20
763.99999999999977
  0
LINE
  8
_0-9_
  6
CONTINUOUS
 62
    4
 10
2853
 20
809
 11
2925
 21
809
  0
LINE
  8
_0-9_
  6
CONTINUOUS
 62
    4
 10
2853
 20
763.99999999999977
 11
2925
 21
763.99999999999977
  0
LINE
  8
_0-9_
  6
CONTINUOUS
 62
    4
 10
2863
 20
809
 11
2863
 21
763.99999999999977
  0
TEXT
  8
_0-9_
 62
    7
 10
2858
 20
708.02393984929176
 40
35
 41
0.6285714285714286
 50
90
  1
４５
  0
LINE
  8
_0-9_
  6
CONTINUOUS
 62
    4
 10
2863
 20
763.99999999999977
 11
2863
 21
710.45525120766388
  0
POINT
  8
_0-9_
 62
    3
 10
1049.5000000000002
 20
527
  0
POINT
  8
_0-9_
 62
    3
 10
705.50000000000011
 20
527
  0
LINE
  8
_0-9_
  6
CONTINUOUS
 62
    4
 10
1049.5000000000002
 20
517
 11
1049.5000000000002
 21
727
  0
LINE
  8
_0-9_
  6
CONTINUOUS
 62
    4
 10
705.50000000000011
 20
517
 11
705.50000000000011
 21
727
  0
LINE
  8
_0-9_
  6
CONTINUOUS
 62
    4
 10
1049.5000000000002
 20
527
 11
705.50000000000011
 21
527
  0
TEXT
  8
_0-9_
 62
    7
 10
844.40000000000009
 20
532
 40
35
 41
0.6285714285714286
 50
0
  1
３４４
  0
LINE
  8
_0-a_
  6
CONTINUOUS
 62
    4
 10
3533.9191898578633
 20
1172.000000000002
 11
3618.9191898578611
 21
1257
  0
LINE
  8
_0-a_
  6
CONTINUOUS
 62
    4
 10
3505.634918610413
 20
1172.0000000000007
 11
3590.6349186104162
 21
1257.0000000000036
  0
LINE
  8
_0-a_
  6
CONTINUOUS
 62
    4
 10
3477.350647362945
 20
1171.9999999999986
 11
3562.3506473629423
 21
1256.9999999999961
  0
LINE
  8
_0-a_
  6
CONTINUOUS
 62
    4
 10
3449.0663761154801
 20
1172.0000000000014
 11
3534.0663761154783
 21
1256.9999999999986
  0
LINE
  8
_0-a_
  6
CONTINUOUS
 62
    4
 10
3420.7821048680098
 20
1171.999999999997
 11
3505.782104868013
 21
1257.0000000000005
  0
LINE
  8
_0-a_
  6
CONTINUOUS
 62
    4
 10
3392.497833620565
 20
1172.0000000000007
 11
3477.4978336205631
 21
1256.9999999999986
  0
LINE
  8
_0-a_
  6
CONTINUOUS
 62
    4
 10
3364.2135623730974
 20
1172.0000000000002
 11
3449.2135623730951
 21
1256.9999999999975
  0
LINE
  8
_0-a_
  6
CONTINUOUS
 62
    4
 10
3335.9292911256312
 20
1172.0000000000005
 11
3420.9292911256289
 21
1256.9999999999984
  0
LINE
  8
_0-a_
  6
CONTINUOUS
 62
    4
 10
3307.6450198781617
 20
1171.9999999999975
 11
3392.6450198781649
 21
1257.0000000000009
  0
LINE
  8
_0-a_
  6
CONTINUOUS
 62
    4
 10
3279.3607486307146
 20
1171.9999999999989
 11
3364.3607486307119
 21
1256.9999999999961
  0
LINE
  8
_0-a_
  6
CONTINUOUS
 62
    4
 10
3251.0764773832507
 20
1172.0000000000014
 11
3336.0764773832479
 21
1256.9999999999986
  0
LINE
  8
_0-a_
  6
CONTINUOUS
 62
    4
 10
3222.7922061357831
 20
1172.0000000000009
 11
3307.7922061357813
 21
1256.9999999999986
  0
LINE
  8
_0-a_
  6
CONTINUOUS
 62
    4
 10
3194.5079348883132
 20
1171.999999999998
 11
3279.5079348883164
 21
1257.0000000000009
  0
LINE
  8
_0-a_
  6
CONTINUOUS
 62
    4
 10
3166.223663640867
 20
1172.0000000000002
 11
3251.2236636408647
 21
1256.9999999999977
  0
LINE
  8
_0-a_
  6
CONTINUOUS
 62
    4
 10
3137.9393923934031
 20
1172.0000000000027
 11
3222.9393923934003
 21
1257.0000000000002
  0
LINE
  8
_0-a_
  6
CONTINUOUS
 62
    4
 10
3109.6551211459346
 20
1172.0000000000014
 11
3194.6551211459328
 21
1256.9999999999991
  0
LINE
  8
_0-a_
  6
CONTINUOUS
 62
    4
 10
3081.3708498984652
 20
1171.9999999999984
 11
3166.3708498984688
 21
1257.0000000000016
  0
LINE
  8
_0-a_
  6
CONTINUOUS
 62
    4
 10
3053.0865786510194
 20
1172.0000000000014
 11
3138.0865786510176
 21
1256.9999999999989
  0
LINE
  8
_0-a_
  6
CONTINUOUS
 62
    4
 10
3024.8023074035559
 20
1172.0000000000041
 11
3109.8023074035527
 21
1257.0000000000014
  0
LINE
  8
_0-a_
  6
CONTINUOUS
 62
    4
 10
2996.518036156087
 20
1172.0000000000016
 11
3081.5180361560851
 21
1256.9999999999995
  0
LINE
  8
_0-a_
  6
CONTINUOUS
 62
    4
 10
3578.4675298172533
 20
763.99999999999807
 11
3623.4675298172515
 21
808.99999999999659
  0
LINE
  8
_0-a_
  6
CONTINUOUS
 62
    4
 10
3550.1832585697889
 20
764.00000000000034
 11
3595.1832585697875
 21
808.99999999999886
  0
LINE
  8
_0-a_
  6
CONTINUOUS
 62
    4
 10
3521.8989873223391
 20
763.99999999999886
 11
3566.8989873223427
 21
809.00000000000273
  0
LINE
  8
_0-a_
  6
CONTINUOUS
 62
    4
 10
3493.6147160748706
 20
763.99999999999727
 11
3538.6147160748687
 21
808.99999999999545
  0
LINE
  8
_0-a_
  6
CONTINUOUS
 62
    4
 10
3465.3304448274048
 20
763.99999999999841
 11
3510.3304448274039
 21
808.99999999999693
  0
LINE
  8
_0-a_
  6
CONTINUOUS
 62
    4
 10
3437.0461735799408
 20
764.00000000000091
 11
3482.046173579939
 21
808.99999999999955
  0
LINE
  8
_0-a_
  6
CONTINUOUS
 62
    4
 10
3408.7619023324874
 20
763.99999999999613
 11
3453.7619023324905
 21
808.99999999999932
  0
LINE
  8
_0-a_
  6
CONTINUOUS
 62
    4
 10
3380.4776310850229
 20
763.99999999999852
 11
3425.477631085022
 21
808.99999999999659
  0
LINE
  8
_0-a_
  6
CONTINUOUS
 62
    4
 10
3352.1933598375567
 20
763.99999999999886
 11
3397.1933598375558
 21
808.9999999999975
  0
LINE
  8
_0-a_
  6
CONTINUOUS
 62
    4
 10
3323.9090885900932
 20
764.00000000000136
 11
3368.9090885900914
 21
808.99999999999977
  0
LINE
  8
_0-a_
  6
CONTINUOUS
 62
    4
 10
3295.6248173426402
 20
763.99999999999727
 11
3340.6248173426434
 21
809.00000000000068
  0
LINE
  8
_0-a_
  6
CONTINUOUS
 62
    4
 10
3267.3405460951763
 20
763.99999999999977
 11
3312.3405460951744
 21
808.99999999999807
  0
LINE
  8
_0-a_
  6
CONTINUOUS
 62
    4
 10
3239.0562748477087
 20
763.99999999999932
 11
3284.0562748477078
 21
808.99999999999773
  0
LINE
  8
_0-a_
  6
CONTINUOUS
 62
    4
 10
3210.7720036002493
 20
763.99999999999727
 11
3255.7720036002529
 21
809.00000000000091
  0
LINE
  8
_0-a_
  6
CONTINUOUS
 62
    4
 10
3182.4877323527926
 20
763.99999999999852
 11
3227.4877323527917
 21
808.99999999999659
  0
LINE
  8
_0-a_
  6
CONTINUOUS
 62
    4
 10
3154.2034611053286
 20
764.00000000000114
 11
3199.2034611053268
 21
808.99999999999932
  0
LINE
  8
_0-a_
  6
CONTINUOUS
 62
    4
 10
3125.9191898578611
 20
763.99999999999977
 11
3170.9191898578592
 21
808.99999999999818
  0
LINE
  8
_0-a_
  6
CONTINUOUS
 62
    4
 10
3097.6349186104108
 20
763.99999999999841
 11
3142.6349186104148
 21
809.00000000000205
  0
LINE
  8
_0-a_
  6
CONTINUOUS
 62
    4
 10
3069.3506473629459
 20
763.99999999999989
 11
3114.3506473629441
 21
808.99999999999795
  0
LINE
  8
_0-a_
  6
CONTINUOUS
 62
    4
 10
3041.0663761154819
 20
764.0000000000025
 11
3086.0663761154797
 21
809.00000000000068
  0
LINE
  8
_0-a_
  6
CONTINUOUS
 62
    4
 10
3012.782104868013
 20
764.00000000000023
 11
3057.7821048680112
 21
808.99999999999864
  0
LINE
  8
_0-a_
  6
CONTINUOUS
 62
    4
 10
2984.4978336205627
 20
763.99999999999864
 11
3029.4978336205668
 21
809.0000000000025
  0
LINE
  8
_0-4_
  6
DASHED1
 62
    9
 10
2035.3796675245301
 20
866.50000659839532
 11
2035.3796675245301
 21
817.49999340160446
  0
LINE
  8
_0-4_
  6
DASHED1
 62
    9
 10
2035.3796675245301
 20
866.50000659839532
 11
2037.3799710507126
 21
866.50000659839532
  0
LINE
  8
_0-4_
  6
DASHED1
 62
    9
 10
2035.3796675245301
 20
817.49999340160446
 11
2037.3799710507126
 21
817.49999340160446
  0
LINE
  8
_0-4_
  6
DASHED1
 62
    9
 10
2038.3796279341584
 20
847.49959749788854
 11
2050.3799644523174
 21
847.49959749788854
  0
LINE
  8
_0-4_
  6
DASHED1
 62
    9
 10
2038.3796279341584
 20
836.49990762246614
 11
2050.3799644523174
 21
836.49990762246614
  0
LINE
  8
_0-4_
  6
DASHED1
 62
    9
 10
2038.3796279341584
 20
865.49985483530395
 11
2038.3796279341584
 21
818.49940284522791
  0
ARC
  8
_0-4_
  6
DASHED1
 62
    9
 10
2037.3799710507126
 20
865.49985483530395
 40
0.9999999524773778
 50
0
 51
90
  0
ARC
  8
_0-4_
  6
DASHED1
 62
    9
 10
2037.3799710507126
 20
818.49940284522791
 40
0.9999999524773778
 50
270
 51
0
  0
CIRCLE
  8
_0-4_
  6
DASHED1
 62
    9
 10
728.00000000000011
 20
1182
 40
17.5
  0
LINE
  8
_0-4_
  6
CENTER2
 62
    9
 10
728.00000000000011
 20
1209.9999999999998
 11
728.00000000000011
 21
1154.0000000000002
  0
LINE
  8
_0-4_
  6
CENTER2
 62
    9
 10
703.50000000000045
 20
1182
 11
756.00000000000023
 21
1182
  0
CIRCLE
  8
_0-4_
  6
DASHED1
 62
    9
 10
728.00000000000011
 20
842
 40
17.5
  0
LINE
  8
_0-4_
  6
CENTER2
 62
    9
 10
728.00000000000011
 20
813.99999999999989
 11
728.00000000000011
 21
869.99999999999989
  0
LINE
  8
_0-4_
  6
CENTER2
 62
    9
 10
703.50000000000045
 20
842
 11
756.00000000000023
 21
842
  0
LINE
  8
_0-4_
  6
DASHED1
 62
    9
 10
2070.1095292221662
 20
1176.9997360641896
 11
2070.1095292221662
 21
1157.0004123997044
  0
LINE
  8
_0-4_
  6
DASHED1
 62
    9
 10
2060.1090013505445
 20
1166.9997030722127
 11
2080.1095622141424
 21
1166.9997030722127
  0
LINE
  8
_0-4_
  6
DASHED1
 62
    9
 10
2070.1095292221662
 20
1206.9998350401188
 11
2070.1095292221662
 21
1187.0000164959881
  0
LINE
  8
_0-4_
  6
DASHED1
 62
    9
 10
2060.1090013505445
 20
1196.9995546083194
 11
2080.1095622141424
 21
1196.9995546083194
  0
LINE
  8
_0-4_
  6
DASHED1
 62
    9
 10
2090.1095952061182
 20
1188.9995777027027
 11
2090.1095952061182
 21
1174.9996799778294
  0
LINE
  8
_0-4_
  6
DASHED1
 62
    9
 10
2049.109311475122
 20
1188.9995777027027
 11
2049.109311475122
 21
1187.4995974978885
  0
LINE
  8
_0-4_
  6
DASHED1
 62
    9
 10
2080.1095622141424
 20
1204.9995315139361
 11
2060.1090013505445
 21
1204.9995315139361
  0
LINE
  8
_0-4_
  6
DASHED1
 62
    9
 10
2080.1095622141424
 20
1158.999726166596
 11
2060.1090013505445
 21
1158.999726166596
  0
LINE
  8
_0-4_
  6
DASHED1
 62
    9
 10
2082.6101890616933
 20
1161.4998581345021
 11
2082.6101890616933
 21
1168.6147427945523
  0
LINE
  8
_0-4_
  6
DASHED1
 62
    9
 10
2057.6093642622845
 20
1161.4998581345021
 11
2057.6093642622845
 21
1171.999719568201
  0
LINE
  8
_0-4_
  6
DASHED1
 62
    9
 10
2082.6101890616933
 20
1195.3850097656252
 11
2082.6101890616933
 21
1202.4991521062084
  0
LINE
  8
_0-4_
  6
DASHED1
 62
    9
 10
2057.6093642622845
 20
1191.9995381123313
 11
2057.6093642622845
 21
1202.4991521062084
  0
LINE
  8
_0-4_
  6
DASHED1
 62
    9
 10
2049.109311475122
 20
1176.4999076224665
 11
2049.109311475122
 21
1174.9996799778294
  0
LINE
  8
_0-4_
  6
DASHED1
 62
    9
 10
2090.1095952061182
 20
1174.9996799778294
 11
2085.7526748091595
 21
1173.2567138671875
  0
LINE
  8
_0-4_
  6
DASHED1
 62
    9
 10
2090.1095952061182
 20
1188.9995777027027
 11
2085.7526748091595
 21
1190.7425438133448
  0
LINE
  8
_0-4_
  6
DASHED1
 62
    9
 10
2054.6094038526558
 20
1174.9996799778294
 11
2049.109311475122
 21
1174.9996799778294
  0
LINE
  8
_0-4_
  6
DASHED1
 62
    9
 10
2054.6094038526558
 20
1188.9995777027027
 11
2049.109311475122
 21
1188.9995777027027
  0
ARC
  8
_0-4_
  6
DASHED1
 62
    9
 10
2060.1090013505445
 20
1202.4991521062084
 40
2.4999997905782751
 50
90
 51
180
  0
ARC
  8
_0-4_
  6
DASHED1
 62
    9
 10
2080.1095622141424
 20
1202.4991521062084
 40
2.4999997905782751
 50
0
 51
90
  0
ARC
  8
_0-4_
  6
DASHED1
 62
    9
 10
2080.1095622141424
 20
1161.4998581345021
 40
2.4999997905782751
 50
270
 51
0
  0
ARC
  8
_0-4_
  6
DASHED1
 62
    9
 10
2060.1090013505445
 20
1161.4998581345021
 40
2.4999997905782751
 50
180
 51
270
  0
CIRCLE
  8
_0-4_
  6
DASHED1
 62
    9
 10
2070.1095292221662
 20
1166.9994556323902
 40
4.4999995747128052
  0
CIRCLE
  8
_0-4_
  6
DASHED1
 62
    9
 10
2070.1095292221662
 20
1196.9998020481419
 40
4.4999995747128052
  0
CIRCLE
  8
_0-4_
  6
DASHED1
 62
    9
 10
2070.1095292221662
 20
1182
 40
4.4999995747128052
  0
CIRCLE
  8
_0-4_
  6
DASHED1
 62
    9
 10
2050.3796675245308
 20
1182
 40
2.4999997905782751
  0
ARC
  8
_0-4_
  6
DASHED1
 62
    9
 10
2054.6094038526558
 20
1171.999719568201
 40
2.9999997970220216
 50
0
 51
90
  0
ARC
  8
_0-4_
  6
DASHED1
 62
    9
 10
2054.6094038526558
 20
1191.9995381123313
 40
2.9999997970220216
 50
270
 51
0
  0
ARC
  8
_0-4_
  6
DASHED1
 62
    9
 10
2087.6094632382133
 20
1168.6147427945523
 40
4.9999995811565503
 50
111.80140686035158
 51
180
  0
ARC
  8
_0-4_
  6
DASHED1
 62
    9
 10
2087.6094632382133
 20
1195.3850097656252
 40
4.9999995811565503
 50
180
 51
248.19857788085937
  0
LINE
  8
_0-4_
  6
DASHED1
 62
    9
 10
2070.1095292221662
 20
836.99973606418939
 11
2070.1095292221662
 21
817.00041239970415
  0
LINE
  8
_0-4_
  6
DASHED1
 62
    9
 10
2060.1090013505445
 20
826.99970307221247
 11
2080.1095622141424
 21
826.99970307221247
  0
LINE
  8
_0-4_
  6
DASHED1
 62
    9
 10
2070.1095292221662
 20
866.99983504011823
 11
2070.1095292221662
 21
847.00001649598835
  0
LINE
  8
_0-4_
  6
DASHED1
 62
    9
 10
2060.1090013505445
 20
856.99955460831904
 11
2080.1095622141424
 21
856.99955460831904
  0
LINE
  8
_0-4_
  6
DASHED1
 62
    9
 10
2090.1095952061182
 20
848.99957770270294
 11
2090.1095952061182
 21
834.99967997782915
  0
LINE
  8
_0-4_
  6
DASHED1
 62
    9
 10
2049.109311475122
 20
848.99957770270294
 11
2049.109311475122
 21
847.49959749788854
  0
LINE
  8
_0-4_
  6
DASHED1
 62
    9
 10
2080.1095622141424
 20
864.99953151393538
 11
2060.1090013505445
 21
864.99953151393538
  0
LINE
  8
_0-4_
  6
DASHED1
 62
    9
 10
2080.1095622141424
 20
818.99972616659579
 11
2060.1090013505445
 21
818.99972616659579
  0
LINE
  8
_0-4_
  6
DASHED1
 62
    9
 10
2082.6101890616933
 20
821.49985813450189
 11
2082.6101890616933
 21
828.61474279455206
  0
LINE
  8
_0-4_
  6
DASHED1
 62
    9
 10
2057.6093642622845
 20
821.49985813450189
 11
2057.6093642622845
 21
831.99971956820104
  0
LINE
  8
_0-4_
  6
DASHED1
 62
    9
 10
2082.6101890616933
 20
855.385009765625
 11
2082.6101890616933
 21
862.49915210620782
  0
LINE
  8
_0-4_
  6
DASHED1
 62
    9
 10
2057.6093642622845
 20
851.99953811233104
 11
2057.6093642622845
 21
862.49915210620782
  0
LINE
  8
_0-4_
  6
DASHED1
 62
    9
 10
2049.109311475122
 20
836.49990762246614
 11
2049.109311475122
 21
834.99967997782915
  0
LINE
  8
_0-4_
  6
DASHED1
 62
    9
 10
2090.1095952061182
 20
834.99967997782915
 11
2085.7526748091595
 21
833.2567138671875
  0
LINE
  8
_0-4_
  6
DASHED1
 62
    9
 10
2090.1095952061182
 20
848.99957770270294
 11
2085.7526748091595
 21
850.74254381334458
  0
LINE
  8
_0-4_
  6
DASHED1
 62
    9
 10
2054.6094038526558
 20
834.99967997782915
 11
2049.109311475122
 21
834.99967997782915
  0
LINE
  8
_0-4_
  6
DASHED1
 62
    9
 10
2054.6094038526558
 20
848.99957770270294
 11
2049.109311475122
 21
848.99957770270294
  0
ARC
  8
_0-4_
  6
DASHED1
 62
    9
 10
2060.1090013505445
 20
862.49915210620782
 40
2.4999997905782751
 50
90
 51
180
  0
ARC
  8
_0-4_
  6
DASHED1
 62
    9
 10
2080.1095622141424
 20
862.49915210620782
 40
2.4999997905782751
 50
0
 51
90
  0
ARC
  8
_0-4_
  6
DASHED1
 62
    9
 10
2080.1095622141424
 20
821.49985813450189
 40
2.4999997905782751
 50
270
 51
0
  0
ARC
  8
_0-4_
  6
DASHED1
 62
    9
 10
2060.1090013505445
 20
821.49985813450189
 40
2.4999997905782751
 50
180
 51
270
  0
CIRCLE
  8
_0-4_
  6
DASHED1
 62
    9
 10
2070.1095292221662
 20
826.99945563239044
 40
4.4999995747128052
  0
CIRCLE
  8
_0-4_
  6
DASHED1
 62
    9
 10
2070.1095292221662
 20
856.99980204814165
 40
4.4999995747128052
  0
CIRCLE
  8
_0-4_
  6
DASHED1
 62
    9
 10
2070.1095292221662
 20
842
 40
4.4999995747128052
  0
CIRCLE
  8
_0-4_
  6
DASHED1
 62
    9
 10
2050.3796675245308
 20
842
 40
2.4999997905782751
  0
ARC
  8
_0-4_
  6
DASHED1
 62
    9
 10
2054.6094038526558
 20
831.99971956820104
 40
2.9999997970220216
 50
0
 51
90
  0
ARC
  8
_0-4_
  6
DASHED1
 62
    9
 10
2054.6094038526558
 20
851.99953811233104
 40
2.9999997970220216
 50
270
 51
0
  0
ARC
  8
_0-4_
  6
DASHED1
 62
    9
 10
2087.6094632382133
 20
828.61474279455206
 40
4.9999995811565503
 50
111.80140686035158
 51
180
  0
ARC
  8
_0-4_
  6
DASHED1
 62
    9
 10
2087.6094632382133
 20
855.385009765625
 40
4.9999995811565503
 50
180
 51
248.19857788085937
  0
LINE
  8
_0-4_
  6
CENTER2
 62
    9
 10
2097.6497404670476
 20
842
 11
2031.2476762048348
 21
842
  0
LINE
  8
_0-4_
  6
CENTER2
 62
    9
 10
2097.6497404670476
 20
1182
 11
2031.2476762048348
 21
1182
  0
LINE
  8
_0-4_
  6
CONTINUOUS
 62
    3
 10
1394.5
 20
1252
 11
1394.5
 21
741.99999999999989
  0
LINE
  8
_0-4_
  6
CONTINUOUS
 62
    3
 10
1050.5
 20
1252
 11
1394.5
 21
1252
  0
LINE
  8
_0-4_
  6
CONTINUOUS
 62
    3
 10
1050.5
 20
741.99999999999989
 11
1394.5
 21
741.99999999999989
  0
LINE
  8
_0-4_
  6
CONTINUOUS
 62
    3
 10
1050.5
 20
1252
 11
1050.5
 21
741.99999999999989
  0
LINE
  8
_0-4_
  6
CENTER2
 62
    4
 10
1050.5
 20
741.99999999999989
 11
1394.5
 21
1000.9999999999998
  0
LINE
  8
_0-4_
  6
CENTER2
 62
    4
 10
1394.5
 20
1000.9999999999998
 11
1050.5
 21
1252
  0
ARC
  8
_0-5_
  6
CONTINUOUS
 62
    4
 10
1391.4999999999998
 20
746
 40
3.0000000000000004
 50
0
 51
90
  0
LINE
  8
_0-5_
  6
CONTINUOUS
 62
    4
 10
1394.5
 20
741.99999999999989
 11
1050.5
 21
741.99999999999989
  0
LINE
  8
_0-5_
  6
CONTINUOUS
 62
    4
 10
1394.5
 20
770.39999999999714
 11
1050.5
 21
770.39999999999714
  0
LINE
  8
_0-5_
  6
CONTINUOUS
 62
    4
 10
1394.5
 20
777.99999999999955
 11
1050.5
 21
777.99999999999955
  0
ARC
  8
_0-5_
  6
CONTINUOUS
 62
    4
 10
1053.5
 20
746
 40
3.0000000000000004
 50
90
 51
180
  0
LINE
  8
_0-5_
  6
CONTINUOUS
 62
    4
 10
1053.5
 20
748.99999999999989
 11
1391.4999999999998
 21
748.99999999999989
  0
CIRCLE
  8
_0-4_
  6
DASHED1
 62
    9
 10
1372
 20
1182
 40
17.499999999999996
  0
LINE
  8
_0-4_
  6
CENTER2
 62
    9
 10
1372
 20
1209.9999999999998
 11
1372
 21
1154
  0
LINE
  8
_0-4_
  6
CENTER2
 62
    9
 10
1396.4999999999998
 20
1182
 11
1343.9999999999998
 21
1182
  0
CIRCLE
  8
_0-4_
  6
DASHED1
 62
    9
 10
1372
 20
841.99999999999989
 40
17.5
  0
LINE
  8
_0-4_
  6
CENTER2
 62
    9
 10
1372
 20
813.99999999999977
 11
1372
 21
869.99999999999977
  0
LINE
  8
_0-4_
  6
CENTER2
 62
    9
 10
1396.4999999999998
 20
841.99999999999989
 11
1343.9999999999998
 21
841.99999999999989
  0
POINT
  8
_0-9_
 62
    3
 10
1394.5
 20
527
  0
POINT
  8
_0-9_
 62
    3
 10
1050.5
 20
527
  0
LINE
  8
_0-9_
  6
CONTINUOUS
 62
    4
 10
1394.5
 20
517
 11
1394.5
 21
727
  0
LINE
  8
_0-9_
  6
CONTINUOUS
 62
    4
 10
1050.5
 20
517
 11
1050.5
 21
727
  0
LINE
  8
_0-9_
  6
CONTINUOUS
 62
    4
 10
1394.5
 20
527
 11
1050.5
 21
527
  0
TEXT
  8
_0-9_
 62
    7
 10
1189.4000000000001
 20
532
 40
35
 41
0.6285714285714286
 50
0
  1
３４４
  0
LINE
  8
_0-3_
  6
CONTINUOUS
 62
    5
 10
1394.5
 20
757
 11
1400
 21
757
  0
LINE
  8
_0-3_
  6
CONTINUOUS
 62
    5
 10
700
 20
757
 11
705.50000000000011
 21
757
  0
LINE
  8
_0-3_
  6
CONTINUOUS
 62
    5
 10
2969.5
 20
1257
 11
2969.5
 21
756.99999999999989
  0
LINE
  8
_0-3_
  6
CONTINUOUS
 62
    5
 10
3640.5
 20
1257
 11
3640.5
 21
756.99999999999989
  0
LINE
  8
_0-3_
  6
CONTINUOUS
 62
    2
 10
2969.5
 20
1172
 11
3640.5
 21
1172
  0
LINE
  8
_0-3_
  6
CONTINUOUS
 62
    4
 10
2969.5
 20
763.99999999999977
 11
3640.5
 21
763.99999999999977
  0
LINE
  8
_0-3_
  6
CONTINUOUS
 62
    2
 10
2969.5
 20
809
 11
3640.5
 21
809
  0
LINE
  8
_0-a_
  6
CONTINUOUS
 62
    4
 10
2969.5
 20
1229.8347775862967
 11
2996.665222413706
 21
1257.0000000000027
  0
LINE
  8
_0-a_
  6
CONTINUOUS
 62
    4
 10
2969.5
 20
1201.55050633883
 11
3024.94949366117
 21
1257.0000000000002
  0
LINE
  8
_0-a_
  6
CONTINUOUS
 62
    4
 10
2969.5
 20
1173.2662350913633
 11
3053.2337649086403
 21
1257.0000000000034
  0
LINE
  8
_0-a_
  6
CONTINUOUS
 62
    4
 10
2969.5
 20
805.5707088743693
 11
2972.929291125628
 21
808.99999999999659
  0
LINE
  8
_0-a_
  6
CONTINUOUS
 62
    4
 10
2969.5
 20
777.28643762690263
 11
3001.2135623730965
 21
808.99999999999932
  0
LINE
  8
_0-a_
  6
CONTINUOUS
 62
    4
 10
3606.7518010647177
 20
763.99999999999591
 11
3640.5
 21
797.74819893527831
  0
LINE
  8
_0-a_
  6
CONTINUOUS
 62
    4
 10
3635.0360723121871
 20
763.99999999999864
 11
3640.5
 21
769.46392768781163
  0
LINE
  8
_0-a_
  6
CONTINUOUS
 62
    4
 10
3562.2034611053277
 20
1172.0000000000002
 11
3640.5
 21
1250.296538894672
  0
LINE
  8
_0-a_
  6
CONTINUOUS
 62
    4
 10
3590.4877323527921
 20
1171.9999999999975
 11
3640.5
 21
1222.0122676472058
  0
LINE
  8
_0-a_
  6
CONTINUOUS
 62
    4
 10
3618.7720036002515
 20
1171.9999999999995
 11
3640.5
 21
1193.727996399748
  0
TEXT
  8
_0-8_
 62
    7
 10
1004.3999999999983
 20
374.5
 40
35
 41
0.8571428571428571
 50
0
  1
立面図
  0
LINE
  8
ADD_LINE
  6
DOT
 62
    9
 10
1049.5000000000005
 20
357
 11
1049.5000000000005
 21
427
  0
LINE
  8
ADD_LINE
  6
DOT
 62
    9
 10
924.50000000000045
 20
392
 11
1174.5000000000005
 21
392
  0
LINE
  8
_0-8_
  6
CONTINUOUS
 62
    4
 10
924.50000000000045
 20
427
 11
924.50000000000045
 21
357
  0
LINE
  8
_0-8_
  6
CONTINUOUS
 62
    4
 10
924.50000000000045
 20
357
 11
1174.5000000000005
 21
357
  0
LINE
  8
_0-8_
  6
CONTINUOUS
 62
    4
 10
1174.5000000000005
 20
427
 11
1174.5000000000005
 21
357
  0
LINE
  8
_0-8_
  6
CONTINUOUS
 62
    4
 10
924.50000000000045
 20
427
 11
1174.5000000000005
 21
427
  0
LINE
  8
_0-8_
  6
CONTINUOUS
 62
    4
 10
2078.0966134232817
 20
427
 11
2328.0966134232817
 21
427
  0
LINE
  8
_0-8_
  6
CONTINUOUS
 62
    4
 10
2328.0966134232817
 20
427
 11
2328.0966134232817
 21
357
  0
LINE
  8
_0-8_
  6
CONTINUOUS
 62
    4
 10
2078.0966134232817
 20
357
 11
2328.0966134232817
 21
357
  0
LINE
  8
_0-8_
  6
CONTINUOUS
 62
    4
 10
2078.0966134232817
 20
427
 11
2078.0966134232817
 21
357
  0
LINE
  8
ADD_LINE
  6
DOT
 62
    9
 10
2078.0966134232817
 20
392
 11
2328.0966134232817
 21
392
  0
LINE
  8
ADD_LINE
  6
DOT
 62
    9
 10
2203.0966134232817
 20
357
 11
2203.0966134232817
 21
427
  0
TEXT
  8
_0-8_
 62
    7
 10
2157.9966134232818
 20
374.5
 40
35
 41
0.8571428571428571
 50
0
  1
断面図
  0
LINE
  8
_0-8_
  6
CONTINUOUS
 62
    4
 10
3180.7169458987523
 20
427
 11
3430.7169458987523
 21
427
  0
LINE
  8
_0-8_
  6
CONTINUOUS
 62
    4
 10
3430.7169458987523
 20
427
 11
3430.7169458987523
 21
357
  0
LINE
  8
_0-8_
  6
CONTINUOUS
 62
    4
 10
3180.7169458987523
 20
357
 11
3430.7169458987523
 21
357
  0
LINE
  8
_0-8_
  6
CONTINUOUS
 62
    4
 10
3180.7169458987523
 20
427
 11
3180.7169458987523
 21
357
  0
LINE
  8
ADD_LINE
  6
DOT
 62
    9
 10
3180.7169458987523
 20
392
 11
3430.7169458987523
 21
392
  0
LINE
  8
ADD_LINE
  6
DOT
 62
    9
 10
3305.7169458987523
 20
357
 11
3305.7169458987523
 21
427
  0
TEXT
  8
_0-8_
 62
    7
 10
3260.6169458987515
 20
374.5
 40
35
 41
0.8571428571428571
 50
0
  1
背面図
  0
LINE
  8
_0-9_
  6
CONTINUOUS
 62
    4
 10
2039.3796675245308
 20
1407
 11
2039.3796675245308
 21
1287
  0
POINT
  8
_0-9_
 62
    3
 10
2039.3796675245308
 20
1407
  0
POINT
  8
_0-9_
 62
    3
 10
2381.3796675245299
 20
1407
  0
LINE
  8
_0-9_
  6
CONTINUOUS
 62
    4
 10
2039.3796675245308
 20
1407
 11
2381.3796675245299
 21
1407
  0
TEXT
  8
_0-9_
 62
    7
 10
2177.2796675245304
 20
1412
 40
35
 41
0.6285714285714286
 50
0
  1
３４２
  0
CIRCLE
  8
_0-0_
  6
CONTINUOUS
 62
    7
 10
2088.3796675245308
 20
1007
 40
1.5000000000000002
  0
LINE
  8
_0-0_
  6
CONTINUOUS
 62
    7
 10
2093.3796675245308
 20
1008.068875
 11
2093.3796675245308
 21
1009
  0
LINE
  8
_0-0_
  6
CONTINUOUS
 62
    7
 10
2093.3796675245308
 20
1009
 11
2094.3084425245306
 21
1009.066325
  0
LINE
  8
_0-0_
  6
CONTINUOUS
 62
    7
 10
2083.3796675245308
 20
1007
 11
2083.3796675245308
 21
1008
  0
LINE
  8
_0-0_
  6
CONTINUOUS
 62
    7
 10
2082.3796675245303
 20
1009
 11
2069.8796675245303
 21
1009
  0
LINE
  8
_0-0_
  6
CONTINUOUS
 62
    7
 10
2093.3796675245308
 20
1007
 11
2093.3796675245308
 21
1008.068875
  0
LINE
  8
_0-0_
  6
CONTINUOUS
 62
    7
 10
2094.3084425245306
 20
1009.066325
 11
2106.4509175245307
 21
1009.9336499999999
  0
LINE
  8
_0-0_
  6
CONTINUOUS
 62
    7
 10
2107.3796675245303
 20
1010.9311
 11
2107.3796675245303
 21
1011
  0
LINE
  8
_0-0_
  6
CONTINUOUS
 62
    7
 10
2075.0136425245305
 20
1029
 11
2073.1372675245307
 21
1032.25
  0
LINE
  8
_0-0_
  6
CONTINUOUS
 62
    7
 10
2106.3796675245303
 20
1012
 11
2070.8796675245308
 21
1012
  0
LINE
  8
_0-0_
  6
CONTINUOUS
 62
    7
 10
2074.1476175245307
 20
1027.5
 11
2070.8796675245308
 21
1027.5
  0
LINE
  8
_0-0_
  6
CONTINUOUS
 62
    7
 10
2069.8796675245303
 20
1026.5
 11
2069.8796675245303
 21
1013
  0
ARC
  8
_0-0_
  6
CONTINUOUS
 62
    7
 10
2069.8796675245303
 20
1012.8
 40
3.7999999999999998
 50
177.46800000000005
 51
270.00000000000006
  0
ARC
  8
_0-0_
  6
CONTINUOUS
 62
    7
 10
2088.3796675245308
 20
1007
 40
5
 50
180.00000000000006
 51
0.0000000000001017
  0
CIRCLE
  8
_0-0_
  6
PHANTOM2
 62
    7
 10
2088.3796675245308
 20
1007
 40
4.0999999999999996
  0
CIRCLE
  8
_0-0_
  6
PHANTOM2
 62
    7
 10
2088.3796675245308
 20
1007
 40
1.925
  0
ARC
  8
_0-0_
  6
CONTINUOUS
 62
    7
 10
2068.0364425245302
 20
1031.5
 40
1
 50
90.000000000000028
 51
177.46800000000005
  0
ARC
  8
_0-0_
  6
CONTINUOUS
 62
    7
 10
2072.7042425245309
 20
1032
 40
0.5
 50
30.000000000000004
 51
90.000000000000014
  0
ARC
  8
_0-0_
  6
CONTINUOUS
 62
    7
 10
2082.3796675245303
 20
1008
 40
1
 50
0
 51
90.000000000000028
  0
ARC
  8
_0-0_
  6
CONTINUOUS
 62
    7
 10
2094.3796675245308
 20
1008.068875
 40
1
 50
94.086000000000027
 51
180.00000000000006
  0
ARC
  8
_0-0_
  6
CONTINUOUS
 62
    7
 10
2106.3796675245303
 20
1010.9311
 40
1
 50
274.08600000000007
 51
0.0000000000000636
  0
ARC
  8
_0-0_
  6
CONTINUOUS
 62
    7
 10
2106.3796675245303
 20
1011
 40
1
 50
0
 51
90.000000000000028
  0
ARC
  8
_0-0_
  6
CONTINUOUS
 62
    7
 10
2074.1476175245307
 20
1028.5
 40
1
 50
270.00000000000006
 51
30.000000000000068
  0
ARC
  8
_0-0_
  6
CONTINUOUS
 62
    7
 10
2070.8796675245308
 20
1026.5
 40
1
 50
90.000000000000028
 51
180.00000000000006
  0
ARC
  8
_0-0_
  6
CONTINUOUS
 62
    7
 10
2070.8796675245308
 20
1013
 40
1
 50
180.00000000000006
 51
270.00000000000006
  0
LINE
  8
_0-0_
  6
CONTINUOUS
 62
    7
 10
2068.0364425245302
 20
1032.5
 11
2072.7042425245309
 21
1032.5
  0
LINE
  8
_0-0_
  6
CONTINUOUS
 62
    7
 10
2066.0833925245306
 20
1012.96785
 11
2067.0381394737792
 21
1031.5582324553936
  0
LINE
  8
_0-0_
  6
CENTER1
 62
    7
 10
2088.3796675245308
 20
1007
 11
2088.3796675245308
 21
1000.8852721223418
  0
LINE
  8
_0-0_
  6
CENTER1
 62
    7
 10
2088.3796675245308
 20
1007
 11
2088.3796675245308
 21
1013.0974029520528
  0
LINE
  8
_0-0_
  6
CENTER1
 62
    7
 10
2088.49252959565
 20
1007
 11
2085.8128911737185
 21
1007
  0
LINE
  8
_0-0_
  6
CENTER1
 62
    7
 10
2088.49252959565
 20
1007
 11
2091.1578127002954
 21
1007
  0
ARC
  8
_0-0_
  6
CONTINUOUS
 62
    7
 10
2354.6117175245308
 20
1028.5
 40
1
 50
149.99999999999994
 51
269.99999999999994
  0
CIRCLE
  8
_0-0_
  6
CONTINUOUS
 62
    7
 10
2340.3796675245308
 20
1007
 40
1.5000000000000002
  0
LINE
  8
_0-0_
  6
CONTINUOUS
 62
    7
 10
2335.3796675245308
 20
1008.068875
 11
2335.3796675245308
 21
1009
  0
LINE
  8
_0-0_
  6
CONTINUOUS
 62
    7
 10
2335.3796675245308
 20
1009
 11
2334.4508925245309
 21
1009.066325
  0
LINE
  8
_0-0_
  6
CONTINUOUS
 62
    7
 10
2345.3796675245308
 20
1007
 11
2345.3796675245308
 21
1008
  0
LINE
  8
_0-0_
  6
CONTINUOUS
 62
    7
 10
2346.3796675245308
 20
1009
 11
2358.8796675245308
 21
1009
  0
LINE
  8
_0-0_
  6
CONTINUOUS
 62
    7
 10
2335.3796675245308
 20
1007
 11
2335.3796675245308
 21
1008.068875
  0
LINE
  8
_0-0_
  6
CONTINUOUS
 62
    7
 10
2334.4508925245309
 20
1009.066325
 11
2322.3084175245308
 21
1009.9336499999999
  0
LINE
  8
_0-0_
  6
CONTINUOUS
 62
    7
 10
2321.3796675245308
 20
1010.9311
 11
2321.3796675245308
 21
1011
  0
LINE
  8
_0-0_
  6
CONTINUOUS
 62
    7
 10
2353.745692524531
 20
1029
 11
2355.6220675245308
 21
1032.25
  0
LINE
  8
_0-0_
  6
CONTINUOUS
 62
    7
 10
2322.3796675245308
 20
1012
 11
2357.8796675245308
 21
1012
  0
LINE
  8
_0-0_
  6
CONTINUOUS
 62
    7
 10
2354.6117175245308
 20
1027.5
 11
2357.8796675245308
 21
1027.5
  0
LINE
  8
_0-0_
  6
CONTINUOUS
 62
    7
 10
2358.8796675245308
 20
1026.5
 11
2358.8796675245308
 21
1013
  0
ARC
  8
_0-0_
  6
CONTINUOUS
 62
    7
 10
2358.8796675245308
 20
1012.8
 40
3.7999999999999998
 50
269.99999999999994
 51
2.5319999999999823
  0
ARC
  8
_0-0_
  6
CONTINUOUS
 62
    7
 10
2340.3796675245308
 20
1007
 40
5
 50
179.99999999999989
 51
359.99999999999994
  0
CIRCLE
  8
_0-0_
  6
PHANTOM2
 62
    7
 10
2340.3796675245308
 20
1007
 40
4.0999999999999996
  0
CIRCLE
  8
_0-0_
  6
PHANTOM2
 62
    7
 10
2340.3796675245308
 20
1007
 40
1.925
  0
ARC
  8
_0-0_
  6
CONTINUOUS
 62
    7
 10
2360.7228925245308
 20
1031.5
 40
1
 50
2.5319999999999645
 51
89.999999999999972
  0
ARC
  8
_0-0_
  6
CONTINUOUS
 62
    7
 10
2356.0550925245307
 20
1032
 40
0.5
 50
89.999999999999986
 51
149.99999999999997
  0
ARC
  8
_0-0_
  6
CONTINUOUS
 62
    7
 10
2346.3796675245308
 20
1008
 40
1
 50
89.999999999999972
 51
180
  0
ARC
  8
_0-0_
  6
CONTINUOUS
 62
    7
 10
2334.3796675245308
 20
1008.068875
 40
1
 50
359.99999999999994
 51
85.913999999999973
  0
ARC
  8
_0-0_
  6
CONTINUOUS
 62
    7
 10
2322.3796675245308
 20
1010.9311
 40
1
 50
179.99999999999994
 51
265.91399999999993
  0
ARC
  8
_0-0_
  6
CONTINUOUS
 62
    7
 10
2322.3796675245308
 20
1011
 40
1
 50
89.999999999999972
 51
180
  0
ARC
  8
_0-0_
  6
CONTINUOUS
 62
    7
 10
2357.8796675245308
 20
1026.5
 40
1
 50
359.99999999999994
 51
89.999999999999972
  0
ARC
  8
_0-0_
  6
CONTINUOUS
 62
    7
 10
2357.8796675245308
 20
1013
 40
1
 50
269.99999999999989
 51
359.99999999999989
  0
LINE
  8
_0-0_
  6
CONTINUOUS
 62
    7
 10
2360.7228925245308
 20
1032.5
 11
2356.0550925245307
 21
1032.5
  0
LINE
  8
_0-0_
  6
CONTINUOUS
 62
    7
 10
2362.6759425245309
 20
1012.96785
 11
2361.7211955752819
 21
1031.5582324553936
  0
LINE
  8
_0-0_
  6
CENTER1
 62
    7
 10
2340.3796675245308
 20
1007
 11
2340.3796675245308
 21
1000.8852721223418
  0
LINE
  8
_0-0_
  6
CENTER1
 62
    7
 10
2340.3796675245308
 20
1007
 11
2340.3796675245308
 21
1013.0974029520528
  0
LINE
  8
_0-0_
  6
CENTER1
 62
    7
 10
2340.2668054534111
 20
1007
 11
2342.946443875343
 21
1007
  0
LINE
  8
_0-0_
  6
CENTER1
 62
    7
 10
2340.2668054534111
 20
1007
 11
2337.6015223487657
 21
1007
  0
ARC
  8
_0-0_
  6
CONTINUOUS
 62
    7
 10
2088.3796675245308
 20
1007
 40
7.0000000000000018
 50
45.585000000000008
 51
134.41500000000002
  0
ARC
  8
_0-0_
  6
CONTINUOUS
 62
    7
 10
2088.3796675245308
 20
1007
 40
11
 50
27.036000000000008
 51
152.96400000000006
  0
ARC
  8
_0-0_
  6
CONTINUOUS
 62
    7
 10
2340.3796675245308
 20
1007
 40
7.0000000000000018
 50
45.585000000000008
 51
134.41500000000002
  0
ARC
  8
_0-0_
  6
CONTINUOUS
 62
    7
 10
2340.3796675245308
 20
1007
 40
11
 50
27.036000000000008
 51
152.96400000000006
  0
LINE
  8
_0-0_
  6
DASHED1
 62
    7
 10
1384.5000000000002
 20
1012
 11
1375.5
 21
1012
  0
LINE
  8
_0-0_
  6
DASHED1
 62
    7
 10
1385.5
 20
1012
 11
1375.5
 21
1012
  0
LINE
  8
_0-0_
  6
DASHED1
 62
    7
 10
1395.4946999999997
 20
1007
 11
1373.2137749999997
 21
1007
  0
LINE
  8
_0-0_
  6
DASHED1
 62
    7
 10
1385.5
 20
1003.4000000000001
 11
1385.5
 21
1010.6
  0
LINE
  8
_0-0_
  6
DASHED1
 62
    7
 10
1384.7
 20
1009.5
 11
1384.7
 21
1004.5
  0
LINE
  8
_0-0_
  6
DASHED1
 62
    7
 10
1376.7000000000003
 20
1005
 11
1384.2000000000003
 21
1005
  0
LINE
  8
_0-0_
  6
DASHED1
 62
    7
 10
1384.7
 20
1004.5
 11
1384.7
 21
1003.4000000000001
  0
LINE
  8
_0-0_
  6
DASHED1
 62
    7
 10
1385.9999999999995
 20
1004.5999999999999
 11
1394
 21
1004.5999999999999
  0
LINE
  8
_0-0_
  6
DASHED1
 62
    7
 10
1394.5000000000002
 20
1005.1
 11
1394.5000000000002
 21
1008.9
  0
LINE
  8
_0-0_
  6
DASHED1
 62
    7
 10
1394
 20
1009.4
 11
1385.9999999999995
 21
1009.4
  0
LINE
  8
_0-0_
  6
DASHED1
 62
    7
 10
1384.7
 20
1010.6
 11
1384.7
 21
1009.5
  0
LINE
  8
_0-0_
  6
DASHED1
 62
    7
 10
1384.2000000000003
 20
1009
 11
1376.7000000000003
 21
1009
  0
LINE
  8
_0-0_
  6
DASHED1
 62
    7
 10
1376.7000000000003
 20
1009
 11
1376.7000000000003
 21
1005
  0
LINE
  8
_0-0_
  6
DASHED1
 62
    7
 10
1376.3000000000002
 20
1008.5
 11
1376.3000000000002
 21
1009
  0
LINE
  8
_0-0_
  6
DASHED1
 62
    7
 10
1375.5
 20
1011.1
 11
1375.5
 21
1002.5
  0
LINE
  8
_0-0_
  6
DASHED1
 62
    7
 10
1376.3000000000002
 20
1008.5
 11
1375.5
 21
1008.5
  0
LINE
  8
_0-0_
  6
DASHED1
 62
    7
 10
1376.3000000000002
 20
1005.5
 11
1375.5
 21
1005.5
  0
LINE
  8
_0-0_
  6
DASHED1
 62
    7
 10
1385.5
 20
1005
 11
1376.7000000000003
 21
1005
  0
LINE
  8
_0-0_
  6
DASHED1
 62
    7
 10
1385.5
 20
1002.5
 11
1385.5
 21
1005
  0
LINE
  8
_0-0_
  6
DASHED1
 62
    7
 10
1376.7000000000003
 20
1005
 11
1376.3000000000002
 21
1005
  0
LINE
  8
_0-0_
  6
DASHED1
 62
    7
 10
1385.5
 20
1009
 11
1376.3000000000002
 21
1009
  0
LINE
  8
_0-0_
  6
DASHED1
 62
    7
 10
1376.3000000000002
 20
1005
 11
1376.3000000000002
 21
1005.5
  0
LINE
  8
_0-0_
  6
DASHED1
 62
    7
 10
1385.5
 20
1009.9336499999999
 11
1375.5
 21
1009.9336499999999
  0
LINE
  8
_0-0_
  6
DASHED1
 62
    7
 10
1376.3000000000002
 20
1009
 11
1375.5
 21
1009
  0
LINE
  8
_0-0_
  6
DASHED1
 62
    7
 10
1375.5
 20
1012
 11
1375.5
 21
1011.1
  0
LINE
  8
_0-0_
  6
DASHED1
 62
    7
 10
1385.5
 20
1005
 11
1385.5
 21
1012
  0
LINE
  8
_0-0_
  6
DASHED1
 62
    7
 10
1385.0000000000002
 20
1032.5
 11
1375.9999999999995
 21
1032.5
  0
LINE
  8
_0-0_
  6
DASHED1
 62
    7
 10
1375.9999999999995
 20
1002
 11
1385.0000000000002
 21
1002
  0
LINE
  8
_0-0_
  6
DASHED1
 62
    7
 10
1386.9774000000002
 20
1007
 11
1373.9035749999998
 21
1007
  0
LINE
  8
_0-0_
  6
DASHED1
 62
    7
 10
1375.5
 20
1032
 11
1375.5
 21
1012
  0
ARC
  8
_0-0_
  6
DASHED1
 62
    7
 10
1385.9999999999995
 20
1009.9
 40
0.5
 50
179.99999999999991
 51
269.99999999999994
  0
ARC
  8
_0-0_
  6
DASHED1
 62
    7
 10
1385.9999999999995
 20
1004.0999999999999
 40
0.5
 50
89.999999999999972
 51
180
  0
ARC
  8
_0-0_
  6
DASHED1
 62
    7
 10
1384.2000000000003
 20
1004.5
 40
0.5
 50
359.99999999999994
 51
89.999999999999972
  0
ARC
  8
_0-0_
  6
DASHED1
 62
    7
 10
1384.2000000000003
 20
1009.5
 40
0.5
 50
269.99999999999989
 51
359.99999999999989
  0
ARC
  8
_0-0_
  6
DASHED1
 62
    7
 10
1394
 20
1008.9
 40
0.5
 50
359.99999999999994
 51
89.999999999999972
  0
ARC
  8
_0-0_
  6
DASHED1
 62
    7
 10
1394
 20
1005.1
 40
0.5
 50
269.99999999999989
 51
359.99999999999989
  0
ARC
  8
_0-0_
  6
DASHED1
 62
    7
 10
1385.1000000000001
 20
1003.4000000000001
 40
0.4
 50
179.99999999999991
 51
269.99999999999994
  0
ARC
  8
_0-0_
  6
DASHED1
 62
    7
 10
1385.1000000000001
 20
1003.4000000000001
 40
0.4
 50
269.99999999999989
 51
359.99999999999989
  0
ARC
  8
_0-0_
  6
DASHED1
 62
    7
 10
1385.1000000000001
 20
1010.6
 40
0.4
 50
359.99999999999994
 51
89.999999999999972
  0
ARC
  8
_0-0_
  6
DASHED1
 62
    7
 10
1385.1000000000001
 20
1010.6
 40
0.4
 50
89.999999999999972
 51
180
  0
ARC
  8
_0-0_
  6
DASHED1
 62
    7
 10
1385.0000000000002
 20
1032
 40
0.5
 50
359.99999999999994
 51
89.999999999999972
  0
ARC
  8
_0-0_
  6
DASHED1
 62
    7
 10
1375.9999999999995
 20
1032
 40
0.5
 50
89.999999999999972
 51
180
  0
ARC
  8
_0-0_
  6
DASHED1
 62
    7
 10
1375.9999999999995
 20
1002.5
 40
0.5
 50
179.99999999999991
 51
269.99999999999994
  0
ARC
  8
_0-0_
  6
DASHED1
 62
    7
 10
1385.0000000000002
 20
1002.5
 40
0.5
 50
269.99999999999989
 51
359.99999999999989
  0
LINE
  8
_0-0_
  6
DASHED1
 62
    7
 10
1385.5
 20
1012
 11
1385.5
 21
1032
  0
LINE
  8
_0-0_
  6
DASHED1
 62
    7
 10
715.49999999999977
 20
1012
 11
724.49999999999989
 21
1012
  0
LINE
  8
_0-0_
  6
DASHED1
 62
    7
 10
714.49999999999989
 20
1012
 11
724.49999999999989
 21
1012
  0
LINE
  8
_0-0_
  6
DASHED1
 62
    7
 10
704.50529999999981
 20
1007
 11
726.78622499999983
 21
1007
  0
LINE
  8
_0-0_
  6
DASHED1
 62
    7
 10
714.49999999999989
 20
1003.4000000000001
 11
714.49999999999989
 21
1010.6
  0
LINE
  8
_0-0_
  6
DASHED1
 62
    7
 10
715.29999999999995
 20
1009.5
 11
715.29999999999995
 21
1004.5
  0
LINE
  8
_0-0_
  6
DASHED1
 62
    7
 10
723.29999999999984
 20
1005
 11
715.79999999999984
 21
1005
  0
LINE
  8
_0-0_
  6
DASHED1
 62
    7
 10
715.29999999999995
 20
1004.5
 11
715.29999999999995
 21
1003.4000000000001
  0
LINE
  8
_0-0_
  6
DASHED1
 62
    7
 10
714
 20
1004.5999999999999
 11
705.99999999999966
 21
1004.5999999999999
  0
LINE
  8
_0-0_
  6
DASHED1
 62
    7
 10
705.49999999999977
 20
1005.1
 11
705.49999999999977
 21
1008.9
  0
LINE
  8
_0-0_
  6
DASHED1
 62
    7
 10
705.99999999999966
 20
1009.4
 11
714
 21
1009.4
  0
LINE
  8
_0-0_
  6
DASHED1
 62
    7
 10
715.29999999999995
 20
1010.6
 11
715.29999999999995
 21
1009.5
  0
LINE
  8
_0-0_
  6
DASHED1
 62
    7
 10
715.79999999999984
 20
1009
 11
723.29999999999984
 21
1009
  0
LINE
  8
_0-0_
  6
DASHED1
 62
    7
 10
723.29999999999984
 20
1009
 11
723.29999999999984
 21
1005
  0
LINE
  8
_0-0_
  6
DASHED1
 62
    7
 10
723.69999999999948
 20
1008.5
 11
723.69999999999948
 21
1009
  0
LINE
  8
_0-0_
  6
DASHED1
 62
    7
 10
724.49999999999989
 20
1011.1
 11
724.49999999999989
 21
1002.5
  0
LINE
  8
_0-0_
  6
DASHED1
 62
    7
 10
723.69999999999948
 20
1008.5
 11
724.49999999999989
 21
1008.5
  0
LINE
  8
_0-0_
  6
DASHED1
 62
    7
 10
723.69999999999948
 20
1005.5
 11
724.49999999999989
 21
1005.5
  0
LINE
  8
_0-0_
  6
DASHED1
 62
    7
 10
714.49999999999989
 20
1005
 11
723.29999999999984
 21
1005
  0
LINE
  8
_0-0_
  6
DASHED1
 62
    7
 10
714.49999999999989
 20
1002.5
 11
714.49999999999989
 21
1005
  0
LINE
  8
_0-0_
  6
DASHED1
 62
    7
 10
723.29999999999984
 20
1005
 11
723.69999999999948
 21
1005
  0
LINE
  8
_0-0_
  6
DASHED1
 62
    7
 10
714.49999999999989
 20
1009
 11
723.69999999999948
 21
1009
  0
LINE
  8
_0-0_
  6
DASHED1
 62
    7
 10
723.69999999999948
 20
1005
 11
723.69999999999948
 21
1005.5
  0
LINE
  8
_0-0_
  6
DASHED1
 62
    7
 10
714.49999999999989
 20
1009.9336499999999
 11
724.49999999999989
 21
1009.9336499999999
  0
LINE
  8
_0-0_
  6
DASHED1
 62
    7
 10
723.69999999999948
 20
1009
 11
724.49999999999989
 21
1009
  0
LINE
  8
_0-0_
  6
DASHED1
 62
    7
 10
724.49999999999989
 20
1012
 11
724.49999999999989
 21
1011.1
  0
LINE
  8
_0-0_
  6
DASHED1
 62
    7
 10
714.49999999999989
 20
1005
 11
714.49999999999989
 21
1012
  0
LINE
  8
_0-0_
  6
DASHED1
 62
    7
 10
714.99999999999977
 20
1032.5
 11
724
 21
1032.5
  0
LINE
  8
_0-0_
  6
DASHED1
 62
    7
 10
724
 20
1002
 11
714.99999999999977
 21
1002
  0
LINE
  8
_0-0_
  6
DASHED1
 62
    7
 10
713.0225999999999
 20
1007
 11
726.09642499999973
 21
1007
  0
LINE
  8
_0-0_
  6
DASHED1
 62
    7
 10
724.49999999999989
 20
1032
 11
724.49999999999989
 21
1012
  0
ARC
  8
_0-0_
  6
DASHED1
 62
    7
 10
714
 20
1009.9
 40
0.5
 50
270.00000000000006
 51
0.0000000000000763
  0
ARC
  8
_0-0_
  6
DASHED1
 62
    7
 10
714
 20
1004.0999999999999
 40
0.5
 50
0
 51
90.000000000000028
  0
ARC
  8
_0-0_
  6
DASHED1
 62
    7
 10
715.79999999999984
 20
1004.5
 40
0.5
 50
90.000000000000028
 51
180.00000000000006
  0
ARC
  8
_0-0_
  6
DASHED1
 62
    7
 10
715.79999999999984
 20
1009.5
 40
0.5
 50
180.00000000000006
 51
270.00000000000006
  0
ARC
  8
_0-0_
  6
DASHED1
 62
    7
 10
705.99999999999966
 20
1008.9
 40
0.5
 50
90.000000000000028
 51
180.00000000000006
  0
ARC
  8
_0-0_
  6
DASHED1
 62
    7
 10
705.99999999999966
 20
1005.1
 40
0.5
 50
180.00000000000006
 51
270.00000000000006
  0
ARC
  8
_0-0_
  6
DASHED1
 62
    7
 10
714.89999999999986
 20
1003.4000000000001
 40
0.4
 50
270.00000000000006
 51
0.0000000000000763
  0
ARC
  8
_0-0_
  6
DASHED1
 62
    7
 10
714.89999999999986
 20
1003.4000000000001
 40
0.4
 50
180.00000000000006
 51
270.00000000000006
  0
ARC
  8
_0-0_
  6
DASHED1
 62
    7
 10
714.89999999999986
 20
1010.6
 40
0.4
 50
90.000000000000028
 51
180.00000000000006
  0
ARC
  8
_0-0_
  6
DASHED1
 62
    7
 10
714.89999999999986
 20
1010.6
 40
0.4
 50
0
 51
90.000000000000028
  0
ARC
  8
_0-0_
  6
DASHED1
 62
    7
 10
714.99999999999977
 20
1032
 40
0.5
 50
90.000000000000028
 51
180.00000000000006
  0
ARC
  8
_0-0_
  6
DASHED1
 62
    7
 10
724
 20
1032
 40
0.5
 50
0
 51
90.000000000000028
  0
ARC
  8
_0-0_
  6
DASHED1
 62
    7
 10
724
 20
1002.5
 40
0.5
 50
270.00000000000006
 51
0.0000000000000763
  0
ARC
  8
_0-0_
  6
DASHED1
 62
    7
 10
714.99999999999977
 20
1002.5
 40
0.5
 50
180.00000000000006
 51
270.00000000000006
  0
LINE
  8
_0-0_
  6
DASHED1
 62
    7
 10
714.49999999999989
 20
1012
 11
714.49999999999989
 21
1032
  0
LINE
  8
_0-3_
  6
CONTINUOUS
 62
    4
 10
2039.3796675245308
 20
1257
 11
2039.3796675245308
 21
772
  0
LINE
  8
_0-3_
  6
CONTINUOUS
 62
    5
 10
2381.3796675245299
 20
764.00000000000023
 11
2381.3796675245299
 21
757
  0
LINE
  8
_0-3_
  6
CONTINUOUS
 62
    5
 10
2039.3796675245308
 20
757
 11
2381.3796675245299
 21
757
  0
LINE
  8
_0-3_
  6
CONTINUOUS
 62
    5
 10
2039.3796675245308
 20
772
 11
2039.3796675245308
 21
757
  0
LINE
  8
_0-3_
  6
CONTINUOUS
 62
    4
 10
2381.3796675245299
 20
809.00000000000023
 11
2366.3796675245299
 21
764.00000000000023
  0
LINE
  8
_0-3_
  6
CONTINUOUS
 62
    4
 10
2366.3796675245299
 20
809.00000000000023
 11
2381.3796675245299
 21
809.00000000000023
  0
LINE
  8
_0-3_
  6
CONTINUOUS
 62
    4
 10
2039.3796675245308
 20
1257
 11
2381.3796675245299
 21
1257
  0
LINE
  8
_0-3_
  6
CONTINUOUS
 62
    4
 10
2381.3796675245299
 20
1239.0000000000002
 11
2381.3796675245299
 21
1243
  0
LINE
  8
_0-3_
  6
CONTINUOUS
 62
    4
 10
2381.3796675245299
 20
1257
 11
2381.3796675245299
 21
1243
  0
LINE
  8
_0-3_
  6
CONTINUOUS
 62
    4
 10
2366.3796675245299
 20
1172
 11
2381.3796675245299
 21
1172
  0
CIRCLE
  8
_0-3_
  6
DASHED1
 62
    9
 10
2373.8796675245299
 20
1242
 40
4.0000000000000036
  0
CIRCLE
  8
_0-3_
  6
DASHED1
 62
    9
 10
2373.8796675245299
 20
1182
 40
4.0000000000000036
  0
LINE
  8
_0-3_
  6
DASHED1
 62
    9
 10
2369.8796675245294
 20
1242
 11
2377.8796675245299
 21
1242
  0
LINE
  8
_0-3_
  6
DASHED1
 62
    9
 10
2373.8796675245299
 20
1246
 11
2373.8796675245299
 21
1238
  0
LINE
  8
_0-3_
  6
DASHED1
 62
    9
 10
2369.8796675245294
 20
1182
 11
2377.8796675245299
 21
1182
  0
LINE
  8
_0-3_
  6
DASHED1
 62
    9
 10
2373.8796675245299
 20
1186
 11
2373.8796675245299
 21
1178
  0
LINE
  8
_0-3_
  6
CONTINUOUS
 62
    4
 10
2381.3796675245299
 20
1257
 11
2366.3796675245299
 21
1172
  0
LINE
  8
_0-3_
  6
CONTINUOUS
 62
    4
 10
2366.3796675245299
 20
764.00000000000023
 11
2366.3796675245299
 21
1257
  0
LINE
  8
_0-3_
  6
CONTINUOUS
 62
    4
 10
2381.3796675245299
 20
1239.0000000000002
 11
2381.3796675245299
 21
764.00000000000023
  0
CIRCLE
  8
_0-3_
  6
CONTINUOUS
 62
    4
 10
2088.3796675245308
 20
1067
 40
2.5
  0
CIRCLE
  8
_0-3_
  6
CONTINUOUS
 62
    4
 10
2088.3796675245308
 20
1007
 40
2.5
  0
CIRCLE
  8
_0-3_
  6
CONTINUOUS
 62
    4
 10
2088.3796675245308
 20
947
 40
2.5
  0
LINE
  8
ADD_LINE
  6
DOT
 62
    9
 10
2088.3796675245308
 20
1067
 11
2058.6096709159497
 21
1067
  0
CIRCLE
  8
_0-3_
  6
CONTINUOUS
 62
    7
 10
2088.3796675245308
 20
1067
 40
2.5
  0
CIRCLE
  8
_0-3_
  6
CONTINUOUS
 62
    7
 10
2088.3796675245308
 20
947
 40
2.5
  0
CIRCLE
  8
_0-3_
  6
CONTINUOUS
 62
    7
 10
2088.3796675245308
 20
1006.9999999999999
 40
2.5
  0
LINE
  8
_0-3_
  6
CENTER2
 62
    4
 10
2088.3796675245308
 20
1077
 11
2088.3796675245308
 21
1057
  0
LINE
  8
_0-3_
  6
CENTER2
 62
    4
 10
2078.3796675245308
 20
1067
 11
2100.8796675245308
 21
1067
  0
LINE
  8
_0-3_
  6
CENTER2
 62
    4
 10
2088.3796675245308
 20
1016.9999999999999
 11
2088.3796675245308
 21
997
  0
LINE
  8
_0-3_
  6
CENTER2
 62
    4
 10
2078.3796675245308
 20
1006.9999999999999
 11
2100.8796675245308
 21
1006.9999999999999
  0
LINE
  8
_0-3_
  6
CENTER2
 62
    4
 10
2088.3796675245308
 20
957
 11
2088.3796675245308
 21
937
  0
LINE
  8
_0-3_
  6
CENTER2
 62
    4
 10
2078.3796675245308
 20
947
 11
2100.8796675245308
 21
947
  0
LINE
  8
ADD_LINE
  6
DOT
 62
    9
 10
2328.3796675245308
 20
1067
 11
2347.2874653739614
 21
1067
  0
CIRCLE
  8
_0-3_
  6
CONTINUOUS
 62
    4
 10
2340.3796675245308
 20
1007
 40
2.5
  0
CIRCLE
  8
_0-3_
  6
CONTINUOUS
 62
    4
 10
2340.3796675245308
 20
947
 40
2.5
  0
CIRCLE
  8
_0-3_
  6
CONTINUOUS
 62
    7
 10
2340.3796675245308
 20
947
 40
2.5
  0
CIRCLE
  8
_0-3_
  6
CONTINUOUS
 62
    7
 10
2340.3796675245308
 20
1006.9999999999999
 40
2.5
  0
LINE
  8
_0-3_
  6
CENTER2
 62
    4
 10
2340.3796675245308
 20
1016.9999999999999
 11
2340.3796675245308
 21
997
  0
LINE
  8
_0-3_
  6
CENTER2
 62
    4
 10
2330.3796675245308
 20
1006.9999999999999
 11
2352.8796675245308
 21
1006.9999999999999
  0
LINE
  8
_0-3_
  6
CENTER2
 62
    4
 10
2340.3796675245308
 20
957
 11
2340.3796675245308
 21
937
  0
LINE
  8
_0-3_
  6
CENTER2
 62
    4
 10
2330.3796675245308
 20
947
 11
2352.8796675245308
 21
947
  0
CIRCLE
  8
_0-3_
  6
CONTINUOUS
 62
    4
 10
2340.3796675245308
 20
1067
 40
2.5
  0
CIRCLE
  8
_0-3_
  6
CONTINUOUS
 62
    7
 10
2340.3796675245308
 20
1067
 40
2.5
  0
LINE
  8
_0-3_
  6
CENTER2
 62
    4
 10
2340.3796675245308
 20
1077
 11
2340.3796675245308
 21
1057
  0
LINE
  8
_0-3_
  6
CENTER2
 62
    4
 10
2330.3796675245308
 20
1067
 11
2352.8796675245308
 21
1067
  0
LINE
  8
_0-3_
  6
CONTINUOUS
 62
    4
 10
2363.3796675245294
 20
764.00000000000023
 11
2363.3796675245294
 21
1257
  0
LINE
  8
_0-3_
  6
CONTINUOUS
 62
    7
 10
2365.8796675245294
 20
764.00000000000023
 11
2365.8796675245294
 21
1257
  0
LINE
  8
_0-3_
  6
CONTINUOUS
 62
    5
 10
2363.3796675245294
 20
764.00000000000023
 11
2363.3796675245294
 21
777.5
  0
LINE
  8
_0-3_
  6
CONTINUOUS
 62
    5
 10
2039.3796675245308
 20
777.5
 11
2363.3796675245294
 21
777.5
  0
LINE
  8
_0-3_
  6
CONTINUOUS
 62
    5
 10
2363.3796675245294
 20
764.00000000000023
 11
2381.3796675245299
 21
764.00000000000023
  0
LINE
  8
_0-3_
  6
CONTINUOUS
 62
    4
 10
2039.3796675245308
 20
1242
 11
2363.3796675245294
 21
1242
  0
LINE
  8
_0-6_
  6
CONTINUOUS
 62
    7
 10
2069.8796675245308
 20
1012
 11
2358.8796675245308
 21
1012
  0
LINE
  8
_0-6_
  6
CONTINUOUS
 62
    7
 10
2358.8796675245308
 20
1012
 11
2358.8796675245308
 21
1027
  0
LINE
  8
_0-6_
  6
CONTINUOUS
 62
    7
 10
2358.8796675245308
 20
1027
 11
2069.8796675245308
 21
1027
  0
LINE
  8
_0-6_
  6
CONTINUOUS
 62
    7
 10
2069.8796675245308
 20
1027
 11
2069.8796675245308
 21
1012
  0
LINE
  8
_0-6_
  6
CONTINUOUS
 62
    7
 10
2069.8796675245308
 20
1012
 11
2358.8796675245308
 21
1012
  0
LINE
  8
_0-6_
  6
CONTINUOUS
 62
    7
 10
2358.8796675245308
 20
1012
 11
2358.8796675245308
 21
1027
  0
LINE
  8
_0-6_
  6
CONTINUOUS
 62
    7
 10
2358.8796675245308
 20
1027
 11
2069.8796675245308
 21
1027
  0
LINE
  8
_0-6_
  6
CONTINUOUS
 62
    7
 10
2069.8796675245308
 20
1027
 11
2069.8796675245308
 21
1012
  0
LINE
  8
_0-6_
  6
DASHED1
 62
    7
 10
1383.5
 20
1012
 11
1383.5
 21
1027
  0
LINE
  8
_0-6_
  6
DASHED1
 62
    7
 10
716.49999999999977
 20
1027
 11
716.49999999999977
 21
1012
  0
LINE
  8
_0-6_
  6
DASHED1
 62
    7
 10
1383.5
 20
1012
 11
716.49999999999977
 21
1012
  0
LINE
  8
_0-6_
  6
DASHED1
 62
    7
 10
1383.5
 20
1027
 11
716.49999999999977
 21
1027
  0
LINE
  8
_1-1_
  6
DASHED1
 62
    7
 10
1012.0000000000002
 20
1243.8999999999999
 11
1012.0000000000002
 21
1235.4999999999998
  0
LINE
  8
_1-1_
  6
DASHED1
 62
    7
 10
1011.0000000000002
 20
1212.3
 11
988.00000000000023
 21
1212.3
  0
LINE
  8
_1-1_
  6
DASHED1
 62
    7
 10
999.50000000000023
 20
1229.3000000000002
 11
992.00000000000023
 21
1229.3000000000002
  0
LINE
  8
_1-1_
  6
DASHED1
 62
    7
 10
989.50000000000023
 20
1236.8000000000002
 11
989.50000000000023
 21
1231.2999999999997
  0
LINE
  8
_1-1_
  6
DASHED1
 62
    7
 10
991.00000000000023
 20
1230.7999999999997
 11
990.00000000000011
 21
1230.7999999999997
  0
LINE
  8
_1-1_
  6
DASHED1
 62
    7
 10
1019.0800000000002
 20
1240.25
 11
1019.1000000000001
 21
1240.25
  0
LINE
  8
_1-1_
  6
DASHED1
 62
    7
 10
982.00000000000023
 20
1222.5999999999999
 11
981.00000000000023
 21
1222.5999999999999
  0
LINE
  8
_1-1_
  6
DASHED1
 62
    7
 10
983.00000000000023
 20
1236.8000000000002
 11
990.50000000000023
 21
1236.8000000000002
  0
LINE
  8
_1-1_
  6
DASHED1
 62
    7
 10
982.00000000000023
 20
1235.7999999999997
 11
982.00000000000023
 21
1218.2999999999997
  0
LINE
  8
_1-1_
  6
DASHED1
 62
    7
 10
980.00000000000011
 20
1242
 11
980.00000000000011
 21
1223.5999999999999
  0
LINE
  8
_1-1_
  6
DASHED1
 62
    7
 10
991.50000000000023
 20
1242
 11
980.00000000000011
 21
1242
  0
LINE
  8
_1-1_
  6
DASHED1
 62
    7
 10
982.00000000000023
 20
1242
 11
982.00000000000023
 21
1237.8
  0
LINE
  8
_1-1_
  6
DASHED1
 62
    7
 10
991.50000000000023
 20
1242
 11
991.50000000000023
 21
1229.8
  0
LINE
  8
_1-1_
  6
DASHED1
 62
    7
 10
1017.0000000000002
 20
1242
 11
1017.0000000000002
 21
1218.2999999999997
  0
LINE
  8
_1-1_
  6
DASHED1
 62
    7
 10
1007.5000000000001
 20
1242
 11
1019.0000000000002
 21
1242
  0
LINE
  8
_1-1_
  6
DASHED1
 62
    7
 10
1019.0000000000002
 20
1242
 11
1019.0000000000002
 21
1223.5999999999999
  0
LINE
  8
_1-1_
  6
DASHED1
 62
    7
 10
1017.0000000000002
 20
1222.5999999999999
 11
1018.0000000000002
 21
1222.5999999999999
  0
LINE
  8
_1-1_
  6
DASHED1
 62
    7
 10
991.50000000000023
 20
1241.0999999999999
 11
1007.5000000000001
 21
1241.0999999999999
  0
LINE
  8
_1-1_
  6
DASHED1
 62
    7
 10
1007.5000000000001
 20
1242
 11
1007.5000000000001
 21
1229.8
  0
LINE
  8
_1-1_
  6
DASHED1
 62
    7
 10
999.50000000000023
 20
1229.3000000000002
 11
1007.0000000000002
 21
1229.3000000000002
  0
LINE
  8
_1-1_
  6
DASHED1
 62
    7
 10
1016.0000000000002
 20
1236.8000000000002
 11
1008.5000000000002
 21
1236.8000000000002
  0
LINE
  8
_1-1_
  6
DASHED1
 62
    7
 10
1006.0000000000002
 20
1240.7999999999997
 11
993.00000000000023
 21
1240.7999999999997
  0
LINE
  8
_1-1_
  6
DASHED1
 62
    7
 10
996.50000000000023
 20
1236.8000000000002
 11
996.50000000000023
 21
1231.8000000000002
  0
LINE
  8
_1-1_
  6
DASHED1
 62
    7
 10
1001.5000000000002
 20
1230.7999999999997
 11
997.50000000000011
 21
1230.7999999999997
  0
LINE
  8
_1-1_
  6
DASHED1
 62
    7
 10
1002.5000000000001
 20
1236.8000000000002
 11
1002.5000000000001
 21
1231.8000000000002
  0
LINE
  8
_1-1_
  6
DASHED1
 62
    7
 10
1006.0000000000002
 20
1236.8000000000002
 11
1002.5000000000001
 21
1236.8000000000002
  0
LINE
  8
_1-1_
  6
DASHED1
 62
    7
 10
996.50000000000023
 20
1236.8000000000002
 11
993.00000000000023
 21
1236.8000000000002
  0
LINE
  8
_1-1_
  6
DASHED1
 62
    7
 10
994.00000000000023
 20
1230.4038499999999
 11
993.80340000000024
 21
1230.8635999999999
  0
LINE
  8
_1-1_
  6
DASHED1
 62
    7
 10
1005.0000000000001
 20
1230.4038499999999
 11
1005.1966000000002
 21
1230.8635999999999
  0
LINE
  8
_1-1_
  6
DASHED1
 62
    7
 10
1007.0000000000002
 20
1229.3000000000002
 11
1007.0000000000002
 21
1239.8
  0
LINE
  8
_1-1_
  6
DASHED1
 62
    7
 10
992.00000000000023
 20
1229.3000000000002
 11
992.00000000000023
 21
1239.8
  0
LINE
  8
_1-1_
  6
DASHED1
 62
    7
 10
1008.0000000000002
 20
1230.7999999999997
 11
1009.0000000000002
 21
1230.7999999999997
  0
LINE
  8
_1-1_
  6
DASHED1
 62
    7
 10
1009.5000000000002
 20
1236.8000000000002
 11
1009.5000000000002
 21
1231.2999999999997
  0
LINE
  8
_1-1_
  6
DASHED1
 62
    7
 10
991.50000000000023
 20
1234.8
 11
992.00000000000023
 21
1234.8
  0
LINE
  8
_1-1_
  6
DASHED1
 62
    7
 10
991.50000000000023
 20
1233.8
 11
992.00000000000023
 21
1233.8
  0
LINE
  8
_1-1_
  6
DASHED1
 62
    7
 10
1007.0000000000002
 20
1233.8
 11
1007.5000000000001
 21
1233.8
  0
LINE
  8
_1-1_
  6
DASHED1
 62
    7
 10
1007.0000000000002
 20
1234.8
 11
1007.5000000000001
 21
1234.8
  0
LINE
  8
_1-1_
  6
DASHED1
 62
    7
 10
991.50000000000023
 20
1241.5
 11
1007.5000000000001
 21
1241.5
  0
LINE
  8
_1-1_
  6
DASHED1
 62
    7
 10
999.50000000000023
 20
1212.3
 11
998.80000000000007
 21
1212.3
  0
LINE
  8
_1-1_
  6
DASHED1
 62
    7
 10
999.50000000000023
 20
1212.3
 11
1000.2000000000003
 21
1212.3
  0
LINE
  8
_1-1_
  6
DASHED1
 62
    7
 10
999.00000000000023
 20
1226.2999999999997
 11
999.50000000000023
 21
1226.2999999999997
  0
LINE
  8
_1-1_
  6
DASHED1
 62
    7
 10
998.50000000000023
 20
1212.5999999999999
 11
998.50000000000023
 21
1225.7999999999997
  0
LINE
  8
_1-1_
  6
DASHED1
 62
    7
 10
1000.5000000000002
 20
1212.5999999999999
 11
1000.5000000000002
 21
1225.7999999999997
  0
LINE
  8
_1-1_
  6
DASHED1
 62
    7
 10
999.50000000000023
 20
1226.2999999999997
 11
1000.0000000000001
 21
1226.2999999999997
  0
LINE
  8
_1-1_
  6
DASHED1
 62
    7
 10
999.50000000000023
 20
1242.5999999999999
 11
999.50000000000023
 21
1209.6000000000001
  0
ARC
  8
_1-1_
  6
DASHED1
 62
    7
 10
988.00000000000023
 20
1218.2999999999997
 40
6.0000000000000009
 50
180.00000000000006
 51
270.00000000000006
  0
ARC
  8
_1-1_
  6
DASHED1
 62
    7
 10
1011.0000000000002
 20
1218.2999999999997
 40
6.0000000000000009
 50
270.00000000000006
 51
0.0000000000000763
  0
ARC
  8
_1-1_
  6
DASHED1
 62
    7
 10
990.50000000000023
 20
1237.8
 40
1
 50
270.00000000000006
 51
0.0000000000000763
  0
ARC
  8
_1-1_
  6
DASHED1
 62
    7
 10
983.00000000000023
 20
1237.8
 40
1
 50
180.00000000000006
 51
270.00000000000006
  0
ARC
  8
_1-1_
  6
DASHED1
 62
    7
 10
992.00000000000023
 20
1229.8
 40
0.5
 50
180.00000000000006
 51
270.00000000000006
  0
ARC
  8
_1-1_
  6
DASHED1
 62
    7
 10
991.00000000000023
 20
1231.2999999999997
 40
0.5
 50
270.00000000000006
 51
0.0000000000000763
  0
ARC
  8
_1-1_
  6
DASHED1
 62
    7
 10
990.00000000000011
 20
1231.2999999999997
 40
0.5
 50
180.00000000000006
 51
270.00000000000006
  0
ARC
  8
_1-1_
  6
DASHED1
 62
    7
 10
981.00000000000023
 20
1223.5999999999999
 40
1
 50
180.00000000000006
 51
270.00000000000006
  0
ARC
  8
_1-1_
  6
DASHED1
 62
    7
 10
983.00000000000023
 20
1235.7999999999997
 40
1
 50
90.000000000000028
 51
180.00000000000006
  0
ARC
  8
_1-1_
  6
DASHED1
 62
    7
 10
1018.0000000000002
 20
1223.5999999999999
 40
1
 50
270.00000000000006
 51
0.0000000000000763
  0
ARC
  8
_1-1_
  6
DASHED1
 62
    7
 10
1007.0000000000002
 20
1229.8
 40
0.5
 50
270.00000000000006
 51
0.0000000000000763
  0
ARC
  8
_1-1_
  6
DASHED1
 62
    7
 10
1008.5000000000002
 20
1237.8
 40
1
 50
180.00000000000006
 51
270.00000000000006
  0
ARC
  8
_1-1_
  6
DASHED1
 62
    7
 10
1016.0000000000002
 20
1237.8
 40
1
 50
270.00000000000006
 51
0.0000000000000763
  0
ARC
  8
_1-1_
  6
DASHED1
 62
    7
 10
993.00000000000023
 20
1239.8
 40
1
 50
90.000000000000028
 51
180.00000000000006
  0
ARC
  8
_1-1_
  6
DASHED1
 62
    7
 10
1006.0000000000002
 20
1239.8
 40
1
 50
0
 51
90.000000000000028
  0
ARC
  8
_1-1_
  6
DASHED1
 62
    7
 10
993.00000000000023
 20
1237.8
 40
1
 50
180.00000000000006
 51
270.00000000000006
  0
ARC
  8
_1-1_
  6
DASHED1
 62
    7
 10
1006.0000000000002
 20
1237.8
 40
1
 50
270.00000000000006
 51
0.0000000000000763
  0
ARC
  8
_1-1_
  6
DASHED1
 62
    7
 10
997.50000000000011
 20
1231.8000000000002
 40
1
 50
180.00000000000006
 51
270.00000000000006
  0
ARC
  8
_1-1_
  6
DASHED1
 62
    7
 10
1001.5000000000002
 20
1231.8000000000002
 40
1
 50
270.00000000000006
 51
0.0000000000000763
  0
ARC
  8
_1-1_
  6
DASHED1
 62
    7
 10
1008.0000000000002
 20
1231.2999999999997
 40
0.5
 50
180.00000000000006
 51
270.00000000000006
  0
ARC
  8
_1-1_
  6
DASHED1
 62
    7
 10
1009.0000000000002
 20
1231.2999999999997
 40
0.5
 50
270.00000000000006
 51
0.0000000000000763
  0
ARC
  8
_1-1_
  6
DASHED1
 62
    7
 10
998.80000000000007
 20
1212.5999999999999
 40
0.2999999999999999
 50
180.00000000000006
 51
270.00000000000006
  0
ARC
  8
_1-1_
  6
DASHED1
 62
    7
 10
1000.2000000000003
 20
1212.5999999999999
 40
0.2999999999999999
 50
270.00000000000006
 51
0.0000000000000763
  0
ARC
  8
_1-1_
  6
DASHED1
 62
    7
 10
999.00000000000023
 20
1225.7999999999997
 40
0.5
 50
90.000000000000028
 51
180.00000000000006
  0
ARC
  8
_1-1_
  6
DASHED1
 62
    7
 10
1000.0000000000001
 20
1225.7999999999997
 40
0.5
 50
0
 51
90.000000000000028
  0
LINE
  8
_1-1_
  6
DASHED1
 62
    7
 10
987.00000000000023
 20
1243.8999999999999
 11
987.00000000000023
 21
1235.4999999999998
  0
LINE
  8
_1-1_
  6
DASHED1
 62
    7
 10
1113
 20
1243.8999999999999
 11
1113
 21
1235.4999999999998
  0
LINE
  8
_1-1_
  6
DASHED1
 62
    7
 10
1112
 20
1212.3
 11
1089
 21
1212.3
  0
LINE
  8
_1-1_
  6
DASHED1
 62
    7
 10
1100.5
 20
1229.3000000000002
 11
1093
 21
1229.3000000000002
  0
LINE
  8
_1-1_
  6
DASHED1
 62
    7
 10
1090.5
 20
1236.8000000000002
 11
1090.5
 21
1231.2999999999997
  0
LINE
  8
_1-1_
  6
DASHED1
 62
    7
 10
1092
 20
1230.7999999999997
 11
1091
 21
1230.7999999999997
  0
LINE
  8
_1-1_
  6
DASHED1
 62
    7
 10
1120.0799999999999
 20
1240.25
 11
1120.0999999999999
 21
1240.25
  0
LINE
  8
_1-1_
  6
DASHED1
 62
    7
 10
1083
 20
1222.5999999999999
 11
1082
 21
1222.5999999999999
  0
LINE
  8
_1-1_
  6
DASHED1
 62
    7
 10
1084
 20
1236.8000000000002
 11
1091.5
 21
1236.8000000000002
  0
LINE
  8
_1-1_
  6
DASHED1
 62
    7
 10
1083
 20
1235.7999999999997
 11
1083
 21
1218.2999999999997
  0
LINE
  8
_1-1_
  6
DASHED1
 62
    7
 10
1081
 20
1242
 11
1081
 21
1223.5999999999999
  0
LINE
  8
_1-1_
  6
DASHED1
 62
    7
 10
1092.5
 20
1242
 11
1081
 21
1242
  0
LINE
  8
_1-1_
  6
DASHED1
 62
    7
 10
1083
 20
1242
 11
1083
 21
1237.8
  0
LINE
  8
_1-1_
  6
DASHED1
 62
    7
 10
1092.5
 20
1242
 11
1092.5
 21
1229.8
  0
LINE
  8
_1-1_
  6
DASHED1
 62
    7
 10
1118
 20
1242
 11
1118
 21
1218.2999999999997
  0
LINE
  8
_1-1_
  6
DASHED1
 62
    7
 10
1108.5
 20
1242
 11
1120
 21
1242
  0
LINE
  8
_1-1_
  6
DASHED1
 62
    7
 10
1120
 20
1242
 11
1120
 21
1223.5999999999999
  0
LINE
  8
_1-1_
  6
DASHED1
 62
    7
 10
1118
 20
1222.5999999999999
 11
1119
 21
1222.5999999999999
  0
LINE
  8
_1-1_
  6
DASHED1
 62
    7
 10
1092.5
 20
1241.0999999999999
 11
1108.5
 21
1241.0999999999999
  0
LINE
  8
_1-1_
  6
DASHED1
 62
    7
 10
1108.5
 20
1242
 11
1108.5
 21
1229.8
  0
LINE
  8
_1-1_
  6
DASHED1
 62
    7
 10
1100.5
 20
1229.3000000000002
 11
1108
 21
1229.3000000000002
  0
LINE
  8
_1-1_
  6
DASHED1
 62
    7
 10
1117
 20
1236.8000000000002
 11
1109.5
 21
1236.8000000000002
  0
LINE
  8
_1-1_
  6
DASHED1
 62
    7
 10
1107
 20
1240.7999999999997
 11
1094
 21
1240.7999999999997
  0
LINE
  8
_1-1_
  6
DASHED1
 62
    7
 10
1097.5
 20
1236.8000000000002
 11
1097.5
 21
1231.8000000000002
  0
LINE
  8
_1-1_
  6
DASHED1
 62
    7
 10
1102.5
 20
1230.7999999999997
 11
1098.5
 21
1230.7999999999997
  0
LINE
  8
_1-1_
  6
DASHED1
 62
    7
 10
1103.5
 20
1236.8000000000002
 11
1103.5
 21
1231.8000000000002
  0
LINE
  8
_1-1_
  6
DASHED1
 62
    7
 10
1107
 20
1236.8000000000002
 11
1103.5
 21
1236.8000000000002
  0
LINE
  8
_1-1_
  6
DASHED1
 62
    7
 10
1097.5
 20
1236.8000000000002
 11
1094
 21
1236.8000000000002
  0
LINE
  8
_1-1_
  6
DASHED1
 62
    7
 10
1095
 20
1230.4038499999999
 11
1094.8034
 21
1230.8635999999999
  0
LINE
  8
_1-1_
  6
DASHED1
 62
    7
 10
1106
 20
1230.4038499999999
 11
1106.1966
 21
1230.8635999999999
  0
LINE
  8
_1-1_
  6
DASHED1
 62
    7
 10
1108
 20
1229.3000000000002
 11
1108
 21
1239.8
  0
LINE
  8
_1-1_
  6
DASHED1
 62
    7
 10
1093
 20
1229.3000000000002
 11
1093
 21
1239.8
  0
LINE
  8
_1-1_
  6
DASHED1
 62
    7
 10
1109
 20
1230.7999999999997
 11
1110
 21
1230.7999999999997
  0
LINE
  8
_1-1_
  6
DASHED1
 62
    7
 10
1110.5
 20
1236.8000000000002
 11
1110.5
 21
1231.2999999999997
  0
LINE
  8
_1-1_
  6
DASHED1
 62
    7
 10
1092.5
 20
1234.8
 11
1093
 21
1234.8
  0
LINE
  8
_1-1_
  6
DASHED1
 62
    7
 10
1092.5
 20
1233.8
 11
1093
 21
1233.8
  0
LINE
  8
_1-1_
  6
DASHED1
 62
    7
 10
1108
 20
1233.8
 11
1108.5
 21
1233.8
  0
LINE
  8
_1-1_
  6
DASHED1
 62
    7
 10
1108
 20
1234.8
 11
1108.5
 21
1234.8
  0
LINE
  8
_1-1_
  6
DASHED1
 62
    7
 10
1092.5
 20
1241.5
 11
1108.5
 21
1241.5
  0
LINE
  8
_1-1_
  6
DASHED1
 62
    7
 10
1100.5
 20
1212.3
 11
1099.8
 21
1212.3
  0
LINE
  8
_1-1_
  6
DASHED1
 62
    7
 10
1100.5
 20
1212.3
 11
1101.2
 21
1212.3
  0
LINE
  8
_1-1_
  6
DASHED1
 62
    7
 10
1100
 20
1226.2999999999997
 11
1100.5
 21
1226.2999999999997
  0
LINE
  8
_1-1_
  6
DASHED1
 62
    7
 10
1099.5
 20
1212.5999999999999
 11
1099.5
 21
1225.7999999999997
  0
LINE
  8
_1-1_
  6
DASHED1
 62
    7
 10
1101.5
 20
1212.5999999999999
 11
1101.5
 21
1225.7999999999997
  0
LINE
  8
_1-1_
  6
DASHED1
 62
    7
 10
1100.5
 20
1226.2999999999997
 11
1101
 21
1226.2999999999997
  0
LINE
  8
_1-1_
  6
DASHED1
 62
    7
 10
1100.5
 20
1242.5999999999999
 11
1100.5
 21
1209.6000000000001
  0
ARC
  8
_1-1_
  6
DASHED1
 62
    7
 10
1089
 20
1218.2999999999997
 40
6.0000000000000009
 50
180.00000000000006
 51
270.00000000000006
  0
ARC
  8
_1-1_
  6
DASHED1
 62
    7
 10
1112
 20
1218.2999999999997
 40
6.0000000000000009
 50
270.00000000000006
 51
0.0000000000000763
  0
ARC
  8
_1-1_
  6
DASHED1
 62
    7
 10
1091.5
 20
1237.8
 40
1
 50
270.00000000000006
 51
0.0000000000000763
  0
ARC
  8
_1-1_
  6
DASHED1
 62
    7
 10
1084
 20
1237.8
 40
1
 50
180.00000000000006
 51
270.00000000000006
  0
ARC
  8
_1-1_
  6
DASHED1
 62
    7
 10
1093
 20
1229.8
 40
0.5
 50
180.00000000000006
 51
270.00000000000006
  0
ARC
  8
_1-1_
  6
DASHED1
 62
    7
 10
1092
 20
1231.2999999999997
 40
0.5
 50
270.00000000000006
 51
0.0000000000000763
  0
ARC
  8
_1-1_
  6
DASHED1
 62
    7
 10
1091
 20
1231.2999999999997
 40
0.5
 50
180.00000000000006
 51
270.00000000000006
  0
ARC
  8
_1-1_
  6
DASHED1
 62
    7
 10
1082
 20
1223.5999999999999
 40
1
 50
180.00000000000006
 51
270.00000000000006
  0
ARC
  8
_1-1_
  6
DASHED1
 62
    7
 10
1084
 20
1235.7999999999997
 40
1
 50
90.000000000000028
 51
180.00000000000006
  0
ARC
  8
_1-1_
  6
DASHED1
 62
    7
 10
1119
 20
1223.5999999999999
 40
1
 50
270.00000000000006
 51
0.0000000000000763
  0
ARC
  8
_1-1_
  6
DASHED1
 62
    7
 10
1108
 20
1229.8
 40
0.5
 50
270.00000000000006
 51
0.0000000000000763
  0
ARC
  8
_1-1_
  6
DASHED1
 62
    7
 10
1109.5
 20
1237.8
 40
1
 50
180.00000000000006
 51
270.00000000000006
  0
ARC
  8
_1-1_
  6
DASHED1
 62
    7
 10
1117
 20
1237.8
 40
1
 50
270.00000000000006
 51
0.0000000000000763
  0
ARC
  8
_1-1_
  6
DASHED1
 62
    7
 10
1094
 20
1239.8
 40
1
 50
90.000000000000028
 51
180.00000000000006
  0
ARC
  8
_1-1_
  6
DASHED1
 62
    7
 10
1107
 20
1239.8
 40
1
 50
0
 51
90.000000000000028
  0
ARC
  8
_1-1_
  6
DASHED1
 62
    7
 10
1094
 20
1237.8
 40
1
 50
180.00000000000006
 51
270.00000000000006
  0
ARC
  8
_1-1_
  6
DASHED1
 62
    7
 10
1107
 20
1237.8
 40
1
 50
270.00000000000006
 51
0.0000000000000763
  0
ARC
  8
_1-1_
  6
DASHED1
 62
    7
 10
1098.5
 20
1231.8000000000002
 40
1
 50
180.00000000000006
 51
270.00000000000006
  0
ARC
  8
_1-1_
  6
DASHED1
 62
    7
 10
1102.5
 20
1231.8000000000002
 40
1
 50
270.00000000000006
 51
0.0000000000000763
  0
ARC
  8
_1-1_
  6
DASHED1
 62
    7
 10
1109
 20
1231.2999999999997
 40
0.5
 50
180.00000000000006
 51
270.00000000000006
  0
ARC
  8
_1-1_
  6
DASHED1
 62
    7
 10
1110
 20
1231.2999999999997
 40
0.5
 50
270.00000000000006
 51
0.0000000000000763
  0
ARC
  8
_1-1_
  6
DASHED1
 62
    7
 10
1099.8
 20
1212.5999999999999
 40
0.2999999999999999
 50
180.00000000000006
 51
270.00000000000006
  0
ARC
  8
_1-1_
  6
DASHED1
 62
    7
 10
1101.2
 20
1212.5999999999999
 40
0.2999999999999999
 50
270.00000000000006
 51
0.0000000000000763
  0
ARC
  8
_1-1_
  6
DASHED1
 62
    7
 10
1100
 20
1225.7999999999997
 40
0.5
 50
90.000000000000028
 51
180.00000000000006
  0
ARC
  8
_1-1_
  6
DASHED1
 62
    7
 10
1101
 20
1225.7999999999997
 40
0.5
 50
0
 51
90.000000000000028
  0
LINE
  8
_1-1_
  6
DASHED1
 62
    7
 10
1088
 20
1243.8999999999999
 11
1088
 21
1235.4999999999998
  0
LINE
  8
_1-1_
  6
DASHED1
 62
    7
 10
2117.8796675245308
 20
1239.42355
 11
2116.7730175245306
 21
1240.0625
  0
LINE
  8
_1-1_
  6
DASHED1
 62
    7
 10
2117.8796675245308
 20
1238.55755
 11
2115.8796675245312
 21
1239.71225
  0
LINE
  8
_1-1_
  6
DASHED1
 62
    7
 10
2117.8796675245308
 20
1237.6914999999999
 11
2115.8796675245312
 21
1238.8462
  0
LINE
  8
_1-1_
  6
DASHED1
 62
    7
 10
2117.8796675245308
 20
1236.8255000000001
 11
2115.8796675245312
 21
1237.9802
  0
LINE
  8
_1-1_
  6
DASHED1
 62
    7
 10
2117.8796675245308
 20
1235.9594500000001
 11
2115.8796675245312
 21
1237.1141500000001
  0
LINE
  8
_1-1_
  6
DASHED1
 62
    7
 10
2117.8796675245308
 20
1235.0934499999998
 11
2115.8796675245312
 21
1236.2481499999999
  0
LINE
  8
_1-1_
  6
DASHED1
 62
    7
 10
2117.8796675245308
 20
1234.2274
 11
2115.8796675245312
 21
1235.3821
  0
LINE
  8
_1-1_
  6
DASHED1
 62
    7
 10
2117.8796675245308
 20
1233.3614
 11
2115.8796675245312
 21
1234.5161000000001
  0
LINE
  8
_1-1_
  6
DASHED1
 62
    7
 10
2117.8796675245308
 20
1232.4953499999999
 11
2115.8796675245312
 21
1233.65005
  0
LINE
  8
_1-1_
  6
DASHED1
 62
    7
 10
2117.8796675245308
 20
1231.6293500000002
 11
2115.8796675245312
 21
1232.78405
  0
LINE
  8
_1-1_
  6
DASHED1
 62
    7
 10
2117.8796675245308
 20
1230.7633000000001
 11
2115.8796675245312
 21
1231.9180000000001
  0
LINE
  8
_1-1_
  6
DASHED1
 62
    7
 10
2117.8796675245308
 20
1229.8972999999999
 11
2115.8796675245312
 21
1231.0519999999999
  0
LINE
  8
_1-1_
  6
DASHED1
 62
    7
 10
2117.8796675245308
 20
1229.03125
 11
2115.8796675245312
 21
1230.18595
  0
LINE
  8
_1-1_
  6
DASHED1
 62
    7
 10
2117.8796675245308
 20
1228.16525
 11
2115.8796675245312
 21
1229.3199500000001
  0
LINE
  8
_1-1_
  6
DASHED1
 62
    7
 10
2117.8796675245308
 20
1227.2991999999999
 11
2115.8796675245312
 21
1228.4539
  0
LINE
  8
_1-1_
  6
DASHED1
 62
    7
 10
2117.8796675245308
 20
1226.4331999999999
 11
2115.8796675245312
 21
1227.5879
  0
LINE
  8
_1-1_
  6
DASHED1
 62
    7
 10
2117.8796675245308
 20
1225.5671499999999
 11
2115.8796675245312
 21
1226.7218499999999
  0
LINE
  8
_1-1_
  6
DASHED1
 62
    7
 10
2117.8796675245308
 20
1224.7011499999999
 11
2115.8796675245312
 21
1225.8558499999999
  0
LINE
  8
_1-1_
  6
DASHED1
 62
    7
 10
2117.8796675245308
 20
1223.8351
 11
2115.8796675245312
 21
1224.9898000000001
  0
LINE
  8
_1-1_
  6
DASHED1
 62
    7
 10
2117.8796675245308
 20
1222.9691
 11
2115.8796675245312
 21
1224.1238000000001
  0
LINE
  8
_1-1_
  6
DASHED1
 62
    7
 10
2117.8796675245308
 20
1222.1030500000002
 11
2115.8796675245312
 21
1223.25775
  0
LINE
  8
_1-1_
  6
DASHED1
 62
    7
 10
2117.8796675245308
 20
1221.23705
 11
2115.8796675245312
 21
1222.39175
  0
LINE
  8
_1-1_
  6
DASHED1
 62
    7
 10
2117.8796675245308
 20
1220.3709999999999
 11
2115.8796675245312
 21
1221.5256999999999
  0
LINE
  8
_1-1_
  6
DASHED1
 62
    7
 10
2117.8796675245308
 20
1219.5050000000001
 11
2115.8796675245312
 21
1220.6596999999999
  0
LINE
  8
_1-1_
  6
DASHED1
 62
    7
 10
2117.8796675245308
 20
1218.63895
 11
2115.8796675245312
 21
1219.7936500000001
  0
LINE
  8
_1-1_
  6
DASHED1
 62
    7
 10
2117.769617524531
 20
1217.8364999999999
 11
2115.8796675245312
 21
1218.9276500000001
  0
LINE
  8
_1-1_
  6
DASHED1
 62
    7
 10
2117.6488675245309
 20
1217.04015
 11
2115.8075675245304
 21
1218.1032500000001
  0
LINE
  8
_1-1_
  6
DASHED1
 62
    7
 10
2117.3761175245309
 20
1216.3316
 11
2115.6195675245308
 21
1217.34575
  0
LINE
  8
_1-1_
  6
DASHED1
 62
    7
 10
2117.0312675245304
 20
1215.6647
 11
2115.3192675245305
 21
1216.6531
  0
LINE
  8
_1-1_
  6
DASHED1
 62
    7
 10
2116.686417524531
 20
1214.99775
 11
2114.7712175245306
 21
1216.1034999999999
  0
LINE
  8
_1-1_
  6
DASHED1
 62
    7
 10
2116.1838675245308
 20
1214.4219000000001
 11
2114.2762175245307
 21
1215.52325
  0
LINE
  8
_1-1_
  6
DASHED1
 62
    7
 10
2115.6062675245307
 20
1213.8893
 11
2113.0546675245305
 21
1215.3625
  0
LINE
  8
_1-1_
  6
DASHED1
 62
    7
 10
2114.937317524531
 20
1213.4095
 11
2111.5546675245309
 21
1215.3625
  0
LINE
  8
_1-1_
  6
DASHED1
 62
    7
 10
2114.0489175245307
 20
1213.0563999999999
 11
2110.0546675245305
 21
1215.3625
  0
LINE
  8
_1-1_
  6
DASHED1
 62
    7
 10
2113.1346175245308
 20
1212.7182500000001
 11
2108.5546675245309
 21
1215.3625
  0
LINE
  8
_1-1_
  6
DASHED1
 62
    7
 10
2110.4044175245308
 20
1212.5625
 11
2106.0896175245307
 21
1215.0536500000001
  0
LINE
  8
_1-1_
  6
DASHED1
 62
    7
 10
2111.8542675245308
 20
1212.5914500000001
 11
2107.1141675245308
 21
1215.3281500000001
  0
LINE
  8
_1-1_
  6
DASHED1
 62
    7
 10
2108.9044175245308
 20
1212.5625
 11
2105.0651175245312
 21
1214.7791
  0
LINE
  8
_1-1_
  6
DASHED1
 62
    7
 10
2105.9044175245303
 20
1212.5625
 11
2103.0160675245306
 21
1214.2300500000001
  0
LINE
  8
_1-1_
  6
DASHED1
 62
    7
 10
2107.4044175245308
 20
1212.5625
 11
2104.0406175245307
 21
1214.5046
  0
LINE
  8
_1-1_
  6
DASHED1
 62
    7
 10
2104.4044175245308
 20
1212.5625
 11
2101.6280675245307
 21
1214.1653999999999
  0
LINE
  8
_1-1_
  6
DASHED1
 62
    7
 10
2102.9044175245308
 20
1212.5625
 11
2100.1842675245307
 21
1214.1329999999998
  0
LINE
  8
_1-1_
  6
DASHED1
 62
    7
 10
2101.4044175245308
 20
1212.5625
 11
2098.3285675245306
 21
1214.3382999999999
  0
LINE
  8
_1-1_
  6
DASHED1
 62
    7
 10
2099.9044175245308
 20
1212.5625
 11
2095.9545675245308
 21
1214.84295
  0
LINE
  8
_1-1_
  6
DASHED1
 62
    7
 10
2098.4044175245303
 20
1212.5625
 11
2093.580567524531
 21
1215.34755
  0
LINE
  8
_1-1_
  6
DASHED1
 62
    7
 10
2096.9044175245308
 20
1212.5625
 11
2091.2065675245312
 21
1215.8521500000002
  0
LINE
  8
_1-1_
  6
DASHED1
 62
    7
 10
2095.4044175245308
 20
1212.5625
 11
2088.8325175245309
 21
1216.3567499999999
  0
LINE
  8
_1-1_
  6
DASHED1
 62
    7
 10
2093.9044175245308
 20
1212.5625
 11
2086.4585175245306
 21
1216.8614
  0
LINE
  8
_1-1_
  6
DASHED1
 62
    7
 10
2092.4044175245308
 20
1212.5625
 11
2074.5642675245308
 21
1222.8625
  0
LINE
  8
_1-1_
  6
DASHED1
 62
    7
 10
2090.9044175245303
 20
1212.5625
 11
2071.8796675245308
 21
1223.54645
  0
LINE
  8
_1-1_
  6
DASHED1
 62
    7
 10
2089.4044175245308
 20
1212.5625
 11
2071.8796675245308
 21
1222.6804
  0
LINE
  8
_1-1_
  6
DASHED1
 62
    7
 10
2087.9044175245308
 20
1212.5625
 11
2071.8796675245308
 21
1221.8144
  0
LINE
  8
_1-1_
  6
DASHED1
 62
    7
 10
2084.8796675245308
 20
1228.16525
 11
2082.8796675245308
 21
1229.3199500000001
  0
LINE
  8
_1-1_
  6
DASHED1
 62
    7
 10
2084.8796675245308
 20
1227.2991999999999
 11
2082.8796675245308
 21
1228.4539
  0
LINE
  8
_1-1_
  6
DASHED1
 62
    7
 10
2084.8796675245308
 20
1226.4331999999999
 11
2082.8796675245308
 21
1227.5879
  0
LINE
  8
_1-1_
  6
DASHED1
 62
    7
 10
2084.8796675245308
 20
1225.5671499999999
 11
2082.608867524531
 21
1226.8782000000001
  0
LINE
  8
_1-1_
  6
DASHED1
 62
    7
 10
2084.8796675245308
 20
1224.7011499999999
 11
2081.5712675245304
 21
1226.6112499999999
  0
LINE
  8
_1-1_
  6
DASHED1
 62
    7
 10
2084.8796675245308
 20
1223.8351
 11
2080.1556675245311
 21
1226.5625
  0
LINE
  8
_1-1_
  6
DASHED1
 62
    7
 10
2084.8796675245308
 20
1222.9691
 11
2078.6556675245306
 21
1226.5625
  0
LINE
  8
_1-1_
  6
DASHED1
 62
    7
 10
2084.8796675245308
 20
1222.1030500000002
 11
2077.1556675245306
 21
1226.5625
  0
LINE
  8
_1-1_
  6
DASHED1
 62
    7
 10
2084.8796675245308
 20
1221.23705
 11
2082.0642675245308
 21
1222.8625
  0
LINE
  8
_1-1_
  6
DASHED1
 62
    7
 10
2084.8796675245308
 20
1220.3709999999999
 11
2080.5642675245308
 21
1222.8625
  0
LINE
  8
_1-1_
  6
DASHED1
 62
    7
 10
2084.8796675245308
 20
1219.5050000000001
 11
2079.0642675245308
 21
1222.8625
  0
LINE
  8
_1-1_
  6
DASHED1
 62
    7
 10
2084.8830675245308
 20
1218.6369999999999
 11
2077.5642675245308
 21
1222.8625
  0
LINE
  8
_1-1_
  6
DASHED1
 62
    7
 10
2085.0148175245304
 20
1217.6949
 11
2076.0642675245304
 21
1222.8625
  0
LINE
  8
_1-1_
  6
DASHED1
 62
    7
 10
2082.0642675245308
 20
1222.8625
 11
2075.6556675245306
 21
1226.5625
  0
LINE
  8
_1-1_
  6
DASHED1
 62
    7
 10
2080.5642675245308
 20
1222.8625
 11
2074.1556675245306
 21
1226.5625
  0
LINE
  8
_1-1_
  6
DASHED1
 62
    7
 10
2079.0642675245308
 20
1222.8625
 11
2072.8796675245308
 21
1226.4331999999999
  0
LINE
  8
_1-1_
  6
DASHED1
 62
    7
 10
2077.5642675245308
 20
1222.8625
 11
2071.8796675245308
 21
1226.1445000000001
  0
LINE
  8
_1-1_
  6
DASHED1
 62
    7
 10
2076.0642675245304
 20
1222.8625
 11
2071.8796675245308
 21
1225.2784999999999
  0
LINE
  8
_1-1_
  6
DASHED1
 62
    7
 10
2074.5642675245308
 20
1222.8625
 11
2071.8796675245308
 21
1224.41245
  0
LINE
  8
_1-1_
  6
DASHED1
 62
    7
 10
2117.8796675245308
 20
1240.17355
 11
2116.8796675245308
 21
1240.7509
  0
LINE
  8
_1-1_
  6
DASHED1
 62
    7
 10
2117.8796675245308
 20
1240.17355
 11
2116.7730175245306
 21
1240.8125
  0
LINE
  8
_1-1_
  6
DASHED1
 62
    7
 10
2117.8796675245308
 20
1240.92355
 11
2117.1194175245309
 21
1241.3625
  0
LINE
  8
_1-1_
  6
DASHED1
 62
    7
 10
2082.8796675245308
 20
1231.0625
 11
2082.8796675245308
 21
1233.0625
  0
LINE
  8
_1-1_
  6
DASHED1
 62
    7
 10
2102.8796675245308
 20
1214.1934999999999
 11
2100.3796675245308
 21
1214.0625
  0
LINE
  8
_1-1_
  6
DASHED1
 62
    7
 10
2107.2423675245309
 20
1215.3625
 11
2102.8796675245308
 21
1214.1934999999999
  0
LINE
  8
_1-1_
  6
DASHED1
 62
    7
 10
2084.8796675245308
 20
1228.4078
 11
2082.8796675245308
 21
1229.5625
  0
LINE
  8
_1-1_
  6
DASHED1
 62
    7
 10
2084.8796675245308
 20
1218.6706999999999
 11
2084.8796675245308
 21
1228.4078
  0
LINE
  8
_1-1_
  6
DASHED1
 62
    7
 10
2107.9296675245309
 20
1240.0625
 11
2107.9296675245309
 21
1239.0625
  0
LINE
  8
_1-1_
  6
DASHED1
 62
    7
 10
2081.1476175245307
 20
1233.5625
 11
2082.8796675245308
 21
1230.5625
  0
LINE
  8
_1-1_
  6
DASHED1
 62
    7
 10
2099.3796675245308
 20
1214.1149
 11
2100.3796675245308
 21
1214.0625
  0
LINE
  8
_1-1_
  6
DASHED1
 62
    7
 10
2085.1876675245308
 20
1217.1315
 11
2099.3796675245308
 21
1214.1149
  0
LINE
  8
_1-1_
  6
DASHED1
 62
    7
 10
2115.8796675245312
 20
1240.0625
 11
2115.8796675245312
 21
1218.6601999999998
  0
LINE
  8
_1-1_
  6
DASHED1
 62
    7
 10
2107.2423675245309
 20
1215.3625
 11
2114.1435675245302
 21
1215.3625
  0
LINE
  8
_1-1_
  6
DASHED1
 62
    7
 10
2075.3796675245308
 20
1235.2625
 11
2075.3796675245308
 21
1242.8625
  0
LINE
  8
_1-1_
  6
DASHED1
 62
    7
 10
2090.1796675245305
 20
1239.0625
 11
2107.9296675245309
 21
1239.0625
  0
LINE
  8
_1-1_
  6
DASHED1
 62
    7
 10
2117.8796675245308
 20
1218.5625
 11
2117.8796675245308
 21
1241.3625
  0
LINE
  8
_1-1_
  6
DASHED1
 62
    7
 10
2116.8796675245308
 20
1240.0625
 11
2116.8796675245308
 21
1241.37915
  0
LINE
  8
_1-1_
  6
DASHED1
 62
    7
 10
2117.8796675245308
 20
1241.3625
 11
2057.8796675245308
 21
1242.2625
  0
LINE
  8
_1-1_
  6
DASHED1
 62
    7
 10
2058.8796675245303
 20
1242.2625
 11
2058.8796675245303
 21
1240.9625000000001
  0
LINE
  8
_1-1_
  6
DASHED1
 62
    7
 10
2080.1392175245305
 20
1240.9625000000001
 11
2084.3796675245308
 21
1240.9625000000001
  0
LINE
  8
_1-1_
  6
DASHED1
 62
    7
 10
2068.0582175245308
 20
1240.9625000000001
 11
2058.9796675245307
 21
1240.9625000000001
  0
LINE
  8
_1-1_
  6
DASHED1
 62
    7
 10
2084.3796675245308
 20
1239.0625
 11
2085.5796675245306
 21
1239.0625
  0
LINE
  8
_1-1_
  6
DASHED1
 62
    7
 10
2048.8797175245309
 20
1231.0625
 11
2046.8797175245304
 21
1233.0625
  0
LINE
  8
_1-1_
  6
DASHED1
 62
    7
 10
2046.8797175245304
 20
1233.0625
 11
2046.8797175245304
 21
1240.0625
  0
LINE
  8
_1-1_
  6
DASHED1
 62
    7
 10
2051.8797175245304
 20
1237.0625
 11
2051.8797175245304
 21
1235.7625
  0
LINE
  8
_1-1_
  6
DASHED1
 62
    7
 10
2087.8796675245308
 20
1236.9625000000001
 11
2087.8796675245308
 21
1225.7625
  0
LINE
  8
_1-1_
  6
DASHED1
 62
    7
 10
2046.8797175245304
 20
1237.0625
 11
2076.8080675245305
 21
1237.0625
  0
LINE
  8
_1-1_
  6
DASHED1
 62
    7
 10
2078.2223175245308
 20
1236.4767000000002
 11
2085.7580675245304
 21
1228.9409000000001
  0
LINE
  8
_1-1_
  6
DASHED1
 62
    7
 10
2080.0507175245311
 20
1241.0625
 11
2047.8797175245304
 21
1241.0625
  0
LINE
  8
_1-1_
  6
DASHED1
 62
    7
 10
2083.5862675245307
 20
1239.5980500000001
 11
2087.3644175245308
 21
1235.8198500000001
  0
LINE
  8
_1-1_
  6
DASHED1
 62
    7
 10
2082.6796675245305
 20
1231.0625
 11
2091.9896675245309
 21
1231.0625
  0
LINE
  8
_1-1_
  6
DASHED1
 62
    7
 10
2101.3796675245303
 20
1220.1324999999999
 11
2101.3796675245303
 21
1240.8525
  0
LINE
  8
_1-1_
  6
DASHED1
 62
    7
 10
2057.3797175245309
 20
1237.0625
 11
2057.3797175245309
 21
1241.0625
  0
LINE
  8
_1-1_
  6
DASHED1
 62
    7
 10
2051.8797175245304
 20
1241.0625
 11
2051.8797175245304
 21
1237.0625
  0
LINE
  8
_1-1_
  6
DASHED1
 62
    7
 10
2048.8797175245309
 20
1231.0625
 11
2055.8797175245309
 21
1231.0625
  0
LINE
  8
_1-1_
  6
DASHED1
 62
    7
 10
2055.8797175245309
 20
1232.2225000000001
 11
2055.8797175245309
 21
1231.0625
  0
LINE
  8
_1-1_
  6
DASHED1
 62
    7
 10
2055.8797175245309
 20
1232.2225000000001
 11
2051.8797175245304
 21
1235.7625
  0
LINE
  8
_1-1_
  6
DASHED1
 62
    7
 10
2114.3087675245306
 20
1225.3406500000001
 11
2115.2690675245303
 21
1233.1619000000001
  0
LINE
  8
_1-1_
  6
DASHED1
 62
    7
 10
2115.2738175245308
 20
1233.1603500000001
 11
2109.5888175245309
 21
1235.0625
  0
LINE
  8
_1-1_
  6
DASHED1
 62
    7
 10
2099.3796675245308
 20
1234.0625
 11
2087.8796675245308
 21
1234.0625
  0
LINE
  8
_1-1_
  6
DASHED1
 62
    7
 10
2099.3796675245308
 20
1234.0625
 11
2099.3796675245308
 21
1235.0625
  0
LINE
  8
_1-1_
  6
DASHED1
 62
    7
 10
2099.3796675245308
 20
1235.0625
 11
2109.5888175245309
 21
1235.0625
  0
LINE
  8
_1-1_
  6
DASHED1
 62
    7
 10
2096.2738175245304
 20
1228.1487
 11
2096.2738175245304
 21
1227.44685
  0
LINE
  8
_1-1_
  6
DASHED1
 62
    7
 10
2096.2738175245304
 20
1228.1487
 11
2099.7738175245308
 21
1231.0261
  0
LINE
  8
_1-1_
  6
DASHED1
 62
    7
 10
2106.7738175245308
 20
1230.1782000000001
 11
2106.7738175245308
 21
1226.5588499999999
  0
LINE
  8
_1-1_
  6
DASHED1
 62
    7
 10
2096.2738175245304
 20
1227.44685
 11
2099.7738175245308
 21
1230.6079
  0
LINE
  8
_1-1_
  6
DASHED1
 62
    7
 10
2106.7738175245308
 20
1226.5588499999999
 11
2106.7738175245308
 21
1227.0774000000001
  0
LINE
  8
_1-1_
  6
DASHED1
 62
    7
 10
2090.1796675245305
 20
1239.0625
 11
2090.1796675245305
 21
1234.2347500000001
  0
LINE
  8
_1-1_
  6
DASHED1
 62
    7
 10
2085.5796675245306
 20
1239.0625
 11
2085.5796675245306
 21
1237.6045999999999
  0
LINE
  8
_1-1_
  6
DASHED1
 62
    7
 10
2085.5796675245306
 20
1237.6045999999999
 11
2085.5796675245306
 21
1230.39995
  0
LINE
  8
_1-1_
  6
DASHED1
 62
    7
 10
2090.1796675245305
 20
1234.2347500000001
 11
2090.1796675245305
 21
1231.0625
  0
LINE
  8
_1-1_
  6
DASHED1
 62
    7
 10
2084.3796675245308
 20
1238.8045999999999
 11
2084.3796675245308
 21
1241.865
  0
LINE
  8
_1-1_
  6
DASHED1
 62
    7
 10
2084.3796675245308
 20
1228.6965
 11
2084.3796675245308
 21
1230.31935
  0
LINE
  8
_1-1_
  6
DASHED1
 62
    7
 10
2084.3796675245308
 20
1238.8045999999999
 11
2084.3796675245308
 21
1230.31935
  0
LINE
  8
_1-1_
  6
DASHED1
 62
    7
 10
2080.8796675245312
 20
1235.0625
 11
2080.8796675245312
 21
1234.5625
  0
LINE
  8
_1-1_
  6
DASHED1
 62
    7
 10
2076.8080675245305
 20
1237.0625
 11
2058.8796675245303
 21
1237.0625
  0
LINE
  8
_1-1_
  6
DASHED1
 62
    7
 10
2078.8796675245303
 20
1237.0625
 11
2077.2796675245309
 21
1237.0625
  0
LINE
  8
_1-1_
  6
DASHED1
 62
    7
 10
2068.0582175245308
 20
1240.9625000000001
 11
2072.4796675245307
 21
1240.9625000000001
  0
LINE
  8
_1-1_
  6
DASHED1
 62
    7
 10
2072.4866675245307
 20
1242.0190499999999
 11
2072.4807675245306
 21
1240.9625000000001
  0
LINE
  8
_1-1_
  6
DASHED1
 62
    7
 10
2078.2731675245309
 20
1241.9226000000001
 11
2078.2785675245309
 21
1240.9625000000001
  0
LINE
  8
_1-1_
  6
DASHED1
 62
    7
 10
2078.2796675245304
 20
1240.9625000000001
 11
2080.1392175245305
 21
1240.9625000000001
  0
LINE
  8
_1-1_
  6
DASHED1
 62
    7
 10
2077.2796675245309
 20
1237.0625
 11
2077.2796675245309
 21
1241.9715000000001
  0
LINE
  8
_1-1_
  6
DASHED1
 62
    7
 10
2073.4796675245307
 20
1237.0625
 11
2073.4796675245307
 21
1242.00305
  0
LINE
  8
_1-1_
  6
DASHED1
 62
    7
 10
2100.3796675245308
 20
1237.5625
 11
2100.3796675245308
 21
1242.5625
  0
LINE
  8
_1-1_
  6
DASHED1
 62
    7
 10
2090.1796675245305
 20
1239.0625
 11
2090.1796675245305
 21
1234.2625
  0
LINE
  8
_1-1_
  6
DASHED1
 62
    7
 10
2103.6796675245305
 20
1239.0625
 11
2084.4796675245307
 21
1239.0625
  0
LINE
  8
_1-1_
  6
DASHED1
 62
    7
 10
2086.4796675245307
 20
1239.0625
 11
2086.4796675245307
 21
1234.0625
  0
LINE
  8
_1-1_
  6
DASHED1
 62
    7
 10
2086.4796675245307
 20
1234.0625
 11
2085.8796675245312
 21
1234.0625
  0
LINE
  8
_1-1_
  6
DASHED1
 62
    7
 10
2103.6796675245305
 20
1239.0625
 11
2105.8796675245312
 21
1240.0625
  0
LINE
  8
_1-1_
  6
DASHED1
 62
    7
 10
2115.1796675245305
 20
1240.0625
 11
2115.1796675245305
 21
1238.0625
  0
LINE
  8
_1-1_
  6
DASHED1
 62
    7
 10
2116.8796675245308
 20
1240.0625
 11
2105.8796675245312
 21
1240.0625
  0
LINE
  8
_1-1_
  6
DASHED1
 62
    7
 10
2116.8796675245308
 20
1241.2625
 11
2084.4796675245307
 21
1241.7625
  0
LINE
  8
_1-1_
  6
DASHED1
 62
    7
 10
2116.8796675245308
 20
1241.2625
 11
2116.8796675245308
 21
1240.0625
  0
LINE
  8
_1-1_
  6
DASHED1
 62
    7
 10
2115.8796675245312
 20
1238.0625
 11
2115.1796675245305
 21
1238.0625
  0
LINE
  8
_1-1_
  6
DASHED1
 62
    7
 10
2084.4796675245307
 20
1234.0625
 11
2085.8796675245312
 21
1234.0625
  0
LINE
  8
_1-1_
  6
DASHED1
 62
    7
 10
2084.4796675245307
 20
1241.7625
 11
2084.4796675245307
 21
1238.7046
  0
LINE
  8
_1-1_
  6
DASHED1
 62
    7
 10
2085.8796675245312
 20
1239.0625
 11
2085.8796675245312
 21
1237.3046000000002
  0
LINE
  8
_1-1_
  6
DASHED1
 62
    7
 10
2085.8796675245312
 20
1237.3046000000002
 11
2085.8796675245312
 21
1234.2625
  0
LINE
  8
_1-1_
  6
DASHED1
 62
    7
 10
2084.4796675245307
 20
1238.7046
 11
2084.4796675245307
 21
1234.0625
  0
LINE
  8
_1-1_
  6
DASHED1
 62
    7
 10
2089.1796675245309
 20
1233.2625
 11
2086.8796675245308
 21
1233.2625
  0
LINE
  8
_1-1_
  6
DASHED1
 62
    7
 10
2115.8796675245312
 20
1240.9625000000001
 11
2085.4796675245307
 21
1240.9625000000001
  0
LINE
  8
_1-1_
  6
DASHED1
 62
    7
 10
2085.4796675245307
 20
1240.9625000000001
 11
2085.4796675245307
 21
1241.7440000000001
  0
LINE
  8
_1-1_
  6
DASHED1
 62
    7
 10
2107.9296675245309
 20
1240.0625
 11
2116.8796675245308
 21
1240.0625
  0
LINE
  8
_1-1_
  6
DASHED1
 62
    7
 10
2115.8796675245312
 20
1240.9625000000001
 11
2115.8796675245312
 21
1241.2779500000001
  0
LINE
  8
_1-1_
  6
DASHED1
 62
    7
 10
2084.5399175245307
 20
1241.7614000000001
 11
2084.4796675245307
 21
1241.7266
  0
LINE
  8
_1-1_
  6
DASHED1
 62
    7
 10
2092.1562175245303
 20
1240.9625000000001
 11
2088.8653175245308
 21
1239.0625
  0
LINE
  8
_1-1_
  6
DASHED1
 62
    7
 10
2090.6562175245308
 20
1240.9625000000001
 11
2087.3653175245308
 21
1239.0625
  0
LINE
  8
_1-1_
  6
DASHED1
 62
    7
 10
2089.1562175245308
 20
1240.9625000000001
 11
2085.8653175245308
 21
1239.0625
  0
LINE
  8
_1-1_
  6
DASHED1
 62
    7
 10
2087.6562175245308
 20
1240.9625000000001
 11
2084.4796675245307
 21
1239.1285
  0
LINE
  8
_1-1_
  6
DASHED1
 62
    7
 10
2086.1562175245308
 20
1240.9625000000001
 11
2084.4796675245307
 21
1239.9945499999999
  0
LINE
  8
_1-1_
  6
DASHED1
 62
    7
 10
2085.4796675245307
 20
1241.4378999999999
 11
2084.4796675245307
 21
1240.8605500000001
  0
LINE
  8
_1-1_
  6
DASHED1
 62
    7
 10
2105.6562175245308
 20
1240.9625000000001
 11
2102.3653175245308
 21
1239.0625
  0
LINE
  8
_1-1_
  6
DASHED1
 62
    7
 10
2104.1562175245308
 20
1240.9625000000001
 11
2100.8653175245308
 21
1239.0625
  0
LINE
  8
_1-1_
  6
DASHED1
 62
    7
 10
2102.6562175245308
 20
1240.9625000000001
 11
2099.3653175245304
 21
1239.0625
  0
LINE
  8
_1-1_
  6
DASHED1
 62
    7
 10
2101.1562175245308
 20
1240.9625000000001
 11
2097.8653175245308
 21
1239.0625
  0
LINE
  8
_1-1_
  6
DASHED1
 62
    7
 10
2099.6562175245303
 20
1240.9625000000001
 11
2096.3653175245308
 21
1239.0625
  0
LINE
  8
_1-1_
  6
DASHED1
 62
    7
 10
2098.1562175245308
 20
1240.9625000000001
 11
2094.8653175245308
 21
1239.0625
  0
LINE
  8
_1-1_
  6
DASHED1
 62
    7
 10
2096.6562175245308
 20
1240.9625000000001
 11
2093.3653175245308
 21
1239.0625
  0
LINE
  8
_1-1_
  6
DASHED1
 62
    7
 10
2095.1562175245308
 20
1240.9625000000001
 11
2091.8653175245304
 21
1239.0625
  0
LINE
  8
_1-1_
  6
DASHED1
 62
    7
 10
2093.6562175245308
 20
1240.9625000000001
 11
2090.3653175245308
 21
1239.0625
  0
LINE
  8
_1-1_
  6
DASHED1
 62
    7
 10
2107.1562175245303
 20
1240.9625000000001
 11
2104.5525175245307
 21
1239.4592500000001
  0
LINE
  8
_1-1_
  6
DASHED1
 62
    7
 10
2108.6562175245308
 20
1240.9625000000001
 11
2107.0973675245305
 21
1240.0625
  0
LINE
  8
_1-1_
  6
DASHED1
 62
    7
 10
2110.1562175245308
 20
1240.9625000000001
 11
2108.5973675245305
 21
1240.0625
  0
LINE
  8
_1-1_
  6
DASHED1
 62
    7
 10
2111.6562175245308
 20
1240.9625000000001
 11
2110.0973675245309
 21
1240.0625
  0
LINE
  8
_1-1_
  6
DASHED1
 62
    7
 10
2113.1562175245308
 20
1240.9625000000001
 11
2111.5973675245305
 21
1240.0625
  0
LINE
  8
_1-1_
  6
DASHED1
 62
    7
 10
2114.6562175245303
 20
1240.9625000000001
 11
2113.0973675245309
 21
1240.0625
  0
LINE
  8
_1-1_
  6
DASHED1
 62
    7
 10
2116.6811175245307
 20
1241.2655500000001
 11
2114.5973675245305
 21
1240.0625
  0
LINE
  8
_1-1_
  6
DASHED1
 62
    7
 10
2116.8796675245308
 20
1240.51415
 11
2116.0973675245305
 21
1240.0625
  0
LINE
  8
_1-1_
  6
DASHED1
 62
    7
 10
2057.8796675245308
 20
1242.2625
 11
2057.8796675245308
 21
1241.0625
  0
LINE
  8
_1-1_
  6
DASHED1
 62
    7
 10
2057.8796675245308
 20
1241.0625
 11
2057.8796675245308
 21
1238.0625
  0
LINE
  8
_1-1_
  6
DASHED1
 62
    7
 10
2086.4044175245308
 20
1212.5625
 11
2071.8796675245308
 21
1220.9483500000001
  0
LINE
  8
_1-1_
  6
DASHED1
 62
    7
 10
2084.9044175245308
 20
1212.5625
 11
2071.8796675245308
 21
1220.0823499999999
  0
LINE
  8
_1-1_
  6
DASHED1
 62
    7
 10
2083.4044175245303
 20
1212.5625
 11
2071.8553175245306
 21
1219.2303999999999
  0
LINE
  8
_1-1_
  6
DASHED1
 62
    7
 10
2081.9044175245308
 20
1212.5625
 11
2071.8796675245308
 21
1218.3503000000001
  0
LINE
  8
_1-1_
  6
DASHED1
 62
    7
 10
2080.4044175245308
 20
1212.5625
 11
2071.8796675245308
 21
1217.48425
  0
LINE
  8
_1-1_
  6
DASHED1
 62
    7
 10
2078.9044175245308
 20
1212.5625
 11
2071.8796675245308
 21
1216.61825
  0
LINE
  8
_1-1_
  6
DASHED1
 62
    7
 10
2077.4044175245308
 20
1212.5625
 11
2071.8796675245308
 21
1215.7521999999999
  0
LINE
  8
_1-1_
  6
DASHED1
 62
    7
 10
2075.9044175245303
 20
1212.5625
 11
2071.8796675245308
 21
1214.8861999999999
  0
LINE
  8
_1-1_
  6
DASHED1
 62
    7
 10
2074.4044175245308
 20
1212.5625
 11
2071.9700675245308
 21
1213.96795
  0
LINE
  8
_1-1_
  6
DASHED1
 62
    7
 10
2082.8796675245308
 20
1231.0625
 11
2082.8796675245308
 21
1227.5625
  0
LINE
  8
_1-1_
  6
DASHED1
 62
    7
 10
2071.8796675245308
 20
1214.5625
 11
2071.8796675245308
 21
1237.0625
  0
LINE
  8
_1-1_
  6
DASHED1
 62
    7
 10
2073.8796675245303
 20
1212.5625
 11
2111.8796675245308
 21
1212.5625
  0
LINE
  8
_1-1_
  6
DASHED1
 62
    7
 10
2081.8796675245308
 20
1226.5625
 11
2071.8796675245308
 21
1226.5625
  0
LINE
  8
_1-1_
  6
DASHED1
 62
    7
 10
2112.0884675245306
 20
1214.67615
 11
2102.8796675245308
 21
1214.1934999999999
  0
LINE
  8
_1-1_
  6
DASHED1
 62
    7
 10
2088.6703175245307
 20
1214.67615
 11
2099.3796675245308
 21
1214.1149
  0
LINE
  8
_1-1_
  6
DASHED1
 62
    7
 10
2099.7738175245308
 20
1231.0261
 11
2099.7738175245308
 21
1230.6079
  0
LINE
  8
_1-1_
  6
DASHED1
 62
    7
 10
2113.7413675245307
 20
1226.42545
 11
2101.3796675245303
 21
1233.5625
  0
LINE
  8
_1-1_
  6
DASHED1
 62
    7
 10
2114.7330675245307
 20
1228.7963
 11
2103.8796675245303
 21
1235.0625
  0
LINE
  8
_1-1_
  6
DASHED1
 62
    7
 10
2085.9720675245308
 20
1229.4340500000001
 11
2101.3796675245303
 21
1233.5625
  0
LINE
  8
_1-1_
  6
DASHED1
 62
    7
 10
2082.8796675245308
 20
1222.8625
 11
2073.8796675245303
 21
1222.8625
  0
LINE
  8
_1-1_
  6
DASHED1
 62
    7
 10
2082.8796675245308
 20
1222.8625
 11
2082.8796675245308
 21
1218.5625
  0
LINE
  8
_1-1_
  6
DASHED1
 62
    7
 10
2082.8796675245308
 20
1222.8625
 11
2082.8796675245308
 21
1227.5625
  0
LINE
  8
_1-1_
  6
DASHED1
 62
    7
 10
2050.6297175245304
 20
1233.5625
 11
2048.1297175245304
 21
1233.5625
  0
LINE
  8
_1-1_
  6
DASHED1
 62
    7
 10
2048.1297175245304
 20
1241.0625
 11
2048.1297175245304
 21
1233.5625
  0
LINE
  8
_1-1_
  6
DASHED1
 62
    7
 10
2050.6297175245304
 20
1241.0625
 11
2050.6297175245304
 21
1233.5625
  0
LINE
  8
_1-1_
  6
DASHED1
 62
    7
 10
2049.3797175245304
 20
1231.9724999999999
 11
2049.3797175245304
 21
1243.0625
  0
ARC
  8
_1-1_
  6
DASHED1
 62
    7
 10
2111.8796675245308
 20
1218.5625
 40
6.0000000000000009
 50
269.99999999999989
 51
359.99999999999989
  0
ARC
  8
_1-1_
  6
DASHED1
 62
    7
 10
2088.8796675245303
 20
1218.6706999999999
 40
4
 50
179.99999999999991
 51
202.63099999999989
  0
ARC
  8
_1-1_
  6
DASHED1
 62
    7
 10
2111.8796675245308
 20
1218.6601999999998
 40
4
 50
304.46999999999991
 51
359.99999999999994
  0
ARC
  8
_1-1_
  6
DASHED1
 62
    7
 10
2078.8796675245303
 20
1233.0625
 40
4
 50
84.812999999999974
 51
89.999999999999972
  0
ARC
  8
_1-1_
  6
DASHED1
 62
    7
 10
2078.8796675245303
 20
1233.0625
 40
4
 50
359.99999999999994
 51
84.812999999999988
  0
CIRCLE
  8
_1-1_
  6
DASHED1
 62
    7
 10
2087.8796675245308
 20
1231.0625
 40
2.1000000000000001
  0
CIRCLE
  8
_1-1_
  6
DASHED1
 62
    7
 10
2087.8796675245308
 20
1231.0625
 40
3.0000000000000004
  0
ARC
  8
_1-1_
  6
DASHED1
 62
    7
 10
2047.8797175245304
 20
1240.0625
 40
1
 50
89.999999999999972
 51
180
  0
ARC
  8
_1-1_
  6
DASHED1
 62
    7
 10
2090.0473175245306
 20
1233.13645
 40
6.0000000000000009
 50
223.73399999999992
 51
281.21399999999994
  0
CIRCLE
  8
_1-1_
  6
DASHED1
 62
    7
 10
2087.8796675245308
 20
1231.0625
 40
3.0000000000000004
  0
CIRCLE
  8
_1-1_
  6
DASHED1
 62
    7
 10
2087.8796675245308
 20
1231.0625
 40
2.1000000000000001
  0
ARC
  8
_1-1_
  6
DASHED1
 62
    7
 10
2076.8080675245305
 20
1235.0625
 40
2
 50
44.999999999999964
 51
89.999999999999972
  0
ARC
  8
_1-1_
  6
DASHED1
 62
    7
 10
2080.0507175245311
 20
1236.0625
 40
5
 50
44.999999999999964
 51
89.999999999999972
  0
ARC
  8
_1-1_
  6
DASHED1
 62
    7
 10
2091.6070675245305
 20
1240.0625
 40
6.0000000000000009
 50
224.99999999999994
 51
269.99999999999994
  0
ARC
  8
_1-1_
  6
DASHED1
 62
    7
 10
2085.7132675245302
 20
1230.39995
 40
1
 50
224.99999999999991
 51
284.99999999999994
  0
ARC
  8
_1-1_
  6
DASHED1
 62
    7
 10
2115.2456175245306
 20
1234.25325
 40
10
 50
240.93599999999992
 51
257.62099999999992
  0
ARC
  8
_1-1_
  6
DASHED1
 62
    7
 10
2113.3162175245307
 20
1225.4625000000001
 40
1
 50
257.62099999999987
 51
352.99999999999994
  0
ARC
  8
_1-1_
  6
DASHED1
 62
    7
 10
2099.4796675245307
 20
1185.5625
 40
42.00685
 50
86.961999999999975
 51
94.376999999999981
  0
ARC
  8
_1-1_
  6
DASHED1
 62
    7
 10
2100.6721175245311
 20
1208.0309
 40
19.50685
 50
71.771999999999977
 51
86.961999999999975
  0
ARC
  8
_1-1_
  6
DASHED1
 62
    7
 10
2099.4796675245307
 20
1185.5625
 40
42.706699999999998
 50
86.961999999999975
 51
94.304999999999993
  0
ARC
  8
_1-1_
  6
DASHED1
 62
    7
 10
2100.6721175245311
 20
1208.0309
 40
20.206700000000005
 50
72.423999999999978
 51
86.961999999999975
  0
ARC
  8
_1-1_
  6
DASHED1
 62
    7
 10
2099.4796675245307
 20
1185.5625
 40
42.5
 50
86.961999999999975
 51
101.21399999999998
  0
ARC
  8
_1-1_
  6
DASHED1
 62
    7
 10
2100.6721175245311
 20
1208.0309
 40
20
 50
60.935999999999986
 51
87.972999999999985
  0
ARC
  8
_1-1_
  6
DASHED1
 62
    7
 10
2113.9913675245307
 20
1226.8585
 40
0.5
 50
239.99999999999994
 51
352.99999999999994
  0
ARC
  8
_1-1_
  6
DASHED1
 62
    7
 10
2087.8796675245308
 20
1231.0625
 40
2.2999999999999998
 50
179.99999999999989
 51
359.99999999999994
  0
ARC
  8
_1-1_
  6
DASHED1
 62
    7
 10
2078.8796675245303
 20
1235.0625
 40
2
 50
359.99999999999994
 51
89.999999999999972
  0
ARC
  8
_1-1_
  6
DASHED1
 62
    7
 10
2082.8796675245308
 20
1234.5625
 40
2
 50
179.99999999999989
 51
209.99999999999991
  0
ARC
  8
_1-1_
  6
DASHED1
 62
    7
 10
2086.8796675245308
 20
1234.2625
 40
1
 50
179.99999999999991
 51
269.99999999999994
  0
ARC
  8
_1-1_
  6
DASHED1
 62
    7
 10
2089.1796675245309
 20
1234.2625
 40
1
 50
269.99999999999989
 51
359.99999999999989
  0
ARC
  8
_1-1_
  6
DASHED1
 62
    7
 10
2058.8796675245303
 20
1238.0625
 40
1
 50
179.99999999999991
 51
269.99999999999994
  0
ARC
  8
_1-1_
  6
DASHED1
 62
    7
 10
2100.9396675245307
 20
1222.8525
 40
8.7300000000000004
 50
146.57599999999996
 51
22.665999999999997
  0
ARC
  8
_1-1_
  6
DASHED1
 62
    7
 10
2073.8796675245303
 20
1223.8625
 40
1
 50
179.99999999999991
 51
269.99999999999994
  0
ARC
  8
_1-1_
  6
DASHED1
 62
    7
 10
2081.8796675245308
 20
1227.5625
 40
1
 50
269.99999999999989
 51
359.99999999999989
  0
ARC
  8
_1-1_
  6
DASHED1
 62
    7
 10
2073.8796675245303
 20
1214.5625
 40
2
 50
179.99999999999991
 51
269.99999999999994
  0
ARC
  8
_1-1_
  6
DASHED1
 62
    7
 10
2111.8796675245308
 20
1218.6601999999998
 40
4
 50
272.99999999999994
 51
304.46999999999997
  0
ARC
  8
_1-1_
  6
DASHED1
 62
    7
 10
2088.8796675245303
 20
1218.6706999999999
 40
4
 50
202.63099999999989
 51
266.99999999999994
  0
ARC
  8
_1-1_
  6
DASHED1
 62
    7
 10
2099.4796675245307
 20
1185.5625
 40
45.472499999999997
 50
86.961999999999975
 51
89.628999999999991
  0
ARC
  8
_1-1_
  6
DASHED1
 62
    7
 10
2099.4796675245307
 20
1185.5625
 40
45.046349999999997
 50
86.961999999999975
 51
89.625999999999976
  0
ARC
  8
_1-1_
  6
DASHED1
 62
    7
 10
2100.6721175245311
 20
1208.0309
 40
22.54635
 50
74.297999999999973
 51
86.961999999999975
  0
ARC
  8
_1-1_
  6
DASHED1
 62
    7
 10
2100.6721175245311
 20
1208.0309
 40
22.9725
 50
74.596999999999966
 51
86.961999999999961
  0
ARC
  8
_1-1_
  6
DASHED1
 62
    7
 10
2100.9396675245307
 20
1222.8525
 40
8.7300000000000004
 50
22.665999999999976
 51
146.57599999999999
  0
ARC
  8
_1-1_
  6
DASHED1
 62
    7
 10
2088.8796675245303
 20
1218.5625
 40
6.0000000000000009
 50
179.99999999999991
 51
269.99999999999994
  0
LINE
  8
_1-1_
  6
DASHED1
 62
    7
 10
2100.3796675245308
 20
1243.1624999999999
 11
2100.3796675245308
 21
1208.7625
  0
ARC
  8
_1-1_
  6
DASHED1
 62
    7
 10
2036.5796675245304
 20
1227
 40
1.2
 50
90.000000000000028
 51
180.00000000000006
  0
ARC
  8
_1-1_
  6
DASHED1
 62
    7
 10
2036.5796675245304
 20
1227
 40
1.2
 50
90.000000000000028
 51
180.00000000000006
  0
LINE
  8
_1-1_
  6
DASHED1
 62
    7
 10
2035.3796675245303
 20
1224
 11
2036.5796675245304
 21
1224
  0
LINE
  8
_1-1_
  6
DASHED1
 62
    7
 10
2036.5796675245304
 20
1227
 11
2036.5796675245304
 21
1207
  0
LINE
  8
_1-1_
  6
DASHED1
 62
    7
 10
2035.3796675245303
 20
1207
 11
2036.5796675245304
 21
1207
  0
LINE
  8
_1-1_
  6
DASHED1
 62
    7
 10
2035.3796675245303
 20
1227
 11
2035.3796675245303
 21
1207
  0
LINE
  8
_1-1_
  6
DASHED1
 62
    7
 10
2036.5796675245304
 20
1226.5
 11
2036.5796675245304
 21
1211.3593000000001
  0
LINE
  8
_1-1_
  6
DASHED1
 62
    7
 10
2037.0796675245301
 20
1227
 11
2052.2203675245305
 21
1227
  0
LINE
  8
_1-1_
  6
DASHED1
 62
    7
 10
2066.3796675245299
 20
1227
 11
2066.3796675245299
 21
1228.1999999999998
  0
LINE
  8
_1-1_
  6
DASHED1
 62
    7
 10
2036.5796675245304
 20
1228.1999999999998
 11
2072.3796675245303
 21
1228.1999999999998
  0
LINE
  8
_1-1_
  6
DASHED1
 62
    7
 10
2036.5796675245304
 20
1227
 11
2072.3796675245303
 21
1227
  0
LINE
  8
_1-1_
  6
DASHED1
 62
    7
 10
2072.3796675245303
 20
1228.1999999999998
 11
2072.3796675245303
 21
1227
  0
LINE
  8
_0-3_
  6
DASHED1
 62
    2
 10
714.49999999999989
 20
1257
 11
714.49999999999989
 21
757
  0
LINE
  8
_0-3_
  6
DASHED1
 62
    2
 10
1385.5
 20
1257
 11
1385.5
 21
757
  0
LINE
  8
_0-3_
  6
DASHED1
 62
    2
 10
714.49999999999989
 20
777.5
 11
1385.5
 21
777.5
  0
LINE
  8
_0-3_
  6
DASHED1
 62
    2
 10
714.49999999999989
 20
1242
 11
1385.5
 21
1242
  0
LINE
  8
_0-3_
  6
DASHED1
 62
    2
 10
705.50000000000011
 20
757
 11
1394.5
 21
757
  0
POINT
  8
_0-9_
 62
    3
 10
2359.8796675245308
 20
1124.9741099714017
  0
POINT
  8
_0-9_
 62
    3
 10
2359.8796675245308
 20
1124.9741099714017
  0
POINT
  8
_0-9_
 62
    3
 10
2069.8796675245308
 20
1124.9741099714017
  0
LINE
  8
_0-9_
  6
CONTINUOUS
 62
    4
 10
2359.8796675245308
 20
1124.9741099714017
 11
2069.8796675245308
 21
1124.9741099714017
  0
TEXT
  8
_0-9_
 62
    7
 10
2181.7796675245309
 20
1124.9741099714017
 40
35
 41
0.6285714285714286
 50
0
  1
２９０
  0
LINE
  8
_0-9_
  6
CONTINUOUS
 62
    4
 10
2069.8796675245308
 20
1134.9741099714017
 11
2069.8796675245308
 21
1048.6022634676324
  0
LINE
  8
_0-9_
  6
CONTINUOUS
 62
    4
 10
2359.8796675245308
 20
1134.9741099714017
 11
2359.8796675245308
 21
1048.6022634676324
  0
LINE
  8
ADD_LINE
  6
DOT
 62
    9
 10
1993.3796675245299
 20
1327
 11
1865.8924610501249
 21
1327
  0
LINE
  8
ADD_LINE
  6
DOT
 62
    9
 10
1993.3796675245299
 20
1487
 11
1865.8924610501249
 21
1487
  0
LINE
  8
ADD_LINE
  6
DOT
 62
    9
 10
1993.3796675245299
 20
1407
 11
1865.8924610501249
 21
1407
  0
LINE
  8
ADD_LINE
  6
DOT
 62
    9
 10
1953.3796675245299
 20
727
 11
1953.3796675245299
 21
664.96113536658481
  0
LINE
  8
ADD_LINE
  6
DOT
 62
    9
 10
1513.3796675245299
 20
727
 11
1513.3796675245299
 21
664.96113536658481
  0
LINE
  8
ADD_LINE
  6
DOT
 62
    9
 10
1873.3796675245299
 20
727
 11
1873.3796675245299
 21
664.96113536658481
  0
LINE
  8
ADD_LINE
  6
DOT
 62
    9
 10
1430
 20
607
 11
1513.3796675245299
 21
607
  0
LINE
  8
ADD_LINE
  6
DOT
 62
    9
 10
1430
 20
527
 11
1513.3796675245299
 21
527
  0
TEXT
  8
_0-d_
 62
    7
 10
3859.8692808597489
 20
2080.453069773193
 40
35
 41
0.8571428571428571
 50
0
  1
扉　色
  0
TEXT
  8
_0-d_
 62
    7
 10
3714.9604406654853
 20
2012.953069773193
 40
35
 41
0.8571428571428571
 50
0
  1
ＳＷ
  0
TEXT
  8
_0-d_
 62
    7
 10
3829.4903410729094
 20
2012.953069773193
 40
35
 41
0.8571428571428571
 50
0
  1
ホワイト
  0
TEXT
  8
_0-d_
 62
    7
 10
3719.951896075173
 20
1953.5423965889731
 40
35
 41
0.8571428571428571
 50
0
  1
ＬＧ
  0
TEXT
  8
_0-d_
 62
    7
 10
3829.5893349779444
 20
1953.5423965889731
 40
35
 41
0.8571428571428571
 50
0
  1
木　　目
  0
TEXT
  8
_0-d_
 62
    7
 10
3714.9604406654853
 20
1887.9530697731923
 40
35
 41
0.8571428571428571
 50
0
  1
ＵＷ
  0
TEXT
  8
_0-d_
 62
    7
 10
3829.4903410729084
 20
1887.9530697731923
 40
35
 41
0.8571428571428571
 50
0
  1
ｳﾙﾄﾗﾎﾜｲﾄ（艶有）
  0
TEXT
  8
_0-d_
 62
    7
 10
3719.951896075173
 20
1828.5423965889729
 40
35
 41
0.8571428571428571
 50
0
  1
ＷＮ
  0
TEXT
  8
_0-d_
 62
    7
 10
3829.4903410729094
 20
1827.9530697731923
 40
35
 41
0.8571428571428571
 50
0
  1
ｳｨﾝｻﾞｰﾅｯﾄ（艶有）
  0
TEXT
  8
_0-d_
 62
    7
 10
3719.951896075173
 20
1768.5423965889727
 40
35
 41
0.8571428571428571
 50
0
  1
ＢＳ
  0
TEXT
  8
_0-d_
 62
    7
 10
3829.5893349779444
 20
1768.5423965889727
 40
35
 41
0.8571428571428571
 50
0
  1
ブラックストーン
  0
TEXT
  8
_0-d_
 62
    7
 10
3719.951896075173
 20
1708.5423965889727
 40
35
 41
0.8571428571428571
 50
0
  1
ＰＭ
  0
TEXT
  8
_0-d_
 62
    7
 10
3829.5893349779453
 20
1708.5423965889727
 40
35
 41
0.8571428571428571
 50
0
  1
ペールグレイン
  0
TEXT
  8
_0-d_
 62
    7
 10
3719.951896075173
 20
1648.5423965889727
 40
35
 41
0.8571428571428571
 50
0
  1
ＭＤ
  0
TEXT
  8
_0-d_
 62
    7
 10
3829.5893349779453
 20
1648.5423965889727
 40
35
 41
0.8571428571428571
 50
0
  1
ダークグレイン
  0
TEXT
  8
_0-d_
 62
    7
 10
2913.8437946156864
 20
2725.1330729428532
 40
35
 41
0.8571428571428571
 50
0
  1
天　板
  0
TEXT
  8
_0-d_
 62
    7
 10
3279.4915235721828
 20
2795.453069773193
 40
35
 41
0.8571428571428571
 50
0
  1
仕　様
  0
TEXT
  8
_0-d_
 62
    7
 10
3173.9910235721818
 20
2722.953069773193
 40
35
 41
0.8571428571428571
 50
0
  1
片面化粧パーティクルボード　１５ｔ
  0
TEXT
  8
_0-d_
 62
    7
 10
2913.9910235721836
 20
2232.953069773193
 40
35
 41
0.8571428571428571
 50
0
  1
棚　板
  0
TEXT
  8
_0-d_
 62
    7
 10
2913.9910235721836
 20
2302.953069773193
 40
35
 41
0.8571428571428571
 50
0
  1
丁　番
  0
TEXT
  8
_0-d_
 62
    7
 10
2913.9910235721827
 20
2372.953069773193
 40
35
 41
0.8571428571428571
 50
0
  1
　扉
  0
TEXT
  8
_0-d_
 62
    7
 10
2913.9910235721836
 20
2442.953069773193
 40
35
 41
0.8571428571428571
 50
0
  1
背　板
  0
TEXT
  8
_0-d_
 62
    7
 10
2913.9910235721804
 20
2512.953069773193
 40
35
 41
0.8571428571428571
 50
0
  1
見　上　板
  0
TEXT
  8
_0-d_
 62
    7
 10
2913.9910235721809
 20
2652.953069773193
 40
35
 41
0.8571428571428571
 50
0
  1
左　側　板
  0
TEXT
  8
_0-d_
 62
    7
 10
2913.9910235721804
 20
2582.953069773193
 40
35
 41
0.8571428571428571
 50
0
  1
右　側　板
  0
TEXT
  8
_0-d_
 62
    7
 10
3173.9910235721818
 20
2512.953069773193
 40
35
 41
0.8571428571428571
 50
0
  1
両面フラッシュ２０．５ｔ　片面不燃材６ｔ貼
  0
TEXT
  8
_0-d_
 62
    7
 10
3176.4350544529957
 20
2652.9826101069716
 40
35
 41
0.8571428571428571
 50
0
  1
両面フラッシュ１４．５ｔ　片側不燃材９ｔ貼
  0
TEXT
  8
_0-d_
 62
    7
 10
3173.9910235721809
 20
2162.953069773193
 40
35
 41
0.8571428571428571
 50
0
  1
アルミ一文字把手
  0
TEXT
  8
_0-d_
 62
    7
 10
3173.9910235721823
 20
2442.953069773193
 40
35
 41
0.8571428571428571
 50
0
  1
カラーＭＤＦ・落とし込み
  0
TEXT
  8
_0-d_
 62
    7
 10
2913.9910235721809
 20
2162.953069773193
 40
35
 41
0.8571428571428571
 50
0
  1
把　手
  0
TEXT
  8
_0-d_
 62
    7
 10
3173.9910235721823
 20
2232.953069773193
 40
35
 41
0.8571428571428571
 50
0
  1
可動式　棚板　１５ｔ
  0
TEXT
  8
_0-d_
 62
    7
 10
3173.9910235721823
 20
2302.953069773193
 40
35
 41
0.8571428571428571
 50
0
  1
ワンタッチスライド式丁番
  0
TEXT
  8
_0-d_
 62
    7
 10
3176.4350544529957
 20
2582.9826101069716
 40
35
 41
0.8571428571428571
 50
0
  1
両面フラッシュ１４．５ｔ　片側不燃材９ｔ貼
  0
TEXT
  8
_0-d_
 62
    7
 10
3173.9910235721809
 20
2372.953069773193
 40
35
 41
0.8571428571428571
 50
0
  1
両面化粧パ－ティクルボ－ド　１２ｔ　耐震ラッチ付
  0
LINE
  8
ADD_LINE
  6
DOT
 62
    9
 10
3684.4903410729094
 20
2130.453069773193
 11
3699.4903410729094
 21
2130.453069773193
  0
LINE
  8
ADD_LINE
  6
DOT
 62
    9
 10
3699.4903410729094
 20
2130.453069773193
 11
3699.4903410729094
 21
2145.453069773193
  0
LINE
  8
ADD_LINE
  6
DOT
 62
    9
 10
3699.4903410729094
 20
2145.453069773193
 11
3684.4903410729094
 21
2145.453069773193
  0
LINE
  8
ADD_LINE
  6
DOT
 62
    9
 10
3684.4903410729094
 20
2145.453069773193
 11
3684.4903410729094
 21
2130.453069773193
  0
LINE
  8
_0-d_
  6
CONTINUOUS
 62
    3
 10
4114.2482206465884
 20
2130.453069773193
 11
4114.2482206465884
 21
1635.4530697731921
  0
LINE
  8
ADD_LINE
  6
DOT
 62
    9
 10
3829.4903410729094
 20
2060.453069773193
 11
3829.4903410729094
 21
1940.4530697731923
  0
LINE
  8
_0-d_
  6
CONTINUOUS
 62
    7
 10
3799.4903410729094
 20
2060.453069773193
 11
3799.4903410729094
 21
1940.4530697731923
  0
LINE
  8
ADD_LINE
  6
DOT
 62
    9
 10
3749.4903410729094
 20
2060.453069773193
 11
3749.4903410729094
 21
1940.4530697731923
  0
LINE
  8
_0-d_
  6
CONTINUOUS
 62
    3
 10
3699.4903410729094
 20
2130.453069773193
 11
3699.4903410729094
 21
1635.4530697731921
  0
LINE
  8
_0-d_
  6
CONTINUOUS
 62
    7
 10
3799.4903410729094
 20
1935.4530697731923
 11
3799.4903410729094
 21
1635.4530697731921
  0
LINE
  8
ADD_LINE
  6
DOT
 62
    9
 10
3829.4903410729094
 20
1935.4530697731923
 11
3829.4903410729094
 21
1635.4530697731921
  0
LINE
  8
ADD_LINE
  6
DOT
 62
    9
 10
3749.4903410729094
 20
1935.4530697731923
 11
3749.4903410729094
 21
1635.4530697731921
  0
LINE
  8
_0-d_
  6
CONTINUOUS
 62
    3
 10
4114.2482206465884
 20
2130.453069773193
 11
3699.4903410729094
 21
2130.453069773193
  0
LINE
  8
_0-d_
  6
CONTINUOUS
 62
    3
 10
4114.2482206465884
 20
1635.4530697731921
 11
3699.4903410729094
 21
1635.4530697731921
  0
LINE
  8
_0-d_
  6
CONTINUOUS
 62
    7
 10
3699.4903410729094
 20
2000.453069773193
 11
4114.2482206465884
 21
2000.453069773193
  0
LINE
  8
_0-d_
  6
CONTINUOUS
 62
    7
 10
4114.2482206465884
 20
2000.453069773193
 11
3699.4903410729094
 21
2000.453069773193
  0
LINE
  8
_0-d_
  6
CONTINUOUS
 62
    3
 10
4114.2482206465884
 20
2000.453069773193
 11
3699.4903410729094
 21
2000.453069773193
  0
LINE
  8
_0-d_
  6
CONTINUOUS
 62
    3
 10
4114.2482206465884
 20
1940.4530697731923
 11
3699.4903410729094
 21
1940.4530697731923
  0
LINE
  8
ADD_LINE
  6
DOT
 62
    9
 10
3699.4903410729094
 20
1970.4530697731923
 11
4114.2482206465884
 21
1970.4530697731923
  0
LINE
  8
_0-d_
  6
CONTINUOUS
 62
    7
 10
4114.2482206465884
 20
1875.4530697731923
 11
3699.4903410729094
 21
1875.4530697731923
  0
LINE
  8
_0-d_
  6
CONTINUOUS
 62
    3
 10
4114.2482206465884
 20
1875.4530697731923
 11
3699.4903410729094
 21
1875.4530697731923
  0
LINE
  8
_0-d_
  6
CONTINUOUS
 62
    3
 10
4114.2482206465884
 20
1815.4530697731923
 11
3699.4903410729094
 21
1815.4530697731923
  0
LINE
  8
_0-d_
  6
CONTINUOUS
 62
    7
 10
3699.4903410729094
 20
1875.4530697731923
 11
4114.2482206465884
 21
1875.4530697731923
  0
LINE
  8
_0-d_
  6
CONTINUOUS
 62
    7
 10
4114.2482206465884
 20
1940.4530697731923
 11
3699.4903410729094
 21
1940.4530697731923
  0
LINE
  8
_0-d_
  6
CONTINUOUS
 62
    7
 10
4114.2482206465884
 20
1935.4530697731923
 11
3699.4903410729094
 21
1935.4530697731923
  0
LINE
  8
ADD_LINE
  6
DOT
 62
    9
 10
3699.4903410729094
 20
1905.4530697731923
 11
4114.2482206465884
 21
1905.4530697731923
  0
LINE
  8
ADD_LINE
  6
DOT
 62
    9
 10
3699.4903410729094
 20
1845.4530697731923
 11
4114.2482206465884
 21
1845.4530697731923
  0
LINE
  8
_0-d_
  6
CONTINUOUS
 62
    7
 10
4114.2482206465884
 20
1815.4530697731923
 11
3699.4903410729094
 21
1815.4530697731923
  0
LINE
  8
_0-d_
  6
CONTINUOUS
 62
    3
 10
4114.2482206465884
 20
1815.4530697731923
 11
3699.4903410729094
 21
1815.4530697731923
  0
LINE
  8
_0-d_
  6
CONTINUOUS
 62
    3
 10
4114.2482206465884
 20
1755.4530697731921
 11
3699.4903410729094
 21
1755.4530697731921
  0
LINE
  8
_0-d_
  6
CONTINUOUS
 62
    7
 10
3699.4903410729094
 20
1815.4530697731923
 11
4114.2482206465884
 21
1815.4530697731923
  0
LINE
  8
ADD_LINE
  6
DOT
 62
    9
 10
3699.4903410729094
 20
1785.4530697731921
 11
4114.2482206465884
 21
1785.4530697731921
  0
LINE
  8
_0-d_
  6
CONTINUOUS
 62
    7
 10
4114.2482206465884
 20
1755.4530697731921
 11
3699.4903410729094
 21
1755.4530697731921
  0
LINE
  8
_0-d_
  6
CONTINUOUS
 62
    3
 10
4114.2482206465884
 20
1755.4530697731921
 11
3699.4903410729094
 21
1755.4530697731921
  0
LINE
  8
_0-d_
  6
CONTINUOUS
 62
    3
 10
4114.2482206465884
 20
1695.4530697731921
 11
3699.4903410729094
 21
1695.4530697731921
  0
LINE
  8
_0-d_
  6
CONTINUOUS
 62
    7
 10
3699.4903410729094
 20
1755.4530697731921
 11
4114.2482206465884
 21
1755.4530697731921
  0
LINE
  8
ADD_LINE
  6
DOT
 62
    9
 10
3699.4903410729094
 20
1725.4530697731921
 11
4114.2482206465884
 21
1725.4530697731921
  0
LINE
  8
_0-d_
  6
CONTINUOUS
 62
    7
 10
4114.2482206465884
 20
1695.4530697731921
 11
3699.4903410729094
 21
1695.4530697731921
  0
LINE
  8
_0-d_
  6
CONTINUOUS
 62
    3
 10
4114.2482206465884
 20
1695.4530697731921
 11
3699.4903410729094
 21
1695.4530697731921
  0
LINE
  8
_0-d_
  6
CONTINUOUS
 62
    7
 10
3699.4903410729094
 20
1695.4530697731921
 11
4114.2482206465884
 21
1695.4530697731921
  0
LINE
  8
ADD_LINE
  6
DOT
 62
    9
 10
3699.4903410729094
 20
1665.4530697731921
 11
4114.2482206465884
 21
1665.4530697731921
  0
LINE
  8
ADD_LINE
  6
DOT
 62
    9
 10
3699.4903410729094
 20
2030.453069773193
 11
4114.2482206465884
 21
2030.453069773193
  0
LINE
  8
_0-d_
  6
CONTINUOUS
 62
    7
 10
4114.2482206465884
 20
2060.453069773193
 11
3699.4903410729094
 21
2060.453069773193
  0
LINE
  8
ADD_LINE
  6
DOT
 62
    9
 10
3699.4903410729094
 20
2097.953069773193
 11
4114.2482206465884
 21
2097.953069773193
  0
LINE
  8
_0-d_
  6
CONTINUOUS
 62
    7
 10
4114.2482206465884
 20
2065.453069773193
 11
3699.4903410729094
 21
2065.453069773193
  0
LINE
  8
ADD_LINE
  6
DOT
 62
    9
 10
3906.8692808597489
 20
2130.453069773193
 11
3906.8692808597489
 21
2065.453069773193
  0
LINE
  8
ADD_LINE
  6
DOT
 62
    9
 10
4114.2482206465884
 20
2845.453069773193
 11
4130
 21
2845.453069773193
  0
LINE
  8
_0-d_
  6
CONTINUOUS
 62
    7
 10
4114.2482206465884
 20
2285.453069773193
 11
2833.9910235721818
 21
2285.453069773193
  0
LINE
  8
_0-d_
  6
CONTINUOUS
 62
    3
 10
4114.2482206465884
 20
2845.453069773193
 11
2833.9910235721818
 21
2845.453069773193
  0
LINE
  8
_0-d_
  6
CONTINUOUS
 62
    3
 10
2833.9910235721818
 20
2215.453069773193
 11
4114.2482206465884
 21
2215.453069773193
  0
LINE
  8
_0-d_
  6
CONTINUOUS
 62
    7
 10
4114.2482206465884
 20
2565.453069773193
 11
2833.9910235721818
 21
2565.453069773193
  0
LINE
  8
_0-d_
  6
CONTINUOUS
 62
    7
 10
4114.2482206465884
 20
2495.453069773193
 11
2833.9910235721818
 21
2495.453069773193
  0
LINE
  8
_0-d_
  6
CONTINUOUS
 62
    7
 10
4114.2482206465884
 20
2425.453069773193
 11
2833.9910235721818
 21
2425.453069773193
  0
LINE
  8
_0-d_
  6
CONTINUOUS
 62
    7
 10
4114.2482206465884
 20
2355.453069773193
 11
2833.9910235721818
 21
2355.453069773193
  0
LINE
  8
_0-d_
  6
CONTINUOUS
 62
    7
 10
4114.2482206465884
 20
2635.453069773193
 11
2833.9910235721818
 21
2635.453069773193
  0
LINE
  8
_0-d_
  6
CONTINUOUS
 62
    7
 10
4114.2482206465884
 20
2705.453069773193
 11
2833.9910235721818
 21
2705.453069773193
  0
LINE
  8
_0-d_
  6
CONTINUOUS
 62
    7
 10
4114.2482206465884
 20
2775.453069773193
 11
2833.9910235721818
 21
2775.453069773193
  0
LINE
  8
_0-d_
  6
CONTINUOUS
 62
    7
 10
4114.2482206465884
 20
2780.453069773193
 11
2833.9910235721818
 21
2780.453069773193
  0
LINE
  8
ADD_LINE
  6
DOT
 62
    9
 10
2835.2275460224009
 20
2812.953069773193
 11
4114.2482206465884
 21
2812.953069773193
  0
LINE
  8
ADD_LINE
  6
DOT
 62
    9
 10
3326.4915235721819
 20
2845.453069773193
 11
3326.4915235721819
 21
2780.453069773193
  0
LINE
  8
ADD_LINE
  6
DOT
 62
    9
 10
2836.8566182868881
 20
2740.453069773193
 11
4114.2482206465884
 21
2740.453069773193
  0
LINE
  8
ADD_LINE
  6
DOT
 62
    9
 10
2836.8566182868881
 20
2670.453069773193
 11
4114.2482206465884
 21
2670.453069773193
  0
LINE
  8
ADD_LINE
  6
DOT
 62
    9
 10
2835.2275460224009
 20
2600.453069773193
 11
4114.2482206465884
 21
2600.453069773193
  0
LINE
  8
ADD_LINE
  6
DOT
 62
    9
 10
2835.2275460224009
 20
2530.453069773193
 11
4114.2482206465884
 21
2530.453069773193
  0
LINE
  8
ADD_LINE
  6
DOT
 62
    9
 10
2835.2275460224009
 20
2460.453069773193
 11
4114.2482206465884
 21
2460.453069773193
  0
LINE
  8
ADD_LINE
  6
DOT
 62
    9
 10
2835.2275460224009
 20
2390.453069773193
 11
4114.2482206465884
 21
2390.453069773193
  0
LINE
  8
ADD_LINE
  6
DOT
 62
    9
 10
2835.2275460224009
 20
2320.453069773193
 11
4114.2482206465884
 21
2320.453069773193
  0
LINE
  8
ADD_LINE
  6
DOT
 62
    9
 10
2833.9910235721818
 20
2250.453069773193
 11
4114.2482206465884
 21
2250.453069773193
  0
LINE
  8
_0-d_
  6
CONTINUOUS
 62
    7
 10
4114.2482206465884
 20
2215.453069773193
 11
2833.9910235721818
 21
2215.453069773193
  0
LINE
  8
_0-d_
  6
CONTINUOUS
 62
    3
 10
2833.9910235721818
 20
2145.453069773193
 11
4114.2482206465884
 21
2145.453069773193
  0
LINE
  8
ADD_LINE
  6
DOT
 62
    9
 10
2833.9910235721818
 20
2180.453069773193
 11
4114.2482206465884
 21
2180.453069773193
  0
LINE
  8
_0-d_
  6
CONTINUOUS
 62
    3
 10
2833.9910235721818
 20
2845.453069773193
 11
2833.9910235721818
 21
2145.453069773193
  0
LINE
  8
_0-d_
  6
CONTINUOUS
 62
    3
 10
4114.2482206465884
 20
2845.453069773193
 11
4114.2482206465884
 21
2145.453069773193
  0
LINE
  8
_0-d_
  6
CONTINUOUS
 62
    7
 10
3133.9910235721818
 20
2775.453069773193
 11
3133.9910235721818
 21
2145.453069773193
  0
LINE
  8
ADD_LINE
  6
DOT
 62
    9
 10
2913.9910235721818
 20
2775.453069773193
 11
2913.9910235721818
 21
2145.453069773193
  0
LINE
  8
ADD_LINE
  6
DOT
 62
    9
 10
3173.9910235721818
 20
2775.453069773193
 11
3173.9910235721818
 21
2145.453069773193
  0
LINE
  8
ADD_LINE
  6
DOT
 62
    9
 10
4114.2482206465884
 20
2845.453069773193
 11
4114.2482206465884
 21
2860
  0
LINE
  8
_f-8_
  6
CONTINUOUS
 62
    7
 10
2140
 20
2872
 11
2141.1500000000001
 21
2874.0000000000005
  0
LINE
  8
_f-8_
  6
CONTINUOUS
 62
    7
 10
2133.6399999999999
 20
2877
 11
2140
 21
2866
  0
LINE
  8
_f-8_
  6
CONTINUOUS
 62
    7
 10
2140
 20
2866
 11
2146.3499999999999
 21
2877
  0
LINE
  8
_f-8_
  6
CONTINUOUS
 62
    7
 10
2140
 20
2860
 11
2151.54
 21
2880
  0
LINE
  8
_f-8_
  6
CONTINUOUS
 62
    7
 10
2128.4499999999998
 20
2880
 11
2140
 21
2860
  0
LINE
  8
_f-8_
  6
CONTINUOUS
 62
    7
 10
2151.54
 20
2880
 11
2128.4499999999998
 21
2880
  0
LINE
  8
_f-8_
  6
CONTINUOUS
 62
    7
 10
2138.8400000000001
 20
2874.0000000000005
 11
2140
 21
2872
  0
LINE
  8
_f-8_
  6
CONTINUOUS
 62
    7
 10
2141.1500000000001
 20
2874.0000000000005
 11
2138.8400000000001
 21
2874.0000000000005
  0
LINE
  8
_f-8_
  6
CONTINUOUS
 62
    7
 10
2146.3499999999999
 20
2877
 11
2133.6399999999999
 21
2877
  0
TEXT
  8
_f-8_
 62
    7
 10
721.31573567121791
 20
134.89144027884947
 40
45
 41
0.6666666666666666
 50
0
  1
不燃仕様　吊戸棚　高さ５０ｃｍタイプ
  0
ENDSEC
  0
EOF
