  0
SECTION
  2
HEADER
  9
$ACADVER
  1
AC1009
  9
$INSBASE
 10
0
 20
0
 30
0
  9
$EXTMIN
 10
0
 20
0
  9
$EXTMAX
 10
4200
 20
2970
  9
$LIMMIN
 10
0
 20
0
  9
$LIMMAX
 10
4200
 20
2970
  9
$LTSCALE
 40
10
  0
ENDSEC
  0
SECTION
  2
TABLES
  0
TABLE
  2
LTYPE
 70
     9
  0
LTYPE
  2
CONTINUOUS
 70
    64
  3
実線
 72
    65
 73
     0
 40
0.0
  0
LTYPE
  2
DASHED1
 70
    64
  3
--  --  --  --  --  --  --  --  
 72
    65
 73
     2
 40
2.5
 49
1.25
 49
-1.25
  0
LTYPE
  2
DASHED2
 70
    64
  3
----    ----    ----    ----    
 72
    65
 73
     2
 40
5.0
 49
2.5
 49
-2.5
  0
LTYPE
  2
DASHED3
 70
    64
  3
------  ------  ------  ------  
 72
    65
 73
     2
 40
5.0
 49
3.75
 49
-1.25
  0
LTYPE
  2
CENTER1
 70
    64
  3
----- - ----- - ----- - ----- - 
 72
    65
 73
     4
 40
10.0
 49
6.25
 49
-1.25
 49
1.25
 49
-1.25
  0
LTYPE
  2
CENTER2
 70
    64
  3
----------  --  ----------  --  
 72
    65
 73
     4
 40
20.0
 49
12.5
 49
-2.5
 49
2.5
 49
-2.5
  0
LTYPE
  2
PHANTOM1
 70
    64
  3
--- - - --- - - --- - - --- - - 
 72
    65
 73
     6
 40
10.0
 49
3.25
 49
-1.25
 49
1.25
 49
-1.25
 49
1.25
 49
-1.25
  0
LTYPE
  2
PHANTOM2
 70
    64
  3
--------  -  -  --------  -  -  
 72
    65
 73
     6
 40
20.0
 49
10.0
 49
-2.5
 49
1.25
 49
-2.5
 49
1.25
 49
-2.5
  0
LTYPE
  2
DOT
 70
    64
  3
-   -   -   -   -   -   -   -   
 72
    65
 73
     2
 40
2.5
 49
0.625
 49
-1.875
  0
LTYPE
  2
DUMMY
 70
    64
  3
ダミー
 72
    65
 73
     0
 40
0.0
  0
LTYPE
  2
RAND1
 70
    64
  3
ランダム線1
 72
    65
 73
     4
 40
10.0
 49
1.0
 49
-2.0
 49
3.0
 49
-4.0
  0
LTYPE
  2
RAND2
 70
    64
  3
ランダム線2
 72
    65
 73
     4
 40
14.0
 49
2.0
 49
-3.0
 49
4.0
 49
-5.0
  0
LTYPE
  2
RAND3
 70
    64
  3
ランダム線3
 72
    65
 73
     4
 40
18.0
 49
3.0
 49
-4.0
 49
5.0
 49
-6.0
  0
LTYPE
  2
RAND4
 70
    64
  3
ランダム線4
 72
    65
 73
     4
 40
22.0
 49
4.0
 49
-5.0
 49
6.0
 49
-7.0
  0
LTYPE
  2
RAND5
 70
    64
  3
ランダム線5
 72
    65
 73
     4
 40
26.0
 49
5.0
 49
-6.0
 49
7.0
 49
-8.0
  0
LTYPE
  2
LONG1
 70
    64
  3
----------  --  ----------  --  
 72
    65
 73
     4
 40
40.0
 49
32.5
 49
-2.5
 49
2.5
 49
-2.5
  0
LTYPE
  2
LONG2
 70
    64
  3
--------  -  -  --------  -  -  
 72
    65
 73
     6
 40
40.0
 49
30.0
 49
-2.5
 49
1.25
 49
-2.5
 49
1.25
 49
-2.5
  0
LTYPE
  2
LONG3
 70
    64
  3
+++++++++++++++..+++++++++++++++
 72
    65
 73
     2
 40
40.0
 49
37.5
 49
-2.5
  0
LTYPE
  2
LONG4
 70
    64
  3
+++++++++++++++..+++++++++++++++
 72
    65
 73
     2
 40
80.0
 49
75.0
 49
-5.0
  0
LTYPE
  2
LONG5
 70
    64
  3
----------  --  ----------  --  
 72
    65
 73
     4
 40
60.0
 49
37.5
 49
-7.5
 49
7.5
 49
-7.5
  0
LTYPE
  2
dashed
 70
   64
  3
-------   -------------   ------
 72
   65
 73
    2
 40
7.5
 49
6
 49
-1.5
  0
LTYPE
  2
dashed_spaced
 70
   64
  3
----        --------        ----
 72
   65
 73
    2
 40
12
 49
6
 49
-6
  0
LTYPE
  2
long_dashed_dotted
 70
   64
  3
------------- --- --------------
 72
   65
 73
    4
 40
15.25
 49
12
 49
-1.5
 49
0.25
 49
-1.5
  0
LTYPE
  2
long_dashed_double-dotted
 70
   64
  3
----------- --- --- ------------
 72
   65
 73
    6
 40
17
 49
12
 49
-1.5
 49
0.25
 49
-1.5
 49
0.25
 49
-1.5
  0
LTYPE
  2
long_dashed_triplicate-dotted
 70
   64
  3
--------- --- --- --- ----------
 72
   65
 73
    8
 40
18.75
 49
12
 49
-1.5
 49
0.25
 49
-1.5
 49
0.25
 49
-1.5
 49
0.25
 49
-1.5
  0
LTYPE
  2
dotted
 70
   64
  3
   -       -       -       -    
 72
   65
 73
    2
 40
1.75
 49
0.25
 49
-1.5
  0
LTYPE
  2
chain
 70
   64
  3
-------------- -- --------------
 72
   65
 73
    4
 40
18.5
 49
12
 49
-1.5
 49
3.5
 49
-1.5
  0
LTYPE
  2
chain_double_dash
 70
   64
  3
------------ -- -- -------------
 72
   65
 73
    6
 40
23.5
 49
12
 49
-1.5
 49
3.5
 49
-1.5
 49
3.5
 49
-1.5
  0
LTYPE
  2
dashed_dotted
 70
   64
  3
-----------     -     ----------
 72
   65
 73
    4
 40
9.25
 49
6
 49
-1.5
 49
0.25
 49
-1.5
  0
LTYPE
  2
double-dashed_dotted
 70
   64
  3
------   -----------   -   -----
 72
   65
 73
    6
 40
16.75
 49
6
 49
-1.5
 49
6
 49
-1.5
 49
0.25
 49
-1.5
  0
LTYPE
  2
dashed_double-dotted
 70
   64
  3
---------    -    -    ---------
 72
   65
 73
    6
 40
11
 49
6
 49
-1.5
 49
0.25
 49
-1.5
 49
0.25
 49
-1.5
  0
LTYPE
  2
double-dashed_double-dotted
 70
   64
  3
-----   ---------   -   -   ----
 72
   65
 73
    8
 40
18.5
 49
6
 49
-1.5
 49
6
 49
-1.5
 49
0.25
 49
-1.5
 49
0.25
 49
-1.5
  0
LTYPE
  2
dashed_triplicate-dotted
 70
   64
  3
-------    -    -    -    ------
 72
   65
 73
    8
 40
12.75
 49
6
 49
-1.5
 49
0.25
 49
-1.5
 49
0.25
 49
-1.5
 49
0.25
 49
-1.5
  0
LTYPE
  2
double-dashed_triplicate-dotted
 70
   64
  3
-----  ---------  -  -  -  -----
 72
   65
 73
   10
 40
20.25
 49
6
 49
-1.5
 49
6
 49
-1.5
 49
0.25
 49
-1.5
 49
0.25
 49
-1.5
 49
0.25
 49
-1.5
  0
LTYPE
  2
undefined
 70
   64
  3
--------------------------------
 72
   65
 73
    0
 40
0
  0
LTYPE
  2
_
 70
   64
  3
                                
 72
   65
 73
    0
 40
0
  0
LTYPE
  2
__18
 70
   64
  3
                                
 72
   65
 73
    0
 40
0
  0
LTYPE
  2
__19
 70
   64
  3
                                
 72
   65
 73
    0
 40
0
  0
LTYPE
  2
__20
 70
   64
  3
                                
 72
   65
 73
    0
 40
0
  0
LTYPE
  2
__21
 70
   64
  3
                                
 72
   65
 73
    0
 40
0
  0
LTYPE
  2
__22
 70
   64
  3
                                
 72
   65
 73
    0
 40
0
  0
LTYPE
  2
__23
 70
   64
  3
                                
 72
   65
 73
    0
 40
0
  0
LTYPE
  2
__24
 70
   64
  3
                                
 72
   65
 73
    0
 40
0
  0
LTYPE
  2
__25
 70
   64
  3
                                
 72
   65
 73
    0
 40
0
  0
LTYPE
  2
__26
 70
   64
  3
                                
 72
   65
 73
    0
 40
0
  0
LTYPE
  2
__27
 70
   64
  3
                                
 72
   65
 73
    0
 40
0
  0
LTYPE
  2
__28
 70
   64
  3
                                
 72
   65
 73
    0
 40
0
  0
LTYPE
  2
__29
 70
   64
  3
                                
 72
   65
 73
    0
 40
0
  0
LTYPE
  2
__30
 70
   64
  3
                                
 72
   65
 73
    0
 40
0
  0
LTYPE
  2
__31
 70
   64
  3
                                
 72
   65
 73
    0
 40
0
  0
LTYPE
  2
__32
 70
   64
  3
                                
 72
   65
 73
    0
 40
0
  0
ENDTAB
  0
TABLE
  2
STYLE
  5
3
100
AcDbSymbolTable
 70
     1
  0
STYLE
  5
10
100
AcDbSymbolTableRecord
100
AcDbTextStyleTableRecord
  2
STANDARD
 70
     0
 40
0.0
 41
1.0
 50
0.0
 71
     0
 42
0.2
  3
txt
  4
bigfont.shx
  0
STYLE
  5
26
100
AcDbSymbolTableRecord
100
AcDbTextStyleTableRecord
  2
TATEGAKI
 70
    68
 40
0.0
 41
1.0
 50
0.0
 71
     0
 42
1.0
  3
txt
  4
bigfont.shx
  0
ENDTAB
  0
TABLE
  2
LAYER
 70
   18
  0
LAYER
  2
_0-0_
 70
   64
 62
    7
  6
CONTINUOUS
  0
LAYER
  2
_0-2_
 70
   64
 62
    7
  6
CONTINUOUS
  0
LAYER
  2
_0-3_
 70
   64
 62
    7
  6
CONTINUOUS
  0
LAYER
  2
_0-4_
 70
   64
 62
    7
  6
CONTINUOUS
  0
LAYER
  2
_0-5_
 70
   64
 62
    7
  6
CONTINUOUS
  0
LAYER
  2
_0-6_
 70
   64
 62
    7
  6
CONTINUOUS
  0
LAYER
  2
_0-8_
 70
   64
 62
    7
  6
CONTINUOUS
  0
LAYER
  2
_0-9_
 70
   64
 62
    7
  6
CONTINUOUS
  0
LAYER
  2
_0-a_
 70
   64
 62
    7
  6
CONTINUOUS
  0
LAYER
  2
_0-d_
 70
   64
 62
    7
  6
CONTINUOUS
  0
LAYER
  2
_1-2_
 70
   64
 62
    7
  6
CONTINUOUS
  0
LAYER
  2
_e-0_
 70
   64
 62
    7
  6
CONTINUOUS
  0
LAYER
  2
_f-7_
 70
   64
 62
    7
  6
CONTINUOUS
  0
LAYER
  2
_f-8_
 70
   64
 62
    7
  6
CONTINUOUS
  0
LAYER
  2
_f-9_
 70
   64
 62
    7
  6
CONTINUOUS
  0
LAYER
  2
_f-d_固定文字
 70
   64
 62
    7
  6
CONTINUOUS
  0
LAYER
  2
_f-f_ADD_LINE
 70
   64
 62
    7
  6
CONTINUOUS
  0
LAYER
  2
ADD_LINE
 70
   64
 62
    7
  6
CONTINUOUS
  0
ENDTAB
  0
ENDSEC
  0
SECTION
  2
BLOCKS
  0
ENDSEC
  0
SECTION
  2
ENTITIES
  0
LINE
  8
_0-a_
  6
CONTINUOUS
 62
    4
 10
1094.7965388946715
 20
2091.999999999999
 11
1137.2965388946729
 21
2134.5000000000009
  0
LINE
  8
ADD_LINE
  6
DOT
 62
    9
 10
700
 20
355
 11
950
 21
355
  0
LINE
  8
ADD_LINE
  6
DOT
 62
    9
 10
74.98500000000007
 20
55
 11
4144.9850000000005
 21
55
  0
LINE
  8
ADD_LINE
  6
DOT
 62
    9
 10
74.98500000000007
 20
2875
 11
74.98500000000007
 21
55
  0
LINE
  8
ADD_LINE
  6
DOT
 62
    9
 10
120.02999999999985
 20
65
 11
120.02999999999985
 21
2860
  0
LINE
  8
ADD_LINE
  6
DOT
 62
    9
 10
4144.9850000000005
 20
2875
 11
74.98500000000007
 21
2875
  0
LINE
  8
ADD_LINE
  6
DOT
 62
    9
 10
4144.9850000000005
 20
55
 11
4144.9850000000005
 21
2875
  0
LINE
  8
_f-9_
  6
CONTINUOUS
 62
    7
 10
630
 20
120
 11
630
 21
220
  0
LINE
  8
ADD_LINE
  6
DOT
 62
    9
 10
170
 20
120
 11
170
 21
220
  0
LINE
  8
ADD_LINE
  6
DOT
 62
    9
 10
610
 20
120
 11
610
 21
220
  0
LINE
  8
_f-9_
  6
CONTINUOUS
 62
    7
 10
170
 20
120
 11
610
 21
120
  0
LINE
  8
_f-9_
  6
CONTINUOUS
 62
    7
 10
170
 20
220
 11
610
 21
220
  0
LINE
  8
_f-9_
  6
CONTINUOUS
 62
    7
 10
1420
 20
120
 11
1420
 21
220
  0
LINE
  8
_f-9_
  6
CONTINUOUS
 62
    7
 10
2210
 20
120
 11
2210
 21
220
  0
LINE
  8
_f-9_
  6
CONTINUOUS
 62
    7
 10
2220
 20
120
 11
2220
 21
220
  0
LINE
  8
_f-9_
  6
CONTINUOUS
 62
    7
 10
630
 20
120
 11
2210
 21
120
  0
LINE
  8
_f-9_
  6
CONTINUOUS
 62
    7
 10
630
 20
220
 11
2210
 21
220
  0
LINE
  8
_f-9_
  6
CONTINUOUS
 62
    7
 10
2710
 20
120
 11
2710
 21
220
  0
LINE
  8
_f-9_
  6
CONTINUOUS
 62
    7
 10
2720
 20
120
 11
2720
 21
220
  0
LINE
  8
_f-9_
  6
CONTINUOUS
 62
    7
 10
2220
 20
120
 11
2710
 21
120
  0
LINE
  8
_f-9_
  6
CONTINUOUS
 62
    7
 10
2220
 20
220
 11
2710
 21
220
  0
LINE
  8
_f-9_
  6
CONTINUOUS
 62
    7
 10
3020
 20
120
 11
3020
 21
220
  0
LINE
  8
_f-9_
  6
CONTINUOUS
 62
    7
 10
3320
 20
120
 11
3320
 21
220
  0
LINE
  8
_f-9_
  6
CONTINUOUS
 62
    7
 10
3700
 20
120
 11
3700
 21
220
  0
LINE
  8
_f-9_
  6
CONTINUOUS
 62
    7
 10
2720
 20
120
 11
4110
 21
120
  0
LINE
  8
_f-9_
  6
CONTINUOUS
 62
    7
 10
4110
 20
120
 11
4110
 21
220
  0
LINE
  8
_f-9_
  6
CONTINUOUS
 62
    7
 10
2720
 20
220
 11
4110
 21
220
  0
LINE
  8
_0-0_
  6
CONTINUOUS
 62
    7
 10
4130
 20
2860
 11
4130
 21
100
  0
LINE
  8
_0-0_
  6
CONTINUOUS
 62
    7
 10
150
 20
2860
 11
4130
 21
2860
  0
LINE
  8
_0-0_
  6
CONTINUOUS
 62
    7
 10
150
 20
100
 11
4130
 21
100
  0
LINE
  8
_0-0_
  6
CONTINUOUS
 62
    7
 10
150
 20
100
 11
150
 21
2860
  0
LINE
  8
ADD_LINE
  6
DOT
 62
    9
 10
630
 20
200
 11
2210
 21
200
  0
LINE
  8
ADD_LINE
  6
DOT
 62
    9
 10
2720
 20
200
 11
4110
 21
200
  0
LINE
  8
ADD_LINE
  6
DOT
 62
    9
 10
2740
 20
120
 11
2740
 21
220
  0
LINE
  8
ADD_LINE
  6
DOT
 62
    9
 10
3040
 20
120
 11
3040
 21
220
  0
LINE
  8
ADD_LINE
  6
DOT
 62
    9
 10
3340
 20
120
 11
3340
 21
220
  0
LINE
  8
ADD_LINE
  6
DOT
 62
    9
 10
3720
 20
120
 11
3720
 21
220
  0
LINE
  8
ADD_LINE
  6
DOT
 62
    9
 10
1445
 20
120
 11
1445
 21
220
  0
LINE
  8
ADD_LINE
  6
DOT
 62
    9
 10
655
 20
120
 11
655
 21
220
  0
LINE
  8
ADD_LINE
  6
DOT
 62
    9
 10
3660
 20
120
 11
3660
 21
220
  0
LINE
  8
ADD_LINE
  6
DOT
 62
    9
 10
2720
 20
160
 11
4110
 21
160
  0
TEXT
  8
_f-8_
 62
    7
 10
3040
 20
187.5
 40
25
 41
0.64
 50
0
  1
ＤＡＴＡ
  0
TEXT
  8
_f-8_
 62
    7
 10
3340
 20
187.5
 40
25
 41
0.64
 50
0
  1
ＣＨＥＣＫＥＤ
  0
TEXT
  8
_f-8_
 62
    7
 10
3720
 20
187.5
 40
25
 41
0.64
 50
0
  1
ＳＨＥＥＴ　ＮＯ．
  0
TEXT
  8
_f-8_
 62
    7
 10
3542
 20
187.5
 40
25
 41
0.64
 50
0
  1
ＤＲＡＷＩＮＧ
  0
LINE
  8
ADD_LINE
  6
DOT
 62
    9
 10
135
 20
65
 11
135
 21
2860
  0
LINE
  8
_f-9_
  6
CONTINUOUS
 62
    7
 10
170
 20
170
 11
610
 21
170
  0
LINE
  8
ADD_LINE
  6
DOT
 62
    9
 10
2910
 20
120
 11
2910
 21
220
  0
LINE
  8
ADD_LINE
  6
DOT
 62
    9
 10
3170
 20
120
 11
3170
 21
220
  0
LINE
  8
ADD_LINE
  6
DOT
 62
    9
 10
3500
 20
220
 11
3500
 21
120
  0
LINE
  8
ADD_LINE
  6
DOT
 62
    9
 10
630
 20
160
 11
2210
 21
160
  0
LINE
  8
ADD_LINE
  6
DOT
 62
    9
 10
1025
 20
220
 11
1025
 21
120
  0
TEXT
  8
_f-8_
 62
    7
 10
2861
 20
142.5
 40
35
 41
0.5714285714285713
 50
0
  1
１／１０
  0
TEXT
  8
_f-8_
 62
    7
 10
2740.3739840854213
 20
187.46937299484983
 40
25
 41
0.64
 50
0
  1
ＳＣＡＬＥ
  0
TEXT
  8
_f-8_
 62
    7
 10
1445
 20
187.5
 40
25
 41
0.8
 50
0
  1
図面名称
  0
TEXT
  8
_f-8_
 62
    7
 10
655
 20
187.5
 40
25
 41
0.8
 50
0
  1
名　称
  0
LINE
  8
ADD_LINE
  6
DOT
 62
    9
 10
1815
 20
120
 11
1815
 21
220
  0
LINE
  8
_f-7_
  6
CONTINUOUS
 62
    7
 10
120
 20
1462.6794919243113
 11
120
 21
1497.3205080756886
  0
LINE
  8
_f-7_
  6
CONTINUOUS
 62
    7
 10
120
 20
1497.3205080756886
 11
150
 21
1480
  0
LINE
  8
_f-7_
  6
CONTINUOUS
 62
    7
 10
150
 20
1480
 11
120
 21
1462.6794919243113
  0
LINE
  8
_f-7_
  6
CONTINUOUS
 62
    7
 10
125
 20
1471.3397459621555
 11
125
 21
1488.6602540378444
  0
LINE
  8
_f-7_
  6
CONTINUOUS
 62
    7
 10
125
 20
1488.6602540378444
 11
140
 21
1480
  0
LINE
  8
_f-7_
  6
CONTINUOUS
 62
    7
 10
140
 20
1480
 11
125
 21
1471.3397459621555
  0
LINE
  8
_f-7_
  6
CONTINUOUS
 62
    7
 10
128.99999999999977
 20
1478.2679491924309
 11
128.99999999999977
 21
1481.732050807569
  0
LINE
  8
_f-7_
  6
CONTINUOUS
 62
    7
 10
128.99999999999977
 20
1481.732050807569
 11
132.00000000000045
 21
1480
  0
LINE
  8
_f-7_
  6
CONTINUOUS
 62
    7
 10
132.00000000000045
 20
1480
 11
128.99999999999977
 21
1478.2679491924309
  0
LINE
  8
_f-7_
  6
CONTINUOUS
 62
    7
 10
4160
 20
1462.6794919243113
 11
4160
 21
1497.3205080756886
  0
LINE
  8
_f-7_
  6
CONTINUOUS
 62
    7
 10
4160
 20
1497.3205080756886
 11
4130
 21
1480
  0
LINE
  8
_f-7_
  6
CONTINUOUS
 62
    7
 10
4130
 20
1480
 11
4160
 21
1462.6794919243113
  0
LINE
  8
_f-7_
  6
CONTINUOUS
 62
    7
 10
4155
 20
1471.3397459621555
 11
4155
 21
1488.6602540378444
  0
LINE
  8
_f-7_
  6
CONTINUOUS
 62
    7
 10
4155
 20
1488.6602540378444
 11
4140
 21
1480
  0
LINE
  8
_f-7_
  6
CONTINUOUS
 62
    7
 10
4140
 20
1480
 11
4155
 21
1471.3397459621555
  0
LINE
  8
_f-7_
  6
CONTINUOUS
 62
    7
 10
4151
 20
1478.2679491924309
 11
4151
 21
1481.732050807569
  0
LINE
  8
_f-7_
  6
CONTINUOUS
 62
    7
 10
4151
 20
1481.732050807569
 11
4148
 21
1480
  0
LINE
  8
_f-7_
  6
CONTINUOUS
 62
    7
 10
4148
 20
1480
 11
4151
 21
1478.2679491924309
  0
LINE
  8
ADD_LINE
  6
DOT
 62
    9
 10
1075
 20
220
 11
1075
 21
120
  0
LINE
  8
ADD_LINE
  6
DOT
 62
    9
 10
1865
 20
120
 11
1865
 21
220
  0
TEXT
  8
_f-d_固定文字
 62
    7
 10
149.98500000000007
 20
65
 40
20
 41
1
 50
0
  1
%f
  0
LINE
  8
ADD_LINE
  6
DOT
 62
    9
 10
149.98500000000007
 20
100
 11
149.98500000000007
 21
65
  0
LINE
  8
ADD_LINE
  6
DOT
 62
    9
 10
149.98500000000007
 20
65
 11
179.98500000000007
 21
65.000000646005844
  0
LINE
  8
ADD_LINE
  6
DOT
 62
    9
 10
179.98500000000007
 20
100
 11
179.98500000000007
 21
65.000000646005844
  0
LINE
  8
ADD_LINE
  6
DOT
 62
    9
 10
150.01499999999992
 20
65
 11
120.02999999999985
 21
65
  0
TEXT
  8
_f-d_固定文字
 62
    7
 10
3990
 20
65.00000323002979
 40
20
 41
1
 50
0
  1
%y
  0
TEXT
  8
_f-d_固定文字
 62
    7
 10
4020
 20
65.00000323002979
 40
20
 41
1
 50
0
  1
．
  0
TEXT
  8
_f-d_固定文字
 62
    7
 10
4050
 20
65.00000323002979
 40
20
 41
1
 50
0
  1
%m
  0
TEXT
  8
_f-d_固定文字
 62
    7
 10
4080
 20
65.00000323002979
 40
20
 41
1
 50
0
  1
．
  0
TEXT
  8
_f-d_固定文字
 62
    7
 10
4110
 20
65.00000323002979
 40
20
 41
1
 50
0
  1
%d
  0
LINE
  8
ADD_LINE
  6
DOT
 62
    9
 10
4130
 20
100
 11
4130
 21
65.00000323002979
  0
LINE
  8
ADD_LINE
  6
DOT
 62
    9
 10
4100
 20
100
 11
4100
 21
65.00000323002979
  0
LINE
  8
ADD_LINE
  6
DOT
 62
    9
 10
4070
 20
100
 11
4070
 21
65.00000323002979
  0
LINE
  8
ADD_LINE
  6
DOT
 62
    9
 10
4040
 20
100
 11
4040
 21
65.00000323002979
  0
LINE
  8
ADD_LINE
  6
DOT
 62
    9
 10
4010
 20
100
 11
4010
 21
65.00000323002979
  0
LINE
  8
ADD_LINE
  6
DOT
 62
    9
 10
3980
 20
100
 11
3980
 21
65
  0
LINE
  8
ADD_LINE
  6
DOT
 62
    9
 10
3980
 20
65
 11
4130
 21
65.00000323002979
  0
LINE
  8
_0-3_
  6
CONTINUOUS
 62
    4
 10
3538.0000000000009
 20
1110
 11
3538.0000000000009
 21
740
  0
LINE
  8
_0-3_
  6
CONTINUOUS
 62
    5
 10
3130
 20
1170
 11
3130
 21
720
  0
LINE
  8
_0-3_
  6
DASHED1
 62
    4
 10
3142
 20
1170
 11
3142
 21
720
  0
LINE
  8
_0-8_
  6
CONTINUOUS
 62
    4
 10
3380
 20
390
 11
3630
 21
390
  0
LINE
  8
_0-8_
  6
CONTINUOUS
 62
    4
 10
3630
 20
390
 11
3630
 21
320
  0
LINE
  8
_0-8_
  6
CONTINUOUS
 62
    4
 10
3380
 20
320
 11
3630
 21
320
  0
LINE
  8
_0-8_
  6
CONTINUOUS
 62
    4
 10
3380
 20
390
 11
3380
 21
320
  0
LINE
  8
ADD_LINE
  6
DOT
 62
    9
 10
3380
 20
355
 11
3630
 21
355
  0
LINE
  8
ADD_LINE
  6
DOT
 62
    9
 10
3505
 20
320
 11
3505
 21
390
  0
LINE
  8
_0-3_
  6
CONTINUOUS
 62
    5
 10
2500
 20
1170
 11
2500
 21
720
  0
LINE
  8
_0-3_
  6
DASHED1
 62
    4
 10
2488
 20
1170
 11
2488
 21
720
  0
LINE
  8
_0-8_
  6
CONTINUOUS
 62
    4
 10
2250
 20
390
 11
2000
 21
390
  0
LINE
  8
_0-8_
  6
CONTINUOUS
 62
    4
 10
2000
 20
390
 11
2000
 21
320
  0
LINE
  8
_0-8_
  6
CONTINUOUS
 62
    4
 10
2250
 20
320
 11
2000
 21
320
  0
LINE
  8
_0-8_
  6
CONTINUOUS
 62
    4
 10
2250
 20
390
 11
2250
 21
320
  0
LINE
  8
ADD_LINE
  6
DOT
 62
    9
 10
2250
 20
355
 11
2000
 21
355
  0
LINE
  8
ADD_LINE
  6
DOT
 62
    9
 10
2125
 20
320
 11
2125
 21
390
  0
TEXT
  8
_0-8_
 62
    7
 10
2034.7500000000002
 20
337.5
 40
35
 41
0.857142857142857
 50
0
  1
Ａ－Ａ断面図
  0
TEXT
  8
_0-8_
 62
    7
 10
3414.75
 20
337.5
 40
35
 41
0.857142857142857
 50
0
  1
Ｂ－Ｂ断面図
  0
LINE
  8
_0-9_
  6
CONTINUOUS
 62
    4
 10
2773.3796675245298
 20
2560
 11
2530
 21
2560
  0
POINT
  8
_0-9_
 62
    3
 10
2773.3796675245298
 20
2560
  0
POINT
  8
_0-9_
 62
    3
 10
1750
 20
1500.0000000000002
  0
LINE
  8
_0-9_
  6
CONTINUOUS
 62
    4
 10
1750
 20
1490.0000000000002
 11
1750
 21
1780
  0
POINT
  8
_0-9_
 62
    3
 10
1580
 20
1810
  0
POINT
  8
_0-9_
 62
    3
 10
1580
 20
2560
  0
LINE
  8
_0-9_
  6
CONTINUOUS
 62
    4
 10
1570
 20
1810
 11
1720
 21
1810
  0
LINE
  8
_0-9_
  6
CONTINUOUS
 62
    4
 10
1570
 20
2560
 11
1720
 21
2560
  0
LINE
  8
_0-9_
  6
CONTINUOUS
 62
    4
 10
1580
 20
1810
 11
1580
 21
2560
  0
TEXT
  8
_0-9_
 62
    7
 10
1580
 20
2151.9
 40
35
 41
0.6285714285714286
 50
90
  1
７５０
  0
LINE
  8
_0-8_
  6
PHANTOM2
 62
    4
 10
1670
 20
2040
 11
2580
 21
2040
  0
LINE
  8
_0-8_
  6
PHANTOM2
 62
    4
 10
1670
 20
2040
 11
1670
 21
2140
  0
LINE
  8
_0-8_
  6
PHANTOM2
 62
    4
 10
2580
 20
2040
 11
2580
 21
2140
  0
LINE
  8
_0-8_
  6
CONTINUOUS
 62
    4
 10
1670
 20
2140
 11
1662.2354286469244
 21
2111.022225211328
  0
LINE
  8
_0-8_
  6
CONTINUOUS
 62
    4
 10
1670
 20
2140
 11
1677.7645713530755
 21
2111.022225211328
  0
LINE
  8
_0-8_
  6
CONTINUOUS
 62
    4
 10
2580
 20
2140
 11
2572.2354286469244
 21
2111.022225211328
  0
LINE
  8
_0-8_
  6
CONTINUOUS
 62
    4
 10
2580
 20
2140
 11
2587.7645713530755
 21
2111.022225211328
  0
TEXT
  8
_0-8_
 62
    7
 10
2565
 20
2140
 40
35
 41
0.857142857142857
 50
0
  1
Ａ
  0
TEXT
  8
_0-8_
 62
    7
 10
1655
 20
2140
 40
35
 41
0.857142857142857
 50
0
  1
Ａ
  0
LINE
  8
_0-9_
  6
CONTINUOUS
 62
    4
 10
1750
 20
2730
 11
1750
 21
2590
  0
POINT
  8
_0-9_
 62
    3
 10
1750
 20
2730
  0
LINE
  8
_0-9_
  6
CONTINUOUS
 62
    4
 10
2500
 20
2730
 11
2500
 21
2590
  0
POINT
  8
_0-9_
 62
    3
 10
2500
 20
2730
  0
LINE
  8
_0-9_
  6
CONTINUOUS
 62
    4
 10
1750
 20
2730
 11
2500
 21
2730
  0
TEXT
  8
_0-9_
 62
    7
 10
2091.9
 20
2732.0000000000004
 40
35
 41
0.6285714285714286
 50
0
  1
７５０
  0
LINE
  8
_0-8_
  6
PHANTOM2
 62
    4
 10
1670
 20
2810
 11
2580
 21
2810
  0
LINE
  8
_0-8_
  6
PHANTOM2
 62
    4
 10
1670
 20
2810
 11
1670
 21
2710
  0
LINE
  8
_0-8_
  6
PHANTOM2
 62
    4
 10
2580
 20
2810
 11
2580
 21
2710
  0
LINE
  8
_0-8_
  6
CONTINUOUS
 62
    4
 10
1670
 20
2710
 11
1662.2354286469244
 21
2738.9777747886719
  0
LINE
  8
_0-8_
  6
CONTINUOUS
 62
    4
 10
1670
 20
2710
 11
1677.7645713530755
 21
2738.9777747886719
  0
LINE
  8
_0-8_
  6
CONTINUOUS
 62
    4
 10
2580
 20
2710
 11
2572.2354286469244
 21
2738.9777747886719
  0
LINE
  8
_0-8_
  6
CONTINUOUS
 62
    4
 10
2580
 20
2710
 11
2587.7645713530755
 21
2738.9777747886719
  0
TEXT
  8
_0-8_
 62
    7
 10
1655
 20
2675
 40
35
 41
0.857142857142857
 50
0
  1
Ｃ
  0
TEXT
  8
_0-8_
 62
    7
 10
2565
 20
2675
 40
35
 41
0.857142857142857
 50
0
  1
Ｃ
  0
LINE
  8
_0-8_
  6
PHANTOM2
 62
    4
 10
2270
 20
1700
 11
2270
 21
2610
  0
LINE
  8
_0-8_
  6
PHANTOM2
 62
    4
 10
2270
 20
1700
 11
2170
 21
1700
  0
LINE
  8
_0-8_
  6
PHANTOM2
 62
    4
 10
2270
 20
2610
 11
2170
 21
2610
  0
LINE
  8
_0-8_
  6
CONTINUOUS
 62
    4
 10
2170
 20
1700
 11
2198.9777747886719
 21
1692.2354286469244
  0
LINE
  8
_0-8_
  6
CONTINUOUS
 62
    4
 10
2170
 20
1700
 11
2198.9777747886719
 21
1707.7645713530755
  0
LINE
  8
_0-8_
  6
CONTINUOUS
 62
    4
 10
2170
 20
2610
 11
2198.9777747886719
 21
2602.2354286469244
  0
LINE
  8
_0-8_
  6
CONTINUOUS
 62
    4
 10
2170
 20
2610
 11
2198.9777747886719
 21
2617.7645713530755
  0
TEXT
  8
_0-8_
 62
    7
 10
2140
 20
2592.5
 40
35
 41
0.857142857142857
 50
0
  1
Ｂ
  0
TEXT
  8
_0-8_
 62
    7
 10
2140
 20
1682.5
 40
35
 41
0.857142857142857
 50
0
  1
Ｂ
  0
LINE
  8
_0-8_
  6
CONTINUOUS
 62
    4
 10
2370
 20
1650.0000000000002
 11
2620
 21
1650.0000000000002
  0
LINE
  8
_0-8_
  6
CONTINUOUS
 62
    4
 10
2620
 20
1650.0000000000002
 11
2620
 21
1580.0000000000002
  0
LINE
  8
_0-8_
  6
CONTINUOUS
 62
    4
 10
2370
 20
1580.0000000000002
 11
2620
 21
1580.0000000000002
  0
LINE
  8
_0-8_
  6
CONTINUOUS
 62
    4
 10
2370
 20
1650.0000000000002
 11
2370
 21
1580.0000000000002
  0
LINE
  8
ADD_LINE
  6
DOT
 62
    9
 10
2370
 20
1615.0000000000002
 11
2620
 21
1615.0000000000002
  0
LINE
  8
ADD_LINE
  6
DOT
 62
    9
 10
2495
 20
1580.0000000000002
 11
2495
 21
1650.0000000000002
  0
TEXT
  8
_0-8_
 62
    7
 10
2449.8999999999978
 20
1597.5000000000002
 40
35
 41
0.857142857142857
 50
0
  1
平面図
  0
LINE
  8
_0-3_
  6
CONTINUOUS
 62
    4
 10
1750
 20
1170
 11
1750
 21
727.00000000000022
  0
LINE
  8
_0-3_
  6
CONTINUOUS
 62
    4
 10
1765
 20
1170
 11
1765
 21
727.00000000000022
  0
LINE
  8
_0-3_
  6
CONTINUOUS
 62
    4
 10
1767.5
 20
1170
 11
1767.5
 21
727.00000000000022
  0
LINE
  8
_0-9_
  6
CONTINUOUS
 62
    4
 10
2773.3796675245298
 20
2202
 11
2530
 21
2202
  0
POINT
  8
_0-9_
 62
    3
 10
2773.3796675245298
 20
2202
  0
POINT
  8
_0-9_
 62
    3
 10
2773.3796675245298
 20
2560
  0
POINT
  8
_0-9_
 62
    3
 10
2773.3796675245298
 20
2202
  0
LINE
  8
_0-9_
  6
CONTINUOUS
 62
    4
 10
2773.3796675245298
 20
2560
 11
2773.3796675245298
 21
2202
  0
TEXT
  8
_0-9_
 62
    7
 10
2773.3796675245298
 20
2347.9
 40
35
 41
0.6285714285714286
 50
90
  1
３５８
  0
POINT
  8
_0-9_
 62
    3
 10
2108
 20
1500.0000000000002
  0
LINE
  8
_0-9_
  6
CONTINUOUS
 62
    4
 10
2108
 20
1490.0000000000002
 11
2108
 21
1780
  0
POINT
  8
_0-9_
 62
    3
 10
1750
 20
1500.0000000000002
  0
POINT
  8
_0-9_
 62
    3
 10
2108
 20
1500.0000000000002
  0
LINE
  8
_0-9_
  6
CONTINUOUS
 62
    4
 10
1750
 20
1500.0000000000002
 11
2108
 21
1500.0000000000002
  0
TEXT
  8
_0-9_
 62
    7
 10
1895.9
 20
1500.0000000000002
 40
35
 41
0.6285714285714286
 50
0
  1
３５８
  0
LINE
  8
ADD_LINE
  6
DOT
 62
    9
 10
2530
 20
2170
 11
2530
 21
2590
  0
LINE
  8
ADD_LINE
  6
DOT
 62
    9
 10
1720
 20
2590
 11
2530
 21
2590
  0
LINE
  8
ADD_LINE
  6
DOT
 62
    9
 10
1720
 20
1780
 11
1720
 21
2590
  0
LINE
  8
ADD_LINE
  6
DOT
 62
    9
 10
2140
 20
1780
 11
1720
 21
1780
  0
LINE
  8
ADD_LINE
  6
DOT
 62
    9
 10
2140
 20
2170
 11
2140
 21
1780
  0
LINE
  8
ADD_LINE
  6
DOT
 62
    9
 10
2140
 20
2170
 11
2530
 21
2170
  0
LINE
  8
_0-9_
  6
CONTINUOUS
 62
    4
 10
1650
 20
945
 11
1720
 21
945
  0
POINT
  8
_0-9_
 62
    3
 10
1660
 20
945
  0
POINT
  8
_0-9_
 62
    3
 10
1660
 20
945
  0
POINT
  8
_0-9_
 62
    3
 10
1660
 20
945
  0
LINE
  8
ADD_LINE
  6
DOT
 62
    9
 10
277.99999999999954
 20
1244.5344723558584
 11
277.99999999999954
 21
1324.5344723558584
  0
LINE
  8
ADD_LINE
  6
DOT
 62
    9
 10
357.99999999999954
 20
1244.5344723558584
 11
357.99999999999954
 21
1324.5344723558584
  0
POINT
  8
_0-9_
 62
    3
 10
450
 20
1345
  0
LINE
  8
_0-9_
  6
CONTINUOUS
 62
    4
 10
450
 20
1355
 11
450
 21
1225
  0
POINT
  8
_0-9_
 62
    3
 10
277.99999999999954
 20
1195
  0
LINE
  8
_0-9_
  6
CONTINUOUS
 62
    4
 10
267.99999999999954
 20
1195
 11
420
 21
1195
  0
POINT
  8
_0-9_
 62
    3
 10
1199.9999999999997
 20
1345
  0
LINE
  8
_0-9_
  6
CONTINUOUS
 62
    4
 10
1199.9999999999997
 20
1355
 11
1199.9999999999997
 21
1225
  0
LINE
  8
ADD_LINE
  6
DOT
 62
    9
 10
1292.0000000000002
 20
1244.5344723558584
 11
1292.0000000000002
 21
1324.5344723558584
  0
LINE
  8
ADD_LINE
  6
DOT
 62
    9
 10
1372.0000000000002
 20
1244.5344723558584
 11
1372.0000000000002
 21
1324.5344723558584
  0
LINE
  8
ADD_LINE
  6
DOT
 62
    9
 10
1452.0000000000002
 20
1244.5344723558584
 11
1452.0000000000002
 21
1324.5344723558584
  0
POINT
  8
_0-9_
 62
    3
 10
1372.0000000000002
 20
1152.5
  0
LINE
  8
_0-9_
  6
CONTINUOUS
 62
    4
 10
1382.0000000000002
 20
1152.5
 11
1229.9999999999997
 21
1152.5
  0
POINT
  8
_0-9_
 62
    3
 10
1372.0000000000002
 20
1152.5
  0
POINT
  8
_0-9_
 62
    3
 10
1372.0000000000002
 20
1195
  0
LINE
  8
_0-9_
  6
CONTINUOUS
 62
    4
 10
1382.0000000000002
 20
1195
 11
1229.9999999999997
 21
1195
  0
LINE
  8
_0-9_
  6
CONTINUOUS
 62
    4
 10
1372.0000000000002
 20
1195
 11
1372.0000000000002
 21
1289.360858877239
  0
LINE
  8
_0-9_
  6
CONTINUOUS
 62
    4
 10
450
 20
1345
 11
1199.9999999999997
 21
1345
  0
TEXT
  8
_0-9_
 62
    7
 10
791.89999999999997
 20
1345
 40
35
 41
0.6285714285714286
 50
0
  1
７５０
  0
POINT
  8
_0-9_
 62
    3
 10
277.99999999999954
 20
695
  0
LINE
  8
_0-9_
  6
CONTINUOUS
 62
    4
 10
267.99999999999954
 20
695
 11
420
 21
695
  0
POINT
  8
_0-9_
 62
    3
 10
1372.0000000000002
 20
701.99999999999988
  0
LINE
  8
_0-9_
  6
CONTINUOUS
 62
    4
 10
1382.0000000000002
 20
701.99999999999988
 11
1229.9999999999997
 21
701.99999999999988
  0
POINT
  8
_0-9_
 62
    3
 10
1372.0000000000002
 20
744.50000000000022
  0
LINE
  8
_0-9_
  6
CONTINUOUS
 62
    4
 10
1382.0000000000002
 20
744.50000000000022
 11
1229.9999999999997
 21
744.50000000000022
  0
POINT
  8
_0-9_
 62
    3
 10
1372.0000000000002
 20
701.99999999999988
  0
POINT
  8
_0-9_
 62
    3
 10
1372.0000000000002
 20
744.50000000000022
  0
LINE
  8
_0-9_
  6
CONTINUOUS
 62
    4
 10
1382.0000000000002
 20
695
 11
1229.9999999999997
 21
695
  0
LINE
  8
_0-9_
  6
CONTINUOUS
 62
    4
 10
1382.0000000000002
 20
701.99999999999988
 11
1229.9999999999997
 21
701.99999999999988
  0
POINT
  8
_0-9_
 62
    3
 10
1372.0000000000002
 20
701.99999999999988
  0
POINT
  8
_0-9_
 62
    3
 10
1372.0000000000002
 20
695
  0
LINE
  8
_0-9_
  6
CONTINUOUS
 62
    4
 10
1372.0000000000002
 20
701.99999999999988
 11
1372.0000000000002
 21
695
  0
TEXT
  8
_0-9_
 62
    7
 10
1370.8829477661518
 20
671.56972209935952
 40
35
 41
0.6285714285714286
 50
90
  1
７
  0
LINE
  8
_0-9_
  6
CONTINUOUS
 62
    4
 10
1372.0000000000002
 20
701.99999999999988
 11
1372.0000000000002
 21
661.36407977611474
  0
POINT
  8
_0-9_
 62
    3
 10
1372.0000000000002
 20
1152.5
  0
POINT
  8
_0-9_
 62
    3
 10
1372.0000000000002
 20
744.50000000000022
  0
LINE
  8
_0-9_
  6
CONTINUOUS
 62
    4
 10
1372.0000000000002
 20
1152.5
 11
1372.0000000000002
 21
744.50000000000022
  0
TEXT
  8
_0-9_
 62
    7
 10
1372.0000000000002
 20
915.40000000000009
 40
35
 41
0.6285714285714286
 50
90
  1
４０８
  0
LINE
  8
_0-9_
  6
CONTINUOUS
 62
    4
 10
3880
 20
1425
 11
3880
 21
1225
  0
POINT
  8
_0-9_
 62
    3
 10
3880
 20
1425
  0
LINE
  8
_0-9_
  6
CONTINUOUS
 62
    4
 10
4060
 20
1195
 11
3910
 21
1195
  0
LINE
  8
ADD_LINE
  6
DOT
 62
    9
 10
4050
 20
1244.5344723558584
 11
4050
 21
1324.5344723558584
  0
POINT
  8
_0-9_
 62
    3
 10
4050
 20
1195
  0
LINE
  8
_0-3_
  6
DASHED1
 62
    9
 10
3142
 20
1177
 11
3508
 21
1177
  0
LINE
  8
_0-3_
  6
CONTINUOUS
 62
    5
 10
3130
 20
1195
 11
3538.0000000000009
 21
1195
  0
POINT
  8
_0-9_
 62
    3
 10
2900
 20
1195
  0
LINE
  8
_0-9_
  6
CONTINUOUS
 62
    4
 10
2890
 20
1195
 11
3100
 21
1195
  0
POINT
  8
_0-9_
 62
    3
 10
3130
 20
1425
  0
LINE
  8
_0-9_
  6
CONTINUOUS
 62
    4
 10
3130
 20
1435
 11
3130
 21
1225
  0
LINE
  8
_0-9_
  6
CONTINUOUS
 62
    4
 10
1750
 20
1425
 11
1750
 21
1225
  0
POINT
  8
_0-9_
 62
    3
 10
1750
 20
1425
  0
LINE
  8
_0-9_
  6
CONTINUOUS
 62
    4
 10
1570
 20
1195
 11
1720
 21
1195
  0
LINE
  8
ADD_LINE
  6
DOT
 62
    9
 10
1580
 20
1244.5344723558584
 11
1580
 21
1324.5344723558584
  0
LINE
  8
_0-3_
  6
CONTINUOUS
 62
    5
 10
2091.999999999999
 20
1195
 11
2091.999999999999
 21
1135
  0
LINE
  8
_0-3_
  6
CONTINUOUS
 62
    5
 10
2500
 20
1195
 11
2091.999999999999
 21
1195
  0
LINE
  8
_0-9_
  6
CONTINUOUS
 62
    4
 10
2740
 20
1195
 11
2530
 21
1195
  0
POINT
  8
_0-9_
 62
    3
 10
2500
 20
1425
  0
LINE
  8
_0-9_
  6
CONTINUOUS
 62
    4
 10
2500
 20
1435
 11
2500
 21
1225
  0
POINT
  8
_0-9_
 62
    3
 10
1580
 20
1195
  0
POINT
  8
_0-9_
 62
    3
 10
2730
 20
1195
  0
LINE
  8
_0-3_
  6
CONTINUOUS
 62
    4
 10
1750
 20
1195
 11
2074.499999999999
 21
1195
  0
LINE
  8
_0-3_
  6
CONTINUOUS
 62
    4
 10
1767.5
 20
1180
 11
2074.499999999999
 21
1180
  0
LINE
  8
_0-3_
  6
CONTINUOUS
 62
    4
 10
1750
 20
1152.5
 11
1765
 21
1152.5
  0
LINE
  8
_0-3_
  6
CONTINUOUS
 62
    4
 10
1750
 20
1195
 11
1765
 21
1152.5
  0
LINE
  8
_0-3_
  6
CONTINUOUS
 62
    4
 10
2074.499999999999
 20
1195
 11
2091.999999999999
 21
1195
  0
LINE
  8
_0-3_
  6
CONTINUOUS
 62
    4
 10
2074.499999999999
 20
1180
 11
2091.999999999999
 21
1180
  0
LINE
  8
_0-9_
  6
CONTINUOUS
 62
    4
 10
2740
 20
695
 11
2530
 21
695
  0
POINT
  8
_0-9_
 62
    3
 10
2730
 20
695
  0
POINT
  8
_0-9_
 62
    3
 10
2730
 20
695
  0
LINE
  8
_0-9_
  6
CONTINUOUS
 62
    4
 10
4060
 20
695
 11
3910
 21
695
  0
POINT
  8
_0-9_
 62
    3
 10
4050
 20
695
  0
LINE
  8
_0-3_
  6
CONTINUOUS
 62
    5
 10
3130
 20
695
 11
3133.0000000000009
 21
695
  0
LINE
  8
_0-3_
  6
DASHED1
 62
    4
 10
3133.0000000000009
 20
695
 11
3504.5000000000004
 21
695
  0
LINE
  8
_0-3_
  6
CONTINUOUS
 62
    5
 10
3504.5000000000004
 20
695
 11
3517.4
 21
695
  0
LINE
  8
_0-3_
  6
DASHED1
 62
    4
 10
3142
 20
715
 11
3538.0000000000009
 21
715
  0
POINT
  8
_0-9_
 62
    3
 10
2900
 20
695
  0
LINE
  8
_0-9_
  6
CONTINUOUS
 62
    4
 10
2890
 20
695
 11
3100
 21
695
  0
LINE
  8
_0-9_
  6
CONTINUOUS
 62
    4
 10
1570
 20
695
 11
1720
 21
695
  0
LINE
  8
_0-3_
  6
CONTINUOUS
 62
    5
 10
1750
 20
702.00000000000022
 11
1750
 21
695
  0
LINE
  8
_0-3_
  6
CONTINUOUS
 62
    5
 10
1767.5
 20
702.00000000000022
 11
1750
 21
702.00000000000022
  0
LINE
  8
_0-3_
  6
CONTINUOUS
 62
    5
 10
1767.5
 20
715
 11
1767.5
 21
702.00000000000022
  0
LINE
  8
_0-3_
  6
CONTINUOUS
 62
    5
 10
2091.999999999999
 20
715
 11
1767.5
 21
715
  0
LINE
  8
_0-3_
  6
CONTINUOUS
 62
    5
 10
2500
 20
695
 11
2496.999999999999
 21
695
  0
LINE
  8
_0-3_
  6
CONTINUOUS
 62
    5
 10
2091.999999999999
 20
715
 11
2091.999999999999
 21
695
  0
POINT
  8
_0-9_
 62
    3
 10
1580
 20
695
  0
POINT
  8
_0-9_
 62
    3
 10
1660
 20
695
  0
LINE
  8
_0-3_
  6
CONTINUOUS
 62
    4
 10
1765
 20
744.49999999999977
 11
1750
 21
744.49999999999977
  0
LINE
  8
_0-3_
  6
CONTINUOUS
 62
    4
 10
1750
 20
744.49999999999977
 11
1765
 21
702.00000000000022
  0
LINE
  8
_0-3_
  6
CONTINUOUS
 62
    5
 10
3504.5000000000004
 20
695
 11
3538.0000000000009
 21
695
  0
LINE
  8
_0-9_
  6
CONTINUOUS
 62
    4
 10
2740
 20
679.99999999999988
 11
2530
 21
679.99999999999988
  0
POINT
  8
_0-9_
 62
    3
 10
2730
 20
679.99999999999988
  0
LINE
  8
_0-9_
  6
CONTINUOUS
 62
    4
 10
2730
 20
679.99999999999988
 11
2730
 21
641.75008073608739
  0
POINT
  8
_0-9_
 62
    3
 10
2730
 20
679.99999999999988
  0
LINE
  8
_0-9_
  6
CONTINUOUS
 62
    4
 10
2730
 20
695
 11
2730
 21
679.99999999999988
  0
TEXT
  8
_0-9_
 62
    7
 10
2728.9645311794511
 20
631.30774845733196
 40
35
 41
0.6285714285714286
 50
90
  1
１５
  0
POINT
  8
_0-9_
 62
    3
 10
1660
 20
695
  0
POINT
  8
_0-9_
 62
    3
 10
1660
 20
695
  0
POINT
  8
_0-9_
 62
    3
 10
3970
 20
695
  0
POINT
  8
_0-9_
 62
    3
 10
2900
 20
679.99999999999988
  0
LINE
  8
_0-9_
  6
CONTINUOUS
 62
    4
 10
2890
 20
679.99999999999988
 11
3100
 21
679.99999999999988
  0
LINE
  8
_0-9_
  6
CONTINUOUS
 62
    4
 10
2900
 20
679.99999999999988
 11
2900
 21
641.75008073608739
  0
POINT
  8
_0-9_
 62
    3
 10
2900
 20
695
  0
POINT
  8
_0-9_
 62
    3
 10
2900
 20
679.99999999999988
  0
LINE
  8
_0-9_
  6
CONTINUOUS
 62
    4
 10
2900
 20
695
 11
2900
 21
679.99999999999988
  0
TEXT
  8
_0-9_
 62
    7
 10
2898.1957414481371
 20
634.23290487418569
 40
35
 41
0.6285714285714286
 50
90
  1
１５
  0
LINE
  8
_0-3_
  6
CONTINUOUS
 62
    4
 10
1750
 20
1170
 11
1750
 21
1195
  0
LINE
  8
_0-3_
  6
CONTINUOUS
 62
    4
 10
1765
 20
1170
 11
1765
 21
1195
  0
LINE
  8
_0-3_
  6
CONTINUOUS
 62
    4
 10
1767.5
 20
1170
 11
1767.5
 21
1195
  0
LINE
  8
_0-3_
  6
CONTINUOUS
 62
    4
 10
1750
 20
727.00000000000022
 11
1750
 21
702.00000000000022
  0
LINE
  8
_0-3_
  6
CONTINUOUS
 62
    4
 10
1765
 20
727.00000000000022
 11
1765
 21
702.00000000000022
  0
LINE
  8
_0-3_
  6
CONTINUOUS
 62
    4
 10
1767.5
 20
727.00000000000022
 11
1767.5
 21
702.00000000000022
  0
LINE
  8
_0-3_
  6
CONTINUOUS
 62
    4
 10
2091.999999999999
 20
740
 11
2091.999999999999
 21
715
  0
LINE
  8
_0-3_
  6
CONTINUOUS
 62
    5
 10
2500
 20
1170
 11
2500
 21
1195
  0
LINE
  8
_0-3_
  6
CONTINUOUS
 62
    5
 10
2500
 20
720
 11
2500
 21
695
  0
LINE
  8
_0-3_
  6
DASHED1
 62
    4
 10
2488
 20
720
 11
2488
 21
695
  0
LINE
  8
_0-3_
  6
DASHED1
 62
    4
 10
2488
 20
1170
 11
2488
 21
1195
  0
LINE
  8
_0-3_
  6
DASHED1
 62
    4
 10
3142
 20
1170
 11
3142
 21
1195
  0
LINE
  8
_0-3_
  6
DASHED1
 62
    4
 10
3142
 20
720
 11
3142
 21
695
  0
LINE
  8
_0-3_
  6
CONTINUOUS
 62
    5
 10
3130
 20
1170
 11
3130
 21
1195
  0
LINE
  8
_0-3_
  6
CONTINUOUS
 62
    5
 10
3130
 20
720
 11
3130
 21
695
  0
POINT
  8
_0-9_
 62
    3
 10
1580
 20
1195
  0
POINT
  8
_0-9_
 62
    3
 10
1580
 20
695
  0
LINE
  8
_0-9_
  6
CONTINUOUS
 62
    4
 10
1580
 20
1195
 11
1580
 21
695
  0
TEXT
  8
_0-9_
 62
    7
 10
1580
 20
911.89999999999997
 40
35
 41
0.6285714285714286
 50
90
  1
５００
  0
POINT
  8
_0-9_
 62
    3
 10
1660
 20
945
  0
POINT
  8
_0-9_
 62
    3
 10
1660
 20
695
  0
LINE
  8
_0-9_
  6
CONTINUOUS
 62
    4
 10
1660
 20
945
 11
1660
 21
695
  0
TEXT
  8
_0-9_
 62
    7
 10
1660
 20
786.89999999999997
 40
35
 41
0.6285714285714286
 50
90
  1
２５０
  0
POINT
  8
_0-9_
 62
    3
 10
2730
 20
1195
  0
POINT
  8
_0-9_
 62
    3
 10
2730
 20
695
  0
LINE
  8
_0-9_
  6
CONTINUOUS
 62
    4
 10
2730
 20
1195
 11
2730
 21
695
  0
TEXT
  8
_0-9_
 62
    7
 10
2730
 20
911.89999999999997
 40
35
 41
0.6285714285714286
 50
90
  1
５００
  0
POINT
  8
_0-9_
 62
    3
 10
2900
 20
1195
  0
POINT
  8
_0-9_
 62
    3
 10
2900
 20
695
  0
LINE
  8
_0-9_
  6
CONTINUOUS
 62
    4
 10
2900
 20
1195
 11
2900
 21
695
  0
TEXT
  8
_0-9_
 62
    7
 10
2900
 20
911.89999999999997
 40
35
 41
0.6285714285714286
 50
90
  1
５００
  0
POINT
  8
_0-9_
 62
    3
 10
4050
 20
1195
  0
POINT
  8
_0-9_
 62
    3
 10
4050
 20
695
  0
LINE
  8
_0-9_
  6
CONTINUOUS
 62
    4
 10
4050
 20
1195
 11
4050
 21
695
  0
TEXT
  8
_0-9_
 62
    7
 10
4050
 20
911.89999999999997
 40
35
 41
0.6285714285714286
 50
90
  1
５００
  0
LINE
  8
_0-3_
  6
CONTINUOUS
 62
    4
 10
3880
 20
1177.0000000000002
 11
3880
 21
1181
  0
LINE
  8
_0-3_
  6
CONTINUOUS
 62
    4
 10
3880
 20
1195
 11
3880
 21
1181
  0
LINE
  8
_0-3_
  6
CONTINUOUS
 62
    5
 10
3880
 20
702.00000000000022
 11
3880
 21
695
  0
LINE
  8
_0-3_
  6
CONTINUOUS
 62
    5
 10
3862.5
 20
702.00000000000022
 11
3880
 21
702.00000000000022
  0
LINE
  8
_0-3_
  6
CONTINUOUS
 62
    5
 10
3538.0000000000009
 20
695
 11
3880
 21
695
  0
LINE
  8
_0-3_
  6
CONTINUOUS
 62
    4
 10
3880
 20
1177.0000000000002
 11
3880
 21
702.00000000000022
  0
LINE
  8
_0-3_
  6
CONTINUOUS
 62
    4
 10
3538.0000000000009
 20
1195
 11
3880
 21
1195
  0
LINE
  8
_0-3_
  6
CONTINUOUS
 62
    5
 10
3538.0000000000009
 20
710
 11
3862.5
 21
710
  0
LINE
  8
_0-3_
  6
CONTINUOUS
 62
    5
 10
3538.0000000000009
 20
710
 11
3538.0000000000009
 21
695
  0
LINE
  8
_0-3_
  6
CONTINUOUS
 62
    5
 10
3862.5
 20
710
 11
3862.5
 21
702.00000000000022
  0
LINE
  8
_0-3_
  6
CONTINUOUS
 62
    4
 10
3538.0000000000009
 20
1195
 11
3538.0000000000009
 21
710
  0
LINE
  8
_0-3_
  6
CONTINUOUS
 62
    4
 10
3862.5
 20
710
 11
3862.5
 21
1195
  0
LINE
  8
_0-3_
  6
CONTINUOUS
 62
    4
 10
3865
 20
702.00000000000022
 11
3865
 21
1195
  0
LINE
  8
_0-3_
  6
CONTINUOUS
 62
    4
 10
3538.0000000000009
 20
1180
 11
3862.5
 21
1180
  0
LINE
  8
_0-3_
  6
CONTINUOUS
 62
    4
 10
3865
 20
1152.5
 11
3880
 21
1152.5
  0
LINE
  8
_0-3_
  6
CONTINUOUS
 62
    4
 10
3865
 20
744.50000000000022
 11
3880
 21
744.50000000000022
  0
LINE
  8
_0-3_
  6
CONTINUOUS
 62
    4
 10
3880
 20
744.50000000000022
 11
3865
 21
702.00000000000022
  0
LINE
  8
_0-3_
  6
CONTINUOUS
 62
    4
 10
3865
 20
1152.5
 11
3880
 21
1195
  0
POINT
  8
_0-9_
 62
    3
 10
3970
 20
695
  0
POINT
  8
_0-9_
 62
    3
 10
3970
 20
885
  0
LINE
  8
_0-9_
  6
CONTINUOUS
 62
    4
 10
3980
 20
695
 11
3910
 21
695
  0
LINE
  8
_0-9_
  6
CONTINUOUS
 62
    4
 10
3980
 20
885
 11
3910
 21
885
  0
LINE
  8
_0-9_
  6
CONTINUOUS
 62
    4
 10
3970
 20
695
 11
3970
 21
885
  0
TEXT
  8
_0-9_
 62
    7
 10
3970
 20
756.89999999999997
 40
35
 41
0.6285714285714286
 50
90
  1
１９０
  0
POINT
  8
_0-9_
 62
    3
 10
3970
 20
945
  0
LINE
  8
_0-9_
  6
CONTINUOUS
 62
    4
 10
3980
 20
945
 11
3910
 21
945
  0
LINE
  8
_0-9_
  6
CONTINUOUS
 62
    4
 10
3970
 20
885
 11
3970
 21
945
  0
TEXT
  8
_0-9_
 62
    7
 10
3970
 20
892.95000000000004
 40
35
 41
0.6285714285714286
 50
90
  1
６０
  0
POINT
  8
_0-9_
 62
    3
 10
3970
 20
1005
  0
LINE
  8
_0-9_
  6
CONTINUOUS
 62
    4
 10
3980
 20
1005
 11
3910
 21
1005
  0
LINE
  8
_0-9_
  6
CONTINUOUS
 62
    4
 10
3970
 20
945
 11
3970
 21
1005
  0
TEXT
  8
_0-9_
 62
    7
 10
3970
 20
952.95000000000004
 40
35
 41
0.6285714285714286
 50
90
  1
６０
  0
POINT
  8
_0-9_
 62
    3
 10
277.99999999999954
 20
1195
  0
POINT
  8
_0-9_
 62
    3
 10
277.99999999999954
 20
695
  0
LINE
  8
_0-9_
  6
CONTINUOUS
 62
    4
 10
277.99999999999954
 20
1195
 11
277.99999999999954
 21
695
  0
TEXT
  8
_0-9_
 62
    7
 10
277.99999999999954
 20
911.89999999999997
 40
35
 41
0.6285714285714286
 50
90
  1
５００
  0
LINE
  8
_0-9_
  6
CONTINUOUS
 62
    4
 10
1372.0000000000002
 20
701.99999999999988
 11
1372.0000000000002
 21
744.50000000000022
  0
TEXT
  8
_0-9_
 62
    7
 10
1428.2847539256508
 20
684.62499999999988
 40
35
 41
0.6285714285714286
 50
90
  1
４２.５
  0
LINE
  8
_0-4_
  6
CONTINUOUS
 62
    3
 10
2107.999999999999
 20
1190
 11
2095.9999999999986
 21
1190
  0
POINT
  8
_0-9_
 62
    3
 10
1750
 20
1425
  0
POINT
  8
_0-9_
 62
    3
 10
1750
 20
1425
  0
POINT
  8
_0-9_
 62
    3
 10
2107.999999999999
 20
1425
  0
LINE
  8
_0-9_
  6
CONTINUOUS
 62
    4
 10
1750
 20
1435
 11
1750
 21
1225
  0
LINE
  8
_0-9_
  6
CONTINUOUS
 62
    4
 10
2107.999999999999
 20
1435
 11
2107.999999999999
 21
1225
  0
LINE
  8
_0-9_
  6
CONTINUOUS
 62
    4
 10
1750
 20
1425
 11
2107.999999999999
 21
1425
  0
TEXT
  8
_0-9_
 62
    7
 10
1895.8999999999994
 20
1430
 40
35
 41
0.6285714285714286
 50
0
  1
３５８
  0
POINT
  8
_0-9_
 62
    3
 10
2107.999999999999
 20
1425
  0
POINT
  8
_0-9_
 62
    3
 10
2500
 20
1425
  0
LINE
  8
_0-9_
  6
CONTINUOUS
 62
    4
 10
2107.999999999999
 20
1425
 11
2500
 21
1425
  0
TEXT
  8
_0-9_
 62
    7
 10
2270.8999999999996
 20
1430
 40
35
 41
0.6285714285714286
 50
0
  1
３９２
  0
LINE
  8
_0-4_
  6
CONTINUOUS
 62
    3
 10
3522.0000000000009
 20
1190
 11
3534.0000000000013
 21
1190
  0
POINT
  8
_0-9_
 62
    3
 10
3880
 20
1425
  0
POINT
  8
_0-9_
 62
    3
 10
3522.0000000000009
 20
1425
  0
LINE
  8
_0-9_
  6
CONTINUOUS
 62
    4
 10
3880
 20
1435
 11
3880
 21
1225
  0
LINE
  8
_0-9_
  6
CONTINUOUS
 62
    4
 10
3522.0000000000009
 20
1435
 11
3522.0000000000009
 21
1225
  0
LINE
  8
_0-9_
  6
CONTINUOUS
 62
    4
 10
3880
 20
1425
 11
3522.0000000000009
 21
1425
  0
TEXT
  8
_0-9_
 62
    7
 10
3667.9000000000005
 20
1430
 40
35
 41
0.6285714285714286
 50
0
  1
３５８
  0
POINT
  8
_0-9_
 62
    3
 10
3130
 20
1425
  0
LINE
  8
_0-9_
  6
CONTINUOUS
 62
    4
 10
3130
 20
1435
 11
3130
 21
1225
  0
LINE
  8
_0-9_
  6
CONTINUOUS
 62
    4
 10
3522.0000000000009
 20
1425
 11
3130
 21
1425
  0
TEXT
  8
_0-9_
 62
    7
 10
3292.9000000000005
 20
1430
 40
35
 41
0.6285714285714286
 50
0
  1
３９２
  0
LINE
  8
_0-9_
  6
CONTINUOUS
 62
    4
 10
1372.0000000000002
 20
1152.5
 11
1372.0000000000002
 21
1195
  0
TEXT
  8
_0-9_
 62
    7
 10
1364.4408769377412
 20
1205.1330896001607
 40
35
 41
0.6285714285714286
 50
90
  1
４２.５
  0
ARC
  8
_0-5_
  6
CONTINUOUS
 62
    4
 10
3533.5999999999989
 20
681.99999999999988
 40
1.9999999999999995
 50
269.99999999999994
 51
359.99999999999994
  0
ARC
  8
_0-5_
  6
CONTINUOUS
 62
    4
 10
3533.5999999999989
 20
681.99999999999988
 40
0.6999999999999999
 50
270
 51
0
  0
LINE
  8
_0-5_
  6
CONTINUOUS
 62
    4
 10
3535.5999999999994
 20
724
 11
3535.5999999999994
 21
681.99999999999988
  0
ARC
  8
_0-5_
  6
CONTINUOUS
 62
    4
 10
3535.0999999999985
 20
724
 40
0.4999999999999997
 50
0
 51
90
  0
ARC
  8
_0-5_
  6
CONTINUOUS
 62
    4
 10
3534.7999999999992
 20
723.70000000000004
 40
0.8000000000000001
 50
89.999999999999971
 51
231.31781254650667
  0
LINE
  8
_0-5_
  6
CONTINUOUS
 62
    4
 10
3535.0999999999985
 20
724.49999999999988
 11
3534.7999999999992
 21
724.49999999999988
  0
LINE
  8
_0-5_
  6
CONTINUOUS
 62
    4
 10
3534.2999999999992
 20
715.7244997998398
 11
3534.2999999999992
 21
723.07550020016037
  0
ARC
  8
_0-5_
  6
CONTINUOUS
 62
    4
 10
3534.7999999999992
 20
715.0999999999999
 40
0.8000000000000001
 50
128.68218745349335
 51
231.31781254650667
  0
LINE
  8
_0-5_
  6
CONTINUOUS
 62
    4
 10
3534.2999999999992
 20
710.29999999999984
 11
3534.2999999999992
 21
714.47550020016024
  0
ARC
  8
_0-5_
  6
CONTINUOUS
 62
    4
 10
3534
 20
710.29999999999984
 40
0.2999999999999998
 50
270
 51
0
  0
LINE
  8
_0-5_
  6
CONTINUOUS
 62
    4
 10
3534.2999999999992
 20
706.55038733822505
 11
3534.2999999999992
 21
681.99999999999988
  0
ARC
  8
_0-5_
  6
CONTINUOUS
 62
    4
 10
3533.2999999999992
 20
706.55038733822505
 40
0.9999999999999996
 50
359.99999999999994
 51
87.03906386583624
  0
ARC
  8
_0-5_
  6
CONTINUOUS
 62
    4
 10
3520.4999999999995
 20
715.19999999999981
 40
0.8000000000000001
 50
0.0000000000000254
 51
179.99999999999997
  0
LINE
  8
_0-5_
  6
CONTINUOUS
 62
    4
 10
3522.8285714285711
 20
679.99999999999988
 11
3533.5999999999989
 21
679.99999999999988
  0
ARC
  8
_0-5_
  6
CONTINUOUS
 62
    4
 10
3522.8285714285711
 20
681.99999999999988
 40
1.9999999999999995
 50
198.92464441605042
 51
270
  0
ARC
  8
_0-5_
  6
CONTINUOUS
 62
    4
 10
3522.8285714285711
 20
681.99999999999988
 40
0.6999999999999999
 50
198.92464441604994
 51
270
  0
LINE
  8
_0-5_
  6
CONTINUOUS
 62
    4
 10
3533.5999999999989
 20
681.29999999999984
 11
3522.8285714285711
 21
681.29999999999984
  0
LINE
  8
_0-5_
  6
CONTINUOUS
 62
    4
 10
3522.1664092664082
 20
681.77297297297275
 11
3521.0375798523659
 21
685.06539209726406
  0
ARC
  8
_0-5_
  6
CONTINUOUS
 62
    4
 10
3521.2267690415546
 20
685.13025696212878
 40
0.2
 50
133.54896276822287
 51
198.92464441605298
  0
ARC
  8
_0-5_
  6
CONTINUOUS
 62
    4
 10
3520.3999999999996
 20
685.99999999999965
 40
0.9999999999999996
 50
313.54896276821995
 51
198.92464441604971
  0
LINE
  8
_0-5_
  6
CONTINUOUS
 62
    4
 10
3520.9366795366795
 20
681.35135135135124
 11
3519.4540540540538
 21
685.6756756756755
  0
LINE
  8
_0-5_
  6
CONTINUOUS
 62
    4
 10
3521.2999999999988
 20
710.29999999999984
 11
3521.2999999999988
 21
715.19999999999981
  0
ARC
  8
_0-5_
  6
CONTINUOUS
 62
    4
 10
3521.5999999999994
 20
710.29999999999984
 40
0.2999999999999998
 50
179.99999999999997
 51
270
  0
LINE
  8
_0-5_
  6
CONTINUOUS
 62
    4
 10
3534
 20
709.99999999999988
 11
3521.5999999999994
 21
709.99999999999988
  0
LINE
  8
_0-5_
  6
CONTINUOUS
 62
    4
 10
3519.6999999999989
 20
709.34961266177435
 11
3519.6999999999989
 21
715.19999999999981
  0
ARC
  8
_0-5_
  6
CONTINUOUS
 62
    4
 10
3520.6999999999993
 20
709.34961266177435
 40
0.9999999999999996
 50
180
 51
267.03906386583628
  0
LINE
  8
_0-5_
  6
CONTINUOUS
 62
    4
 10
3533.3516550854265
 20
707.5490523231673
 11
3520.6483449145707
 21
708.35094767683233
  0
LINE
  8
ADD_LINE
  6
DOT
 62
    9
 10
3521.4884681165049
 20
715.99999999999965
 11
3519.3827734741989
 21
715.99999999999965
  0
LINE
  8
ADD_LINE
  6
DOT
 62
    9
 10
3519.6999999999989
 20
709.34961266177435
 11
3519.6999999999989
 21
708.39999999999702
  0
LINE
  8
ADD_LINE
  6
DOT
 62
    9
 10
3520.6483449145707
 20
708.35094767683233
 11
3519.6999999999989
 21
708.39999999999702
  0
LINE
  8
ADD_LINE
  6
DOT
 62
    9
 10
3522.8493185782863
 20
686.99999999999988
 11
3517.7279115660053
 21
686.99999999999988
  0
LINE
  8
ADD_LINE
  6
DOT
 62
    7
 10
3533.6787085833884
 20
715.0999999999999
 11
3534.5793231943016
 21
715.0999999999999
  0
ARC
  8
_0-5_
  6
CONTINUOUS
 62
    4
 10
2096.3999999999991
 20
681.99999999999988
 40
1.9999999999999995
 50
180.00000000000005
 51
270.00000000000005
  0
ARC
  8
_0-5_
  6
CONTINUOUS
 62
    4
 10
2096.3999999999991
 20
681.99999999999988
 40
0.6999999999999999
 50
180.00000000000005
 51
270
  0
LINE
  8
_0-5_
  6
CONTINUOUS
 62
    4
 10
2094.3999999999987
 20
724
 11
2094.3999999999987
 21
681.99999999999988
  0
ARC
  8
_0-5_
  6
CONTINUOUS
 62
    4
 10
2094.8999999999987
 20
724
 40
0.4999999999999997
 50
90
 51
180
  0
ARC
  8
_0-5_
  6
CONTINUOUS
 62
    4
 10
2095.1999999999989
 20
723.70000000000004
 40
0.8000000000000001
 50
308.68218745349338
 51
90
  0
LINE
  8
_0-5_
  6
CONTINUOUS
 62
    4
 10
2094.8999999999987
 20
724.49999999999988
 11
2095.1999999999989
 21
724.49999999999988
  0
LINE
  8
_0-5_
  6
CONTINUOUS
 62
    4
 10
2095.6999999999979
 20
715.7244997998398
 11
2095.6999999999979
 21
723.07550020016037
  0
ARC
  8
_0-5_
  6
CONTINUOUS
 62
    4
 10
2095.1999999999989
 20
715.0999999999999
 40
0.8000000000000001
 50
308.68218745349338
 51
51.317812546506594
  0
LINE
  8
_0-5_
  6
CONTINUOUS
 62
    4
 10
2095.6999999999979
 20
710.29999999999984
 11
2095.6999999999979
 21
714.47550020016024
  0
ARC
  8
_0-5_
  6
CONTINUOUS
 62
    4
 10
2095.9999999999986
 20
710.29999999999984
 40
0.2999999999999998
 50
180.00000000000005
 51
270
  0
LINE
  8
_0-5_
  6
CONTINUOUS
 62
    4
 10
2095.6999999999979
 20
706.55038733822505
 11
2095.6999999999979
 21
681.99999999999988
  0
ARC
  8
_0-5_
  6
CONTINUOUS
 62
    4
 10
2096.6999999999989
 20
706.55038733822505
 40
0.9999999999999996
 50
92.960936134163787
 51
180.00000000000005
  0
ARC
  8
_0-5_
  6
CONTINUOUS
 62
    4
 10
2109.4999999999986
 20
715.19999999999981
 40
0.8000000000000001
 50
0.0000000000000286
 51
179.99999999999997
  0
LINE
  8
_0-5_
  6
CONTINUOUS
 62
    4
 10
2107.1714285714269
 20
679.99999999999988
 11
2096.3999999999991
 21
679.99999999999988
  0
ARC
  8
_0-5_
  6
CONTINUOUS
 62
    4
 10
2107.1714285714269
 20
681.99999999999988
 40
1.9999999999999995
 50
270
 51
341.07535558394954
  0
ARC
  8
_0-5_
  6
CONTINUOUS
 62
    4
 10
2107.1714285714269
 20
681.99999999999988
 40
0.6999999999999999
 50
270
 51
341.07535558395005
  0
LINE
  8
_0-5_
  6
CONTINUOUS
 62
    4
 10
2096.3999999999991
 20
681.29999999999984
 11
2107.1714285714269
 21
681.29999999999984
  0
LINE
  8
_0-5_
  6
CONTINUOUS
 62
    4
 10
2107.8335907335899
 20
681.77297297297275
 11
2108.9624201476322
 21
685.06539209726406
  0
ARC
  8
_0-5_
  6
CONTINUOUS
 62
    4
 10
2108.7732309584434
 20
685.13025696212878
 40
0.2
 50
341.07535558394704
 51
46.451037231777071
  0
ARC
  8
_0-5_
  6
CONTINUOUS
 62
    4
 10
2109.5999999999985
 20
685.99999999999965
 40
0.9999999999999996
 50
341.07535558395028
 51
226.4510372317801
  0
LINE
  8
_0-5_
  6
CONTINUOUS
 62
    4
 10
2109.063320463319
 20
681.35135135135124
 11
2110.5459459459443
 21
685.6756756756755
  0
LINE
  8
_0-5_
  6
CONTINUOUS
 62
    4
 10
2108.6999999999993
 20
710.29999999999984
 11
2108.6999999999993
 21
715.19999999999981
  0
ARC
  8
_0-5_
  6
CONTINUOUS
 62
    4
 10
2108.3999999999987
 20
710.29999999999984
 40
0.2999999999999998
 50
270
 51
0
  0
LINE
  8
_0-5_
  6
CONTINUOUS
 62
    4
 10
2095.9999999999986
 20
709.99999999999988
 11
2108.3999999999987
 21
709.99999999999988
  0
LINE
  8
_0-5_
  6
CONTINUOUS
 62
    4
 10
2110.2999999999983
 20
709.34961266177435
 11
2110.2999999999983
 21
715.19999999999981
  0
ARC
  8
_0-5_
  6
CONTINUOUS
 62
    4
 10
2109.2999999999988
 20
709.34961266177435
 40
0.9999999999999996
 50
272.96093613416371
 51
359.99999999999994
  0
LINE
  8
_0-5_
  6
CONTINUOUS
 62
    4
 10
2096.6483449145707
 20
707.5490523231673
 11
2109.3516550854274
 21
708.35094767683233
  0
LINE
  8
ADD_LINE
  6
DOT
 62
    9
 10
2108.5115318834923
 20
715.99999999999965
 11
2110.6172265257991
 21
715.99999999999965
  0
LINE
  8
ADD_LINE
  6
DOT
 62
    9
 10
2110.2999999999983
 20
709.34961266177435
 11
2110.2999999999983
 21
708.39999999999702
  0
LINE
  8
ADD_LINE
  6
DOT
 62
    9
 10
2109.3516550854274
 20
708.35094767683233
 11
2110.2999999999983
 21
708.39999999999702
  0
LINE
  8
ADD_LINE
  6
DOT
 62
    9
 10
2107.1506814217118
 20
686.99999999999988
 11
2112.2720884339928
 21
686.99999999999988
  0
LINE
  8
ADD_LINE
  6
DOT
 62
    7
 10
2096.3212914166092
 20
715.0999999999999
 11
2095.4206768056965
 21
715.0999999999999
  0
LINE
  8
_0-4_
  6
CONTINUOUS
 62
    3
 10
2107.999999999999
 20
1190
 11
2107.999999999999
 21
709.99999999999988
  0
LINE
  8
_0-4_
  6
CONTINUOUS
 62
    3
 10
2095.9999999999986
 20
1190
 11
2095.9999999999986
 21
709.99999999999988
  0
LINE
  8
_0-4_
  6
CONTINUOUS
 62
    3
 10
3522.0000000000009
 20
1190
 11
3522.0000000000009
 21
709.99999999999988
  0
LINE
  8
_0-4_
  6
CONTINUOUS
 62
    3
 10
3534.0000000000013
 20
1190
 11
3534.0000000000013
 21
709.99999999999988
  0
LINE
  8
_0-4_
  6
CONTINUOUS
 62
    3
 10
2496.5
 20
1190
 11
2496.5
 21
680
  0
LINE
  8
_0-4_
  6
CONTINUOUS
 62
    3
 10
3133.5
 20
1190
 11
3133.5
 21
680
  0
ARC
  8
_0-5_
  6
CONTINUOUS
 62
    4
 10
2493.5
 20
683.99999999999988
 40
3.0000000000000004
 50
0
 51
90
  0
ARC
  8
_0-5_
  6
CONTINUOUS
 62
    4
 10
3136.5
 20
683.99999999999988
 40
3.0000000000000004
 50
90
 51
180
  0
LINE
  8
_0-3_
  6
CONTINUOUS
 62
    5
 10
1750
 20
2218
 11
1750
 21
2560
  0
LINE
  8
_0-3_
  6
CONTINUOUS
 62
    5
 10
2500
 20
2218
 11
2500
 21
2560
  0
LINE
  8
_0-3_
  6
CONTINUOUS
 62
    5
 10
2488
 20
2218
 11
2500
 21
2218
  0
LINE
  8
_0-3_
  6
CONTINUOUS
 62
    2
 10
2488
 20
2218
 11
2488
 21
2560
  0
LINE
  8
_0-3_
  6
CONTINUOUS
 62
    5
 10
1750
 20
2560
 11
2500
 21
2560
  0
LINE
  8
_0-3_
  6
CONTINUOUS
 62
    5
 10
2092
 20
2560
 11
1750
 21
2560
  0
LINE
  8
_0-3_
  6
CONTINUOUS
 62
    5
 10
2092
 20
1810
 11
1750
 21
1810
  0
LINE
  8
_0-3_
  6
CONTINUOUS
 62
    5
 10
2092
 20
1822
 11
2092
 21
1810
  0
LINE
  8
_0-3_
  6
DASHED1
 62
    9
 10
1765
 20
1847
 11
1750
 21
1847
  0
LINE
  8
_0-3_
  6
DASHED1
 62
    9
 10
1765
 20
1847
 11
1750
 21
1822
  0
LINE
  8
_0-3_
  6
CONTINUOUS
 62
    2
 10
2092
 20
1822
 11
1750
 21
1822
  0
LINE
  8
_0-3_
  6
CONTINUOUS
 62
    5
 10
1750
 20
2560
 11
1750
 21
1810
  0
LINE
  8
_0-3_
  6
CONTINUOUS
 62
    4
 10
2092
 20
2218
 11
2092
 21
1822
  0
LINE
  8
_0-3_
  6
DASHED1
 62
    2
 10
1767.5
 20
2542.5
 11
2488
 21
2542.5
  0
LINE
  8
_0-3_
  6
DASHED1
 62
    2
 10
1767.5
 20
2560
 11
1767.5
 21
1822
  0
LINE
  8
_0-3_
  6
CONTINUOUS
 62
    4
 10
2092
 20
2218
 11
2488
 21
2218
  0
LINE
  8
_0-3_
  6
CONTINUOUS
 62
    2
 10
2091.5
 20
2218
 11
2151.5
 21
2218
  0
LINE
  8
_0-3_
  6
CONTINUOUS
 62
    2
 10
2151.5
 20
2218
 11
2151.5
 21
2236
  0
LINE
  8
_0-3_
  6
CONTINUOUS
 62
    2
 10
2151.5
 20
2236
 11
2091.5
 21
2236
  0
LINE
  8
_0-3_
  6
CONTINUOUS
 62
    2
 10
2091.5
 20
2236
 11
2091.5
 21
2218
  0
LINE
  8
ADD_LINE
  6
DOT
 62
    2
 10
2121.5
 20
2236
 11
2121.5
 21
2218
  0
LINE
  8
ADD_LINE
  6
DOT
 62
    2
 10
2151.5
 20
2227.5
 11
2091.5
 21
2227.5
  0
LINE
  8
_0-3_
  6
CONTINUOUS
 62
    2
 10
2091.5
 20
2160
 11
2091.5
 21
2220
  0
LINE
  8
_0-3_
  6
CONTINUOUS
 62
    2
 10
2091.5
 20
2220
 11
2073.5
 21
2220
  0
LINE
  8
_0-3_
  6
CONTINUOUS
 62
    2
 10
2073.5
 20
2220
 11
2073.5
 21
2160
  0
LINE
  8
_0-3_
  6
CONTINUOUS
 62
    2
 10
2073.5
 20
2160
 11
2091.5
 21
2160
  0
LINE
  8
ADD_LINE
  6
DOT
 62
    2
 10
2073.5
 20
2190
 11
2091.5
 21
2190
  0
LINE
  8
ADD_LINE
  6
DOT
 62
    2
 10
2083
 20
2160
 11
2083
 21
2220
  0
LINE
  8
_0-3_
  6
DASHED1
 62
    9
 10
1765
 20
2251
 11
1750
 21
2251
  0
LINE
  8
_0-3_
  6
DASHED1
 62
    9
 10
1765
 20
2281
 11
1750
 21
2281
  0
LINE
  8
_0-3_
  6
DASHED1
 62
    9
 10
1765
 20
2281
 11
1750
 21
2251
  0
LINE
  8
_0-3_
  6
DASHED1
 62
    9
 10
1765
 20
2484
 11
1750
 21
2484
  0
LINE
  8
_0-3_
  6
DASHED1
 62
    9
 10
1765
 20
2541
 11
1750
 21
2541
  0
LINE
  8
_0-3_
  6
DASHED1
 62
    9
 10
1765
 20
2541
 11
1750
 21
2484
  0
LINE
  8
_0-3_
  6
DASHED1
 62
    9
 10
1775
 20
2560
 11
1775
 21
2542.5
  0
LINE
  8
_0-3_
  6
DASHED1
 62
    9
 10
2103.5
 20
2560
 11
2103.5
 21
2542.5
  0
LINE
  8
_0-3_
  6
DASHED1
 62
    9
 10
2133.5
 20
2560
 11
2133.5
 21
2542.5
  0
LINE
  8
_0-3_
  6
DASHED1
 62
    9
 10
2133.5
 20
2560
 11
2103.5
 21
2542.5
  0
LINE
  8
_0-3_
  6
DASHED1
 62
    9
 10
2463
 20
2542.5
 11
2463
 21
2560
  0
LINE
  8
_0-3_
  6
DASHED1
 62
    9
 10
2488
 20
2560
 11
2463
 21
2542.5
  0
LINE
  8
_0-3_
  6
CONTINUOUS
 62
    2
 10
2073.5
 20
1180
 11
2073.5
 21
715
  0
LINE
  8
_0-3_
  6
DASHED1
 62
    9
 10
2488
 20
1180
 11
2091.999999999999
 21
1180
  0
LINE
  8
_0-3_
  6
DASHED1
 62
    2
 10
2151.5
 20
1180
 11
2151.5
 21
715
  0
LINE
  8
_0-3_
  6
CONTINUOUS
 62
    5
 10
2091.999999999999
 20
695
 11
1750
 21
695
  0
LINE
  8
_0-3_
  6
CONTINUOUS
 62
    5
 10
2131.5
 20
695
 11
2091.999999999999
 21
695
  0
LINE
  8
_0-3_
  6
DASHED1
 62
    4
 10
2496.999999999999
 20
695
 11
2131.5
 21
695
  0
LINE
  8
_0-3_
  6
CONTINUOUS
 62
    4
 10
2110.2999999999983
 20
715
 11
2131.5
 21
715
  0
LINE
  8
_0-3_
  6
DASHED1
 62
    4
 10
2488
 20
715
 11
2131.5
 21
715
  0
LINE
  8
_0-3_
  6
CONTINUOUS
 62
    4
 10
2091.999999999999
 20
715
 11
2094.3999999999987
 21
715
  0
LINE
  8
_0-3_
  6
CONTINUOUS
 62
    5
 10
1199.9999999999997
 20
1195
 11
450
 21
1195
  0
LINE
  8
_0-3_
  6
CONTINUOUS
 62
    2
 10
1187.9999999999997
 20
1152.5
 11
467.99999999999954
 21
1152.5
  0
LINE
  8
_0-3_
  6
CONTINUOUS
 62
    5
 10
1199.9999999999997
 20
695
 11
450
 21
695
  0
LINE
  8
_0-3_
  6
CONTINUOUS
 62
    4
 10
1187.9999999999997
 20
701.50000000000022
 11
450
 21
701.50000000000022
  0
LINE
  8
_0-3_
  6
CONTINUOUS
 62
    2
 10
1187.9999999999997
 20
743.50000000000022
 11
467.99999999999954
 21
743.50000000000022
  0
LINE
  8
_0-3_
  6
CONTINUOUS
 62
    5
 10
450
 20
1195
 11
450
 21
695
  0
LINE
  8
_0-3_
  6
CONTINUOUS
 62
    4
 10
465.49999999999954
 20
1195
 11
465.49999999999954
 21
701.50000000000022
  0
LINE
  8
_0-3_
  6
CONTINUOUS
 62
    2
 10
467.99999999999954
 20
1195
 11
467.99999999999954
 21
701.50000000000022
  0
LINE
  8
_0-3_
  6
CONTINUOUS
 62
    2
 10
525.99999999999965
 20
1152.5
 11
525.99999999999965
 21
743.50000000000022
  0
LINE
  8
_0-3_
  6
CONTINUOUS
 62
    2
 10
1162.9999999999997
 20
1152.5
 11
1162.9999999999997
 21
743.50000000000022
  0
LINE
  8
_0-3_
  6
CONTINUOUS
 62
    2
 10
758.99999999999977
 20
1152.5
 11
758.99999999999977
 21
743.50000000000022
  0
LINE
  8
_0-3_
  6
CONTINUOUS
 62
    2
 10
728.99999999999977
 20
1152.5
 11
728.99999999999977
 21
743.50000000000022
  0
LINE
  8
_0-3_
  6
CONTINUOUS
 62
    5
 10
1187.9999999999997
 20
1195
 11
1187.9999999999997
 21
695
  0
LINE
  8
_0-3_
  6
CONTINUOUS
 62
    5
 10
1199.9999999999997
 20
1195
 11
1199.9999999999997
 21
695
  0
LINE
  8
ADD_LINE
  6
DOT
 62
    9
 10
1229.9999999999997
 20
1225
 11
420
 21
1225
  0
LINE
  8
ADD_LINE
  6
DOT
 62
    9
 10
1229.9999999999997
 20
1225
 11
1229.9999999999997
 21
665
  0
LINE
  8
ADD_LINE
  6
DOT
 62
    9
 10
420
 20
665
 11
1229.9999999999997
 21
665
  0
LINE
  8
ADD_LINE
  6
DOT
 62
    9
 10
420
 20
1225
 11
420
 21
665
  0
LINE
  8
ADD_LINE
  6
DOT
 62
    9
 10
825
 20
320
 11
825
 21
390
  0
LINE
  8
ADD_LINE
  6
DOT
 62
    9
 10
825
 20
1580.0000000000002
 11
825
 21
1650.0000000000002
  0
TEXT
  8
_0-8_
 62
    7
 10
674.5499999999987
 20
1597.5000000000002
 40
35
 41
0.857142857142857
 50
0
  1
背面図（矢視Ｃ－Ｃ）
  0
LINE
  8
_0-8_
  6
CONTINUOUS
 62
    4
 10
1000
 20
1650.0000000000002
 11
1000
 21
1580.0000000000002
  0
LINE
  8
_0-8_
  6
CONTINUOUS
 62
    4
 10
650
 20
1650.0000000000002
 11
650
 21
1580.0000000000002
  0
LINE
  8
_0-8_
  6
CONTINUOUS
 62
    4
 10
650
 20
1650.0000000000002
 11
1000
 21
1650.0000000000002
  0
LINE
  8
_0-8_
  6
CONTINUOUS
 62
    4
 10
650
 20
1580.0000000000002
 11
1000
 21
1580.0000000000002
  0
LINE
  8
ADD_LINE
  6
DOT
 62
    9
 10
650
 20
1615.0000000000002
 11
1000
 21
1615.0000000000002
  0
LINE
  8
_0-3_
  6
CONTINUOUS
 62
    5
 10
450
 20
2585
 11
1199.9999999999995
 21
2585
  0
LINE
  8
_0-3_
  6
CONTINUOUS
 62
    2
 10
461.99999999999988
 20
2542.25
 11
1199.9999999999995
 21
2542.25
  0
LINE
  8
_0-3_
  6
CONTINUOUS
 62
    5
 10
450
 20
2085
 11
1199.9999999999995
 21
2085
  0
LINE
  8
_0-3_
  6
CONTINUOUS
 62
    2
 10
461.99999999999988
 20
2134.5
 11
1199.9999999999995
 21
2134.5
  0
LINE
  8
_0-3_
  6
CONTINUOUS
 62
    4
 10
461.99999999999988
 20
2092
 11
1199.9999999999995
 21
2092
  0
LINE
  8
_0-3_
  6
CONTINUOUS
 62
    2
 10
486.99999999999988
 20
2542.25
 11
486.99999999999988
 21
2134.5
  0
LINE
  8
_0-3_
  6
CONTINUOUS
 62
    2
 10
1173.9999999999995
 20
2542.25
 11
1173.9999999999995
 21
2134.5
  0
LINE
  8
_0-3_
  6
CONTINUOUS
 62
    2
 10
815.49999999999954
 20
2542.25
 11
815.49999999999954
 21
2134.5
  0
LINE
  8
_0-3_
  6
CONTINUOUS
 62
    2
 10
845.49999999999954
 20
2542.25
 11
845.49999999999954
 21
2134.5
  0
LINE
  8
_0-3_
  6
CONTINUOUS
 62
    5
 10
450
 20
2585
 11
450
 21
2085
  0
LINE
  8
_0-3_
  6
CONTINUOUS
 62
    2
 10
461.99999999999988
 20
2585
 11
461.99999999999988
 21
2085
  0
LINE
  8
_0-3_
  6
CONTINUOUS
 62
    5
 10
1199.9999999999995
 20
2585
 11
1199.9999999999995
 21
2085
  0
LINE
  8
ADD_LINE
  6
DOT
 62
    9
 10
419.65840938722323
 20
2615
 11
419.65840938722323
 21
2055
  0
LINE
  8
ADD_LINE
  6
DOT
 62
    9
 10
1229.6584093872229
 20
2615
 11
419.65840938722323
 21
2615
  0
LINE
  8
ADD_LINE
  6
DOT
 62
    9
 10
1229.6584093872229
 20
2615
 11
1229.6584093872229
 21
2055
  0
LINE
  8
_0-a_
  6
CONTINUOUS
 62
    4
 10
1177.3510126776614
 20
2542.2500000000013
 11
1199.9999999999974
 21
2564.8989873223376
  0
LINE
  8
_0-a_
  6
CONTINUOUS
 62
    4
 10
1149.0667414302117
 20
2542.25
 11
1191.8167414302129
 21
2585.0000000000009
  0
LINE
  8
_0-a_
  6
CONTINUOUS
 62
    4
 10
1120.7824701827473
 20
2542.2500000000027
 11
1163.5324701827432
 21
2584.9999999999981
  0
LINE
  8
_0-a_
  6
CONTINUOUS
 62
    4
 10
1092.4981989352831
 20
2542.250000000005
 11
1135.2481989352791
 21
2585.0000000000009
  0
LINE
  8
_0-a_
  6
CONTINUOUS
 62
    4
 10
1064.2139276878128
 20
2542.2500000000013
 11
1106.9639276878142
 21
2585.0000000000027
  0
LINE
  8
_0-a_
  6
CONTINUOUS
 62
    4
 10
1035.9296564403639
 20
2542.2500000000009
 11
1078.6796564403598
 21
2584.9999999999963
  0
LINE
  8
_0-a_
  6
CONTINUOUS
 62
    4
 10
1007.6453851928997
 20
2542.2500000000031
 11
1050.3953851928954
 21
2584.999999999999
  0
LINE
  8
_0-a_
  6
CONTINUOUS
 62
    4
 10
979.36111394543559
 20
2542.2500000000059
 11
1022.1111139454314
 21
2585.0000000000018
  0
LINE
  8
_0-a_
  6
CONTINUOUS
 62
    4
 10
951.07684269796072
 20
2542.2499999999977
 11
993.82684269796186
 21
2584.999999999999
  0
LINE
  8
_0-a_
  6
CONTINUOUS
 62
    4
 10
922.7925714505161
 20
2542.2500000000018
 11
965.54257145051201
 21
2584.9999999999977
  0
LINE
  8
_0-a_
  6
CONTINUOUS
 62
    4
 10
894.50830020305193
 20
2542.250000000004
 11
937.25830020304783
 21
2585
  0
LINE
  8
_0-a_
  6
CONTINUOUS
 62
    4
 10
866.22402895558525
 20
2542.250000000004
 11
908.97402895558161
 21
2585.0000000000004
  0
LINE
  8
_0-a_
  6
CONTINUOUS
 62
    4
 10
837.93975770813267
 20
2542.25
 11
880.68975770813381
 21
2585.0000000000009
  0
LINE
  8
_0-a_
  6
CONTINUOUS
 62
    4
 10
809.65548646066849
 20
2542.2500000000027
 11
852.40548646066417
 21
2584.9999999999981
  0
LINE
  8
_0-a_
  6
CONTINUOUS
 62
    4
 10
781.37121521320409
 20
2542.2500000000045
 11
824.1212152132
 21
2585.0000000000004
  0
LINE
  8
_0-a_
  6
CONTINUOUS
 62
    4
 10
753.08694396573685
 20
2542.250000000004
 11
795.83694396573287
 21
2585
  0
LINE
  8
_0-a_
  6
CONTINUOUS
 62
    4
 10
724.80267271828495
 20
2542.2500000000009
 11
767.55267271828586
 21
2585.0000000000018
  0
LINE
  8
_0-a_
  6
CONTINUOUS
 62
    4
 10
696.51840147082054
 20
2542.2500000000031
 11
739.26840147081634
 21
2584.999999999999
  0
LINE
  8
_0-a_
  6
CONTINUOUS
 62
    4
 10
668.23413022335648
 20
2542.2500000000059
 11
710.98413022335216
 21
2585.0000000000018
  0
LINE
  8
_0-a_
  6
CONTINUOUS
 62
    4
 10
639.94985897588298
 20
2542.249999999999
 11
682.69985897588435
 21
2585
  0
LINE
  8
_0-a_
  6
CONTINUOUS
 62
    4
 10
611.665587728437
 20
2542.2500000000013
 11
654.41558772843814
 21
2585.0000000000022
  0
LINE
  8
_0-a_
  6
CONTINUOUS
 62
    4
 10
583.38131648097282
 20
2542.250000000004
 11
626.13131648096896
 21
2585
  0
LINE
  8
_0-a_
  6
CONTINUOUS
 62
    4
 10
555.09704523350876
 20
2542.2500000000063
 11
597.84704523350455
 21
2585.0000000000022
  0
LINE
  8
_0-a_
  6
CONTINUOUS
 62
    4
 10
526.81277398603447
 20
2542.249999999999
 11
569.56277398603583
 21
2585
  0
LINE
  8
_0-a_
  6
CONTINUOUS
 62
    4
 10
498.52850273858933
 20
2542.2500000000022
 11
541.27850273858507
 21
2584.9999999999981
  0
LINE
  8
_0-a_
  6
CONTINUOUS
 62
    4
 10
470.24423149112521
 20
2542.2500000000045
 11
512.99423149112101
 21
2585.0000000000004
  0
LINE
  8
_0-a_
  6
CONTINUOUS
 62
    4
 10
461.99999999999477
 20
2562.2900397563407
 11
484.70996024365689
 21
2585.0000000000036
  0
LINE
  8
_0-a_
  6
CONTINUOUS
 62
    4
 10
1193.8650813895862
 20
2134.499999999999
 11
1199.9999999999997
 21
2140.6349186104121
  0
LINE
  8
_0-a_
  6
CONTINUOUS
 62
    4
 10
1173.9999999999988
 20
2142.9191898578601
 11
1200.0000000000009
 21
2168.9191898578619
  0
LINE
  8
_0-a_
  6
CONTINUOUS
 62
    4
 10
1173.9999999999963
 20
2171.203461105324
 11
1199.9999999999986
 21
2197.2034611053263
  0
LINE
  8
_0-a_
  6
CONTINUOUS
 62
    4
 10
1173.9999999999938
 20
2199.487732352788
 11
1199.9999999999959
 21
2225.4877323527903
  0
LINE
  8
_0-a_
  6
CONTINUOUS
 62
    4
 10
1174.0000000000011
 20
2227.7720036002529
 11
1200.0000000000034
 21
2253.7720036002556
  0
LINE
  8
_0-a_
  6
CONTINUOUS
 62
    4
 10
1173.9999999999977
 20
2256.0562748477073
 11
1200
 21
2282.0562748477095
  0
LINE
  8
_0-a_
  6
CONTINUOUS
 62
    4
 10
1173.9999999999952
 20
2284.3405460951717
 11
1199.9999999999974
 21
2310.3405460951735
  0
LINE
  8
_0-a_
  6
CONTINUOUS
 62
    4
 10
1173.9999999999956
 20
2312.6248173426388
 11
1199.9999999999974
 21
2338.6248173426406
  0
LINE
  8
_0-a_
  6
CONTINUOUS
 62
    4
 10
1173.999999999999
 20
2340.9090885900905
 11
1200.0000000000013
 21
2366.9090885900932
  0
LINE
  8
_0-a_
  6
CONTINUOUS
 62
    4
 10
1173.9999999999965
 20
2369.1933598375549
 11
1199.999999999999
 21
2395.1933598375571
  0
LINE
  8
_0-a_
  6
CONTINUOUS
 62
    4
 10
1173.999999999994
 20
2397.4776310850188
 11
1199.9999999999963
 21
2423.4776310850211
  0
LINE
  8
_0-a_
  6
CONTINUOUS
 62
    4
 10
1173.9999999999931
 20
2425.7619023324846
 11
1199.9999999999952
 21
2451.7619023324864
  0
LINE
  8
_0-a_
  6
CONTINUOUS
 62
    4
 10
1173.9999999999981
 20
2454.0461735799381
 11
1200.0000000000004
 21
2480.0461735799403
  0
LINE
  8
_0-a_
  6
CONTINUOUS
 62
    4
 10
1173.9999999999956
 20
2482.3304448274025
 11
1199.9999999999979
 21
2508.3304448274043
  0
LINE
  8
_0-a_
  6
CONTINUOUS
 62
    4
 10
1173.9999999999931
 20
2510.614716074866
 11
1199.9999999999954
 21
2536.6147160748687
  0
LINE
  8
_0-a_
  6
CONTINUOUS
 62
    4
 10
1174.0000000000011
 20
2538.8989873223408
 11
1177.3510126776589
 21
2542.249999999999
  0
LINE
  8
_0-a_
  6
CONTINUOUS
 62
    4
 10
826.16955517259361
 20
2134.5
 11
845.50000000000068
 21
2153.8304448274075
  0
LINE
  8
_0-a_
  6
CONTINUOUS
 62
    4
 10
815.50000000000125
 20
2152.1147160748746
 11
845.49999999999818
 21
2182.1147160748714
  0
LINE
  8
_0-a_
  6
CONTINUOUS
 62
    4
 10
815.50000000000409
 20
2180.398987322344
 11
845.5000000000009
 21
2210.3989873223408
  0
LINE
  8
_0-a_
  6
CONTINUOUS
 62
    4
 10
815.50000000000011
 20
2208.6832585697884
 11
845.50000000000204
 21
2238.6832585697907
  0
LINE
  8
_0-a_
  6
CONTINUOUS
 62
    4
 10
815.49999999999727
 20
2236.9675298172523
 11
845.49999999999954
 21
2266.9675298172546
  0
LINE
  8
_0-a_
  6
CONTINUOUS
 62
    4
 10
815.50000000000011
 20
2265.2518010647218
 11
845.49999999999727
 21
2295.251801064719
  0
LINE
  8
_0-a_
  6
CONTINUOUS
 62
    4
 10
815.50000000000295
 20
2293.5360723121912
 11
845.49999999999977
 21
2323.5360723121884
  0
LINE
  8
_0-a_
  6
CONTINUOUS
 62
    4
 10
815.49999999999897
 20
2321.820343559636
 11
845.50000000000113
 21
2351.8203435596383
  0
LINE
  8
_0-a_
  6
CONTINUOUS
 62
    4
 10
815.50000000000159
 20
2350.1046148071054
 11
845.49999999999863
 21
2380.1046148071022
  0
LINE
  8
_0-a_
  6
CONTINUOUS
 62
    4
 10
815.49999999999897
 20
2378.3888860545694
 11
845.4999999999959
 21
2408.3888860545666
  0
LINE
  8
_0-a_
  6
CONTINUOUS
 62
    4
 10
815.50000000000181
 20
2406.6731573020388
 11
845.50000000000409
 21
2436.673157302041
  0
LINE
  8
_0-a_
  6
CONTINUOUS
 62
    4
 10
815.49999999999783
 20
2434.9574285494832
 11
845.5
 21
2464.9574285494854
  0
LINE
  8
_0-a_
  6
CONTINUOUS
 62
    4
 10
815.50000000000068
 20
2463.241699796953
 11
845.49999999999749
 21
2493.2416997969498
  0
LINE
  8
_0-a_
  6
CONTINUOUS
 62
    4
 10
815.49999999999863
 20
2491.5259710444174
 11
845.49999999999522
 21
2521.5259710444142
  0
LINE
  8
_0-a_
  6
CONTINUOUS
 62
    4
 10
815.49999999999931
 20
2519.8102422918664
 11
837.93975770813131
 21
2542.2499999999986
  0
LINE
  8
_0-a_
  6
CONTINUOUS
 62
    4
 10
486.75830020304687
 20
2134.499999999999
 11
487.00000000000073
 21
2134.741699796953
  0
LINE
  8
_0-a_
  6
CONTINUOUS
 62
    4
 10
462.000000000005
 20
2138.0259710444238
 11
487.00000000000272
 21
2163.025971044422
  0
LINE
  8
_0-a_
  6
CONTINUOUS
 62
    4
 10
462.00000000000102
 20
2166.3102422918682
 11
486.99999999999931
 21
2191.3102422918664
  0
LINE
  8
_0-a_
  6
CONTINUOUS
 62
    4
 10
461.99999999999846
 20
2194.5945135393326
 11
486.99999999999675
 21
2219.5945135393308
  0
LINE
  8
_0-a_
  6
CONTINUOUS
 62
    4
 10
461.9999999999959
 20
2222.8787847867965
 11
486.99999999999931
 21
2247.8787847868002
  0
LINE
  8
_0-a_
  6
CONTINUOUS
 62
    4
 10
462.00000000000216
 20
2251.1630560342696
 11
487.00000000000045
 21
2276.1630560342678
  0
LINE
  8
_0-a_
  6
CONTINUOUS
 62
    4
 10
461.99999999999988
 20
2279.4473272817158
 11
486.99999999999818
 21
2304.447327281714
  0
LINE
  8
_0-a_
  6
CONTINUOUS
 62
    4
 10
461.99999999999732
 20
2307.7315985291802
 11
486.9999999999959
 21
2332.7315985291784
  0
LINE
  8
_0-a_
  6
CONTINUOUS
 62
    4
 10
461.99999999999477
 20
2336.0158697766437
 11
486.99999999999846
 21
2361.0158697766478
  0
LINE
  8
_0-a_
  6
CONTINUOUS
 62
    4
 10
462.00000000000272
 20
2364.3001410241186
 11
487.00000000000102
 21
2389.3001410241167
  0
LINE
  8
_0-a_
  6
CONTINUOUS
 62
    4
 10
461.99999999999874
 20
2392.5844122715634
 11
486.99999999999704
 21
2417.5844122715616
  0
LINE
  8
_0-a_
  6
CONTINUOUS
 62
    4
 10
461.99999999999647
 20
2420.8686835190273
 11
486.99999999999477
 21
2445.8686835190255
  0
LINE
  8
_0-a_
  6
CONTINUOUS
 62
    4
 10
461.99999999999363
 20
2449.1529547664913
 11
486.99999999999732
 21
2474.1529547664954
  0
LINE
  8
_0-a_
  6
CONTINUOUS
 62
    4
 10
462.00000000000187
 20
2477.4372260139662
 11
487.00000000000017
 21
2502.4372260139643
  0
LINE
  8
_0-a_
  6
CONTINUOUS
 62
    4
 10
461.99999999999789
 20
2505.7214972614106
 11
486.99999999999619
 21
2530.7214972614092
  0
LINE
  8
_0-a_
  6
CONTINUOUS
 62
    4
 10
461.99999999999533
 20
2534.005768508875
 11
470.24423149112408
 21
2542.2500000000036
  0
LINE
  8
_0-a_
  6
CONTINUOUS
 62
    4
 10
1179.649352637055
 20
2092.0000000000009
 11
1199.9999999999977
 21
2112.3506473629436
  0
LINE
  8
_0-a_
  6
CONTINUOUS
 62
    4
 10
1151.3650813895903
 20
2092.0000000000031
 11
1193.8650813895869
 21
2134.4999999999995
  0
LINE
  8
_0-a_
  6
CONTINUOUS
 62
    4
 10
1123.0808101421357
 20
2091.9999999999968
 11
1165.5808101421371
 21
2134.4999999999981
  0
LINE
  8
_0-a_
  6
CONTINUOUS
 62
    4
 10
1066.5122676472074
 20
2092.0000000000018
 11
1109.0122676472087
 21
2134.5000000000031
  0
LINE
  8
_0-a_
  6
CONTINUOUS
 62
    4
 10
1038.2279963997475
 20
2091.9999999999995
 11
1080.7279963997439
 21
2134.4999999999959
  0
LINE
  8
_0-a_
  6
CONTINUOUS
 62
    4
 10
1009.9437251522879
 20
2091.9999999999977
 11
1052.4437251522895
 21
2134.499999999999
  0
LINE
  8
_0-a_
  6
CONTINUOUS
 62
    4
 10
981.65945390482374
 20
2092
 11
1024.1594539048251
 21
2134.5000000000018
  0
LINE
  8
_0-a_
  6
CONTINUOUS
 62
    4
 10
953.37518265735775
 20
2092.0000000000009
 11
995.87518265735434
 21
2134.4999999999972
  0
LINE
  8
_0-a_
  6
CONTINUOUS
 62
    4
 10
925.09091140990449
 20
2091.9999999999959
 11
967.59091140990585
 21
2134.4999999999972
  0
LINE
  8
_0-a_
  6
CONTINUOUS
 62
    4
 10
896.80664016244008
 20
2091.9999999999981
 11
939.3066401624419
 21
2134.5
  0
LINE
  8
_0-a_
  6
CONTINUOUS
 62
    4
 10
868.52236891497591
 20
2092.0000000000009
 11
911.0223689149775
 21
2134.5000000000022
  0
LINE
  8
_0-a_
  6
CONTINUOUS
 62
    4
 10
840.23809766750923
 20
2092.0000000000009
 11
882.73809766750582
 21
2134.4999999999972
  0
LINE
  8
_0-a_
  6
CONTINUOUS
 62
    4
 10
811.95382642005654
 20
2091.9999999999968
 11
854.45382642005824
 21
2134.4999999999981
  0
LINE
  8
_0-a_
  6
CONTINUOUS
 62
    4
 10
783.66955517259248
 20
2091.999999999999
 11
826.16955517259384
 21
2134.5000000000004
  0
LINE
  8
_0-a_
  6
CONTINUOUS
 62
    4
 10
755.3852839251283
 20
2092.0000000000018
 11
797.88528392512967
 21
2134.5000000000031
  0
LINE
  8
_0-a_
  6
CONTINUOUS
 62
    4
 10
727.10101267766049
 20
2092.0000000000004
 11
769.60101267765708
 21
2134.4999999999972
  0
LINE
  8
_0-a_
  6
CONTINUOUS
 62
    4
 10
698.81674143020882
 20
2091.9999999999972
 11
741.31674143021029
 21
2134.499999999999
  0
LINE
  8
_0-a_
  6
CONTINUOUS
 62
    4
 10
670.53247018274475
 20
2092
 11
713.03247018274623
 21
2134.5000000000013
  0
LINE
  8
_0-a_
  6
CONTINUOUS
 62
    4
 10
642.24819893528035
 20
2092.0000000000022
 11
684.74819893528206
 21
2134.5000000000036
  0
LINE
  8
_0-a_
  6
CONTINUOUS
 62
    4
 10
613.96392768781197
 20
2092.0000000000009
 11
656.46392768780856
 21
2134.4999999999972
  0
LINE
  8
_0-a_
  6
CONTINUOUS
 62
    4
 10
585.67965644036121
 20
2091.9999999999981
 11
628.17965644036257
 21
2134.4999999999995
  0
LINE
  8
_0-a_
  6
CONTINUOUS
 62
    4
 10
557.39538519289681
 20
2092.0000000000004
 11
599.89538519289851
 21
2134.5000000000022
  0
LINE
  8
_0-a_
  6
CONTINUOUS
 62
    4
 10
529.11111394543263
 20
2092.0000000000031
 11
571.61111394543411
 21
2134.5000000000045
  0
LINE
  8
_0-a_
  6
CONTINUOUS
 62
    4
 10
500.82684269796317
 20
2092.0000000000004
 11
543.32684269795947
 21
2134.4999999999963
  0
LINE
  8
_0-a_
  6
CONTINUOUS
 62
    4
 10
472.54257145051326
 20
2091.9999999999986
 11
515.04257145051496
 21
2134.5000000000004
  0
LINE
  8
_0-a_
  6
CONTINUOUS
 62
    4
 10
461.99999999999789
 20
2109.7416997969498
 11
486.75830020305085
 21
2134.5000000000031
  0
LINE
  8
_0-a_
  6
CONTINUOUS
 62
    4
 10
1173.5303038033055
 20
1152.4999999999968
 11
1188.0000000000025
 21
1166.9696961966938
  0
LINE
  8
_0-a_
  6
CONTINUOUS
 62
    4
 10
1145.2460325558413
 20
1152.499999999999
 11
1187.7460325558427
 21
1195.0000000000006
  0
LINE
  8
_0-a_
  6
CONTINUOUS
 62
    4
 10
1116.9617613083769
 20
1152.5000000000013
 11
1159.4617613083785
 21
1195.0000000000031
  0
LINE
  8
_0-a_
  6
CONTINUOUS
 62
    4
 10
1088.6774900609079
 20
1152.4999999999993
 11
1131.1774900609041
 21
1194.9999999999954
  0
LINE
  8
_0-a_
  6
CONTINUOUS
 62
    4
 10
1060.3932188134572
 20
1152.499999999997
 11
1102.893218813459
 21
1194.9999999999986
  0
LINE
  8
_0-a_
  6
CONTINUOUS
 62
    4
 10
1032.108947565993
 20
1152.4999999999995
 11
1074.6089475659946
 21
1195.0000000000009
  0
LINE
  8
_0-a_
  6
CONTINUOUS
 62
    4
 10
1003.8246763185288
 20
1152.5000000000018
 11
1046.3246763185252
 21
1194.9999999999981
  0
LINE
  8
_0-a_
  6
CONTINUOUS
 62
    4
 10
975.5404050710606
 20
1152.5000000000004
 11
1018.0404050710567
 21
1194.9999999999963
  0
LINE
  8
_0-a_
  6
CONTINUOUS
 62
    4
 10
947.25613382360916
 20
1152.4999999999972
 11
989.75613382361075
 21
1194.999999999999
  0
LINE
  8
_0-a_
  6
CONTINUOUS
 62
    4
 10
918.97186257614498
 20
1152.4999999999997
 11
961.47186257614657
 21
1195.0000000000013
  0
LINE
  8
_0-a_
  6
CONTINUOUS
 62
    4
 10
890.68759132868058
 20
1152.500000000002
 11
933.18759132867694
 21
1194.9999999999984
  0
LINE
  8
_0-a_
  6
CONTINUOUS
 62
    4
 10
862.40332008121345
 20
1152.5000000000018
 11
904.90332008120958
 21
1194.9999999999977
  0
LINE
  8
_0-a_
  6
CONTINUOUS
 62
    4
 10
834.11904883376109
 20
1152.4999999999977
 11
876.61904883376269
 21
1194.9999999999995
  0
LINE
  8
_0-a_
  6
CONTINUOUS
 62
    4
 10
805.83477758629669
 20
1152.5000000000002
 11
848.33477758629851
 21
1195.0000000000018
  0
LINE
  8
_0-a_
  6
CONTINUOUS
 62
    4
 10
777.55050633883229
 20
1152.5000000000025
 11
820.05050633882865
 21
1194.9999999999988
  0
LINE
  8
_0-a_
  6
CONTINUOUS
 62
    4
 10
749.26623509135765
 20
1152.4999999999943
 11
791.76623509135936
 21
1194.9999999999959
  0
LINE
  8
_0-a_
  6
CONTINUOUS
 62
    4
 10
720.98196384391258
 20
1152.4999999999979
 11
763.48196384391428
 21
1194.9999999999997
  0
LINE
  8
_0-a_
  6
CONTINUOUS
 62
    4
 10
692.6976925964484
 20
1152.5000000000004
 11
735.19769259644988
 21
1195.000000000002
  0
LINE
  8
_0-a_
  6
CONTINUOUS
 62
    4
 10
664.41342134898434
 20
1152.5000000000027
 11
706.91342134898059
 21
1194.999999999999
  0
LINE
  8
_0-a_
  6
CONTINUOUS
 62
    4
 10
636.12915010152903
 20
1152.4999999999959
 11
678.62915010153074
 21
1194.9999999999979
  0
LINE
  8
_0-a_
  6
CONTINUOUS
 62
    4
 10
607.84487885406463
 20
1152.4999999999984
 11
650.34487885406633
 21
1195
  0
LINE
  8
_0-a_
  6
CONTINUOUS
 62
    4
 10
579.56060760660022
 20
1152.5000000000009
 11
622.06060760660193
 21
1195.0000000000025
  0
LINE
  8
_0-a_
  6
CONTINUOUS
 62
    4
 10
551.27633635913525
 20
1152.5000000000025
 11
593.77633635913161
 21
1194.9999999999986
  0
LINE
  8
_0-a_
  6
CONTINUOUS
 62
    4
 10
522.99206511168108
 20
1152.4999999999965
 11
565.49206511168245
 21
1194.9999999999981
  0
LINE
  8
_0-a_
  6
CONTINUOUS
 62
    4
 10
494.70779386421611
 20
1152.4999999999986
 11
537.20779386421804
 21
1195.0000000000004
  0
LINE
  8
_0-a_
  6
CONTINUOUS
 62
    4
 10
467.9999999999984
 20
1154.0764773832474
 11
508.92352261674858
 21
1194.9999999999974
  0
LINE
  8
_0-a_
  6
CONTINUOUS
 62
    4
 10
467.99999999999869
 20
1182.3607486307143
 11
480.63925136928418
 21
1194.9999999999997
  0
LINE
  8
_0-a_
  6
CONTINUOUS
 62
    4
 10
1163.0000000000022
 20
745.98989873223274
 11
1188.0000000000009
 21
770.98989873223126
  0
LINE
  8
_0-a_
  6
CONTINUOUS
 62
    4
 10
1163
 20
774.27416997969714
 11
1187.9999999999984
 21
799.27416997969555
  0
LINE
  8
_0-a_
  6
CONTINUOUS
 62
    4
 10
1162.9999999999974
 20
802.55844122716143
 11
1188.0000000000013
 21
827.55844122716507
  0
LINE
  8
_0-a_
  6
CONTINUOUS
 62
    4
 10
1163
 20
830.84271247461242
 11
1187.9999999999986
 21
855.84271247461106
  0
LINE
  8
_0-a_
  6
CONTINUOUS
 62
    4
 10
1163.0000000000018
 20
859.12698372208069
 11
1188
 21
884.1269837220791
  0
LINE
  8
_0-a_
  6
CONTINUOUS
 62
    4
 10
1162.9999999999993
 20
887.41125496954509
 11
1187.9999999999977
 21
912.41125496954339
  0
LINE
  8
_0-a_
  6
CONTINUOUS
 62
    4
 10
1162.999999999999
 20
915.69552621701132
 11
1188.0000000000031
 21
940.69552621701541
  0
LINE
  8
_0-a_
  6
CONTINUOUS
 62
    4
 10
1163.0000000000009
 20
943.97979746446162
 11
1187.9999999999995
 21
968.97979746446037
  0
LINE
  8
_0-a_
  6
CONTINUOUS
 62
    4
 10
1163.0000000000011
 20
972.26406871192864
 11
1187.9999999999995
 21
997.26406871192693
  0
LINE
  8
_0-a_
  6
CONTINUOUS
 62
    4
 10
1162.9999999999986
 20
1000.5483399593929
 11
1187.999999999997
 21
1025.5483399593913
  0
LINE
  8
_0-a_
  6
CONTINUOUS
 62
    4
 10
1163
 20
1028.8326112068607
 11
1188.0000000000038
 21
1053.8326112068648
  0
LINE
  8
_0-a_
  6
CONTINUOUS
 62
    4
 10
1163.0000000000015
 20
1057.1168824543108
 11
1188.0000000000004
 21
1082.1168824543096
  0
LINE
  8
_0-a_
  6
CONTINUOUS
 62
    4
 10
1163.0000000000004
 20
1085.4011537017763
 11
1187.9999999999988
 21
1110.401153701775
  0
LINE
  8
_0-a_
  6
CONTINUOUS
 62
    4
 10
1162.9999999999979
 20
1113.6854249492407
 11
1187.9999999999963
 21
1138.6854249492391
  0
LINE
  8
_0-a_
  6
CONTINUOUS
 62
    4
 10
1163.0000000000045
 20
1141.9696961966956
 11
1173.5303038033046
 21
1152.4999999999959
  0
LINE
  8
_0-a_
  6
CONTINUOUS
 62
    4
 10
736.24603255584304
 20
743.50000000000079
 11
759.0000000000009
 21
766.25396744415877
  0
LINE
  8
_0-a_
  6
CONTINUOUS
 62
    4
 10
728.99999999999636
 20
764.5382386916209
 11
758.9999999999984
 21
794.53823869162295
  0
LINE
  8
_0-a_
  6
CONTINUOUS
 62
    4
 10
728.99999999999886
 20
792.82250993909019
 11
758.99999999999579
 21
822.82250993908724
  0
LINE
  8
_0-a_
  6
CONTINUOUS
 62
    4
 10
728.99999999999636
 20
821.10678118653595
 11
758.99999999999351
 21
851.10678118653345
  0
LINE
  8
_0-a_
  6
CONTINUOUS
 62
    4
 10
728.99999999999772
 20
849.39105243400422
 11
759.00000000000034
 21
879.39105243400672
  0
LINE
  8
_0-a_
  6
CONTINUOUS
 62
    4
 10
728.99999999999545
 20
877.67532368146862
 11
758.99999999999749
 21
907.67532368147067
  0
LINE
  8
_0-a_
  6
CONTINUOUS
 62
    4
 10
728.9999999999984
 20
905.95959492893814
 11
758.99999999999522
 21
935.95959492893507
  0
LINE
  8
_0-a_
  6
CONTINUOUS
 62
    4
 10
728.99999999999693
 20
934.24386617638515
 11
758.99999999999431
 21
964.24386617638265
  0
LINE
  8
_0-a_
  6
CONTINUOUS
 62
    4
 10
728.99999999999749
 20
962.52813742385228
 11
758.99999999999977
 21
992.52813742385455
  0
LINE
  8
_0-a_
  6
CONTINUOUS
 62
    4
 10
728.99999999999465
 20
990.81240867131646
 11
758.99999999999727
 21
1020.8124086713188
  0
LINE
  8
_0-a_
  6
CONTINUOUS
 62
    4
 10
728.99999999999749
 20
1019.0966799187858
 11
758.99999999999465
 21
1049.0966799187831
  0
LINE
  8
_0-a_
  6
CONTINUOUS
 62
    4
 10
728.99999999999749
 20
1047.3809511662343
 11
759.00000000000034
 21
1077.380951166237
  0
LINE
  8
_0-a_
  6
CONTINUOUS
 62
    4
 10
728.99999999999636
 20
1075.6652224136998
 11
758.99999999999886
 21
1105.6652224137023
  0
LINE
  8
_0-a_
  6
CONTINUOUS
 62
    4
 10
728.99999999999408
 20
1103.9494936611642
 11
758.99999999999636
 21
1133.9494936611665
  0
LINE
  8
_0-a_
  6
CONTINUOUS
 62
    4
 10
729.00000000000204
 20
1132.2337649086389
 11
749.26623509136277
 21
1152.4999999999995
  0
LINE
  8
_0-a_
  6
CONTINUOUS
 62
    4
 10
509.97186257614231
 20
743.49999999999727
 11
526.00000000000306
 21
759.52813742385797
  0
LINE
  8
_0-a_
  6
CONTINUOUS
 62
    4
 10
481.68759132867933
 20
743.50000000000079
 11
526.00000000000079
 21
787.81240867132225
  0
LINE
  8
_0-a_
  6
CONTINUOUS
 62
    4
 10
467.99999999999613
 20
758.0966799187845
 11
525.99999999999818
 21
816.09667991878654
  0
LINE
  8
_0-a_
  6
CONTINUOUS
 62
    4
 10
467.99999999999812
 20
786.38095116623492
 11
526.00000000000079
 21
844.38095116623776
  0
LINE
  8
_0-a_
  6
CONTINUOUS
 62
    4
 10
468.00000000000039
 20
814.66522241370387
 11
526.0000000000025
 21
872.66522241370603
  0
LINE
  8
_0-a_
  6
CONTINUOUS
 62
    4
 10
467.99999999999783
 20
842.94949366116816
 11
526.00000000000022
 21
900.94949366117032
  0
LINE
  8
_0-a_
  6
CONTINUOUS
 62
    4
 10
468.00000000000238
 20
871.23376490863938
 11
526.00000000000022
 21
929.23376490863688
  0
LINE
  8
_0-a_
  6
CONTINUOUS
 62
    4
 10
467.99999999999897
 20
899.51803615608423
 11
526.00000000000159
 21
957.51803615608707
  0
LINE
  8
_0-a_
  6
CONTINUOUS
 62
    4
 10
467.99999999999954
 20
927.80230740355182
 11
526.00000000000193
 21
985.80230740355375
  0
LINE
  8
_0-a_
  6
CONTINUOUS
 62
    4
 10
467.99999999999727
 20
956.08657865101599
 11
525.99999999999931
 21
1014.086578651018
  0
LINE
  8
_0-a_
  6
CONTINUOUS
 62
    4
 10
468.00000000000181
 20
984.3708498984688
 11
525.99999999999909
 21
1042.3708498984663
  0
LINE
  8
_0-a_
  6
CONTINUOUS
 62
    4
 10
467.99999999999954
 20
1012.6551211459334
 11
526.0000000000025
 21
1070.6551211459363
  0
LINE
  8
_0-a_
  6
CONTINUOUS
 62
    4
 10
467.99999999999897
 20
1040.9393923933996
 11
526.00000000000136
 21
1098.9393923934019
  0
LINE
  8
_0-a_
  6
CONTINUOUS
 62
    4
 10
467.9999999999967
 20
1069.2236636408638
 11
525.99999999999852
 21
1127.2236636408658
  0
LINE
  8
_0-a_
  6
CONTINUOUS
 62
    4
 10
468.00000000000238
 20
1097.5079348883182
 11
522.99206511167881
 21
1152.4999999999945
  0
LINE
  8
_0-a_
  6
CONTINUOUS
 62
    4
 10
468.00000000000068
 20
1125.792206135783
 11
494.70779386421554
 21
1152.4999999999977
  0
LINE
  8
_0-a_
  6
CONTINUOUS
 62
    4
 10
450.00000000000397
 20
711.81240867132544
 11
465.50000000000409
 21
727.31240867132601
  0
LINE
  8
_0-a_
  6
CONTINUOUS
 62
    4
 10
450.00000000000142
 20
740.09667991878973
 11
465.50000000000181
 21
755.59667991879018
  0
LINE
  8
_0-a_
  6
CONTINUOUS
 62
    4
 10
450.00000000000255
 20
768.38095116623935
 11
465.50000000000238
 21
783.88095116623935
  0
LINE
  8
_0-a_
  6
CONTINUOUS
 62
    4
 10
449.99999999999971
 20
796.66522241370319
 11
465.49999999999982
 21
812.1652224137033
  0
LINE
  8
_0-a_
  6
CONTINUOUS
 62
    4
 10
450.00000000000341
 20
824.94949366117361
 11
465.5000000000038
 21
840.44949366117396
  0
LINE
  8
_0-a_
  6
CONTINUOUS
 62
    4
 10
450.00000000000113
 20
853.23376490863802
 11
465.50000000000125
 21
868.73376490863824
  0
LINE
  8
_0-a_
  6
CONTINUOUS
 62
    4
 10
450.00000000000085
 20
881.51803615608616
 11
465.50000000000096
 21
897.01803615608628
  0
LINE
  8
_0-a_
  6
CONTINUOUS
 62
    4
 10
449.99999999999801
 20
909.80230740355011
 11
465.4999999999984
 21
925.30230740355034
  0
LINE
  8
_0-a_
  6
CONTINUOUS
 62
    4
 10
450.00000000000341
 20
938.08657865102202
 11
465.50000000000352
 21
953.58657865102213
  0
LINE
  8
_0-a_
  6
CONTINUOUS
 62
    4
 10
450.00000000000198
 20
966.37084989846914
 11
465.50000000000181
 21
981.87084989846925
  0
LINE
  8
_0-a_
  6
CONTINUOUS
 62
    4
 10
449.99999999999914
 20
994.65512114593298
 11
465.49999999999954
 21
1010.1551211459332
  0
LINE
  8
_0-a_
  6
CONTINUOUS
 62
    4
 10
449.99999999999658
 20
1022.939392393397
 11
465.5000000000021
 21
1038.4393923934026
  0
LINE
  8
_0-a_
  6
CONTINUOUS
 62
    4
 10
450.00000000000284
 20
1051.2236636408699
 11
465.50000000000324
 21
1066.7236636408706
  0
LINE
  8
_0-a_
  6
CONTINUOUS
 62
    4
 10
450.00000000000028
 20
1079.5079348883159
 11
465.50000000000068
 21
1095.0079348883161
  0
LINE
  8
_0-a_
  6
CONTINUOUS
 62
    4
 10
449.99999999999772
 20
1107.7922061357801
 11
465.49999999999783
 21
1123.2922061357803
  0
LINE
  8
_0-a_
  6
CONTINUOUS
 62
    4
 10
450.00000000000511
 20
1136.0764773832538
 11
465.50000000000522
 21
1151.5764773832543
  0
LINE
  8
_0-a_
  6
CONTINUOUS
 62
    4
 10
450.00000000000255
 20
1164.3607486307182
 11
465.50000000000295
 21
1179.8607486307184
  0
LINE
  8
_0-a_
  6
CONTINUOUS
 62
    4
 10
449.99999999999886
 20
1192.6450198781631
 11
452.35498012183683
 21
1195.0000000000009
  0
LINE
  8
_0-a_
  6
CONTINUOUS
 62
    4
 10
1175.0786437626807
 20
701.49999999999613
 11
1188.0000000000034
 21
714.42135623731871
  0
LINE
  8
_0-a_
  6
CONTINUOUS
 62
    4
 10
1146.7943725152306
 20
701.49999999999454
 11
1187.9999999999981
 21
742.70562748476197
  0
LINE
  8
_0-a_
  6
CONTINUOUS
 62
    4
 10
1118.5101012677664
 20
701.49999999999681
 11
1160.5101012677687
 21
743.4999999999992
  0
LINE
  8
_0-a_
  6
CONTINUOUS
 62
    4
 10
1090.225830020302
 20
701.4999999999992
 11
1132.2258300203043
 21
743.50000000000147
  0
LINE
  8
_0-a_
  6
CONTINUOUS
 62
    4
 10
1061.9415587728333
 20
701.49999999999727
 11
1103.9415587728353
 21
743.4999999999992
  0
LINE
  8
_0-a_
  6
CONTINUOUS
 62
    4
 10
1033.6572875253825
 20
701.49999999999499
 11
1075.65728752539
 21
743.50000000000238
  0
LINE
  8
_0-a_
  6
CONTINUOUS
 62
    4
 10
1005.3730162779179
 20
701.49999999999704
 11
1047.3730162779204
 21
743.49999999999954
  0
LINE
  8
_0-a_
  6
CONTINUOUS
 62
    4
 10
977.08874503045376
 20
701.49999999999954
 11
1019.088745030456
 21
743.50000000000181
  0
LINE
  8
_0-a_
  6
CONTINUOUS
 62
    4
 10
948.80447378298617
 20
701.49999999999852
 11
990.80447378298822
 21
743.50000000000045
  0
LINE
  8
_0-a_
  6
CONTINUOUS
 62
    4
 10
920.52020253553428
 20
701.49999999999522
 11
962.52020253554201
 21
743.50000000000272
  0
LINE
  8
_0-a_
  6
CONTINUOUS
 62
    4
 10
892.23593128806987
 20
701.49999999999761
 11
934.23593128807215
 21
743.49999999999977
  0
LINE
  8
_0-a_
  6
CONTINUOUS
 62
    4
 10
863.95166004060547
 20
701.49999999999977
 11
905.95166004060797
 21
743.50000000000227
  0
LINE
  8
_0-a_
  6
CONTINUOUS
 62
    4
 10
835.66738879313606
 20
701.49999999999693
 11
877.66738879313834
 21
743.49999999999931
  0
LINE
  8
_0-a_
  6
CONTINUOUS
 62
    4
 10
807.38311754568599
 20
701.49999999999545
 11
849.38311754569372
 21
743.50000000000306
  0
LINE
  8
_0-a_
  6
CONTINUOUS
 62
    4
 10
779.09884629822158
 20
701.49999999999772
 11
821.09884629822408
 21
743.50000000000022
  0
LINE
  8
_0-a_
  6
CONTINUOUS
 62
    4
 10
750.81457505075741
 20
701.50000000000022
 11
792.81457505075991
 21
743.50000000000261
  0
LINE
  8
_0-a_
  6
CONTINUOUS
 62
    4
 10
722.53030380330244
 20
701.49999999999351
 11
764.53030380330972
 21
743.5000000000009
  0
LINE
  8
_0-a_
  6
CONTINUOUS
 62
    4
 10
694.24603255583804
 20
701.4999999999959
 11
736.2460325558402
 21
743.49999999999806
  0
LINE
  8
_0-a_
  6
CONTINUOUS
 62
    4
 10
665.96176130837363
 20
701.4999999999984
 11
707.96176130837579
 21
743.50000000000045
  0
LINE
  8
_0-a_
  6
CONTINUOUS
 62
    4
 10
637.67749006090809
 20
701.49999999999954
 11
679.67749006091025
 21
743.50000000000147
  0
LINE
  8
_0-a_
  6
CONTINUOUS
 62
    4
 10
609.39321881345426
 20
701.49999999999397
 11
651.39321881346177
 21
743.50000000000147
  0
LINE
  8
_0-a_
  6
CONTINUOUS
 62
    4
 10
581.10894756599009
 20
701.49999999999636
 11
623.10894756599225
 21
743.49999999999863
  0
LINE
  8
_0-a_
  6
CONTINUOUS
 62
    4
 10
552.82467631852546
 20
701.49999999999863
 11
594.82467631852784
 21
743.50000000000079
  0
LINE
  8
_0-a_
  6
CONTINUOUS
 62
    4
 10
524.54040507106071
 20
701.50000000000034
 11
566.54040507106287
 21
743.50000000000261
  0
LINE
  8
_0-a_
  6
CONTINUOUS
 62
    4
 10
496.25613382360569
 20
701.49999999999408
 11
538.25613382361325
 21
743.50000000000159
  0
LINE
  8
_0-a_
  6
CONTINUOUS
 62
    4
 10
468.00000000000324
 20
701.52813742385819
 11
509.97186257614373
 21
743.49999999999886
  0
LINE
  8
_0-a_
  6
CONTINUOUS
 62
    4
 10
467.99999999999954
 20
729.81240867132112
 11
481.68759132867961
 21
743.50000000000125
  0
POINT
  8
_0-9_
 62
    3
 10
467.99999999999982
 20
545
  0
POINT
  8
_0-9_
 62
    3
 10
526
 20
545
  0
LINE
  8
_0-9_
  6
CONTINUOUS
 62
    4
 10
467.99999999999982
 20
535
 11
467.99999999999982
 21
665
  0
LINE
  8
_0-9_
  6
CONTINUOUS
 62
    4
 10
526
 20
535
 11
526
 21
665
  0
LINE
  8
_0-9_
  6
CONTINUOUS
 62
    4
 10
467.99999999999982
 20
545
 11
526
 21
545
  0
TEXT
  8
_0-9_
 62
    7
 10
474.94999999999976
 20
550
 40
35
 41
0.6285714285714286
 50
0
  1
５８
  0
POINT
  8
_0-9_
 62
    3
 10
729
 20
545
  0
LINE
  8
_0-9_
  6
CONTINUOUS
 62
    4
 10
729
 20
535
 11
729
 21
665
  0
LINE
  8
_0-9_
  6
CONTINUOUS
 62
    4
 10
526
 20
545
 11
729
 21
545
  0
TEXT
  8
_0-9_
 62
    7
 10
594.39999999999997
 20
550
 40
35
 41
0.6285714285714286
 50
0
  1
２０３
  0
POINT
  8
_0-9_
 62
    3
 10
759
 20
545
  0
LINE
  8
_0-9_
  6
CONTINUOUS
 62
    4
 10
759
 20
535
 11
759
 21
665
  0
POINT
  8
_0-9_
 62
    3
 10
1162.9999999999997
 20
545
  0
LINE
  8
_0-9_
  6
CONTINUOUS
 62
    4
 10
1162.9999999999997
 20
535
 11
1162.9999999999997
 21
665
  0
LINE
  8
_0-9_
  6
CONTINUOUS
 62
    4
 10
759
 20
545
 11
1162.9999999999997
 21
545
  0
TEXT
  8
_0-9_
 62
    7
 10
927.89999999999986
 20
550
 40
35
 41
0.6285714285714286
 50
0
  1
４０４
  0
POINT
  8
_0-9_
 62
    3
 10
1187.9999999999997
 20
545
  0
LINE
  8
_0-9_
  6
CONTINUOUS
 62
    4
 10
1187.9999999999997
 20
535
 11
1187.9999999999997
 21
665
  0
LINE
  8
_0-9_
  6
CONTINUOUS
 62
    4
 10
729
 20
545
 11
759
 21
545
  0
TEXT
  8
_0-9_
 62
    7
 10
766.37348934358578
 20
550
 40
35
 41
0.6285714285714286
 50
0
  1
３０
  0
LINE
  8
_0-9_
  6
CONTINUOUS
 62
    4
 10
1162.9999999999997
 20
545
 11
1187.9999999999997
 21
545
  0
TEXT
  8
_0-9_
 62
    7
 10
1119.29954633744
 20
550
 40
35
 41
0.6285714285714286
 50
0
  1
２５
  0
LINE
  8
ADD_LINE
  6
DOT
 62
    9
 10
277.99999999999926
 20
2634.5344723558587
 11
277.99999999999926
 21
2714.5344723558587
  0
LINE
  8
ADD_LINE
  6
DOT
 62
    9
 10
357.99999999999954
 20
2634.5344723558587
 11
357.99999999999954
 21
2714.5344723558587
  0
POINT
  8
_0-9_
 62
    3
 10
277.99999999999954
 20
2585
  0
LINE
  8
_0-9_
  6
CONTINUOUS
 62
    4
 10
267.99999999999954
 20
2585
 11
420
 21
2585
  0
POINT
  8
_0-9_
 62
    3
 10
1349.9999999999997
 20
2585
  0
LINE
  8
_0-9_
  6
CONTINUOUS
 62
    4
 10
1349.9999999999997
 20
2585
 11
1349.9999999999997
 21
2699.8472382481313
  0
POINT
  8
_0-9_
 62
    3
 10
1349.9999999999997
 20
2585
  0
POINT
  8
_0-9_
 62
    3
 10
1349.9999999999997
 20
2542.5
  0
LINE
  8
_0-9_
  6
CONTINUOUS
 62
    4
 10
1359.9999999999997
 20
2542.5
 11
1229.9999999999995
 21
2542.5
  0
LINE
  8
_0-9_
  6
CONTINUOUS
 62
    4
 10
1349.9999999999997
 20
2585
 11
1229.9999999999995
 21
2585
  0
LINE
  8
_0-9_
  6
CONTINUOUS
 62
    4
 10
1349.9999999999997
 20
2585
 11
1349.9999999999997
 21
2542.5
  0
TEXT
  8
_0-9_
 62
    7
 10
1344.8389605177349
 20
2606.8375495409622
 40
35
 41
0.6285714285714286
 50
90
  1
４２.５
  0
POINT
  8
_0-9_
 62
    3
 10
1199.9999999999997
 20
2755
  0
POINT
  8
_0-9_
 62
    3
 10
450
 20
2755
  0
LINE
  8
_0-9_
  6
CONTINUOUS
 62
    4
 10
1199.9999999999997
 20
2765
 11
1199.9999999999997
 21
2615
  0
LINE
  8
_0-9_
  6
CONTINUOUS
 62
    4
 10
450
 20
2765
 11
450
 21
2615
  0
LINE
  8
_0-9_
  6
CONTINUOUS
 62
    4
 10
1199.9999999999997
 20
2755
 11
450
 21
2755
  0
TEXT
  8
_0-9_
 62
    7
 10
791.89999999999997
 20
2760
 40
35
 41
0.6285714285714286
 50
0
  1
７５０
  0
LINE
  8
ADD_LINE
  6
DOT
 62
    9
 10
419.65840938722323
 20
2055
 11
1229.6584093872229
 21
2055
  0
POINT
  8
_0-9_
 62
    3
 10
1349.9999999999997
 20
2542.5
  0
POINT
  8
_0-9_
 62
    3
 10
277.99999999999954
 20
2585
  0
POINT
  8
_0-9_
 62
    3
 10
1349.9999999999997
 20
2134.5
  0
POINT
  8
_0-9_
 62
    3
 10
1349.9999999999997
 20
2092
  0
POINT
  8
_0-9_
 62
    3
 10
1349.9999999999997
 20
2085
  0
LINE
  8
_0-9_
  6
CONTINUOUS
 62
    4
 10
1359.9999999999997
 20
2085
 11
1229.9999999999995
 21
2085
  0
LINE
  8
_0-9_
  6
CONTINUOUS
 62
    4
 10
1359.9999999999997
 20
2092
 11
1229.9999999999995
 21
2092
  0
LINE
  8
_0-9_
  6
CONTINUOUS
 62
    4
 10
1359.9999999999997
 20
2134.5
 11
1229.9999999999995
 21
2134.5
  0
LINE
  8
_0-9_
  6
CONTINUOUS
 62
    4
 10
1349.9999999999997
 20
2085
 11
1349.9999999999997
 21
2047.16443671057
  0
LINE
  8
_0-9_
  6
CONTINUOUS
 62
    4
 10
1349.9999999999997
 20
2092
 11
1349.9999999999997
 21
2085
  0
TEXT
  8
_0-9_
 62
    7
 10
1348.4959080259463
 20
2061.4637461623965
 40
35
 41
0.6285714285714286
 50
90
  1
７
  0
LINE
  8
_0-9_
  6
CONTINUOUS
 62
    4
 10
1349.9999999999997
 20
2134.5
 11
1349.9999999999997
 21
2092
  0
TEXT
  8
_0-9_
 62
    7
 10
1399.2311744343553
 20
2074.625
 40
35
 41
0.6285714285714286
 50
90
  1
４２.５
  0
POINT
  8
_0-9_
 62
    3
 10
1349.9999999999997
 20
2134.5
  0
POINT
  8
_0-9_
 62
    3
 10
1349.9999999999997
 20
2542.5
  0
POINT
  8
_0-9_
 62
    3
 10
1349.9999999999997
 20
2134.5
  0
LINE
  8
_0-9_
  6
CONTINUOUS
 62
    4
 10
1349.9999999999997
 20
2542.5
 11
1349.9999999999997
 21
2134.5
  0
TEXT
  8
_0-9_
 62
    7
 10
1344.9999999999997
 20
2305.4
 40
35
 41
0.6285714285714286
 50
90
  1
４０８
  0
POINT
  8
_0-9_
 62
    3
 10
277.99999999999954
 20
2085
  0
LINE
  8
_0-9_
  6
CONTINUOUS
 62
    4
 10
267.99999999999954
 20
2085
 11
420
 21
2085
  0
POINT
  8
_0-9_
 62
    3
 10
461.99999999999988
 20
1901.0397653194263
  0
POINT
  8
_0-9_
 62
    3
 10
461.99999999999988
 20
1901.0397653194263
  0
POINT
  8
_0-9_
 62
    3
 10
486.99999999999988
 20
1901.0397653194263
  0
POINT
  8
_0-9_
 62
    3
 10
815.49999999999977
 20
1901.0397653194263
  0
LINE
  8
_0-9_
  6
CONTINUOUS
 62
    4
 10
486.99999999999988
 20
1901.0397653194263
 11
815.49999999999977
 21
1901.0397653194263
  0
TEXT
  8
_0-9_
 62
    7
 10
601.5749999999997
 20
1906.0397653194263
 40
35
 41
0.6285714285714286
 50
0
  1
３２８.５
  0
POINT
  8
_0-9_
 62
    3
 10
845.49999999999977
 20
1901.0397653194263
  0
POINT
  8
_0-9_
 62
    3
 10
1173.9999999999997
 20
1901.0397653194263
  0
LINE
  8
_0-9_
  6
CONTINUOUS
 62
    4
 10
845.49999999999977
 20
1901.0397653194263
 11
1173.9999999999997
 21
1901.0397653194263
  0
TEXT
  8
_0-9_
 62
    7
 10
960.07499999999981
 20
1906.0397653194263
 40
35
 41
0.6285714285714286
 50
0
  1
３２８.５
  0
LINE
  8
_0-9_
  6
CONTINUOUS
 62
    4
 10
815.49999999999977
 20
1901.0397653194263
 11
845.49999999999977
 21
1901.0397653194263
  0
TEXT
  8
_0-9_
 62
    7
 10
771.3662586807859
 20
1906.0397653194263
 40
35
 41
0.6285714285714286
 50
0
  1
３０
  0
LINE
  8
_0-9_
  6
CONTINUOUS
 62
    4
 10
461.99999999999988
 20
1901.0397653194263
 11
486.99999999999988
 21
1901.0397653194263
  0
TEXT
  8
_0-9_
 62
    7
 10
411.88989968868867
 20
1906.0397653194263
 40
35
 41
0.6285714285714286
 50
0
  1
２５
  0
POINT
  8
_0-9_
 62
    3
 10
1173.9999999999997
 20
1901.0397653194263
  0
POINT
  8
_0-9_
 62
    3
 10
1198.9999999999997
 20
1901.0397653194263
  0
LINE
  8
_0-9_
  6
CONTINUOUS
 62
    4
 10
1173.9999999999997
 20
1901.0397653194263
 11
1198.9999999999997
 21
1901.0397653194263
  0
TEXT
  8
_0-9_
 62
    7
 10
1207.4267115451134
 20
1906.0397653194263
 40
35
 41
0.6285714285714286
 50
0
  1
２５
  0
LINE
  8
_0-9_
  6
CONTINUOUS
 62
    4
 10
1198.9999999999997
 20
1891.0397653194263
 11
1198.9999999999997
 21
2055
  0
LINE
  8
_0-9_
  6
CONTINUOUS
 62
    4
 10
1173.9999999999997
 20
1891.0397653194263
 11
1173.9999999999997
 21
2055
  0
LINE
  8
_0-9_
  6
CONTINUOUS
 62
    4
 10
461.99999999999988
 20
1891.0397653194263
 11
461.99999999999988
 21
2055
  0
LINE
  8
_0-9_
  6
CONTINUOUS
 62
    4
 10
461.99999999999988
 20
1891.0397653194263
 11
461.99999999999988
 21
2055
  0
LINE
  8
_0-9_
  6
CONTINUOUS
 62
    4
 10
486.99999999999988
 20
1891.0397653194263
 11
486.99999999999988
 21
2055
  0
LINE
  8
_0-9_
  6
CONTINUOUS
 62
    4
 10
815.49999999999977
 20
1891.0397653194263
 11
815.49999999999977
 21
2055
  0
LINE
  8
_0-9_
  6
CONTINUOUS
 62
    4
 10
845.49999999999977
 20
1891.0397653194263
 11
845.49999999999977
 21
2055
  0
LINE
  8
_0-9_
  6
CONTINUOUS
 62
    4
 10
1173.9999999999997
 20
1891.0397653194263
 11
1173.9999999999997
 21
2055
  0
POINT
  8
_0-9_
 62
    3
 10
277.99999999999954
 20
2085
  0
LINE
  8
ADD_LINE
  6
DOT
 62
    9
 10
221.96870925684464
 20
1901.0397653194263
 11
314.90221642763998
 21
1901.0397653194263
  0
LINE
  8
ADD_LINE
  6
DOT
 62
    9
 10
221.96870925684464
 20
1981.0397653194263
 11
314.90221642763998
 21
1981.0397653194263
  0
POINT
  8
_0-9_
 62
    3
 10
277.99999999999954
 20
2085
  0
POINT
  8
_0-9_
 62
    3
 10
277.99999999999954
 20
2585
  0
LINE
  8
_0-9_
  6
CONTINUOUS
 62
    4
 10
277.99999999999954
 20
2085
 11
277.99999999999954
 21
2585
  0
TEXT
  8
_0-9_
 62
    7
 10
272.99999999999954
 20
2301.9
 40
35
 41
0.6285714285714286
 50
90
  1
５００
  0
LINE
  8
_0-8_
  6
CONTINUOUS
 62
    4
 10
1600
 20
2640
 11
1571.022225211328
 21
2647.7645713530755
  0
LINE
  8
_0-8_
  6
CONTINUOUS
 62
    4
 10
1600
 20
2640
 11
1571.022225211328
 21
2632.2354286469244
  0
LINE
  8
_0-8_
  6
PHANTOM2
 62
    4
 10
1500
 20
2640
 11
1600
 21
2640
  0
LINE
  8
_0-8_
  6
PHANTOM2
 62
    4
 10
1500
 20
2640
 11
1500
 21
1730
  0
LINE
  8
_0-8_
  6
CONTINUOUS
 62
    4
 10
1600
 20
1730
 11
1571.0222252113276
 21
1722.2354286469244
  0
LINE
  8
_0-8_
  6
CONTINUOUS
 62
    4
 10
1600
 20
1730
 11
1571.022225211328
 21
1737.7645713530755
  0
LINE
  8
_0-8_
  6
PHANTOM2
 62
    4
 10
1500
 20
1730
 11
1600
 21
1730
  0
TEXT
  8
_0-8_
 62
    7
 10
1603.0652047321746
 20
2622.5
 40
35
 41
0.857142857142857
 50
0
  1
Ｄ
  0
TEXT
  8
_0-8_
 62
    7
 10
1603.0652047321746
 20
1712.5
 40
35
 41
0.857142857142857
 50
0
  1
Ｄ
  0
LINE
  8
_0-8_
  6
CONTINUOUS
 62
    4
 10
1000
 20
392.5
 11
1000
 21
322.5
  0
LINE
  8
_0-8_
  6
CONTINUOUS
 62
    4
 10
650
 20
392.5
 11
650
 21
322.5
  0
LINE
  8
_0-8_
  6
CONTINUOUS
 62
    4
 10
650
 20
392.5
 11
1000
 21
392.5
  0
LINE
  8
_0-8_
  6
CONTINUOUS
 62
    4
 10
650
 20
322.5
 11
1000
 21
322.5
  0
TEXT
  8
_0-8_
 62
    7
 10
674.5499999999987
 20
340
 40
35
 41
0.857142857142857
 50
0
  1
背面図（矢視Ｄ－Ｄ）
  0
LINE
  8
_0-4_
  6
CONTINUOUS
 62
    3
 10
2496.5
 20
2202
 11
2496.5
 21
2214
  0
LINE
  8
_0-4_
  6
CONTINUOUS
 62
    3
 10
2131.5
 20
2214
 11
2496.5
 21
2214
  0
LINE
  8
_0-4_
  6
CONTINUOUS
 62
    3
 10
2131.5
 20
2202
 11
2131.5
 21
2214
  0
LINE
  8
_0-4_
  6
CONTINUOUS
 62
    3
 10
2131.5
 20
2202
 11
2496.5
 21
2202
  0
LINE
  8
_0-4_
  6
CONTINUOUS
 62
    3
 10
2108
 20
1813.5
 11
2096
 21
1813.5
  0
LINE
  8
_0-4_
  6
CONTINUOUS
 62
    3
 10
2108
 20
2178.5
 11
2108
 21
1813.5
  0
LINE
  8
_0-4_
  6
CONTINUOUS
 62
    3
 10
2108
 20
2178.5
 11
2096
 21
2178.5
  0
LINE
  8
_0-4_
  6
CONTINUOUS
 62
    3
 10
2096
 20
2178.5
 11
2096
 21
1813.5
  0
POINT
  8
_0-9_
 62
    4
 10
2496.5
 20
545
  0
LINE
  8
_0-9_
  6
CONTINUOUS
 62
    4
 10
2496.5
 20
535
 11
2496.5
 21
665
  0
POINT
  8
_0-9_
 62
    3
 10
2496.5
 20
545
  0
POINT
  8
_0-9_
 62
    4
 10
3133.5
 20
545
  0
LINE
  8
_0-9_
  6
CONTINUOUS
 62
    4
 10
3133.5
 20
535
 11
3133.5
 21
665
  0
POINT
  8
_0-9_
 62
    4
 10
3133.5
 20
545
  0
POINT
  8
_0-9_
 62
    3
 10
3133.5
 20
545
  0
LINE
  8
_0-4_
  6
CONTINUOUS
 62
    3
 10
2122.5
 20
1190
 11
2122.5
 21
680
  0
ARC
  8
_0-5_
  6
CONTINUOUS
 62
    4
 10
2125.5
 20
683.99999999999988
 40
3.0000000000000004
 50
90
 51
180
  0
LINE
  8
_0-5_
  6
CONTINUOUS
 62
    4
 10
2496.5
 20
680
 11
2122.5
 21
680
  0
LINE
  8
_0-5_
  6
CONTINUOUS
 62
    4
 10
2496.5
 20
708.39999999999702
 11
2122.5
 21
708.39999999999702
  0
LINE
  8
_0-5_
  6
CONTINUOUS
 62
    4
 10
2496.5
 20
715.99999999999965
 11
2122.5
 21
715.99999999999965
  0
LINE
  8
_0-4_
  6
CONTINUOUS
 62
    3
 10
2122.5
 20
1190
 11
2496.5
 21
1190
  0
LINE
  8
_0-4_
  6
CENTER1
 62
    4
 10
2122.5
 20
680
 11
2496.5
 21
938.99999999999977
  0
LINE
  8
_0-4_
  6
CENTER1
 62
    4
 10
2496.5
 20
938.99999999999977
 11
2122.5
 21
1190
  0
LINE
  8
_0-5_
  6
CONTINUOUS
 62
    4
 10
2125.5
 20
686.99999999999988
 11
2493.5
 21
686.99999999999988
  0
LINE
  8
_0-4_
  6
CONTINUOUS
 62
    3
 10
3507.5
 20
1190
 11
3507.5
 21
680
  0
ARC
  8
_0-5_
  6
CONTINUOUS
 62
    4
 10
3504.5000000000004
 20
683.99999999999988
 40
3.0000000000000004
 50
0
 51
90
  0
LINE
  8
_0-5_
  6
CONTINUOUS
 62
    4
 10
3133.5
 20
680
 11
3507.5
 21
680
  0
LINE
  8
_0-5_
  6
CONTINUOUS
 62
    4
 10
3136.5
 20
686.99999999999988
 11
3504.5000000000004
 21
686.99999999999988
  0
LINE
  8
_0-5_
  6
CONTINUOUS
 62
    4
 10
3507.5
 20
708.39999999999702
 11
3133.5
 21
708.39999999999702
  0
LINE
  8
_0-5_
  6
CONTINUOUS
 62
    4
 10
3507.5
 20
715.99999999999965
 11
3133.5
 21
715.99999999999965
  0
LINE
  8
_0-4_
  6
CONTINUOUS
 62
    3
 10
3507.5
 20
1190
 11
3133.5
 21
1190
  0
LINE
  8
_0-4_
  6
CENTER1
 62
    4
 10
3507.5
 20
1190
 11
3133.5
 21
938.99999999999977
  0
LINE
  8
_0-4_
  6
CENTER1
 62
    4
 10
3133.5
 20
938.99999999999977
 11
3507.5
 21
680
  0
POINT
  8
_0-9_
 62
    4
 10
2122.5
 20
545
  0
LINE
  8
_0-9_
  6
CONTINUOUS
 62
    4
 10
2122.5
 20
535
 11
2122.5
 21
665
  0
POINT
  8
_0-9_
 62
    4
 10
2122.5
 20
545
  0
POINT
  8
_0-9_
 62
    3
 10
2122.5
 20
545
  0
LINE
  8
_0-9_
  6
CONTINUOUS
 62
    4
 10
2496.5
 20
545
 11
2122.5
 21
545
  0
TEXT
  8
_0-9_
 62
    7
 10
2276.3999999999996
 20
550
 40
35
 41
0.6285714285714286
 50
0
  1
３７４
  0
POINT
  8
_0-9_
 62
    4
 10
3507.5
 20
545
  0
LINE
  8
_0-9_
  6
CONTINUOUS
 62
    4
 10
3507.5
 20
535
 11
3507.5
 21
665
  0
POINT
  8
_0-9_
 62
    4
 10
3507.5
 20
545
  0
POINT
  8
_0-9_
 62
    3
 10
3507.5
 20
545
  0
LINE
  8
_0-9_
  6
CONTINUOUS
 62
    4
 10
3133.5
 20
545
 11
3507.5
 21
545
  0
TEXT
  8
_0-9_
 62
    7
 10
3287.4
 20
550
 40
35
 41
0.6285714285714286
 50
0
  1
３７４
  0
LINE
  8
_0-6_
  6
DASHED1
 62
    7
 10
1767.5
 20
2253.5
 11
2483.5
 21
2253.5
  0
LINE
  8
_0-6_
  6
DASHED1
 62
    7
 10
2483.5
 20
2253.5
 11
2483.5
 21
2542.5
  0
LINE
  8
_0-6_
  6
DASHED1
 62
    7
 10
2483.5
 20
2542.5
 11
1767.5
 21
2542.5
  0
LINE
  8
_0-6_
  6
DASHED1
 62
    7
 10
1767.5
 20
2542.5
 11
1767.5
 21
2253.5
  0
CIRCLE
  8
_0-3_
  6
CONTINUOUS
 62
    4
 10
3587.0000000000009
 20
1005
 40
2.5
  0
LINE
  8
ADD_LINE
  6
DOT
 62
    9
 10
3587.0000000000009
 20
1005
 11
3557.2300033914198
 21
1005
  0
CIRCLE
  8
_0-3_
  6
CONTINUOUS
 62
    7
 10
3587.0000000000009
 20
1005
 40
2.5
  0
LINE
  8
_0-3_
  6
CENTER2
 62
    4
 10
3587.0000000000009
 20
1015
 11
3587.0000000000009
 21
995
  0
LINE
  8
_0-3_
  6
CENTER2
 62
    4
 10
3577.0000000000009
 20
1005
 11
3599.5000000000009
 21
1005
  0
LINE
  8
ADD_LINE
  6
DOT
 62
    9
 10
3827.0000000000009
 20
1005
 11
3845.9077978494315
 21
1005
  0
CIRCLE
  8
_0-3_
  6
CONTINUOUS
 62
    4
 10
3839.0000000000009
 20
1005
 40
2.5
  0
CIRCLE
  8
_0-3_
  6
CONTINUOUS
 62
    7
 10
3839.0000000000009
 20
1005
 40
2.5
  0
LINE
  8
_0-3_
  6
CENTER2
 62
    4
 10
3839.0000000000009
 20
1015
 11
3839.0000000000009
 21
995
  0
LINE
  8
_0-3_
  6
CENTER2
 62
    4
 10
3829.0000000000009
 20
1005
 11
3851.5000000000009
 21
1005
  0
CIRCLE
  8
_0-3_
  6
CONTINUOUS
 62
    4
 10
3587.0000000000009
 20
945
 40
2.5
  0
LINE
  8
ADD_LINE
  6
DOT
 62
    9
 10
3587.0000000000009
 20
945
 11
3557.2300033914198
 21
945
  0
CIRCLE
  8
_0-3_
  6
CONTINUOUS
 62
    7
 10
3587.0000000000009
 20
945
 40
2.5
  0
LINE
  8
_0-3_
  6
CENTER2
 62
    4
 10
3587.0000000000009
 20
955
 11
3587.0000000000009
 21
935
  0
LINE
  8
_0-3_
  6
CENTER2
 62
    4
 10
3577.0000000000009
 20
945
 11
3599.5000000000009
 21
945
  0
LINE
  8
ADD_LINE
  6
DOT
 62
    9
 10
3827.0000000000009
 20
945
 11
3845.9077978494315
 21
945
  0
CIRCLE
  8
_0-3_
  6
CONTINUOUS
 62
    4
 10
3839.0000000000009
 20
945
 40
2.5
  0
CIRCLE
  8
_0-3_
  6
CONTINUOUS
 62
    7
 10
3839.0000000000009
 20
945
 40
2.5
  0
LINE
  8
_0-3_
  6
CENTER2
 62
    4
 10
3839.0000000000009
 20
955
 11
3839.0000000000009
 21
935
  0
LINE
  8
_0-3_
  6
CENTER2
 62
    4
 10
3829.0000000000009
 20
945
 11
3851.5000000000009
 21
945
  0
CIRCLE
  8
_0-3_
  6
CONTINUOUS
 62
    4
 10
3588.4401630790362
 20
885
 40
2.5
  0
LINE
  8
ADD_LINE
  6
DOT
 62
    9
 10
3588.4401630790362
 20
885
 11
3558.670166470456
 21
885
  0
CIRCLE
  8
_0-3_
  6
CONTINUOUS
 62
    7
 10
3588.4401630790362
 20
885
 40
2.5
  0
LINE
  8
_0-3_
  6
CENTER2
 62
    4
 10
3588.4401630790362
 20
895
 11
3588.4401630790362
 21
875
  0
LINE
  8
_0-3_
  6
CENTER2
 62
    4
 10
3578.4401630790362
 20
885
 11
3600.9401630790362
 21
885
  0
LINE
  8
ADD_LINE
  6
DOT
 62
    9
 10
3828.4401630790362
 20
885
 11
3847.3479609284677
 21
885
  0
CIRCLE
  8
_0-3_
  6
CONTINUOUS
 62
    4
 10
3840.4401630790371
 20
885
 40
2.5
  0
CIRCLE
  8
_0-3_
  6
CONTINUOUS
 62
    7
 10
3840.4401630790371
 20
885
 40
2.5
  0
LINE
  8
_0-3_
  6
CENTER2
 62
    4
 10
3840.4401630790371
 20
895
 11
3840.4401630790371
 21
875
  0
LINE
  8
_0-3_
  6
CENTER2
 62
    4
 10
3830.4401630790371
 20
885
 11
3852.9401630790371
 21
885
  0
CIRCLE
  8
_0-0_
  6
CONTINUOUS
 62
    7
 10
3587.0000000000009
 20
945
 40
1.5000000000000002
  0
LINE
  8
_0-0_
  6
CONTINUOUS
 62
    7
 10
3592.0000000000009
 20
946.06887499999993
 11
3592.0000000000009
 21
947
  0
LINE
  8
_0-0_
  6
CONTINUOUS
 62
    7
 10
3592.0000000000009
 20
947
 11
3592.9287750000007
 21
947.066325
  0
LINE
  8
_0-0_
  6
CONTINUOUS
 62
    7
 10
3582.0000000000009
 20
945
 11
3582.0000000000009
 21
946
  0
LINE
  8
_0-0_
  6
CONTINUOUS
 62
    7
 10
3581.0000000000009
 20
947
 11
3568.5000000000009
 21
947
  0
LINE
  8
_0-0_
  6
CONTINUOUS
 62
    7
 10
3592.0000000000009
 20
945
 11
3592.0000000000009
 21
946.06887499999993
  0
LINE
  8
_0-0_
  6
CONTINUOUS
 62
    7
 10
3592.9287750000007
 20
947.066325
 11
3605.0712500000008
 21
947.93364999999994
  0
LINE
  8
_0-0_
  6
CONTINUOUS
 62
    7
 10
3606.0000000000009
 20
948.9310999999999
 11
3606.0000000000009
 21
948.99999999999988
  0
LINE
  8
_0-0_
  6
CONTINUOUS
 62
    7
 10
3573.6339750000006
 20
967
 11
3571.7576000000008
 21
970.24999999999988
  0
LINE
  8
_0-0_
  6
CONTINUOUS
 62
    7
 10
3605.0000000000009
 20
950
 11
3569.5000000000009
 21
950
  0
LINE
  8
_0-0_
  6
CONTINUOUS
 62
    7
 10
3572.7679500000012
 20
965.5
 11
3569.5000000000009
 21
965.5
  0
LINE
  8
_0-0_
  6
CONTINUOUS
 62
    7
 10
3568.5000000000009
 20
964.5
 11
3568.5000000000009
 21
951
  0
ARC
  8
_0-0_
  6
CONTINUOUS
 62
    7
 10
3568.5000000000009
 20
950.79999999999995
 40
3.7999999999999998
 50
177.46800000000004
 51
270.00000000000005
  0
ARC
  8
_0-0_
  6
CONTINUOUS
 62
    7
 10
3587.0000000000009
 20
945
 40
5
 50
180.00000000000005
 51
0.0000000000001017
  0
CIRCLE
  8
_0-0_
  6
PHANTOM2
 62
    7
 10
3587.0000000000009
 20
945
 40
4.0999999999999996
  0
CIRCLE
  8
_0-0_
  6
PHANTOM2
 62
    7
 10
3587.0000000000009
 20
945
 40
1.925
  0
ARC
  8
_0-0_
  6
CONTINUOUS
 62
    7
 10
3566.6567750000008
 20
969.5
 40
1
 50
90.000000000000028
 51
177.46800000000004
  0
ARC
  8
_0-0_
  6
CONTINUOUS
 62
    7
 10
3571.324575000001
 20
970
 40
0.5
 50
30.000000000000003
 51
90.000000000000028
  0
ARC
  8
_0-0_
  6
CONTINUOUS
 62
    7
 10
3581.0000000000009
 20
946
 40
1
 50
0
 51
90.000000000000028
  0
ARC
  8
_0-0_
  6
CONTINUOUS
 62
    7
 10
3593.0000000000009
 20
946.06887499999993
 40
1
 50
94.086000000000041
 51
180.00000000000005
  0
ARC
  8
_0-0_
  6
CONTINUOUS
 62
    7
 10
3605.0000000000009
 20
948.9310999999999
 40
1
 50
274.08600000000006
 51
0.0000000000000508
  0
ARC
  8
_0-0_
  6
CONTINUOUS
 62
    7
 10
3605.0000000000009
 20
948.99999999999988
 40
1
 50
0
 51
90.000000000000028
  0
ARC
  8
_0-0_
  6
CONTINUOUS
 62
    7
 10
3572.7679500000012
 20
966.49999999999988
 40
1
 50
270.00000000000005
 51
30.000000000000042
  0
ARC
  8
_0-0_
  6
CONTINUOUS
 62
    7
 10
3569.5000000000009
 20
964.5
 40
1
 50
90.000000000000028
 51
180.00000000000005
  0
ARC
  8
_0-0_
  6
CONTINUOUS
 62
    7
 10
3569.5000000000009
 20
951
 40
1
 50
180.00000000000005
 51
270.00000000000005
  0
LINE
  8
_0-0_
  6
CONTINUOUS
 62
    7
 10
3566.6567750000008
 20
970.5
 11
3571.324575000001
 21
970.5
  0
LINE
  8
_0-0_
  6
CONTINUOUS
 62
    7
 10
3564.7037250000003
 20
950.96784999999999
 11
3565.6584719492498
 21
969.55823245539363
  0
LINE
  8
_0-0_
  6
CENTER1
 62
    7
 10
3587.0000000000009
 20
945
 11
3587.0000000000009
 21
938.8852721223418
  0
LINE
  8
_0-0_
  6
CENTER1
 62
    7
 10
3587.0000000000009
 20
945
 11
3587.0000000000009
 21
951.09740295205267
  0
LINE
  8
_0-0_
  6
CENTER1
 62
    7
 10
3587.1128620711206
 20
945
 11
3584.4332236491891
 21
945
  0
LINE
  8
_0-0_
  6
CENTER1
 62
    7
 10
3587.1128620711206
 20
945
 11
3589.7781451757655
 21
945
  0
ARC
  8
_0-0_
  6
CONTINUOUS
 62
    7
 10
3853.2320500000009
 20
966.49999999999988
 40
1
 50
149.99999999999994
 51
269.99999999999994
  0
CIRCLE
  8
_0-0_
  6
CONTINUOUS
 62
    7
 10
3839.0000000000009
 20
945
 40
1.5000000000000002
  0
LINE
  8
_0-0_
  6
CONTINUOUS
 62
    7
 10
3834.0000000000009
 20
946.06887499999993
 11
3834.0000000000009
 21
947
  0
LINE
  8
_0-0_
  6
CONTINUOUS
 62
    7
 10
3834.0000000000009
 20
947
 11
3833.071225000001
 21
947.066325
  0
LINE
  8
_0-0_
  6
CONTINUOUS
 62
    7
 10
3844.0000000000009
 20
945
 11
3844.0000000000009
 21
946
  0
LINE
  8
_0-0_
  6
CONTINUOUS
 62
    7
 10
3845.0000000000009
 20
947
 11
3857.5000000000009
 21
947
  0
LINE
  8
_0-0_
  6
CONTINUOUS
 62
    7
 10
3834.0000000000009
 20
945
 11
3834.0000000000009
 21
946.06887499999993
  0
LINE
  8
_0-0_
  6
CONTINUOUS
 62
    7
 10
3833.071225000001
 20
947.066325
 11
3820.9287500000009
 21
947.93364999999994
  0
LINE
  8
_0-0_
  6
CONTINUOUS
 62
    7
 10
3820.0000000000009
 20
948.9310999999999
 11
3820.0000000000009
 21
948.99999999999988
  0
LINE
  8
_0-0_
  6
CONTINUOUS
 62
    7
 10
3852.3660250000011
 20
967
 11
3854.2424000000009
 21
970.24999999999988
  0
LINE
  8
_0-0_
  6
CONTINUOUS
 62
    7
 10
3821.0000000000009
 20
950
 11
3856.5000000000009
 21
950
  0
LINE
  8
_0-0_
  6
CONTINUOUS
 62
    7
 10
3853.2320500000009
 20
965.5
 11
3856.5000000000009
 21
965.5
  0
LINE
  8
_0-0_
  6
CONTINUOUS
 62
    7
 10
3857.5000000000009
 20
964.5
 11
3857.5000000000009
 21
951
  0
ARC
  8
_0-0_
  6
CONTINUOUS
 62
    7
 10
3857.5000000000009
 20
950.79999999999995
 40
3.7999999999999998
 50
269.99999999999994
 51
2.5319999999999902
  0
ARC
  8
_0-0_
  6
CONTINUOUS
 62
    7
 10
3839.0000000000009
 20
945
 40
5
 50
179.99999999999985
 51
359.99999999999988
  0
CIRCLE
  8
_0-0_
  6
PHANTOM2
 62
    7
 10
3839.0000000000009
 20
945
 40
4.0999999999999996
  0
CIRCLE
  8
_0-0_
  6
PHANTOM2
 62
    7
 10
3839.0000000000009
 20
945
 40
1.925
  0
ARC
  8
_0-0_
  6
CONTINUOUS
 62
    7
 10
3859.3432250000014
 20
969.5
 40
1
 50
2.531999999999964
 51
89.999999999999957
  0
ARC
  8
_0-0_
  6
CONTINUOUS
 62
    7
 10
3854.6754250000008
 20
970
 40
0.5
 50
89.999999999999985
 51
149.99999999999997
  0
ARC
  8
_0-0_
  6
CONTINUOUS
 62
    7
 10
3845.0000000000009
 20
946
 40
1
 50
89.999999999999971
 51
180
  0
ARC
  8
_0-0_
  6
CONTINUOUS
 62
    7
 10
3833.0000000000009
 20
946.06887499999993
 40
1
 50
359.99999999999994
 51
85.913999999999987
  0
ARC
  8
_0-0_
  6
CONTINUOUS
 62
    7
 10
3821.0000000000009
 20
948.9310999999999
 40
1
 50
179.99999999999994
 51
265.91399999999993
  0
ARC
  8
_0-0_
  6
CONTINUOUS
 62
    7
 10
3821.0000000000009
 20
948.99999999999988
 40
1
 50
89.999999999999971
 51
180
  0
ARC
  8
_0-0_
  6
CONTINUOUS
 62
    7
 10
3856.5000000000009
 20
964.5
 40
1
 50
359.99999999999994
 51
89.999999999999943
  0
ARC
  8
_0-0_
  6
CONTINUOUS
 62
    7
 10
3856.5000000000009
 20
951
 40
1
 50
269.99999999999988
 51
359.99999999999988
  0
LINE
  8
_0-0_
  6
CONTINUOUS
 62
    7
 10
3859.3432250000014
 20
970.5
 11
3854.6754250000008
 21
970.5
  0
LINE
  8
_0-0_
  6
CONTINUOUS
 62
    7
 10
3861.2962750000006
 20
950.96784999999999
 11
3860.3415280507524
 21
969.55823245539363
  0
LINE
  8
_0-0_
  6
CENTER1
 62
    7
 10
3839.0000000000009
 20
945
 11
3839.0000000000009
 21
938.8852721223418
  0
LINE
  8
_0-0_
  6
CENTER1
 62
    7
 10
3839.0000000000009
 20
945
 11
3839.0000000000009
 21
951.09740295205267
  0
LINE
  8
_0-0_
  6
CENTER1
 62
    7
 10
3838.8871379288816
 20
945
 11
3841.5667763508135
 21
945
  0
LINE
  8
_0-0_
  6
CENTER1
 62
    7
 10
3838.8871379288816
 20
945
 11
3836.2218548242362
 21
945
  0
ARC
  8
_0-0_
  6
CONTINUOUS
 62
    7
 10
3587.0000000000009
 20
945
 40
7.0000000000000017
 50
45.585000000000007
 51
134.41500000000002
  0
ARC
  8
_0-0_
  6
CONTINUOUS
 62
    7
 10
3587.0000000000009
 20
945
 40
11
 50
27.036000000000012
 51
152.96400000000005
  0
ARC
  8
_0-0_
  6
CONTINUOUS
 62
    7
 10
3839.0000000000009
 20
945
 40
7.0000000000000017
 50
45.585000000000007
 51
134.41500000000002
  0
ARC
  8
_0-0_
  6
CONTINUOUS
 62
    7
 10
3839.0000000000009
 20
945
 40
11
 50
27.036000000000012
 51
152.96400000000005
  0
LINE
  8
_0-2_
  6
CONTINUOUS
 62
    7
 10
3568.5000000000009
 20
950
 11
3857.5000000000009
 21
950
  0
LINE
  8
_0-2_
  6
CONTINUOUS
 62
    7
 10
3857.5000000000009
 20
950
 11
3857.5000000000009
 21
965
  0
LINE
  8
_0-2_
  6
CONTINUOUS
 62
    7
 10
3857.5000000000009
 20
965
 11
3568.5000000000009
 21
965
  0
LINE
  8
_0-2_
  6
CONTINUOUS
 62
    7
 10
3568.5000000000009
 20
965
 11
3568.5000000000009
 21
950
  0
LINE
  8
_0-6_
  6
CONTINUOUS
 62
    7
 10
2073.5
 20
950.00005270598592
 11
1767.5
 21
950.00005270598592
  0
LINE
  8
_0-6_
  6
CONTINUOUS
 62
    7
 10
2073.5
 20
965.00005270598592
 11
1767.5
 21
965.00005270598592
  0
LINE
  8
_0-6_
  6
DASHED1
 62
    7
 10
2073.5
 20
950.00005270598592
 11
2488
 21
950.00005270598592
  0
LINE
  8
_0-6_
  6
DASHED1
 62
    7
 10
2073.5
 20
965.00005270598592
 11
2488
 21
965.00005270598592
  0
LINE
  8
_1-2_
  6
DASHED1
 62
    7
 10
2185
 20
1181.9
 11
2185
 21
1173.5
  0
LINE
  8
_1-2_
  6
DASHED1
 62
    7
 10
2184
 20
1150.2999999999999
 11
2161
 21
1150.2999999999999
  0
LINE
  8
_1-2_
  6
DASHED1
 62
    7
 10
2172.5
 20
1167.2999999999999
 11
2165
 21
1167.2999999999999
  0
LINE
  8
_1-2_
  6
DASHED1
 62
    7
 10
2162.5
 20
1174.7999999999999
 11
2162.5
 21
1169.2999999999997
  0
LINE
  8
_1-2_
  6
DASHED1
 62
    7
 10
2164
 20
1168.7999999999999
 11
2163
 21
1168.7999999999999
  0
LINE
  8
_1-2_
  6
DASHED1
 62
    7
 10
2192.0799999999999
 20
1178.25
 11
2192.0999999999999
 21
1178.25
  0
LINE
  8
_1-2_
  6
DASHED1
 62
    7
 10
2155
 20
1160.5999999999999
 11
2154
 21
1160.5999999999999
  0
LINE
  8
_1-2_
  6
DASHED1
 62
    7
 10
2156
 20
1174.7999999999999
 11
2163.5
 21
1174.7999999999999
  0
LINE
  8
_1-2_
  6
DASHED1
 62
    7
 10
2155
 20
1173.7999999999999
 11
2155
 21
1156.2999999999999
  0
LINE
  8
_1-2_
  6
DASHED1
 62
    7
 10
2153
 20
1180
 11
2153
 21
1161.5999999999999
  0
LINE
  8
_1-2_
  6
DASHED1
 62
    7
 10
2164.5
 20
1180
 11
2153
 21
1180
  0
LINE
  8
_1-2_
  6
DASHED1
 62
    7
 10
2155
 20
1180
 11
2155
 21
1175.7999999999999
  0
LINE
  8
_1-2_
  6
DASHED1
 62
    7
 10
2164.5
 20
1180
 11
2164.5
 21
1167.7999999999999
  0
LINE
  8
_1-2_
  6
DASHED1
 62
    7
 10
2190
 20
1180
 11
2190
 21
1156.2999999999999
  0
LINE
  8
_1-2_
  6
DASHED1
 62
    7
 10
2180.5
 20
1180
 11
2192
 21
1180
  0
LINE
  8
_1-2_
  6
DASHED1
 62
    7
 10
2192
 20
1180
 11
2192
 21
1161.5999999999999
  0
LINE
  8
_1-2_
  6
DASHED1
 62
    7
 10
2190
 20
1160.5999999999999
 11
2191
 21
1160.5999999999999
  0
LINE
  8
_1-2_
  6
DASHED1
 62
    7
 10
2164.5
 20
1179.0999999999999
 11
2180.5
 21
1179.0999999999999
  0
LINE
  8
_1-2_
  6
DASHED1
 62
    7
 10
2180.5
 20
1180
 11
2180.5
 21
1167.7999999999999
  0
LINE
  8
_1-2_
  6
DASHED1
 62
    7
 10
2172.5
 20
1167.2999999999999
 11
2180
 21
1167.2999999999999
  0
LINE
  8
_1-2_
  6
DASHED1
 62
    7
 10
2189
 20
1174.7999999999999
 11
2181.5
 21
1174.7999999999999
  0
LINE
  8
_1-2_
  6
DASHED1
 62
    7
 10
2179
 20
1178.7999999999999
 11
2166
 21
1178.7999999999999
  0
LINE
  8
_1-2_
  6
DASHED1
 62
    7
 10
2169.5
 20
1174.7999999999999
 11
2169.5
 21
1169.7999999999999
  0
LINE
  8
_1-2_
  6
DASHED1
 62
    7
 10
2174.5
 20
1168.7999999999999
 11
2170.5
 21
1168.7999999999999
  0
LINE
  8
_1-2_
  6
DASHED1
 62
    7
 10
2175.5
 20
1174.7999999999999
 11
2175.5
 21
1169.7999999999999
  0
LINE
  8
_1-2_
  6
DASHED1
 62
    7
 10
2179
 20
1174.7999999999999
 11
2175.5
 21
1174.7999999999999
  0
LINE
  8
_1-2_
  6
DASHED1
 62
    7
 10
2169.5
 20
1174.7999999999999
 11
2166
 21
1174.7999999999999
  0
LINE
  8
_1-2_
  6
DASHED1
 62
    7
 10
2167
 20
1168.4038499999999
 11
2166.8033999999997
 21
1168.8635999999999
  0
LINE
  8
_1-2_
  6
DASHED1
 62
    7
 10
2178
 20
1168.4038499999999
 11
2178.1966000000002
 21
1168.8635999999999
  0
LINE
  8
_1-2_
  6
DASHED1
 62
    7
 10
2180
 20
1167.2999999999999
 11
2180
 21
1177.7999999999999
  0
LINE
  8
_1-2_
  6
DASHED1
 62
    7
 10
2165
 20
1167.2999999999999
 11
2165
 21
1177.7999999999999
  0
LINE
  8
_1-2_
  6
DASHED1
 62
    7
 10
2181
 20
1168.7999999999999
 11
2182
 21
1168.7999999999999
  0
LINE
  8
_1-2_
  6
DASHED1
 62
    7
 10
2182.5
 20
1174.7999999999999
 11
2182.5
 21
1169.2999999999997
  0
LINE
  8
_1-2_
  6
DASHED1
 62
    7
 10
2164.5
 20
1172.7999999999999
 11
2165
 21
1172.7999999999999
  0
LINE
  8
_1-2_
  6
DASHED1
 62
    7
 10
2164.5
 20
1171.8000000000001
 11
2165
 21
1171.8000000000001
  0
LINE
  8
_1-2_
  6
DASHED1
 62
    7
 10
2180
 20
1171.8000000000001
 11
2180.5
 21
1171.8000000000001
  0
LINE
  8
_1-2_
  6
DASHED1
 62
    7
 10
2180
 20
1172.7999999999999
 11
2180.5
 21
1172.7999999999999
  0
LINE
  8
_1-2_
  6
DASHED1
 62
    7
 10
2164.5
 20
1179.5
 11
2180.5
 21
1179.5
  0
LINE
  8
_1-2_
  6
DASHED1
 62
    7
 10
2172.5
 20
1150.2999999999999
 11
2171.7999999999997
 21
1150.2999999999999
  0
LINE
  8
_1-2_
  6
DASHED1
 62
    7
 10
2172.5
 20
1150.2999999999999
 11
2173.1999999999998
 21
1150.2999999999999
  0
LINE
  8
_1-2_
  6
DASHED1
 62
    7
 10
2172
 20
1164.2999999999997
 11
2172.5
 21
1164.2999999999997
  0
LINE
  8
_1-2_
  6
DASHED1
 62
    7
 10
2171.5
 20
1150.5999999999999
 11
2171.5
 21
1163.7999999999999
  0
LINE
  8
_1-2_
  6
DASHED1
 62
    7
 10
2173.5
 20
1150.5999999999999
 11
2173.5
 21
1163.7999999999999
  0
LINE
  8
_1-2_
  6
DASHED1
 62
    7
 10
2172.5
 20
1164.2999999999997
 11
2173
 21
1164.2999999999997
  0
LINE
  8
_1-2_
  6
DASHED1
 62
    7
 10
2172.5
 20
1180.5999999999999
 11
2172.5
 21
1147.6000000000001
  0
ARC
  8
_1-2_
  6
DASHED1
 62
    7
 10
2161
 20
1156.2999999999999
 40
6.0000000000000008
 50
180.00000000000005
 51
270.00000000000005
  0
ARC
  8
_1-2_
  6
DASHED1
 62
    7
 10
2184
 20
1156.2999999999999
 40
6.0000000000000008
 50
270.00000000000005
 51
0.0000000000000508
  0
ARC
  8
_1-2_
  6
DASHED1
 62
    7
 10
2163.5
 20
1175.7999999999999
 40
1
 50
270.00000000000005
 51
0.0000000000000508
  0
ARC
  8
_1-2_
  6
DASHED1
 62
    7
 10
2156
 20
1175.7999999999999
 40
1
 50
180.00000000000005
 51
270.00000000000005
  0
ARC
  8
_1-2_
  6
DASHED1
 62
    7
 10
2165
 20
1167.7999999999999
 40
0.5
 50
180.00000000000005
 51
270.00000000000005
  0
ARC
  8
_1-2_
  6
DASHED1
 62
    7
 10
2164
 20
1169.2999999999997
 40
0.5
 50
270.00000000000005
 51
0.0000000000000508
  0
ARC
  8
_1-2_
  6
DASHED1
 62
    7
 10
2163
 20
1169.2999999999997
 40
0.5
 50
180.00000000000005
 51
270.00000000000005
  0
ARC
  8
_1-2_
  6
DASHED1
 62
    7
 10
2154
 20
1161.5999999999999
 40
1
 50
180.00000000000005
 51
270.00000000000005
  0
ARC
  8
_1-2_
  6
DASHED1
 62
    7
 10
2156
 20
1173.7999999999999
 40
1
 50
90.000000000000028
 51
180.00000000000005
  0
ARC
  8
_1-2_
  6
DASHED1
 62
    7
 10
2191
 20
1161.5999999999999
 40
1
 50
270.00000000000005
 51
0.0000000000000508
  0
ARC
  8
_1-2_
  6
DASHED1
 62
    7
 10
2180
 20
1167.7999999999999
 40
0.5
 50
270.00000000000005
 51
0.0000000000000508
  0
ARC
  8
_1-2_
  6
DASHED1
 62
    7
 10
2181.5
 20
1175.7999999999999
 40
1
 50
180.00000000000005
 51
270.00000000000005
  0
ARC
  8
_1-2_
  6
DASHED1
 62
    7
 10
2189
 20
1175.7999999999999
 40
1
 50
270.00000000000005
 51
0.0000000000000508
  0
ARC
  8
_1-2_
  6
DASHED1
 62
    7
 10
2166
 20
1177.7999999999999
 40
1
 50
90.000000000000028
 51
180.00000000000005
  0
ARC
  8
_1-2_
  6
DASHED1
 62
    7
 10
2179
 20
1177.7999999999999
 40
1
 50
0
 51
90.000000000000028
  0
ARC
  8
_1-2_
  6
DASHED1
 62
    7
 10
2166
 20
1175.7999999999999
 40
1
 50
180.00000000000005
 51
270.00000000000005
  0
ARC
  8
_1-2_
  6
DASHED1
 62
    7
 10
2179
 20
1175.7999999999999
 40
1
 50
270.00000000000005
 51
0.0000000000000508
  0
ARC
  8
_1-2_
  6
DASHED1
 62
    7
 10
2170.5
 20
1169.7999999999999
 40
1
 50
180.00000000000005
 51
270.00000000000005
  0
ARC
  8
_1-2_
  6
DASHED1
 62
    7
 10
2174.5
 20
1169.7999999999999
 40
1
 50
270.00000000000005
 51
0.0000000000000508
  0
ARC
  8
_1-2_
  6
DASHED1
 62
    7
 10
2181
 20
1169.2999999999997
 40
0.5
 50
180.00000000000005
 51
270.00000000000005
  0
ARC
  8
_1-2_
  6
DASHED1
 62
    7
 10
2182
 20
1169.2999999999997
 40
0.5
 50
270.00000000000005
 51
0.0000000000000508
  0
ARC
  8
_1-2_
  6
DASHED1
 62
    7
 10
2171.7999999999997
 20
1150.5999999999999
 40
0.2999999999999998
 50
180.00000000000005
 51
270.00000000000005
  0
ARC
  8
_1-2_
  6
DASHED1
 62
    7
 10
2173.1999999999998
 20
1150.5999999999999
 40
0.2999999999999998
 50
270.00000000000005
 51
0.0000000000000508
  0
ARC
  8
_1-2_
  6
DASHED1
 62
    7
 10
2172
 20
1163.7999999999999
 40
0.5
 50
90.000000000000028
 51
180.00000000000005
  0
ARC
  8
_1-2_
  6
DASHED1
 62
    7
 10
2173
 20
1163.7999999999999
 40
0.5
 50
0
 51
90.000000000000028
  0
LINE
  8
_1-2_
  6
DASHED1
 62
    7
 10
2160
 20
1181.9
 11
2160
 21
1173.5
  0
LINE
  8
_1-2_
  6
DASHED1
 62
    7
 10
3470
 20
1178.8999999999998
 11
3470
 21
1170.4999999999997
  0
LINE
  8
_1-2_
  6
DASHED1
 62
    7
 10
3469.0000000000004
 20
1147.2999999999999
 11
3446
 21
1147.2999999999999
  0
LINE
  8
_1-2_
  6
DASHED1
 62
    7
 10
3457.5
 20
1164.2999999999999
 11
3450
 21
1164.2999999999999
  0
LINE
  8
_1-2_
  6
DASHED1
 62
    7
 10
3447.5
 20
1171.7999999999999
 11
3447.5
 21
1166.2999999999997
  0
LINE
  8
_1-2_
  6
DASHED1
 62
    7
 10
3449.0000000000004
 20
1165.7999999999997
 11
3448.0000000000009
 21
1165.7999999999997
  0
LINE
  8
_1-2_
  6
DASHED1
 62
    7
 10
3477.0800000000003
 20
1175.25
 11
3477.1000000000003
 21
1175.25
  0
LINE
  8
_1-2_
  6
DASHED1
 62
    7
 10
3440
 20
1157.5999999999999
 11
3439.0000000000004
 21
1157.5999999999999
  0
LINE
  8
_1-2_
  6
DASHED1
 62
    7
 10
3441
 20
1171.7999999999999
 11
3448.5
 21
1171.7999999999999
  0
LINE
  8
_1-2_
  6
DASHED1
 62
    7
 10
3440
 20
1170.7999999999997
 11
3440
 21
1153.2999999999997
  0
LINE
  8
_1-2_
  6
DASHED1
 62
    7
 10
3438.0000000000009
 20
1177
 11
3438.0000000000009
 21
1158.5999999999999
  0
LINE
  8
_1-2_
  6
DASHED1
 62
    7
 10
3449.5000000000004
 20
1177
 11
3438.0000000000009
 21
1177
  0
LINE
  8
_1-2_
  6
DASHED1
 62
    7
 10
3440
 20
1177
 11
3440
 21
1172.7999999999999
  0
LINE
  8
_1-2_
  6
DASHED1
 62
    7
 10
3449.5000000000004
 20
1177
 11
3449.5000000000004
 21
1164.7999999999999
  0
LINE
  8
_1-2_
  6
DASHED1
 62
    7
 10
3475
 20
1177
 11
3475
 21
1153.2999999999997
  0
LINE
  8
_1-2_
  6
DASHED1
 62
    7
 10
3465.5000000000009
 20
1177
 11
3477.0000000000004
 21
1177
  0
LINE
  8
_1-2_
  6
DASHED1
 62
    7
 10
3477.0000000000004
 20
1177
 11
3477.0000000000004
 21
1158.5999999999999
  0
LINE
  8
_1-2_
  6
DASHED1
 62
    7
 10
3475
 20
1157.5999999999999
 11
3476
 21
1157.5999999999999
  0
LINE
  8
_1-2_
  6
DASHED1
 62
    7
 10
3449.5000000000004
 20
1176.0999999999999
 11
3465.5000000000009
 21
1176.0999999999999
  0
LINE
  8
_1-2_
  6
DASHED1
 62
    7
 10
3465.5000000000009
 20
1177
 11
3465.5000000000009
 21
1164.7999999999999
  0
LINE
  8
_1-2_
  6
DASHED1
 62
    7
 10
3457.5
 20
1164.2999999999999
 11
3465
 21
1164.2999999999999
  0
LINE
  8
_1-2_
  6
DASHED1
 62
    7
 10
3474.0000000000004
 20
1171.7999999999999
 11
3466.5000000000004
 21
1171.7999999999999
  0
LINE
  8
_1-2_
  6
DASHED1
 62
    7
 10
3464.0000000000004
 20
1175.7999999999997
 11
3451
 21
1175.7999999999997
  0
LINE
  8
_1-2_
  6
DASHED1
 62
    7
 10
3454.5000000000004
 20
1171.7999999999999
 11
3454.5000000000004
 21
1166.7999999999999
  0
LINE
  8
_1-2_
  6
DASHED1
 62
    7
 10
3459.5000000000004
 20
1165.7999999999997
 11
3455.5000000000009
 21
1165.7999999999997
  0
LINE
  8
_1-2_
  6
DASHED1
 62
    7
 10
3460.5000000000009
 20
1171.7999999999999
 11
3460.5000000000009
 21
1166.7999999999999
  0
LINE
  8
_1-2_
  6
DASHED1
 62
    7
 10
3464.0000000000004
 20
1171.7999999999999
 11
3460.5000000000009
 21
1171.7999999999999
  0
LINE
  8
_1-2_
  6
DASHED1
 62
    7
 10
3454.5000000000004
 20
1171.7999999999999
 11
3451
 21
1171.7999999999999
  0
LINE
  8
_1-2_
  6
DASHED1
 62
    7
 10
3452.0000000000004
 20
1165.4038499999999
 11
3451.8033999999997
 21
1165.8635999999999
  0
LINE
  8
_1-2_
  6
DASHED1
 62
    7
 10
3463.0000000000009
 20
1165.4038499999999
 11
3463.1966000000002
 21
1165.8635999999999
  0
LINE
  8
_1-2_
  6
DASHED1
 62
    7
 10
3465
 20
1164.2999999999999
 11
3465
 21
1174.7999999999999
  0
LINE
  8
_1-2_
  6
DASHED1
 62
    7
 10
3450
 20
1164.2999999999999
 11
3450
 21
1174.7999999999999
  0
LINE
  8
_1-2_
  6
DASHED1
 62
    7
 10
3466
 20
1165.7999999999997
 11
3467.0000000000004
 21
1165.7999999999997
  0
LINE
  8
_1-2_
  6
DASHED1
 62
    7
 10
3467.5
 20
1171.7999999999999
 11
3467.5
 21
1166.2999999999997
  0
LINE
  8
_1-2_
  6
DASHED1
 62
    7
 10
3449.5000000000004
 20
1169.7999999999999
 11
3450
 21
1169.7999999999999
  0
LINE
  8
_1-2_
  6
DASHED1
 62
    7
 10
3449.5000000000004
 20
1168.7999999999999
 11
3450
 21
1168.7999999999999
  0
LINE
  8
_1-2_
  6
DASHED1
 62
    7
 10
3465
 20
1168.7999999999999
 11
3465.5000000000009
 21
1168.7999999999999
  0
LINE
  8
_1-2_
  6
DASHED1
 62
    7
 10
3465
 20
1169.7999999999999
 11
3465.5000000000009
 21
1169.7999999999999
  0
LINE
  8
_1-2_
  6
DASHED1
 62
    7
 10
3449.5000000000004
 20
1176.5
 11
3465.5000000000009
 21
1176.5
  0
LINE
  8
_1-2_
  6
DASHED1
 62
    7
 10
3457.5
 20
1147.2999999999999
 11
3456.8000000000006
 21
1147.2999999999999
  0
LINE
  8
_1-2_
  6
DASHED1
 62
    7
 10
3457.5
 20
1147.2999999999999
 11
3458.2000000000007
 21
1147.2999999999999
  0
LINE
  8
_1-2_
  6
DASHED1
 62
    7
 10
3457.0000000000004
 20
1161.2999999999997
 11
3457.5
 21
1161.2999999999997
  0
LINE
  8
_1-2_
  6
DASHED1
 62
    7
 10
3456.5000000000004
 20
1147.5999999999999
 11
3456.5000000000004
 21
1160.7999999999997
  0
LINE
  8
_1-2_
  6
DASHED1
 62
    7
 10
3458.5
 20
1147.5999999999999
 11
3458.5
 21
1160.7999999999997
  0
LINE
  8
_1-2_
  6
DASHED1
 62
    7
 10
3457.5
 20
1161.2999999999997
 11
3458.0000000000009
 21
1161.2999999999997
  0
LINE
  8
_1-2_
  6
DASHED1
 62
    7
 10
3457.5
 20
1177.5999999999999
 11
3457.5
 21
1144.5999999999999
  0
ARC
  8
_1-2_
  6
DASHED1
 62
    7
 10
3446
 20
1153.2999999999997
 40
6.0000000000000008
 50
180.00000000000005
 51
270.00000000000005
  0
ARC
  8
_1-2_
  6
DASHED1
 62
    7
 10
3469.0000000000004
 20
1153.2999999999997
 40
6.0000000000000008
 50
270.00000000000005
 51
0.0000000000000508
  0
ARC
  8
_1-2_
  6
DASHED1
 62
    7
 10
3448.5
 20
1172.7999999999999
 40
1
 50
270.00000000000005
 51
0.0000000000000508
  0
ARC
  8
_1-2_
  6
DASHED1
 62
    7
 10
3441
 20
1172.7999999999999
 40
1
 50
180.00000000000005
 51
270.00000000000005
  0
ARC
  8
_1-2_
  6
DASHED1
 62
    7
 10
3450
 20
1164.7999999999999
 40
0.5
 50
180.00000000000005
 51
270.00000000000005
  0
ARC
  8
_1-2_
  6
DASHED1
 62
    7
 10
3449.0000000000004
 20
1166.2999999999997
 40
0.5
 50
270.00000000000005
 51
0.0000000000000508
  0
ARC
  8
_1-2_
  6
DASHED1
 62
    7
 10
3448.0000000000009
 20
1166.2999999999997
 40
0.5
 50
180.00000000000005
 51
270.00000000000005
  0
ARC
  8
_1-2_
  6
DASHED1
 62
    7
 10
3439.0000000000004
 20
1158.5999999999999
 40
1
 50
180.00000000000005
 51
270.00000000000005
  0
ARC
  8
_1-2_
  6
DASHED1
 62
    7
 10
3441
 20
1170.7999999999997
 40
1
 50
90.000000000000028
 51
180.00000000000005
  0
ARC
  8
_1-2_
  6
DASHED1
 62
    7
 10
3476
 20
1158.5999999999999
 40
1
 50
270.00000000000005
 51
0.0000000000000508
  0
ARC
  8
_1-2_
  6
DASHED1
 62
    7
 10
3465
 20
1164.7999999999999
 40
0.5
 50
270.00000000000005
 51
0.0000000000000508
  0
ARC
  8
_1-2_
  6
DASHED1
 62
    7
 10
3466.5000000000004
 20
1172.7999999999999
 40
1
 50
180.00000000000005
 51
270.00000000000005
  0
ARC
  8
_1-2_
  6
DASHED1
 62
    7
 10
3474.0000000000004
 20
1172.7999999999999
 40
1
 50
270.00000000000005
 51
0.0000000000000508
  0
ARC
  8
_1-2_
  6
DASHED1
 62
    7
 10
3451
 20
1174.7999999999999
 40
1
 50
90.000000000000028
 51
180.00000000000005
  0
ARC
  8
_1-2_
  6
DASHED1
 62
    7
 10
3464.0000000000004
 20
1174.7999999999999
 40
1
 50
0
 51
90.000000000000028
  0
ARC
  8
_1-2_
  6
DASHED1
 62
    7
 10
3451
 20
1172.7999999999999
 40
1
 50
180.00000000000005
 51
270.00000000000005
  0
ARC
  8
_1-2_
  6
DASHED1
 62
    7
 10
3464.0000000000004
 20
1172.7999999999999
 40
1
 50
270.00000000000005
 51
0.0000000000000508
  0
ARC
  8
_1-2_
  6
DASHED1
 62
    7
 10
3455.5000000000009
 20
1166.7999999999999
 40
1
 50
180.00000000000005
 51
270.00000000000005
  0
ARC
  8
_1-2_
  6
DASHED1
 62
    7
 10
3459.5000000000004
 20
1166.7999999999999
 40
1
 50
270.00000000000005
 51
0.0000000000000508
  0
ARC
  8
_1-2_
  6
DASHED1
 62
    7
 10
3466
 20
1166.2999999999997
 40
0.5
 50
180.00000000000005
 51
270.00000000000005
  0
ARC
  8
_1-2_
  6
DASHED1
 62
    7
 10
3467.0000000000004
 20
1166.2999999999997
 40
0.5
 50
270.00000000000005
 51
0.0000000000000508
  0
ARC
  8
_1-2_
  6
DASHED1
 62
    7
 10
3456.8000000000006
 20
1147.5999999999999
 40
0.2999999999999998
 50
180.00000000000005
 51
270.00000000000005
  0
ARC
  8
_1-2_
  6
DASHED1
 62
    7
 10
3458.2000000000007
 20
1147.5999999999999
 40
0.2999999999999998
 50
270.00000000000005
 51
0.0000000000000508
  0
ARC
  8
_1-2_
  6
DASHED1
 62
    7
 10
3457.0000000000004
 20
1160.7999999999997
 40
0.5
 50
90.000000000000028
 51
180.00000000000005
  0
ARC
  8
_1-2_
  6
DASHED1
 62
    7
 10
3458.0000000000009
 20
1160.7999999999997
 40
0.5
 50
0
 51
90.000000000000028
  0
LINE
  8
_1-2_
  6
DASHED1
 62
    7
 10
3445
 20
1178.8999999999998
 11
3445
 21
1170.4999999999997
  0
LINE
  8
_1-2_
  6
DASHED1
 62
    7
 10
2013.4999999999977
 20
1177.1610499999999
 11
2014.6066499999978
 21
1177.7999999999999
  0
LINE
  8
_1-2_
  6
DASHED1
 62
    7
 10
2013.4999999999977
 20
1176.2950499999999
 11
2015.4999999999977
 21
1177.4497499999999
  0
LINE
  8
_1-2_
  6
DASHED1
 62
    7
 10
2013.4999999999977
 20
1175.429
 11
2015.4999999999977
 21
1176.5836999999999
  0
LINE
  8
_1-2_
  6
DASHED1
 62
    7
 10
2013.4999999999977
 20
1174.5630000000001
 11
2015.4999999999977
 21
1175.7176999999999
  0
LINE
  8
_1-2_
  6
DASHED1
 62
    7
 10
2013.4999999999977
 20
1173.69695
 11
2015.4999999999977
 21
1174.85165
  0
LINE
  8
_1-2_
  6
DASHED1
 62
    7
 10
2013.4999999999977
 20
1172.8309499999998
 11
2015.4999999999977
 21
1173.9856499999998
  0
LINE
  8
_1-2_
  6
DASHED1
 62
    7
 10
2013.4999999999977
 20
1171.9648999999999
 11
2015.4999999999977
 21
1173.1195999999999
  0
LINE
  8
_1-2_
  6
DASHED1
 62
    7
 10
2013.4999999999977
 20
1171.0988999999999
 11
2015.4999999999977
 21
1172.2536
  0
LINE
  8
_1-2_
  6
DASHED1
 62
    7
 10
2013.4999999999977
 20
1170.2328499999998
 11
2015.4999999999977
 21
1171.3875499999999
  0
LINE
  8
_1-2_
  6
DASHED1
 62
    7
 10
2013.4999999999977
 20
1169.3668499999998
 11
2015.4999999999977
 21
1170.5215499999999
  0
LINE
  8
_1-2_
  6
DASHED1
 62
    7
 10
2013.4999999999977
 20
1168.5007999999997
 11
2015.4999999999977
 21
1169.6554999999998
  0
LINE
  8
_1-2_
  6
DASHED1
 62
    7
 10
2013.4999999999977
 20
1167.6347999999998
 11
2015.4999999999977
 21
1168.7895
  0
LINE
  8
_1-2_
  6
DASHED1
 62
    7
 10
2013.4999999999977
 20
1166.7687499999999
 11
2015.4999999999977
 21
1167.92345
  0
LINE
  8
_1-2_
  6
DASHED1
 62
    7
 10
2013.4999999999977
 20
1165.9027499999999
 11
2015.4999999999977
 21
1167.05745
  0
LINE
  8
_1-2_
  6
DASHED1
 62
    7
 10
2013.4999999999977
 20
1165.0367000000001
 11
2015.4999999999977
 21
1166.1913999999999
  0
LINE
  8
_1-2_
  6
DASHED1
 62
    7
 10
2013.4999999999977
 20
1164.1706999999998
 11
2015.4999999999977
 21
1165.3253999999999
  0
LINE
  8
_1-2_
  6
DASHED1
 62
    7
 10
2013.4999999999977
 20
1163.3046499999998
 11
2015.4999999999977
 21
1164.4593499999998
  0
LINE
  8
_1-2_
  6
DASHED1
 62
    7
 10
2013.4999999999977
 20
1162.43865
 11
2015.4999999999977
 21
1163.5933499999998
  0
LINE
  8
_1-2_
  6
DASHED1
 62
    7
 10
2013.4999999999977
 20
1161.5725999999999
 11
2015.4999999999977
 21
1162.7273
  0
LINE
  8
_1-2_
  6
DASHED1
 62
    7
 10
2013.4999999999977
 20
1160.7065999999999
 11
2015.4999999999977
 21
1161.8613
  0
LINE
  8
_1-2_
  6
DASHED1
 62
    7
 10
2013.4999999999977
 20
1159.8405499999998
 11
2015.4999999999977
 21
1160.9952499999999
  0
LINE
  8
_1-2_
  6
DASHED1
 62
    7
 10
2013.4999999999977
 20
1158.9745499999999
 11
2015.4999999999977
 21
1160.1292499999999
  0
LINE
  8
_1-2_
  6
DASHED1
 62
    7
 10
2013.4999999999977
 20
1158.1084999999998
 11
2015.4999999999977
 21
1159.2632
  0
LINE
  8
_1-2_
  6
DASHED1
 62
    7
 10
2013.4999999999977
 20
1157.2425
 11
2015.4999999999977
 21
1158.3971999999998
  0
LINE
  8
_1-2_
  6
DASHED1
 62
    7
 10
2013.4999999999977
 20
1156.3764499999999
 11
2015.4999999999977
 21
1157.53115
  0
LINE
  8
_1-2_
  6
DASHED1
 62
    7
 10
2013.6100499999977
 20
1155.574
 11
2015.4999999999977
 21
1156.6651499999998
  0
LINE
  8
_1-2_
  6
DASHED1
 62
    7
 10
2013.7307999999979
 20
1154.7776499999999
 11
2015.572099999998
 21
1155.84075
  0
LINE
  8
_1-2_
  6
DASHED1
 62
    7
 10
2014.0035499999978
 20
1154.0690999999999
 11
2015.7600999999979
 21
1155.0832499999999
  0
LINE
  8
_1-2_
  6
DASHED1
 62
    7
 10
2014.3483999999978
 20
1153.4021999999999
 11
2016.0603999999977
 21
1154.3905999999999
  0
LINE
  8
_1-2_
  6
DASHED1
 62
    7
 10
2014.6932499999977
 20
1152.7352499999999
 11
2016.6084499999979
 21
1153.8409999999998
  0
LINE
  8
_1-2_
  6
DASHED1
 62
    7
 10
2015.1957999999979
 20
1152.1594
 11
2017.1034499999977
 21
1153.2607499999999
  0
LINE
  8
_1-2_
  6
DASHED1
 62
    7
 10
2015.7733999999979
 20
1151.6268
 11
2018.3249999999977
 21
1153.0999999999999
  0
LINE
  8
_1-2_
  6
DASHED1
 62
    7
 10
2016.4423499999977
 20
1151.1469999999999
 11
2019.8249999999979
 21
1153.0999999999999
  0
LINE
  8
_1-2_
  6
DASHED1
 62
    7
 10
2017.3307499999978
 20
1150.7938999999998
 11
2021.3249999999979
 21
1153.0999999999999
  0
LINE
  8
_1-2_
  6
DASHED1
 62
    7
 10
2018.2450499999979
 20
1150.45575
 11
2022.8249999999977
 21
1153.0999999999999
  0
LINE
  8
_1-2_
  6
DASHED1
 62
    7
 10
2020.9752499999979
 20
1150.2999999999999
 11
2025.2900499999977
 21
1152.79115
  0
LINE
  8
_1-2_
  6
DASHED1
 62
    7
 10
2019.5253999999979
 20
1150.32895
 11
2024.2654999999979
 21
1153.06565
  0
LINE
  8
_1-2_
  6
DASHED1
 62
    7
 10
2022.4752499999979
 20
1150.2999999999999
 11
2026.3145499999977
 21
1152.5165999999999
  0
LINE
  8
_1-2_
  6
DASHED1
 62
    7
 10
2025.4752499999976
 20
1150.2999999999999
 11
2028.3635999999978
 21
1151.9675499999998
  0
LINE
  8
_1-2_
  6
DASHED1
 62
    7
 10
2023.9752499999976
 20
1150.2999999999999
 11
2027.3390499999979
 21
1152.2420999999999
  0
LINE
  8
_1-2_
  6
DASHED1
 62
    7
 10
2026.9752499999979
 20
1150.2999999999999
 11
2029.7515999999977
 21
1151.9028999999998
  0
LINE
  8
_1-2_
  6
DASHED1
 62
    7
 10
2028.4752499999979
 20
1150.2999999999999
 11
2031.1953999999977
 21
1151.8704999999999
  0
LINE
  8
_1-2_
  6
DASHED1
 62
    7
 10
2029.9752499999979
 20
1150.2999999999999
 11
2033.0510999999978
 21
1152.0757999999998
  0
LINE
  8
_1-2_
  6
DASHED1
 62
    7
 10
2031.4752499999976
 20
1150.2999999999999
 11
2035.4250999999978
 21
1152.5804499999999
  0
LINE
  8
_1-2_
  6
DASHED1
 62
    7
 10
2032.9752499999976
 20
1150.2999999999999
 11
2037.7990999999976
 21
1153.0850499999999
  0
LINE
  8
_1-2_
  6
DASHED1
 62
    7
 10
2034.4752499999979
 20
1150.2999999999999
 11
2040.1730999999977
 21
1153.5896499999998
  0
LINE
  8
_1-2_
  6
DASHED1
 62
    7
 10
2035.9752499999979
 20
1150.2999999999999
 11
2042.5471499999978
 21
1154.0942500000001
  0
LINE
  8
_1-2_
  6
DASHED1
 62
    7
 10
2037.4752499999979
 20
1150.2999999999999
 11
2044.9211499999978
 21
1154.5988999999999
  0
LINE
  8
_1-2_
  6
DASHED1
 62
    7
 10
2038.9752499999976
 20
1150.2999999999999
 11
2056.8153999999976
 21
1160.5999999999999
  0
LINE
  8
_1-2_
  6
DASHED1
 62
    7
 10
2040.4752499999976
 20
1150.2999999999999
 11
2059.4999999999977
 21
1161.28395
  0
LINE
  8
_1-2_
  6
DASHED1
 62
    7
 10
2041.9752499999979
 20
1150.2999999999999
 11
2059.4999999999977
 21
1160.4178999999999
  0
LINE
  8
_1-2_
  6
DASHED1
 62
    7
 10
2043.4752499999979
 20
1150.2999999999999
 11
2059.4999999999977
 21
1159.5518999999999
  0
LINE
  8
_1-2_
  6
DASHED1
 62
    7
 10
2046.4999999999977
 20
1165.9027499999999
 11
2048.4999999999981
 21
1167.05745
  0
LINE
  8
_1-2_
  6
DASHED1
 62
    7
 10
2046.4999999999977
 20
1165.0367000000001
 11
2048.4999999999981
 21
1166.1913999999999
  0
LINE
  8
_1-2_
  6
DASHED1
 62
    7
 10
2046.4999999999977
 20
1164.1706999999998
 11
2048.4999999999981
 21
1165.3253999999999
  0
LINE
  8
_1-2_
  6
DASHED1
 62
    7
 10
2046.4999999999977
 20
1163.3046499999998
 11
2048.7707999999979
 21
1164.6156999999998
  0
LINE
  8
_1-2_
  6
DASHED1
 62
    7
 10
2046.4999999999977
 20
1162.43865
 11
2049.808399999998
 21
1164.3487500000001
  0
LINE
  8
_1-2_
  6
DASHED1
 62
    7
 10
2046.4999999999977
 20
1161.5725999999999
 11
2051.2239999999978
 21
1164.2999999999999
  0
LINE
  8
_1-2_
  6
DASHED1
 62
    7
 10
2046.4999999999977
 20
1160.7065999999999
 11
2052.7239999999978
 21
1164.2999999999999
  0
LINE
  8
_1-2_
  6
DASHED1
 62
    7
 10
2046.4999999999977
 20
1159.8405499999998
 11
2054.2239999999978
 21
1164.2999999999999
  0
LINE
  8
_1-2_
  6
DASHED1
 62
    7
 10
2046.4999999999977
 20
1158.9745499999999
 11
2049.3153999999976
 21
1160.5999999999999
  0
LINE
  8
_1-2_
  6
DASHED1
 62
    7
 10
2046.4999999999977
 20
1158.1084999999998
 11
2050.8153999999976
 21
1160.5999999999999
  0
LINE
  8
_1-2_
  6
DASHED1
 62
    7
 10
2046.4999999999977
 20
1157.2425
 11
2052.3153999999981
 21
1160.5999999999999
  0
LINE
  8
_1-2_
  6
DASHED1
 62
    7
 10
2046.4965999999978
 20
1156.3744999999998
 11
2053.8153999999981
 21
1160.5999999999999
  0
LINE
  8
_1-2_
  6
DASHED1
 62
    7
 10
2046.3648499999978
 20
1155.4323999999999
 11
2055.3153999999976
 21
1160.5999999999999
  0
LINE
  8
_1-2_
  6
DASHED1
 62
    7
 10
2049.3153999999976
 20
1160.5999999999999
 11
2055.7239999999978
 21
1164.2999999999999
  0
LINE
  8
_1-2_
  6
DASHED1
 62
    7
 10
2050.8153999999976
 20
1160.5999999999999
 11
2057.2239999999978
 21
1164.2999999999999
  0
LINE
  8
_1-2_
  6
DASHED1
 62
    7
 10
2052.3153999999981
 20
1160.5999999999999
 11
2058.4999999999981
 21
1164.1706999999998
  0
LINE
  8
_1-2_
  6
DASHED1
 62
    7
 10
2053.8153999999981
 20
1160.5999999999999
 11
2059.4999999999977
 21
1163.882
  0
LINE
  8
_1-2_
  6
DASHED1
 62
    7
 10
2055.3153999999976
 20
1160.5999999999999
 11
2059.4999999999977
 21
1163.0159999999998
  0
LINE
  8
_1-2_
  6
DASHED1
 62
    7
 10
2056.8153999999976
 20
1160.5999999999999
 11
2059.4999999999977
 21
1162.1499499999999
  0
LINE
  8
_1-2_
  6
DASHED1
 62
    7
 10
2013.4999999999977
 20
1177.9110499999999
 11
2014.4999999999979
 21
1178.4883999999999
  0
LINE
  8
_1-2_
  6
DASHED1
 62
    7
 10
2013.4999999999977
 20
1177.9110499999999
 11
2014.6066499999978
 21
1178.5499999999999
  0
LINE
  8
_1-2_
  6
DASHED1
 62
    7
 10
2013.4999999999977
 20
1178.6610499999999
 11
2014.2602499999977
 21
1179.0999999999999
  0
LINE
  8
_1-2_
  6
DASHED1
 62
    7
 10
2048.4999999999981
 20
1168.7999999999999
 11
2048.4999999999981
 21
1170.7999999999999
  0
LINE
  8
_1-2_
  6
DASHED1
 62
    7
 10
2028.4999999999979
 20
1151.9309999999998
 11
2030.9999999999979
 21
1151.7999999999999
  0
LINE
  8
_1-2_
  6
DASHED1
 62
    7
 10
2024.1372999999978
 20
1153.0999999999999
 11
2028.4999999999979
 21
1151.9309999999998
  0
LINE
  8
_1-2_
  6
DASHED1
 62
    7
 10
2046.4999999999977
 20
1166.1452999999999
 11
2048.4999999999981
 21
1167.2999999999999
  0
LINE
  8
_1-2_
  6
DASHED1
 62
    7
 10
2046.4999999999977
 20
1156.4081999999998
 11
2046.4999999999977
 21
1166.1452999999999
  0
LINE
  8
_1-2_
  6
DASHED1
 62
    7
 10
2023.4499999999977
 20
1177.7999999999999
 11
2023.4499999999977
 21
1176.7999999999999
  0
LINE
  8
_1-2_
  6
DASHED1
 62
    7
 10
2050.2320499999977
 20
1171.2999999999999
 11
2048.4999999999981
 21
1168.2999999999999
  0
LINE
  8
_1-2_
  6
DASHED1
 62
    7
 10
2031.9999999999979
 20
1151.8523999999999
 11
2030.9999999999979
 21
1151.7999999999999
  0
LINE
  8
_1-2_
  6
DASHED1
 62
    7
 10
2046.1919999999977
 20
1154.8689999999999
 11
2031.9999999999979
 21
1151.8523999999999
  0
LINE
  8
_1-2_
  6
DASHED1
 62
    7
 10
2015.4999999999977
 20
1177.7999999999999
 11
2015.4999999999977
 21
1156.3976999999999
  0
LINE
  8
_1-2_
  6
DASHED1
 62
    7
 10
2024.1372999999978
 20
1153.0999999999999
 11
2017.2360999999978
 21
1153.0999999999999
  0
LINE
  8
_1-2_
  6
DASHED1
 62
    7
 10
2055.9999999999981
 20
1173
 11
2055.9999999999981
 21
1180.5999999999999
  0
LINE
  8
_1-2_
  6
DASHED1
 62
    7
 10
2041.1999999999977
 20
1176.7999999999999
 11
2023.4499999999977
 21
1176.7999999999999
  0
LINE
  8
_1-2_
  6
DASHED1
 62
    7
 10
2013.4999999999977
 20
1156.2999999999999
 11
2013.4999999999977
 21
1179.0999999999999
  0
LINE
  8
_1-2_
  6
DASHED1
 62
    7
 10
2014.4999999999979
 20
1177.7999999999999
 11
2014.4999999999979
 21
1179.1166499999999
  0
LINE
  8
_1-2_
  6
DASHED1
 62
    7
 10
2013.4999999999977
 20
1179.0999999999999
 11
2073.4999999999981
 21
1180
  0
LINE
  8
_1-2_
  6
DASHED1
 62
    7
 10
2072.4999999999981
 20
1180
 11
2072.4999999999981
 21
1178.6999999999998
  0
LINE
  8
_1-2_
  6
DASHED1
 62
    7
 10
2051.2404499999979
 20
1178.6999999999998
 11
2046.9999999999979
 21
1178.6999999999998
  0
LINE
  8
_1-2_
  6
DASHED1
 62
    7
 10
2063.321449999998
 20
1178.6999999999998
 11
2072.3999999999978
 21
1178.6999999999998
  0
LINE
  8
_1-2_
  6
DASHED1
 62
    7
 10
2046.9999999999979
 20
1176.7999999999999
 11
2045.7999999999979
 21
1176.7999999999999
  0
LINE
  8
_1-2_
  6
DASHED1
 62
    7
 10
2082.4999499999976
 20
1168.7999999999999
 11
2084.499949999998
 21
1170.7999999999999
  0
LINE
  8
_1-2_
  6
DASHED1
 62
    7
 10
2084.499949999998
 20
1170.7999999999999
 11
2084.499949999998
 21
1177.7999999999999
  0
LINE
  8
_1-2_
  6
DASHED1
 62
    7
 10
2079.499949999998
 20
1174.7999999999999
 11
2079.499949999998
 21
1173.5
  0
LINE
  8
_1-2_
  6
DASHED1
 62
    7
 10
2043.4999999999979
 20
1174.7
 11
2043.4999999999979
 21
1163.5
  0
LINE
  8
_1-2_
  6
DASHED1
 62
    7
 10
2084.499949999998
 20
1174.7999999999999
 11
2054.5715999999979
 21
1174.7999999999999
  0
LINE
  8
_1-2_
  6
DASHED1
 62
    7
 10
2053.1573499999976
 20
1174.2141999999998
 11
2045.6215999999976
 21
1166.6784
  0
LINE
  8
_1-2_
  6
DASHED1
 62
    7
 10
2051.3289499999978
 20
1178.7999999999999
 11
2083.4999499999976
 21
1178.7999999999999
  0
LINE
  8
_1-2_
  6
DASHED1
 62
    7
 10
2047.7933999999979
 20
1177.33555
 11
2044.0152499999978
 21
1173.55735
  0
LINE
  8
_1-2_
  6
DASHED1
 62
    7
 10
2048.6999999999979
 20
1168.7999999999999
 11
2039.389999999998
 21
1168.7999999999999
  0
LINE
  8
_1-2_
  6
DASHED1
 62
    7
 10
2029.9999999999979
 20
1157.8700000000001
 11
2029.9999999999979
 21
1178.5899999999999
  0
LINE
  8
_1-2_
  6
DASHED1
 62
    7
 10
2073.999949999998
 20
1174.7999999999999
 11
2073.999949999998
 21
1178.7999999999999
  0
LINE
  8
_1-2_
  6
DASHED1
 62
    7
 10
2079.499949999998
 20
1178.7999999999999
 11
2079.499949999998
 21
1174.7999999999999
  0
LINE
  8
_1-2_
  6
DASHED1
 62
    7
 10
2082.4999499999976
 20
1168.7999999999999
 11
2075.499949999998
 21
1168.7999999999999
  0
LINE
  8
_1-2_
  6
DASHED1
 62
    7
 10
2075.499949999998
 20
1169.96
 11
2075.499949999998
 21
1168.7999999999999
  0
LINE
  8
_1-2_
  6
DASHED1
 62
    7
 10
2075.499949999998
 20
1169.96
 11
2079.499949999998
 21
1173.5
  0
LINE
  8
_1-2_
  6
DASHED1
 62
    7
 10
2017.0708999999978
 20
1163.0781499999998
 11
2016.1105999999977
 21
1170.8994
  0
LINE
  8
_1-2_
  6
DASHED1
 62
    7
 10
2016.1058499999978
 20
1170.8978499999998
 11
2021.7908499999978
 21
1172.7999999999999
  0
LINE
  8
_1-2_
  6
DASHED1
 62
    7
 10
2031.9999999999979
 20
1171.7999999999999
 11
2043.4999999999979
 21
1171.7999999999999
  0
LINE
  8
_1-2_
  6
DASHED1
 62
    7
 10
2031.9999999999979
 20
1171.7999999999999
 11
2031.9999999999979
 21
1172.7999999999999
  0
LINE
  8
_1-2_
  6
DASHED1
 62
    7
 10
2031.9999999999979
 20
1172.7999999999999
 11
2021.7908499999978
 21
1172.7999999999999
  0
LINE
  8
_1-2_
  6
DASHED1
 62
    7
 10
2035.1058499999978
 20
1165.8861999999999
 11
2035.1058499999978
 21
1165.1843499999999
  0
LINE
  8
_1-2_
  6
DASHED1
 62
    7
 10
2035.1058499999978
 20
1165.8861999999999
 11
2031.6058499999976
 21
1168.7635999999999
  0
LINE
  8
_1-2_
  6
DASHED1
 62
    7
 10
2024.6058499999978
 20
1167.9157
 11
2024.6058499999978
 21
1164.2963499999998
  0
LINE
  8
_1-2_
  6
DASHED1
 62
    7
 10
2035.1058499999978
 20
1165.1843499999999
 11
2031.6058499999976
 21
1168.3453999999999
  0
LINE
  8
_1-2_
  6
DASHED1
 62
    7
 10
2024.6058499999978
 20
1164.2963499999998
 11
2024.6058499999978
 21
1164.8148999999998
  0
LINE
  8
_1-2_
  6
DASHED1
 62
    7
 10
2041.1999999999977
 20
1176.7999999999999
 11
2041.1999999999977
 21
1171.9722499999998
  0
LINE
  8
_1-2_
  6
DASHED1
 62
    7
 10
2045.7999999999979
 20
1176.7999999999999
 11
2045.7999999999979
 21
1175.3421
  0
LINE
  8
_1-2_
  6
DASHED1
 62
    7
 10
2045.7999999999979
 20
1175.3421
 11
2045.7999999999979
 21
1168.1374499999999
  0
LINE
  8
_1-2_
  6
DASHED1
 62
    7
 10
2041.1999999999977
 20
1171.9722499999998
 11
2041.1999999999977
 21
1168.7999999999999
  0
LINE
  8
_1-2_
  6
DASHED1
 62
    7
 10
2046.9999999999979
 20
1176.5421000000001
 11
2046.9999999999979
 21
1179.6024999999999
  0
LINE
  8
_1-2_
  6
DASHED1
 62
    7
 10
2046.9999999999979
 20
1166.4339999999999
 11
2046.9999999999979
 21
1168.0568499999999
  0
LINE
  8
_1-2_
  6
DASHED1
 62
    7
 10
2046.9999999999979
 20
1176.5421000000001
 11
2046.9999999999979
 21
1168.0568499999999
  0
LINE
  8
_1-2_
  6
DASHED1
 62
    7
 10
2050.4999999999977
 20
1172.7999999999999
 11
2050.4999999999977
 21
1172.2999999999999
  0
LINE
  8
_1-2_
  6
DASHED1
 62
    7
 10
2054.5715999999979
 20
1174.7999999999999
 11
2072.4999999999981
 21
1174.7999999999999
  0
LINE
  8
_1-2_
  6
DASHED1
 62
    7
 10
2052.4999999999981
 20
1174.7999999999999
 11
2054.099999999998
 21
1174.7999999999999
  0
LINE
  8
_1-2_
  6
DASHED1
 62
    7
 10
2063.321449999998
 20
1178.6999999999998
 11
2058.8999999999978
 21
1178.6999999999998
  0
LINE
  8
_1-2_
  6
DASHED1
 62
    7
 10
2058.8929999999977
 20
1179.7565499999998
 11
2058.8988999999978
 21
1178.6999999999998
  0
LINE
  8
_1-2_
  6
DASHED1
 62
    7
 10
2053.106499999998
 20
1179.6601
 11
2053.101099999998
 21
1178.6999999999998
  0
LINE
  8
_1-2_
  6
DASHED1
 62
    7
 10
2053.099999999998
 20
1178.6999999999998
 11
2051.2404499999979
 21
1178.6999999999998
  0
LINE
  8
_1-2_
  6
DASHED1
 62
    7
 10
2054.099999999998
 20
1174.7999999999999
 11
2054.099999999998
 21
1179.709
  0
LINE
  8
_1-2_
  6
DASHED1
 62
    7
 10
2057.8999999999978
 20
1174.7999999999999
 11
2057.8999999999978
 21
1179.7405499999999
  0
LINE
  8
_1-2_
  6
DASHED1
 62
    7
 10
2030.9999999999979
 20
1175.2999999999999
 11
2030.9999999999979
 21
1180.2999999999999
  0
LINE
  8
_1-2_
  6
DASHED1
 62
    7
 10
2041.1999999999977
 20
1176.7999999999999
 11
2041.1999999999977
 21
1172
  0
LINE
  8
_1-2_
  6
DASHED1
 62
    7
 10
2027.6999999999977
 20
1176.7999999999999
 11
2046.899999999998
 21
1176.7999999999999
  0
LINE
  8
_1-2_
  6
DASHED1
 62
    7
 10
2044.8999999999978
 20
1176.7999999999999
 11
2044.8999999999978
 21
1171.7999999999999
  0
LINE
  8
_1-2_
  6
DASHED1
 62
    7
 10
2044.8999999999978
 20
1171.7999999999999
 11
2045.4999999999977
 21
1171.7999999999999
  0
LINE
  8
_1-2_
  6
DASHED1
 62
    7
 10
2027.6999999999977
 20
1176.7999999999999
 11
2025.4999999999977
 21
1177.7999999999999
  0
LINE
  8
_1-2_
  6
DASHED1
 62
    7
 10
2016.1999999999977
 20
1177.7999999999999
 11
2016.1999999999977
 21
1175.7999999999999
  0
LINE
  8
_1-2_
  6
DASHED1
 62
    7
 10
2014.4999999999979
 20
1177.7999999999999
 11
2025.4999999999977
 21
1177.7999999999999
  0
LINE
  8
_1-2_
  6
DASHED1
 62
    7
 10
2014.4999999999979
 20
1179
 11
2046.899999999998
 21
1179.5
  0
LINE
  8
_1-2_
  6
DASHED1
 62
    7
 10
2014.4999999999979
 20
1179
 11
2014.4999999999979
 21
1177.7999999999999
  0
LINE
  8
_1-2_
  6
DASHED1
 62
    7
 10
2015.4999999999977
 20
1175.7999999999999
 11
2016.1999999999977
 21
1175.7999999999999
  0
LINE
  8
_1-2_
  6
DASHED1
 62
    7
 10
2046.899999999998
 20
1171.7999999999999
 11
2045.4999999999977
 21
1171.7999999999999
  0
LINE
  8
_1-2_
  6
DASHED1
 62
    7
 10
2046.899999999998
 20
1179.5
 11
2046.899999999998
 21
1176.4420999999999
  0
LINE
  8
_1-2_
  6
DASHED1
 62
    7
 10
2045.4999999999977
 20
1176.7999999999999
 11
2045.4999999999977
 21
1175.0421000000001
  0
LINE
  8
_1-2_
  6
DASHED1
 62
    7
 10
2045.4999999999977
 20
1175.0421000000001
 11
2045.4999999999977
 21
1172
  0
LINE
  8
_1-2_
  6
DASHED1
 62
    7
 10
2046.899999999998
 20
1176.4420999999999
 11
2046.899999999998
 21
1171.7999999999999
  0
LINE
  8
_1-2_
  6
DASHED1
 62
    7
 10
2042.1999999999977
 20
1171
 11
2044.4999999999979
 21
1171
  0
LINE
  8
_1-2_
  6
DASHED1
 62
    7
 10
2015.4999999999977
 20
1178.6999999999998
 11
2045.8999999999978
 21
1178.6999999999998
  0
LINE
  8
_1-2_
  6
DASHED1
 62
    7
 10
2045.8999999999978
 20
1178.6999999999998
 11
2045.8999999999978
 21
1179.4814999999998
  0
LINE
  8
_1-2_
  6
DASHED1
 62
    7
 10
2023.4499999999977
 20
1177.7999999999999
 11
2014.4999999999979
 21
1177.7999999999999
  0
LINE
  8
_1-2_
  6
DASHED1
 62
    7
 10
2015.4999999999977
 20
1178.6999999999998
 11
2015.4999999999977
 21
1179.0154499999998
  0
LINE
  8
_1-2_
  6
DASHED1
 62
    7
 10
2046.8397499999978
 20
1179.4989
 11
2046.899999999998
 21
1179.4640999999999
  0
LINE
  8
_1-2_
  6
DASHED1
 62
    7
 10
2039.2234499999976
 20
1178.6999999999998
 11
2042.5143499999978
 21
1176.7999999999999
  0
LINE
  8
_1-2_
  6
DASHED1
 62
    7
 10
2040.7234499999979
 20
1178.6999999999998
 11
2044.0143499999978
 21
1176.7999999999999
  0
LINE
  8
_1-2_
  6
DASHED1
 62
    7
 10
2042.2234499999979
 20
1178.6999999999998
 11
2045.5143499999981
 21
1176.7999999999999
  0
LINE
  8
_1-2_
  6
DASHED1
 62
    7
 10
2043.7234499999979
 20
1178.6999999999998
 11
2046.899999999998
 21
1176.8659999999999
  0
LINE
  8
_1-2_
  6
DASHED1
 62
    7
 10
2045.2234499999976
 20
1178.6999999999998
 11
2046.899999999998
 21
1177.7320499999998
  0
LINE
  8
_1-2_
  6
DASHED1
 62
    7
 10
2045.8999999999978
 20
1179.1754
 11
2046.899999999998
 21
1178.59805
  0
LINE
  8
_1-2_
  6
DASHED1
 62
    7
 10
2025.7234499999979
 20
1178.6999999999998
 11
2029.0143499999978
 21
1176.7999999999999
  0
LINE
  8
_1-2_
  6
DASHED1
 62
    7
 10
2027.2234499999979
 20
1178.6999999999998
 11
2030.5143499999976
 21
1176.7999999999999
  0
LINE
  8
_1-2_
  6
DASHED1
 62
    7
 10
2028.7234499999979
 20
1178.6999999999998
 11
2032.0143499999976
 21
1176.7999999999999
  0
LINE
  8
_1-2_
  6
DASHED1
 62
    7
 10
2030.2234499999976
 20
1178.6999999999998
 11
2033.5143499999978
 21
1176.7999999999999
  0
LINE
  8
_1-2_
  6
DASHED1
 62
    7
 10
2031.7234499999976
 20
1178.6999999999998
 11
2035.0143499999978
 21
1176.7999999999999
  0
LINE
  8
_1-2_
  6
DASHED1
 62
    7
 10
2033.2234499999979
 20
1178.6999999999998
 11
2036.5143499999978
 21
1176.7999999999999
  0
LINE
  8
_1-2_
  6
DASHED1
 62
    7
 10
2034.7234499999979
 20
1178.6999999999998
 11
2038.0143499999976
 21
1176.7999999999999
  0
LINE
  8
_1-2_
  6
DASHED1
 62
    7
 10
2036.2234499999979
 20
1178.6999999999998
 11
2039.5143499999976
 21
1176.7999999999999
  0
LINE
  8
_1-2_
  6
DASHED1
 62
    7
 10
2037.7234499999976
 20
1178.6999999999998
 11
2041.0143499999978
 21
1176.7999999999999
  0
LINE
  8
_1-2_
  6
DASHED1
 62
    7
 10
2024.2234499999976
 20
1178.6999999999998
 11
2026.8271499999978
 21
1177.19675
  0
LINE
  8
_1-2_
  6
DASHED1
 62
    7
 10
2022.7234499999976
 20
1178.6999999999998
 11
2024.2822999999978
 21
1177.7999999999999
  0
LINE
  8
_1-2_
  6
DASHED1
 62
    7
 10
2021.2234499999979
 20
1178.6999999999998
 11
2022.7822999999978
 21
1177.7999999999999
  0
LINE
  8
_1-2_
  6
DASHED1
 62
    7
 10
2019.7234499999979
 20
1178.6999999999998
 11
2021.2822999999978
 21
1177.7999999999999
  0
LINE
  8
_1-2_
  6
DASHED1
 62
    7
 10
2018.2234499999979
 20
1178.6999999999998
 11
2019.782299999998
 21
1177.7999999999999
  0
LINE
  8
_1-2_
  6
DASHED1
 62
    7
 10
2016.7234499999976
 20
1178.6999999999998
 11
2018.282299999998
 21
1177.7999999999999
  0
LINE
  8
_1-2_
  6
DASHED1
 62
    7
 10
2014.698549999998
 20
1179.0030499999998
 11
2016.7822999999978
 21
1177.7999999999999
  0
LINE
  8
_1-2_
  6
DASHED1
 62
    7
 10
2014.4999999999979
 20
1178.2516499999999
 11
2015.2822999999978
 21
1177.7999999999999
  0
LINE
  8
_1-2_
  6
DASHED1
 62
    7
 10
2073.4999999999981
 20
1180
 11
2073.4999999999981
 21
1178.7999999999999
  0
LINE
  8
_1-2_
  6
DASHED1
 62
    7
 10
2073.4999999999981
 20
1178.7999999999999
 11
2073.4999999999981
 21
1175.7999999999999
  0
LINE
  8
_1-2_
  6
DASHED1
 62
    7
 10
2044.9752499999979
 20
1150.2999999999999
 11
2059.4999999999977
 21
1158.6858499999998
  0
LINE
  8
_1-2_
  6
DASHED1
 62
    7
 10
2046.4752499999976
 20
1150.2999999999999
 11
2059.4999999999977
 21
1157.8198499999998
  0
LINE
  8
_1-2_
  6
DASHED1
 62
    7
 10
2047.9752499999976
 20
1150.2999999999999
 11
2059.5243499999978
 21
1156.9678999999998
  0
LINE
  8
_1-2_
  6
DASHED1
 62
    7
 10
2049.4752499999976
 20
1150.2999999999999
 11
2059.4999999999977
 21
1156.0878
  0
LINE
  8
_1-2_
  6
DASHED1
 62
    7
 10
2050.9752499999976
 20
1150.2999999999999
 11
2059.4999999999977
 21
1155.2217499999999
  0
LINE
  8
_1-2_
  6
DASHED1
 62
    7
 10
2052.4752499999981
 20
1150.2999999999999
 11
2059.4999999999977
 21
1154.3557499999999
  0
LINE
  8
_1-2_
  6
DASHED1
 62
    7
 10
2053.9752499999981
 20
1150.2999999999999
 11
2059.4999999999977
 21
1153.4896999999998
  0
LINE
  8
_1-2_
  6
DASHED1
 62
    7
 10
2055.4752499999976
 20
1150.2999999999999
 11
2059.4999999999977
 21
1152.6237
  0
LINE
  8
_1-2_
  6
DASHED1
 62
    7
 10
2056.9752499999976
 20
1150.2999999999999
 11
2059.4095999999981
 21
1151.7054499999999
  0
LINE
  8
_1-2_
  6
DASHED1
 62
    7
 10
2048.4999999999981
 20
1168.7999999999999
 11
2048.4999999999981
 21
1165.2999999999999
  0
LINE
  8
_1-2_
  6
DASHED1
 62
    7
 10
2059.4999999999977
 20
1152.2999999999999
 11
2059.4999999999977
 21
1174.7999999999999
  0
LINE
  8
_1-2_
  6
DASHED1
 62
    7
 10
2057.4999999999981
 20
1150.2999999999999
 11
2019.4999999999979
 21
1150.2999999999999
  0
LINE
  8
_1-2_
  6
DASHED1
 62
    7
 10
2049.4999999999977
 20
1164.2999999999999
 11
2059.4999999999977
 21
1164.2999999999999
  0
LINE
  8
_1-2_
  6
DASHED1
 62
    7
 10
2019.2911999999978
 20
1152.4136499999999
 11
2028.4999999999979
 21
1151.9309999999998
  0
LINE
  8
_1-2_
  6
DASHED1
 62
    7
 10
2042.7093499999978
 20
1152.4136499999999
 11
2031.9999999999979
 21
1151.8523999999999
  0
LINE
  8
_1-2_
  6
DASHED1
 62
    7
 10
2031.6058499999976
 20
1168.7635999999999
 11
2031.6058499999976
 21
1168.3453999999999
  0
LINE
  8
_1-2_
  6
DASHED1
 62
    7
 10
2017.6382999999977
 20
1164.1629499999999
 11
2029.9999999999979
 21
1171.2999999999999
  0
LINE
  8
_1-2_
  6
DASHED1
 62
    7
 10
2016.6465999999979
 20
1166.5337999999999
 11
2027.4999999999979
 21
1172.7999999999999
  0
LINE
  8
_1-2_
  6
DASHED1
 62
    7
 10
2045.4075999999977
 20
1167.17155
 11
2029.9999999999979
 21
1171.2999999999999
  0
LINE
  8
_1-2_
  6
DASHED1
 62
    7
 10
2048.4999999999981
 20
1160.5999999999999
 11
2057.4999999999981
 21
1160.5999999999999
  0
LINE
  8
_1-2_
  6
DASHED1
 62
    7
 10
2048.4999999999981
 20
1160.5999999999999
 11
2048.4999999999981
 21
1156.2999999999999
  0
LINE
  8
_1-2_
  6
DASHED1
 62
    7
 10
2048.4999999999981
 20
1160.5999999999999
 11
2048.4999999999981
 21
1165.2999999999999
  0
LINE
  8
_1-2_
  6
DASHED1
 62
    7
 10
2080.749949999998
 20
1171.2999999999999
 11
2083.249949999998
 21
1171.2999999999999
  0
LINE
  8
_1-2_
  6
DASHED1
 62
    7
 10
2083.249949999998
 20
1178.7999999999999
 11
2083.249949999998
 21
1171.2999999999999
  0
LINE
  8
_1-2_
  6
DASHED1
 62
    7
 10
2080.749949999998
 20
1178.7999999999999
 11
2080.749949999998
 21
1171.2999999999999
  0
LINE
  8
_1-2_
  6
DASHED1
 62
    7
 10
2081.999949999998
 20
1169.7099999999998
 11
2081.999949999998
 21
1180.7999999999999
  0
ARC
  8
_1-2_
  6
DASHED1
 62
    7
 10
2019.4999999999979
 20
1156.2999999999999
 40
6.0000000000000008
 50
180.00000000000005
 51
270.00000000000011
  0
ARC
  8
_1-2_
  6
DASHED1
 62
    7
 10
2042.4999999999979
 20
1156.4081999999998
 40
4
 50
337.36900000000008
 51
0.0000000000000731
  0
ARC
  8
_1-2_
  6
DASHED1
 62
    7
 10
2019.4999999999979
 20
1156.3976999999999
 40
4
 50
180.00000000000005
 51
235.53000000000005
  0
ARC
  8
_1-2_
  6
DASHED1
 62
    7
 10
2052.4999999999981
 20
1170.7999999999999
 40
4
 50
90.000000000000042
 51
95.18700000000004
  0
ARC
  8
_1-2_
  6
DASHED1
 62
    7
 10
2052.4999999999981
 20
1170.7999999999999
 40
4
 50
95.187000000000026
 51
180.00000000000005
  0
CIRCLE
  8
_1-2_
  6
DASHED1
 62
    7
 10
2043.4999999999979
 20
1168.7999999999999
 40
2.1
  0
CIRCLE
  8
_1-2_
  6
DASHED1
 62
    7
 10
2043.4999999999979
 20
1168.7999999999999
 40
3.0000000000000004
  0
ARC
  8
_1-2_
  6
DASHED1
 62
    7
 10
2083.4999499999976
 20
1177.7999999999999
 40
1
 50
0.0000000000000127
 51
90.000000000000042
  0
ARC
  8
_1-2_
  6
DASHED1
 62
    7
 10
2041.3323499999978
 20
1170.8739499999999
 40
6.0000000000000008
 50
258.78600000000011
 51
316.26600000000013
  0
CIRCLE
  8
_1-2_
  6
DASHED1
 62
    7
 10
2043.4999999999979
 20
1168.7999999999999
 40
3.0000000000000004
  0
CIRCLE
  8
_1-2_
  6
DASHED1
 62
    7
 10
2043.4999999999979
 20
1168.7999999999999
 40
2.1
  0
ARC
  8
_1-2_
  6
DASHED1
 62
    7
 10
2054.5715999999979
 20
1172.7999999999999
 40
2
 50
90.000000000000056
 51
135.00000000000005
  0
ARC
  8
_1-2_
  6
DASHED1
 62
    7
 10
2051.3289499999978
 20
1173.7999999999999
 40
5
 50
90.000000000000056
 51
135.00000000000005
  0
ARC
  8
_1-2_
  6
DASHED1
 62
    7
 10
2039.7725999999977
 20
1177.7999999999999
 40
6.0000000000000008
 50
270.00000000000005
 51
315.00000000000005
  0
ARC
  8
_1-2_
  6
DASHED1
 62
    7
 10
2045.6663999999977
 20
1168.1374499999999
 40
1
 50
255.00000000000005
 51
315.00000000000005
  0
ARC
  8
_1-2_
  6
DASHED1
 62
    7
 10
2016.134049999998
 20
1171.9907499999999
 40
10
 50
282.37900000000007
 51
299.06400000000007
  0
ARC
  8
_1-2_
  6
DASHED1
 62
    7
 10
2018.0634499999978
 20
1163.1999999999998
 40
1
 50
187.00000000000011
 51
282.37900000000013
  0
ARC
  8
_1-2_
  6
DASHED1
 62
    7
 10
2031.899999999998
 20
1123.2999999999999
 40
42.00685
 50
85.623000000000018
 51
93.038000000000025
  0
ARC
  8
_1-2_
  6
DASHED1
 62
    7
 10
2030.7075499999978
 20
1145.7683999999999
 40
19.50685
 50
93.038000000000025
 51
108.22800000000002
  0
ARC
  8
_1-2_
  6
DASHED1
 62
    7
 10
2031.899999999998
 20
1123.2999999999999
 40
42.706699999999997
 50
85.695000000000021
 51
93.038000000000025
  0
ARC
  8
_1-2_
  6
DASHED1
 62
    7
 10
2030.7075499999978
 20
1145.7683999999999
 40
20.206700000000004
 50
93.038000000000025
 51
107.576
  0
ARC
  8
_1-2_
  6
DASHED1
 62
    7
 10
2031.899999999998
 20
1123.2999999999999
 40
42.5
 50
78.786000000000015
 51
93.038000000000025
  0
ARC
  8
_1-2_
  6
DASHED1
 62
    7
 10
2030.7075499999978
 20
1145.7683999999999
 40
20
 50
92.027000000000029
 51
119.06400000000003
  0
ARC
  8
_1-2_
  6
DASHED1
 62
    7
 10
2017.3882999999977
 20
1164.596
 40
0.5
 50
187.00000000000011
 51
300.00000000000005
  0
ARC
  8
_1-2_
  6
DASHED1
 62
    7
 10
2043.4999999999979
 20
1168.7999999999999
 40
2.2999999999999998
 50
180.00000000000005
 51
0.0000000000001017
  0
ARC
  8
_1-2_
  6
DASHED1
 62
    7
 10
2052.4999999999981
 20
1172.7999999999999
 40
2
 50
90.000000000000028
 51
180.00000000000005
  0
ARC
  8
_1-2_
  6
DASHED1
 62
    7
 10
2048.4999999999981
 20
1172.2999999999999
 40
2
 50
330.00000000000011
 51
0.0000000000000826
  0
ARC
  8
_1-2_
  6
DASHED1
 62
    7
 10
2044.4999999999979
 20
1172
 40
1
 50
270.00000000000005
 51
0.0000000000000508
  0
ARC
  8
_1-2_
  6
DASHED1
 62
    7
 10
2042.1999999999977
 20
1172
 40
1
 50
180.00000000000005
 51
270.00000000000011
  0
ARC
  8
_1-2_
  6
DASHED1
 62
    7
 10
2072.4999999999981
 20
1175.7999999999999
 40
1
 50
270.00000000000005
 51
0.0000000000000508
  0
ARC
  8
_1-2_
  6
DASHED1
 62
    7
 10
2030.4399999999977
 20
1160.5899999999999
 40
8.7300000000000004
 50
157.33400000000003
 51
33.423999999999978
  0
ARC
  8
_1-2_
  6
DASHED1
 62
    7
 10
2057.4999999999981
 20
1161.5999999999999
 40
1
 50
270.00000000000005
 51
0.0000000000000508
  0
ARC
  8
_1-2_
  6
DASHED1
 62
    7
 10
2049.4999999999977
 20
1165.2999999999999
 40
1
 50
180.00000000000005
 51
270.00000000000011
  0
ARC
  8
_1-2_
  6
DASHED1
 62
    7
 10
2057.4999999999981
 20
1152.2999999999999
 40
2
 50
270.00000000000005
 51
0.0000000000000508
  0
ARC
  8
_1-2_
  6
DASHED1
 62
    7
 10
2019.4999999999979
 20
1156.3976999999999
 40
4
 50
235.53000000000005
 51
267.00000000000005
  0
ARC
  8
_1-2_
  6
DASHED1
 62
    7
 10
2042.4999999999979
 20
1156.4081999999998
 40
4
 50
273.00000000000005
 51
337.36900000000014
  0
ARC
  8
_1-2_
  6
DASHED1
 62
    7
 10
2031.899999999998
 20
1123.2999999999999
 40
45.472499999999996
 50
90.371000000000037
 51
93.038000000000039
  0
ARC
  8
_1-2_
  6
DASHED1
 62
    7
 10
2031.899999999998
 20
1123.2999999999999
 40
45.046349999999996
 50
90.374000000000023
 51
93.038000000000025
  0
ARC
  8
_1-2_
  6
DASHED1
 62
    7
 10
2030.7075499999978
 20
1145.7683999999999
 40
22.54635
 50
93.038000000000025
 51
105.70200000000005
  0
ARC
  8
_1-2_
  6
DASHED1
 62
    7
 10
2030.7075499999978
 20
1145.7683999999999
 40
22.9725
 50
93.038000000000025
 51
105.40300000000002
  0
ARC
  8
_1-2_
  6
DASHED1
 62
    7
 10
2030.4399999999977
 20
1160.5899999999999
 40
8.7300000000000004
 50
33.424000000000006
 51
157.33400000000003
  0
ARC
  8
_1-2_
  6
DASHED1
 62
    7
 10
2042.4999999999979
 20
1156.2999999999999
 40
6.0000000000000008
 50
270.00000000000005
 51
0.0000000000000508
  0
LINE
  8
_1-2_
  6
DASHED1
 62
    7
 10
2030.9999999999979
 20
1180.9
 11
2030.9999999999979
 21
1146.5
  0
ARC
  8
_1-2_
  6
DASHED1
 62
    7
 10
2094.7999999999983
 20
1164.7374999999999
 40
1.1999999999999999
 50
359.99999999999994
 51
89.999999999999943
  0
ARC
  8
_1-2_
  6
DASHED1
 62
    7
 10
2094.7999999999983
 20
1164.7374999999999
 40
1.1999999999999999
 50
359.99999999999994
 51
89.999999999999943
  0
LINE
  8
_1-2_
  6
DASHED1
 62
    7
 10
2095.9999999999986
 20
1161.7374999999999
 11
2094.7999999999983
 21
1161.7374999999999
  0
LINE
  8
_1-2_
  6
DASHED1
 62
    7
 10
2094.7999999999983
 20
1164.7374999999999
 11
2094.7999999999983
 21
1144.7374999999999
  0
LINE
  8
_1-2_
  6
DASHED1
 62
    7
 10
2095.9999999999986
 20
1144.7374999999999
 11
2094.7999999999983
 21
1144.7374999999999
  0
LINE
  8
_1-2_
  6
DASHED1
 62
    7
 10
2095.9999999999986
 20
1164.7374999999999
 11
2095.9999999999986
 21
1144.7374999999999
  0
LINE
  8
_1-2_
  6
DASHED1
 62
    7
 10
2094.7999999999983
 20
1164.2374999999999
 11
2094.7999999999983
 21
1149.0968
  0
LINE
  8
_1-2_
  6
DASHED1
 62
    7
 10
2094.2999999999983
 20
1164.7374999999999
 11
2079.1592999999984
 21
1164.7374999999999
  0
LINE
  8
_1-2_
  6
DASHED1
 62
    7
 10
2064.9999999999981
 20
1164.7374999999999
 11
2064.9999999999981
 21
1165.9374999999997
  0
LINE
  8
_1-2_
  6
DASHED1
 62
    7
 10
2094.7999999999983
 20
1165.9374999999997
 11
2058.9999999999981
 21
1165.9374999999997
  0
LINE
  8
_1-2_
  6
DASHED1
 62
    7
 10
2094.7999999999983
 20
1164.7374999999999
 11
2058.9999999999981
 21
1164.7374999999999
  0
LINE
  8
_1-2_
  6
DASHED1
 62
    7
 10
2058.9999999999981
 20
1165.9374999999997
 11
2058.9999999999981
 21
1164.7374999999999
  0
LINE
  8
_1-2_
  6
DASHED1
 62
    7
 10
3616.5000000000018
 20
1177.1610499999999
 11
3615.3933500000021
 21
1177.7999999999999
  0
LINE
  8
_1-2_
  6
DASHED1
 62
    7
 10
3616.5000000000018
 20
1176.2950499999999
 11
3614.5000000000022
 21
1177.4497499999999
  0
LINE
  8
_1-2_
  6
DASHED1
 62
    7
 10
3616.5000000000018
 20
1175.429
 11
3614.5000000000022
 21
1176.5836999999999
  0
LINE
  8
_1-2_
  6
DASHED1
 62
    7
 10
3616.5000000000018
 20
1174.5630000000001
 11
3614.5000000000022
 21
1175.7176999999999
  0
LINE
  8
_1-2_
  6
DASHED1
 62
    7
 10
3616.5000000000018
 20
1173.69695
 11
3614.5000000000022
 21
1174.85165
  0
LINE
  8
_1-2_
  6
DASHED1
 62
    7
 10
3616.5000000000018
 20
1172.8309499999998
 11
3614.5000000000022
 21
1173.9856499999998
  0
LINE
  8
_1-2_
  6
DASHED1
 62
    7
 10
3616.5000000000018
 20
1171.9648999999999
 11
3614.5000000000022
 21
1173.1195999999999
  0
LINE
  8
_1-2_
  6
DASHED1
 62
    7
 10
3616.5000000000018
 20
1171.0988999999999
 11
3614.5000000000022
 21
1172.2536
  0
LINE
  8
_1-2_
  6
DASHED1
 62
    7
 10
3616.5000000000018
 20
1170.2328499999998
 11
3614.5000000000022
 21
1171.3875499999999
  0
LINE
  8
_1-2_
  6
DASHED1
 62
    7
 10
3616.5000000000018
 20
1169.3668499999998
 11
3614.5000000000022
 21
1170.5215499999999
  0
LINE
  8
_1-2_
  6
DASHED1
 62
    7
 10
3616.5000000000018
 20
1168.5007999999997
 11
3614.5000000000022
 21
1169.6554999999998
  0
LINE
  8
_1-2_
  6
DASHED1
 62
    7
 10
3616.5000000000018
 20
1167.6347999999998
 11
3614.5000000000022
 21
1168.7895
  0
LINE
  8
_1-2_
  6
DASHED1
 62
    7
 10
3616.5000000000018
 20
1166.7687499999999
 11
3614.5000000000022
 21
1167.92345
  0
LINE
  8
_1-2_
  6
DASHED1
 62
    7
 10
3616.5000000000018
 20
1165.9027499999999
 11
3614.5000000000022
 21
1167.05745
  0
LINE
  8
_1-2_
  6
DASHED1
 62
    7
 10
3616.5000000000018
 20
1165.0367000000001
 11
3614.5000000000022
 21
1166.1913999999999
  0
LINE
  8
_1-2_
  6
DASHED1
 62
    7
 10
3616.5000000000018
 20
1164.1706999999998
 11
3614.5000000000022
 21
1165.3253999999999
  0
LINE
  8
_1-2_
  6
DASHED1
 62
    7
 10
3616.5000000000018
 20
1163.3046499999998
 11
3614.5000000000022
 21
1164.4593499999998
  0
LINE
  8
_1-2_
  6
DASHED1
 62
    7
 10
3616.5000000000018
 20
1162.43865
 11
3614.5000000000022
 21
1163.5933499999998
  0
LINE
  8
_1-2_
  6
DASHED1
 62
    7
 10
3616.5000000000018
 20
1161.5725999999999
 11
3614.5000000000022
 21
1162.7273
  0
LINE
  8
_1-2_
  6
DASHED1
 62
    7
 10
3616.5000000000018
 20
1160.7065999999999
 11
3614.5000000000022
 21
1161.8613
  0
LINE
  8
_1-2_
  6
DASHED1
 62
    7
 10
3616.5000000000018
 20
1159.8405499999998
 11
3614.5000000000022
 21
1160.9952499999999
  0
LINE
  8
_1-2_
  6
DASHED1
 62
    7
 10
3616.5000000000018
 20
1158.9745499999999
 11
3614.5000000000022
 21
1160.1292499999999
  0
LINE
  8
_1-2_
  6
DASHED1
 62
    7
 10
3616.5000000000018
 20
1158.1084999999998
 11
3614.5000000000022
 21
1159.2632
  0
LINE
  8
_1-2_
  6
DASHED1
 62
    7
 10
3616.5000000000018
 20
1157.2425
 11
3614.5000000000022
 21
1158.3971999999998
  0
LINE
  8
_1-2_
  6
DASHED1
 62
    7
 10
3616.5000000000018
 20
1156.3764499999999
 11
3614.5000000000022
 21
1157.53115
  0
LINE
  8
_1-2_
  6
DASHED1
 62
    7
 10
3616.3899500000025
 20
1155.574
 11
3614.5000000000022
 21
1156.6651499999998
  0
LINE
  8
_1-2_
  6
DASHED1
 62
    7
 10
3616.269200000002
 20
1154.7776499999999
 11
3614.4279000000015
 21
1155.84075
  0
LINE
  8
_1-2_
  6
DASHED1
 62
    7
 10
3615.9964500000023
 20
1154.0690999999999
 11
3614.2399000000023
 21
1155.0832499999999
  0
LINE
  8
_1-2_
  6
DASHED1
 62
    7
 10
3615.6516000000019
 20
1153.4021999999999
 11
3613.9396000000024
 21
1154.3905999999999
  0
LINE
  8
_1-2_
  6
DASHED1
 62
    7
 10
3615.306750000002
 20
1152.7352499999999
 11
3613.391550000002
 21
1153.8409999999998
  0
LINE
  8
_1-2_
  6
DASHED1
 62
    7
 10
3614.8042000000023
 20
1152.1594
 11
3612.8965500000022
 21
1153.2607499999999
  0
LINE
  8
_1-2_
  6
DASHED1
 62
    7
 10
3614.2266000000017
 20
1151.6268
 11
3611.6750000000024
 21
1153.0999999999999
  0
LINE
  8
_1-2_
  6
DASHED1
 62
    7
 10
3613.5576500000024
 20
1151.1469999999999
 11
3610.175000000002
 21
1153.0999999999999
  0
LINE
  8
_1-2_
  6
DASHED1
 62
    7
 10
3612.6692500000026
 20
1150.7938999999998
 11
3608.675000000002
 21
1153.0999999999999
  0
LINE
  8
_1-2_
  6
DASHED1
 62
    7
 10
3611.7549500000018
 20
1150.45575
 11
3607.175000000002
 21
1153.0999999999999
  0
LINE
  8
_1-2_
  6
DASHED1
 62
    7
 10
3609.0247500000023
 20
1150.2999999999999
 11
3604.7099500000022
 21
1152.79115
  0
LINE
  8
_1-2_
  6
DASHED1
 62
    7
 10
3610.4746000000022
 20
1150.32895
 11
3605.7345000000022
 21
1153.06565
  0
LINE
  8
_1-2_
  6
DASHED1
 62
    7
 10
3607.5247500000023
 20
1150.2999999999999
 11
3603.6854500000022
 21
1152.5165999999999
  0
LINE
  8
_1-2_
  6
DASHED1
 62
    7
 10
3604.5247500000023
 20
1150.2999999999999
 11
3601.6364000000021
 21
1151.9675499999998
  0
LINE
  8
_1-2_
  6
DASHED1
 62
    7
 10
3606.0247500000023
 20
1150.2999999999999
 11
3602.6609500000017
 21
1152.2420999999999
  0
LINE
  8
_1-2_
  6
DASHED1
 62
    7
 10
3603.0247500000018
 20
1150.2999999999999
 11
3600.2484000000022
 21
1151.9028999999998
  0
LINE
  8
_1-2_
  6
DASHED1
 62
    7
 10
3601.5247500000023
 20
1150.2999999999999
 11
3598.8046000000022
 21
1151.8704999999999
  0
LINE
  8
_1-2_
  6
DASHED1
 62
    7
 10
3600.0247500000023
 20
1150.2999999999999
 11
3596.9489000000021
 21
1152.0757999999998
  0
LINE
  8
_1-2_
  6
DASHED1
 62
    7
 10
3598.5247500000023
 20
1150.2999999999999
 11
3594.5749000000023
 21
1152.5804499999999
  0
LINE
  8
_1-2_
  6
DASHED1
 62
    7
 10
3597.0247500000023
 20
1150.2999999999999
 11
3592.2009000000025
 21
1153.0850499999999
  0
LINE
  8
_1-2_
  6
DASHED1
 62
    7
 10
3595.5247500000018
 20
1150.2999999999999
 11
3589.8269000000022
 21
1153.5896499999998
  0
LINE
  8
_1-2_
  6
DASHED1
 62
    7
 10
3594.0247500000023
 20
1150.2999999999999
 11
3587.4528500000019
 21
1154.0942500000001
  0
LINE
  8
_1-2_
  6
DASHED1
 62
    7
 10
3592.5247500000023
 20
1150.2999999999999
 11
3585.0788500000021
 21
1154.5988999999999
  0
LINE
  8
_1-2_
  6
DASHED1
 62
    7
 10
3591.0247500000023
 20
1150.2999999999999
 11
3573.1846000000018
 21
1160.5999999999999
  0
LINE
  8
_1-2_
  6
DASHED1
 62
    7
 10
3589.5247500000023
 20
1150.2999999999999
 11
3570.5000000000018
 21
1161.28395
  0
LINE
  8
_1-2_
  6
DASHED1
 62
    7
 10
3588.0247500000018
 20
1150.2999999999999
 11
3570.5000000000018
 21
1160.4178999999999
  0
LINE
  8
_1-2_
  6
DASHED1
 62
    7
 10
3586.5247500000023
 20
1150.2999999999999
 11
3570.5000000000018
 21
1159.5518999999999
  0
LINE
  8
_1-2_
  6
DASHED1
 62
    7
 10
3583.5000000000027
 20
1165.9027499999999
 11
3581.5000000000018
 21
1167.05745
  0
LINE
  8
_1-2_
  6
DASHED1
 62
    7
 10
3583.5000000000027
 20
1165.0367000000001
 11
3581.5000000000018
 21
1166.1913999999999
  0
LINE
  8
_1-2_
  6
DASHED1
 62
    7
 10
3583.5000000000027
 20
1164.1706999999998
 11
3581.5000000000018
 21
1165.3253999999999
  0
LINE
  8
_1-2_
  6
DASHED1
 62
    7
 10
3583.5000000000027
 20
1163.3046499999998
 11
3581.2292000000024
 21
1164.6156999999998
  0
LINE
  8
_1-2_
  6
DASHED1
 62
    7
 10
3583.5000000000027
 20
1162.43865
 11
3580.1916000000019
 21
1164.3487500000001
  0
LINE
  8
_1-2_
  6
DASHED1
 62
    7
 10
3583.5000000000027
 20
1161.5725999999999
 11
3578.7760000000021
 21
1164.2999999999999
  0
LINE
  8
_1-2_
  6
DASHED1
 62
    7
 10
3583.5000000000027
 20
1160.7065999999999
 11
3577.2760000000021
 21
1164.2999999999999
  0
LINE
  8
_1-2_
  6
DASHED1
 62
    7
 10
3583.5000000000027
 20
1159.8405499999998
 11
3575.7760000000016
 21
1164.2999999999999
  0
LINE
  8
_1-2_
  6
DASHED1
 62
    7
 10
3583.5000000000027
 20
1158.9745499999999
 11
3580.6846000000018
 21
1160.5999999999999
  0
LINE
  8
_1-2_
  6
DASHED1
 62
    7
 10
3583.5000000000027
 20
1158.1084999999998
 11
3579.1846000000023
 21
1160.5999999999999
  0
LINE
  8
_1-2_
  6
DASHED1
 62
    7
 10
3583.5000000000027
 20
1157.2425
 11
3577.6846000000023
 21
1160.5999999999999
  0
LINE
  8
_1-2_
  6
DASHED1
 62
    7
 10
3583.5034000000018
 20
1156.3744999999998
 11
3576.1846000000018
 21
1160.5999999999999
  0
LINE
  8
_1-2_
  6
DASHED1
 62
    7
 10
3583.6351500000023
 20
1155.4323999999999
 11
3574.6846000000023
 21
1160.5999999999999
  0
LINE
  8
_1-2_
  6
DASHED1
 62
    7
 10
3580.6846000000018
 20
1160.5999999999999
 11
3574.2760000000021
 21
1164.2999999999999
  0
LINE
  8
_1-2_
  6
DASHED1
 62
    7
 10
3579.1846000000023
 20
1160.5999999999999
 11
3572.7760000000025
 21
1164.2999999999999
  0
LINE
  8
_1-2_
  6
DASHED1
 62
    7
 10
3577.6846000000023
 20
1160.5999999999999
 11
3571.5000000000018
 21
1164.1706999999998
  0
LINE
  8
_1-2_
  6
DASHED1
 62
    7
 10
3576.1846000000018
 20
1160.5999999999999
 11
3570.5000000000018
 21
1163.882
  0
LINE
  8
_1-2_
  6
DASHED1
 62
    7
 10
3574.6846000000023
 20
1160.5999999999999
 11
3570.5000000000018
 21
1163.0159999999998
  0
LINE
  8
_1-2_
  6
DASHED1
 62
    7
 10
3573.1846000000018
 20
1160.5999999999999
 11
3570.5000000000018
 21
1162.1499499999999
  0
LINE
  8
_1-2_
  6
DASHED1
 62
    7
 10
3616.5000000000018
 20
1177.9110499999999
 11
3615.5000000000018
 21
1178.4883999999999
  0
LINE
  8
_1-2_
  6
DASHED1
 62
    7
 10
3616.5000000000018
 20
1177.9110499999999
 11
3615.3933500000021
 21
1178.5499999999999
  0
LINE
  8
_1-2_
  6
DASHED1
 62
    7
 10
3616.5000000000018
 20
1178.6610499999999
 11
3615.7397500000024
 21
1179.0999999999999
  0
LINE
  8
_1-2_
  6
DASHED1
 62
    7
 10
3581.5000000000018
 20
1168.7999999999999
 11
3581.5000000000018
 21
1170.7999999999999
  0
LINE
  8
_1-2_
  6
DASHED1
 62
    7
 10
3601.5000000000018
 20
1151.9309999999998
 11
3599.0000000000018
 21
1151.7999999999999
  0
LINE
  8
_1-2_
  6
DASHED1
 62
    7
 10
3605.8627000000024
 20
1153.0999999999999
 11
3601.5000000000018
 21
1151.9309999999998
  0
LINE
  8
_1-2_
  6
DASHED1
 62
    7
 10
3583.5000000000027
 20
1166.1452999999999
 11
3581.5000000000018
 21
1167.2999999999999
  0
LINE
  8
_1-2_
  6
DASHED1
 62
    7
 10
3583.5000000000027
 20
1156.4081999999998
 11
3583.5000000000027
 21
1166.1452999999999
  0
LINE
  8
_1-2_
  6
DASHED1
 62
    7
 10
3606.550000000002
 20
1177.7999999999999
 11
3606.550000000002
 21
1176.7999999999999
  0
LINE
  8
_1-2_
  6
DASHED1
 62
    7
 10
3579.7679500000022
 20
1171.2999999999999
 11
3581.5000000000018
 21
1168.2999999999999
  0
LINE
  8
_1-2_
  6
DASHED1
 62
    7
 10
3598.0000000000018
 20
1151.8523999999999
 11
3599.0000000000018
 21
1151.7999999999999
  0
LINE
  8
_1-2_
  6
DASHED1
 62
    7
 10
3583.8080000000027
 20
1154.8689999999999
 11
3598.0000000000018
 21
1151.8523999999999
  0
LINE
  8
_1-2_
  6
DASHED1
 62
    7
 10
3614.5000000000022
 20
1177.7999999999999
 11
3614.5000000000022
 21
1156.3976999999999
  0
LINE
  8
_1-2_
  6
DASHED1
 62
    7
 10
3605.8627000000024
 20
1153.0999999999999
 11
3612.7639000000021
 21
1153.0999999999999
  0
LINE
  8
_1-2_
  6
DASHED1
 62
    7
 10
3574.0000000000018
 20
1173
 11
3574.0000000000018
 21
1180.5999999999999
  0
LINE
  8
_1-2_
  6
DASHED1
 62
    7
 10
3588.800000000002
 20
1176.7999999999999
 11
3606.550000000002
 21
1176.7999999999999
  0
LINE
  8
_1-2_
  6
DASHED1
 62
    7
 10
3616.5000000000018
 20
1156.2999999999999
 11
3616.5000000000018
 21
1179.0999999999999
  0
LINE
  8
_1-2_
  6
DASHED1
 62
    7
 10
3615.5000000000018
 20
1177.7999999999999
 11
3615.5000000000018
 21
1179.1166499999999
  0
LINE
  8
_1-2_
  6
DASHED1
 62
    7
 10
3616.5000000000018
 20
1179.0999999999999
 11
3556.5000000000018
 21
1180
  0
LINE
  8
_1-2_
  6
DASHED1
 62
    7
 10
3557.5000000000022
 20
1180
 11
3557.5000000000022
 21
1178.6999999999998
  0
LINE
  8
_1-2_
  6
DASHED1
 62
    7
 10
3578.759550000002
 20
1178.6999999999998
 11
3583.0000000000018
 21
1178.6999999999998
  0
LINE
  8
_1-2_
  6
DASHED1
 62
    7
 10
3566.6785500000019
 20
1178.6999999999998
 11
3557.6000000000021
 21
1178.6999999999998
  0
LINE
  8
_1-2_
  6
DASHED1
 62
    7
 10
3583.0000000000018
 20
1176.7999999999999
 11
3584.2000000000016
 21
1176.7999999999999
  0
LINE
  8
_1-2_
  6
DASHED1
 62
    7
 10
3547.5000500000023
 20
1168.7999999999999
 11
3545.5000500000014
 21
1170.7999999999999
  0
LINE
  8
_1-2_
  6
DASHED1
 62
    7
 10
3545.5000500000014
 20
1170.7999999999999
 11
3545.5000500000014
 21
1177.7999999999999
  0
LINE
  8
_1-2_
  6
DASHED1
 62
    7
 10
3550.5000500000014
 20
1174.7999999999999
 11
3550.5000500000014
 21
1173.5
  0
LINE
  8
_1-2_
  6
DASHED1
 62
    7
 10
3586.5000000000018
 20
1174.7
 11
3586.5000000000018
 21
1163.5
  0
LINE
  8
_1-2_
  6
DASHED1
 62
    7
 10
3545.5000500000014
 20
1174.7999999999999
 11
3575.4284000000016
 21
1174.7999999999999
  0
LINE
  8
_1-2_
  6
DASHED1
 62
    7
 10
3576.8426500000023
 20
1174.2141999999998
 11
3584.3784000000023
 21
1166.6784
  0
LINE
  8
_1-2_
  6
DASHED1
 62
    7
 10
3578.6710500000021
 20
1178.7999999999999
 11
3546.5000500000019
 21
1178.7999999999999
  0
LINE
  8
_1-2_
  6
DASHED1
 62
    7
 10
3582.2066000000017
 20
1177.33555
 11
3585.9847500000023
 21
1173.55735
  0
LINE
  8
_1-2_
  6
DASHED1
 62
    7
 10
3581.300000000002
 20
1168.7999999999999
 11
3590.6100000000019
 21
1168.7999999999999
  0
LINE
  8
_1-2_
  6
DASHED1
 62
    7
 10
3600.0000000000022
 20
1157.8700000000001
 11
3600.0000000000022
 21
1178.5899999999999
  0
LINE
  8
_1-2_
  6
DASHED1
 62
    7
 10
3556.0000500000023
 20
1174.7999999999999
 11
3556.0000500000023
 21
1178.7999999999999
  0
LINE
  8
_1-2_
  6
DASHED1
 62
    7
 10
3550.5000500000014
 20
1178.7999999999999
 11
3550.5000500000014
 21
1174.7999999999999
  0
LINE
  8
_1-2_
  6
DASHED1
 62
    7
 10
3547.5000500000023
 20
1168.7999999999999
 11
3554.5000500000019
 21
1168.7999999999999
  0
LINE
  8
_1-2_
  6
DASHED1
 62
    7
 10
3554.5000500000019
 20
1169.96
 11
3554.5000500000019
 21
1168.7999999999999
  0
LINE
  8
_1-2_
  6
DASHED1
 62
    7
 10
3554.5000500000019
 20
1169.96
 11
3550.5000500000014
 21
1173.5
  0
LINE
  8
_1-2_
  6
DASHED1
 62
    7
 10
3612.9291000000021
 20
1163.0781499999998
 11
3613.8894000000022
 21
1170.8994
  0
LINE
  8
_1-2_
  6
DASHED1
 62
    7
 10
3613.8941500000019
 20
1170.8978499999998
 11
3608.2091500000024
 21
1172.7999999999999
  0
LINE
  8
_1-2_
  6
DASHED1
 62
    7
 10
3598.0000000000018
 20
1171.7999999999999
 11
3586.5000000000018
 21
1171.7999999999999
  0
LINE
  8
_1-2_
  6
DASHED1
 62
    7
 10
3598.0000000000018
 20
1171.7999999999999
 11
3598.0000000000018
 21
1172.7999999999999
  0
LINE
  8
_1-2_
  6
DASHED1
 62
    7
 10
3598.0000000000018
 20
1172.7999999999999
 11
3608.2091500000024
 21
1172.7999999999999
  0
LINE
  8
_1-2_
  6
DASHED1
 62
    7
 10
3594.8941500000023
 20
1165.8861999999999
 11
3594.8941500000023
 21
1165.1843499999999
  0
LINE
  8
_1-2_
  6
DASHED1
 62
    7
 10
3594.8941500000023
 20
1165.8861999999999
 11
3598.3941500000028
 21
1168.7635999999999
  0
LINE
  8
_1-2_
  6
DASHED1
 62
    7
 10
3605.3941500000019
 20
1167.9157
 11
3605.3941500000019
 21
1164.2963499999998
  0
LINE
  8
_1-2_
  6
DASHED1
 62
    7
 10
3594.8941500000023
 20
1165.1843499999999
 11
3598.3941500000028
 21
1168.3453999999999
  0
LINE
  8
_1-2_
  6
DASHED1
 62
    7
 10
3605.3941500000019
 20
1164.2963499999998
 11
3605.3941500000019
 21
1164.8148999999998
  0
LINE
  8
_1-2_
  6
DASHED1
 62
    7
 10
3588.800000000002
 20
1176.7999999999999
 11
3588.800000000002
 21
1171.9722499999998
  0
LINE
  8
_1-2_
  6
DASHED1
 62
    7
 10
3584.2000000000016
 20
1176.7999999999999
 11
3584.2000000000016
 21
1175.3421
  0
LINE
  8
_1-2_
  6
DASHED1
 62
    7
 10
3584.2000000000016
 20
1175.3421
 11
3584.2000000000016
 21
1168.1374499999999
  0
LINE
  8
_1-2_
  6
DASHED1
 62
    7
 10
3588.800000000002
 20
1171.9722499999998
 11
3588.800000000002
 21
1168.7999999999999
  0
LINE
  8
_1-2_
  6
DASHED1
 62
    7
 10
3583.0000000000018
 20
1176.5421000000001
 11
3583.0000000000018
 21
1179.6024999999999
  0
LINE
  8
_1-2_
  6
DASHED1
 62
    7
 10
3583.0000000000018
 20
1166.4339999999999
 11
3583.0000000000018
 21
1168.0568499999999
  0
LINE
  8
_1-2_
  6
DASHED1
 62
    7
 10
3583.0000000000018
 20
1176.5421000000001
 11
3583.0000000000018
 21
1168.0568499999999
  0
LINE
  8
_1-2_
  6
DASHED1
 62
    7
 10
3579.5000000000022
 20
1172.7999999999999
 11
3579.5000000000022
 21
1172.2999999999999
  0
LINE
  8
_1-2_
  6
DASHED1
 62
    7
 10
3575.4284000000016
 20
1174.7999999999999
 11
3557.5000000000022
 21
1174.7999999999999
  0
LINE
  8
_1-2_
  6
DASHED1
 62
    7
 10
3577.5000000000022
 20
1174.7999999999999
 11
3575.9000000000019
 21
1174.7999999999999
  0
LINE
  8
_1-2_
  6
DASHED1
 62
    7
 10
3566.6785500000019
 20
1178.6999999999998
 11
3571.1000000000021
 21
1178.6999999999998
  0
LINE
  8
_1-2_
  6
DASHED1
 62
    7
 10
3571.1070000000017
 20
1179.7565499999998
 11
3571.1011000000016
 21
1178.6999999999998
  0
LINE
  8
_1-2_
  6
DASHED1
 62
    7
 10
3576.8935000000019
 20
1179.6601
 11
3576.8989000000019
 21
1178.6999999999998
  0
LINE
  8
_1-2_
  6
DASHED1
 62
    7
 10
3576.9000000000014
 20
1178.6999999999998
 11
3578.759550000002
 21
1178.6999999999998
  0
LINE
  8
_1-2_
  6
DASHED1
 62
    7
 10
3575.9000000000019
 20
1174.7999999999999
 11
3575.9000000000019
 21
1179.709
  0
LINE
  8
_1-2_
  6
DASHED1
 62
    7
 10
3572.1000000000021
 20
1174.7999999999999
 11
3572.1000000000021
 21
1179.7405499999999
  0
LINE
  8
_1-2_
  6
DASHED1
 62
    7
 10
3599.0000000000018
 20
1175.2999999999999
 11
3599.0000000000018
 21
1180.2999999999999
  0
LINE
  8
_1-2_
  6
DASHED1
 62
    7
 10
3588.800000000002
 20
1176.7999999999999
 11
3588.800000000002
 21
1172
  0
LINE
  8
_1-2_
  6
DASHED1
 62
    7
 10
3602.3000000000024
 20
1176.7999999999999
 11
3583.1000000000017
 21
1176.7999999999999
  0
LINE
  8
_1-2_
  6
DASHED1
 62
    7
 10
3585.1000000000021
 20
1176.7999999999999
 11
3585.1000000000021
 21
1171.7999999999999
  0
LINE
  8
_1-2_
  6
DASHED1
 62
    7
 10
3585.1000000000021
 20
1171.7999999999999
 11
3584.5000000000022
 21
1171.7999999999999
  0
LINE
  8
_1-2_
  6
DASHED1
 62
    7
 10
3602.3000000000024
 20
1176.7999999999999
 11
3604.5000000000022
 21
1177.7999999999999
  0
LINE
  8
_1-2_
  6
DASHED1
 62
    7
 10
3613.800000000002
 20
1177.7999999999999
 11
3613.800000000002
 21
1175.7999999999999
  0
LINE
  8
_1-2_
  6
DASHED1
 62
    7
 10
3615.5000000000018
 20
1177.7999999999999
 11
3604.5000000000022
 21
1177.7999999999999
  0
LINE
  8
_1-2_
  6
DASHED1
 62
    7
 10
3615.5000000000018
 20
1179
 11
3583.1000000000017
 21
1179.5
  0
LINE
  8
_1-2_
  6
DASHED1
 62
    7
 10
3615.5000000000018
 20
1179
 11
3615.5000000000018
 21
1177.7999999999999
  0
LINE
  8
_1-2_
  6
DASHED1
 62
    7
 10
3614.5000000000022
 20
1175.7999999999999
 11
3613.800000000002
 21
1175.7999999999999
  0
LINE
  8
_1-2_
  6
DASHED1
 62
    7
 10
3583.1000000000017
 20
1171.7999999999999
 11
3584.5000000000022
 21
1171.7999999999999
  0
LINE
  8
_1-2_
  6
DASHED1
 62
    7
 10
3583.1000000000017
 20
1179.5
 11
3583.1000000000017
 21
1176.4420999999999
  0
LINE
  8
_1-2_
  6
DASHED1
 62
    7
 10
3584.5000000000022
 20
1176.7999999999999
 11
3584.5000000000022
 21
1175.0421000000001
  0
LINE
  8
_1-2_
  6
DASHED1
 62
    7
 10
3584.5000000000022
 20
1175.0421000000001
 11
3584.5000000000022
 21
1172
  0
LINE
  8
_1-2_
  6
DASHED1
 62
    7
 10
3583.1000000000017
 20
1176.4420999999999
 11
3583.1000000000017
 21
1171.7999999999999
  0
LINE
  8
_1-2_
  6
DASHED1
 62
    7
 10
3587.800000000002
 20
1171
 11
3585.5000000000018
 21
1171
  0
LINE
  8
_1-2_
  6
DASHED1
 62
    7
 10
3614.5000000000022
 20
1178.6999999999998
 11
3584.1000000000021
 21
1178.6999999999998
  0
LINE
  8
_1-2_
  6
DASHED1
 62
    7
 10
3584.1000000000021
 20
1178.6999999999998
 11
3584.1000000000021
 21
1179.4814999999998
  0
LINE
  8
_1-2_
  6
DASHED1
 62
    7
 10
3606.550000000002
 20
1177.7999999999999
 11
3615.5000000000018
 21
1177.7999999999999
  0
LINE
  8
_1-2_
  6
DASHED1
 62
    7
 10
3614.5000000000022
 20
1178.6999999999998
 11
3614.5000000000022
 21
1179.0154499999998
  0
LINE
  8
_1-2_
  6
DASHED1
 62
    7
 10
3583.1602500000017
 20
1179.4989
 11
3583.1000000000017
 21
1179.4640999999999
  0
LINE
  8
_1-2_
  6
DASHED1
 62
    7
 10
3590.7765500000023
 20
1178.6999999999998
 11
3587.4856500000023
 21
1176.7999999999999
  0
LINE
  8
_1-2_
  6
DASHED1
 62
    7
 10
3589.2765500000018
 20
1178.6999999999998
 11
3585.9856500000023
 21
1176.7999999999999
  0
LINE
  8
_1-2_
  6
DASHED1
 62
    7
 10
3587.7765500000023
 20
1178.6999999999998
 11
3584.4856500000018
 21
1176.7999999999999
  0
LINE
  8
_1-2_
  6
DASHED1
 62
    7
 10
3586.2765500000023
 20
1178.6999999999998
 11
3583.1000000000017
 21
1176.8659999999999
  0
LINE
  8
_1-2_
  6
DASHED1
 62
    7
 10
3584.7765500000023
 20
1178.6999999999998
 11
3583.1000000000017
 21
1177.7320499999998
  0
LINE
  8
_1-2_
  6
DASHED1
 62
    7
 10
3584.1000000000021
 20
1179.1754
 11
3583.1000000000017
 21
1178.59805
  0
LINE
  8
_1-2_
  6
DASHED1
 62
    7
 10
3604.2765500000018
 20
1178.6999999999998
 11
3600.9856500000023
 21
1176.7999999999999
  0
LINE
  8
_1-2_
  6
DASHED1
 62
    7
 10
3602.7765500000023
 20
1178.6999999999998
 11
3599.4856500000023
 21
1176.7999999999999
  0
LINE
  8
_1-2_
  6
DASHED1
 62
    7
 10
3601.2765500000023
 20
1178.6999999999998
 11
3597.9856500000023
 21
1176.7999999999999
  0
LINE
  8
_1-2_
  6
DASHED1
 62
    7
 10
3599.7765500000023
 20
1178.6999999999998
 11
3596.4856500000018
 21
1176.7999999999999
  0
LINE
  8
_1-2_
  6
DASHED1
 62
    7
 10
3598.2765500000023
 20
1178.6999999999998
 11
3594.9856500000023
 21
1176.7999999999999
  0
LINE
  8
_1-2_
  6
DASHED1
 62
    7
 10
3596.7765500000018
 20
1178.6999999999998
 11
3593.4856500000023
 21
1176.7999999999999
  0
LINE
  8
_1-2_
  6
DASHED1
 62
    7
 10
3595.2765500000023
 20
1178.6999999999998
 11
3591.9856500000023
 21
1176.7999999999999
  0
LINE
  8
_1-2_
  6
DASHED1
 62
    7
 10
3593.7765500000023
 20
1178.6999999999998
 11
3590.4856500000023
 21
1176.7999999999999
  0
LINE
  8
_1-2_
  6
DASHED1
 62
    7
 10
3592.2765500000023
 20
1178.6999999999998
 11
3588.9856500000018
 21
1176.7999999999999
  0
LINE
  8
_1-2_
  6
DASHED1
 62
    7
 10
3605.7765500000023
 20
1178.6999999999998
 11
3603.1728500000017
 21
1177.19675
  0
LINE
  8
_1-2_
  6
DASHED1
 62
    7
 10
3607.2765500000023
 20
1178.6999999999998
 11
3605.7177000000024
 21
1177.7999999999999
  0
LINE
  8
_1-2_
  6
DASHED1
 62
    7
 10
3608.7765500000023
 20
1178.6999999999998
 11
3607.2177000000019
 21
1177.7999999999999
  0
LINE
  8
_1-2_
  6
DASHED1
 62
    7
 10
3610.2765500000023
 20
1178.6999999999998
 11
3608.7177000000019
 21
1177.7999999999999
  0
LINE
  8
_1-2_
  6
DASHED1
 62
    7
 10
3611.7765500000018
 20
1178.6999999999998
 11
3610.2177000000019
 21
1177.7999999999999
  0
LINE
  8
_1-2_
  6
DASHED1
 62
    7
 10
3613.2765500000023
 20
1178.6999999999998
 11
3611.7177000000019
 21
1177.7999999999999
  0
LINE
  8
_1-2_
  6
DASHED1
 62
    7
 10
3615.3014500000017
 20
1179.0030499999998
 11
3613.2177000000024
 21
1177.7999999999999
  0
LINE
  8
_1-2_
  6
DASHED1
 62
    7
 10
3615.5000000000018
 20
1178.2516499999999
 11
3614.7177000000019
 21
1177.7999999999999
  0
LINE
  8
_1-2_
  6
DASHED1
 62
    7
 10
3556.5000000000018
 20
1180
 11
3556.5000000000018
 21
1178.7999999999999
  0
LINE
  8
_1-2_
  6
DASHED1
 62
    7
 10
3556.5000000000018
 20
1178.7999999999999
 11
3556.5000000000018
 21
1175.7999999999999
  0
LINE
  8
_1-2_
  6
DASHED1
 62
    7
 10
3585.0247500000023
 20
1150.2999999999999
 11
3570.5000000000018
 21
1158.6858499999998
  0
LINE
  8
_1-2_
  6
DASHED1
 62
    7
 10
3583.5247500000023
 20
1150.2999999999999
 11
3570.5000000000018
 21
1157.8198499999998
  0
LINE
  8
_1-2_
  6
DASHED1
 62
    7
 10
3582.0247500000023
 20
1150.2999999999999
 11
3570.4756500000021
 21
1156.9678999999998
  0
LINE
  8
_1-2_
  6
DASHED1
 62
    7
 10
3580.5247500000018
 20
1150.2999999999999
 11
3570.5000000000018
 21
1156.0878
  0
LINE
  8
_1-2_
  6
DASHED1
 62
    7
 10
3579.0247500000023
 20
1150.2999999999999
 11
3570.5000000000018
 21
1155.2217499999999
  0
LINE
  8
_1-2_
  6
DASHED1
 62
    7
 10
3577.5247500000023
 20
1150.2999999999999
 11
3570.5000000000018
 21
1154.3557499999999
  0
LINE
  8
_1-2_
  6
DASHED1
 62
    7
 10
3576.0247500000018
 20
1150.2999999999999
 11
3570.5000000000018
 21
1153.4896999999998
  0
LINE
  8
_1-2_
  6
DASHED1
 62
    7
 10
3574.5247500000023
 20
1150.2999999999999
 11
3570.5000000000018
 21
1152.6237
  0
LINE
  8
_1-2_
  6
DASHED1
 62
    7
 10
3573.0247500000018
 20
1150.2999999999999
 11
3570.5904000000018
 21
1151.7054499999999
  0
LINE
  8
_1-2_
  6
DASHED1
 62
    7
 10
3581.5000000000018
 20
1168.7999999999999
 11
3581.5000000000018
 21
1165.2999999999999
  0
LINE
  8
_1-2_
  6
DASHED1
 62
    7
 10
3570.5000000000018
 20
1152.2999999999999
 11
3570.5000000000018
 21
1174.7999999999999
  0
LINE
  8
_1-2_
  6
DASHED1
 62
    7
 10
3572.5000000000022
 20
1150.2999999999999
 11
3610.5000000000018
 21
1150.2999999999999
  0
LINE
  8
_1-2_
  6
DASHED1
 62
    7
 10
3580.5000000000018
 20
1164.2999999999999
 11
3570.5000000000018
 21
1164.2999999999999
  0
LINE
  8
_1-2_
  6
DASHED1
 62
    7
 10
3610.7088000000021
 20
1152.4136499999999
 11
3601.5000000000018
 21
1151.9309999999998
  0
LINE
  8
_1-2_
  6
DASHED1
 62
    7
 10
3587.2906500000021
 20
1152.4136499999999
 11
3598.0000000000018
 21
1151.8523999999999
  0
LINE
  8
_1-2_
  6
DASHED1
 62
    7
 10
3598.3941500000028
 20
1168.7635999999999
 11
3598.3941500000028
 21
1168.3453999999999
  0
LINE
  8
_1-2_
  6
DASHED1
 62
    7
 10
3612.3617000000022
 20
1164.1629499999999
 11
3600.0000000000022
 21
1171.2999999999999
  0
LINE
  8
_1-2_
  6
DASHED1
 62
    7
 10
3613.3534000000017
 20
1166.5337999999999
 11
3602.5000000000022
 21
1172.7999999999999
  0
LINE
  8
_1-2_
  6
DASHED1
 62
    7
 10
3584.5924000000022
 20
1167.17155
 11
3600.0000000000022
 21
1171.2999999999999
  0
LINE
  8
_1-2_
  6
DASHED1
 62
    7
 10
3581.5000000000018
 20
1160.5999999999999
 11
3572.5000000000022
 21
1160.5999999999999
  0
LINE
  8
_1-2_
  6
DASHED1
 62
    7
 10
3581.5000000000018
 20
1160.5999999999999
 11
3581.5000000000018
 21
1156.2999999999999
  0
LINE
  8
_1-2_
  6
DASHED1
 62
    7
 10
3581.5000000000018
 20
1160.5999999999999
 11
3581.5000000000018
 21
1165.2999999999999
  0
LINE
  8
_1-2_
  6
DASHED1
 62
    7
 10
3549.2500500000014
 20
1171.2999999999999
 11
3546.7500500000014
 21
1171.2999999999999
  0
LINE
  8
_1-2_
  6
DASHED1
 62
    7
 10
3546.7500500000014
 20
1178.7999999999999
 11
3546.7500500000014
 21
1171.2999999999999
  0
LINE
  8
_1-2_
  6
DASHED1
 62
    7
 10
3549.2500500000014
 20
1178.7999999999999
 11
3549.2500500000014
 21
1171.2999999999999
  0
LINE
  8
_1-2_
  6
DASHED1
 62
    7
 10
3548.0000500000014
 20
1169.7099999999998
 11
3548.0000500000014
 21
1180.7999999999999
  0
ARC
  8
_1-2_
  6
DASHED1
 62
    7
 10
3610.5000000000018
 20
1156.2999999999999
 40
6.0000000000000008
 50
269.99999999999994
 51
359.99999999999994
  0
ARC
  8
_1-2_
  6
DASHED1
 62
    7
 10
3587.5000000000022
 20
1156.4081999999998
 40
4
 50
179.99999999999991
 51
202.63099999999988
  0
ARC
  8
_1-2_
  6
DASHED1
 62
    7
 10
3610.5000000000018
 20
1156.3976999999999
 40
4
 50
304.46999999999991
 51
0
  0
ARC
  8
_1-2_
  6
DASHED1
 62
    7
 10
3577.5000000000022
 20
1170.7999999999999
 40
4
 50
84.812999999999973
 51
89.999999999999971
  0
ARC
  8
_1-2_
  6
DASHED1
 62
    7
 10
3577.5000000000022
 20
1170.7999999999999
 40
4
 50
359.99999999999994
 51
84.813000000000002
  0
CIRCLE
  8
_1-2_
  6
DASHED1
 62
    7
 10
3586.5000000000018
 20
1168.7999999999999
 40
2.1
  0
CIRCLE
  8
_1-2_
  6
DASHED1
 62
    7
 10
3586.5000000000018
 20
1168.7999999999999
 40
3.0000000000000004
  0
ARC
  8
_1-2_
  6
DASHED1
 62
    7
 10
3546.5000500000019
 20
1177.7999999999999
 40
1
 50
89.999999999999971
 51
180
  0
ARC
  8
_1-2_
  6
DASHED1
 62
    7
 10
3588.6676500000021
 20
1170.8739499999999
 40
6.0000000000000008
 50
223.73399999999995
 51
281.21399999999994
  0
CIRCLE
  8
_1-2_
  6
DASHED1
 62
    7
 10
3586.5000000000018
 20
1168.7999999999999
 40
3.0000000000000004
  0
CIRCLE
  8
_1-2_
  6
DASHED1
 62
    7
 10
3586.5000000000018
 20
1168.7999999999999
 40
2.1
  0
ARC
  8
_1-2_
  6
DASHED1
 62
    7
 10
3575.4284000000016
 20
1172.7999999999999
 40
2
 50
44.99999999999995
 51
89.999999999999957
  0
ARC
  8
_1-2_
  6
DASHED1
 62
    7
 10
3578.6710500000021
 20
1173.7999999999999
 40
5
 50
44.99999999999995
 51
89.999999999999957
  0
ARC
  8
_1-2_
  6
DASHED1
 62
    7
 10
3590.2274000000024
 20
1177.7999999999999
 40
6.0000000000000008
 50
224.99999999999991
 51
269.99999999999994
  0
ARC
  8
_1-2_
  6
DASHED1
 62
    7
 10
3584.3336000000022
 20
1168.1374499999999
 40
1
 50
224.99999999999991
 51
284.99999999999994
  0
ARC
  8
_1-2_
  6
DASHED1
 62
    7
 10
3613.8659500000017
 20
1171.9907499999999
 40
10
 50
240.93599999999992
 51
257.62099999999992
  0
ARC
  8
_1-2_
  6
DASHED1
 62
    7
 10
3611.9365500000021
 20
1163.1999999999998
 40
1
 50
257.62099999999986
 51
352.99999999999994
  0
ARC
  8
_1-2_
  6
DASHED1
 62
    7
 10
3598.1000000000017
 20
1123.2999999999999
 40
42.00685
 50
86.96199999999996
 51
94.376999999999981
  0
ARC
  8
_1-2_
  6
DASHED1
 62
    7
 10
3599.2924500000021
 20
1145.7683999999999
 40
19.50685
 50
71.771999999999977
 51
86.96199999999996
  0
ARC
  8
_1-2_
  6
DASHED1
 62
    7
 10
3598.1000000000017
 20
1123.2999999999999
 40
42.706699999999997
 50
86.96199999999996
 51
94.304999999999992
  0
ARC
  8
_1-2_
  6
DASHED1
 62
    7
 10
3599.2924500000021
 20
1145.7683999999999
 40
20.206700000000004
 50
72.423999999999978
 51
86.961999999999974
  0
ARC
  8
_1-2_
  6
DASHED1
 62
    7
 10
3598.1000000000017
 20
1123.2999999999999
 40
42.5
 50
86.96199999999996
 51
101.21399999999998
  0
ARC
  8
_1-2_
  6
DASHED1
 62
    7
 10
3599.2924500000021
 20
1145.7683999999999
 40
20
 50
60.935999999999971
 51
87.972999999999984
  0
ARC
  8
_1-2_
  6
DASHED1
 62
    7
 10
3612.6117000000022
 20
1164.596
 40
0.5
 50
239.99999999999994
 51
352.99999999999994
  0
ARC
  8
_1-2_
  6
DASHED1
 62
    7
 10
3586.5000000000018
 20
1168.7999999999999
 40
2.2999999999999998
 50
179.99999999999991
 51
0
  0
ARC
  8
_1-2_
  6
DASHED1
 62
    7
 10
3577.5000000000022
 20
1172.7999999999999
 40
2
 50
359.99999999999994
 51
89.999999999999943
  0
ARC
  8
_1-2_
  6
DASHED1
 62
    7
 10
3581.5000000000018
 20
1172.2999999999999
 40
2
 50
179.99999999999985
 51
209.99999999999991
  0
ARC
  8
_1-2_
  6
DASHED1
 62
    7
 10
3585.5000000000018
 20
1172
 40
1
 50
179.99999999999991
 51
269.99999999999994
  0
ARC
  8
_1-2_
  6
DASHED1
 62
    7
 10
3587.800000000002
 20
1172
 40
1
 50
269.99999999999994
 51
359.99999999999994
  0
ARC
  8
_1-2_
  6
DASHED1
 62
    7
 10
3557.5000000000022
 20
1175.7999999999999
 40
1
 50
179.99999999999991
 51
269.99999999999994
  0
ARC
  8
_1-2_
  6
DASHED1
 62
    7
 10
3599.5600000000022
 20
1160.5899999999999
 40
8.7300000000000022
 50
146.57599999999993
 51
22.665999999999939
  0
ARC
  8
_1-2_
  6
DASHED1
 62
    7
 10
3572.5000000000022
 20
1161.5999999999999
 40
1
 50
179.99999999999991
 51
269.99999999999994
  0
ARC
  8
_1-2_
  6
DASHED1
 62
    7
 10
3580.5000000000018
 20
1165.2999999999999
 40
1
 50
269.99999999999994
 51
359.99999999999994
  0
ARC
  8
_1-2_
  6
DASHED1
 62
    7
 10
3572.5000000000022
 20
1152.2999999999999
 40
2
 50
179.99999999999991
 51
269.99999999999994
  0
ARC
  8
_1-2_
  6
DASHED1
 62
    7
 10
3610.5000000000018
 20
1156.3976999999999
 40
4
 50
273
 51
304.46999999999991
  0
ARC
  8
_1-2_
  6
DASHED1
 62
    7
 10
3587.5000000000022
 20
1156.4081999999998
 40
4
 50
202.63099999999991
 51
266.99999999999994
  0
ARC
  8
_1-2_
  6
DASHED1
 62
    7
 10
3598.1000000000017
 20
1123.2999999999999
 40
45.472499999999996
 50
86.96199999999996
 51
89.62899999999999
  0
ARC
  8
_1-2_
  6
DASHED1
 62
    7
 10
3598.1000000000017
 20
1123.2999999999999
 40
45.046349999999996
 50
86.96199999999996
 51
89.625999999999976
  0
ARC
  8
_1-2_
  6
DASHED1
 62
    7
 10
3599.2924500000021
 20
1145.7683999999999
 40
22.54635
 50
74.297999999999959
 51
86.96199999999996
  0
ARC
  8
_1-2_
  6
DASHED1
 62
    7
 10
3599.2924500000021
 20
1145.7683999999999
 40
22.9725
 50
74.596999999999965
 51
86.96199999999996
  0
ARC
  8
_1-2_
  6
DASHED1
 62
    7
 10
3599.5600000000022
 20
1160.5899999999999
 40
8.7300000000000022
 50
22.665999999999975
 51
146.57599999999999
  0
ARC
  8
_1-2_
  6
DASHED1
 62
    7
 10
3587.5000000000022
 20
1156.2999999999999
 40
6.0000000000000008
 50
179.99999999999991
 51
269.99999999999994
  0
LINE
  8
_1-2_
  6
DASHED1
 62
    7
 10
3599.0000000000018
 20
1180.9
 11
3599.0000000000018
 21
1146.5
  0
ARC
  8
_1-2_
  6
DASHED1
 62
    7
 10
3535.2000000000016
 20
1164.7374999999999
 40
1.1999999999999999
 50
90.000000000000028
 51
180.00000000000005
  0
ARC
  8
_1-2_
  6
DASHED1
 62
    7
 10
3535.2000000000016
 20
1164.7374999999999
 40
1.1999999999999999
 50
90.000000000000028
 51
180.00000000000005
  0
LINE
  8
_1-2_
  6
DASHED1
 62
    7
 10
3534.0000000000013
 20
1161.7374999999999
 11
3535.2000000000016
 21
1161.7374999999999
  0
LINE
  8
_1-2_
  6
DASHED1
 62
    7
 10
3535.2000000000016
 20
1164.7374999999999
 11
3535.2000000000016
 21
1144.7374999999999
  0
LINE
  8
_1-2_
  6
DASHED1
 62
    7
 10
3534.0000000000013
 20
1144.7374999999999
 11
3535.2000000000016
 21
1144.7374999999999
  0
LINE
  8
_1-2_
  6
DASHED1
 62
    7
 10
3534.0000000000013
 20
1164.7374999999999
 11
3534.0000000000013
 21
1144.7374999999999
  0
LINE
  8
_1-2_
  6
DASHED1
 62
    7
 10
3535.2000000000016
 20
1164.2374999999999
 11
3535.2000000000016
 21
1149.0968
  0
LINE
  8
_1-2_
  6
DASHED1
 62
    7
 10
3535.7000000000016
 20
1164.7374999999999
 11
3550.8407000000015
 21
1164.7374999999999
  0
LINE
  8
_1-2_
  6
DASHED1
 62
    7
 10
3565.0000000000018
 20
1164.7374999999999
 11
3565.0000000000018
 21
1165.9374999999997
  0
LINE
  8
_1-2_
  6
DASHED1
 62
    7
 10
3535.2000000000016
 20
1165.9374999999997
 11
3571.0000000000013
 21
1165.9374999999997
  0
LINE
  8
_1-2_
  6
DASHED1
 62
    7
 10
3535.2000000000016
 20
1164.7374999999999
 11
3571.0000000000013
 21
1164.7374999999999
  0
LINE
  8
_1-2_
  6
DASHED1
 62
    7
 10
3571.0000000000013
 20
1165.9374999999997
 11
3571.0000000000013
 21
1164.7374999999999
  0
LINE
  8
_1-2_
  6
DASHED1
 62
    7
 10
2184
 20
2235.9999499999998
 11
2183.5
 21
2235.9999499999998
  0
LINE
  8
_1-2_
  6
DASHED1
 62
    7
 10
2161
 20
2235.9999499999998
 11
2161.5
 21
2235.9999499999998
  0
LINE
  8
_1-2_
  6
DASHED1
 62
    7
 10
2164
 20
2295.9999499999998
 11
2181
 21
2295.9999499999998
  0
LINE
  8
_1-2_
  6
DASHED1
 62
    7
 10
2164.5
 20
2260.9999499999998
 11
2180.5
 21
2260.9999499999998
  0
LINE
  8
_1-2_
  6
DASHED1
 62
    7
 10
2184
 20
2235.9999499999998
 11
2183.5
 21
2235.9999499999998
  0
LINE
  8
_1-2_
  6
DASHED1
 62
    7
 10
2190
 20
2262.9999500000003
 11
2191
 21
2262.9999500000003
  0
LINE
  8
_1-2_
  6
DASHED1
 62
    7
 10
2190
 20
2286.9999499999998
 11
2190
 21
2262.9999500000003
  0
LINE
  8
_1-2_
  6
DASHED1
 62
    7
 10
2155
 20
2262.9999500000003
 11
2154
 21
2262.9999500000003
  0
LINE
  8
_1-2_
  6
DASHED1
 62
    7
 10
2155
 20
2286.9999499999998
 11
2155
 21
2262.9999500000003
  0
LINE
  8
_1-2_
  6
DASHED1
 62
    7
 10
2153.6099999999996
 20
2265.9999499999998
 11
2161
 21
2265.9999499999998
  0
LINE
  8
_1-2_
  6
DASHED1
 62
    7
 10
2184
 20
2265.9999499999998
 11
2192.0999999999999
 21
2265.9999499999998
  0
LINE
  8
_1-2_
  6
DASHED1
 62
    7
 10
2162.5
 20
2260.9999499999998
 11
2162.5
 21
2258.1999500000001
  0
LINE
  8
_1-2_
  6
DASHED1
 62
    7
 10
2164
 20
2259.5999499999998
 11
2163
 21
2259.5999499999998
  0
LINE
  8
_1-2_
  6
DASHED1
 62
    7
 10
2181
 20
2259.5999499999998
 11
2182
 21
2259.5999499999998
  0
LINE
  8
_1-2_
  6
DASHED1
 62
    7
 10
2182.5
 20
2260.9999499999998
 11
2182.5
 21
2258.1999500000001
  0
LINE
  8
_1-2_
  6
DASHED1
 62
    7
 10
2180.5
 20
2260.9999499999998
 11
2180.5
 21
2238.9999499999998
  0
LINE
  8
_1-2_
  6
DASHED1
 62
    7
 10
2164.5
 20
2260.9999499999998
 11
2164.5
 21
2238.9999499999998
  0
LINE
  8
_1-2_
  6
DASHED1
 62
    7
 10
2170.26395
 20
2234.0000000000004
 11
2174.7360499999999
 21
2234.0000000000004
  0
LINE
  8
_1-2_
  6
DASHED1
 62
    7
 10
2176
 20
2232
 11
2176
 21
2230
  0
LINE
  8
_1-2_
  6
DASHED1
 62
    7
 10
2169
 20
2232
 11
2169
 21
2230
  0
LINE
  8
_1-2_
  6
DASHED1
 62
    7
 10
2169
 20
2230
 11
2169.5
 21
2230
  0
LINE
  8
_1-2_
  6
DASHED1
 62
    7
 10
2175.5
 20
2230
 11
2176
 21
2230
  0
LINE
  8
_1-2_
  6
DASHED1
 62
    7
 10
2176
 20
2225
 11
2169
 21
2225
  0
LINE
  8
_1-2_
  6
DASHED1
 62
    7
 10
2176.0459499999997
 20
2225.0459499999997
 11
2176
 21
2225
  0
LINE
  8
_1-2_
  6
DASHED1
 62
    7
 10
2168.9540500000002
 20
2225.0459499999997
 11
2169
 21
2225
  0
LINE
  8
_1-2_
  6
DASHED1
 62
    7
 10
2175.5
 20
2232
 11
2175.5
 21
2226
  0
LINE
  8
_1-2_
  6
DASHED1
 62
    7
 10
2169.5
 20
2232
 11
2169.5
 21
2226
  0
LINE
  8
_1-2_
  6
DASHED1
 62
    7
 10
2169.5
 20
2230
 11
2175.5
 21
2230
  0
LINE
  8
_1-2_
  6
DASHED1
 62
    7
 10
2167.9289499999999
 20
2226.07105
 11
2168.9540500000002
 21
2225.0459499999997
  0
LINE
  8
_1-2_
  6
DASHED1
 62
    7
 10
2177.07105
 20
2226.07105
 11
2176.0459499999997
 21
2225.0459499999997
  0
LINE
  8
_1-2_
  6
DASHED1
 62
    7
 10
2180
 20
2233.1421
 11
2180
 21
2260.9999499999998
  0
LINE
  8
_1-2_
  6
DASHED1
 62
    7
 10
2165
 20
2233.1421
 11
2165
 21
2260.9999499999998
  0
LINE
  8
_1-2_
  6
DASHED1
 62
    7
 10
2159.3245500000002
 20
2252.7625499999999
 11
2159.1130499999999
 21
2253.0380500000001
  0
LINE
  8
_1-2_
  6
DASHED1
 62
    7
 10
2159.3245500000002
 20
2252.7625499999999
 11
2160
 21
2253.4999499999998
  0
LINE
  8
_1-2_
  6
DASHED1
 62
    7
 10
2159.1130499999999
 20
2253.0380500000001
 11
2160
 21
2253.4999499999998
  0
LINE
  8
_1-2_
  6
DASHED1
 62
    7
 10
2180.5
 20
2260.9999499999998
 11
2189.6999999999998
 21
2260.9999499999998
  0
LINE
  8
_1-2_
  6
DASHED1
 62
    7
 10
2164.5
 20
2260.9999499999998
 11
2155.3000000000001
 21
2260.9999499999998
  0
LINE
  8
_1-2_
  6
DASHED1
 62
    7
 10
2173.5
 20
2260.9999499999998
 11
2173.5
 21
2251.5003500000002
  0
LINE
  8
_1-2_
  6
DASHED1
 62
    7
 10
2171.5
 20
2260.9999499999998
 11
2171.5
 21
2251.5003500000002
  0
LINE
  8
_1-2_
  6
DASHED1
 62
    7
 10
2172
 20
2251.0003499999997
 11
2173
 21
2251.0003499999997
  0
LINE
  8
_1-2_
  6
DASHED1
 62
    7
 10
2171.5
 20
2255.2199500000001
 11
2165
 21
2255.2199500000001
  0
LINE
  8
_1-2_
  6
DASHED1
 62
    7
 10
2180
 20
2255.2199500000001
 11
2173.5
 21
2255.2199500000001
  0
LINE
  8
_1-2_
  6
DASHED1
 62
    7
 10
2171.5
 20
2255.5899500000004
 11
2170.4392499999999
 21
2255.5899500000004
  0
LINE
  8
_1-2_
  6
DASHED1
 62
    7
 10
2168.06075
 20
2255.5899500000004
 11
2165
 21
2255.5899500000004
  0
LINE
  8
_1-2_
  6
DASHED1
 62
    7
 10
2180
 20
2255.5899500000004
 11
2176.9392499999999
 21
2255.5899500000004
  0
LINE
  8
_1-2_
  6
DASHED1
 62
    7
 10
2174.5607499999996
 20
2255.5899500000004
 11
2173.5
 21
2255.5899500000004
  0
LINE
  8
_1-2_
  6
DASHED1
 62
    7
 10
2192
 20
2250.9999499999998
 11
2192
 21
2261.9999499999998
  0
LINE
  8
_1-2_
  6
DASHED1
 62
    7
 10
2190
 20
2249.9999500000003
 11
2191
 21
2249.9999500000003
  0
LINE
  8
_1-2_
  6
DASHED1
 62
    7
 10
2190
 20
2260.6999500000001
 11
2190
 21
2241.9999499999998
  0
LINE
  8
_1-2_
  6
DASHED1
 62
    7
 10
2153
 20
2250.9999499999998
 11
2153
 21
2261.9999499999998
  0
LINE
  8
_1-2_
  6
DASHED1
 62
    7
 10
2155
 20
2249.9999500000003
 11
2154
 21
2249.9999500000003
  0
LINE
  8
_1-2_
  6
DASHED1
 62
    7
 10
2155
 20
2260.6999500000001
 11
2155
 21
2241.9999499999998
  0
LINE
  8
_1-2_
  6
DASHED1
 62
    7
 10
2172.5
 20
2297.6999500000001
 11
2172.5
 21
2222.3999499999999
  0
LINE
  8
_1-2_
  6
DASHED1
 62
    7
 10
2153.8699999999998
 20
2278.4999499999998
 11
2192.9
 21
2278.4999499999998
  0
LINE
  8
_1-2_
  6
DASHED1
 62
    7
 10
2160
 20
2257.6499499999999
 11
2160
 21
2249.3999499999999
  0
LINE
  8
_1-2_
  6
DASHED1
 62
    7
 10
2163.25
 20
2253.4999499999998
 11
2156.6999999999998
 21
2253.4999499999998
  0
LINE
  8
_1-2_
  6
DASHED1
 62
    7
 10
2185
 20
2257.3199500000005
 11
2185
 21
2249.5999499999998
  0
LINE
  8
_1-2_
  6
DASHED1
 62
    7
 10
2181.73
 20
2253.4999499999998
 11
2188.7399999999997
 21
2253.4999499999998
  0
LINE
  8
_1-2_
  6
DASHED1
 62
    7
 10
2176.0599999999999
 20
2227.5
 11
2168.7899999999999
 21
2227.5
  0
ARC
  8
_1-2_
  6
DASHED1
 62
    7
 10
2181
 20
2286.9999499999998
 40
9
 50
0.0000000000000254
 51
90.000000000000056
  0
ARC
  8
_1-2_
  6
DASHED1
 62
    7
 10
2184
 20
2241.9999499999998
 40
6.0000000000000008
 50
270
 51
0
  0
ARC
  8
_1-2_
  6
DASHED1
 62
    7
 10
2183.5
 20
2238.9999499999998
 40
3.0000000000000004
 50
180.00000000000005
 51
270.00000000000005
  0
ARC
  8
_1-2_
  6
DASHED1
 62
    7
 10
2164
 20
2286.9999499999998
 40
9
 50
90.000000000000056
 51
180.00000000000011
  0
ARC
  8
_1-2_
  6
DASHED1
 62
    7
 10
2161
 20
2241.9999499999998
 40
6.0000000000000008
 50
180.00000000000005
 51
270.00000000000005
  0
ARC
  8
_1-2_
  6
DASHED1
 62
    7
 10
2161.5
 20
2238.9999499999998
 40
3.0000000000000004
 50
270
 51
0
  0
CIRCLE
  8
_1-2_
  6
DASHED1
 62
    7
 10
2160
 20
2253.4999499999998
 40
1.8999999999999999
  0
CIRCLE
  8
_1-2_
  6
DASHED1
 62
    7
 10
2185
 20
2253.4999499999998
 40
1.8999999999999999
  0
ARC
  8
_1-2_
  6
DASHED1
 62
    7
 10
2191
 20
2261.9999499999998
 40
1
 50
0.0000000000000254
 51
90.000000000000056
  0
ARC
  8
_1-2_
  6
DASHED1
 62
    7
 10
2154
 20
2261.9999499999998
 40
1
 50
90.000000000000056
 51
180.00000000000011
  0
ARC
  8
_1-2_
  6
DASHED1
 62
    7
 10
2157
 20
2262.9999500000003
 40
2
 50
180.00000000000005
 51
270.00000000000005
  0
ARC
  8
_1-2_
  6
DASHED1
 62
    7
 10
2164
 20
2260.0999499999998
 40
0.5
 50
270
 51
0
  0
ARC
  8
_1-2_
  6
DASHED1
 62
    7
 10
2163
 20
2260.0999499999998
 40
0.5
 50
180.00000000000005
 51
270.00000000000005
  0
ARC
  8
_1-2_
  6
DASHED1
 62
    7
 10
2181
 20
2260.0999499999998
 40
0.5
 50
180.00000000000005
 51
270.00000000000005
  0
ARC
  8
_1-2_
  6
DASHED1
 62
    7
 10
2182
 20
2260.0999499999998
 40
0.5
 50
270
 51
0
  0
ARC
  8
_1-2_
  6
DASHED1
 62
    7
 10
2188
 20
2262.9999500000003
 40
2
 50
270
 51
0
  0
ARC
  8
_1-2_
  6
DASHED1
 62
    7
 10
2172.5
 20
2232
 40
3.5000000000000008
 50
90.000000000000056
 51
180.00000000000011
  0
ARC
  8
_1-2_
  6
DASHED1
 62
    7
 10
2172.5
 20
2232
 40
3.5000000000000008
 50
0.0000000000000254
 51
90.000000000000056
  0
ARC
  8
_1-2_
  6
DASHED1
 62
    7
 10
2172.5
 20
2232
 40
3.0000000000000004
 50
138.19000000000005
 51
180.00000000000011
  0
ARC
  8
_1-2_
  6
DASHED1
 62
    7
 10
2172.5
 20
2232
 40
3.0000000000000004
 50
0.0000000000000254
 51
41.81000000000003
  0
ARC
  8
_1-2_
  6
DASHED1
 62
    7
 10
2170.5
 20
2226
 40
1
 50
180.00000000000005
 51
270.00000000000005
  0
ARC
  8
_1-2_
  6
DASHED1
 62
    7
 10
2174.5
 20
2226
 40
1
 50
270
 51
0
  0
ARC
  8
_1-2_
  6
DASHED1
 62
    7
 10
2175
 20
2233.1421
 40
10
 50
180.00000000000005
 51
225.00000000000005
  0
ARC
  8
_1-2_
  6
DASHED1
 62
    7
 10
2170
 20
2233.1421
 40
10
 50
315
 51
0
  0
ARC
  8
_1-2_
  6
DASHED1
 62
    7
 10
2189.6999999999998
 20
2260.6999500000001
 40
0.2999999999999998
 50
0.0000000000000254
 51
90.000000000000056
  0
ARC
  8
_1-2_
  6
DASHED1
 62
    7
 10
2155.3000000000001
 20
2260.6999500000001
 40
0.2999999999999998
 50
90.000000000000056
 51
180.00000000000011
  0
ARC
  8
_1-2_
  6
DASHED1
 62
    7
 10
2173
 20
2251.5003500000002
 40
0.5
 50
270
 51
0
  0
ARC
  8
_1-2_
  6
DASHED1
 62
    7
 10
2172
 20
2251.5003500000002
 40
0.5
 50
180.00000000000005
 51
270.00000000000005
  0
ARC
  8
_1-2_
  6
DASHED1
 62
    7
 10
2191
 20
2250.9999499999998
 40
1
 50
270
 51
0
  0
ARC
  8
_1-2_
  6
DASHED1
 62
    7
 10
2154
 20
2250.9999499999998
 40
1
 50
180.00000000000005
 51
270.00000000000005
  0
CIRCLE
  8
_1-2_
  6
DASHED1
 62
    7
 10
2175.75
 20
2251
 40
2.3250000000000001
  0
CIRCLE
  8
_1-2_
  6
DASHED1
 62
    7
 10
2169.25
 20
2251
 40
2.3250000000000001
  0
CIRCLE
  8
_1-2_
  6
DASHED1
 62
    7
 10
2169.25
 20
2257.5
 40
2.3250000000000001
  0
CIRCLE
  8
_1-2_
  6
DASHED1
 62
    7
 10
2175.75
 20
2257.5
 40
2.3250000000000001
  0
CIRCLE
  8
_1-2_
  6
DASHED1
 62
    7
 10
2172.5
 20
2227.5
 40
1.25
  0
LINE
  8
_1-2_
  6
DASHED1
 62
    7
 10
2078.0000500000001
 20
2140
 11
2078.0000500000001
 21
2139.5
  0
LINE
  8
_1-2_
  6
DASHED1
 62
    7
 10
2078.0000500000001
 20
2117
 11
2078.0000500000001
 21
2117.5
  0
LINE
  8
_1-2_
  6
DASHED1
 62
    7
 10
2018.0000500000001
 20
2120
 11
2018.0000500000001
 21
2137
  0
LINE
  8
_1-2_
  6
DASHED1
 62
    7
 10
2053.0000500000001
 20
2120.5
 11
2053.0000500000001
 21
2136.5
  0
LINE
  8
_1-2_
  6
DASHED1
 62
    7
 10
2078.0000500000001
 20
2140
 11
2078.0000500000001
 21
2139.5
  0
LINE
  8
_1-2_
  6
DASHED1
 62
    7
 10
2051.0000499999996
 20
2146
 11
2051.0000499999996
 21
2147
  0
LINE
  8
_1-2_
  6
DASHED1
 62
    7
 10
2027.0000500000001
 20
2146
 11
2051.0000499999996
 21
2146
  0
LINE
  8
_1-2_
  6
DASHED1
 62
    7
 10
2051.0000499999996
 20
2111
 11
2051.0000499999996
 21
2110
  0
LINE
  8
_1-2_
  6
DASHED1
 62
    7
 10
2027.0000500000001
 20
2111
 11
2051.0000499999996
 21
2111
  0
LINE
  8
_1-2_
  6
DASHED1
 62
    7
 10
2048.0000500000001
 20
2109.6099999999996
 11
2048.0000500000001
 21
2117
  0
LINE
  8
_1-2_
  6
DASHED1
 62
    7
 10
2048.0000500000001
 20
2140
 11
2048.0000500000001
 21
2148.0999999999999
  0
LINE
  8
_1-2_
  6
DASHED1
 62
    7
 10
2053.0000500000001
 20
2118.5
 11
2055.8000499999998
 21
2118.5
  0
LINE
  8
_1-2_
  6
DASHED1
 62
    7
 10
2054.4000500000001
 20
2120
 11
2054.4000500000001
 21
2119
  0
LINE
  8
_1-2_
  6
DASHED1
 62
    7
 10
2054.4000500000001
 20
2137
 11
2054.4000500000001
 21
2138
  0
LINE
  8
_1-2_
  6
DASHED1
 62
    7
 10
2053.0000500000001
 20
2138.5
 11
2055.8000499999998
 21
2138.5
  0
LINE
  8
_1-2_
  6
DASHED1
 62
    7
 10
2053.0000500000001
 20
2136.5
 11
2075.0000500000001
 21
2136.5
  0
LINE
  8
_1-2_
  6
DASHED1
 62
    7
 10
2053.0000500000001
 20
2120.5
 11
2075.0000500000001
 21
2120.5
  0
LINE
  8
_1-2_
  6
DASHED1
 62
    7
 10
2079.9999999999995
 20
2126.26395
 11
2079.9999999999995
 21
2130.7360499999999
  0
LINE
  8
_1-2_
  6
DASHED1
 62
    7
 10
2082
 20
2132
 11
2084
 21
2132
  0
LINE
  8
_1-2_
  6
DASHED1
 62
    7
 10
2082
 20
2125
 11
2084
 21
2125
  0
LINE
  8
_1-2_
  6
DASHED1
 62
    7
 10
2084
 20
2125
 11
2084
 21
2125.5
  0
LINE
  8
_1-2_
  6
DASHED1
 62
    7
 10
2084
 20
2131.5
 11
2084
 21
2132
  0
LINE
  8
_1-2_
  6
DASHED1
 62
    7
 10
2089
 20
2132
 11
2089
 21
2125
  0
LINE
  8
_1-2_
  6
DASHED1
 62
    7
 10
2088.9540500000002
 20
2132.0459499999997
 11
2089
 21
2132
  0
LINE
  8
_1-2_
  6
DASHED1
 62
    7
 10
2088.9540500000002
 20
2124.9540500000002
 11
2089
 21
2125
  0
LINE
  8
_1-2_
  6
DASHED1
 62
    7
 10
2082
 20
2131.5
 11
2088
 21
2131.5
  0
LINE
  8
_1-2_
  6
DASHED1
 62
    7
 10
2082
 20
2125.5
 11
2088
 21
2125.5
  0
LINE
  8
_1-2_
  6
DASHED1
 62
    7
 10
2084
 20
2125.5
 11
2084
 21
2131.5
  0
LINE
  8
_1-2_
  6
DASHED1
 62
    7
 10
2087.9289499999999
 20
2123.9289499999999
 11
2088.9540500000002
 21
2124.9540500000002
  0
LINE
  8
_1-2_
  6
DASHED1
 62
    7
 10
2087.9289499999999
 20
2133.0710499999995
 11
2088.9540500000002
 21
2132.0459499999997
  0
LINE
  8
_1-2_
  6
DASHED1
 62
    7
 10
2080.8578999999999
 20
2136
 11
2053.0000500000001
 21
2136
  0
LINE
  8
_1-2_
  6
DASHED1
 62
    7
 10
2080.8578999999999
 20
2121
 11
2053.0000500000001
 21
2121
  0
LINE
  8
_1-2_
  6
DASHED1
 62
    7
 10
2061.23745
 20
2115.3245499999998
 11
2060.9619499999998
 21
2115.1130499999999
  0
LINE
  8
_1-2_
  6
DASHED1
 62
    7
 10
2061.23745
 20
2115.3245499999998
 11
2060.5000500000001
 21
2116
  0
LINE
  8
_1-2_
  6
DASHED1
 62
    7
 10
2060.9619499999998
 20
2115.1130499999999
 11
2060.5000500000001
 21
2116
  0
LINE
  8
_1-2_
  6
DASHED1
 62
    7
 10
2053.0000500000001
 20
2136.5
 11
2053.0000500000001
 21
2145.6999999999998
  0
LINE
  8
_1-2_
  6
DASHED1
 62
    7
 10
2053.0000500000001
 20
2120.5
 11
2053.0000500000001
 21
2111.3000000000001
  0
LINE
  8
_1-2_
  6
DASHED1
 62
    7
 10
2053.0000500000001
 20
2129.5
 11
2062.4996500000002
 21
2129.5
  0
LINE
  8
_1-2_
  6
DASHED1
 62
    7
 10
2053.0000500000001
 20
2127.5
 11
2062.4996500000002
 21
2127.5
  0
LINE
  8
_1-2_
  6
DASHED1
 62
    7
 10
2062.9996500000002
 20
2128
 11
2062.9996500000002
 21
2129
  0
LINE
  8
_1-2_
  6
DASHED1
 62
    7
 10
2058.7800499999998
 20
2127.5
 11
2058.7800499999998
 21
2121
  0
LINE
  8
_1-2_
  6
DASHED1
 62
    7
 10
2058.7800499999998
 20
2136
 11
2058.7800499999998
 21
2129.5
  0
LINE
  8
_1-2_
  6
DASHED1
 62
    7
 10
2058.4100499999995
 20
2127.5
 11
2058.4100499999995
 21
2126.4392499999994
  0
LINE
  8
_1-2_
  6
DASHED1
 62
    7
 10
2058.4100499999995
 20
2124.0607499999996
 11
2058.4100499999995
 21
2121
  0
LINE
  8
_1-2_
  6
DASHED1
 62
    7
 10
2058.4100499999995
 20
2136
 11
2058.4100499999995
 21
2132.9392499999999
  0
LINE
  8
_1-2_
  6
DASHED1
 62
    7
 10
2058.4100499999995
 20
2130.5607499999996
 11
2058.4100499999995
 21
2129.5
  0
LINE
  8
_1-2_
  6
DASHED1
 62
    7
 10
2063.0000500000001
 20
2148
 11
2052.0000500000001
 21
2148
  0
LINE
  8
_1-2_
  6
DASHED1
 62
    7
 10
2064.0000500000001
 20
2146
 11
2064.0000500000001
 21
2147
  0
LINE
  8
_1-2_
  6
DASHED1
 62
    7
 10
2053.3000499999998
 20
2146
 11
2072.0000500000001
 21
2146
  0
LINE
  8
_1-2_
  6
DASHED1
 62
    7
 10
2063.0000500000001
 20
2109
 11
2052.0000500000001
 21
2109
  0
LINE
  8
_1-2_
  6
DASHED1
 62
    7
 10
2064.0000500000001
 20
2111
 11
2064.0000500000001
 21
2110
  0
LINE
  8
_1-2_
  6
DASHED1
 62
    7
 10
2053.3000499999998
 20
2111
 11
2072.0000500000001
 21
2111
  0
LINE
  8
_1-2_
  6
DASHED1
 62
    7
 10
2016.3000499999998
 20
2128.5
 11
2091.60005
 21
2128.5
  0
LINE
  8
_1-2_
  6
DASHED1
 62
    7
 10
2035.5000500000001
 20
2109.8699999999998
 11
2035.5000500000001
 21
2148.8999999999996
  0
LINE
  8
_1-2_
  6
DASHED1
 62
    7
 10
2056.35005
 20
2116
 11
2064.60005
 21
2116
  0
LINE
  8
_1-2_
  6
DASHED1
 62
    7
 10
2060.5000500000001
 20
2119.25
 11
2060.5000500000001
 21
2112.6999999999998
  0
LINE
  8
_1-2_
  6
DASHED1
 62
    7
 10
2056.6800499999994
 20
2141
 11
2064.4000500000001
 21
2141
  0
LINE
  8
_1-2_
  6
DASHED1
 62
    7
 10
2060.5000500000001
 20
2137.73
 11
2060.5000500000001
 21
2144.7399999999997
  0
LINE
  8
_1-2_
  6
DASHED1
 62
    7
 10
2086.5
 20
2132.0599999999999
 11
2086.5
 21
2124.7899999999999
  0
ARC
  8
_1-2_
  6
DASHED1
 62
    7
 10
2027.0000500000001
 20
2137
 40
9
 50
90.000000000000028
 51
180.00000000000005
  0
ARC
  8
_1-2_
  6
DASHED1
 62
    7
 10
2072.0000500000001
 20
2140
 40
6.0000000000000008
 50
0
 51
90.000000000000028
  0
ARC
  8
_1-2_
  6
DASHED1
 62
    7
 10
2075.0000500000001
 20
2139.5
 40
3.0000000000000004
 50
270.00000000000005
 51
0.0000000000000508
  0
ARC
  8
_1-2_
  6
DASHED1
 62
    7
 10
2027.0000500000001
 20
2120
 40
9
 50
180.00000000000005
 51
270.00000000000005
  0
ARC
  8
_1-2_
  6
DASHED1
 62
    7
 10
2072.0000500000001
 20
2117
 40
6.0000000000000008
 50
270.00000000000005
 51
0.0000000000000508
  0
ARC
  8
_1-2_
  6
DASHED1
 62
    7
 10
2075.0000500000001
 20
2117.5
 40
3.0000000000000004
 50
0
 51
90.000000000000028
  0
CIRCLE
  8
_1-2_
  6
DASHED1
 62
    7
 10
2060.5000500000001
 20
2116
 40
1.8999999999999999
  0
CIRCLE
  8
_1-2_
  6
DASHED1
 62
    7
 10
2060.5000500000001
 20
2141
 40
1.8999999999999999
  0
ARC
  8
_1-2_
  6
DASHED1
 62
    7
 10
2052.0000500000001
 20
2147
 40
1
 50
90.000000000000028
 51
180.00000000000005
  0
ARC
  8
_1-2_
  6
DASHED1
 62
    7
 10
2052.0000500000001
 20
2110
 40
1
 50
180.00000000000005
 51
270.00000000000005
  0
ARC
  8
_1-2_
  6
DASHED1
 62
    7
 10
2051.0000499999996
 20
2113
 40
2
 50
270.00000000000005
 51
0.0000000000000508
  0
ARC
  8
_1-2_
  6
DASHED1
 62
    7
 10
2053.9000500000001
 20
2120
 40
0.5
 50
0
 51
90.000000000000028
  0
ARC
  8
_1-2_
  6
DASHED1
 62
    7
 10
2053.9000500000001
 20
2119
 40
0.5
 50
270.00000000000005
 51
0.0000000000000508
  0
ARC
  8
_1-2_
  6
DASHED1
 62
    7
 10
2053.9000500000001
 20
2137
 40
0.5
 50
270.00000000000005
 51
0.0000000000000508
  0
ARC
  8
_1-2_
  6
DASHED1
 62
    7
 10
2053.9000500000001
 20
2138
 40
0.5
 50
0
 51
90.000000000000028
  0
ARC
  8
_1-2_
  6
DASHED1
 62
    7
 10
2051.0000499999996
 20
2144
 40
2
 50
0
 51
90.000000000000028
  0
ARC
  8
_1-2_
  6
DASHED1
 62
    7
 10
2082
 20
2128.5
 40
3.5000000000000008
 50
180.00000000000005
 51
270.00000000000005
  0
ARC
  8
_1-2_
  6
DASHED1
 62
    7
 10
2082
 20
2128.5
 40
3.5000000000000008
 50
90.000000000000028
 51
180.00000000000005
  0
ARC
  8
_1-2_
  6
DASHED1
 62
    7
 10
2082
 20
2128.5
 40
3.0000000000000004
 50
228.19000000000002
 51
270
  0
ARC
  8
_1-2_
  6
DASHED1
 62
    7
 10
2082
 20
2128.5
 40
3.0000000000000004
 50
90.000000000000028
 51
131.81000000000005
  0
ARC
  8
_1-2_
  6
DASHED1
 62
    7
 10
2088
 20
2126.5
 40
1
 50
270.00000000000005
 51
0.0000000000000508
  0
ARC
  8
_1-2_
  6
DASHED1
 62
    7
 10
2088
 20
2130.5
 40
1
 50
0
 51
90.000000000000028
  0
ARC
  8
_1-2_
  6
DASHED1
 62
    7
 10
2080.8578999999999
 20
2131
 40
10
 50
270.00000000000005
 51
315.00000000000005
  0
ARC
  8
_1-2_
  6
DASHED1
 62
    7
 10
2080.8578999999999
 20
2126
 40
10
 50
45.000000000000014
 51
90.000000000000028
  0
ARC
  8
_1-2_
  6
DASHED1
 62
    7
 10
2053.3000499999998
 20
2145.6999999999998
 40
0.2999999999999998
 50
90.000000000000028
 51
180.00000000000005
  0
ARC
  8
_1-2_
  6
DASHED1
 62
    7
 10
2053.3000499999998
 20
2111.3000000000001
 40
0.2999999999999998
 50
180.00000000000005
 51
270.00000000000005
  0
ARC
  8
_1-2_
  6
DASHED1
 62
    7
 10
2062.4996500000002
 20
2129
 40
0.5
 50
0
 51
90.000000000000028
  0
ARC
  8
_1-2_
  6
DASHED1
 62
    7
 10
2062.4996500000002
 20
2128
 40
0.5
 50
270.00000000000005
 51
0.0000000000000508
  0
ARC
  8
_1-2_
  6
DASHED1
 62
    7
 10
2063.0000500000001
 20
2147
 40
1
 50
0
 51
90.000000000000028
  0
ARC
  8
_1-2_
  6
DASHED1
 62
    7
 10
2063.0000500000001
 20
2110
 40
1
 50
270.00000000000005
 51
0.0000000000000508
  0
CIRCLE
  8
_1-2_
  6
DASHED1
 62
    7
 10
2063
 20
2131.75
 40
2.3250000000000001
  0
CIRCLE
  8
_1-2_
  6
DASHED1
 62
    7
 10
2063
 20
2125.25
 40
2.3250000000000001
  0
CIRCLE
  8
_1-2_
  6
DASHED1
 62
    7
 10
2056.5
 20
2125.25
 40
2.3250000000000001
  0
CIRCLE
  8
_1-2_
  6
DASHED1
 62
    7
 10
2056.5
 20
2131.75
 40
2.3250000000000001
  0
CIRCLE
  8
_1-2_
  6
DASHED1
 62
    7
 10
2086.5
 20
2128.5
 40
1.25
  0
POINT
  8
_0-9_
 62
    3
 10
3858.5000000000009
 20
1071.6211407876864
  0
POINT
  8
_0-9_
 62
    3
 10
3858.5000000000009
 20
1071.6211407876864
  0
POINT
  8
_0-9_
 62
    3
 10
3568.5000000000009
 20
1071.6211407876864
  0
LINE
  8
_0-9_
  6
CONTINUOUS
 62
    4
 10
3858.5000000000009
 20
1071.6211407876864
 11
3568.5000000000009
 21
1071.6211407876864
  0
TEXT
  8
_0-9_
 62
    7
 10
3680.4000000000005
 20
1071.6211407876864
 40
35
 41
0.6285714285714286
 50
0
  1
２９０
  0
LINE
  8
_0-9_
  6
CONTINUOUS
 62
    4
 10
3568.5000000000009
 20
1081.6211407876864
 11
3568.5000000000009
 21
997.51799456767776
  0
LINE
  8
_0-9_
  6
CONTINUOUS
 62
    4
 10
3858.5000000000009
 20
1081.6211407876864
 11
3858.5000000000009
 21
997.51799456767776
  0
LINE
  8
ADD_LINE
  6
DOT
 62
    9
 10
2530
 20
1225
 11
2530
 21
665
  0
LINE
  8
ADD_LINE
  6
DOT
 62
    9
 10
2530
 20
665
 11
1720
 21
665
  0
LINE
  8
ADD_LINE
  6
DOT
 62
    9
 10
1720
 20
1225
 11
1720
 21
665
  0
LINE
  8
ADD_LINE
  6
DOT
 62
    9
 10
1720
 20
1225
 11
2530
 21
1225
  0
LINE
  8
ADD_LINE
  6
DOT
 62
    9
 10
3100
 20
665
 11
3910
 21
665
  0
LINE
  8
ADD_LINE
  6
DOT
 62
    9
 10
3910
 20
1225
 11
3100
 21
1225
  0
LINE
  8
ADD_LINE
  6
DOT
 62
    9
 10
3910
 20
1225
 11
3910
 21
665
  0
LINE
  8
ADD_LINE
  6
DOT
 62
    9
 10
3100
 20
1225
 11
3100
 21
666.67021276595744
  0
LINE
  8
ADD_LINE
  6
DOT
 62
    9
 10
3100
 20
666.67021276595744
 11
3100
 21
665
  0
LINE
  8
ADD_LINE
  6
DOT
 62
    9
 10
3060
 20
665
 11
3060
 21
602.96113536658481
  0
LINE
  8
ADD_LINE
  6
DOT
 62
    9
 10
2570
 20
665
 11
2570
 21
602.96113536658481
  0
LINE
  8
ADD_LINE
  6
DOT
 62
    9
 10
2980
 20
665
 11
2980
 21
602.96113536658481
  0
LINE
  8
ADD_LINE
  6
DOT
 62
    9
 10
2650
 20
665
 11
2650
 21
602.96113536658481
  0
LINE
  8
_e-0_
  6
CONTINUOUS
 62
    7
 10
2243.7859302690862
 20
199.51965480360598
 11
2272.9339284698526
 21
210.12865853712995
  0
LINE
  8
_e-0_
  6
CONTINUOUS
 62
    7
 10
2237.6336615052869
 20
191.95952323799758
 11
2287.5529504706664
 21
210.12865853712895
  0
LINE
  8
_e-0_
  6
CONTINUOUS
 62
    7
 10
2234.2067375789874
 20
185.39133607135255
 11
2263.8643430051365
 21
196.18582166608263
  0
LINE
  8
_e-0_
  6
CONTINUOUS
 62
    7
 10
2232.2119570371696
 20
179.34440646785787
 11
2253.9586582709303
 21
187.25955841042662
  0
LINE
  8
_e-0_
  6
CONTINUOUS
 62
    7
 10
2231.2024514117433
 20
173.65608760649877
 11
2249.4574587956462
 21
180.3003669205492
  0
LINE
  8
_e-0_
  6
CONTINUOUS
 62
    7
 10
2230.9649088875535
 20
168.248740335938
 11
2249.3748102388385
 21
174.94939644358311
  0
LINE
  8
_e-0_
  6
CONTINUOUS
 62
    7
 10
2231.3837497438626
 20
163.08029707814966
 11
2249.8286640768283
 21
169.79369686893903
  0
LINE
  8
_e-0_
  6
CONTINUOUS
 62
    7
 10
2232.3950068941753
 20
158.12747571767488
 11
2251.269568818267
 21
164.99725444285843
  0
LINE
  8
_e-0_
  6
CONTINUOUS
 62
    7
 10
2233.9675550564961
 20
153.37894757832998
 11
2253.6625167678698
 21
160.54732740628253
  0
LINE
  8
_e-0_
  6
CONTINUOUS
 62
    7
 10
2236.0955302019183
 20
148.83257832814223
 11
2257.099910488102
 21
156.47754754152117
  0
LINE
  8
_e-0_
  6
CONTINUOUS
 62
    7
 10
2238.7970089264299
 20
144.49494730998821
 11
2261.880116002736
 21
152.89651120014326
  0
LINE
  8
_e-0_
  6
CONTINUOUS
 62
    7
 10
2242.1181877425701
 20
140.38286867935909
 11
2268.9468388985251
 21
150.14769912563821
  0
LINE
  8
_e-0_
  6
CONTINUOUS
 62
    7
 10
2246.1455691824353
 20
136.52782678312661
 11
2284.5651405528205
 21
150.51140717521263
  0
LINE
  8
_e-0_
  6
CONTINUOUS
 62
    7
 10
2251.0351047702797
 20
132.98658333410969
 11
2279.1844822576495
 21
143.2321188526356
  0
LINE
  8
_e-0_
  6
CONTINUOUS
 62
    7
 10
2279.5849322183671
 20
201.90764820482513
 11
2302.1719724714803
 21
210.12865853713066
  0
LINE
  8
_e-0_
  6
CONTINUOUS
 62
    7
 10
2260.5624543087296
 20
189.663143601351
 11
2313.0511299164636
 21
208.76745915862059
  0
LINE
  8
_e-0_
  6
CONTINUOUS
 62
    7
 10
2273.0696188494734
 20
188.89449034687174
 11
2313.0511299164636
 21
203.44657029624102
  0
LINE
  8
_e-0_
  6
CONTINUOUS
 62
    7
 10
2287.6886408502887
 20
188.89449034687174
 11
2313.0511299164636
 21
198.12568143386158
  0
LINE
  8
_e-0_
  6
CONTINUOUS
 62
    7
 10
2291.8751463425487
 20
185.09736486926669
 11
2313.0511299164636
 21
192.80479257148215
  0
LINE
  8
_e-0_
  6
CONTINUOUS
 62
    7
 10
2291.8751463425487
 20
179.77647600688726
 11
2313.0511299164636
 21
187.48390370910215
  0
LINE
  8
_e-0_
  6
CONTINUOUS
 62
    7
 10
2291.8751463425487
 20
174.45558714450783
 11
2313.0511299164636
 21
182.16301484672271
  0
LINE
  8
_e-0_
  6
CONTINUOUS
 62
    7
 10
2291.8751463425487
 20
169.13469828212839
 11
2313.0511299164636
 21
176.84212598434328
  0
LINE
  8
_e-0_
  6
CONTINUOUS
 62
    7
 10
2291.8008475696451
 20
163.78676687796939
 11
2313.0511299164636
 21
171.52123712196384
  0
LINE
  8
_e-0_
  6
CONTINUOUS
 62
    7
 10
2290.6539909363364
 20
158.04845633809463
 11
2313.0511299164636
 21
166.20034825958413
  0
LINE
  8
_e-0_
  6
CONTINUOUS
 62
    7
 10
2288.3949962857823
 20
151.90536066354695
 11
2313.0511299164636
 21
160.87945939720469
  0
LINE
  8
_e-0_
  6
CONTINUOUS
 62
    7
 10
2284.4003861827632
 20
145.13055262616916
 11
2311.8608666367176
 21
155.12535013005759
  0
LINE
  8
_e-0_
  6
CONTINUOUS
 62
    7
 10
2275.7463468865153
 20
136.65985105378524
 11
2309.0387712913652
 21
148.77730256370853
  0
LINE
  8
_e-0_
  6
CONTINUOUS
 62
    7
 10
2266.9791201478205
 20
128.14795262145821
 11
2304.1703780821812
 21
141.68446348448242
  0
LINE
  8
_e-0_
  6
CONTINUOUS
 62
    7
 10
2282.1376414569663
 20
128.34431431109749
 11
2292.7244583873175
 21
132.19760054937069
  0
LINE
  8
_e-0_
  6
CONTINUOUS
 62
    3
 10
2266.4464672734898
 20
197.56612819678281
 11
2262.3244734593249
 21
194.75680664380121
  0
LINE
  8
_e-0_
  6
CONTINUOUS
 62
    3
 10
2282.3868421919432
 20
128.14795262145651
 11
2266.9204010401704
 21
128.14795262145651
  0
ARC
  8
_e-0_
  6
CONTINUOUS
 62
    3
 10
2282.3868421919432
 20
133.14795262145651
 40
5
 50
270
 51
286.20399351045659
  0
LINE
  8
_e-0_
  6
CONTINUOUS
 62
    3
 10
2313.2288608412613
 20
210.12865853712895
 11
2313.2288608412613
 21
159.77346730566921
  0
ARC
  8
_e-0_
  6
CONTINUOUS
 62
    3
 10
2271.9221657766447
 20
169.15823653484835
 40
42.5
 50
286.20399351045648
 51
345.50707147989851
  0
ARC
  8
_e-0_
  6
CONTINUOUS
 62
    3
 10
2308.2288608412613
 20
159.77346730566921
 40
5
 50
345.50707147989879
 51
0.0000000000000159
  0
ARC
  8
_e-0_
  6
CONTINUOUS
 62
    3
 10
2250.0927387377205
 20
170.4956084628958
 40
40
 50
279.71265316664215
 51
332.69093929010892
  0
ARC
  8
_e-0_
  6
CONTINUOUS
 62
    3
 10
2255.9974857549714
 20
135.99729020443191
 40
5
 50
241.9452628118
 51
279.71265316664221
  0
ARC
  8
_e-0_
  6
CONTINUOUS
 62
    3
 10
2263.2643122966178
 20
205.12865853712895
 40
5
 50
90
 51
106.05338143786269
  0
LINE
  8
_e-0_
  6
CONTINUOUS
 62
    3
 10
2288.4334989152221
 20
210.12865853712881
 11
2278.2181989551913
 21
205.24067691222057
  0
LINE
  8
_e-0_
  6
CONTINUOUS
 62
    3
 10
2278.2181989551913
 20
205.24067691222057
 11
2272.2994583375816
 21
201.4444897898403
  0
LINE
  8
_e-0_
  6
CONTINUOUS
 62
    3
 10
2266.4464672734898
 20
197.56612819678252
 11
2272.2994583375816
 21
201.4444897898403
  0
ARC
  8
_e-0_
  6
CONTINUOUS
 62
    3
 10
2263.2643122966178
 20
205.12865853712895
 40
5
 50
90
 51
106.05338143786269
  0
ARC
  8
_e-0_
  6
CONTINUOUS
 62
    3
 10
2263.2643122966178
 20
205.12865853712895
 40
5
 50
90
 51
106.05338143786269
  0
LINE
  8
_e-0_
  6
CONTINUOUS
 62
    3
 10
2288.4334989152221
 20
210.12865853712895
 11
2263.2643122966178
 21
210.12865853712895
  0
ARC
  8
_e-0_
  6
CONTINUOUS
 62
    3
 10
2273.6342932765642
 20
169.09099082020304
 40
42.5
 50
106.05338143786271
 51
241.94526281180051
  0
ARC
  8
_e-0_
  6
CONTINUOUS
 62
    3
 10
2263.2643122966178
 20
205.12865853712895
 40
5
 50
90
 51
106.05338143786269
  0
LINE
  8
_e-0_
  6
CONTINUOUS
 62
    3
 10
2299.1719829458552
 20
210.12865853712895
 11
2313.2288608412613
 21
210.12865853712895
  0
ARC
  8
_e-0_
  6
CONTINUOUS
 62
    3
 10
2299.1719829458552
 20
205.12865853712895
 40
5
 50
90
 51
112.84552721528329
  0
LINE
  8
_e-0_
  6
CONTINUOUS
 62
    3
 10
2292.0528772673465
 20
188.89449034687004
 11
2269.0173546029673
 21
188.89449034687004
  0
ARC
  8
_e-0_
  6
CONTINUOUS
 62
    3
 10
2269.0173546029673
 20
183.89449034687004
 40
5
 50
90
 51
110.93110431809542
  0
ARC
  8
_e-0_
  6
CONTINUOUS
 62
    3
 10
2254.2292662802574
 20
177.70386452217394
 40
0.5
 50
165.368776721252
 51
224.67319701305797
  0
LINE
  8
_e-0_
  6
CONTINUOUS
 62
    3
 10
2253.8737020580624
 20
177.3523334653737
 11
2253.6837582739271
 21
177.54445650133447
  0
ARC
  8
_e-0_
  6
CONTINUOUS
 62
    3
 10
2276.1622566207875
 20
165.2142768803236
 40
25
 50
110.93110431809527
 51
150.17701829297226
  0
ARC
  8
_e-0_
  6
CONTINUOUS
 62
    3
 10
2254.0393224961217
 20
177.89598755813472
 40
0.5
 50
224.67319701305652
 51
330.17701829297561
  0
LINE
  8
_e-0_
  6
CONTINUOUS
 62
    3
 10
2297.2307430642558
 20
209.73643324104926
 11
2283.5233941157548
 21
203.96157353985984
  0
LINE
  8
_e-0_
  6
CONTINUOUS
 62
    3
 10
2283.5233941157548
 20
203.96157353985984
 11
2277.114528385443
 21
200.4613679180602
  0
ARC
  8
_e-0_
  6
CONTINUOUS
 62
    3
 10
2277.9347719955744
 20
171.51524603489747
 40
25
 50
126.05682261028304
 51
165.36877672125814
  0
ARC
  8
_e-0_
  6
CONTINUOUS
 62
    3
 10
2322.0287923520791
 20
111.11536133502738
 40
100
 50
116.6886898974924
 51
126.03335467187628
  0
LINE
  8
_e-0_
  6
CONTINUOUS
 62
    3
 10
2262.3244734593245
 20
194.75680664380149
 11
2254.3560414411385
 21
187.50185893935451
  0
LINE
  8
_e-0_
  6
CONTINUOUS
 62
    3
 10
2254.3560414411385
 20
187.50185893935451
 11
2252.5108960046536
 21
185.36863764275494
  0
ARC
  8
_e-0_
  6
CONTINUOUS
 62
    3
 10
2274.5493829743445
 20
174.5520307550089
 40
25
 50
169.07329675873063
 51
296.32138326661799
  0
LINE
  8
_e-0_
  6
CONTINUOUS
 62
    3
 10
2252.5108960046541
 20
185.36863764275494
 11
2250.002621066113
 21
179.29085759512361
  0
LINE
  8
_e-0_
  6
CONTINUOUS
 62
    3
 10
2292.0528772673465
 20
188.89449034687004
 11
2292.0528772673465
 21
164.42425885831653
  0
ARC
  8
_e-0_
  6
CONTINUOUS
 62
    3
 10
2277.2840925230507
 20
144.13090983307199
 40
5
 50
311.4163090429962
 51
326.13300916724881
  0
ARC
  8
_e-0_
  6
CONTINUOUS
 62
    3
 10
2252.285941088533
 20
168.73596234419835
 40
40
 50
316.78132524618342
 51
353.81191653224226
  0
ARC
  8
_e-0_
  6
CONTINUOUS
 62
    3
 10
2240.9001979970053
 20
185.376663785662
 40
60
 50
294.69555798319504
 51
311.41630904299643
  0
ARC
  8
_e-0_
  6
CONTINUOUS
 62
    3
 10
2271.9268153318698
 20
202.98067150791609
 40
75
 50
264.68313230529076
 51
266.17253517307824
  0
ARC
  8
_e-0_
  6
CONTINUOUS
 62
    3
 10
2265.0233680716155
 20
128.80121063143832
 40
0.5
 50
174.02086603460466
 51
264.68313230528985
  0
ARC
  8
_e-0_
  6
CONTINUOUS
 62
    3
 10
2267.0124878650103
 20
128.59287809071872
 40
2.5
 50
114.69555798319522
 51
174.02086603461154
  0
LINE
  8
_e-0_
  6
CONTINUOUS
 62
    7
 10
2376.8899919095943
 20
169.43032024062034
 11
2388.2618909747961
 21
173.56935300743344
  0
LINE
  8
_e-0_
  6
CONTINUOUS
 62
    3
 10
2436.2585234464268
 20
162.63312492519389
 11
2436.2585234464268
 21
136.49018622829544
  0
CIRCLE
  8
_e-0_
  6
CONTINUOUS
 62
    3
 10
2365.5167430510387
 20
162.46293449130519
 40
13.33773795583065
  0
CIRCLE
  8
_e-0_
  6
CONTINUOUS
 62
    3
 10
2365.2330256036634
 20
162.17921704393006
 40
25.691707563897665
  0
LINE
  8
_e-0_
  6
CONTINUOUS
 62
    3
 10
2399.4939617252575
 20
188.26250382114977
 11
2399.4939617252575
 21
136.49018622829544
  0
LINE
  8
_e-0_
  6
CONTINUOUS
 62
    3
 10
2399.4939617252575
 20
136.49018622829544
 11
2414.856930753669
 21
136.49018622829544
  0
LINE
  8
_e-0_
  6
CONTINUOUS
 62
    3
 10
2414.856930753669
 20
136.49018622829544
 11
2414.856930753669
 21
172.63312492519389
  0
LINE
  8
_e-0_
  6
CONTINUOUS
 62
    3
 10
2451.1774760289304
 20
136.49018622829544
 11
2436.2585234464268
 21
136.49018622829544
  0
LINE
  8
_e-0_
  6
CONTINUOUS
 62
    3
 10
2426.2585234464268
 20
172.63312492519389
 11
2414.856930753669
 21
172.63312492519389
  0
ARC
  8
_e-0_
  6
CONTINUOUS
 62
    3
 10
2426.2585234464268
 20
162.63312492519389
 40
10
 50
0
 51
90
  0
LINE
  8
_e-0_
  6
CONTINUOUS
 62
    3
 10
2426.1774760289299
 20
188.26250382114977
 11
2399.4939617252575
 21
188.26250382114977
  0
LINE
  8
_e-0_
  6
CONTINUOUS
 62
    3
 10
2451.1774760289304
 20
163.26250382114977
 11
2451.1774760289304
 21
136.49018622829544
  0
ARC
  8
_e-0_
  6
CONTINUOUS
 62
    3
 10
2426.1774760289299
 20
163.26250382114977
 40
25
 50
0
 51
90
  0
ARC
  8
_e-0_
  6
CONTINUOUS
 62
    3
 10
2486.2452606175233
 20
162.17653762406428
 40
13.33773795583065
 50
23.422555400004949
 51
97.191484740792631
  0
LINE
  8
_e-0_
  6
CONTINUOUS
 62
    3
 10
2474.0065761310629
 20
167.47841048365671
 11
2498.4839451039833
 21
167.47841048365671
  0
ARC
  8
_e-0_
  6
CONTINUOUS
 62
    3
 10
2486.2452606175233
 20
162.17653762406428
 40
13.33773795583065
 50
92.530763017635251
 51
156.57744459999506
  0
ARC
  8
_e-0_
  6
CONTINUOUS
 62
    3
 10
2486.2452606175233
 20
162.17653762406428
 40
13.33773795583065
 50
204.21097500392608
 51
316.0067678116265
  0
LINE
  8
_e-0_
  6
CONTINUOUS
 62
    3
 10
2474.0806890359867
 20
156.70676139316753
 11
2511.5200753562385
 21
156.70676139316753
  0
LINE
  8
_e-0_
  6
CONTINUOUS
 62
    3
 10
2495.8407207162626
 20
152.91249966689292
 11
2508.7092412098891
 21
149.78943472664496
  0
ARC
  8
_e-0_
  6
CONTINUOUS
 62
    3
 10
2486.5655867677851
 20
162.8171899245882
 40
25.691707563897665
 50
346.24110979921471
 51
329.53046432565099
  0
ARC
  8
_e-0_
  6
CONTINUOUS
 62
    3
 10
2546.5135590423406
 20
162.14309845353909
 40
11.089756641867943
 50
94.502189492040685
 51
357.22978420280037
  0
LINE
  8
_e-0_
  6
CONTINUOUS
 62
    3
 10
2556.5903561511468
 20
173.19863581905565
 11
2545.6430442891501
 21
173.19863581905565
  0
LINE
  8
_e-0_
  6
CONTINUOUS
 62
    3
 10
2557.5903561511468
 20
172.19863581905599
 11
2557.5903561511468
 21
161.60712439988742
  0
ARC
  8
_e-0_
  6
CONTINUOUS
 62
    3
 10
2556.5903561511468
 20
172.19863581905599
 40
1
 50
0
 51
90
  0
LINE
  8
_e-0_
  6
CONTINUOUS
 62
    3
 10
2548.9703457355517
 20
188.29058742736094
 11
2557.3930775458175
 21
188.29058742736094
  0
ARC
  8
_e-0_
  6
CONTINUOUS
 62
    3
 10
2546.9662856612039
 20
162.67716163604518
 40
25.691707563897665
 50
85.526146014136969
 51
347.40557840019874
  0
LINE
  8
_e-0_
  6
CONTINUOUS
 62
    3
 10
2557.3930775458175
 20
209.12865853712901
 11
2557.3930775458175
 21
188.29058742736094
  0
ARC
  8
_e-0_
  6
CONTINUOUS
 62
    3
 10
2558.3930775458175
 20
209.12865853712901
 40
1
 50
90
 51
180
  0
LINE
  8
_e-0_
  6
CONTINUOUS
 62
    3
 10
2572.0397992563612
 20
209.12865853712901
 11
2572.0397992563612
 21
157.07513043814088
  0
LINE
  8
_e-0_
  6
CONTINUOUS
 62
    3
 10
2571.0397992563616
 20
210.12865853712895
 11
2558.3930775458175
 21
210.12865853712895
  0
ARC
  8
_e-0_
  6
CONTINUOUS
 62
    3
 10
2571.0397992563616
 20
209.12865853712901
 40
1
 50
0
 51
90
  0
CIRCLE
  8
_e-0_
  6
CONTINUOUS
 62
    3
 10
2607.4932845795829
 20
162.61858771142584
 40
13.33773795583065
  0
CIRCLE
  8
_e-0_
  6
CONTINUOUS
 62
    3
 10
2607.2095671322085
 20
162.334870264051
 40
25.691707563897665
  0
ARC
  8
_e-0_
  6
CONTINUOUS
 62
    3
 10
2361.3056445788688
 20
183.56108960512415
 40
5
 50
90
 51
106.05338143786269
  0
ARC
  8
_e-0_
  6
CONTINUOUS
 62
    3
 10
2361.3056445788688
 20
183.56108960512415
 40
5
 50
90
 51
106.05338143786269
  0
ARC
  8
_e-0_
  6
CONTINUOUS
 62
    3
 10
2361.3056445788688
 20
183.56108960512415
 40
5
 50
90
 51
106.05338143786269
  0
ARC
  8
_e-0_
  6
CONTINUOUS
 62
    3
 10
2361.3056445788688
 20
183.56108960512415
 40
5
 50
90
 51
106.05338143786269
  0
LINE
  8
_e-0_
  6
CONTINUOUS
 62
    7
 10
2346.3470804331013
 20
179.59716504486777
 11
2368.5044577934554
 21
187.66179087344028
  0
LINE
  8
_e-0_
  6
CONTINUOUS
 62
    7
 10
2361.2415063076145
 20
179.69740385729494
 11
2376.5205845613304
 21
185.25853354867166
  0
LINE
  8
_e-0_
  6
CONTINUOUS
 62
    7
 10
2341.7511550984831
 20
172.60349616177705
 11
2361.2415063076145
 21
179.69740385729494
  0
LINE
  8
_e-0_
  6
CONTINUOUS
 62
    7
 10
2339.9278406436087
 20
166.61897511011602
 11
2357.2356669233163
 21
172.91850869577984
  0
LINE
  8
_e-0_
  6
CONTINUOUS
 62
    7
 10
2339.5613566552269
 20
161.16469698463049
 11
2352.6357267551816
 21
165.92337853279389
  0
LINE
  8
_e-0_
  6
CONTINUOUS
 62
    7
 10
2340.2704529847874
 20
156.10189807943811
 11
2352.3257797311662
 21
160.489678179473
  0
LINE
  8
_e-0_
  6
CONTINUOUS
 62
    7
 10
2341.9204823498939
 20
151.38157079162255
 11
2353.9794571535694
 21
155.77067867592631
  0
LINE
  8
_e-0_
  6
CONTINUOUS
 62
    7
 10
2344.504128974107
 20
147.00105239631881
 11
2357.564943671171
 21
151.75480018131679
  0
LINE
  8
_e-0_
  6
CONTINUOUS
 62
    7
 10
2348.1361647674011
 20
143.00211645248765
 11
2364.9879954656798
 21
149.13568121955449
  0
LINE
  8
_e-0_
  6
CONTINUOUS
 62
    7
 10
2353.1501292054063
 20
139.50616140121155
 11
2375.2534753949121
 21
147.55112149187283
  0
LINE
  8
_e-0_
  6
CONTINUOUS
 62
    7
 10
2360.6217579801264
 20
136.90472301431668
 11
2375.3071030149835
 21
142.24975148693374
  0
LINE
  8
_e-0_
  6
CONTINUOUS
 62
    7
 10
2375.3071030149835
 20
142.24975148693374
 11
2385.0115931457403
 21
145.78189703325932
  0
LINE
  8
_e-0_
  6
CONTINUOUS
 62
    7
 10
2374.4001538198344
 20
147.24053783828736
 11
2389.063020487204
 21
152.57738485422379
  0
LINE
  8
_e-0_
  6
CONTINUOUS
 62
    7
 10
2374.4883804748506
 20
152.59353857696169
 11
2390.6567834919524
 21
158.47835601080646
  0
LINE
  8
_e-0_
  6
CONTINUOUS
 62
    7
 10
2378.4912308361026
 20
159.37134582305873
 11
2390.8686178519897
 21
163.87634627483464
  0
LINE
  8
_e-0_
  6
CONTINUOUS
 62
    7
 10
2378.6565159204478
 20
164.75239353630797
 11
2390.0320630429459
 21
168.89275408738967
  0
LINE
  8
_e-0_
  6
CONTINUOUS
 62
    7
 10
2365.1397018509305
 20
175.7953421400316
 11
2381.7641004494612
 21
181.84612839247364
  0
LINE
  8
_e-0_
  6
CONTINUOUS
 62
    7
 10
2373.159843452322
 20
173.39354609515908
 11
2385.5507858710998
 21
177.90348031010012
  0
LINE
  8
_e-0_
  6
CONTINUOUS
 62
    7
 10
2399.4939617252575
 20
182.97838129215278
 11
2414.0119690553087
 21
188.26250382114977
  0
LINE
  8
_e-0_
  6
CONTINUOUS
 62
    7
 10
2399.4939617252575
 20
177.65749242977335
 11
2428.3670442872125
 21
188.16643505383524
  0
LINE
  8
_e-0_
  6
CONTINUOUS
 62
    7
 10
2399.4939617252575
 20
172.33660356739392
 11
2436.7743097980664
 21
185.90554058897964
  0
LINE
  8
_e-0_
  6
CONTINUOUS
 62
    7
 10
2399.4939617252575
 20
167.01571470501448
 11
2442.1110032081055
 21
182.52704927725858
  0
LINE
  8
_e-0_
  6
CONTINUOUS
 62
    7
 10
2399.4939617252575
 20
161.69482584263505
 11
2414.856930753669
 21
167.28648927893004
  0
LINE
  8
_e-0_
  6
CONTINUOUS
 62
    7
 10
2428.7090082786239
 20
172.32823318076128
 11
2445.9244086202584
 21
178.5941264760919
  0
LINE
  8
_e-0_
  6
CONTINUOUS
 62
    7
 10
2399.4939617252575
 20
156.37393698025562
 11
2414.856930753669
 21
161.96560041655061
  0
LINE
  8
_e-0_
  6
CONTINUOUS
 62
    7
 10
2403.3398935234458
 20
136.49018622829544
 11
2414.856930753669
 21
140.68204496703231
  0
LINE
  8
_e-0_
  6
CONTINUOUS
 62
    7
 10
2399.4939617252575
 20
140.41127039311675
 11
2414.856930753669
 21
146.00293382941202
  0
LINE
  8
_e-0_
  6
CONTINUOUS
 62
    7
 10
2399.4939617252575
 20
145.73215925549646
 11
2414.856930753669
 21
151.32382269179146
  0
LINE
  8
_e-0_
  6
CONTINUOUS
 62
    7
 10
2399.4939617252575
 20
151.0530481178759
 11
2414.856930753669
 21
156.64471155417118
  0
LINE
  8
_e-0_
  6
CONTINUOUS
 62
    7
 10
2436.2585234464268
 20
159.113365397844
 11
2451.1774760289304
 21
164.5434200643038
  0
LINE
  8
_e-0_
  6
CONTINUOUS
 62
    7
 10
2436.2585234464268
 20
153.79247653546485
 11
2451.1774760289304
 21
159.22253120192465
  0
LINE
  8
_e-0_
  6
CONTINUOUS
 62
    7
 10
2436.105047565391
 20
164.37839360784892
 11
2450.3687179376247
 21
169.56994505472636
  0
LINE
  8
_e-0_
  6
CONTINUOUS
 62
    7
 10
2436.2585234464268
 20
148.47158767308542
 11
2451.1774760289304
 21
153.90164233954521
  0
LINE
  8
_e-0_
  6
CONTINUOUS
 62
    7
 10
2436.2585234464268
 20
143.1506988107057
 11
2451.1774760289304
 21
148.5807534771655
  0
LINE
  8
_e-0_
  6
CONTINUOUS
 62
    7
 10
2436.2585234464268
 20
137.82980994832598
 11
2451.1774760289304
 21
143.25986461478606
  0
LINE
  8
_e-0_
  6
CONTINUOUS
 62
    7
 10
2447.1969595258929
 20
136.49018622829544
 11
2451.1774760289304
 21
137.93897575240634
  0
LINE
  8
_e-0_
  6
CONTINUOUS
 62
    7
 10
2434.0189024056153
 20
168.93998772771169
 11
2448.6296862431445
 21
174.25787814386978
  0
LINE
  8
_e-0_
  6
CONTINUOUS
 62
    7
 10
2469.1883842563338
 20
181.74063227593791
 11
2487.7135419125711
 21
188.48323824789645
  0
LINE
  8
_e-0_
  6
CONTINUOUS
 62
    7
 10
2463.6316388937825
 20
174.39725350219305
 11
2496.6904887083792
 21
186.42969081378254
  0
LINE
  8
_e-0_
  6
CONTINUOUS
 62
    7
 10
2461.4628990865917
 20
168.28700790412767
 11
2502.2794299488264
 21
183.14301020398858
  0
LINE
  8
_e-0_
  6
CONTINUOUS
 62
    7
 10
2461.4992419870632
 20
162.97934677574687
 11
2473.9894671720021
 21
167.52541696234658
  0
LINE
  8
_e-0_
  6
CONTINUOUS
 62
    7
 10
2492.1508316310541
 20
174.13561303910114
 11
2506.2885679576884
 21
179.28132824190015
  0
LINE
  8
_e-0_
  6
CONTINUOUS
 62
    7
 10
2496.6927278595248
 20
170.46783921101109
 11
2509.1784918759253
 21
175.01228566505261
  0
LINE
  8
_e-0_
  6
CONTINUOUS
 62
    7
 10
2463.2093427036916
 20
158.28088367181749
 11
2488.4793399340492
 21
167.47841048365671
  0
LINE
  8
_e-0_
  6
CONTINUOUS
 62
    7
 10
2462.8888794596255
 20
152.84335572742151
 11
2511.1140538755621
 21
170.39588375711787
  0
LINE
  8
_e-0_
  6
CONTINUOUS
 62
    7
 10
2465.300291731432
 20
148.400149154524
 11
2476.9283430630944
 21
152.63241372176821
  0
LINE
  8
_e-0_
  6
CONTINUOUS
 62
    7
 10
2488.1225212892722
 20
156.70676139316753
 11
2512.1228430370119
 21
165.44216412215632
  0
LINE
  8
_e-0_
  6
CONTINUOUS
 62
    7
 10
2502.7415432900879
 20
156.70676139316753
 11
2512.1151621126959
 21
160.11847963195407
  0
LINE
  8
_e-0_
  6
CONTINUOUS
 62
    7
 10
2468.7281740890052
 20
144.32690743686691
 11
2482.5550140975401
 21
149.35946563393486
  0
LINE
  8
_e-0_
  6
CONTINUOUS
 62
    7
 10
2473.4508580764295
 20
140.72493497175571
 11
2502.4973614552445
 21
151.29699761115659
  0
LINE
  8
_e-0_
  6
CONTINUOUS
 62
    7
 10
2480.3069495598269
 20
137.89945933273884
 11
2507.3767895083869
 21
147.75207532036432
  0
LINE
  8
_e-0_
  6
CONTINUOUS
 62
    7
 10
2552.6231690921717
 20
137.61596638527407
 11
2558.7418873346696
 21
139.84299769740459
  0
LINE
  8
_e-0_
  6
CONTINUOUS
 62
    7
 10
2539.4012676014826
 20
138.12447666464265
 11
2568.5435873921023
 21
148.73141362589478
  0
LINE
  8
_e-0_
  6
CONTINUOUS
 62
    7
 10
2532.9976800904732
 20
141.11465028049622
 11
2571.5269734698549
 21
155.13816621790056
  0
LINE
  8
_e-0_
  6
CONTINUOUS
 62
    7
 10
2522.081864354775
 20
169.06695144424446
 11
2572.0397992563612
 21
187.25015271383
  0
LINE
  8
_e-0_
  6
CONTINUOUS
 62
    7
 10
2524.5896829795606
 20
175.30061163898437
 11
2572.0397992563612
 21
192.57104157620943
  0
LINE
  8
_e-0_
  6
CONTINUOUS
 62
    7
 10
2557.3930775458175
 20
208.52362629350906
 11
2561.8028673926596
 21
210.12865853712895
  0
LINE
  8
_e-0_
  6
CONTINUOUS
 62
    7
 10
2557.3930775458175
 20
203.20273743112977
 11
2572.0397992563612
 21
208.53370816334788
  0
LINE
  8
_e-0_
  6
CONTINUOUS
 62
    7
 10
2557.3930775458175
 20
197.88184856875005
 11
2572.0397992563612
 21
203.21281930096859
  0
LINE
  8
_e-0_
  6
CONTINUOUS
 62
    7
 10
2557.3930775458175
 20
192.56095970637034
 11
2572.0397992563612
 21
197.89193043858915
  0
LINE
  8
_e-0_
  6
CONTINUOUS
 62
    7
 10
2531.3600319802562
 20
183.08570601321093
 11
2545.8030101140193
 21
188.34252014805827
  0
LINE
  8
_e-0_
  6
CONTINUOUS
 62
    7
 10
2548.0525958796984
 20
173.19863581905565
 11
2572.0397992563612
 21
181.92926385145057
  0
LINE
  8
_e-0_
  6
CONTINUOUS
 62
    7
 10
2521.2864022906337
 20
163.45653806802943
 11
2538.3752084417083
 21
169.67635484616607
  0
LINE
  8
_e-0_
  6
CONTINUOUS
 62
    7
 10
2521.6554107736333
 20
158.26995730965364
 11
2535.4846691325356
 21
163.30339571427089
  0
LINE
  8
_e-0_
  6
CONTINUOUS
 62
    7
 10
2522.9940114609526
 20
153.43627925302655
 11
2536.1404517985765
 21
158.22119222247806
  0
LINE
  8
_e-0_
  6
CONTINUOUS
 62
    7
 10
2525.2563435788042
 20
148.93881194156961
 11
2539.0354883761397
 21
153.95401050144357
  0
LINE
  8
_e-0_
  6
CONTINUOUS
 62
    7
 10
2528.5117312327797
 20
144.80278728623488
 11
2545.7561370732087
 21
151.07923771975691
  0
LINE
  8
_e-0_
  6
CONTINUOUS
 62
    7
 10
2554.2054905278623
 20
154.15455087604527
 11
2572.0397992563612
 21
160.64570840193255
  0
LINE
  8
_e-0_
  6
CONTINUOUS
 62
    7
 10
2557.505937791675
 20
160.67670430221767
 11
2572.0397992563612
 21
165.96659726431198
  0
LINE
  8
_e-0_
  6
CONTINUOUS
 62
    7
 10
2557.5903561511468
 20
166.02831893467055
 11
2572.0397992563612
 21
171.28748612669141
  0
LINE
  8
_e-0_
  6
CONTINUOUS
 62
    7
 10
2557.5903561511468
 20
171.34920779704998
 11
2572.0397992563612
 21
176.60837498907085
  0
LINE
  8
_e-0_
  6
CONTINUOUS
 62
    7
 10
2595.1467628188602
 20
185.01862193009401
 11
2601.869376832742
 21
187.46545332760774
  0
LINE
  8
_e-0_
  6
CONTINUOUS
 62
    7
 10
2585.5936460434281
 20
176.22068291698809
 11
2614.8426950414304
 21
186.86646613285404
  0
LINE
  8
_e-0_
  6
CONTINUOUS
 62
    7
 10
2608.5181174973608
 20
136.67650840108905
 11
2622.7000364868072
 21
141.83830477802189
  0
LINE
  8
_e-0_
  6
CONTINUOUS
 62
    7
 10
2598.2444761483161
 20
138.25809761488983
 11
2629.5534764025951
 21
149.65364177207987
  0
LINE
  8
_e-0_
  6
CONTINUOUS
 62
    7
 10
2582.6330921261528
 20
169.82224055178022
 11
2621.2234503919626
 21
183.86798229020314
  0
LINE
  8
_e-0_
  6
CONTINUOUS
 62
    7
 10
2592.2968185805402
 20
141.41421615899105
 11
2632.0809325371146
 21
155.89444943583799
  0
LINE
  8
_e-0_
  6
CONTINUOUS
 62
    7
 10
2588.0695495912832
 20
145.19650493704432
 11
2602.246111940276
 21
150.35635165629656
  0
LINE
  8
_e-0_
  6
CONTINUOUS
 62
    7
 10
2585.0094293819529
 20
149.40360112995108
 11
2597.3909335115822
 21
153.91010008858017
  0
LINE
  8
_e-0_
  6
CONTINUOUS
 62
    7
 10
2582.919829983693
 20
153.96393800982366
 11
2594.8695180063709
 21
158.31326875884542
  0
LINE
  8
_e-0_
  6
CONTINUOUS
 62
    7
 10
2581.7538748691904
 20
158.86045391603374
 11
2594.1774270088017
 21
163.38225709870641
  0
LINE
  8
_e-0_
  6
CONTINUOUS
 62
    7
 10
2581.5798124660104
 20
164.11798924475078
 11
2595.9853391150813
 21
169.36117215394091
  0
LINE
  8
_e-0_
  6
CONTINUOUS
 62
    7
 10
2611.9748325174678
 20
175.18087181340547
 11
2625.6969314853622
 21
180.17530738937352
  0
LINE
  8
_e-0_
  6
CONTINUOUS
 62
    7
 10
2617.2029460570038
 20
171.76286066078091
 11
2628.9430705154381
 21
176.03591651023151
  0
LINE
  8
_e-0_
  6
CONTINUOUS
 62
    7
 10
2619.9310564926913
 20
167.43492279278257
 11
2631.1973168341919
 21
171.53550620858254
  0
LINE
  8
_e-0_
  6
CONTINUOUS
 62
    7
 10
2620.8298424207368
 20
162.44116525518904
 11
2632.5279188691888
 21
166.69891688059578
  0
LINE
  8
_e-0_
  6
CONTINUOUS
 62
    7
 10
2619.394865425299
 20
156.5979874796136
 11
2632.8880000931144
 21
161.50908686564349
  0
LINE
  8
ADD_LINE
  6
DOT
 62
    9
 10
2339.5613566552269
 20
120
 11
2339.5613566552269
 21
220
  0
LINE
  8
ADD_LINE
  6
DOT
 62
    9
 10
2486.2246783741707
 20
220
 11
2486.2246783741707
 21
120
  0
LINE
  8
ADD_LINE
  6
DOT
 62
    9
 10
2632.8880000931144
 20
120
 11
2632.8880000931144
 21
220
  0
LINE
  8
ADD_LINE
  6
DOT
 62
    9
 10
2220
 20
220
 11
2220
 21
120
  0
LINE
  8
ADD_LINE
  6
DOT
 62
    9
 10
2710
 20
220
 11
2710
 21
120
  0
TEXT
  8
_e-0_
 62
    7
 10
2642.8586825750176
 20
180.56247057449553
 40
35
 41
0.5714285714285713
 50
0
  1
ワンド
  0
TEXT
  8
_e-0_
 62
    7
 10
2649.7045100149039
 20
147.0179161190498
 40
30
 41
0.6666666666666666
 50
0
  1
株式
  0
TEXT
  8
_e-0_
 62
    7
 10
2649.0199272709155
 20
118.95002361551377
 40
30
 41
0.6666666666666666
 50
0
  1
会社
  0
TEXT
  8
_f-8_
 62
    7
 10
682.14353039018646
 20
137.5
 40
45
 41
0.8
 50
0
  1
隅吊り戸棚　高さ５０ｃｍタイプ
  0
TEXT
  8
_f-8_
 62
    7
 10
1553.3936170212766
 20
137.47510034190554
 40
45
 41
0.6666666666666666
 50
0
  1
ＫＴＤ３－５０－７５ＨＮＣ
  0
TEXT
  8
_f-8_
 62
    7
 10
3041.7294787536916
 20
142.70913710986377
 40
35
 41
0.5714285714285713
 50
0
  1
２０２３．０５．０１
  0
TEXT
  8
_f-8_
 62
    7
 10
3582
 20
145
 40
30
 41
0.7333333333333332
 50
0
  1
Ｔ．Ｋ
  0
LINE
  8
_f-8_
  6
CONTINUOUS
 62
    7
 10
2140
 20
2872
 11
2141.15
 21
2874.0000000000004
  0
LINE
  8
_f-8_
  6
CONTINUOUS
 62
    7
 10
2133.6399999999998
 20
2877
 11
2140
 21
2866
  0
LINE
  8
_f-8_
  6
CONTINUOUS
 62
    7
 10
2140
 20
2866
 11
2146.3499999999999
 21
2877
  0
LINE
  8
_f-8_
  6
CONTINUOUS
 62
    7
 10
2140
 20
2860
 11
2151.5399999999999
 21
2880
  0
LINE
  8
_f-8_
  6
CONTINUOUS
 62
    7
 10
2128.4499999999998
 20
2880
 11
2140
 21
2860
  0
LINE
  8
_f-8_
  6
CONTINUOUS
 62
    7
 10
2151.5399999999999
 20
2880
 11
2128.4499999999998
 21
2880
  0
LINE
  8
_f-8_
  6
CONTINUOUS
 62
    7
 10
2138.8400000000001
 20
2874.0000000000004
 11
2140
 21
2872
  0
LINE
  8
_f-8_
  6
CONTINUOUS
 62
    7
 10
2141.15
 20
2874.0000000000004
 11
2138.8400000000001
 21
2874.0000000000004
  0
LINE
  8
_f-8_
  6
CONTINUOUS
 62
    7
 10
2146.3499999999999
 20
2877
 11
2133.6399999999998
 21
2877
  0
LINE
  8
ADD_LINE
  6
DOT
 62
    9
 10
4115
 20
2845
 11
4130
 21
2845
  0
LINE
  8
ADD_LINE
  6
DOT
 62
    9
 10
4130
 20
2845
 11
4130
 21
2860
  0
LINE
  8
ADD_LINE
  6
DOT
 62
    9
 10
4130
 20
2860
 11
4115
 21
2860
  0
LINE
  8
ADD_LINE
  6
DOT
 62
    9
 10
4115
 20
2860
 11
4115
 21
2845
  0
LINE
  8
_0-d_
  6
CONTINUOUS
 62
    7
 10
4115
 20
2284.9999999999995
 11
2834.7428029255934
 21
2284.9999999999995
  0
TEXT
  8
_0-d_
 62
    7
 10
2914.5955739690975
 20
2724.6800031696598
 40
35
 41
0.857142857142857
 50
0
  1
天　板
  0
LINE
  8
_0-d_
  6
CONTINUOUS
 62
    3
 10
4115
 20
2845
 11
2834.7428029255934
 21
2845
  0
TEXT
  8
_0-d_
 62
    7
 10
3280.2433029255939
 20
2795
 40
35
 41
0.857142857142857
 50
0
  1
仕　様
  0
TEXT
  8
_0-d_
 62
    7
 10
3174.7428029255934
 20
2722.4999999999995
 40
35
 41
0.857142857142857
 50
0
  1
片面化粧パーティクルボード　１５ｔ
  0
LINE
  8
_0-d_
  6
CONTINUOUS
 62
    3
 10
2834.7428029255934
 20
2214.9999999999995
 11
4115
 21
2214.9999999999995
  0
LINE
  8
_0-d_
  6
CONTINUOUS
 62
    7
 10
4115
 20
2564.9999999999995
 11
2834.7428029255934
 21
2564.9999999999995
  0
LINE
  8
_0-d_
  6
CONTINUOUS
 62
    7
 10
4115
 20
2494.9999999999995
 11
2834.7428029255934
 21
2494.9999999999995
  0
LINE
  8
_0-d_
  6
CONTINUOUS
 62
    7
 10
4115
 20
2424.9999999999995
 11
2834.7428029255934
 21
2424.9999999999995
  0
LINE
  8
_0-d_
  6
CONTINUOUS
 62
    7
 10
4115
 20
2354.9999999999995
 11
2834.7428029255934
 21
2354.9999999999995
  0
LINE
  8
_0-d_
  6
CONTINUOUS
 62
    7
 10
4115
 20
2634.9999999999995
 11
2834.7428029255934
 21
2634.9999999999995
  0
LINE
  8
_0-d_
  6
CONTINUOUS
 62
    7
 10
4115
 20
2704.9999999999995
 11
2834.7428029255934
 21
2704.9999999999995
  0
LINE
  8
_0-d_
  6
CONTINUOUS
 62
    7
 10
4115
 20
2775
 11
2834.7428029255934
 21
2775
  0
LINE
  8
_0-d_
  6
CONTINUOUS
 62
    7
 10
4115
 20
2780
 11
2834.7428029255934
 21
2780
  0
TEXT
  8
_0-d_
 62
    7
 10
2914.7428029255925
 20
2232.4999999999995
 40
35
 41
0.857142857142857
 50
0
  1
棚　板
  0
TEXT
  8
_0-d_
 62
    7
 10
2914.7428029255925
 20
2302.4999999999995
 40
35
 41
0.857142857142857
 50
0
  1
丁　番
  0
TEXT
  8
_0-d_
 62
    7
 10
2914.7428029255943
 20
2372.4999999999995
 40
35
 41
0.857142857142857
 50
0
  1
　扉
  0
TEXT
  8
_0-d_
 62
    7
 10
2914.7428029255925
 20
2442.4999999999995
 40
35
 41
0.857142857142857
 50
0
  1
背　板
  0
TEXT
  8
_0-d_
 62
    7
 10
2914.7428029255925
 20
2512.4999999999995
 40
35
 41
0.857142857142857
 50
0
  1
見　上　板
  0
TEXT
  8
_0-d_
 62
    7
 10
2914.7428029255925
 20
2652.4999999999995
 40
35
 41
0.857142857142857
 50
0
  1
左　側　板
  0
TEXT
  8
_0-d_
 62
    7
 10
2914.7428029255925
 20
2582.4999999999995
 40
35
 41
0.857142857142857
 50
0
  1
右　側　板
  0
LINE
  8
ADD_LINE
  6
DOT
 62
    9
 10
2835.9793253758125
 20
2812.5
 11
4115
 21
2812.5
  0
LINE
  8
ADD_LINE
  6
DOT
 62
    9
 10
3327.2433029255935
 20
2845
 11
3327.2433029255935
 21
2780
  0
LINE
  8
ADD_LINE
  6
DOT
 62
    9
 10
2837.6083976402992
 20
2739.9999999999995
 11
4115
 21
2739.9999999999995
  0
LINE
  8
ADD_LINE
  6
DOT
 62
    9
 10
2837.6083976402992
 20
2669.9999999999995
 11
4115
 21
2669.9999999999995
  0
LINE
  8
ADD_LINE
  6
DOT
 62
    9
 10
2835.9793253758125
 20
2599.9999999999995
 11
4115
 21
2599.9999999999995
  0
LINE
  8
ADD_LINE
  6
DOT
 62
    9
 10
2835.9793253758125
 20
2529.9999999999995
 11
4115
 21
2529.9999999999995
  0
LINE
  8
ADD_LINE
  6
DOT
 62
    9
 10
2835.9793253758125
 20
2459.9999999999995
 11
4115
 21
2459.9999999999995
  0
LINE
  8
ADD_LINE
  6
DOT
 62
    9
 10
2835.9793253758125
 20
2389.9999999999995
 11
4115
 21
2389.9999999999995
  0
LINE
  8
ADD_LINE
  6
DOT
 62
    9
 10
2835.9793253758125
 20
2319.9999999999995
 11
4115
 21
2319.9999999999995
  0
LINE
  8
ADD_LINE
  6
DOT
 62
    9
 10
2834.7428029255934
 20
2249.9999999999995
 11
4115
 21
2249.9999999999995
  0
LINE
  8
_0-d_
  6
CONTINUOUS
 62
    7
 10
4115
 20
2214.9999999999995
 11
2834.7428029255934
 21
2214.9999999999995
  0
LINE
  8
_0-d_
  6
CONTINUOUS
 62
    3
 10
2834.7428029255934
 20
2144.9999999999995
 11
4115
 21
2144.9999999999995
  0
LINE
  8
ADD_LINE
  6
DOT
 62
    9
 10
2834.7428029255934
 20
2179.9999999999995
 11
4115
 21
2179.9999999999995
  0
LINE
  8
_0-d_
  6
CONTINUOUS
 62
    3
 10
2834.7428029255934
 20
2845
 11
2834.7428029255934
 21
2144.9999999999995
  0
LINE
  8
_0-d_
  6
CONTINUOUS
 62
    3
 10
4115
 20
2845
 11
4115
 21
2144.9999999999995
  0
LINE
  8
_0-d_
  6
CONTINUOUS
 62
    7
 10
3134.7428029255934
 20
2775
 11
3134.7428029255934
 21
2144.9999999999995
  0
LINE
  8
ADD_LINE
  6
DOT
 62
    9
 10
2914.7428029255934
 20
2775
 11
2914.7428029255934
 21
2144.9999999999995
  0
LINE
  8
ADD_LINE
  6
DOT
 62
    9
 10
3174.7428029255934
 20
2775
 11
3174.7428029255934
 21
2144.9999999999995
  0
TEXT
  8
_0-d_
 62
    7
 10
3174.7428029255929
 20
2162.4999999999995
 40
35
 41
0.857142857142857
 50
0
  1
アルミ一文字把手
  0
TEXT
  8
_0-d_
 62
    7
 10
3175.7226805597765
 20
2583.714337742108
 40
35
 41
0.857142857142857
 50
0
  1
低圧メラミン化粧パーティクルボード　１２ｔ
  0
TEXT
  8
_0-d_
 62
    7
 10
3174.7428029255934
 20
2652.4999999999995
 40
35
 41
0.857142857142857
 50
0
  1
低圧メラミン化粧パーティクルボード　１２ｔ
  0
TEXT
  8
_0-d_
 62
    7
 10
3174.7428029255934
 20
2512.4999999999995
 40
35
 41
0.857142857142857
 50
0
  1
低圧メラミン化粧パーティクルボード　１５ｔ
  0
TEXT
  8
_0-d_
 62
    7
 10
3174.7428029255934
 20
2442.4999999999995
 40
35
 41
0.857142857142857
 50
0
  1
カラーＭＤＦ・落とし込み
  0
TEXT
  8
_0-d_
 62
    7
 10
2914.7428029255934
 20
2162.4999999999995
 40
35
 41
0.857142857142857
 50
0
  1
把　手
  0
TEXT
  8
_0-d_
 62
    7
 10
3174.7428029255934
 20
2232.4999999999995
 40
35
 41
0.857142857142857
 50
0
  1
可動式　棚板　１５ｔ
  0
TEXT
  8
_0-d_
 62
    7
 10
3174.7428029255929
 20
2302.4999999999995
 40
35
 41
0.857142857142857
 50
0
  1
ワンタッチスライド式丁番
  0
TEXT
  8
_0-d_
 62
    7
 10
3174.7428029255938
 20
2372.4999999999995
 40
35
 41
0.857142857142857
 50
0
  1
両面化粧パ－ティクルボ－ド　１２ｔ　耐震ラッチ付
  0
TEXT
  8
_0-d_
 62
    7
 10
3860.6210602131609
 20
2079.9999999999995
 40
35
 41
0.857142857142857
 50
0
  1
扉　色
  0
TEXT
  8
_0-d_
 62
    7
 10
3715.7122200188973
 20
2012.4999999999995
 40
35
 41
0.857142857142857
 50
0
  1
ＳＷ
  0
TEXT
  8
_0-d_
 62
    7
 10
3830.24212042632
 20
2012.4999999999995
 40
35
 41
0.857142857142857
 50
0
  1
ホワイト
  0
TEXT
  8
_0-d_
 62
    7
 10
3720.7036754285845
 20
1953.0893268157797
 40
35
 41
0.857142857142857
 50
0
  1
ＬＧ
  0
TEXT
  8
_0-d_
 62
    7
 10
3830.3411143313564
 20
1953.0893268157797
 40
35
 41
0.857142857142857
 50
0
  1
木　　目
  0
TEXT
  8
_0-d_
 62
    7
 10
3715.7122200188973
 20
1887.4999999999988
 40
35
 41
0.857142857142857
 50
0
  1
ＵＷ
  0
TEXT
  8
_0-d_
 62
    7
 10
3830.24212042632
 20
1887.4999999999988
 40
35
 41
0.857142857142857
 50
0
  1
ｳﾙﾄﾗﾎﾜｲﾄ（艶有）
  0
TEXT
  8
_0-d_
 62
    7
 10
3720.7036754285845
 20
1828.0893268157794
 40
35
 41
0.857142857142857
 50
0
  1
ＷＮ
  0
TEXT
  8
_0-d_
 62
    7
 10
3830.24212042632
 20
1827.4999999999988
 40
35
 41
0.857142857142857
 50
0
  1
ｳｨﾝｻﾞｰﾅｯﾄ（艶有）
  0
LINE
  8
ADD_LINE
  6
DOT
 62
    9
 10
3685.2421204263209
 20
2129.9999999999995
 11
3700.2421204263209
 21
2129.9999999999995
  0
LINE
  8
ADD_LINE
  6
DOT
 62
    9
 10
3700.2421204263209
 20
2129.9999999999995
 11
3700.2421204263209
 21
2144.9999999999995
  0
LINE
  8
ADD_LINE
  6
DOT
 62
    9
 10
3700.2421204263209
 20
2144.9999999999995
 11
3685.2421204263209
 21
2144.9999999999995
  0
LINE
  8
ADD_LINE
  6
DOT
 62
    9
 10
3685.2421204263209
 20
2144.9999999999995
 11
3685.2421204263209
 21
2129.9999999999995
  0
LINE
  8
_0-d_
  6
CONTINUOUS
 62
    3
 10
4115
 20
2129.9999999999995
 11
4115
 21
1634.9999999999986
  0
LINE
  8
ADD_LINE
  6
DOT
 62
    9
 10
3830.24212042632
 20
2059.9999999999995
 11
3830.24212042632
 21
1939.9999999999988
  0
LINE
  8
_0-d_
  6
CONTINUOUS
 62
    7
 10
3800.2421204263214
 20
2059.9999999999995
 11
3800.2421204263214
 21
1939.9999999999988
  0
TEXT
  8
_0-d_
 62
    7
 10
3720.7036754285845
 20
1768.0893268157792
 40
35
 41
0.857142857142857
 50
0
  1
ＢＳ
  0
TEXT
  8
_0-d_
 62
    7
 10
3830.341114331356
 20
1768.0893268157792
 40
35
 41
0.857142857142857
 50
0
  1
ブラックストーン
  0
LINE
  8
ADD_LINE
  6
DOT
 62
    9
 10
3750.2421204263214
 20
2059.9999999999995
 11
3750.2421204263214
 21
1939.9999999999988
  0
LINE
  8
_0-d_
  6
CONTINUOUS
 62
    3
 10
3700.2421204263214
 20
2129.9999999999995
 11
3700.2421204263214
 21
1634.9999999999986
  0
LINE
  8
_0-d_
  6
CONTINUOUS
 62
    7
 10
3800.2421204263214
 20
1934.9999999999988
 11
3800.2421204263214
 21
1634.9999999999986
  0
LINE
  8
ADD_LINE
  6
DOT
 62
    9
 10
3830.24212042632
 20
1934.9999999999988
 11
3830.24212042632
 21
1634.9999999999986
  0
LINE
  8
ADD_LINE
  6
DOT
 62
    9
 10
3750.2421204263214
 20
1934.9999999999988
 11
3750.2421204263214
 21
1634.9999999999986
  0
TEXT
  8
_0-d_
 62
    7
 10
3720.7036754285845
 20
1708.0893268157792
 40
35
 41
0.857142857142857
 50
0
  1
ＰＭ
  0
TEXT
  8
_0-d_
 62
    7
 10
3830.3411143313564
 20
1708.0893268157792
 40
35
 41
0.857142857142857
 50
0
  1
ペールグレイン
  0
TEXT
  8
_0-d_
 62
    7
 10
3720.7036754285845
 20
1648.0893268157792
 40
35
 41
0.857142857142857
 50
0
  1
ＭＤ
  0
TEXT
  8
_0-d_
 62
    7
 10
3830.3411143313564
 20
1648.0893268157792
 40
35
 41
0.857142857142857
 50
0
  1
ダークグレイン
  0
LINE
  8
_0-d_
  6
CONTINUOUS
 62
    3
 10
4115
 20
2129.9999999999995
 11
3700.2421204263214
 21
2129.9999999999995
  0
LINE
  8
_0-d_
  6
CONTINUOUS
 62
    3
 10
4115
 20
1634.9999999999986
 11
3700.2421204263214
 21
1634.9999999999986
  0
LINE
  8
_0-d_
  6
CONTINUOUS
 62
    7
 10
3700.2421204263214
 20
1999.9999999999995
 11
4115
 21
1999.9999999999995
  0
LINE
  8
_0-d_
  6
CONTINUOUS
 62
    7
 10
4115
 20
1999.9999999999995
 11
3700.2421204263214
 21
1999.9999999999995
  0
LINE
  8
_0-d_
  6
CONTINUOUS
 62
    3
 10
4115
 20
1999.9999999999995
 11
3700.2421204263214
 21
1999.9999999999995
  0
LINE
  8
_0-d_
  6
CONTINUOUS
 62
    3
 10
4115
 20
1939.9999999999988
 11
3700.2421204263214
 21
1939.9999999999988
  0
LINE
  8
ADD_LINE
  6
DOT
 62
    9
 10
3700.2421204263214
 20
1969.9999999999988
 11
4115
 21
1969.9999999999988
  0
LINE
  8
_0-d_
  6
CONTINUOUS
 62
    7
 10
4115
 20
1874.9999999999988
 11
3700.2421204263214
 21
1874.9999999999988
  0
LINE
  8
_0-d_
  6
CONTINUOUS
 62
    3
 10
4115
 20
1874.9999999999988
 11
3700.2421204263214
 21
1874.9999999999988
  0
LINE
  8
_0-d_
  6
CONTINUOUS
 62
    3
 10
4115
 20
1814.9999999999988
 11
3700.2421204263214
 21
1814.9999999999988
  0
LINE
  8
_0-d_
  6
CONTINUOUS
 62
    7
 10
3700.2421204263214
 20
1874.9999999999988
 11
4115
 21
1874.9999999999988
  0
LINE
  8
_0-d_
  6
CONTINUOUS
 62
    7
 10
4115
 20
1939.9999999999988
 11
3700.2421204263214
 21
1939.9999999999988
  0
LINE
  8
_0-d_
  6
CONTINUOUS
 62
    7
 10
4115
 20
1934.9999999999988
 11
3700.2421204263214
 21
1934.9999999999988
  0
LINE
  8
ADD_LINE
  6
DOT
 62
    9
 10
3700.2421204263214
 20
1904.9999999999988
 11
4115
 21
1904.9999999999988
  0
LINE
  8
ADD_LINE
  6
DOT
 62
    9
 10
3700.2421204263214
 20
1844.9999999999988
 11
4115
 21
1844.9999999999988
  0
LINE
  8
_0-d_
  6
CONTINUOUS
 62
    7
 10
4115
 20
1814.9999999999988
 11
3700.2421204263214
 21
1814.9999999999988
  0
LINE
  8
_0-d_
  6
CONTINUOUS
 62
    3
 10
4115
 20
1814.9999999999988
 11
3700.2421204263214
 21
1814.9999999999988
  0
LINE
  8
_0-d_
  6
CONTINUOUS
 62
    3
 10
4115
 20
1754.9999999999986
 11
3700.2421204263214
 21
1754.9999999999986
  0
LINE
  8
_0-d_
  6
CONTINUOUS
 62
    7
 10
3700.2421204263214
 20
1814.9999999999988
 11
4115
 21
1814.9999999999988
  0
LINE
  8
ADD_LINE
  6
DOT
 62
    9
 10
3700.2421204263214
 20
1784.9999999999986
 11
4115
 21
1784.9999999999986
  0
LINE
  8
_0-d_
  6
CONTINUOUS
 62
    7
 10
4115
 20
1754.9999999999986
 11
3700.2421204263214
 21
1754.9999999999986
  0
LINE
  8
_0-d_
  6
CONTINUOUS
 62
    3
 10
4115
 20
1754.9999999999986
 11
3700.2421204263214
 21
1754.9999999999986
  0
LINE
  8
_0-d_
  6
CONTINUOUS
 62
    3
 10
4115
 20
1694.9999999999986
 11
3700.2421204263214
 21
1694.9999999999986
  0
LINE
  8
_0-d_
  6
CONTINUOUS
 62
    7
 10
3700.2421204263214
 20
1754.9999999999986
 11
4115
 21
1754.9999999999986
  0
LINE
  8
ADD_LINE
  6
DOT
 62
    9
 10
3700.2421204263214
 20
1724.9999999999986
 11
4115
 21
1724.9999999999986
  0
LINE
  8
_0-d_
  6
CONTINUOUS
 62
    7
 10
4115
 20
1694.9999999999986
 11
3700.2421204263214
 21
1694.9999999999986
  0
LINE
  8
_0-d_
  6
CONTINUOUS
 62
    3
 10
4115
 20
1694.9999999999986
 11
3700.2421204263214
 21
1694.9999999999986
  0
LINE
  8
_0-d_
  6
CONTINUOUS
 62
    7
 10
3700.2421204263214
 20
1694.9999999999986
 11
4115
 21
1694.9999999999986
  0
LINE
  8
ADD_LINE
  6
DOT
 62
    9
 10
3700.2421204263214
 20
1664.9999999999986
 11
4115
 21
1664.9999999999986
  0
LINE
  8
ADD_LINE
  6
DOT
 62
    9
 10
3700.2421204263214
 20
2029.9999999999995
 11
4115
 21
2029.9999999999995
  0
LINE
  8
_0-d_
  6
CONTINUOUS
 62
    7
 10
4115
 20
2059.9999999999995
 11
3700.2421204263214
 21
2059.9999999999995
  0
LINE
  8
ADD_LINE
  6
DOT
 62
    9
 10
3700.2421204263214
 20
2097.4999999999995
 11
4115
 21
2097.4999999999995
  0
LINE
  8
_0-d_
  6
CONTINUOUS
 62
    7
 10
4115
 20
2064.9999999999995
 11
3700.2421204263214
 21
2064.9999999999995
  0
LINE
  8
ADD_LINE
  6
DOT
 62
    9
 10
3907.6210602131604
 20
2129.9999999999995
 11
3907.6210602131604
 21
2064.9999999999995
  0
LINE
  8
ADD_LINE
  6
DOT
 62
    9
 10
1720
 20
2650
 11
1690
 21
2650
  0
LINE
  8
ADD_LINE
  6
DOT
 62
    9
 10
1720
 20
2730
 11
1690
 21
2730
  0
LINE
  8
ADD_LINE
  6
DOT
 62
    9
 10
1594.5127935255948
 20
1500.0000000000002
 11
1720
 21
1500.0000000000002
  0
LINE
  8
ADD_LINE
  6
DOT
 62
    9
 10
1594.5127935255948
 20
1580.0000000000002
 11
1750
 21
1580.0000000000002
  0
LINE
  8
ADD_LINE
  6
DOT
 62
    9
 10
1594.5127935255948
 20
1660.0000000000002
 11
1720
 21
1660.0000000000002
  0
LINE
  8
ADD_LINE
  6
DOT
 62
    9
 10
2530
 20
1265
 11
2655.4872064744049
 21
1265
  0
LINE
  8
ADD_LINE
  6
DOT
 62
    9
 10
2530
 20
1345
 11
2655.4872064744049
 21
1345
  0
LINE
  8
ADD_LINE
  6
DOT
 62
    9
 10
2530
 20
1425
 11
2655.4872064744049
 21
1425
  0
LINE
  8
ADD_LINE
  6
DOT
 62
    9
 10
3100
 20
1265
 11
2974.512793525595
 21
1265
  0
LINE
  8
ADD_LINE
  6
DOT
 62
    9
 10
3100
 20
1345
 11
2974.512793525595
 21
1345
  0
LINE
  8
ADD_LINE
  6
DOT
 62
    9
 10
3100
 20
1425
 11
2974.512793525595
 21
1425
  0
LINE
  8
_0-3_
  6
CONTINUOUS
 62
    4
 10
2091.999999999999
 20
1135
 11
2091.999999999999
 21
740
  0
ENDSEC
  0
EOF
