  0
SECTION
  2
HEADER
  9
$ACADVER
  1
AC1009
  9
$INSBASE
 10
0
 20
0
 30
0
  9
$EXTMIN
 10
0
 20
0
  9
$EXTMAX
 10
4200
 20
2970
  9
$LIMMIN
 10
0
 20
0
  9
$LIMMAX
 10
4200
 20
2970
  9
$LTSCALE
 40
10
  0
ENDSEC
  0
SECTION
  2
TABLES
  0
TABLE
  2
LTYPE
 70
     9
  0
LTYPE
  2
CONTINUOUS
 70
    64
  3
実線
 72
    65
 73
     0
 40
0.0
  0
LTYPE
  2
DASHED1
 70
    64
  3
--  --  --  --  --  --  --  --  
 72
    65
 73
     2
 40
2.5
 49
1.25
 49
-1.25
  0
LTYPE
  2
DASHED2
 70
    64
  3
----    ----    ----    ----    
 72
    65
 73
     2
 40
5.0
 49
2.5
 49
-2.5
  0
LTYPE
  2
DASHED3
 70
    64
  3
------  ------  ------  ------  
 72
    65
 73
     2
 40
5.0
 49
3.75
 49
-1.25
  0
LTYPE
  2
CENTER1
 70
    64
  3
----- - ----- - ----- - ----- - 
 72
    65
 73
     4
 40
10.0
 49
6.25
 49
-1.25
 49
1.25
 49
-1.25
  0
LTYPE
  2
CENTER2
 70
    64
  3
----------  --  ----------  --  
 72
    65
 73
     4
 40
20.0
 49
12.5
 49
-2.5
 49
2.5
 49
-2.5
  0
LTYPE
  2
PHANTOM1
 70
    64
  3
--- - - --- - - --- - - --- - - 
 72
    65
 73
     6
 40
10.0
 49
3.25
 49
-1.25
 49
1.25
 49
-1.25
 49
1.25
 49
-1.25
  0
LTYPE
  2
PHANTOM2
 70
    64
  3
--------  -  -  --------  -  -  
 72
    65
 73
     6
 40
20.0
 49
10.0
 49
-2.5
 49
1.25
 49
-2.5
 49
1.25
 49
-2.5
  0
LTYPE
  2
DOT
 70
    64
  3
-   -   -   -   -   -   -   -   
 72
    65
 73
     2
 40
2.5
 49
0.625
 49
-1.875
  0
LTYPE
  2
DUMMY
 70
    64
  3
ダミー
 72
    65
 73
     0
 40
0.0
  0
LTYPE
  2
RAND1
 70
    64
  3
ランダム線1
 72
    65
 73
     4
 40
10.0
 49
1.0
 49
-2.0
 49
3.0
 49
-4.0
  0
LTYPE
  2
RAND2
 70
    64
  3
ランダム線2
 72
    65
 73
     4
 40
14.0
 49
2.0
 49
-3.0
 49
4.0
 49
-5.0
  0
LTYPE
  2
RAND3
 70
    64
  3
ランダム線3
 72
    65
 73
     4
 40
18.0
 49
3.0
 49
-4.0
 49
5.0
 49
-6.0
  0
LTYPE
  2
RAND4
 70
    64
  3
ランダム線4
 72
    65
 73
     4
 40
22.0
 49
4.0
 49
-5.0
 49
6.0
 49
-7.0
  0
LTYPE
  2
RAND5
 70
    64
  3
ランダム線5
 72
    65
 73
     4
 40
26.0
 49
5.0
 49
-6.0
 49
7.0
 49
-8.0
  0
LTYPE
  2
LONG1
 70
    64
  3
----------  --  ----------  --  
 72
    65
 73
     4
 40
40.0
 49
32.5
 49
-2.5
 49
2.5
 49
-2.5
  0
LTYPE
  2
LONG2
 70
    64
  3
--------  -  -  --------  -  -  
 72
    65
 73
     6
 40
40.0
 49
30.0
 49
-2.5
 49
1.25
 49
-2.5
 49
1.25
 49
-2.5
  0
LTYPE
  2
LONG3
 70
    64
  3
+++++++++++++++..+++++++++++++++
 72
    65
 73
     2
 40
40.0
 49
37.5
 49
-2.5
  0
LTYPE
  2
LONG4
 70
    64
  3
+++++++++++++++..+++++++++++++++
 72
    65
 73
     2
 40
80.0
 49
75.0
 49
-5.0
  0
LTYPE
  2
LONG5
 70
    64
  3
----------  --  ----------  --  
 72
    65
 73
     4
 40
60.0
 49
37.5
 49
-7.5
 49
7.5
 49
-7.5
  0
LTYPE
  2
dashed
 70
   64
  3
-------   -------------   ------
 72
   65
 73
    2
 40
7.5
 49
6
 49
-1.5
  0
LTYPE
  2
dashed_spaced
 70
   64
  3
----        --------        ----
 72
   65
 73
    2
 40
12
 49
6
 49
-6
  0
LTYPE
  2
long_dashed_dotted
 70
   64
  3
------------- --- --------------
 72
   65
 73
    4
 40
15.25
 49
12
 49
-1.5
 49
0.25
 49
-1.5
  0
LTYPE
  2
long_dashed_double-dotted
 70
   64
  3
----------- --- --- ------------
 72
   65
 73
    6
 40
17
 49
12
 49
-1.5
 49
0.25
 49
-1.5
 49
0.25
 49
-1.5
  0
LTYPE
  2
long_dashed_triplicate-dotted
 70
   64
  3
--------- --- --- --- ----------
 72
   65
 73
    8
 40
18.75
 49
12
 49
-1.5
 49
0.25
 49
-1.5
 49
0.25
 49
-1.5
 49
0.25
 49
-1.5
  0
LTYPE
  2
dotted
 70
   64
  3
   -       -       -       -    
 72
   65
 73
    2
 40
1.75
 49
0.25
 49
-1.5
  0
LTYPE
  2
chain
 70
   64
  3
-------------- -- --------------
 72
   65
 73
    4
 40
18.5
 49
12
 49
-1.5
 49
3.5
 49
-1.5
  0
LTYPE
  2
chain_double_dash
 70
   64
  3
------------ -- -- -------------
 72
   65
 73
    6
 40
23.5
 49
12
 49
-1.5
 49
3.5
 49
-1.5
 49
3.5
 49
-1.5
  0
LTYPE
  2
dashed_dotted
 70
   64
  3
-----------     -     ----------
 72
   65
 73
    4
 40
9.25
 49
6
 49
-1.5
 49
0.25
 49
-1.5
  0
LTYPE
  2
double-dashed_dotted
 70
   64
  3
------   -----------   -   -----
 72
   65
 73
    6
 40
16.75
 49
6
 49
-1.5
 49
6
 49
-1.5
 49
0.25
 49
-1.5
  0
LTYPE
  2
dashed_double-dotted
 70
   64
  3
---------    -    -    ---------
 72
   65
 73
    6
 40
11
 49
6
 49
-1.5
 49
0.25
 49
-1.5
 49
0.25
 49
-1.5
  0
LTYPE
  2
double-dashed_double-dotted
 70
   64
  3
-----   ---------   -   -   ----
 72
   65
 73
    8
 40
18.5
 49
6
 49
-1.5
 49
6
 49
-1.5
 49
0.25
 49
-1.5
 49
0.25
 49
-1.5
  0
LTYPE
  2
dashed_triplicate-dotted
 70
   64
  3
-------    -    -    -    ------
 72
   65
 73
    8
 40
12.75
 49
6
 49
-1.5
 49
0.25
 49
-1.5
 49
0.25
 49
-1.5
 49
0.25
 49
-1.5
  0
LTYPE
  2
double-dashed_triplicate-dotted
 70
   64
  3
-----  ---------  -  -  -  -----
 72
   65
 73
   10
 40
20.25
 49
6
 49
-1.5
 49
6
 49
-1.5
 49
0.25
 49
-1.5
 49
0.25
 49
-1.5
 49
0.25
 49
-1.5
  0
LTYPE
  2
undefined
 70
   64
  3
--------------------------------
 72
   65
 73
    0
 40
0
  0
LTYPE
  2
_
 70
   64
  3
                                
 72
   65
 73
    0
 40
0
  0
LTYPE
  2
__18
 70
   64
  3
                                
 72
   65
 73
    0
 40
0
  0
LTYPE
  2
__19
 70
   64
  3
                                
 72
   65
 73
    0
 40
0
  0
LTYPE
  2
__20
 70
   64
  3
                                
 72
   65
 73
    0
 40
0
  0
LTYPE
  2
__21
 70
   64
  3
                                
 72
   65
 73
    0
 40
0
  0
LTYPE
  2
__22
 70
   64
  3
                                
 72
   65
 73
    0
 40
0
  0
LTYPE
  2
__23
 70
   64
  3
                                
 72
   65
 73
    0
 40
0
  0
LTYPE
  2
__24
 70
   64
  3
                                
 72
   65
 73
    0
 40
0
  0
LTYPE
  2
__25
 70
   64
  3
                                
 72
   65
 73
    0
 40
0
  0
LTYPE
  2
__26
 70
   64
  3
                                
 72
   65
 73
    0
 40
0
  0
LTYPE
  2
__27
 70
   64
  3
                                
 72
   65
 73
    0
 40
0
  0
LTYPE
  2
__28
 70
   64
  3
                                
 72
   65
 73
    0
 40
0
  0
LTYPE
  2
__29
 70
   64
  3
                                
 72
   65
 73
    0
 40
0
  0
LTYPE
  2
__30
 70
   64
  3
                                
 72
   65
 73
    0
 40
0
  0
LTYPE
  2
__31
 70
   64
  3
                                
 72
   65
 73
    0
 40
0
  0
LTYPE
  2
__32
 70
   64
  3
                                
 72
   65
 73
    0
 40
0
  0
ENDTAB
  0
TABLE
  2
STYLE
  5
3
100
AcDbSymbolTable
 70
     1
  0
STYLE
  5
10
100
AcDbSymbolTableRecord
100
AcDbTextStyleTableRecord
  2
STANDARD
 70
     0
 40
0.0
 41
1.0
 50
0.0
 71
     0
 42
0.2
  3
txt
  4
bigfont.shx
  0
STYLE
  5
26
100
AcDbSymbolTableRecord
100
AcDbTextStyleTableRecord
  2
TATEGAKI
 70
    68
 40
0.0
 41
1.0
 50
0.0
 71
     0
 42
1.0
  3
txt
  4
bigfont.shx
  0
ENDTAB
  0
TABLE
  2
LAYER
 70
   15
  0
LAYER
  2
_0-0_立面本体
 70
   64
 62
    7
  6
CONTINUOUS
  0
LAYER
  2
_0-3_断面__扉
 70
   64
 62
    7
  6
CONTINUOUS
  0
LAYER
  2
_0-4_背面本体
 70
   64
 62
    7
  6
CONTINUOUS
  0
LAYER
  2
_0-5_平面本体
 70
   64
 62
    7
  6
CONTINUOUS
  0
LAYER
  2
_0-6_平面扉
 70
   64
 62
    7
  6
CONTINUOUS
  0
LAYER
  2
_0-8_ラッチ立面__受け
 70
   64
 62
    7
  6
CONTINUOUS
  0
LAYER
  2
_0-9_ラッチ断面__受け
 70
   64
 62
    7
  6
CONTINUOUS
  0
LAYER
  2
_0-a_ラッチ平面受け
 70
   64
 62
    7
  6
CONTINUOUS
  0
LAYER
  2
_0-b_ラッチ断面__扉側
 70
   64
 62
    7
  6
CONTINUOUS
  0
LAYER
  2
_0-d_ラッチ平面__扉側
 70
   64
 62
    7
  6
CONTINUOUS
  0
LAYER
  2
_e-0_
 70
   64
 62
    7
  6
CONTINUOUS
  0
LAYER
  2
_f-0_
 70
   64
 62
    7
  6
CONTINUOUS
  0
LAYER
  2
_f-e_
 70
   64
 62
    7
  6
CONTINUOUS
  0
LAYER
  2
_f-f_ADD_LINE
 70
   64
 62
    7
  6
CONTINUOUS
  0
LAYER
  2
ADD_LINE
 70
   64
 62
    7
  6
CONTINUOUS
  0
ENDTAB
  0
ENDSEC
  0
SECTION
  2
BLOCKS
  0
ENDSEC
  0
SECTION
  2
ENTITIES
  0
LINE
  8
_e-0_
  6
CONTINUOUS
 62
    7
 10
2235.8366640958874
 20
183.94486665957714
 11
2264.9846622966542
 21
194.55387039310096
  0
LINE
  8
_e-0_
  6
CONTINUOUS
 62
    7
 10
2229.6843953320881
 20
176.38473509396874
 11
2279.6036842974681
 21
194.55387039310011
  0
LINE
  8
_e-0_
  6
CONTINUOUS
 62
    7
 10
2226.2574714057886
 20
169.81654792732371
 11
2255.9150768319382
 21
180.61103352205378
  0
LINE
  8
_e-0_
  6
CONTINUOUS
 62
    7
 10
2224.2626908639713
 20
163.76961832382903
 11
2246.0093920977315
 21
171.68477026639777
  0
LINE
  8
_e-0_
  6
CONTINUOUS
 62
    7
 10
2223.253185238545
 20
158.08129946246992
 11
2241.5081926224479
 21
164.72557877652036
  0
LINE
  8
_e-0_
  6
CONTINUOUS
 62
    7
 10
2223.0156427143547
 20
152.67395219190916
 11
2241.4255440656402
 21
159.37460829955426
  0
LINE
  8
_e-0_
  6
CONTINUOUS
 62
    7
 10
2223.4344835706642
 20
147.50550893412082
 11
2241.8793979036299
 21
154.21890872491019
  0
LINE
  8
_e-0_
  6
CONTINUOUS
 62
    7
 10
2224.445740720977
 20
142.55268757364603
 11
2243.3203026450687
 21
149.42246629882959
  0
LINE
  8
_e-0_
  6
CONTINUOUS
 62
    7
 10
2226.0182888832978
 20
137.80415943430114
 11
2245.7132505946715
 21
144.97253926225369
  0
LINE
  8
_e-0_
  6
CONTINUOUS
 62
    7
 10
2228.1462640287199
 20
133.25779018411338
 11
2249.1506443149037
 21
140.90275939749233
  0
LINE
  8
_e-0_
  6
CONTINUOUS
 62
    7
 10
2230.8477427532311
 20
128.92015916595937
 11
2253.9308498295376
 21
137.32172305611442
  0
LINE
  8
_e-0_
  6
CONTINUOUS
 62
    7
 10
2234.1689215693718
 20
124.80808053533024
 11
2260.9975727253267
 21
134.57291098160936
  0
LINE
  8
_e-0_
  6
CONTINUOUS
 62
    7
 10
2238.1963030092369
 20
120.95303863909776
 11
2276.6158743796218
 21
134.93661903118379
  0
LINE
  8
_e-0_
  6
CONTINUOUS
 62
    7
 10
2243.0858385970809
 20
117.41179519008085
 11
2271.2352160844507
 21
127.65733070860676
  0
LINE
  8
_e-0_
  6
CONTINUOUS
 62
    7
 10
2271.6356660451688
 20
186.33286006079629
 11
2294.2227062982819
 21
194.55387039310181
  0
LINE
  8
_e-0_
  6
CONTINUOUS
 62
    7
 10
2252.6131881355313
 20
174.08835545732216
 11
2305.1018637432653
 21
193.19267101459161
  0
LINE
  8
_e-0_
  6
CONTINUOUS
 62
    7
 10
2265.1203526762751
 20
173.3197022028429
 11
2305.1018637432653
 21
187.87178215221217
  0
LINE
  8
_e-0_
  6
CONTINUOUS
 62
    7
 10
2279.7393746770903
 20
173.3197022028429
 11
2305.1018637432653
 21
182.55089328983274
  0
LINE
  8
_e-0_
  6
CONTINUOUS
 62
    7
 10
2283.9258801693499
 20
169.52257672523785
 11
2305.1018637432653
 21
177.2300044274533
  0
LINE
  8
_e-0_
  6
CONTINUOUS
 62
    7
 10
2283.9258801693499
 20
164.20168786285842
 11
2305.1018637432653
 21
171.9091155650733
  0
LINE
  8
_e-0_
  6
CONTINUOUS
 62
    7
 10
2283.9258801693499
 20
158.88079900047898
 11
2305.1018637432653
 21
166.58822670269387
  0
LINE
  8
_e-0_
  6
CONTINUOUS
 62
    7
 10
2283.9258801693499
 20
153.55991013809955
 11
2305.1018637432653
 21
161.26733784031443
  0
LINE
  8
_e-0_
  6
CONTINUOUS
 62
    7
 10
2283.8515813964468
 20
148.21197873394055
 11
2305.1018637432653
 21
155.946448977935
  0
LINE
  8
_e-0_
  6
CONTINUOUS
 62
    7
 10
2282.704724763138
 20
142.47366819406579
 11
2305.1018637432653
 21
150.62556011555528
  0
LINE
  8
_e-0_
  6
CONTINUOUS
 62
    7
 10
2280.4457301125835
 20
136.33057251951811
 11
2305.1018637432653
 21
145.30467125317585
  0
LINE
  8
_e-0_
  6
CONTINUOUS
 62
    7
 10
2276.4511200095644
 20
129.55576448214031
 11
2303.9116004635193
 21
139.55056198602875
  0
LINE
  8
_e-0_
  6
CONTINUOUS
 62
    7
 10
2267.7970807133165
 20
121.0850629097564
 11
2301.0895051181664
 21
133.20251441967968
  0
LINE
  8
_e-0_
  6
CONTINUOUS
 62
    7
 10
2259.0298539746222
 20
112.57316447742937
 11
2296.2211119089829
 21
126.10967534045357
  0
LINE
  8
_e-0_
  6
CONTINUOUS
 62
    7
 10
2274.1883752837679
 20
112.76952616706864
 11
2284.7751922141192
 21
116.62281240534184
  0
LINE
  8
_e-0_
  6
CONTINUOUS
 62
    3
 10
2258.4972011002914
 20
181.99134005275396
 11
2254.3752072861266
 21
179.18201849977236
  0
LINE
  8
_e-0_
  6
CONTINUOUS
 62
    3
 10
2274.4375760187444
 20
112.57316447742766
 11
2258.9711348669716
 21
112.57316447742766
  0
ARC
  8
_e-0_
  6
CONTINUOUS
 62
    3
 10
2274.4375760187444
 20
117.57316447742766
 40
5
 50
270
 51
286.20399351045659
  0
LINE
  8
_e-0_
  6
CONTINUOUS
 62
    3
 10
2305.279594668063
 20
194.55387039310011
 11
2305.279594668063
 21
144.19867916164037
  0
ARC
  8
_e-0_
  6
CONTINUOUS
 62
    3
 10
2263.9728996034464
 20
153.58344839081951
 40
42.5
 50
286.20399351045648
 51
345.50707147989851
  0
ARC
  8
_e-0_
  6
CONTINUOUS
 62
    3
 10
2300.279594668063
 20
144.19867916164037
 40
5
 50
345.50707147989879
 51
0.0000000000000159
  0
ARC
  8
_e-0_
  6
CONTINUOUS
 62
    3
 10
2242.1434725645217
 20
154.92082031886695
 40
40
 50
279.71265316664215
 51
332.69093929010892
  0
ARC
  8
_e-0_
  6
CONTINUOUS
 62
    3
 10
2248.048219581773
 20
120.42250206040307
 40
5
 50
241.9452628118
 51
279.71265316664221
  0
ARC
  8
_e-0_
  6
CONTINUOUS
 62
    3
 10
2255.3150461234195
 20
189.55387039310011
 40
5
 50
90
 51
106.05338143786269
  0
LINE
  8
_e-0_
  6
CONTINUOUS
 62
    3
 10
2280.4842327420233
 20
194.55387039309982
 11
2270.2689327819925
 21
189.66588876819173
  0
LINE
  8
_e-0_
  6
CONTINUOUS
 62
    3
 10
2270.2689327819925
 20
189.66588876819173
 11
2264.3501921643828
 21
185.86970164581146
  0
LINE
  8
_e-0_
  6
CONTINUOUS
 62
    3
 10
2258.4972011002914
 20
181.99134005275368
 11
2264.3501921643833
 21
185.86970164581146
  0
ARC
  8
_e-0_
  6
CONTINUOUS
 62
    3
 10
2255.3150461234195
 20
189.55387039310011
 40
5
 50
90
 51
106.05338143786269
  0
ARC
  8
_e-0_
  6
CONTINUOUS
 62
    3
 10
2255.3150461234195
 20
189.55387039310011
 40
5
 50
90
 51
106.05338143786269
  0
LINE
  8
_e-0_
  6
CONTINUOUS
 62
    3
 10
2280.4842327420233
 20
194.55387039310011
 11
2255.3150461234195
 21
194.55387039310011
  0
ARC
  8
_e-0_
  6
CONTINUOUS
 62
    3
 10
2265.6850271033654
 20
153.5162026761742
 40
42.5
 50
106.05338143786271
 51
241.94526281180051
  0
ARC
  8
_e-0_
  6
CONTINUOUS
 62
    3
 10
2255.3150461234195
 20
189.55387039310011
 40
5
 50
90
 51
106.05338143786269
  0
LINE
  8
_e-0_
  6
CONTINUOUS
 62
    3
 10
2291.2227167726568
 20
194.55387039310011
 11
2305.279594668063
 21
194.55387039310011
  0
ARC
  8
_e-0_
  6
CONTINUOUS
 62
    3
 10
2291.2227167726568
 20
189.55387039310011
 40
5
 50
90
 51
112.84552721528329
  0
LINE
  8
_e-0_
  6
CONTINUOUS
 62
    3
 10
2284.1036110941477
 20
173.31970220284119
 11
2261.0680884297689
 21
173.31970220284119
  0
ARC
  8
_e-0_
  6
CONTINUOUS
 62
    3
 10
2261.0680884297689
 20
168.31970220284119
 40
5
 50
90
 51
110.93110431809542
  0
ARC
  8
_e-0_
  6
CONTINUOUS
 62
    3
 10
2246.2800001070586
 20
162.1290763781451
 40
0.5
 50
165.368776721252
 51
224.67319701305797
  0
LINE
  8
_e-0_
  6
CONTINUOUS
 62
    3
 10
2245.9244358848641
 20
161.77754532134485
 11
2245.7344921007284
 21
161.96966835730563
  0
ARC
  8
_e-0_
  6
CONTINUOUS
 62
    3
 10
2268.2129904475891
 20
149.63948873629476
 40
25
 50
110.93110431809527
 51
150.17701829297226
  0
ARC
  8
_e-0_
  6
CONTINUOUS
 62
    3
 10
2246.0900563229233
 20
162.32119941410587
 40
0.5
 50
224.67319701305652
 51
330.17701829297561
  0
LINE
  8
_e-0_
  6
CONTINUOUS
 62
    3
 10
2289.2814768910575
 20
194.16164509702042
 11
2275.5741279425565
 21
188.38678539583099
  0
LINE
  8
_e-0_
  6
CONTINUOUS
 62
    3
 10
2275.5741279425565
 20
188.38678539583099
 11
2269.1652622122446
 21
184.88657977403136
  0
ARC
  8
_e-0_
  6
CONTINUOUS
 62
    3
 10
2269.9855058223761
 20
155.94045789086862
 40
25
 50
126.05682261028304
 51
165.36877672125814
  0
ARC
  8
_e-0_
  6
CONTINUOUS
 62
    3
 10
2314.0795261788803
 20
95.540573190998543
 40
100
 50
116.6886898974924
 51
126.03335467187628
  0
LINE
  8
_e-0_
  6
CONTINUOUS
 62
    3
 10
2254.3752072861261
 20
179.18201849977265
 11
2246.4067752679402
 21
171.92707079532567
  0
LINE
  8
_e-0_
  6
CONTINUOUS
 62
    3
 10
2246.4067752679402
 20
171.92707079532567
 11
2244.5616298314553
 21
169.7938494987261
  0
ARC
  8
_e-0_
  6
CONTINUOUS
 62
    3
 10
2266.6001168011457
 20
158.97724261098005
 40
25
 50
169.07329675873063
 51
296.32138326661799
  0
LINE
  8
_e-0_
  6
CONTINUOUS
 62
    3
 10
2244.5616298314557
 20
169.7938494987261
 11
2242.0533548929147
 21
163.71606945109476
  0
LINE
  8
_e-0_
  6
CONTINUOUS
 62
    3
 10
2284.1036110941477
 20
173.31970220284119
 11
2284.1036110941477
 21
148.84947071428769
  0
ARC
  8
_e-0_
  6
CONTINUOUS
 62
    3
 10
2269.3348263498523
 20
128.55612168904315
 40
5
 50
311.4163090429962
 51
326.13300916724881
  0
ARC
  8
_e-0_
  6
CONTINUOUS
 62
    3
 10
2244.3366749153342
 20
153.16117420016951
 40
40
 50
316.78132524618342
 51
353.81191653224226
  0
ARC
  8
_e-0_
  6
CONTINUOUS
 62
    3
 10
2232.9509318238065
 20
169.80187564163315
 40
60
 50
294.69555798319504
 51
311.41630904299643
  0
ARC
  8
_e-0_
  6
CONTINUOUS
 62
    3
 10
2263.9775491586715
 20
187.40588336388725
 40
75
 50
264.68313230529076
 51
266.17253517307824
  0
ARC
  8
_e-0_
  6
CONTINUOUS
 62
    3
 10
2257.0741018984172
 20
113.22642248740947
 40
0.5
 50
174.02086603460466
 51
264.68313230528985
  0
ARC
  8
_e-0_
  6
CONTINUOUS
 62
    3
 10
2259.063221691812
 20
113.01808994668988
 40
2.5
 50
114.69555798319522
 51
174.02086603461154
  0
LINE
  8
_e-0_
  6
CONTINUOUS
 62
    7
 10
2368.9407257363959
 20
153.8555320965915
 11
2380.3126248015978
 21
157.9945648634046
  0
LINE
  8
_e-0_
  6
CONTINUOUS
 62
    3
 10
2428.3092572732284
 20
147.05833678116505
 11
2428.3092572732284
 21
120.91539808426659
  0
CIRCLE
  8
_e-0_
  6
CONTINUOUS
 62
    3
 10
2357.5674768778399
 20
146.88814634727634
 40
13.33773795583065
  0
CIRCLE
  8
_e-0_
  6
CONTINUOUS
 62
    3
 10
2357.2837594304651
 20
146.60442889990122
 40
25.691707563897665
  0
LINE
  8
_e-0_
  6
CONTINUOUS
 62
    3
 10
2391.5446955520592
 20
172.68771567712093
 11
2391.5446955520592
 21
120.91539808426659
  0
LINE
  8
_e-0_
  6
CONTINUOUS
 62
    3
 10
2391.5446955520592
 20
120.91539808426659
 11
2406.9076645804707
 21
120.91539808426659
  0
LINE
  8
_e-0_
  6
CONTINUOUS
 62
    3
 10
2406.9076645804707
 20
120.91539808426659
 11
2406.9076645804707
 21
157.05833678116505
  0
LINE
  8
_e-0_
  6
CONTINUOUS
 62
    3
 10
2443.228209855732
 20
120.91539808426659
 11
2428.3092572732284
 21
120.91539808426659
  0
LINE
  8
_e-0_
  6
CONTINUOUS
 62
    3
 10
2418.3092572732284
 20
157.05833678116505
 11
2406.9076645804707
 21
157.05833678116505
  0
ARC
  8
_e-0_
  6
CONTINUOUS
 62
    3
 10
2418.3092572732284
 20
147.05833678116505
 40
10
 50
0
 51
90
  0
LINE
  8
_e-0_
  6
CONTINUOUS
 62
    3
 10
2418.2282098557316
 20
172.68771567712093
 11
2391.5446955520592
 21
172.68771567712093
  0
LINE
  8
_e-0_
  6
CONTINUOUS
 62
    3
 10
2443.228209855732
 20
147.68771567712093
 11
2443.228209855732
 21
120.91539808426659
  0
ARC
  8
_e-0_
  6
CONTINUOUS
 62
    3
 10
2418.2282098557316
 20
147.68771567712093
 40
25
 50
0
 51
90
  0
ARC
  8
_e-0_
  6
CONTINUOUS
 62
    3
 10
2478.295994444325
 20
146.60174948003543
 40
13.33773795583065
 50
23.422555400004949
 51
97.191484740792631
  0
LINE
  8
_e-0_
  6
CONTINUOUS
 62
    3
 10
2466.0573099578646
 20
151.90362233962787
 11
2490.534678930785
 21
151.90362233962787
  0
ARC
  8
_e-0_
  6
CONTINUOUS
 62
    3
 10
2478.295994444325
 20
146.60174948003543
 40
13.33773795583065
 50
92.530763017635251
 51
156.57744459999506
  0
ARC
  8
_e-0_
  6
CONTINUOUS
 62
    3
 10
2478.295994444325
 20
146.60174948003543
 40
13.33773795583065
 50
204.21097500392608
 51
316.0067678116265
  0
LINE
  8
_e-0_
  6
CONTINUOUS
 62
    3
 10
2466.1314228627884
 20
141.13197324913869
 11
2503.5708091830401
 21
141.13197324913869
  0
LINE
  8
_e-0_
  6
CONTINUOUS
 62
    3
 10
2487.8914545430639
 20
137.33771152286408
 11
2500.7599750366903
 21
134.21464658261612
  0
ARC
  8
_e-0_
  6
CONTINUOUS
 62
    3
 10
2478.6163205945867
 20
147.24240178055936
 40
25.691707563897665
 50
346.24110979921471
 51
329.53046432565099
  0
ARC
  8
_e-0_
  6
CONTINUOUS
 62
    3
 10
2538.5642928691418
 20
146.56831030951025
 40
11.089756641867943
 50
94.502189492040685
 51
357.22978420280037
  0
LINE
  8
_e-0_
  6
CONTINUOUS
 62
    3
 10
2548.6410899779484
 20
157.6238476750268
 11
2537.6937781159517
 21
157.6238476750268
  0
LINE
  8
_e-0_
  6
CONTINUOUS
 62
    3
 10
2549.6410899779484
 20
156.62384767502715
 11
2549.6410899779484
 21
146.03233625585858
  0
ARC
  8
_e-0_
  6
CONTINUOUS
 62
    3
 10
2548.6410899779484
 20
156.62384767502715
 40
1
 50
0
 51
90
  0
LINE
  8
_e-0_
  6
CONTINUOUS
 62
    3
 10
2541.0210795623534
 20
172.7157992833321
 11
2549.4438113726191
 21
172.7157992833321
  0
ARC
  8
_e-0_
  6
CONTINUOUS
 62
    3
 10
2539.0170194880056
 20
147.10237349201634
 40
25.691707563897665
 50
85.526146014136969
 51
347.40557840019874
  0
LINE
  8
_e-0_
  6
CONTINUOUS
 62
    3
 10
2549.4438113726191
 20
193.55387039310016
 11
2549.4438113726191
 21
172.7157992833321
  0
ARC
  8
_e-0_
  6
CONTINUOUS
 62
    3
 10
2550.4438113726191
 20
193.55387039310016
 40
1
 50
90
 51
180
  0
LINE
  8
_e-0_
  6
CONTINUOUS
 62
    3
 10
2564.0905330831628
 20
193.55387039310016
 11
2564.0905330831628
 21
141.50034229411204
  0
LINE
  8
_e-0_
  6
CONTINUOUS
 62
    3
 10
2563.0905330831633
 20
194.55387039310011
 11
2550.4438113726191
 21
194.55387039310011
  0
ARC
  8
_e-0_
  6
CONTINUOUS
 62
    3
 10
2563.0905330831633
 20
193.55387039310016
 40
1
 50
0
 51
90
  0
CIRCLE
  8
_e-0_
  6
CONTINUOUS
 62
    3
 10
2599.5440184063854
 20
147.043799567397
 40
13.33773795583065
  0
CIRCLE
  8
_e-0_
  6
CONTINUOUS
 62
    3
 10
2599.2603009590102
 20
146.76008212002216
 40
25.691707563897665
  0
ARC
  8
_e-0_
  6
CONTINUOUS
 62
    3
 10
2353.35637840567
 20
167.9863014610953
 40
5
 50
90
 51
106.05338143786269
  0
ARC
  8
_e-0_
  6
CONTINUOUS
 62
    3
 10
2353.35637840567
 20
167.9863014610953
 40
5
 50
90
 51
106.05338143786269
  0
ARC
  8
_e-0_
  6
CONTINUOUS
 62
    3
 10
2353.35637840567
 20
167.9863014610953
 40
5
 50
90
 51
106.05338143786269
  0
ARC
  8
_e-0_
  6
CONTINUOUS
 62
    3
 10
2353.35637840567
 20
167.9863014610953
 40
5
 50
90
 51
106.05338143786269
  0
LINE
  8
_e-0_
  6
CONTINUOUS
 62
    7
 10
2338.397814259903
 20
164.02237690083893
 11
2360.5551916202566
 21
172.08700272941143
  0
LINE
  8
_e-0_
  6
CONTINUOUS
 62
    7
 10
2353.2922401344158
 20
164.1226157132661
 11
2368.5713183881316
 21
169.68374540464282
  0
LINE
  8
_e-0_
  6
CONTINUOUS
 62
    7
 10
2333.8018889252848
 20
157.02870801774821
 11
2353.2922401344158
 21
164.1226157132661
  0
LINE
  8
_e-0_
  6
CONTINUOUS
 62
    7
 10
2331.9785744704104
 20
151.04418696608718
 11
2349.2864007501179
 21
157.343720551751
  0
LINE
  8
_e-0_
  6
CONTINUOUS
 62
    7
 10
2331.6120904820286
 20
145.58990884060165
 11
2344.6864605819832
 21
150.34859038876504
  0
LINE
  8
_e-0_
  6
CONTINUOUS
 62
    7
 10
2332.321186811589
 20
140.52710993540927
 11
2344.3765135579674
 21
144.91489003544415
  0
LINE
  8
_e-0_
  6
CONTINUOUS
 62
    7
 10
2333.9712161766956
 20
135.8067826475937
 11
2346.0301909803711
 21
140.19589053189747
  0
LINE
  8
_e-0_
  6
CONTINUOUS
 62
    7
 10
2336.5548628009087
 20
131.42626425228996
 11
2349.6156774979726
 21
136.18001203728795
  0
LINE
  8
_e-0_
  6
CONTINUOUS
 62
    7
 10
2340.1868985942023
 20
127.42732830845881
 11
2357.0387292924815
 21
133.56089307552565
  0
LINE
  8
_e-0_
  6
CONTINUOUS
 62
    7
 10
2345.2008630322079
 20
123.93137325718271
 11
2367.3042092217137
 21
131.97633334784399
  0
LINE
  8
_e-0_
  6
CONTINUOUS
 62
    7
 10
2352.672491806928
 20
121.32993487028784
 11
2367.3578368417852
 21
126.6749633429049
  0
LINE
  8
_e-0_
  6
CONTINUOUS
 62
    7
 10
2367.3578368417852
 20
126.6749633429049
 11
2377.0623269725419
 21
130.20710888923048
  0
LINE
  8
_e-0_
  6
CONTINUOUS
 62
    7
 10
2366.4508876466361
 20
131.66574969425852
 11
2381.1137543140052
 21
137.00259671019495
  0
LINE
  8
_e-0_
  6
CONTINUOUS
 62
    7
 10
2366.5391143016522
 20
137.01875043293284
 11
2382.707517318754
 21
142.90356786677762
  0
LINE
  8
_e-0_
  6
CONTINUOUS
 62
    7
 10
2370.5419646629043
 20
143.79655767902988
 11
2382.9193516787913
 21
148.3015581308058
  0
LINE
  8
_e-0_
  6
CONTINUOUS
 62
    7
 10
2370.707249747249
 20
149.17760539227913
 11
2382.0827968697476
 21
153.31796594336083
  0
LINE
  8
_e-0_
  6
CONTINUOUS
 62
    7
 10
2357.1904356777322
 20
160.22055399600276
 11
2373.8148342762628
 21
166.2713402484448
  0
LINE
  8
_e-0_
  6
CONTINUOUS
 62
    7
 10
2365.2105772791237
 20
157.81875795113023
 11
2377.601519697901
 21
162.32869216607127
  0
LINE
  8
_e-0_
  6
CONTINUOUS
 62
    7
 10
2391.5446955520592
 20
167.40359314812394
 11
2406.0627028821099
 21
172.68771567712093
  0
LINE
  8
_e-0_
  6
CONTINUOUS
 62
    7
 10
2391.5446955520592
 20
162.08270428574451
 11
2420.4177781140142
 21
172.59164690980639
  0
LINE
  8
_e-0_
  6
CONTINUOUS
 62
    7
 10
2391.5446955520592
 20
156.76181542336507
 11
2428.8250436248681
 21
170.3307524449508
  0
LINE
  8
_e-0_
  6
CONTINUOUS
 62
    7
 10
2391.5446955520592
 20
151.44092656098564
 11
2434.1617370349067
 21
166.95226113322974
  0
LINE
  8
_e-0_
  6
CONTINUOUS
 62
    7
 10
2391.5446955520592
 20
146.12003769860621
 11
2406.9076645804707
 21
151.7117011349012
  0
LINE
  8
_e-0_
  6
CONTINUOUS
 62
    7
 10
2420.7597421054251
 20
156.75344503673244
 11
2437.97514244706
 21
163.01933833206305
  0
LINE
  8
_e-0_
  6
CONTINUOUS
 62
    7
 10
2391.5446955520592
 20
140.79914883622677
 11
2406.9076645804707
 21
146.39081227252177
  0
LINE
  8
_e-0_
  6
CONTINUOUS
 62
    7
 10
2395.3906273502475
 20
120.91539808426659
 11
2406.9076645804707
 21
125.10725682300346
  0
LINE
  8
_e-0_
  6
CONTINUOUS
 62
    7
 10
2391.5446955520592
 20
124.8364822490879
 11
2406.9076645804707
 21
130.42814568538318
  0
LINE
  8
_e-0_
  6
CONTINUOUS
 62
    7
 10
2391.5446955520592
 20
130.15737111146762
 11
2406.9076645804707
 21
135.74903454776261
  0
LINE
  8
_e-0_
  6
CONTINUOUS
 62
    7
 10
2391.5446955520592
 20
135.47825997384705
 11
2406.9076645804707
 21
141.06992341014233
  0
LINE
  8
_e-0_
  6
CONTINUOUS
 62
    7
 10
2428.3092572732284
 20
143.53857725381516
 11
2443.228209855732
 21
148.96863192027495
  0
LINE
  8
_e-0_
  6
CONTINUOUS
 62
    7
 10
2428.3092572732284
 20
138.21768839143601
 11
2443.228209855732
 21
143.6477430578958
  0
LINE
  8
_e-0_
  6
CONTINUOUS
 62
    7
 10
2428.1557813921926
 20
148.80360546382007
 11
2442.4194517644264
 21
153.99515691069751
  0
LINE
  8
_e-0_
  6
CONTINUOUS
 62
    7
 10
2428.3092572732284
 20
132.89679952905657
 11
2443.228209855732
 21
138.32685419551637
  0
LINE
  8
_e-0_
  6
CONTINUOUS
 62
    7
 10
2428.3092572732284
 20
127.57591066667686
 11
2443.228209855732
 21
133.00596533313665
  0
LINE
  8
_e-0_
  6
CONTINUOUS
 62
    7
 10
2428.3092572732284
 20
122.25502180429714
 11
2443.228209855732
 21
127.68507647075722
  0
LINE
  8
_e-0_
  6
CONTINUOUS
 62
    7
 10
2439.2476933526945
 20
120.91539808426659
 11
2443.228209855732
 21
122.3641876083775
  0
LINE
  8
_e-0_
  6
CONTINUOUS
 62
    7
 10
2426.0696362324169
 20
153.36519958368285
 11
2440.6804200699461
 21
158.68308999984094
  0
LINE
  8
_e-0_
  6
CONTINUOUS
 62
    7
 10
2461.2391180831355
 20
166.16584413190906
 11
2479.7642757393728
 21
172.9084501038676
  0
LINE
  8
_e-0_
  6
CONTINUOUS
 62
    7
 10
2455.6823727205842
 20
158.8224653581642
 11
2488.7412225351808
 21
170.85490266975369
  0
LINE
  8
_e-0_
  6
CONTINUOUS
 62
    7
 10
2453.5136329133933
 20
152.71221976009883
 11
2494.330163775628
 21
167.56822205995973
  0
LINE
  8
_e-0_
  6
CONTINUOUS
 62
    7
 10
2453.5499758138648
 20
147.40455863171803
 11
2466.0402009988038
 21
151.95062881831773
  0
LINE
  8
_e-0_
  6
CONTINUOUS
 62
    7
 10
2484.2015654578558
 20
158.5608248950723
 11
2498.3393017844896
 21
163.70654009787131
  0
LINE
  8
_e-0_
  6
CONTINUOUS
 62
    7
 10
2488.7434616863265
 20
154.89305106698225
 11
2501.229225702727
 21
159.43749752102377
  0
LINE
  8
_e-0_
  6
CONTINUOUS
 62
    7
 10
2455.2600765304932
 20
142.70609552778864
 11
2480.5300737608508
 21
151.90362233962787
  0
LINE
  8
_e-0_
  6
CONTINUOUS
 62
    7
 10
2454.9396132864271
 20
137.26856758339266
 11
2503.1647877023638
 21
154.82109561308902
  0
LINE
  8
_e-0_
  6
CONTINUOUS
 62
    7
 10
2457.3510255582336
 20
132.82536101049515
 11
2468.979076889896
 21
137.05762557773937
  0
LINE
  8
_e-0_
  6
CONTINUOUS
 62
    7
 10
2480.1732551160735
 20
141.13197324913869
 11
2504.1735768638136
 21
149.86737597812748
  0
LINE
  8
_e-0_
  6
CONTINUOUS
 62
    7
 10
2494.7922771168891
 20
141.13197324913869
 11
2504.1658959394972
 21
144.54369148792522
  0
LINE
  8
_e-0_
  6
CONTINUOUS
 62
    7
 10
2460.7789079158064
 20
128.75211929283807
 11
2474.6057479243418
 21
133.78467748990601
  0
LINE
  8
_e-0_
  6
CONTINUOUS
 62
    7
 10
2465.5015919032307
 20
125.15014682772687
 11
2494.5480952820462
 21
135.72220946712775
  0
LINE
  8
_e-0_
  6
CONTINUOUS
 62
    7
 10
2472.3576833866286
 20
122.32467118870999
 11
2499.4275233351886
 21
132.17728717633548
  0
LINE
  8
_e-0_
  6
CONTINUOUS
 62
    7
 10
2544.6739029189729
 20
122.04117824124523
 11
2550.7926211614712
 21
124.26820955337575
  0
LINE
  8
_e-0_
  6
CONTINUOUS
 62
    7
 10
2531.4520014282843
 20
122.54968852061381
 11
2560.594321218904
 21
133.15662548186594
  0
LINE
  8
_e-0_
  6
CONTINUOUS
 62
    7
 10
2525.0484139172745
 20
125.53986213646737
 11
2563.5777072966566
 21
139.56337807387171
  0
LINE
  8
_e-0_
  6
CONTINUOUS
 62
    7
 10
2514.1325981815766
 20
153.49216330021562
 11
2564.0905330831628
 21
171.67536456980116
  0
LINE
  8
_e-0_
  6
CONTINUOUS
 62
    7
 10
2516.6404168063622
 20
159.72582349495553
 11
2564.0905330831628
 21
176.99625343218059
  0
LINE
  8
_e-0_
  6
CONTINUOUS
 62
    7
 10
2549.4438113726191
 20
192.94883814948036
 11
2553.8536012194613
 21
194.55387039310011
  0
LINE
  8
_e-0_
  6
CONTINUOUS
 62
    7
 10
2549.4438113726191
 20
187.62794928710093
 11
2564.0905330831628
 21
192.95892001931918
  0
LINE
  8
_e-0_
  6
CONTINUOUS
 62
    7
 10
2549.4438113726191
 20
182.30706042472121
 11
2564.0905330831628
 21
187.63803115693974
  0
LINE
  8
_e-0_
  6
CONTINUOUS
 62
    7
 10
2549.4438113726191
 20
176.98617156234149
 11
2564.0905330831628
 21
182.31714229456031
  0
LINE
  8
_e-0_
  6
CONTINUOUS
 62
    7
 10
2523.4107658070579
 20
167.51091786918209
 11
2537.853743940821
 21
172.76773200402942
  0
LINE
  8
_e-0_
  6
CONTINUOUS
 62
    7
 10
2540.1033297065
 20
157.6238476750268
 11
2564.0905330831628
 21
166.35447570742172
  0
LINE
  8
_e-0_
  6
CONTINUOUS
 62
    7
 10
2513.3371361174349
 20
147.88174992400058
 11
2530.4259422685099
 21
154.10156670213723
  0
LINE
  8
_e-0_
  6
CONTINUOUS
 62
    7
 10
2513.7061446004345
 20
142.6951691656248
 11
2527.5354029593372
 21
147.72860757024204
  0
LINE
  8
_e-0_
  6
CONTINUOUS
 62
    7
 10
2515.0447452877542
 20
137.86149110899771
 11
2528.1911856253782
 21
142.64640407844922
  0
LINE
  8
_e-0_
  6
CONTINUOUS
 62
    7
 10
2517.3070774056059
 20
133.36402379754076
 11
2531.0862222029409
 21
138.37922235741473
  0
LINE
  8
_e-0_
  6
CONTINUOUS
 62
    7
 10
2520.5624650595814
 20
129.22799914220604
 11
2537.8068709000099
 21
135.50444957572807
  0
LINE
  8
_e-0_
  6
CONTINUOUS
 62
    7
 10
2546.256224354664
 20
138.57976273201643
 11
2564.0905330831628
 21
145.0709202579037
  0
LINE
  8
_e-0_
  6
CONTINUOUS
 62
    7
 10
2549.5566716184766
 20
145.10191615818882
 11
2564.0905330831628
 21
150.39180912028314
  0
LINE
  8
_e-0_
  6
CONTINUOUS
 62
    7
 10
2549.6410899779484
 20
150.4535307906417
 11
2564.0905330831628
 21
155.71269798266257
  0
LINE
  8
_e-0_
  6
CONTINUOUS
 62
    7
 10
2549.6410899779484
 20
155.77441965302114
 11
2564.0905330831628
 21
161.033586845042
  0
LINE
  8
_e-0_
  6
CONTINUOUS
 62
    7
 10
2587.1974966456618
 20
169.44383378606516
 11
2593.9201106595437
 21
171.8906651835789
  0
LINE
  8
_e-0_
  6
CONTINUOUS
 62
    7
 10
2577.6443798702298
 20
160.64589477295925
 11
2606.8934288682321
 21
171.29167798882519
  0
LINE
  8
_e-0_
  6
CONTINUOUS
 62
    7
 10
2600.5688513241625
 20
121.1017202570602
 11
2614.7507703136088
 21
126.26351663399304
  0
LINE
  8
_e-0_
  6
CONTINUOUS
 62
    7
 10
2590.2952099751178
 20
122.68330947086099
 11
2621.6042102293968
 21
134.07885362805103
  0
LINE
  8
_e-0_
  6
CONTINUOUS
 62
    7
 10
2574.6838259529545
 20
154.24745240775138
 11
2613.2741842187642
 21
168.2931941461743
  0
LINE
  8
_e-0_
  6
CONTINUOUS
 62
    7
 10
2584.3475524073419
 20
125.8394280149622
 11
2624.1316663639163
 21
140.31966129180915
  0
LINE
  8
_e-0_
  6
CONTINUOUS
 62
    7
 10
2580.1202834180849
 20
129.62171679301548
 11
2594.2968457670776
 21
134.78156351226772
  0
LINE
  8
_e-0_
  6
CONTINUOUS
 62
    7
 10
2577.0601632087546
 20
133.82881298592224
 11
2589.4416673383834
 21
138.33531194455133
  0
LINE
  8
_e-0_
  6
CONTINUOUS
 62
    7
 10
2574.9705638104942
 20
138.38914986579482
 11
2586.9202518331721
 21
142.73848061481658
  0
LINE
  8
_e-0_
  6
CONTINUOUS
 62
    7
 10
2573.8046086959916
 20
143.2856657720049
 11
2586.2281608356033
 21
147.80746895467757
  0
LINE
  8
_e-0_
  6
CONTINUOUS
 62
    7
 10
2573.6305462928116
 20
148.54320110072194
 11
2588.0360729418825
 21
153.78638400991206
  0
LINE
  8
_e-0_
  6
CONTINUOUS
 62
    7
 10
2604.0255663442694
 20
159.60608366937663
 11
2617.747665312163
 21
164.60051924534468
  0
LINE
  8
_e-0_
  6
CONTINUOUS
 62
    7
 10
2609.253679883805
 20
156.18807251675207
 11
2620.9938043422398
 21
160.46112836620267
  0
LINE
  8
_e-0_
  6
CONTINUOUS
 62
    7
 10
2611.9817903194925
 20
151.86013464875372
 11
2623.2480506609936
 21
155.9607180645537
  0
LINE
  8
_e-0_
  6
CONTINUOUS
 62
    7
 10
2612.8805762475385
 20
146.8663771111602
 11
2624.5786526959905
 21
151.12412873656694
  0
LINE
  8
_e-0_
  6
CONTINUOUS
 62
    7
 10
2611.4455992521006
 20
141.02319933558476
 11
2624.9387339199161
 21
145.93429872161465
  0
LINE
  8
ADD_LINE
  6
DOT
 62
    9
 10
2331.6120904820286
 20
104.42521185597115
 11
2331.6120904820286
 21
204.42521185597115
  0
LINE
  8
ADD_LINE
  6
DOT
 62
    9
 10
2478.2754122009723
 20
204.42521185597115
 11
2478.2754122009723
 21
104.42521185597115
  0
LINE
  8
ADD_LINE
  6
DOT
 62
    9
 10
2624.9387339199161
 20
104.42521185597115
 11
2624.9387339199161
 21
204.42521185597115
  0
LINE
  8
ADD_LINE
  6
DOT
 62
    9
 10
2212.0507338268016
 20
204.42521185597115
 11
2212.0507338268016
 21
104.42521185597115
  0
LINE
  8
ADD_LINE
  6
DOT
 62
    9
 10
2702.0507338268016
 20
204.42521185597115
 11
2702.0507338268016
 21
104.42521185597115
  0
TEXT
  8
_e-0_
 62
    7
 10
2634.9094164018192
 20
164.98768243046669
 40
35
 41
0.5714285714285713
 50
0
  1
ワンド
  0
TEXT
  8
_e-0_
 62
    7
 10
2641.7552438417055
 20
131.44312797502095
 40
30
 41
0.6666666666666666
 50
0
  1
株式
  0
TEXT
  8
_e-0_
 62
    7
 10
2641.0706610977172
 20
103.37523547148492
 40
30
 41
0.6666666666666666
 50
0
  1
会社
  0
LINE
  8
_0-4_背面本体
  6
CONTINUOUS
 62
    3
 10
1124.824762712403
 20
1340.241051339829
 11
1124.824762712403
 21
730.24105133982914
  0
LINE
  8
_0-0_立面本体
  6
CONTINUOUS
 62
    4
 10
1711.8247627124028
 20
2545.6659281893184
 11
1711.8247627124028
 21
2187.6659281893184
  0
TEXT
  8
_0-9_ラッチ断面__受け
 62
    7
 10
1706.8247627124028
 20
2333.5659281893185
 40
35
 41
0.6285714285714286
 50
90
  1
３５８
  0
LINE
  8
_0-0_立面本体
  6
CONTINUOUS
 62
    4
 10
2287.8570920036445
 20
1535.1325192003719
 11
1945.857092003644
 21
1535.1325192003719
  0
TEXT
  8
_0-9_ラッチ断面__受け
 62
    7
 10
2083.7570920036441
 20
1540.1325192003719
 40
35
 41
0.6285714285714286
 50
0
  1
３４２
  0
LINE
  8
ADD_LINE
  6
DOT
 62
    9
 10
1552.8247627124026
 20
1375.241051339829
 11
292.82476271240255
 21
1375.241051339829
  0
LINE
  8
ADD_LINE
  6
DOT
 62
  250
 10
105.14567635813222
 20
20.517589292836078
 11
4205.1456763581327
 21
20.517589292836078
  0
LINE
  8
ADD_LINE
  6
DOT
 62
  250
 10
4205.1456763581327
 20
20.517589292836078
 11
4205.1456763581327
 21
2880.5175892928359
  0
LINE
  8
ADD_LINE
  6
DOT
 62
  250
 10
4127.7167019027483
 20
2880.5175892928359
 11
105.14567635813222
 21
2880.5175892928359
  0
LINE
  8
_0-3_断面__扉
  6
CONTINUOUS
 62
    4
 10
322.82476271240255
 20
2545.7744603287765
 11
322.82476271240255
 21
2204.2744603287765
  0
LINE
  8
_0-3_断面__扉
  6
CONTINUOUS
 62
    4
 10
322.82476271240255
 20
1345.241051339829
 11
322.82476271240255
 21
745.2410513398288
  0
LINE
  8
_0-3_断面__扉
  6
CONTINUOUS
 62
    4
 10
322.82476271240255
 20
745.2410513398288
 11
328.32476271240295
 21
745.2410513398288
  0
LINE
  8
_0-3_断面__扉
  6
CONTINUOUS
 62
    5
 10
2804.8913935730729
 20
1345.2410513398294
 11
2804.8913935730729
 21
745.24105133982902
  0
LINE
  8
_0-a_ラッチ平面受け
  6
CONTINUOUS
 62
    4
 10
3883.4243099096138
 20
1260.2410513398247
 11
3968.4243099096165
 21
1345.2410513398276
  0
LINE
  8
_0-a_ラッチ平面受け
  6
CONTINUOUS
 62
    4
 10
3855.1400386621685
 20
1260.2410513398283
 11
3940.1400386621662
 21
1345.2410513398262
  0
LINE
  8
_0-a_ラッチ平面受け
  6
CONTINUOUS
 62
    4
 10
3826.8557674147041
 20
1260.2410513398306
 11
3911.8557674147018
 21
1345.2410513398285
  0
LINE
  8
_0-a_ラッチ平面受け
  6
CONTINUOUS
 62
    4
 10
3798.5714961672301
 20
1260.2410513398233
 11
3883.5714961672329
 21
1345.241051339826
  0
LINE
  8
_0-a_ラッチ平面受け
  6
CONTINUOUS
 62
    4
 10
3770.2872249197662
 20
1260.2410513398258
 11
3855.2872249197685
 21
1345.2410513398285
  0
LINE
  8
_0-a_ラッチ平面受け
  6
CONTINUOUS
 62
    4
 10
3742.00295367232
 20
1260.2410513398288
 11
3827.0029536723181
 21
1345.2410513398267
  0
LINE
  8
_0-a_ラッチ平面受け
  6
CONTINUOUS
 62
    4
 10
3713.718682424856
 20
1260.241051339831
 11
3798.7186824248537
 21
1345.241051339829
  0
LINE
  8
_0-a_ラッチ平面受け
  6
CONTINUOUS
 62
    4
 10
3685.4344111773825
 20
1260.2410513398244
 11
3770.4344111773853
 21
1345.2410513398272
  0
LINE
  8
_0-a_ラッチ平面受け
  6
CONTINUOUS
 62
    4
 10
3657.1501399299181
 20
1260.2410513398267
 11
3742.1501399299213
 21
1345.2410513398297
  0
LINE
  8
_0-a_ラッチ平面受け
  6
CONTINUOUS
 62
    4
 10
3628.8658686824728
 20
1260.2410513398292
 11
3713.8658686824701
 21
1345.2410513398272
  0
LINE
  8
_0-a_ラッチ平面受け
  6
CONTINUOUS
 62
    4
 10
3600.581597435008
 20
1260.2410513398317
 11
3685.5815974350061
 21
1345.2410513398297
  0
LINE
  8
_0-a_ラッチ平面受け
  6
CONTINUOUS
 62
    4
 10
3572.2973261875354
 20
1260.2410513398256
 11
3657.2973261875381
 21
1345.2410513398283
  0
LINE
  8
_0-a_ラッチ平面受け
  6
CONTINUOUS
 62
    4
 10
3544.0130549400805
 20
1260.2410513398288
 11
3629.0130549400782
 21
1345.2410513398262
  0
LINE
  8
_0-a_ラッチ平面受け
  6
CONTINUOUS
 62
    4
 10
3515.7287836926243
 20
1260.2410513398297
 11
3600.7287836926225
 21
1345.2410513398276
  0
LINE
  8
_0-a_ラッチ平面受け
  6
CONTINUOUS
 62
    4
 10
3487.4445124451594
 20
1260.2410513398322
 11
3572.4445124451581
 21
1345.2410513398303
  0
LINE
  8
_0-a_ラッチ平面受け
  6
CONTINUOUS
 62
    4
 10
3459.1602411976873
 20
1260.2410513398265
 11
3544.1602411976909
 21
1345.241051339829
  0
LINE
  8
_0-a_ラッチ平面受け
  6
CONTINUOUS
 62
    4
 10
3430.8759699502406
 20
1260.2410513398281
 11
3515.8759699502388
 21
1345.241051339826
  0
LINE
  8
_0-a_ラッチ平面受け
  6
CONTINUOUS
 62
    4
 10
3402.5916987027767
 20
1260.2410513398303
 11
3487.5916987027744
 21
1345.2410513398285
  0
LINE
  8
_0-a_ラッチ平面受け
  6
CONTINUOUS
 62
    4
 10
3374.3074274553046
 20
1260.2410513398249
 11
3459.3074274553073
 21
1345.2410513398276
  0
LINE
  8
_0-a_ラッチ平面受け
  6
CONTINUOUS
 62
    4
 10
3346.0231562078397
 20
1260.2410513398274
 11
3431.0231562078433
 21
1345.2410513398303
  0
LINE
  8
_0-a_ラッチ平面受け
  6
CONTINUOUS
 62
    4
 10
3317.7388849603926
 20
1260.2410513398285
 11
3402.7388849603903
 21
1345.2410513398262
  0
LINE
  8
_0-a_ラッチ平面受け
  6
CONTINUOUS
 62
    4
 10
3289.4546137129282
 20
1260.2410513398308
 11
3374.4546137129264
 21
1345.2410513398288
  0
LINE
  8
_0-a_ラッチ平面受け
  6
CONTINUOUS
 62
    4
 10
3261.1703424654569
 20
1260.241051339826
 11
3346.1703424654597
 21
1345.2410513398288
  0
LINE
  8
_0-a_ラッチ平面受け
  6
CONTINUOUS
 62
    4
 10
3232.8860712179925
 20
1260.2410513398288
 11
3317.8860712179953
 21
1345.2410513398313
  0
LINE
  8
_0-a_ラッチ平面受け
  6
CONTINUOUS
 62
    4
 10
3204.6017999705445
 20
1260.241051339829
 11
3289.6017999705427
 21
1345.2410513398267
  0
LINE
  8
_0-a_ラッチ平面受け
  6
CONTINUOUS
 62
    4
 10
3176.3175287230801
 20
1260.2410513398313
 11
3261.3175287230787
 21
1345.2410513398294
  0
LINE
  8
_0-a_ラッチ平面受け
  6
CONTINUOUS
 62
    4
 10
3148.0332574756093
 20
1260.2410513398272
 11
3233.0332574756121
 21
1345.2410513398299
  0
LINE
  8
_0-a_ラッチ平面受け
  6
CONTINUOUS
 62
    4
 10
3119.7489862281454
 20
1260.2410513398297
 11
3204.7489862281481
 21
1345.2410513398326
  0
LINE
  8
_0-a_ラッチ平面受け
  6
CONTINUOUS
 62
    4
 10
3091.4647149806969
 20
1260.2410513398297
 11
3176.4647149806942
 21
1345.2410513398274
  0
LINE
  8
_0-a_ラッチ平面受け
  6
CONTINUOUS
 62
    4
 10
3063.180443733232
 20
1260.2410513398319
 11
3148.1804437332302
 21
1345.2410513398299
  0
LINE
  8
_0-a_ラッチ平面受け
  6
CONTINUOUS
 62
    4
 10
3034.8961724857622
 20
1260.2410513398283
 11
3119.8961724857645
 21
1345.2410513398308
  0
LINE
  8
_0-a_ラッチ平面受け
  6
CONTINUOUS
 62
    4
 10
3006.6119012382978
 20
1260.2410513398306
 11
3091.6119012382955
 21
1345.2410513398283
  0
LINE
  8
_0-a_ラッチ平面受け
  6
CONTINUOUS
 62
    4
 10
2978.3276299908488
 20
1260.2410513398303
 11
3063.3276299908466
 21
1345.2410513398281
  0
LINE
  8
_0-a_ラッチ平面受け
  6
CONTINUOUS
 62
    4
 10
2950.0433587433844
 20
1260.2410513398326
 11
3035.0433587433826
 21
1345.2410513398306
  0
LINE
  8
_0-a_ラッチ平面受け
  6
CONTINUOUS
 62
    4
 10
2921.7590874959141
 20
1260.2410513398292
 11
3006.7590874959169
 21
1345.2410513398319
  0
LINE
  8
_0-a_ラッチ平面受け
  6
CONTINUOUS
 62
    4
 10
2893.4748162484652
 20
1260.2410513398283
 11
2978.4748162484629
 21
1345.2410513398262
  0
LINE
  8
_0-a_ラッチ平面受け
  6
CONTINUOUS
 62
    4
 10
2865.1905450010008
 20
1260.2410513398306
 11
2950.1905450009985
 21
1345.2410513398285
  0
LINE
  8
_0-a_ラッチ平面受け
  6
CONTINUOUS
 62
    4
 10
2836.9062737535314
 20
1260.2410513398278
 11
2921.9062737535341
 21
1345.2410513398306
  0
LINE
  8
_0-a_ラッチ平面受け
  6
CONTINUOUS
 62
    4
 10
3941.1097348588518
 20
752.24105133982095
 11
3986.1097348588555
 21
797.24105133982425
  0
LINE
  8
_0-a_ラッチ平面受け
  6
CONTINUOUS
 62
    4
 10
3912.8254636113879
 20
752.24105133982345
 11
3957.8254636113911
 21
797.24105133982675
  0
LINE
  8
_0-a_ラッチ平面受け
  6
CONTINUOUS
 62
    4
 10
3884.5411923639426
 20
752.24105133982675
 11
3929.5411923639412
 21
797.24105133982516
  0
LINE
  8
_0-a_ラッチ平面受け
  6
CONTINUOUS
 62
    4
 10
3856.2569211164782
 20
752.24105133982925
 11
3901.2569211164773
 21
797.24105133982766
  0
LINE
  8
_0-a_ラッチ平面受け
  6
CONTINUOUS
 62
    4
 10
3827.9726498690047
 20
752.24105133982197
 11
3872.9726498690079
 21
797.24105133982504
  0
LINE
  8
_0-a_ラッチ平面受け
  6
CONTINUOUS
 62
    4
 10
3799.6883786215403
 20
752.24105133982448
 11
3844.6883786215439
 21
797.24105133982777
  0
LINE
  8
_0-a_ラッチ平面受け
  6
CONTINUOUS
 62
    4
 10
3771.4041073740954
 20
752.24105133982766
 11
3816.4041073740927
 21
797.24105133982573
  0
LINE
  8
_0-a_ラッチ平面受け
  6
CONTINUOUS
 62
    4
 10
3743.1198361266301
 20
752.24105133982959
 11
3788.1198361266287
 21
797.241051339828
  0
LINE
  8
_0-a_ラッチ平面受け
  6
CONTINUOUS
 62
    4
 10
3714.8355648791575
 20
752.24105133982288
 11
3759.8355648791607
 21
797.24105133982652
  0
LINE
  8
_0-a_ラッチ平面受け
  6
CONTINUOUS
 62
    4
 10
3686.5512936316927
 20
752.24105133982561
 11
3731.5512936316908
 21
797.24105133982357
  0
LINE
  8
_0-a_ラッチ平面受け
  6
CONTINUOUS
 62
    4
 10
3658.2670223842469
 20
752.24105133982811
 11
3703.2670223842455
 21
797.24105133982629
  0
LINE
  8
_0-a_ラッチ平面受け
  6
CONTINUOUS
 62
    4
 10
3629.982751136782
 20
752.24105133983039
 11
3674.9827511367811
 21
797.24105133982857
  0
LINE
  8
_0-a_ラッチ平面受け
  6
CONTINUOUS
 62
    4
 10
3601.6984798893099
 20
752.24105133982425
 11
3646.6984798893136
 21
797.24105133982743
  0
LINE
  8
_0-a_ラッチ平面受け
  6
CONTINUOUS
 62
    4
 10
3573.4142086418632
 20
752.24105133982607
 11
3618.4142086418614
 21
797.24105133982448
  0
LINE
  8
_0-a_ラッチ平面受け
  6
CONTINUOUS
 62
    4
 10
3545.1299373943993
 20
752.24105133982857
 11
3590.129937394397
 21
797.24105133982686
  0
LINE
  8
_0-a_ラッチ平面受け
  6
CONTINUOUS
 62
    4
 10
3516.8456661469349
 20
752.24105133983107
 11
3561.8456661469326
 21
797.24105133982914
  0
LINE
  8
_0-a_ラッチ平面受け
  6
CONTINUOUS
 62
    4
 10
3488.5613948994619
 20
752.24105133982504
 11
3533.5613948994655
 21
797.24105133982845
  0
LINE
  8
_0-a_ラッチ平面受け
  6
CONTINUOUS
 62
    4
 10
3460.2771236520152
 20
752.24105133982664
 11
3505.2771236520134
 21
797.24105133982504
  0
LINE
  8
_0-a_ラッチ平面受け
  6
CONTINUOUS
 62
    4
 10
3431.9928524045508
 20
752.24105133982902
 11
3476.992852404549
 21
797.24105133982732
  0
LINE
  8
_0-a_ラッチ平面受け
  6
CONTINUOUS
 62
    4
 10
3403.7085811570786
 20
752.24105133982357
 11
3448.7085811570818
 21
797.24105133982686
  0
LINE
  8
_0-a_ラッチ平面受け
  6
CONTINUOUS
 62
    4
 10
3375.4243099096147
 20
752.24105133982618
 11
3420.4243099096179
 21
797.24105133982959
  0
LINE
  8
_0-a_ラッチ平面受け
  6
CONTINUOUS
 62
    4
 10
3347.1400386621671
 20
752.2410513398272
 11
3392.1400386621653
 21
797.2410513398255
  0
LINE
  8
_0-a_ラッチ平面受け
  6
CONTINUOUS
 62
    4
 10
3318.8557674147027
 20
752.24105133982959
 11
3363.8557674147014
 21
797.24105133982789
  0
LINE
  8
_0-a_ラッチ平面受け
  6
CONTINUOUS
 62
    4
 10
3290.571496167231
 20
752.24105133982459
 11
3335.5714961672347
 21
797.241051339828
  0
LINE
  8
_0-a_ラッチ平面受け
  6
CONTINUOUS
 62
    4
 10
3262.2872249197671
 20
752.24105133982732
 11
3307.2872249197707
 21
797.24105133983061
  0
LINE
  8
_0-a_ラッチ平面受け
  6
CONTINUOUS
 62
    4
 10
3234.0029536723195
 20
752.24105133982789
 11
3279.0029536723177
 21
797.24105133982607
  0
LINE
  8
_0-a_ラッチ平面受け
  6
CONTINUOUS
 62
    4
 10
3205.7186824248547
 20
752.24105133983016
 11
3250.7186824248533
 21
797.24105133982845
  0
LINE
  8
_0-a_ラッチ平面受け
  6
CONTINUOUS
 62
    4
 10
3177.4344111773834
 20
752.24105133982573
 11
3222.4344111773871
 21
797.24105133982902
  0
LINE
  8
_0-a_ラッチ平面受け
  6
CONTINUOUS
 62
    4
 10
3149.1501399299199
 20
752.24105133982834
 11
3194.1501399299181
 21
797.24105133982629
  0
LINE
  8
_0-a_ラッチ平面受け
  6
CONTINUOUS
 62
    4
 10
3120.8658686824715
 20
752.24105133982845
 11
3165.8658686824696
 21
797.24105133982675
  0
LINE
  8
_0-a_ラッチ平面受け
  6
CONTINUOUS
 62
    4
 10
3092.581597435007
 20
752.24105133983073
 11
3137.5815974350052
 21
797.24105133982902
  0
LINE
  8
_0-a_ラッチ平面受け
  6
CONTINUOUS
 62
    4
 10
3064.2973261875363
 20
752.24105133982675
 11
3109.2973261875395
 21
797.24105133983016
  0
LINE
  8
_0-a_ラッチ平面受け
  6
CONTINUOUS
 62
    4
 10
3036.0130549400819
 20
752.24105133983005
 11
3081.0130549400801
 21
797.24105133982811
  0
LINE
  8
_0-a_ラッチ平面受け
  6
CONTINUOUS
 62
    4
 10
3007.7287836926234
 20
752.24105133982902
 11
3052.7287836926216
 21
797.24105133982732
  0
LINE
  8
_0-a_ラッチ平面受け
  6
CONTINUOUS
 62
    4
 10
2979.444512445159
 20
752.2410513398313
 11
3024.4445124451572
 21
797.24105133982959
  0
LINE
  8
_0-a_ラッチ平面受け
  6
CONTINUOUS
 62
    4
 10
2951.1602411976891
 20
752.24105133982789
 11
2996.1602411976923
 21
797.2410513398313
  0
LINE
  8
_0-a_ラッチ平面受け
  6
CONTINUOUS
 62
    4
 10
2922.8759699502393
 20
752.24105133982698
 11
2967.8759699502379
 21
797.24105133982538
  0
LINE
  8
_0-a_ラッチ平面受け
  6
CONTINUOUS
 62
    4
 10
2894.5916987027753
 20
752.24105133982948
 11
2939.591698702774
 21
797.24105133982777
  0
LINE
  8
_0-a_ラッチ平面受け
  6
CONTINUOUS
 62
    4
 10
2866.3074274553059
 20
752.24105133982629
 11
2911.3074274553086
 21
797.2410513398297
  0
LINE
  8
_0-a_ラッチ平面受け
  6
CONTINUOUS
 62
    4
 10
2838.0231562078415
 20
752.24105133982902
 11
2883.0231562078452
 21
797.24105133983232
  0
LINE
  8
_0-4_背面本体
  6
CONTINUOUS
 62
    3
 10
1941.8570920036447
 20
1340.2410513398299
 11
1929.8570920036445
 21
1340.2410513398299
  0
LINE
  8
_0-4_背面本体
  6
CONTINUOUS
 62
    3
 10
1929.8570920036445
 20
760.24105133982959
 11
1929.8570920036445
 21
1340.2410513398299
  0
LINE
  8
_0-4_背面本体
  6
CONTINUOUS
 62
    3
 10
1941.8570920036447
 20
760.24105133982959
 11
1941.8570920036447
 21
1340.2410513398299
  0
LINE
  8
_0-5_平面本体
  6
CONTINUOUS
 62
    4
 10
1943.4570920036446
 20
774.2410513398297
 11
1943.4570920036446
 21
732.24105133982959
  0
LINE
  8
_0-5_平面本体
  6
CONTINUOUS
 62
    4
 10
1942.9570920036444
 20
774.74105133982959
 11
1942.6570920036447
 21
774.74105133982959
  0
LINE
  8
_0-5_平面本体
  6
CONTINUOUS
 62
    4
 10
1942.1570920036451
 20
765.9655511396694
 11
1942.1570920036451
 21
773.31655153998997
  0
LINE
  8
_0-5_平面本体
  6
CONTINUOUS
 62
    4
 10
1942.1570920036451
 20
760.54105133982955
 11
1942.1570920036451
 21
764.71655153998983
  0
LINE
  8
_0-5_平面本体
  6
CONTINUOUS
 62
    4
 10
1942.1570920036451
 20
756.79143867805476
 11
1942.1570920036451
 21
732.24105133982959
  0
LINE
  8
_0-5_平面本体
  6
CONTINUOUS
 62
    4
 10
1941.4570920036442
 20
731.54105133982955
 11
1930.6856634322166
 21
731.54105133982955
  0
LINE
  8
_0-5_平面本体
  6
CONTINUOUS
 62
    4
 10
1930.0235012700534
 20
732.01402431280246
 11
1928.8946718560112
 21
735.30644343709377
  0
LINE
  8
_0-5_平面本体
  6
CONTINUOUS
 62
    4
 10
1928.7937715403245
 20
731.59240269118095
 11
1927.311146057699
 21
735.91672701550521
  0
LINE
  8
_0-5_平面本体
  6
CONTINUOUS
 62
    4
 10
1929.157092003644
 20
760.54105133982955
 11
1929.157092003644
 21
765.44105133982941
  0
LINE
  8
_0-5_平面本体
  6
CONTINUOUS
 62
    4
 10
1941.8570920036449
 20
760.24105133982959
 11
1929.4570920036449
 21
760.24105133982959
  0
LINE
  8
_0-5_平面本体
  6
CONTINUOUS
 62
    4
 10
1927.5570920036448
 20
759.59066400160406
 11
1927.5570920036448
 21
765.44105133982941
  0
LINE
  8
_0-5_平面本体
  6
CONTINUOUS
 62
    4
 10
1941.2087470890724
 20
757.79010366299701
 11
1928.5054369182159
 21
758.59199901666204
  0
LINE
  8
_0-5_平面本体
  6
CONTINUOUS
 62
    4
 10
1930.6856634322166
 20
730.24105133982959
 11
1941.4570920036442
 21
730.24105133982959
  0
ARC
  8
_0-5_平面本体
  6
CONTINUOUS
 62
    4
 10
1941.4570920036442
 20
732.24105133982959
 40
0.6999999999999999
 50
270
 51
0
  0
ARC
  8
_0-5_平面本体
  6
CONTINUOUS
 62
    4
 10
1942.9570920036444
 20
774.2410513398297
 40
0.4999999999999997
 50
0
 51
90
  0
ARC
  8
_0-5_平面本体
  6
CONTINUOUS
 62
    4
 10
1942.6570920036447
 20
773.94105133982964
 40
0.8000000000000001
 50
89.999999999999971
 51
231.31781254650667
  0
ARC
  8
_0-5_平面本体
  6
CONTINUOUS
 62
    4
 10
1942.6570920036447
 20
765.3410513398295
 40
0.8000000000000001
 50
128.68218745349335
 51
231.31781254650667
  0
ARC
  8
_0-5_平面本体
  6
CONTINUOUS
 62
    4
 10
1941.8570920036449
 20
760.54105133982955
 40
0.2999999999999998
 50
270
 51
0
  0
ARC
  8
_0-5_平面本体
  6
CONTINUOUS
 62
    4
 10
1941.1570920036444
 20
756.79143867805476
 40
0.9999999999999996
 50
359.99999999999994
 51
87.03906386583624
  0
ARC
  8
_0-5_平面本体
  6
CONTINUOUS
 62
    4
 10
1928.3570920036447
 20
765.44105133982941
 40
0.8000000000000001
 50
0.0000000000000254
 51
179.99999999999997
  0
ARC
  8
_0-5_平面本体
  6
CONTINUOUS
 62
    4
 10
1930.6856634322166
 20
732.24105133982959
 40
0.6999999999999999
 50
198.92464441604994
 51
270
  0
ARC
  8
_0-5_平面本体
  6
CONTINUOUS
 62
    4
 10
1929.0838610451999
 20
735.37130830195849
 40
0.2
 50
133.54896276822287
 51
198.92464441605298
  0
ARC
  8
_0-5_平面本体
  6
CONTINUOUS
 62
    4
 10
1928.2570920036448
 20
736.24105133982936
 40
0.9999999999999996
 50
313.54896276821995
 51
198.92464441604971
  0
ARC
  8
_0-5_平面本体
  6
CONTINUOUS
 62
    4
 10
1929.4570920036449
 20
760.54105133982955
 40
0.2999999999999998
 50
179.99999999999997
 51
270
  0
ARC
  8
_0-5_平面本体
  6
CONTINUOUS
 62
    4
 10
1928.5570920036445
 20
759.59066400160406
 40
0.9999999999999996
 50
180
 51
267.03906386583628
  0
LINE
  8
ADD_LINE
  6
DOT
 62
    9
 10
1929.3455601201508
 20
766.24105133982936
 11
1927.2398654778442
 21
766.24105133982936
  0
LINE
  8
ADD_LINE
  6
DOT
 62
    9
 10
1927.5570920036448
 20
759.59066400160406
 11
1927.5570920036448
 21
758.64105133982673
  0
LINE
  8
ADD_LINE
  6
DOT
 62
    9
 10
1928.5054369182159
 20
758.59199901666204
 11
1927.5570920036448
 21
758.64105133982673
  0
LINE
  8
ADD_LINE
  6
DOT
 62
    9
 10
1930.7064105819317
 20
737.24105133982959
 11
1925.5850035696505
 21
737.24105133982959
  0
LINE
  8
ADD_LINE
  6
DOT
 62
    7
 10
1941.21080130591
 20
765.34105133982973
 11
1942.4383229062705
 21
765.34105133982973
  0
ARC
  8
_0-5_平面本体
  6
CONTINUOUS
 62
    4
 10
1941.4570920036442
 20
732.24105133982959
 40
1.9999999999999995
 50
269.99999999999994
 51
359.99999999999994
  0
ARC
  8
_0-5_平面本体
  6
CONTINUOUS
 62
    4
 10
1930.6856634322166
 20
732.24105133982959
 40
1.9999999999999995
 50
198.92464441605042
 51
270
  0
LINE
  8
_0-3_断面__扉
  6
CONTINUOUS
 62
    4
 10
1522.8247627124026
 20
2204.2744603287765
 11
1522.8247627124026
 21
2545.7744603287765
  0
LINE
  8
_0-3_断面__扉
  6
CONTINUOUS
 62
    4
 10
322.82476271240255
 20
2545.7744603287765
 11
1522.8247627124026
 21
2545.7744603287765
  0
LINE
  8
_0-3_断面__扉
  6
CONTINUOUS
 62
    4
 10
322.82476271240255
 20
2204.2744603287765
 11
1522.8247627124026
 21
2204.2744603287765
  0
LINE
  8
_0-3_断面__扉
  6
CONTINUOUS
 62
    4
 10
1522.8247627124026
 20
745.2410513398288
 11
1522.8247627124026
 21
1345.241051339829
  0
LINE
  8
_0-3_断面__扉
  6
CONTINUOUS
 62
    4
 10
1517.8247627124023
 20
745.2410513398288
 11
1522.8247627124026
 21
745.2410513398288
  0
LINE
  8
_0-3_断面__扉
  6
CONTINUOUS
 62
    4
 10
1522.8247627124026
 20
1345.241051339829
 11
322.82476271240255
 21
1345.241051339829
  0
LINE
  8
_0-3_断面__扉
  6
DASHED1
 62
    2
 10
328.32476271240295
 20
745.2410513398288
 11
1517.8247627124023
 21
745.2410513398288
  0
LINE
  8
_0-3_断面__扉
  6
CONTINUOUS
 62
    5
 10
4004.8913935730729
 20
1345.2410513398294
 11
4004.8913935730729
 21
745.24105133982902
  0
LINE
  8
_0-3_断面__扉
  6
CONTINUOUS
 62
    5
 10
2804.8913935730729
 20
1345.2410513398294
 11
4004.8913935730729
 21
1345.2410513398294
  0
LINE
  8
_0-3_断面__扉
  6
CONTINUOUS
 62
    5
 10
2804.8913935730729
 20
745.24105133982902
 11
4004.8913935730729
 21
745.24105133982902
  0
LINE
  8
_0-9_ラッチ断面__受け
  6
DASHED1
 62
    9
 10
1521.8247627124028
 20
2735.6659281893189
 11
1608.2823028923394
 21
2735.6659281893189
  0
LINE
  8
_0-9_ラッチ断面__受け
  6
DASHED1
 62
    9
 10
1521.8247627124028
 20
2655.6659281893189
 11
1608.2823028923394
 21
2655.6659281893189
  0
LINE
  8
_0-9_ラッチ断面__受け
  6
DASHED1
 62
    9
 10
1711.8247627124028
 20
2187.6659281893184
 11
1711.8247627124028
 21
2101.2083880093819
  0
LINE
  8
_0-9_ラッチ断面__受け
  6
DASHED1
 62
    9
 10
1631.8247627124028
 20
2187.6659281893184
 11
1631.8247627124028
 21
2101.2083880093819
  0
POINT
  8
_0-9_ラッチ断面__受け
 62
    4
 10
1711.8247627124028
 20
2545.6659281893184
  0
POINT
  8
_0-9_ラッチ断面__受け
 62
    4
 10
1711.8247627124028
 20
2187.6659281893184
  0
LINE
  8
_0-9_ラッチ断面__受け
  6
CONTINUOUS
 62
    4
 10
1721.8247627124028
 20
2187.6659281893184
 11
1551.8247627124028
 21
2187.6659281893184
  0
LINE
  8
_0-9_ラッチ断面__受け
  6
CONTINUOUS
 62
    4
 10
1721.8247627124028
 20
2545.6659281893184
 11
1551.8247627124028
 21
2545.6659281893184
  0
POINT
  8
_0-9_ラッチ断面__受け
 62
    4
 10
1711.8247627124028
 20
1345.1325192003716
  0
LINE
  8
_0-9_ラッチ断面__受け
  6
CONTINUOUS
 62
    4
 10
1721.8247627124028
 20
1345.1325192003716
 11
1551.8247627124028
 21
1345.1325192003716
  0
LINE
  8
_0-9_ラッチ断面__受け
  6
DASHED1
 62
    9
 10
2477.8570920036445
 20
745.13251920037146
 11
2477.8570920036445
 21
658.67497902043498
  0
LINE
  8
_0-9_ラッチ断面__受け
  6
DASHED1
 62
    9
 10
2397.8570920036445
 20
745.13251920037146
 11
2397.8570920036445
 21
658.67497902043498
  0
POINT
  8
_0-9_ラッチ断面__受け
 62
    4
 10
2477.8570920036445
 20
1345.1325192003719
  0
POINT
  8
_0-9_ラッチ断面__受け
 62
    4
 10
2477.8570920036445
 20
745.13251920037146
  0
LINE
  8
_0-9_ラッチ断面__受け
  6
CONTINUOUS
 62
    4
 10
2487.8570920036445
 20
745.13251920037146
 11
2317.8570920036445
 21
745.13251920037146
  0
LINE
  8
_0-9_ラッチ断面__受け
  6
CONTINUOUS
 62
    4
 10
2487.8570920036445
 20
1345.1325192003719
 11
2317.8570920036445
 21
1345.1325192003719
  0
LINE
  8
_0-9_ラッチ断面__受け
  6
DASHED1
 62
    9
 10
2684.4728900719346
 20
1431.590059380308
 11
2684.4728900719346
 21
1345.1325192003716
  0
POINT
  8
_0-9_ラッチ断面__受け
 62
    4
 10
2287.8570920036445
 20
1535.1325192003719
  0
POINT
  8
_0-9_ラッチ断面__受け
 62
    4
 10
1945.857092003644
 20
1535.1325192003719
  0
LINE
  8
_0-9_ラッチ断面__受け
  6
CONTINUOUS
 62
    4
 10
2287.8570920036445
 20
1545.1325192003719
 11
2287.8570920036445
 21
1375.1325192003716
  0
LINE
  8
_0-9_ラッチ断面__受け
  6
CONTINUOUS
 62
    4
 10
1945.857092003644
 20
1545.1325192003719
 11
1945.857092003644
 21
1375.1325192003716
  0
POINT
  8
_0-9_ラッチ断面__受け
 62
    4
 10
1711.8247627124028
 20
745.13251920037146
  0
POINT
  8
_0-9_ラッチ断面__受け
 62
    4
 10
1661.8247627124028
 20
745.13251920037146
  0
LINE
  8
_0-9_ラッチ断面__受け
  6
CONTINUOUS
 62
    4
 10
1661.8247627124028
 20
745.13251920037146
 11
1661.8247627124028
 21
803.02008510027076
  0
LINE
  8
_0-9_ラッチ断面__受け
  6
CONTINUOUS
 62
    4
 10
1661.8247627124028
 20
745.13251920037146
 11
1661.8247627124028
 21
730.1325192003718
  0
POINT
  8
_0-9_ラッチ断面__受け
 62
    4
 10
1661.8247627124028
 20
730.1325192003718
  0
LINE
  8
_0-9_ラッチ断面__受け
  6
CONTINUOUS
 62
    4
 10
1721.8247627124028
 20
745.13251920037146
 11
1551.8247627124028
 21
745.13251920037146
  0
LINE
  8
_0-9_ラッチ断面__受け
  6
CONTINUOUS
 62
    4
 10
1672.4890380773169
 20
730.1325192003718
 11
1551.8247627124028
 21
730.1325192003718
  0
LINE
  8
ADD_LINE
  6
DOT
 62
    9
 10
1552.8247627124026
 20
2575.7744603287765
 11
1552.8247627124026
 21
2174.2744603287765
  0
LINE
  8
ADD_LINE
  6
DOT
 62
    9
 10
1552.8247627124026
 20
2174.2744603287765
 11
292.82476271240255
 21
2174.2744603287765
  0
LINE
  8
ADD_LINE
  6
DOT
 62
    9
 10
292.82476271240255
 20
2575.7744603287765
 11
1552.8247627124026
 21
2575.7744603287765
  0
LINE
  8
ADD_LINE
  6
DOT
 62
    9
 10
292.82476271240255
 20
2174.2744603287765
 11
292.82476271240255
 21
2575.7744603287765
  0
LINE
  8
ADD_LINE
  6
DOT
 62
    9
 10
292.82476271240255
 20
1375.241051339829
 11
292.82476271240255
 21
715.2410513398288
  0
LINE
  8
ADD_LINE
  6
DOT
 62
    9
 10
292.82476271240255
 20
715.2410513398288
 11
328.32476271240295
 21
715.2410513398288
  0
LINE
  8
ADD_LINE
  6
DOT
 62
    9
 10
328.32476271240295
 20
715.2410513398288
 11
1517.8247627124023
 21
715.2410513398288
  0
LINE
  8
ADD_LINE
  6
DOT
 62
    9
 10
1517.8247627124023
 20
715.2410513398288
 11
1552.8247627124026
 21
715.2410513398288
  0
LINE
  8
ADD_LINE
  6
DOT
 62
    9
 10
1552.8247627124026
 20
715.2410513398288
 11
1552.8247627124026
 21
1375.241051339829
  0
LINE
  8
ADD_LINE
  6
DOT
 62
    9
 10
1915.8570920036454
 20
1375.2410513398297
 11
1915.8570920036454
 21
760.24105133982959
  0
LINE
  8
ADD_LINE
  6
DOT
 62
    9
 10
1915.8570920036454
 20
760.24105133982959
 11
1915.8570920036454
 21
715.24105133982959
  0
LINE
  8
ADD_LINE
  6
DOT
 62
    9
 10
1915.8570920036454
 20
715.24105133982959
 11
2317.8570920036445
 21
715.24105133982959
  0
LINE
  8
ADD_LINE
  6
DOT
 62
    9
 10
2317.8570920036445
 20
715.24105133982959
 11
2317.8570920036445
 21
752.24105133982948
  0
LINE
  8
ADD_LINE
  6
DOT
 62
    9
 10
2317.8570920036445
 20
1375.2410513398297
 11
1915.8570920036454
 21
1375.2410513398297
  0
LINE
  8
ADD_LINE
  6
DOT
 62
    9
 10
2317.8570920036445
 20
752.24105133982948
 11
2317.8570920036445
 21
1375.2410513398297
  0
LINE
  8
ADD_LINE
  6
DOT
 62
    9
 10
4034.8913935730729
 20
1375.2410513398294
 11
4034.8913935730729
 21
715.24105133982902
  0
LINE
  8
ADD_LINE
  6
DOT
 62
    9
 10
4034.8913935730729
 20
715.24105133982902
 11
2774.8913935730729
 21
715.24105133982902
  0
LINE
  8
ADD_LINE
  6
DOT
 62
    9
 10
2774.8913935730729
 20
1375.2410513398294
 11
4034.8913935730729
 21
1375.2410513398294
  0
LINE
  8
ADD_LINE
  6
DOT
 62
    9
 10
2774.8913935730729
 20
715.24105133982902
 11
2774.8913935730729
 21
1375.2410513398294
  0
POINT
  8
_0-9_ラッチ断面__受け
 62
    3
 10
1522.8247627124026
 20
2735.6659281893189
  0
POINT
  8
_0-9_ラッチ断面__受け
 62
    3
 10
322.82476271240255
 20
2735.6659281893189
  0
LINE
  8
_0-9_ラッチ断面__受け
  6
CONTINUOUS
 62
    4
 10
1522.8247627124026
 20
2745.6659281893189
 11
1522.8247627124026
 21
2575.7744603287765
  0
LINE
  8
_0-9_ラッチ断面__受け
  6
CONTINUOUS
 62
    4
 10
322.82476271240255
 20
2745.6659281893189
 11
322.82476271240255
 21
2575.7744603287765
  0
LINE
  8
ADD_LINE
  6
DOT
 62
    9
 10
1552.8247627124026
 20
1535.241051339829
 11
292.82476271240255
 21
1535.241051339829
  0
POINT
  8
_0-9_ラッチ断面__受け
 62
    3
 10
1522.8247627124026
 20
1535.241051339829
  0
POINT
  8
_0-9_ラッチ断面__受け
 62
    3
 10
322.82476271240255
 20
1535.241051339829
  0
LINE
  8
_0-9_ラッチ断面__受け
  6
CONTINUOUS
 62
    4
 10
1522.8247627124026
 20
1545.241051339829
 11
1522.8247627124026
 21
1375.241051339829
  0
LINE
  8
_0-9_ラッチ断面__受け
  6
CONTINUOUS
 62
    4
 10
322.82476271240255
 20
1545.241051339829
 11
322.82476271240255
 21
1375.241051339829
  0
LINE
  8
ADD_LINE
  6
DOT
 62
    9
 10
1517.8247627124023
 20
635.2410513398288
 11
1552.8247627124026
 21
635.2410513398288
  0
LINE
  8
ADD_LINE
  6
DOT
 62
    9
 10
1517.8247627124023
 20
555.2410513398288
 11
1552.8247627124026
 21
555.2410513398288
  0
POINT
  8
_0-9_ラッチ断面__受け
 62
    3
 10
1518.8247627124023
 20
555.2410513398288
  0
LINE
  8
_0-9_ラッチ断面__受け
  6
CONTINUOUS
 62
    4
 10
1518.8247627124023
 20
545.2410513398288
 11
1518.8247627124023
 21
715.2410513398288
  0
POINT
  8
_0-9_ラッチ断面__受け
 62
    3
 10
326.8247627124029
 20
555.2410513398288
  0
LINE
  8
_0-9_ラッチ断面__受け
  6
CONTINUOUS
 62
    4
 10
326.8247627124029
 20
545.2410513398288
 11
326.8247627124029
 21
715.2410513398288
  0
POINT
  8
_0-9_ラッチ断面__受け
 62
    3
 10
322.82476271240255
 20
1535.241051339829
  0
POINT
  8
_0-9_ラッチ断面__受け
 62
    3
 10
1522.8247627124026
 20
1535.241051339829
  0
LINE
  8
_0-9_ラッチ断面__受け
  6
CONTINUOUS
 62
    4
 10
322.82476271240255
 20
1545.241051339829
 11
322.82476271240255
 21
1375.241051339829
  0
LINE
  8
_0-9_ラッチ断面__受け
  6
CONTINUOUS
 62
    4
 10
1522.8247627124026
 20
1545.241051339829
 11
1522.8247627124026
 21
1375.241051339829
  0
LINE
  8
_0-9_ラッチ断面__受け
  6
CONTINUOUS
 62
    4
 10
322.82476271240255
 20
1535.241051339829
 11
1522.8247627124026
 21
1535.241051339829
  0
TEXT
  8
_0-9_ラッチ断面__受け
 62
    7
 10
867.62476271240257
 20
1540.241051339829
 40
35
 41
0.6285714285714286
 50
0
  1
１，２００
  0
LINE
  8
_0-0_立面本体
  6
CONTINUOUS
 62
    4
 10
2477.8570920036445
 20
1345.1325192003719
 11
2477.8570920036445
 21
745.13251920037146
  0
TEXT
  8
_0-9_ラッチ断面__受け
 62
    7
 10
2472.8570920036445
 20
1012.0325192003715
 40
35
 41
0.6285714285714286
 50
90
  1
６００
  0
TEXT
  8
_0-9_ラッチ断面__受け
 62
    7
 10
1656.8247627124028
 20
756.2735565523435
 40
35
 41
0.6285714285714286
 50
90
  1
１５
  0
POINT
  8
_0-9_ラッチ断面__受け
 62
    3
 10
2804.8913935730729
 20
1535.241051339829
  0
POINT
  8
_0-9_ラッチ断面__受け
 62
    3
 10
4004.8913935730729
 20
1535.241051339829
  0
LINE
  8
_0-9_ラッチ断面__受け
  6
CONTINUOUS
 62
    4
 10
2804.8913935730729
 20
1545.241051339829
 11
2804.8913935730729
 21
1375.241051339829
  0
LINE
  8
_0-9_ラッチ断面__受け
  6
CONTINUOUS
 62
    4
 10
4004.8913935730729
 20
1545.241051339829
 11
4004.8913935730729
 21
1375.241051339829
  0
LINE
  8
_0-9_ラッチ断面__受け
  6
CONTINUOUS
 62
    4
 10
2804.8913935730729
 20
1535.241051339829
 11
4004.8913935730729
 21
1535.241051339829
  0
TEXT
  8
_0-9_ラッチ断面__受け
 62
    7
 10
3349.6913935730731
 20
1540.241051339829
 40
35
 41
0.6285714285714286
 50
0
  1
１，２００
  0
POINT
  8
_0-9_ラッチ断面__受け
 62
    4
 10
1979.8164462322185
 20
1117.9703490910967
  0
POINT
  8
_0-9_ラッチ断面__受け
 62
    4
 10
2269.8164462322188
 20
1117.9703490910967
  0
LINE
  8
_0-9_ラッチ断面__受け
  6
CONTINUOUS
 62
    4
 10
1979.8164462322185
 20
1127.9703490910967
 11
1979.8164462322185
 21
1087.9703490910967
  0
LINE
  8
_0-0_立面本体
  6
CONTINUOUS
 62
    4
 10
1979.8164462322185
 20
1117.9703490910967
 11
2269.8164462322188
 21
1117.9703490910967
  0
TEXT
  8
_0-9_ラッチ断面__受け
 62
    7
 10
2091.7164462322189
 20
1122.9703490910967
 40
35
 41
0.6285714285714286
 50
0
  1
２９０
  0
LINE
  8
_0-0_立面本体
  6
CONTINUOUS
 62
    4
 10
1711.8247627124028
 20
1345.1325192003716
 11
1711.8247627124028
 21
745.13251920037146
  0
TEXT
  8
_0-9_ラッチ断面__受け
 62
    7
 10
1706.8247627124032
 20
1012.0325192003715
 40
35
 41
0.6285714285714286
 50
90.000000000000056
  1
６００
  0
POINT
  8
_0-9_ラッチ断面__受け
 62
    4
 10
2397.8570920036445
 20
925.13251920037146
  0
POINT
  8
_0-9_ラッチ断面__受け
 62
    4
 10
2397.8570920036445
 20
985.13251920037146
  0
POINT
  8
_0-9_ラッチ断面__受け
 62
    4
 10
2397.8570920036445
 20
1045.1325192003714
  0
POINT
  8
_0-9_ラッチ断面__受け
 62
    4
 10
2397.8570920036445
 20
1105.1325192003714
  0
POINT
  8
_0-9_ラッチ断面__受け
 62
    4
 10
2397.8570920036445
 20
1165.1325192003714
  0
LINE
  8
_0-0_立面本体
  6
CONTINUOUS
 62
    4
 10
2397.8570920036445
 20
1045.1325192003714
 11
2397.8570920036445
 21
1105.1325192003714
  0
TEXT
  8
_0-9_ラッチ断面__受け
 62
    7
 10
2392.8570920036445
 20
1053.0825192003715
 40
35
 41
0.6285714285714286
 50
90
  1
６０
  0
LINE
  8
_0-0_立面本体
  6
CONTINUOUS
 62
    4
 10
2397.8570920036445
 20
1105.1325192003714
 11
2397.8570920036445
 21
1165.1325192003714
  0
TEXT
  8
_0-9_ラッチ断面__受け
 62
    7
 10
2392.8570920036445
 20
1113.0825192003715
 40
35
 41
0.6285714285714286
 50
90
  1
６０
  0
LINE
  8
_0-0_立面本体
  6
CONTINUOUS
 62
    4
 10
2397.8570920036445
 20
985.13251920037146
 11
2397.8570920036445
 21
1045.1325192003714
  0
TEXT
  8
_0-9_ラッチ断面__受け
 62
    7
 10
2392.8570920036445
 20
993.0825192003715
 40
35
 41
0.6285714285714286
 50
90
  1
６０
  0
LINE
  8
_0-0_立面本体
  6
CONTINUOUS
 62
    4
 10
2397.8570920036445
 20
925.13251920037146
 11
2397.8570920036445
 21
985.13251920037146
  0
TEXT
  8
_0-9_ラッチ断面__受け
 62
    7
 10
2392.8570920036445
 20
933.0825192003715
 40
35
 41
0.6285714285714286
 50
90
  1
６０
  0
LINE
  8
_0-9_ラッチ断面__受け
  6
CONTINUOUS
 62
    4
 10
2407.8570920036445
 20
1165.1325192003714
 11
2317.8570920036445
 21
1165.1325192003714
  0
LINE
  8
_0-9_ラッチ断面__受け
  6
CONTINUOUS
 62
    4
 10
2407.8570920036445
 20
925.13251920037146
 11
2317.8570920036445
 21
925.13251920037146
  0
LINE
  8
_0-9_ラッチ断面__受け
  6
CONTINUOUS
 62
    4
 10
2407.8570920036445
 20
985.13251920037146
 11
2317.8570920036445
 21
985.13251920037146
  0
LINE
  8
_0-9_ラッチ断面__受け
  6
CONTINUOUS
 62
    4
 10
2407.8570920036445
 20
1045.1325192003714
 11
2317.8570920036445
 21
1045.1325192003714
  0
LINE
  8
_0-9_ラッチ断面__受け
  6
CONTINUOUS
 62
    4
 10
2407.8570920036445
 20
1105.1325192003714
 11
2317.8570920036445
 21
1105.1325192003714
  0
POINT
  8
_0-9_ラッチ断面__受け
 62
    3
 10
2397.8570920036445
 20
745.13251920037146
  0
POINT
  8
_0-9_ラッチ断面__受け
 62
    3
 10
2397.8570920036445
 20
925.13251920037146
  0
LINE
  8
_0-9_ラッチ断面__受け
  6
CONTINUOUS
 62
    4
 10
2407.8570920036445
 20
745.13251920037146
 11
2317.8570920036445
 21
745.13251920037146
  0
LINE
  8
_0-9_ラッチ断面__受け
  6
CONTINUOUS
 62
    4
 10
2407.8570920036445
 20
925.13251920037146
 11
2317.8570920036445
 21
925.13251920037146
  0
LINE
  8
_0-9_ラッチ断面__受け
  6
CONTINUOUS
 62
    4
 10
2397.8570920036445
 20
745.13251920037146
 11
2397.8570920036445
 21
925.13251920037146
  0
TEXT
  8
_0-9_ラッチ断面__受け
 62
    7
 10
2392.8570920036445
 20
802.03251920037143
 40
35
 41
0.6285714285714286
 50
90
  1
１８０
  0
LINE
  8
_0-3_断面__扉
  6
CONTINUOUS
 62
    5
 10
3990.3913935730729
 20
1345.2410513398294
 11
3990.3913935730729
 21
745.24105133982902
  0
LINE
  8
_0-a_ラッチ平面受け
  6
CONTINUOUS
 62
    4
 10
3969.3940061063267
 20
752.2410513398288
 11
3990.3913935730729
 21
773.23843880657534
  0
LINE
  8
_0-a_ラッチ平面受け
  6
CONTINUOUS
 62
    4
 10
3911.7085811570773
 20
1260.2410513398224
 11
3990.3913935730729
 21
1338.9238637558178
  0
LINE
  8
_0-a_ラッチ平面受け
  6
CONTINUOUS
 62
    4
 10
3939.9928524045521
 20
1260.2410513398299
 11
3990.3913935730729
 21
1310.6395925083511
  0
LINE
  8
_0-a_ラッチ平面受け
  6
CONTINUOUS
 62
    4
 10
3968.2771236520165
 20
1260.2410513398276
 11
3990.3913935730729
 21
1282.3553212608844
  0
LINE
  8
_0-9_ラッチ断面__受け
  6
CONTINUOUS
 62
    4
 10
1522.8247627124026
 20
2735.6659281893189
 11
322.82476271240255
 21
2735.6659281893189
  0
TEXT
  8
_0-9_ラッチ断面__受け
 62
    7
 10
867.62476271240257
 20
2740.6659281893189
 40
35
 41
0.6285714285714286
 50
0
  1
１，２００
  0
POINT
  8
_0-9_ラッチ断面__受け
 62
    3
 10
2684.4728900719346
 20
1345.2410513398294
  0
POINT
  8
_0-9_ラッチ断面__受け
 62
    3
 10
2684.4728900719346
 20
1260.2410513398294
  0
LINE
  8
_0-9_ラッチ断面__受け
  6
CONTINUOUS
 62
    4
 10
2674.4728900719346
 20
1345.2410513398294
 11
2774.8913935730729
 21
1345.2410513398294
  0
LINE
  8
_0-9_ラッチ断面__受け
  6
CONTINUOUS
 62
    4
 10
2674.4728900719346
 20
1260.2410513398294
 11
2774.8913935730729
 21
1260.2410513398294
  0
LINE
  8
_0-9_ラッチ断面__受け
  6
CONTINUOUS
 62
    4
 10
2684.4728900719346
 20
1345.2410513398294
 11
2684.4728900719346
 21
1260.2410513398294
  0
TEXT
  8
_0-9_ラッチ断面__受け
 62
    7
 10
2679.4728900719346
 20
1280.6910513398293
 40
35
 41
0.6285714285714286
 50
90
  1
８５
  0
POINT
  8
_0-9_ラッチ断面__受け
 62
    3
 10
2684.4728900719346
 20
797.24105133982891
  0
POINT
  8
_0-9_ラッチ断面__受け
 62
    3
 10
2684.4728900719346
 20
752.24105133982891
  0
LINE
  8
_0-9_ラッチ断面__受け
  6
CONTINUOUS
 62
    4
 10
2674.4728900719346
 20
797.24105133982891
 11
2774.8913935730729
 21
797.24105133982891
  0
LINE
  8
_0-9_ラッチ断面__受け
  6
CONTINUOUS
 62
    4
 10
2674.4728900719346
 20
752.24105133982891
 11
2774.8913935730729
 21
752.24105133982891
  0
LINE
  8
_0-9_ラッチ断面__受け
  6
CONTINUOUS
 62
    4
 10
2684.4728900719346
 20
797.24105133982891
 11
2684.4728900719346
 21
752.24105133982891
  0
TEXT
  8
_0-9_ラッチ断面__受け
 62
    7
 10
2679.4728900719346
 20
702.27147294951964
 40
35
 41
0.6285714285714286
 50
90
  1
４５
  0
LINE
  8
_0-9_ラッチ断面__受け
  6
CONTINUOUS
 62
    4
 10
2684.4728900719346
 20
752.24105133982891
 11
2684.4728900719346
 21
703.03683223721668
  0
POINT
  8
_0-9_ラッチ断面__受け
 62
    3
 10
2819.8913935730729
 20
555.2410513398288
  0
POINT
  8
_0-9_ラッチ断面__受け
 62
    3
 10
3989.8913935730729
 20
555.2410513398288
  0
LINE
  8
_0-9_ラッチ断面__受け
  6
CONTINUOUS
 62
    4
 10
2819.8913935730729
 20
545.2410513398288
 11
2819.8913935730729
 21
715.2410513398288
  0
LINE
  8
_0-9_ラッチ断面__受け
  6
CONTINUOUS
 62
    4
 10
3989.8913935730729
 20
545.2410513398288
 11
3989.8913935730729
 21
715.2410513398288
  0
LINE
  8
_0-9_ラッチ断面__受け
  6
CONTINUOUS
 62
    4
 10
2819.8913935730729
 20
555.2410513398288
 11
3989.8913935730729
 21
555.2410513398288
  0
TEXT
  8
_0-9_ラッチ断面__受け
 62
    7
 10
3349.6913935730731
 20
560.2410513398288
 40
35
 41
0.6285714285714286
 50
0
  1
１，１７０
  0
LINE
  8
_0-3_断面__扉
  6
CONTINUOUS
 62
    4
 10
337.32476271240216
 20
2545.7744603287765
 11
337.32476271240216
 21
2204.2744603287765
  0
LINE
  8
_0-3_断面__扉
  6
DASHED1
 62
    2
 10
337.32476271240216
 20
1345.241051339829
 11
337.32476271240216
 21
745.2410513398288
  0
LINE
  8
_0-3_断面__扉
  6
DASHED1
 62
    4
 10
337.32476271240216
 20
2530.7744603287765
 11
1507.8247627124028
 21
2530.7744603287765
  0
LINE
  8
_0-4_背面本体
  6
CONTINUOUS
 62
    3
 10
720.82476271240261
 20
1340.241051339829
 11
326.82476271240261
 21
1340.241051339829
  0
LINE
  8
_0-4_背面本体
  6
CONTINUOUS
 62
    3
 10
1124.824762712403
 20
1340.241051339829
 11
1518.8247627124023
 21
1340.241051339829
  0
LINE
  8
_0-4_背面本体
  6
CONTINUOUS
 62
    3
 10
721.82476271240261
 20
1340.241051339829
 11
1115.8247627124026
 21
1340.241051339829
  0
LINE
  8
_0-4_背面本体
  6
CONTINUOUS
 62
    3
 10
720.82476271240261
 20
730.2410513398288
 11
326.82476271240261
 21
730.2410513398288
  0
LINE
  8
_0-4_背面本体
  6
CONTINUOUS
 62
    3
 10
1124.824762712403
 20
730.2410513398288
 11
1518.8247627124023
 21
730.2410513398288
  0
LINE
  8
_0-4_背面本体
  6
CONTINUOUS
 62
    3
 10
721.82476271240261
 20
730.2410513398288
 11
1115.8247627124026
 21
730.2410513398288
  0
LINE
  8
_0-4_背面本体
  6
CONTINUOUS
 62
    3
 10
326.82476271240261
 20
1340.241051339829
 11
326.82476271240261
 21
730.24105133982914
  0
LINE
  8
_0-4_背面本体
  6
CONTINUOUS
 62
    3
 10
720.82476271240261
 20
1340.241051339829
 11
720.82476271240261
 21
730.24105133982914
  0
LINE
  8
_0-4_背面本体
  6
CONTINUOUS
 62
    3
 10
721.82476271240261
 20
1340.241051339829
 11
721.82476271240261
 21
730.24105133982914
  0
LINE
  8
_0-4_背面本体
  6
CONTINUOUS
 62
    3
 10
1115.8247627124026
 20
1340.241051339829
 11
1115.8247627124026
 21
730.24105133982914
  0
LINE
  8
_0-4_背面本体
  6
CONTINUOUS
 62
    3
 10
1518.8247627124023
 20
1340.241051339829
 11
1518.8247627124023
 21
730.24105133982914
  0
LINE
  8
_0-4_背面本体
  6
CENTER1
 62
    4
 10
720.82476271240261
 20
1340.241051339829
 11
326.82476271240261
 21
1035.241051339829
  0
LINE
  8
_0-4_背面本体
  6
CENTER1
 62
    4
 10
326.82476271240261
 20
1035.241051339829
 11
720.82476271240261
 21
730.24105133982914
  0
LINE
  8
_0-4_背面本体
  6
CENTER1
 62
    4
 10
721.82476271240261
 20
730.24105133982914
 11
1115.8247627124026
 21
1035.241051339829
  0
LINE
  8
_0-4_背面本体
  6
CENTER1
 62
    4
 10
1115.8247627124026
 20
1035.241051339829
 11
721.82476271240261
 21
1340.241051339829
  0
LINE
  8
_0-4_背面本体
  6
CENTER1
 62
    4
 10
1124.824762712403
 20
1340.241051339829
 11
1518.8247627124023
 21
1035.241051339829
  0
LINE
  8
_0-4_背面本体
  6
CENTER1
 62
    4
 10
1518.8247627124023
 20
1035.241051339829
 11
1124.824762712403
 21
730.2410513398288
  0
ARC
  8
_0-5_平面本体
  6
CONTINUOUS
 62
    4
 10
717.82476271240261
 20
734.24105133982948
 40
3.0000000000000004
 50
0
 51
90
  0
ARC
  8
_0-5_平面本体
  6
CONTINUOUS
 62
    4
 10
329.82476271240244
 20
734.24105133982948
 40
3.0000000000000004
 50
90
 51
180
  0
LINE
  8
_0-5_平面本体
  6
CONTINUOUS
 62
    4
 10
720.82476271240261
 20
730.24105133982914
 11
326.82476271240261
 21
730.24105133982914
  0
LINE
  8
_0-5_平面本体
  6
CONTINUOUS
 62
    4
 10
329.82476271240244
 20
737.24105133982925
 11
717.82476271240261
 21
737.24105133982925
  0
LINE
  8
_0-5_平面本体
  6
CONTINUOUS
 62
    4
 10
720.82476271240261
 20
758.6410513398265
 11
326.82476271240261
 21
758.6410513398265
  0
LINE
  8
_0-5_平面本体
  6
CONTINUOUS
 62
    4
 10
720.82476271240261
 20
766.24105133982891
 11
326.82476271240261
 21
766.24105133982891
  0
ARC
  8
_0-5_平面本体
  6
CONTINUOUS
 62
    4
 10
1515.8247627124026
 20
734.24105133982948
 40
3.0000000000000004
 50
0
 51
90
  0
ARC
  8
_0-5_平面本体
  6
CONTINUOUS
 62
    4
 10
1127.8247627124026
 20
734.24105133982948
 40
3.0000000000000004
 50
90
 51
180
  0
LINE
  8
_0-5_平面本体
  6
CONTINUOUS
 62
    4
 10
1518.8247627124023
 20
730.24105133982914
 11
1124.824762712403
 21
730.24105133982914
  0
LINE
  8
_0-5_平面本体
  6
CONTINUOUS
 62
    4
 10
1127.8247627124026
 20
737.24105133982925
 11
1515.8247627124026
 21
737.24105133982925
  0
LINE
  8
_0-5_平面本体
  6
CONTINUOUS
 62
    4
 10
1518.8247627124023
 20
758.6410513398265
 11
1124.824762712403
 21
758.6410513398265
  0
LINE
  8
_0-5_平面本体
  6
CONTINUOUS
 62
    4
 10
1518.8247627124023
 20
766.24105133982891
 11
1124.824762712403
 21
766.24105133982891
  0
ARC
  8
_0-5_平面本体
  6
CONTINUOUS
 62
    4
 10
1112.8247627124026
 20
734.24105133982948
 40
3.0000000000000004
 50
0
 51
90
  0
ARC
  8
_0-5_平面本体
  6
CONTINUOUS
 62
    4
 10
724.82476271240238
 20
734.24105133982948
 40
3.0000000000000004
 50
90
 51
180
  0
LINE
  8
_0-5_平面本体
  6
CONTINUOUS
 62
    4
 10
1115.8247627124026
 20
730.24105133982914
 11
721.82476271240261
 21
730.24105133982914
  0
LINE
  8
_0-5_平面本体
  6
CONTINUOUS
 62
    4
 10
724.82476271240238
 20
737.24105133982925
 11
1112.8247627124026
 21
737.24105133982925
  0
LINE
  8
_0-5_平面本体
  6
CONTINUOUS
 62
    4
 10
1115.8247627124026
 20
758.6410513398265
 11
721.82476271240261
 21
758.6410513398265
  0
LINE
  8
_0-5_平面本体
  6
CONTINUOUS
 62
    4
 10
1115.8247627124026
 20
766.24105133982891
 11
721.82476271240261
 21
766.24105133982891
  0
POINT
  8
_0-9_ラッチ断面__受け
 62
    3
 10
720.82476271240261
 20
555.2410513398288
  0
LINE
  8
_0-9_ラッチ断面__受け
  6
CONTINUOUS
 62
    4
 10
720.82476271240261
 20
545.2410513398288
 11
720.82476271240261
 21
715.2410513398288
  0
POINT
  8
_0-9_ラッチ断面__受け
 62
    3
 10
721.82476271240261
 20
555.2410513398288
  0
LINE
  8
_0-9_ラッチ断面__受け
  6
CONTINUOUS
 62
    4
 10
721.82476271240261
 20
545.2410513398288
 11
721.82476271240261
 21
715.2410513398288
  0
LINE
  8
_0-9_ラッチ断面__受け
  6
CONTINUOUS
 62
    4
 10
720.82476271240261
 20
555.2410513398288
 11
326.8247627124029
 21
555.2410513398288
  0
TEXT
  8
_0-9_ラッチ断面__受け
 62
    7
 10
490.72476271240276
 20
560.2410513398288
 40
35
 41
0.6285714285714286
 50
0
  1
３９４
  0
POINT
  8
_0-9_ラッチ断面__受け
 62
    3
 10
1115.8247627124026
 20
555.2410513398288
  0
LINE
  8
_0-9_ラッチ断面__受け
  6
CONTINUOUS
 62
    4
 10
1115.8247627124026
 20
545.2410513398288
 11
1115.8247627124026
 21
715.2410513398288
  0
LINE
  8
_0-9_ラッチ断面__受け
  6
CONTINUOUS
 62
    4
 10
1124.824762712403
 20
545.2410513398288
 11
1124.824762712403
 21
715.2410513398288
  0
POINT
  8
_0-9_ラッチ断面__受け
 62
    3
 10
1124.824762712403
 20
555.2410513398288
  0
LINE
  8
_0-9_ラッチ断面__受け
  6
CONTINUOUS
 62
    4
 10
1115.8247627124026
 20
555.2410513398288
 11
721.82476271240261
 21
555.2410513398288
  0
TEXT
  8
_0-9_ラッチ断面__受け
 62
    7
 10
885.72476271240248
 20
560.2410513398288
 40
35
 41
0.6285714285714286
 50
0
  1
３９４
  0
LINE
  8
_0-9_ラッチ断面__受け
  6
CONTINUOUS
 62
    4
 10
1518.8247627124023
 20
555.2410513398288
 11
1124.824762712403
 21
555.2410513398288
  0
TEXT
  8
_0-9_ラッチ断面__受け
 62
    7
 10
1288.7247627124024
 20
560.2410513398288
 40
35
 41
0.6285714285714286
 50
0
  1
３９４
  0
LINE
  8
_0-4_背面本体
  6
CONTINUOUS
 62
    3
 10
1518.8247627124023
 20
2199.7744603287769
 11
1518.8247627124023
 21
2187.7744603287765
  0
LINE
  8
_0-4_背面本体
  6
CONTINUOUS
 62
    3
 10
327.82476271240255
 20
2199.7744603287769
 11
327.82476271240255
 21
2187.7744603287765
  0
LINE
  8
_0-4_背面本体
  6
CONTINUOUS
 62
    3
 10
1124.824762712403
 20
2199.7744603287769
 11
1124.824762712403
 21
2187.7744603287765
  0
LINE
  8
_0-4_背面本体
  6
CONTINUOUS
 62
    3
 10
1115.8247627124028
 20
2199.7744603287769
 11
1115.8247627124028
 21
2187.7744603287765
  0
LINE
  8
_0-4_背面本体
  6
CONTINUOUS
 62
    3
 10
1518.8247627124023
 20
2199.7744603287769
 11
1124.824762712403
 21
2199.7744603287769
  0
LINE
  8
_0-4_背面本体
  6
CONTINUOUS
 62
    3
 10
1518.8247627124023
 20
2187.7744603287765
 11
1124.824762712403
 21
2187.7744603287765
  0
LINE
  8
_0-3_断面__扉
  6
CONTINUOUS
 62
    4
 10
1508.3247627124028
 20
2204.2744603287765
 11
1508.3247627124028
 21
2545.7744603287765
  0
LINE
  8
_0-3_断面__扉
  6
CONTINUOUS
 62
    4
 10
337.32476271240216
 20
2530.7744603287765
 11
1508.3247627124028
 21
2530.7744603287765
  0
LINE
  8
_0-3_断面__扉
  6
DASHED1
 62
    4
 10
337.32476271240216
 20
2527.7744603287765
 11
1508.3247627124028
 21
2527.7744603287765
  0
LINE
  8
_0-3_断面__扉
  6
DASHED1
 62
    2
 10
1110.8247627124026
 20
1330.241051339829
 11
1110.8247627124026
 21
765.74105133982868
  0
LINE
  8
_0-3_断面__扉
  6
DASHED1
 62
    2
 10
1135.8247627124026
 20
1330.241051339829
 11
1135.8247627124026
 21
765.74105133982868
  0
LINE
  8
_0-3_断面__扉
  6
CONTINUOUS
 62
    5
 10
2819.3913935730734
 20
1345.2410513398294
 11
2819.3913935730734
 21
745.24105133982902
  0
LINE
  8
_0-a_ラッチ平面受け
  6
CONTINUOUS
 62
    4
 10
2819.3913935730734
 20
1327.5789849017517
 11
2837.0534600111504
 21
1345.241051339829
  0
LINE
  8
_0-a_ラッチ平面受け
  6
CONTINUOUS
 62
    4
 10
2819.3913935730734
 20
1299.294713654285
 11
2865.3377312586148
 21
1345.2410513398267
  0
LINE
  8
_0-a_ラッチ平面受け
  6
CONTINUOUS
 62
    4
 10
2819.3913935730734
 20
1271.0104424068365
 11
2893.6220025060697
 21
1345.2410513398331
  0
LINE
  8
_0-3_断面__扉
  6
CONTINUOUS
 62
    2
 10
2819.3913935730734
 20
1260.2410513398294
 11
3990.3913935730729
 21
1260.2410513398294
  0
LINE
  8
_0-3_断面__扉
  6
CONTINUOUS
 62
    4
 10
2819.3913935730734
 20
752.24105133982891
 11
3990.3913935730729
 21
752.24105133982891
  0
LINE
  8
_0-a_ラッチ平面受け
  6
CONTINUOUS
 62
    4
 10
2819.3913935730734
 20
761.89355995250912
 11
2854.7388849603894
 21
797.24105133982584
  0
LINE
  8
_0-a_ラッチ平面受け
  6
CONTINUOUS
 62
    4
 10
2819.3913935730734
 20
790.17783119997579
 11
2826.4546137129259
 21
797.24105133982834
  0
LINE
  8
_0-3_断面__扉
  6
CONTINUOUS
 62
    2
 10
2819.3913935730734
 20
797.24105133982891
 11
3990.3913935730729
 21
797.24105133982891
  0
LINE
  8
_0-3_断面__扉
  6
CONTINUOUS
 62
    4
 10
1945.8570920036456
 20
1345.1325192003719
 11
2287.8570920036445
 21
1345.1325192003719
  0
LINE
  8
_0-3_断面__扉
  6
CONTINUOUS
 62
    4
 10
2287.8570920036445
 20
1327.1325192003721
 11
2287.8570920036445
 21
1331.1325192003719
  0
LINE
  8
_0-3_断面__扉
  6
CONTINUOUS
 62
    4
 10
2287.8570920036445
 20
1345.1325192003719
 11
2287.8570920036445
 21
1331.1325192003719
  0
LINE
  8
_0-3_断面__扉
  6
CONTINUOUS
 62
    4
 10
2272.8570920036445
 20
1260.1325192003716
 11
2287.8570920036445
 21
1260.1325192003716
  0
LINE
  8
_0-3_断面__扉
  6
CONTINUOUS
 62
    4
 10
2287.8570920036445
 20
1345.1325192003719
 11
2272.8570920036445
 21
1260.1325192003716
  0
LINE
  8
_0-3_断面__扉
  6
CONTINUOUS
 62
    5
 10
2287.8570920036445
 20
752.13251920037168
 11
2287.8570920036445
 21
745.13251920037146
  0
LINE
  8
_0-3_断面__扉
  6
CONTINUOUS
 62
    5
 10
1945.8570920036456
 20
745.13251920037146
 11
2287.8570920036445
 21
745.13251920037146
  0
LINE
  8
_0-3_断面__扉
  6
CONTINUOUS
 62
    5
 10
1945.8570920036456
 20
760.13251920037146
 11
1945.8570920036456
 21
745.13251920037146
  0
LINE
  8
_0-3_断面__扉
  6
CONTINUOUS
 62
    4
 10
2287.8570920036445
 20
797.13251920037168
 11
2272.8570920036445
 21
752.13251920037168
  0
LINE
  8
_0-3_断面__扉
  6
CONTINUOUS
 62
    4
 10
2272.8570920036445
 20
797.13251920037168
 11
2287.8570920036445
 21
797.13251920037168
  0
LINE
  8
_0-3_断面__扉
  6
CONTINUOUS
 62
    4
 10
1945.8570920036456
 20
1345.1325192003719
 11
1945.8570920036456
 21
760.13251920037146
  0
LINE
  8
_0-3_断面__扉
  6
CONTINUOUS
 62
    4
 10
2272.8570920036445
 20
752.13251920037168
 11
2272.8570920036445
 21
1345.1325192003719
  0
LINE
  8
_0-3_断面__扉
  6
CONTINUOUS
 62
    4
 10
2287.8570920036445
 20
1327.1325192003721
 11
2287.8570920036445
 21
752.13251920037168
  0
CIRCLE
  8
_0-3_断面__扉
  6
CONTINUOUS
 62
    4
 10
1994.8570920036454
 20
1165.1325192003714
 40
2.5
  0
LINE
  8
ADD_LINE
  6
DOT
 62
    9
 10
1994.8570920036454
 20
1165.1325192003714
 11
1965.0870953950648
 21
1165.1325192003714
  0
CIRCLE
  8
_0-3_断面__扉
  6
CONTINUOUS
 62
    7
 10
1994.8570920036454
 20
1165.1325192003714
 40
2.5
  0
LINE
  8
_0-3_断面__扉
  6
CENTER2
 62
    4
 10
1994.8570920036454
 20
1175.1325192003714
 11
1994.8570920036454
 21
1155.1325192003714
  0
LINE
  8
_0-3_断面__扉
  6
CENTER2
 62
    4
 10
1984.8570920036454
 20
1165.1325192003714
 11
2007.3570920036454
 21
1165.1325192003714
  0
LINE
  8
ADD_LINE
  6
DOT
 62
    9
 10
2234.8570920036454
 20
1165.1325192003714
 11
2253.764889853076
 21
1165.1325192003714
  0
CIRCLE
  8
_0-3_断面__扉
  6
CONTINUOUS
 62
    4
 10
2246.8570920036454
 20
1165.1325192003714
 40
2.5
  0
CIRCLE
  8
_0-3_断面__扉
  6
CONTINUOUS
 62
    7
 10
2246.8570920036454
 20
1165.1325192003714
 40
2.5
  0
LINE
  8
_0-3_断面__扉
  6
CENTER2
 62
    4
 10
2246.8570920036454
 20
1175.1325192003714
 11
2246.8570920036454
 21
1155.1325192003714
  0
LINE
  8
_0-3_断面__扉
  6
CENTER2
 62
    4
 10
2236.8570920036454
 20
1165.1325192003714
 11
2259.3570920036454
 21
1165.1325192003714
  0
CIRCLE
  8
_0-3_断面__扉
  6
CONTINUOUS
 62
    4
 10
1994.8570920036454
 20
1105.1325192003716
 40
2.5
  0
LINE
  8
ADD_LINE
  6
DOT
 62
    9
 10
1994.8570920036454
 20
1105.1325192003716
 11
1965.0870953950648
 21
1105.1325192003716
  0
CIRCLE
  8
_0-3_断面__扉
  6
CONTINUOUS
 62
    7
 10
1994.8570920036454
 20
1105.1325192003716
 40
2.5
  0
LINE
  8
_0-3_断面__扉
  6
CENTER2
 62
    4
 10
1994.8570920036454
 20
1115.1325192003716
 11
1994.8570920036454
 21
1095.1325192003716
  0
LINE
  8
_0-3_断面__扉
  6
CENTER2
 62
    4
 10
1984.8570920036454
 20
1105.1325192003716
 11
2007.3570920036454
 21
1105.1325192003716
  0
LINE
  8
ADD_LINE
  6
DOT
 62
    9
 10
2234.8570920036454
 20
1105.1325192003716
 11
2253.764889853076
 21
1105.1325192003716
  0
CIRCLE
  8
_0-3_断面__扉
  6
CONTINUOUS
 62
    4
 10
2246.8570920036454
 20
1105.1325192003716
 40
2.5
  0
CIRCLE
  8
_0-3_断面__扉
  6
CONTINUOUS
 62
    7
 10
2246.8570920036454
 20
1105.1325192003716
 40
2.5
  0
LINE
  8
_0-3_断面__扉
  6
CENTER2
 62
    4
 10
2246.8570920036454
 20
1115.1325192003716
 11
2246.8570920036454
 21
1095.1325192003716
  0
LINE
  8
_0-3_断面__扉
  6
CENTER2
 62
    4
 10
2236.8570920036454
 20
1105.1325192003716
 11
2259.3570920036454
 21
1105.1325192003716
  0
CIRCLE
  8
_0-3_断面__扉
  6
CONTINUOUS
 62
    4
 10
1994.8570920036454
 20
1045.1325192003714
 40
2.5
  0
LINE
  8
ADD_LINE
  6
DOT
 62
    9
 10
1994.8570920036454
 20
1045.1325192003714
 11
1965.0870953950648
 21
1045.1325192003714
  0
CIRCLE
  8
_0-3_断面__扉
  6
CONTINUOUS
 62
    7
 10
1994.8570920036454
 20
1045.1325192003714
 40
2.5
  0
LINE
  8
_0-3_断面__扉
  6
CENTER2
 62
    4
 10
1994.8570920036454
 20
1055.1325192003716
 11
1994.8570920036454
 21
1035.1325192003714
  0
LINE
  8
_0-3_断面__扉
  6
CENTER2
 62
    4
 10
1984.8570920036454
 20
1045.1325192003714
 11
2007.3570920036454
 21
1045.1325192003714
  0
LINE
  8
ADD_LINE
  6
DOT
 62
    9
 10
2234.8570920036454
 20
1045.1325192003714
 11
2253.764889853076
 21
1045.1325192003714
  0
CIRCLE
  8
_0-3_断面__扉
  6
CONTINUOUS
 62
    4
 10
2246.8570920036454
 20
1045.1325192003714
 40
2.5
  0
CIRCLE
  8
_0-3_断面__扉
  6
CONTINUOUS
 62
    7
 10
2246.8570920036454
 20
1045.1325192003714
 40
2.5
  0
LINE
  8
_0-3_断面__扉
  6
CENTER2
 62
    4
 10
2246.8570920036454
 20
1055.1325192003716
 11
2246.8570920036454
 21
1035.1325192003714
  0
LINE
  8
_0-3_断面__扉
  6
CENTER2
 62
    4
 10
2236.8570920036454
 20
1045.1325192003714
 11
2259.3570920036454
 21
1045.1325192003714
  0
CIRCLE
  8
_0-3_断面__扉
  6
CONTINUOUS
 62
    4
 10
1994.8570920036454
 20
985.13251920037146
 40
2.5
  0
LINE
  8
ADD_LINE
  6
DOT
 62
    9
 10
1994.8570920036454
 20
985.13251920037146
 11
1965.0870953950648
 21
985.13251920037146
  0
CIRCLE
  8
_0-3_断面__扉
  6
CONTINUOUS
 62
    7
 10
1994.8570920036454
 20
985.13251920037146
 40
2.5
  0
LINE
  8
_0-3_断面__扉
  6
CENTER2
 62
    4
 10
1994.8570920036454
 20
995.13251920037146
 11
1994.8570920036454
 21
975.13251920037146
  0
LINE
  8
_0-3_断面__扉
  6
CENTER2
 62
    4
 10
1984.8570920036454
 20
985.13251920037146
 11
2007.3570920036454
 21
985.13251920037146
  0
LINE
  8
ADD_LINE
  6
DOT
 62
    9
 10
2234.8570920036454
 20
985.13251920037146
 11
2253.764889853076
 21
985.13251920037146
  0
CIRCLE
  8
_0-3_断面__扉
  6
CONTINUOUS
 62
    4
 10
2246.8570920036454
 20
985.13251920037146
 40
2.5
  0
CIRCLE
  8
_0-3_断面__扉
  6
CONTINUOUS
 62
    7
 10
2246.8570920036454
 20
985.13251920037146
 40
2.5
  0
LINE
  8
_0-3_断面__扉
  6
CENTER2
 62
    4
 10
2246.8570920036454
 20
995.13251920037146
 11
2246.8570920036454
 21
975.13251920037146
  0
LINE
  8
_0-3_断面__扉
  6
CENTER2
 62
    4
 10
2236.8570920036454
 20
985.13251920037146
 11
2259.3570920036454
 21
985.13251920037146
  0
CIRCLE
  8
_0-3_断面__扉
  6
CONTINUOUS
 62
    4
 10
1996.2972550826814
 20
925.13251920037146
 40
2.5
  0
LINE
  8
ADD_LINE
  6
DOT
 62
    9
 10
1996.2972550826814
 20
925.13251920037146
 11
1966.5272584741003
 21
925.13251920037146
  0
CIRCLE
  8
_0-3_断面__扉
  6
CONTINUOUS
 62
    7
 10
1996.2972550826814
 20
925.13251920037146
 40
2.5
  0
LINE
  8
_0-3_断面__扉
  6
CENTER2
 62
    4
 10
1996.2972550826814
 20
935.13251920037146
 11
1996.2972550826814
 21
915.13251920037146
  0
LINE
  8
_0-3_断面__扉
  6
CENTER2
 62
    4
 10
1986.2972550826814
 20
925.13251920037146
 11
2008.7972550826814
 21
925.13251920037146
  0
LINE
  8
ADD_LINE
  6
DOT
 62
    9
 10
2236.2972550826812
 20
925.13251920037146
 11
2255.2050529321118
 21
925.13251920037146
  0
CIRCLE
  8
_0-3_断面__扉
  6
CONTINUOUS
 62
    4
 10
2248.2972550826812
 20
925.13251920037146
 40
2.5
  0
CIRCLE
  8
_0-3_断面__扉
  6
CONTINUOUS
 62
    7
 10
2248.2972550826812
 20
925.13251920037146
 40
2.5
  0
LINE
  8
_0-3_断面__扉
  6
CENTER2
 62
    4
 10
2248.2972550826812
 20
935.13251920037146
 11
2248.2972550826812
 21
915.13251920037146
  0
LINE
  8
_0-3_断面__扉
  6
CENTER2
 62
    4
 10
2238.2972550826812
 20
925.13251920037146
 11
2260.7972550826812
 21
925.13251920037146
  0
LINE
  8
_0-3_断面__扉
  6
CONTINUOUS
 62
    4
 10
2269.8570920036445
 20
752.13251920037168
 11
2269.8570920036445
 21
1345.1325192003719
  0
LINE
  8
_0-3_断面__扉
  6
CONTINUOUS
 62
    5
 10
1945.8570920036456
 20
765.63251920037146
 11
2269.8570920036445
 21
765.63251920037146
  0
LINE
  8
_0-3_断面__扉
  6
CONTINUOUS
 62
    5
 10
2269.8570920036445
 20
752.13251920037168
 11
2287.8570920036445
 21
752.13251920037168
  0
LINE
  8
_0-3_断面__扉
  6
CONTINUOUS
 62
    7
 10
2272.3570920036445
 20
752.13251920037168
 11
2272.3570920036445
 21
1345.1325192003719
  0
LINE
  8
_0-3_断面__扉
  6
CONTINUOUS
 62
    4
 10
1945.8570920036456
 20
1330.1325192003719
 11
2269.8570920036445
 21
1330.1325192003719
  0
CIRCLE
  8
_0-0_立面本体
  6
CONTINUOUS
 62
    7
 10
1994.8570920036449
 20
1045.132519200371
 40
1.5000000000000002
  0
LINE
  8
_0-0_立面本体
  6
CONTINUOUS
 62
    7
 10
1999.8570920036449
 20
1046.2013942003709
 11
1999.8570920036449
 21
1047.1325192003712
  0
LINE
  8
_0-0_立面本体
  6
CONTINUOUS
 62
    7
 10
1999.8570920036449
 20
1047.1325192003712
 11
2000.7858670036453
 21
1047.1988442003712
  0
LINE
  8
_0-0_立面本体
  6
CONTINUOUS
 62
    7
 10
1989.8570920036449
 20
1045.132519200371
 11
1989.8570920036449
 21
1046.132519200371
  0
LINE
  8
_0-0_立面本体
  6
CONTINUOUS
 62
    7
 10
1988.8570920036449
 20
1047.1325192003712
 11
1976.3570920036449
 21
1047.1325192003712
  0
LINE
  8
_0-0_立面本体
  6
CONTINUOUS
 62
    7
 10
1999.8570920036449
 20
1045.132519200371
 11
1999.8570920036449
 21
1046.2013942003709
  0
LINE
  8
_0-0_立面本体
  6
CONTINUOUS
 62
    7
 10
2000.7858670036453
 20
1047.1988442003712
 11
2012.9283420036451
 21
1048.0661692003709
  0
LINE
  8
_0-0_立面本体
  6
CONTINUOUS
 62
    7
 10
2013.8570920036452
 20
1049.0636192003712
 11
2013.8570920036452
 21
1049.132519200371
  0
LINE
  8
_0-0_立面本体
  6
CONTINUOUS
 62
    7
 10
1981.4910670036451
 20
1067.1325192003712
 11
1979.6146920036449
 21
1070.382519200371
  0
LINE
  8
_0-0_立面本体
  6
CONTINUOUS
 62
    7
 10
2012.8570920036449
 20
1050.132519200371
 11
1977.3570920036449
 21
1050.132519200371
  0
LINE
  8
_0-0_立面本体
  6
CONTINUOUS
 62
    7
 10
1980.6250420036451
 20
1065.6325192003712
 11
1977.3570920036449
 21
1065.6325192003712
  0
LINE
  8
_0-0_立面本体
  6
CONTINUOUS
 62
    7
 10
1976.3570920036449
 20
1064.6325192003712
 11
1976.3570920036449
 21
1051.132519200371
  0
ARC
  8
_0-0_立面本体
  6
CONTINUOUS
 62
    7
 10
1976.3570920036449
 20
1050.9325192003711
 40
3.7999999999999998
 50
177.46800000000004
 51
270.00000000000005
  0
ARC
  8
_0-0_立面本体
  6
CONTINUOUS
 62
    7
 10
1994.8570920036449
 20
1045.132519200371
 40
5
 50
180.00000000000005
 51
0.0000000000001017
  0
CIRCLE
  8
_0-0_立面本体
  6
PHANTOM2
 62
    7
 10
1994.8570920036449
 20
1045.132519200371
 40
4.0999999999999996
  0
CIRCLE
  8
_0-0_立面本体
  6
PHANTOM2
 62
    7
 10
1994.8570920036449
 20
1045.132519200371
 40
1.925
  0
ARC
  8
_0-0_立面本体
  6
CONTINUOUS
 62
    7
 10
1974.5138670036451
 20
1069.6325192003712
 40
1
 50
90.000000000000028
 51
177.46800000000004
  0
ARC
  8
_0-0_立面本体
  6
CONTINUOUS
 62
    7
 10
1979.181667003645
 20
1070.132519200371
 40
0.5
 50
30.000000000000003
 51
90.000000000000028
  0
ARC
  8
_0-0_立面本体
  6
CONTINUOUS
 62
    7
 10
1988.8570920036449
 20
1046.132519200371
 40
1
 50
0
 51
90.000000000000028
  0
ARC
  8
_0-0_立面本体
  6
CONTINUOUS
 62
    7
 10
2000.8570920036449
 20
1046.2013942003709
 40
1
 50
94.086000000000041
 51
180.00000000000005
  0
ARC
  8
_0-0_立面本体
  6
CONTINUOUS
 62
    7
 10
2012.8570920036449
 20
1049.0636192003712
 40
1
 50
274.08600000000006
 51
0.0000000000000508
  0
ARC
  8
_0-0_立面本体
  6
CONTINUOUS
 62
    7
 10
2012.8570920036449
 20
1049.132519200371
 40
1
 50
0
 51
90.000000000000028
  0
ARC
  8
_0-0_立面本体
  6
CONTINUOUS
 62
    7
 10
1980.6250420036451
 20
1066.632519200371
 40
1
 50
270.00000000000005
 51
30.000000000000042
  0
ARC
  8
_0-0_立面本体
  6
CONTINUOUS
 62
    7
 10
1977.3570920036449
 20
1064.6325192003712
 40
1
 50
90.000000000000028
 51
180.00000000000005
  0
ARC
  8
_0-0_立面本体
  6
CONTINUOUS
 62
    7
 10
1977.3570920036449
 20
1051.132519200371
 40
1
 50
180.00000000000005
 51
270.00000000000005
  0
LINE
  8
_0-0_立面本体
  6
CONTINUOUS
 62
    7
 10
1974.5138670036451
 20
1070.6325192003712
 11
1979.181667003645
 21
1070.6325192003712
  0
LINE
  8
_0-0_立面本体
  6
CONTINUOUS
 62
    7
 10
1972.5608170036448
 20
1051.1003692003712
 11
1973.5155639528941
 21
1069.6907516557646
  0
LINE
  8
_0-0_立面本体
  6
CENTER1
 62
    7
 10
1994.8570920036449
 20
1045.132519200371
 11
1994.8570920036449
 21
1039.0177913227128
  0
LINE
  8
_0-0_立面本体
  6
CENTER1
 62
    7
 10
1994.8570920036449
 20
1045.132519200371
 11
1994.8570920036449
 21
1051.229922152424
  0
LINE
  8
_0-0_立面本体
  6
CENTER1
 62
    7
 10
1994.9699540747644
 20
1045.132519200371
 11
1992.2903156528329
 21
1045.132519200371
  0
LINE
  8
_0-0_立面本体
  6
CENTER1
 62
    7
 10
1994.9699540747644
 20
1045.132519200371
 11
1997.63523717941
 21
1045.132519200371
  0
ARC
  8
_0-0_立面本体
  6
CONTINUOUS
 62
    7
 10
2261.089142003645
 20
1066.632519200371
 40
1
 50
149.99999999999994
 51
269.99999999999994
  0
CIRCLE
  8
_0-0_立面本体
  6
CONTINUOUS
 62
    7
 10
2246.8570920036454
 20
1045.132519200371
 40
1.5000000000000002
  0
LINE
  8
_0-0_立面本体
  6
CONTINUOUS
 62
    7
 10
2241.8570920036454
 20
1046.2013942003709
 11
2241.8570920036454
 21
1047.1325192003712
  0
LINE
  8
_0-0_立面本体
  6
CONTINUOUS
 62
    7
 10
2241.8570920036454
 20
1047.1325192003712
 11
2240.9283170036451
 21
1047.1988442003712
  0
LINE
  8
_0-0_立面本体
  6
CONTINUOUS
 62
    7
 10
2251.8570920036454
 20
1045.132519200371
 11
2251.8570920036454
 21
1046.132519200371
  0
LINE
  8
_0-0_立面本体
  6
CONTINUOUS
 62
    7
 10
2252.8570920036454
 20
1047.1325192003712
 11
2265.3570920036454
 21
1047.1325192003712
  0
LINE
  8
_0-0_立面本体
  6
CONTINUOUS
 62
    7
 10
2241.8570920036454
 20
1045.132519200371
 11
2241.8570920036454
 21
1046.2013942003709
  0
LINE
  8
_0-0_立面本体
  6
CONTINUOUS
 62
    7
 10
2240.9283170036451
 20
1047.1988442003712
 11
2228.785842003645
 21
1048.0661692003709
  0
LINE
  8
_0-0_立面本体
  6
CONTINUOUS
 62
    7
 10
2227.8570920036454
 20
1049.0636192003712
 11
2227.8570920036454
 21
1049.132519200371
  0
LINE
  8
_0-0_立面本体
  6
CONTINUOUS
 62
    7
 10
2260.2231170036452
 20
1067.1325192003712
 11
2262.099492003645
 21
1070.382519200371
  0
LINE
  8
_0-0_立面本体
  6
CONTINUOUS
 62
    7
 10
2228.8570920036449
 20
1050.132519200371
 11
2264.3570920036454
 21
1050.132519200371
  0
LINE
  8
_0-0_立面本体
  6
CONTINUOUS
 62
    7
 10
2261.089142003645
 20
1065.6325192003712
 11
2264.3570920036454
 21
1065.6325192003712
  0
LINE
  8
_0-0_立面本体
  6
CONTINUOUS
 62
    7
 10
2265.3570920036454
 20
1064.6325192003712
 11
2265.3570920036454
 21
1051.132519200371
  0
ARC
  8
_0-0_立面本体
  6
CONTINUOUS
 62
    7
 10
2265.3570920036454
 20
1050.9325192003711
 40
3.7999999999999998
 50
269.99999999999994
 51
2.5319999999999902
  0
ARC
  8
_0-0_立面本体
  6
CONTINUOUS
 62
    7
 10
2246.8570920036454
 20
1045.132519200371
 40
5
 50
179.99999999999985
 51
359.99999999999988
  0
CIRCLE
  8
_0-0_立面本体
  6
PHANTOM2
 62
    7
 10
2246.8570920036454
 20
1045.132519200371
 40
4.0999999999999996
  0
CIRCLE
  8
_0-0_立面本体
  6
PHANTOM2
 62
    7
 10
2246.8570920036454
 20
1045.132519200371
 40
1.925
  0
ARC
  8
_0-0_立面本体
  6
CONTINUOUS
 62
    7
 10
2267.200317003645
 20
1069.6325192003712
 40
1
 50
2.531999999999964
 51
89.999999999999957
  0
ARC
  8
_0-0_立面本体
  6
CONTINUOUS
 62
    7
 10
2262.5325170036453
 20
1070.132519200371
 40
0.5
 50
89.999999999999985
 51
149.99999999999997
  0
ARC
  8
_0-0_立面本体
  6
CONTINUOUS
 62
    7
 10
2252.8570920036454
 20
1046.132519200371
 40
1
 50
89.999999999999971
 51
180
  0
ARC
  8
_0-0_立面本体
  6
CONTINUOUS
 62
    7
 10
2240.8570920036454
 20
1046.2013942003709
 40
1
 50
359.99999999999994
 51
85.913999999999987
  0
ARC
  8
_0-0_立面本体
  6
CONTINUOUS
 62
    7
 10
2228.8570920036449
 20
1049.0636192003712
 40
1
 50
179.99999999999994
 51
265.91399999999993
  0
ARC
  8
_0-0_立面本体
  6
CONTINUOUS
 62
    7
 10
2228.8570920036449
 20
1049.132519200371
 40
1
 50
89.999999999999971
 51
180
  0
ARC
  8
_0-0_立面本体
  6
CONTINUOUS
 62
    7
 10
2264.3570920036454
 20
1064.6325192003712
 40
1
 50
359.99999999999994
 51
89.999999999999943
  0
ARC
  8
_0-0_立面本体
  6
CONTINUOUS
 62
    7
 10
2264.3570920036454
 20
1051.132519200371
 40
1
 50
269.99999999999988
 51
359.99999999999988
  0
LINE
  8
_0-0_立面本体
  6
CONTINUOUS
 62
    7
 10
2267.200317003645
 20
1070.6325192003712
 11
2262.5325170036453
 21
1070.6325192003712
  0
LINE
  8
_0-0_立面本体
  6
CONTINUOUS
 62
    7
 10
2269.1533670036451
 20
1051.1003692003712
 11
2268.198620054396
 21
1069.6907516557646
  0
LINE
  8
_0-0_立面本体
  6
CENTER1
 62
    7
 10
2246.8570920036454
 20
1045.132519200371
 11
2246.8570920036454
 21
1039.0177913227128
  0
LINE
  8
_0-0_立面本体
  6
CENTER1
 62
    7
 10
2246.8570920036454
 20
1045.132519200371
 11
2246.8570920036454
 21
1051.229922152424
  0
LINE
  8
_0-0_立面本体
  6
CENTER1
 62
    7
 10
2246.7442299325257
 20
1045.132519200371
 11
2249.4238683544572
 21
1045.132519200371
  0
LINE
  8
_0-0_立面本体
  6
CENTER1
 62
    7
 10
2246.7442299325257
 20
1045.132519200371
 11
2244.0789468278803
 21
1045.132519200371
  0
ARC
  8
_0-0_立面本体
  6
CONTINUOUS
 62
    7
 10
1994.8570920036449
 20
1045.132519200371
 40
7.0000000000000017
 50
45.585000000000007
 51
134.41500000000002
  0
ARC
  8
_0-0_立面本体
  6
CONTINUOUS
 62
    7
 10
1994.8570920036449
 20
1045.132519200371
 40
11
 50
27.036000000000012
 51
152.96400000000005
  0
ARC
  8
_0-0_立面本体
  6
CONTINUOUS
 62
    7
 10
2246.8570920036454
 20
1045.132519200371
 40
7.0000000000000017
 50
45.585000000000007
 51
134.41500000000002
  0
ARC
  8
_0-0_立面本体
  6
CONTINUOUS
 62
    7
 10
2246.8570920036454
 20
1045.132519200371
 40
11
 50
27.036000000000012
 51
152.96400000000005
  0
LINE
  8
_0-0_立面本体
  6
DASHED1
 62
    7
 10
1507.3247627124028
 20
1050.2410513398285
 11
1498.3247627124026
 21
1050.2410513398285
  0
LINE
  8
_0-0_立面本体
  6
DASHED1
 62
    7
 10
1508.3247627124026
 20
1050.2410513398285
 11
1498.3247627124026
 21
1050.2410513398285
  0
LINE
  8
_0-0_立面本体
  6
DASHED1
 62
    7
 10
1518.3194627124025
 20
1045.2410513398285
 11
1496.0385377124025
 21
1045.2410513398285
  0
LINE
  8
_0-0_立面本体
  6
DASHED1
 62
    7
 10
1508.3247627124026
 20
1041.6410513398284
 11
1508.3247627124026
 21
1048.8410513398284
  0
LINE
  8
_0-0_立面本体
  6
DASHED1
 62
    7
 10
1507.5247627124026
 20
1047.7410513398285
 11
1507.5247627124026
 21
1042.7410513398285
  0
LINE
  8
_0-0_立面本体
  6
DASHED1
 62
    7
 10
1499.5247627124026
 20
1043.2410513398285
 11
1507.0247627124026
 21
1043.2410513398285
  0
LINE
  8
_0-0_立面本体
  6
DASHED1
 62
    7
 10
1507.5247627124026
 20
1042.7410513398285
 11
1507.5247627124026
 21
1041.6410513398284
  0
LINE
  8
_0-0_立面本体
  6
DASHED1
 62
    7
 10
1508.8247627124023
 20
1042.8410513398284
 11
1516.8247627124026
 21
1042.8410513398284
  0
LINE
  8
_0-0_立面本体
  6
DASHED1
 62
    7
 10
1517.3247627124028
 20
1043.3410513398284
 11
1517.3247627124028
 21
1047.1410513398286
  0
LINE
  8
_0-0_立面本体
  6
DASHED1
 62
    7
 10
1516.8247627124026
 20
1047.6410513398284
 11
1508.8247627124023
 21
1047.6410513398284
  0
LINE
  8
_0-0_立面本体
  6
DASHED1
 62
    7
 10
1507.5247627124026
 20
1048.8410513398284
 11
1507.5247627124026
 21
1047.7410513398285
  0
LINE
  8
_0-0_立面本体
  6
DASHED1
 62
    7
 10
1507.0247627124026
 20
1047.2410513398285
 11
1499.5247627124026
 21
1047.2410513398285
  0
LINE
  8
_0-0_立面本体
  6
DASHED1
 62
    7
 10
1499.5247627124026
 20
1047.2410513398285
 11
1499.5247627124026
 21
1043.2410513398285
  0
LINE
  8
_0-0_立面本体
  6
DASHED1
 62
    7
 10
1499.1247627124027
 20
1046.7410513398283
 11
1499.1247627124027
 21
1047.2410513398285
  0
LINE
  8
_0-0_立面本体
  6
DASHED1
 62
    7
 10
1498.3247627124026
 20
1049.3410513398284
 11
1498.3247627124026
 21
1040.7410513398285
  0
LINE
  8
_0-0_立面本体
  6
DASHED1
 62
    7
 10
1499.1247627124027
 20
1046.7410513398283
 11
1498.3247627124026
 21
1046.7410513398283
  0
LINE
  8
_0-0_立面本体
  6
DASHED1
 62
    7
 10
1499.1247627124027
 20
1043.7410513398285
 11
1498.3247627124026
 21
1043.7410513398285
  0
LINE
  8
_0-0_立面本体
  6
DASHED1
 62
    7
 10
1508.3247627124026
 20
1043.2410513398285
 11
1499.5247627124026
 21
1043.2410513398285
  0
LINE
  8
_0-0_立面本体
  6
DASHED1
 62
    7
 10
1508.3247627124026
 20
1040.7410513398285
 11
1508.3247627124026
 21
1043.2410513398285
  0
LINE
  8
_0-0_立面本体
  6
DASHED1
 62
    7
 10
1499.5247627124026
 20
1043.2410513398285
 11
1499.1247627124027
 21
1043.2410513398285
  0
LINE
  8
_0-0_立面本体
  6
DASHED1
 62
    7
 10
1508.3247627124026
 20
1047.2410513398285
 11
1499.1247627124027
 21
1047.2410513398285
  0
LINE
  8
_0-0_立面本体
  6
DASHED1
 62
    7
 10
1499.1247627124027
 20
1043.2410513398285
 11
1499.1247627124027
 21
1043.7410513398285
  0
LINE
  8
_0-0_立面本体
  6
DASHED1
 62
    7
 10
1508.3247627124026
 20
1048.1747013398285
 11
1498.3247627124026
 21
1048.1747013398285
  0
LINE
  8
_0-0_立面本体
  6
DASHED1
 62
    7
 10
1499.1247627124027
 20
1047.2410513398285
 11
1498.3247627124026
 21
1047.2410513398285
  0
LINE
  8
_0-0_立面本体
  6
DASHED1
 62
    7
 10
1498.3247627124026
 20
1050.2410513398285
 11
1498.3247627124026
 21
1049.3410513398284
  0
LINE
  8
_0-0_立面本体
  6
DASHED1
 62
    7
 10
1508.3247627124026
 20
1043.2410513398285
 11
1508.3247627124026
 21
1050.2410513398285
  0
LINE
  8
_0-0_立面本体
  6
DASHED1
 62
    7
 10
1507.8247627124028
 20
1070.7410513398285
 11
1498.8247627124023
 21
1070.7410513398285
  0
LINE
  8
_0-0_立面本体
  6
DASHED1
 62
    7
 10
1498.8247627124023
 20
1040.2410513398285
 11
1507.8247627124028
 21
1040.2410513398285
  0
LINE
  8
_0-0_立面本体
  6
DASHED1
 62
    7
 10
1509.8021627124026
 20
1045.2410513398285
 11
1496.7283377124026
 21
1045.2410513398285
  0
LINE
  8
_0-0_立面本体
  6
DASHED1
 62
    7
 10
1498.3247627124026
 20
1070.2410513398285
 11
1498.3247627124026
 21
1050.2410513398285
  0
ARC
  8
_0-0_立面本体
  6
DASHED1
 62
    7
 10
1508.8247627124023
 20
1048.1410513398284
 40
0.5
 50
179.99999999999991
 51
269.99999999999994
  0
ARC
  8
_0-0_立面本体
  6
DASHED1
 62
    7
 10
1508.8247627124023
 20
1042.3410513398284
 40
0.5
 50
89.999999999999971
 51
180
  0
ARC
  8
_0-0_立面本体
  6
DASHED1
 62
    7
 10
1507.0247627124026
 20
1042.7410513398285
 40
0.5
 50
359.99999999999994
 51
89.999999999999943
  0
ARC
  8
_0-0_立面本体
  6
DASHED1
 62
    7
 10
1507.0247627124026
 20
1047.7410513398285
 40
0.5
 50
269.99999999999988
 51
359.99999999999988
  0
ARC
  8
_0-0_立面本体
  6
DASHED1
 62
    7
 10
1516.8247627124026
 20
1047.1410513398286
 40
0.5
 50
359.99999999999994
 51
89.999999999999943
  0
ARC
  8
_0-0_立面本体
  6
DASHED1
 62
    7
 10
1516.8247627124026
 20
1043.3410513398284
 40
0.5
 50
269.99999999999988
 51
359.99999999999988
  0
ARC
  8
_0-0_立面本体
  6
DASHED1
 62
    7
 10
1507.9247627124027
 20
1041.6410513398284
 40
0.4
 50
179.99999999999991
 51
269.99999999999994
  0
ARC
  8
_0-0_立面本体
  6
DASHED1
 62
    7
 10
1507.9247627124027
 20
1041.6410513398284
 40
0.4
 50
269.99999999999988
 51
359.99999999999988
  0
ARC
  8
_0-0_立面本体
  6
DASHED1
 62
    7
 10
1507.9247627124027
 20
1048.8410513398284
 40
0.4
 50
359.99999999999994
 51
89.999999999999943
  0
ARC
  8
_0-0_立面本体
  6
DASHED1
 62
    7
 10
1507.9247627124027
 20
1048.8410513398284
 40
0.4
 50
89.999999999999971
 51
180
  0
ARC
  8
_0-0_立面本体
  6
DASHED1
 62
    7
 10
1507.8247627124028
 20
1070.2410513398285
 40
0.5
 50
359.99999999999994
 51
89.999999999999943
  0
ARC
  8
_0-0_立面本体
  6
DASHED1
 62
    7
 10
1498.8247627124023
 20
1070.2410513398285
 40
0.5
 50
89.999999999999971
 51
180
  0
ARC
  8
_0-0_立面本体
  6
DASHED1
 62
    7
 10
1498.8247627124023
 20
1040.7410513398285
 40
0.5
 50
179.99999999999991
 51
269.99999999999994
  0
ARC
  8
_0-0_立面本体
  6
DASHED1
 62
    7
 10
1507.8247627124028
 20
1040.7410513398285
 40
0.5
 50
269.99999999999988
 51
359.99999999999988
  0
LINE
  8
_0-0_立面本体
  6
DASHED1
 62
    7
 10
1508.3247627124026
 20
1050.2410513398285
 11
1508.3247627124026
 21
1070.2410513398285
  0
LINE
  8
_0-0_立面本体
  6
DASHED1
 62
    7
 10
1136.8247627124028
 20
1050.2410513398285
 11
1145.8247627124026
 21
1050.2410513398285
  0
LINE
  8
_0-0_立面本体
  6
DASHED1
 62
    7
 10
1135.8247627124026
 20
1050.2410513398285
 11
1145.8247627124026
 21
1050.2410513398285
  0
LINE
  8
_0-0_立面本体
  6
DASHED1
 62
    7
 10
1125.8300627124024
 20
1045.2410513398285
 11
1148.1109877124029
 21
1045.2410513398285
  0
LINE
  8
_0-0_立面本体
  6
DASHED1
 62
    7
 10
1135.8247627124026
 20
1041.6410513398284
 11
1135.8247627124026
 21
1048.8410513398284
  0
LINE
  8
_0-0_立面本体
  6
DASHED1
 62
    7
 10
1136.624762712403
 20
1047.7410513398285
 11
1136.624762712403
 21
1042.7410513398285
  0
LINE
  8
_0-0_立面本体
  6
DASHED1
 62
    7
 10
1144.6247627124025
 20
1043.2410513398285
 11
1137.1247627124025
 21
1043.2410513398285
  0
LINE
  8
_0-0_立面本体
  6
DASHED1
 62
    7
 10
1136.624762712403
 20
1042.7410513398285
 11
1136.624762712403
 21
1041.6410513398284
  0
LINE
  8
_0-0_立面本体
  6
DASHED1
 62
    7
 10
1135.324762712403
 20
1042.8410513398284
 11
1127.324762712403
 21
1042.8410513398284
  0
LINE
  8
_0-0_立面本体
  6
DASHED1
 62
    7
 10
1126.8247627124028
 20
1043.3410513398284
 11
1126.8247627124028
 21
1047.1410513398286
  0
LINE
  8
_0-0_立面本体
  6
DASHED1
 62
    7
 10
1127.324762712403
 20
1047.6410513398284
 11
1135.324762712403
 21
1047.6410513398284
  0
LINE
  8
_0-0_立面本体
  6
DASHED1
 62
    7
 10
1136.624762712403
 20
1048.8410513398284
 11
1136.624762712403
 21
1047.7410513398285
  0
LINE
  8
_0-0_立面本体
  6
DASHED1
 62
    7
 10
1137.1247627124025
 20
1047.2410513398285
 11
1144.6247627124025
 21
1047.2410513398285
  0
LINE
  8
_0-0_立面本体
  6
DASHED1
 62
    7
 10
1144.6247627124025
 20
1047.2410513398285
 11
1144.6247627124025
 21
1043.2410513398285
  0
LINE
  8
_0-0_立面本体
  6
DASHED1
 62
    7
 10
1145.0247627124028
 20
1046.7410513398283
 11
1145.0247627124028
 21
1047.2410513398285
  0
LINE
  8
_0-0_立面本体
  6
DASHED1
 62
    7
 10
1145.8247627124026
 20
1049.3410513398284
 11
1145.8247627124026
 21
1040.7410513398285
  0
LINE
  8
_0-0_立面本体
  6
DASHED1
 62
    7
 10
1145.0247627124028
 20
1046.7410513398283
 11
1145.8247627124026
 21
1046.7410513398283
  0
LINE
  8
_0-0_立面本体
  6
DASHED1
 62
    7
 10
1145.0247627124028
 20
1043.7410513398285
 11
1145.8247627124026
 21
1043.7410513398285
  0
LINE
  8
_0-0_立面本体
  6
DASHED1
 62
    7
 10
1135.8247627124026
 20
1043.2410513398285
 11
1144.6247627124025
 21
1043.2410513398285
  0
LINE
  8
_0-0_立面本体
  6
DASHED1
 62
    7
 10
1135.8247627124026
 20
1040.7410513398285
 11
1135.8247627124026
 21
1043.2410513398285
  0
LINE
  8
_0-0_立面本体
  6
DASHED1
 62
    7
 10
1144.6247627124025
 20
1043.2410513398285
 11
1145.0247627124028
 21
1043.2410513398285
  0
LINE
  8
_0-0_立面本体
  6
DASHED1
 62
    7
 10
1135.8247627124026
 20
1047.2410513398285
 11
1145.0247627124028
 21
1047.2410513398285
  0
LINE
  8
_0-0_立面本体
  6
DASHED1
 62
    7
 10
1145.0247627124028
 20
1043.2410513398285
 11
1145.0247627124028
 21
1043.7410513398285
  0
LINE
  8
_0-0_立面本体
  6
DASHED1
 62
    7
 10
1135.8247627124026
 20
1048.1747013398285
 11
1145.8247627124026
 21
1048.1747013398285
  0
LINE
  8
_0-0_立面本体
  6
DASHED1
 62
    7
 10
1145.0247627124028
 20
1047.2410513398285
 11
1145.8247627124026
 21
1047.2410513398285
  0
LINE
  8
_0-0_立面本体
  6
DASHED1
 62
    7
 10
1145.8247627124026
 20
1050.2410513398285
 11
1145.8247627124026
 21
1049.3410513398284
  0
LINE
  8
_0-0_立面本体
  6
DASHED1
 62
    7
 10
1135.8247627124026
 20
1043.2410513398285
 11
1135.8247627124026
 21
1050.2410513398285
  0
LINE
  8
_0-0_立面本体
  6
DASHED1
 62
    7
 10
1136.3247627124028
 20
1070.7410513398285
 11
1145.324762712403
 21
1070.7410513398285
  0
LINE
  8
_0-0_立面本体
  6
DASHED1
 62
    7
 10
1145.324762712403
 20
1040.2410513398285
 11
1136.3247627124028
 21
1040.2410513398285
  0
LINE
  8
_0-0_立面本体
  6
DASHED1
 62
    7
 10
1134.3473627124026
 20
1045.2410513398285
 11
1147.4211877124027
 21
1045.2410513398285
  0
LINE
  8
_0-0_立面本体
  6
DASHED1
 62
    7
 10
1145.8247627124026
 20
1070.2410513398285
 11
1145.8247627124026
 21
1050.2410513398285
  0
ARC
  8
_0-0_立面本体
  6
DASHED1
 62
    7
 10
1135.324762712403
 20
1048.1410513398284
 40
0.5
 50
270.00000000000005
 51
0.0000000000000508
  0
ARC
  8
_0-0_立面本体
  6
DASHED1
 62
    7
 10
1135.324762712403
 20
1042.3410513398284
 40
0.5
 50
0
 51
90.000000000000028
  0
ARC
  8
_0-0_立面本体
  6
DASHED1
 62
    7
 10
1137.1247627124025
 20
1042.7410513398285
 40
0.5
 50
90.000000000000028
 51
180.00000000000005
  0
ARC
  8
_0-0_立面本体
  6
DASHED1
 62
    7
 10
1137.1247627124025
 20
1047.7410513398285
 40
0.5
 50
180.00000000000005
 51
270.00000000000005
  0
ARC
  8
_0-0_立面本体
  6
DASHED1
 62
    7
 10
1127.324762712403
 20
1047.1410513398286
 40
0.5
 50
90.000000000000028
 51
180.00000000000005
  0
ARC
  8
_0-0_立面本体
  6
DASHED1
 62
    7
 10
1127.324762712403
 20
1043.3410513398284
 40
0.5
 50
180.00000000000005
 51
270.00000000000005
  0
ARC
  8
_0-0_立面本体
  6
DASHED1
 62
    7
 10
1136.2247627124029
 20
1041.6410513398284
 40
0.4
 50
270.00000000000005
 51
0.0000000000000508
  0
ARC
  8
_0-0_立面本体
  6
DASHED1
 62
    7
 10
1136.2247627124029
 20
1041.6410513398284
 40
0.4
 50
180.00000000000005
 51
270.00000000000005
  0
ARC
  8
_0-0_立面本体
  6
DASHED1
 62
    7
 10
1136.2247627124029
 20
1048.8410513398284
 40
0.4
 50
90.000000000000028
 51
180.00000000000005
  0
ARC
  8
_0-0_立面本体
  6
DASHED1
 62
    7
 10
1136.2247627124029
 20
1048.8410513398284
 40
0.4
 50
0
 51
90.000000000000028
  0
ARC
  8
_0-0_立面本体
  6
DASHED1
 62
    7
 10
1136.3247627124028
 20
1070.2410513398285
 40
0.5
 50
90.000000000000028
 51
180.00000000000005
  0
ARC
  8
_0-0_立面本体
  6
DASHED1
 62
    7
 10
1145.324762712403
 20
1070.2410513398285
 40
0.5
 50
0
 51
90.000000000000028
  0
ARC
  8
_0-0_立面本体
  6
DASHED1
 62
    7
 10
1145.324762712403
 20
1040.7410513398285
 40
0.5
 50
270.00000000000005
 51
0.0000000000000508
  0
ARC
  8
_0-0_立面本体
  6
DASHED1
 62
    7
 10
1136.3247627124028
 20
1040.7410513398285
 40
0.5
 50
180.00000000000005
 51
270.00000000000005
  0
LINE
  8
_0-0_立面本体
  6
DASHED1
 62
    7
 10
1135.8247627124026
 20
1050.2410513398285
 11
1135.8247627124026
 21
1070.2410513398285
  0
LINE
  8
_0-0_立面本体
  6
DASHED1
 62
    7
 10
1109.8247627124028
 20
1050.2410513398285
 11
1100.8247627124026
 21
1050.2410513398285
  0
LINE
  8
_0-0_立面本体
  6
DASHED1
 62
    7
 10
1110.8247627124026
 20
1050.2410513398285
 11
1100.8247627124026
 21
1050.2410513398285
  0
LINE
  8
_0-0_立面本体
  6
DASHED1
 62
    7
 10
1120.8194627124025
 20
1045.2410513398285
 11
1098.5385377124025
 21
1045.2410513398285
  0
LINE
  8
_0-0_立面本体
  6
DASHED1
 62
    7
 10
1110.8247627124026
 20
1041.6410513398284
 11
1110.8247627124026
 21
1048.8410513398284
  0
LINE
  8
_0-0_立面本体
  6
DASHED1
 62
    7
 10
1110.0247627124026
 20
1047.7410513398285
 11
1110.0247627124026
 21
1042.7410513398285
  0
LINE
  8
_0-0_立面本体
  6
DASHED1
 62
    7
 10
1102.0247627124026
 20
1043.2410513398285
 11
1109.5247627124026
 21
1043.2410513398285
  0
LINE
  8
_0-0_立面本体
  6
DASHED1
 62
    7
 10
1110.0247627124026
 20
1042.7410513398285
 11
1110.0247627124026
 21
1041.6410513398284
  0
LINE
  8
_0-0_立面本体
  6
DASHED1
 62
    7
 10
1111.3247627124023
 20
1042.8410513398284
 11
1119.3247627124026
 21
1042.8410513398284
  0
LINE
  8
_0-0_立面本体
  6
DASHED1
 62
    7
 10
1119.8247627124028
 20
1043.3410513398284
 11
1119.8247627124028
 21
1047.1410513398286
  0
LINE
  8
_0-0_立面本体
  6
DASHED1
 62
    7
 10
1119.3247627124026
 20
1047.6410513398284
 11
1111.3247627124023
 21
1047.6410513398284
  0
LINE
  8
_0-0_立面本体
  6
DASHED1
 62
    7
 10
1110.0247627124026
 20
1048.8410513398284
 11
1110.0247627124026
 21
1047.7410513398285
  0
LINE
  8
_0-0_立面本体
  6
DASHED1
 62
    7
 10
1109.5247627124026
 20
1047.2410513398285
 11
1102.0247627124026
 21
1047.2410513398285
  0
LINE
  8
_0-0_立面本体
  6
DASHED1
 62
    7
 10
1102.0247627124026
 20
1047.2410513398285
 11
1102.0247627124026
 21
1043.2410513398285
  0
LINE
  8
_0-0_立面本体
  6
DASHED1
 62
    7
 10
1101.6247627124027
 20
1046.7410513398283
 11
1101.6247627124027
 21
1047.2410513398285
  0
LINE
  8
_0-0_立面本体
  6
DASHED1
 62
    7
 10
1100.8247627124026
 20
1049.3410513398284
 11
1100.8247627124026
 21
1040.7410513398285
  0
LINE
  8
_0-0_立面本体
  6
DASHED1
 62
    7
 10
1101.6247627124027
 20
1046.7410513398283
 11
1100.8247627124026
 21
1046.7410513398283
  0
LINE
  8
_0-0_立面本体
  6
DASHED1
 62
    7
 10
1101.6247627124027
 20
1043.7410513398285
 11
1100.8247627124026
 21
1043.7410513398285
  0
LINE
  8
_0-0_立面本体
  6
DASHED1
 62
    7
 10
1110.8247627124026
 20
1043.2410513398285
 11
1102.0247627124026
 21
1043.2410513398285
  0
LINE
  8
_0-0_立面本体
  6
DASHED1
 62
    7
 10
1110.8247627124026
 20
1040.7410513398285
 11
1110.8247627124026
 21
1043.2410513398285
  0
LINE
  8
_0-0_立面本体
  6
DASHED1
 62
    7
 10
1102.0247627124026
 20
1043.2410513398285
 11
1101.6247627124027
 21
1043.2410513398285
  0
LINE
  8
_0-0_立面本体
  6
DASHED1
 62
    7
 10
1110.8247627124026
 20
1047.2410513398285
 11
1101.6247627124027
 21
1047.2410513398285
  0
LINE
  8
_0-0_立面本体
  6
DASHED1
 62
    7
 10
1101.6247627124027
 20
1043.2410513398285
 11
1101.6247627124027
 21
1043.7410513398285
  0
LINE
  8
_0-0_立面本体
  6
DASHED1
 62
    7
 10
1110.8247627124026
 20
1048.1747013398285
 11
1100.8247627124026
 21
1048.1747013398285
  0
LINE
  8
_0-0_立面本体
  6
DASHED1
 62
    7
 10
1101.6247627124027
 20
1047.2410513398285
 11
1100.8247627124026
 21
1047.2410513398285
  0
LINE
  8
_0-0_立面本体
  6
DASHED1
 62
    7
 10
1100.8247627124026
 20
1050.2410513398285
 11
1100.8247627124026
 21
1049.3410513398284
  0
LINE
  8
_0-0_立面本体
  6
DASHED1
 62
    7
 10
1110.8247627124026
 20
1043.2410513398285
 11
1110.8247627124026
 21
1050.2410513398285
  0
LINE
  8
_0-0_立面本体
  6
DASHED1
 62
    7
 10
1110.3247627124028
 20
1070.7410513398285
 11
1101.3247627124023
 21
1070.7410513398285
  0
LINE
  8
_0-0_立面本体
  6
DASHED1
 62
    7
 10
1101.3247627124023
 20
1040.2410513398285
 11
1110.3247627124028
 21
1040.2410513398285
  0
LINE
  8
_0-0_立面本体
  6
DASHED1
 62
    7
 10
1112.3021627124026
 20
1045.2410513398285
 11
1099.2283377124026
 21
1045.2410513398285
  0
LINE
  8
_0-0_立面本体
  6
DASHED1
 62
    7
 10
1100.8247627124026
 20
1070.2410513398285
 11
1100.8247627124026
 21
1050.2410513398285
  0
ARC
  8
_0-0_立面本体
  6
DASHED1
 62
    7
 10
1111.3247627124023
 20
1048.1410513398284
 40
0.5
 50
179.99999999999991
 51
269.99999999999994
  0
ARC
  8
_0-0_立面本体
  6
DASHED1
 62
    7
 10
1111.3247627124023
 20
1042.3410513398284
 40
0.5
 50
89.999999999999971
 51
180
  0
ARC
  8
_0-0_立面本体
  6
DASHED1
 62
    7
 10
1109.5247627124026
 20
1042.7410513398285
 40
0.5
 50
359.99999999999994
 51
89.999999999999943
  0
ARC
  8
_0-0_立面本体
  6
DASHED1
 62
    7
 10
1109.5247627124026
 20
1047.7410513398285
 40
0.5
 50
269.99999999999988
 51
359.99999999999988
  0
ARC
  8
_0-0_立面本体
  6
DASHED1
 62
    7
 10
1119.3247627124026
 20
1047.1410513398286
 40
0.5
 50
359.99999999999994
 51
89.999999999999943
  0
ARC
  8
_0-0_立面本体
  6
DASHED1
 62
    7
 10
1119.3247627124026
 20
1043.3410513398284
 40
0.5
 50
269.99999999999988
 51
359.99999999999988
  0
ARC
  8
_0-0_立面本体
  6
DASHED1
 62
    7
 10
1110.4247627124027
 20
1041.6410513398284
 40
0.4
 50
179.99999999999991
 51
269.99999999999994
  0
ARC
  8
_0-0_立面本体
  6
DASHED1
 62
    7
 10
1110.4247627124027
 20
1041.6410513398284
 40
0.4
 50
269.99999999999988
 51
359.99999999999988
  0
ARC
  8
_0-0_立面本体
  6
DASHED1
 62
    7
 10
1110.4247627124027
 20
1048.8410513398284
 40
0.4
 50
359.99999999999994
 51
89.999999999999943
  0
ARC
  8
_0-0_立面本体
  6
DASHED1
 62
    7
 10
1110.4247627124027
 20
1048.8410513398284
 40
0.4
 50
89.999999999999971
 51
180
  0
ARC
  8
_0-0_立面本体
  6
DASHED1
 62
    7
 10
1110.3247627124028
 20
1070.2410513398285
 40
0.5
 50
359.99999999999994
 51
89.999999999999943
  0
ARC
  8
_0-0_立面本体
  6
DASHED1
 62
    7
 10
1101.3247627124023
 20
1070.2410513398285
 40
0.5
 50
89.999999999999971
 51
180
  0
ARC
  8
_0-0_立面本体
  6
DASHED1
 62
    7
 10
1101.3247627124023
 20
1040.7410513398285
 40
0.5
 50
179.99999999999991
 51
269.99999999999994
  0
ARC
  8
_0-0_立面本体
  6
DASHED1
 62
    7
 10
1110.3247627124028
 20
1040.7410513398285
 40
0.5
 50
269.99999999999988
 51
359.99999999999988
  0
LINE
  8
_0-0_立面本体
  6
DASHED1
 62
    7
 10
1110.8247627124026
 20
1050.2410513398285
 11
1110.8247627124026
 21
1070.2410513398285
  0
LINE
  8
_0-3_断面__扉
  6
DASHED1
 62
    2
 10
1508.3247627124028
 20
745.2410513398288
 11
1508.3247627124028
 21
1345.241051339829
  0
LINE
  8
_0-3_断面__扉
  6
DASHED1
 62
    2
 10
1508.3247627124028
 20
1330.241051339829
 11
337.32476271240216
 21
1330.241051339829
  0
LINE
  8
_0-3_断面__扉
  6
DASHED1
 62
    2
 10
337.32476271240216
 20
765.74105133982868
 11
1508.3247627124028
 21
765.74105133982868
  0
LINE
  8
_0-0_立面本体
  6
DASHED1
 62
    7
 10
338.32476271240238
 20
1050.2410513398285
 11
347.32476271240216
 21
1050.2410513398285
  0
LINE
  8
_0-0_立面本体
  6
DASHED1
 62
    7
 10
337.32476271240216
 20
1050.2410513398285
 11
347.32476271240216
 21
1050.2410513398285
  0
LINE
  8
_0-0_立面本体
  6
DASHED1
 62
    7
 10
327.33006271240185
 20
1045.2410513398285
 11
349.61098771240244
 21
1045.2410513398285
  0
LINE
  8
_0-0_立面本体
  6
DASHED1
 62
    7
 10
337.32476271240216
 20
1041.6410513398284
 11
337.32476271240216
 21
1048.8410513398284
  0
LINE
  8
_0-0_立面本体
  6
DASHED1
 62
    7
 10
338.12476271240257
 20
1047.7410513398285
 11
338.12476271240257
 21
1042.7410513398285
  0
LINE
  8
_0-0_立面本体
  6
DASHED1
 62
    7
 10
346.12476271240211
 20
1043.2410513398285
 11
338.62476271240211
 21
1043.2410513398285
  0
LINE
  8
_0-0_立面本体
  6
DASHED1
 62
    7
 10
338.12476271240257
 20
1042.7410513398285
 11
338.12476271240257
 21
1041.6410513398284
  0
LINE
  8
_0-0_立面本体
  6
DASHED1
 62
    7
 10
336.82476271240261
 20
1042.8410513398284
 11
328.8247627124025
 21
1042.8410513398284
  0
LINE
  8
_0-0_立面本体
  6
DASHED1
 62
    7
 10
328.32476271240238
 20
1043.3410513398284
 11
328.32476271240238
 21
1047.1410513398286
  0
LINE
  8
_0-0_立面本体
  6
DASHED1
 62
    7
 10
328.8247627124025
 20
1047.6410513398284
 11
336.82476271240261
 21
1047.6410513398284
  0
LINE
  8
_0-0_立面本体
  6
DASHED1
 62
    7
 10
338.12476271240257
 20
1048.8410513398284
 11
338.12476271240257
 21
1047.7410513398285
  0
LINE
  8
_0-0_立面本体
  6
DASHED1
 62
    7
 10
338.62476271240211
 20
1047.2410513398285
 11
346.12476271240211
 21
1047.2410513398285
  0
LINE
  8
_0-0_立面本体
  6
DASHED1
 62
    7
 10
346.12476271240211
 20
1047.2410513398285
 11
346.12476271240211
 21
1043.2410513398285
  0
LINE
  8
_0-0_立面本体
  6
DASHED1
 62
    7
 10
346.52476271240232
 20
1046.7410513398283
 11
346.52476271240232
 21
1047.2410513398285
  0
LINE
  8
_0-0_立面本体
  6
DASHED1
 62
    7
 10
347.32476271240216
 20
1049.3410513398284
 11
347.32476271240216
 21
1040.7410513398285
  0
LINE
  8
_0-0_立面本体
  6
DASHED1
 62
    7
 10
346.52476271240232
 20
1046.7410513398283
 11
347.32476271240216
 21
1046.7410513398283
  0
LINE
  8
_0-0_立面本体
  6
DASHED1
 62
    7
 10
346.52476271240232
 20
1043.7410513398285
 11
347.32476271240216
 21
1043.7410513398285
  0
LINE
  8
_0-0_立面本体
  6
DASHED1
 62
    7
 10
337.32476271240216
 20
1043.2410513398285
 11
346.12476271240211
 21
1043.2410513398285
  0
LINE
  8
_0-0_立面本体
  6
DASHED1
 62
    7
 10
337.32476271240216
 20
1040.7410513398285
 11
337.32476271240216
 21
1043.2410513398285
  0
LINE
  8
_0-0_立面本体
  6
DASHED1
 62
    7
 10
346.12476271240211
 20
1043.2410513398285
 11
346.52476271240232
 21
1043.2410513398285
  0
LINE
  8
_0-0_立面本体
  6
DASHED1
 62
    7
 10
337.32476271240216
 20
1047.2410513398285
 11
346.52476271240232
 21
1047.2410513398285
  0
LINE
  8
_0-0_立面本体
  6
DASHED1
 62
    7
 10
346.52476271240232
 20
1043.2410513398285
 11
346.52476271240232
 21
1043.7410513398285
  0
LINE
  8
_0-0_立面本体
  6
DASHED1
 62
    7
 10
337.32476271240216
 20
1048.1747013398285
 11
347.32476271240216
 21
1048.1747013398285
  0
LINE
  8
_0-0_立面本体
  6
DASHED1
 62
    7
 10
346.52476271240232
 20
1047.2410513398285
 11
347.32476271240216
 21
1047.2410513398285
  0
LINE
  8
_0-0_立面本体
  6
DASHED1
 62
    7
 10
347.32476271240216
 20
1050.2410513398285
 11
347.32476271240216
 21
1049.3410513398284
  0
LINE
  8
_0-0_立面本体
  6
DASHED1
 62
    7
 10
337.32476271240216
 20
1043.2410513398285
 11
337.32476271240216
 21
1050.2410513398285
  0
LINE
  8
_0-0_立面本体
  6
DASHED1
 62
    7
 10
337.82476271240227
 20
1070.7410513398285
 11
346.82476271240261
 21
1070.7410513398285
  0
LINE
  8
_0-0_立面本体
  6
DASHED1
 62
    7
 10
346.82476271240261
 20
1040.2410513398285
 11
337.82476271240227
 21
1040.2410513398285
  0
LINE
  8
_0-0_立面本体
  6
DASHED1
 62
    7
 10
335.84736271240217
 20
1045.2410513398285
 11
348.92118771240234
 21
1045.2410513398285
  0
LINE
  8
_0-0_立面本体
  6
DASHED1
 62
    7
 10
347.32476271240216
 20
1070.2410513398285
 11
347.32476271240216
 21
1050.2410513398285
  0
ARC
  8
_0-0_立面本体
  6
DASHED1
 62
    7
 10
336.82476271240261
 20
1048.1410513398284
 40
0.5
 50
270.00000000000005
 51
0.0000000000000508
  0
ARC
  8
_0-0_立面本体
  6
DASHED1
 62
    7
 10
336.82476271240261
 20
1042.3410513398284
 40
0.5
 50
0
 51
90.000000000000028
  0
ARC
  8
_0-0_立面本体
  6
DASHED1
 62
    7
 10
338.62476271240211
 20
1042.7410513398285
 40
0.5
 50
90.000000000000028
 51
180.00000000000005
  0
ARC
  8
_0-0_立面本体
  6
DASHED1
 62
    7
 10
338.62476271240211
 20
1047.7410513398285
 40
0.5
 50
180.00000000000005
 51
270.00000000000005
  0
ARC
  8
_0-0_立面本体
  6
DASHED1
 62
    7
 10
328.8247627124025
 20
1047.1410513398286
 40
0.5
 50
90.000000000000028
 51
180.00000000000005
  0
ARC
  8
_0-0_立面本体
  6
DASHED1
 62
    7
 10
328.8247627124025
 20
1043.3410513398284
 40
0.5
 50
180.00000000000005
 51
270.00000000000005
  0
ARC
  8
_0-0_立面本体
  6
DASHED1
 62
    7
 10
337.72476271240236
 20
1041.6410513398284
 40
0.4
 50
270.00000000000005
 51
0.0000000000000508
  0
ARC
  8
_0-0_立面本体
  6
DASHED1
 62
    7
 10
337.72476271240236
 20
1041.6410513398284
 40
0.4
 50
180.00000000000005
 51
270.00000000000005
  0
ARC
  8
_0-0_立面本体
  6
DASHED1
 62
    7
 10
337.72476271240236
 20
1048.8410513398284
 40
0.4
 50
90.000000000000028
 51
180.00000000000005
  0
ARC
  8
_0-0_立面本体
  6
DASHED1
 62
    7
 10
337.72476271240236
 20
1048.8410513398284
 40
0.4
 50
0
 51
90.000000000000028
  0
ARC
  8
_0-0_立面本体
  6
DASHED1
 62
    7
 10
337.82476271240227
 20
1070.2410513398285
 40
0.5
 50
90.000000000000028
 51
180.00000000000005
  0
ARC
  8
_0-0_立面本体
  6
DASHED1
 62
    7
 10
346.82476271240261
 20
1070.2410513398285
 40
0.5
 50
0
 51
90.000000000000028
  0
ARC
  8
_0-0_立面本体
  6
DASHED1
 62
    7
 10
346.82476271240261
 20
1040.7410513398285
 40
0.5
 50
270.00000000000005
 51
0.0000000000000508
  0
ARC
  8
_0-0_立面本体
  6
DASHED1
 62
    7
 10
337.82476271240227
 20
1040.7410513398285
 40
0.5
 50
180.00000000000005
 51
270.00000000000005
  0
LINE
  8
_0-0_立面本体
  6
DASHED1
 62
    7
 10
337.32476271240216
 20
1050.2410513398285
 11
337.32476271240216
 21
1070.2410513398285
  0
LINE
  8
_0-6_平面扉
  6
CONTINUOUS
 62
    7
 10
1976.3570920036456
 20
1050.1325192003714
 11
2265.3570920036454
 21
1050.1325192003714
  0
LINE
  8
_0-6_平面扉
  6
CONTINUOUS
 62
    7
 10
2265.3570920036454
 20
1050.1325192003714
 11
2265.3570920036454
 21
1065.1325192003714
  0
LINE
  8
_0-6_平面扉
  6
CONTINUOUS
 62
    7
 10
2265.3570920036454
 20
1065.1325192003714
 11
1976.3570920036456
 21
1065.1325192003714
  0
LINE
  8
_0-6_平面扉
  6
CONTINUOUS
 62
    7
 10
1976.3570920036456
 20
1065.1325192003714
 11
1976.3570920036456
 21
1050.1325192003714
  0
LINE
  8
_0-6_平面扉
  6
DASHED1
 62
    7
 10
1506.3247627124023
 20
1050.2410513398288
 11
1506.3247627124023
 21
1065.2410513398288
  0
LINE
  8
_0-6_平面扉
  6
DASHED1
 62
    7
 10
1506.3247627124023
 20
1050.241051339829
 11
1506.3247627124023
 21
1065.241051339829
  0
LINE
  8
_0-6_平面扉
  6
DASHED1
 62
    7
 10
1108.8247627124023
 20
1065.2410513398288
 11
1108.8247627124023
 21
1050.2410513398288
  0
LINE
  8
_0-6_平面扉
  6
DASHED1
 62
    7
 10
1108.8247627124023
 20
1065.241051339829
 11
1108.8247627124023
 21
1050.241051339829
  0
LINE
  8
_0-6_平面扉
  6
DASHED1
 62
    7
 10
1137.8247627124026
 20
1065.2410513398288
 11
1137.8247627124026
 21
1050.2410513398288
  0
LINE
  8
_0-6_平面扉
  6
DASHED1
 62
    7
 10
1137.8247627124026
 20
1065.241051339829
 11
1137.8247627124026
 21
1050.241051339829
  0
LINE
  8
_0-6_平面扉
  6
DASHED1
 62
    7
 10
1506.3247627124023
 20
1065.241051339829
 11
1137.8247627124026
 21
1065.241051339829
  0
LINE
  8
_0-6_平面扉
  6
DASHED1
 62
    7
 10
1506.3247627124023
 20
1050.241051339829
 11
1137.8247627124026
 21
1050.241051339829
  0
LINE
  8
_0-6_平面扉
  6
DASHED1
 62
    7
 10
1506.3247627124019
 20
2235.2744603287769
 11
1506.3247627124019
 21
2523.7744603287769
  0
LINE
  8
_0-6_平面扉
  6
DASHED1
 62
    7
 10
1137.8247627124026
 20
2234.7744603287769
 11
1137.8247627124026
 21
2523.7744603287769
  0
LINE
  8
_0-6_平面扉
  6
DASHED1
 62
    7
 10
1108.8247627124026
 20
2235.2744603287769
 11
1108.8247627124026
 21
2523.7744603287769
  0
LINE
  8
_0-6_平面扉
  6
DASHED1
 62
    7
 10
1137.8247627124026
 20
2523.7744603287769
 11
1506.3247627124019
 21
2523.7744603287769
  0
LINE
  8
_0-6_平面扉
  6
DASHED1
 62
    7
 10
1137.8247627124026
 20
2234.7744603287769
 11
1506.3247627124019
 21
2234.7744603287769
  0
LINE
  8
_0-6_平面扉
  6
DASHED1
 62
    7
 10
338.3247627124021
 20
1065.2410513398288
 11
338.3247627124021
 21
1050.2410513398288
  0
LINE
  8
_0-6_平面扉
  6
DASHED1
 62
    7
 10
338.3247627124021
 20
1065.241051339829
 11
338.3247627124021
 21
1050.241051339829
  0
LINE
  8
_0-6_平面扉
  6
DASHED1
 62
    7
 10
338.3247627124021
 20
2234.7744603287769
 11
338.3247627124021
 21
2523.7744603287769
  0
LINE
  8
_0-6_平面扉
  6
DASHED1
 62
    7
 10
1108.8247627124023
 20
1065.241051339829
 11
338.3247627124021
 21
1065.241051339829
  0
LINE
  8
_0-6_平面扉
  6
DASHED1
 62
    7
 10
1108.8247627124023
 20
1050.241051339829
 11
338.3247627124021
 21
1050.241051339829
  0
LINE
  8
_0-6_平面扉
  6
DASHED1
 62
    7
 10
338.3247627124021
 20
2234.7744603287769
 11
1108.8247627124026
 21
2234.7744603287769
  0
LINE
  8
_0-6_平面扉
  6
DASHED1
 62
    7
 10
338.3247627124021
 20
2523.7744603287769
 11
1108.8247627124026
 21
2523.7744603287769
  0
LINE
  8
_0-3_断面__扉
  6
DASHED1
 62
    2
 10
1110.8247627124019
 20
2204.3829924682349
 11
1110.8247627124019
 21
2266.8829924682349
  0
LINE
  8
_0-3_断面__扉
  6
DASHED1
 62
    2
 10
1110.8247627124019
 20
2266.8829924682349
 11
1135.8247627124026
 21
2266.8829924682349
  0
LINE
  8
_0-3_断面__扉
  6
DASHED1
 62
    2
 10
1135.8247627124026
 20
2204.3829924682349
 11
1135.8247627124026
 21
2266.8829924682349
  0
LINE
  8
_0-3_断面__扉
  6
DASHED1
 62
    2
 10
1110.8247627124019
 20
2465.3829924682345
 11
1135.8247627124026
 21
2465.3829924682345
  0
LINE
  8
_0-3_断面__扉
  6
DASHED1
 62
    2
 10
1110.8247627124019
 20
2465.3829924682345
 11
1110.8247627124019
 21
2527.8829924682345
  0
LINE
  8
_0-3_断面__扉
  6
DASHED1
 62
    2
 10
1135.8247627124026
 20
2465.3829924682345
 11
1135.8247627124026
 21
2527.8829924682345
  0
LINE
  8
_0-3_断面__扉
  6
DASHED1
 62
    2
 10
1110.8247627124019
 20
2204.3829924682349
 11
1110.8247627124019
 21
2266.8829924682349
  0
LINE
  8
_0-3_断面__扉
  6
DASHED1
 62
    2
 10
1110.8247627124019
 20
2266.8829924682349
 11
1135.8247627124026
 21
2266.8829924682349
  0
LINE
  8
_0-3_断面__扉
  6
DASHED1
 62
    2
 10
1135.8247627124026
 20
2204.3829924682349
 11
1135.8247627124026
 21
2266.8829924682349
  0
LINE
  8
_0-3_断面__扉
  6
DASHED1
 62
    2
 10
1110.8247627124019
 20
2465.3829924682345
 11
1135.8247627124026
 21
2465.3829924682345
  0
LINE
  8
_0-3_断面__扉
  6
DASHED1
 62
    2
 10
1110.8247627124019
 20
2465.3829924682345
 11
1110.8247627124019
 21
2527.8829924682345
  0
LINE
  8
_0-3_断面__扉
  6
DASHED1
 62
    2
 10
1135.8247627124026
 20
2465.3829924682345
 11
1135.8247627124026
 21
2527.8829924682345
  0
LINE
  8
_0-b_ラッチ断面__扉側
  6
DASHED1
 62
    7
 10
683.32476271240261
 20
1332.1410513398291
 11
683.32476271240261
 21
1323.741051339829
  0
LINE
  8
_0-b_ラッチ断面__扉側
  6
DASHED1
 62
    7
 10
682.32476271240307
 20
1300.5410513398292
 11
659.32476271240284
 21
1300.5410513398292
  0
LINE
  8
_0-b_ラッチ断面__扉側
  6
DASHED1
 62
    7
 10
670.82476271240261
 20
1317.5410513398289
 11
663.32476271240261
 21
1317.5410513398289
  0
LINE
  8
_0-b_ラッチ断面__扉側
  6
DASHED1
 62
    7
 10
660.82476271240261
 20
1325.0410513398289
 11
660.82476271240261
 21
1319.5410513398289
  0
LINE
  8
_0-b_ラッチ断面__扉側
  6
DASHED1
 62
    7
 10
662.32476271240307
 20
1319.0410513398292
 11
661.32476271240284
 21
1319.0410513398292
  0
LINE
  8
_0-b_ラッチ断面__扉側
  6
DASHED1
 62
    7
 10
690.40476271240299
 20
1328.491051339829
 11
690.42476271240275
 21
1328.491051339829
  0
LINE
  8
_0-b_ラッチ断面__扉側
  6
DASHED1
 62
    7
 10
653.32476271240261
 20
1310.8410513398291
 11
652.32476271240307
 21
1310.8410513398291
  0
LINE
  8
_0-b_ラッチ断面__扉側
  6
DASHED1
 62
    7
 10
654.32476271240284
 20
1325.0410513398289
 11
661.82476271240284
 21
1325.0410513398289
  0
LINE
  8
_0-b_ラッチ断面__扉側
  6
DASHED1
 62
    7
 10
653.32476271240261
 20
1324.0410513398292
 11
653.32476271240261
 21
1306.5410513398292
  0
LINE
  8
_0-b_ラッチ断面__扉側
  6
DASHED1
 62
    7
 10
651.32476271240284
 20
1330.241051339829
 11
651.32476271240284
 21
1311.8410513398291
  0
LINE
  8
_0-b_ラッチ断面__扉側
  6
DASHED1
 62
    7
 10
662.82476271240284
 20
1330.241051339829
 11
651.32476271240284
 21
1330.241051339829
  0
LINE
  8
_0-b_ラッチ断面__扉側
  6
DASHED1
 62
    7
 10
653.32476271240261
 20
1330.241051339829
 11
653.32476271240261
 21
1326.0410513398289
  0
LINE
  8
_0-b_ラッチ断面__扉側
  6
DASHED1
 62
    7
 10
662.82476271240284
 20
1330.241051339829
 11
662.82476271240284
 21
1318.0410513398292
  0
LINE
  8
_0-b_ラッチ断面__扉側
  6
DASHED1
 62
    7
 10
688.32476271240261
 20
1330.241051339829
 11
688.32476271240261
 21
1306.5410513398292
  0
LINE
  8
_0-b_ラッチ断面__扉側
  6
DASHED1
 62
    7
 10
678.82476271240284
 20
1330.241051339829
 11
690.32476271240284
 21
1330.241051339829
  0
LINE
  8
_0-b_ラッチ断面__扉側
  6
DASHED1
 62
    7
 10
690.32476271240284
 20
1330.241051339829
 11
690.32476271240284
 21
1311.8410513398291
  0
LINE
  8
_0-b_ラッチ断面__扉側
  6
DASHED1
 62
    7
 10
688.32476271240261
 20
1310.8410513398291
 11
689.32476271240284
 21
1310.8410513398291
  0
LINE
  8
_0-b_ラッチ断面__扉側
  6
DASHED1
 62
    7
 10
662.82476271240284
 20
1329.3410513398291
 11
678.82476271240284
 21
1329.3410513398291
  0
LINE
  8
_0-b_ラッチ断面__扉側
  6
DASHED1
 62
    7
 10
678.82476271240284
 20
1330.241051339829
 11
678.82476271240284
 21
1318.0410513398292
  0
LINE
  8
_0-b_ラッチ断面__扉側
  6
DASHED1
 62
    7
 10
670.82476271240261
 20
1317.5410513398289
 11
678.32476271240261
 21
1317.5410513398289
  0
LINE
  8
_0-b_ラッチ断面__扉側
  6
DASHED1
 62
    7
 10
687.32476271240307
 20
1325.0410513398289
 11
679.82476271240307
 21
1325.0410513398289
  0
LINE
  8
_0-b_ラッチ断面__扉側
  6
DASHED1
 62
    7
 10
677.32476271240307
 20
1329.0410513398292
 11
664.32476271240284
 21
1329.0410513398292
  0
LINE
  8
_0-b_ラッチ断面__扉側
  6
DASHED1
 62
    7
 10
667.82476271240284
 20
1325.0410513398289
 11
667.82476271240284
 21
1320.0410513398289
  0
LINE
  8
_0-b_ラッチ断面__扉側
  6
DASHED1
 62
    7
 10
672.82476271240284
 20
1319.0410513398292
 11
668.82476271240284
 21
1319.0410513398292
  0
LINE
  8
_0-b_ラッチ断面__扉側
  6
DASHED1
 62
    7
 10
673.82476271240284
 20
1325.0410513398289
 11
673.82476271240284
 21
1320.0410513398289
  0
LINE
  8
_0-b_ラッチ断面__扉側
  6
DASHED1
 62
    7
 10
677.32476271240307
 20
1325.0410513398289
 11
673.82476271240284
 21
1325.0410513398289
  0
LINE
  8
_0-b_ラッチ断面__扉側
  6
DASHED1
 62
    7
 10
667.82476271240284
 20
1325.0410513398289
 11
664.32476271240284
 21
1325.0410513398289
  0
LINE
  8
_0-b_ラッチ断面__扉側
  6
DASHED1
 62
    7
 10
665.32476271240284
 20
1318.6449013398291
 11
665.12816271240262
 21
1319.1046513398291
  0
LINE
  8
_0-b_ラッチ断面__扉側
  6
DASHED1
 62
    7
 10
676.32476271240284
 20
1318.6449013398291
 11
676.5213627124026
 21
1319.1046513398291
  0
LINE
  8
_0-b_ラッチ断面__扉側
  6
DASHED1
 62
    7
 10
678.32476271240261
 20
1317.5410513398289
 11
678.32476271240261
 21
1328.0410513398292
  0
LINE
  8
_0-b_ラッチ断面__扉側
  6
DASHED1
 62
    7
 10
663.32476271240261
 20
1317.5410513398289
 11
663.32476271240261
 21
1328.0410513398292
  0
LINE
  8
_0-b_ラッチ断面__扉側
  6
DASHED1
 62
    7
 10
679.32476271240284
 20
1319.0410513398292
 11
680.32476271240284
 21
1319.0410513398292
  0
LINE
  8
_0-b_ラッチ断面__扉側
  6
DASHED1
 62
    7
 10
680.82476271240261
 20
1325.0410513398289
 11
680.82476271240261
 21
1319.5410513398289
  0
LINE
  8
_0-b_ラッチ断面__扉側
  6
DASHED1
 62
    7
 10
662.82476271240284
 20
1323.0410513398292
 11
663.32476271240261
 21
1323.0410513398292
  0
LINE
  8
_0-b_ラッチ断面__扉側
  6
DASHED1
 62
    7
 10
662.82476271240284
 20
1322.0410513398292
 11
663.32476271240261
 21
1322.0410513398292
  0
LINE
  8
_0-b_ラッチ断面__扉側
  6
DASHED1
 62
    7
 10
678.32476271240261
 20
1322.0410513398292
 11
678.82476271240284
 21
1322.0410513398292
  0
LINE
  8
_0-b_ラッチ断面__扉側
  6
DASHED1
 62
    7
 10
678.32476271240261
 20
1323.0410513398292
 11
678.82476271240284
 21
1323.0410513398292
  0
LINE
  8
_0-b_ラッチ断面__扉側
  6
DASHED1
 62
    7
 10
662.82476271240284
 20
1329.741051339829
 11
678.82476271240284
 21
1329.741051339829
  0
LINE
  8
_0-b_ラッチ断面__扉側
  6
DASHED1
 62
    7
 10
670.82476271240261
 20
1300.5410513398292
 11
670.12476271240279
 21
1300.5410513398292
  0
LINE
  8
_0-b_ラッチ断面__扉側
  6
DASHED1
 62
    7
 10
670.82476271240261
 20
1300.5410513398292
 11
671.52476271240288
 21
1300.5410513398292
  0
LINE
  8
_0-b_ラッチ断面__扉側
  6
DASHED1
 62
    7
 10
670.32476271240284
 20
1314.5410513398289
 11
670.82476271240261
 21
1314.5410513398289
  0
LINE
  8
_0-b_ラッチ断面__扉側
  6
DASHED1
 62
    7
 10
669.82476271240307
 20
1300.8410513398291
 11
669.82476271240307
 21
1314.0410513398292
  0
LINE
  8
_0-b_ラッチ断面__扉側
  6
DASHED1
 62
    7
 10
671.82476271240284
 20
1300.8410513398291
 11
671.82476271240284
 21
1314.0410513398292
  0
LINE
  8
_0-b_ラッチ断面__扉側
  6
DASHED1
 62
    7
 10
670.82476271240261
 20
1314.5410513398289
 11
671.32476271240284
 21
1314.5410513398289
  0
LINE
  8
_0-b_ラッチ断面__扉側
  6
DASHED1
 62
    7
 10
670.82476271240261
 20
1330.8410513398291
 11
670.82476271240261
 21
1297.8410513398289
  0
ARC
  8
_0-b_ラッチ断面__扉側
  6
DASHED1
 62
    7
 10
659.32476271240284
 20
1306.5410513398292
 40
6.0000000000000008
 50
180.00000000000005
 51
270.00000000000005
  0
ARC
  8
_0-b_ラッチ断面__扉側
  6
DASHED1
 62
    7
 10
682.32476271240307
 20
1306.5410513398292
 40
6.0000000000000008
 50
270.00000000000005
 51
0.0000000000000508
  0
ARC
  8
_0-b_ラッチ断面__扉側
  6
DASHED1
 62
    7
 10
661.82476271240284
 20
1326.0410513398289
 40
1
 50
270.00000000000005
 51
0.0000000000000508
  0
ARC
  8
_0-b_ラッチ断面__扉側
  6
DASHED1
 62
    7
 10
654.32476271240284
 20
1326.0410513398289
 40
1
 50
180.00000000000005
 51
270.00000000000005
  0
ARC
  8
_0-b_ラッチ断面__扉側
  6
DASHED1
 62
    7
 10
663.32476271240261
 20
1318.0410513398292
 40
0.5
 50
180.00000000000005
 51
270.00000000000005
  0
ARC
  8
_0-b_ラッチ断面__扉側
  6
DASHED1
 62
    7
 10
662.32476271240307
 20
1319.5410513398289
 40
0.5
 50
270.00000000000005
 51
0.0000000000000508
  0
ARC
  8
_0-b_ラッチ断面__扉側
  6
DASHED1
 62
    7
 10
661.32476271240284
 20
1319.5410513398289
 40
0.5
 50
180.00000000000005
 51
270.00000000000005
  0
ARC
  8
_0-b_ラッチ断面__扉側
  6
DASHED1
 62
    7
 10
652.32476271240307
 20
1311.8410513398291
 40
1
 50
180.00000000000005
 51
270.00000000000005
  0
ARC
  8
_0-b_ラッチ断面__扉側
  6
DASHED1
 62
    7
 10
654.32476271240284
 20
1324.0410513398292
 40
1
 50
90.000000000000028
 51
180.00000000000005
  0
ARC
  8
_0-b_ラッチ断面__扉側
  6
DASHED1
 62
    7
 10
689.32476271240284
 20
1311.8410513398291
 40
1
 50
270.00000000000005
 51
0.0000000000000508
  0
ARC
  8
_0-b_ラッチ断面__扉側
  6
DASHED1
 62
    7
 10
678.32476271240261
 20
1318.0410513398292
 40
0.5
 50
270.00000000000005
 51
0.0000000000000508
  0
ARC
  8
_0-b_ラッチ断面__扉側
  6
DASHED1
 62
    7
 10
679.82476271240307
 20
1326.0410513398289
 40
1
 50
180.00000000000005
 51
270.00000000000005
  0
ARC
  8
_0-b_ラッチ断面__扉側
  6
DASHED1
 62
    7
 10
687.32476271240307
 20
1326.0410513398289
 40
1
 50
270.00000000000005
 51
0.0000000000000508
  0
ARC
  8
_0-b_ラッチ断面__扉側
  6
DASHED1
 62
    7
 10
664.32476271240284
 20
1328.0410513398292
 40
1
 50
90.000000000000028
 51
180.00000000000005
  0
ARC
  8
_0-b_ラッチ断面__扉側
  6
DASHED1
 62
    7
 10
677.32476271240307
 20
1328.0410513398292
 40
1
 50
0
 51
90.000000000000028
  0
ARC
  8
_0-b_ラッチ断面__扉側
  6
DASHED1
 62
    7
 10
664.32476271240284
 20
1326.0410513398289
 40
1
 50
180.00000000000005
 51
270.00000000000005
  0
ARC
  8
_0-b_ラッチ断面__扉側
  6
DASHED1
 62
    7
 10
677.32476271240307
 20
1326.0410513398289
 40
1
 50
270.00000000000005
 51
0.0000000000000508
  0
ARC
  8
_0-b_ラッチ断面__扉側
  6
DASHED1
 62
    7
 10
668.82476271240284
 20
1320.0410513398289
 40
1
 50
180.00000000000005
 51
270.00000000000005
  0
ARC
  8
_0-b_ラッチ断面__扉側
  6
DASHED1
 62
    7
 10
672.82476271240284
 20
1320.0410513398289
 40
1
 50
270.00000000000005
 51
0.0000000000000508
  0
ARC
  8
_0-b_ラッチ断面__扉側
  6
DASHED1
 62
    7
 10
679.32476271240284
 20
1319.5410513398289
 40
0.5
 50
180.00000000000005
 51
270.00000000000005
  0
ARC
  8
_0-b_ラッチ断面__扉側
  6
DASHED1
 62
    7
 10
680.32476271240284
 20
1319.5410513398289
 40
0.5
 50
270.00000000000005
 51
0.0000000000000508
  0
ARC
  8
_0-b_ラッチ断面__扉側
  6
DASHED1
 62
    7
 10
670.12476271240279
 20
1300.8410513398291
 40
0.2999999999999998
 50
180.00000000000005
 51
270.00000000000005
  0
ARC
  8
_0-b_ラッチ断面__扉側
  6
DASHED1
 62
    7
 10
671.52476271240288
 20
1300.8410513398291
 40
0.2999999999999998
 50
270.00000000000005
 51
0.0000000000000508
  0
ARC
  8
_0-b_ラッチ断面__扉側
  6
DASHED1
 62
    7
 10
670.32476271240284
 20
1314.0410513398292
 40
0.5
 50
90.000000000000028
 51
180.00000000000005
  0
ARC
  8
_0-b_ラッチ断面__扉側
  6
DASHED1
 62
    7
 10
671.32476271240284
 20
1314.0410513398292
 40
0.5
 50
0
 51
90.000000000000028
  0
LINE
  8
_0-b_ラッチ断面__扉側
  6
DASHED1
 62
    7
 10
658.32476271240261
 20
1332.1410513398291
 11
658.32476271240261
 21
1323.741051339829
  0
LINE
  8
_0-b_ラッチ断面__扉側
  6
DASHED1
 62
    7
 10
784.32476271240261
 20
1332.1410513398291
 11
784.32476271240261
 21
1323.741051339829
  0
LINE
  8
_0-b_ラッチ断面__扉側
  6
DASHED1
 62
    7
 10
783.32476271240261
 20
1300.5410513398292
 11
760.32476271240261
 21
1300.5410513398292
  0
LINE
  8
_0-b_ラッチ断面__扉側
  6
DASHED1
 62
    7
 10
771.82476271240261
 20
1317.5410513398289
 11
764.32476271240261
 21
1317.5410513398289
  0
LINE
  8
_0-b_ラッチ断面__扉側
  6
DASHED1
 62
    7
 10
761.82476271240261
 20
1325.0410513398289
 11
761.82476271240261
 21
1319.5410513398289
  0
LINE
  8
_0-b_ラッチ断面__扉側
  6
DASHED1
 62
    7
 10
763.32476271240261
 20
1319.0410513398292
 11
762.32476271240238
 21
1319.0410513398292
  0
LINE
  8
_0-b_ラッチ断面__扉側
  6
DASHED1
 62
    7
 10
791.40476271240254
 20
1328.491051339829
 11
791.42476271240241
 21
1328.491051339829
  0
LINE
  8
_0-b_ラッチ断面__扉側
  6
DASHED1
 62
    7
 10
754.32476271240261
 20
1310.8410513398291
 11
753.32476271240261
 21
1310.8410513398291
  0
LINE
  8
_0-b_ラッチ断面__扉側
  6
DASHED1
 62
    7
 10
755.32476271240261
 20
1325.0410513398289
 11
762.82476271240261
 21
1325.0410513398289
  0
LINE
  8
_0-b_ラッチ断面__扉側
  6
DASHED1
 62
    7
 10
754.32476271240261
 20
1324.0410513398292
 11
754.32476271240261
 21
1306.5410513398292
  0
LINE
  8
_0-b_ラッチ断面__扉側
  6
DASHED1
 62
    7
 10
752.32476271240238
 20
1330.241051339829
 11
752.32476271240238
 21
1311.8410513398291
  0
LINE
  8
_0-b_ラッチ断面__扉側
  6
DASHED1
 62
    7
 10
763.82476271240284
 20
1330.241051339829
 11
752.32476271240238
 21
1330.241051339829
  0
LINE
  8
_0-b_ラッチ断面__扉側
  6
DASHED1
 62
    7
 10
754.32476271240261
 20
1330.241051339829
 11
754.32476271240261
 21
1326.0410513398289
  0
LINE
  8
_0-b_ラッチ断面__扉側
  6
DASHED1
 62
    7
 10
763.82476271240284
 20
1330.241051339829
 11
763.82476271240284
 21
1318.0410513398292
  0
LINE
  8
_0-b_ラッチ断面__扉側
  6
DASHED1
 62
    7
 10
789.32476271240261
 20
1330.241051339829
 11
789.32476271240261
 21
1306.5410513398292
  0
LINE
  8
_0-b_ラッチ断面__扉側
  6
DASHED1
 62
    7
 10
779.82476271240273
 20
1330.241051339829
 11
791.3247627124025
 21
1330.241051339829
  0
LINE
  8
_0-b_ラッチ断面__扉側
  6
DASHED1
 62
    7
 10
791.3247627124025
 20
1330.241051339829
 11
791.3247627124025
 21
1311.8410513398291
  0
LINE
  8
_0-b_ラッチ断面__扉側
  6
DASHED1
 62
    7
 10
789.32476271240261
 20
1310.8410513398291
 11
790.32476271240284
 21
1310.8410513398291
  0
LINE
  8
_0-b_ラッチ断面__扉側
  6
DASHED1
 62
    7
 10
763.82476271240284
 20
1329.3410513398291
 11
779.82476271240273
 21
1329.3410513398291
  0
LINE
  8
_0-b_ラッチ断面__扉側
  6
DASHED1
 62
    7
 10
779.82476271240273
 20
1330.241051339829
 11
779.82476271240273
 21
1318.0410513398292
  0
LINE
  8
_0-b_ラッチ断面__扉側
  6
DASHED1
 62
    7
 10
771.82476271240261
 20
1317.5410513398289
 11
779.32476271240261
 21
1317.5410513398289
  0
LINE
  8
_0-b_ラッチ断面__扉側
  6
DASHED1
 62
    7
 10
788.32476271240261
 20
1325.0410513398289
 11
780.82476271240261
 21
1325.0410513398289
  0
LINE
  8
_0-b_ラッチ断面__扉側
  6
DASHED1
 62
    7
 10
778.32476271240261
 20
1329.0410513398292
 11
765.32476271240261
 21
1329.0410513398292
  0
LINE
  8
_0-b_ラッチ断面__扉側
  6
DASHED1
 62
    7
 10
768.8247627124025
 20
1325.0410513398289
 11
768.8247627124025
 21
1320.0410513398289
  0
LINE
  8
_0-b_ラッチ断面__扉側
  6
DASHED1
 62
    7
 10
773.8247627124025
 20
1319.0410513398292
 11
769.82476271240273
 21
1319.0410513398292
  0
LINE
  8
_0-b_ラッチ断面__扉側
  6
DASHED1
 62
    7
 10
774.82476271240273
 20
1325.0410513398289
 11
774.82476271240273
 21
1320.0410513398289
  0
LINE
  8
_0-b_ラッチ断面__扉側
  6
DASHED1
 62
    7
 10
778.32476271240261
 20
1325.0410513398289
 11
774.82476271240273
 21
1325.0410513398289
  0
LINE
  8
_0-b_ラッチ断面__扉側
  6
DASHED1
 62
    7
 10
768.8247627124025
 20
1325.0410513398289
 11
765.32476271240261
 21
1325.0410513398289
  0
LINE
  8
_0-b_ラッチ断面__扉側
  6
DASHED1
 62
    7
 10
766.32476271240284
 20
1318.6449013398291
 11
766.12816271240262
 21
1319.1046513398291
  0
LINE
  8
_0-b_ラッチ断面__扉側
  6
DASHED1
 62
    7
 10
777.32476271240273
 20
1318.6449013398291
 11
777.5213627124026
 21
1319.1046513398291
  0
LINE
  8
_0-b_ラッチ断面__扉側
  6
DASHED1
 62
    7
 10
779.32476271240261
 20
1317.5410513398289
 11
779.32476271240261
 21
1328.0410513398292
  0
LINE
  8
_0-b_ラッチ断面__扉側
  6
DASHED1
 62
    7
 10
764.32476271240261
 20
1317.5410513398289
 11
764.32476271240261
 21
1328.0410513398292
  0
LINE
  8
_0-b_ラッチ断面__扉側
  6
DASHED1
 62
    7
 10
780.32476271240284
 20
1319.0410513398292
 11
781.3247627124025
 21
1319.0410513398292
  0
LINE
  8
_0-b_ラッチ断面__扉側
  6
DASHED1
 62
    7
 10
781.82476271240261
 20
1325.0410513398289
 11
781.82476271240261
 21
1319.5410513398289
  0
LINE
  8
_0-b_ラッチ断面__扉側
  6
DASHED1
 62
    7
 10
763.82476271240284
 20
1323.0410513398292
 11
764.32476271240261
 21
1323.0410513398292
  0
LINE
  8
_0-b_ラッチ断面__扉側
  6
DASHED1
 62
    7
 10
763.82476271240284
 20
1322.0410513398292
 11
764.32476271240261
 21
1322.0410513398292
  0
LINE
  8
_0-b_ラッチ断面__扉側
  6
DASHED1
 62
    7
 10
779.32476271240261
 20
1322.0410513398292
 11
779.82476271240273
 21
1322.0410513398292
  0
LINE
  8
_0-b_ラッチ断面__扉側
  6
DASHED1
 62
    7
 10
779.32476271240261
 20
1323.0410513398292
 11
779.82476271240273
 21
1323.0410513398292
  0
LINE
  8
_0-b_ラッチ断面__扉側
  6
DASHED1
 62
    7
 10
763.82476271240284
 20
1329.741051339829
 11
779.82476271240273
 21
1329.741051339829
  0
LINE
  8
_0-b_ラッチ断面__扉側
  6
DASHED1
 62
    7
 10
771.82476271240261
 20
1300.5410513398292
 11
771.12476271240268
 21
1300.5410513398292
  0
LINE
  8
_0-b_ラッチ断面__扉側
  6
DASHED1
 62
    7
 10
771.82476271240261
 20
1300.5410513398292
 11
772.52476271240254
 21
1300.5410513398292
  0
LINE
  8
_0-b_ラッチ断面__扉側
  6
DASHED1
 62
    7
 10
771.3247627124025
 20
1314.5410513398289
 11
771.82476271240261
 21
1314.5410513398289
  0
LINE
  8
_0-b_ラッチ断面__扉側
  6
DASHED1
 62
    7
 10
770.82476271240261
 20
1300.8410513398291
 11
770.82476271240261
 21
1314.0410513398292
  0
LINE
  8
_0-b_ラッチ断面__扉側
  6
DASHED1
 62
    7
 10
772.82476271240284
 20
1300.8410513398291
 11
772.82476271240284
 21
1314.0410513398292
  0
LINE
  8
_0-b_ラッチ断面__扉側
  6
DASHED1
 62
    7
 10
771.82476271240261
 20
1314.5410513398289
 11
772.32476271240273
 21
1314.5410513398289
  0
LINE
  8
_0-b_ラッチ断面__扉側
  6
DASHED1
 62
    7
 10
771.82476271240261
 20
1330.8410513398291
 11
771.82476271240261
 21
1297.8410513398289
  0
ARC
  8
_0-b_ラッチ断面__扉側
  6
DASHED1
 62
    7
 10
760.32476271240261
 20
1306.5410513398292
 40
6.0000000000000008
 50
180.00000000000005
 51
270.00000000000005
  0
ARC
  8
_0-b_ラッチ断面__扉側
  6
DASHED1
 62
    7
 10
783.32476271240261
 20
1306.5410513398292
 40
6.0000000000000008
 50
270.00000000000005
 51
0.0000000000000508
  0
ARC
  8
_0-b_ラッチ断面__扉側
  6
DASHED1
 62
    7
 10
762.82476271240261
 20
1326.0410513398289
 40
1
 50
270.00000000000005
 51
0.0000000000000508
  0
ARC
  8
_0-b_ラッチ断面__扉側
  6
DASHED1
 62
    7
 10
755.32476271240261
 20
1326.0410513398289
 40
1
 50
180.00000000000005
 51
270.00000000000005
  0
ARC
  8
_0-b_ラッチ断面__扉側
  6
DASHED1
 62
    7
 10
764.32476271240261
 20
1318.0410513398292
 40
0.5
 50
180.00000000000005
 51
270.00000000000005
  0
ARC
  8
_0-b_ラッチ断面__扉側
  6
DASHED1
 62
    7
 10
763.32476271240261
 20
1319.5410513398289
 40
0.5
 50
270.00000000000005
 51
0.0000000000000508
  0
ARC
  8
_0-b_ラッチ断面__扉側
  6
DASHED1
 62
    7
 10
762.32476271240238
 20
1319.5410513398289
 40
0.5
 50
180.00000000000005
 51
270.00000000000005
  0
ARC
  8
_0-b_ラッチ断面__扉側
  6
DASHED1
 62
    7
 10
753.32476271240261
 20
1311.8410513398291
 40
1
 50
180.00000000000005
 51
270.00000000000005
  0
ARC
  8
_0-b_ラッチ断面__扉側
  6
DASHED1
 62
    7
 10
755.32476271240261
 20
1324.0410513398292
 40
1
 50
90.000000000000028
 51
180.00000000000005
  0
ARC
  8
_0-b_ラッチ断面__扉側
  6
DASHED1
 62
    7
 10
790.32476271240284
 20
1311.8410513398291
 40
1
 50
270.00000000000005
 51
0.0000000000000508
  0
ARC
  8
_0-b_ラッチ断面__扉側
  6
DASHED1
 62
    7
 10
779.32476271240261
 20
1318.0410513398292
 40
0.5
 50
270.00000000000005
 51
0.0000000000000508
  0
ARC
  8
_0-b_ラッチ断面__扉側
  6
DASHED1
 62
    7
 10
780.82476271240261
 20
1326.0410513398289
 40
1
 50
180.00000000000005
 51
270.00000000000005
  0
ARC
  8
_0-b_ラッチ断面__扉側
  6
DASHED1
 62
    7
 10
788.32476271240261
 20
1326.0410513398289
 40
1
 50
270.00000000000005
 51
0.0000000000000508
  0
ARC
  8
_0-b_ラッチ断面__扉側
  6
DASHED1
 62
    7
 10
765.32476271240261
 20
1328.0410513398292
 40
1
 50
90.000000000000028
 51
180.00000000000005
  0
ARC
  8
_0-b_ラッチ断面__扉側
  6
DASHED1
 62
    7
 10
778.32476271240261
 20
1328.0410513398292
 40
1
 50
0
 51
90.000000000000028
  0
ARC
  8
_0-b_ラッチ断面__扉側
  6
DASHED1
 62
    7
 10
765.32476271240261
 20
1326.0410513398289
 40
1
 50
180.00000000000005
 51
270.00000000000005
  0
ARC
  8
_0-b_ラッチ断面__扉側
  6
DASHED1
 62
    7
 10
778.32476271240261
 20
1326.0410513398289
 40
1
 50
270.00000000000005
 51
0.0000000000000508
  0
ARC
  8
_0-b_ラッチ断面__扉側
  6
DASHED1
 62
    7
 10
769.82476271240273
 20
1320.0410513398289
 40
1
 50
180.00000000000005
 51
270.00000000000005
  0
ARC
  8
_0-b_ラッチ断面__扉側
  6
DASHED1
 62
    7
 10
773.8247627124025
 20
1320.0410513398289
 40
1
 50
270.00000000000005
 51
0.0000000000000508
  0
ARC
  8
_0-b_ラッチ断面__扉側
  6
DASHED1
 62
    7
 10
780.32476271240284
 20
1319.5410513398289
 40
0.5
 50
180.00000000000005
 51
270.00000000000005
  0
ARC
  8
_0-b_ラッチ断面__扉側
  6
DASHED1
 62
    7
 10
781.3247627124025
 20
1319.5410513398289
 40
0.5
 50
270.00000000000005
 51
0.0000000000000508
  0
ARC
  8
_0-b_ラッチ断面__扉側
  6
DASHED1
 62
    7
 10
771.12476271240268
 20
1300.8410513398291
 40
0.2999999999999998
 50
180.00000000000005
 51
270.00000000000005
  0
ARC
  8
_0-b_ラッチ断面__扉側
  6
DASHED1
 62
    7
 10
772.52476271240254
 20
1300.8410513398291
 40
0.2999999999999998
 50
270.00000000000005
 51
0.0000000000000508
  0
ARC
  8
_0-b_ラッチ断面__扉側
  6
DASHED1
 62
    7
 10
771.3247627124025
 20
1314.0410513398292
 40
0.5
 50
90.000000000000028
 51
180.00000000000005
  0
ARC
  8
_0-b_ラッチ断面__扉側
  6
DASHED1
 62
    7
 10
772.32476271240273
 20
1314.0410513398292
 40
0.5
 50
0
 51
90.000000000000028
  0
LINE
  8
_0-b_ラッチ断面__扉側
  6
DASHED1
 62
    7
 10
759.32476271240261
 20
1332.1410513398291
 11
759.32476271240261
 21
1323.741051339829
  0
LINE
  8
_0-b_ラッチ断面__扉側
  6
DASHED1
 62
    7
 10
1186.324762712403
 20
2222.2744603287765
 11
1185.824762712403
 21
2222.2744603287765
  0
LINE
  8
_0-b_ラッチ断面__扉側
  6
DASHED1
 62
    7
 10
1163.324762712403
 20
2222.2744603287765
 11
1163.824762712403
 21
2222.2744603287765
  0
LINE
  8
_0-b_ラッチ断面__扉側
  6
DASHED1
 62
    7
 10
1166.324762712403
 20
2282.2744603287765
 11
1183.324762712403
 21
2282.2744603287765
  0
LINE
  8
_0-b_ラッチ断面__扉側
  6
DASHED1
 62
    7
 10
1166.824762712403
 20
2247.2744603287765
 11
1182.824762712403
 21
2247.2744603287765
  0
LINE
  8
_0-b_ラッチ断面__扉側
  6
DASHED1
 62
    7
 10
1186.324762712403
 20
2222.2744603287765
 11
1185.824762712403
 21
2222.2744603287765
  0
LINE
  8
_0-b_ラッチ断面__扉側
  6
DASHED1
 62
    7
 10
1192.324762712403
 20
2249.2744603287765
 11
1193.324762712403
 21
2249.2744603287765
  0
LINE
  8
_0-b_ラッチ断面__扉側
  6
DASHED1
 62
    7
 10
1192.324762712403
 20
2273.2744603287765
 11
1192.324762712403
 21
2249.2744603287765
  0
LINE
  8
_0-b_ラッチ断面__扉側
  6
DASHED1
 62
    7
 10
1157.324762712403
 20
2249.2744603287765
 11
1156.324762712403
 21
2249.2744603287765
  0
LINE
  8
_0-b_ラッチ断面__扉側
  6
DASHED1
 62
    7
 10
1157.324762712403
 20
2273.2744603287765
 11
1157.324762712403
 21
2249.2744603287765
  0
LINE
  8
_0-b_ラッチ断面__扉側
  6
DASHED1
 62
    7
 10
1155.9347627124029
 20
2252.2744603287765
 11
1163.324762712403
 21
2252.2744603287765
  0
LINE
  8
_0-b_ラッチ断面__扉側
  6
DASHED1
 62
    7
 10
1186.324762712403
 20
2252.2744603287765
 11
1194.4247627124029
 21
2252.2744603287765
  0
LINE
  8
_0-b_ラッチ断面__扉側
  6
DASHED1
 62
    7
 10
1164.824762712403
 20
2247.2744603287765
 11
1164.824762712403
 21
2244.4744603287767
  0
LINE
  8
_0-b_ラッチ断面__扉側
  6
DASHED1
 62
    7
 10
1166.324762712403
 20
2245.8744603287768
 11
1165.324762712403
 21
2245.8744603287768
  0
LINE
  8
_0-b_ラッチ断面__扉側
  6
DASHED1
 62
    7
 10
1183.324762712403
 20
2245.8744603287768
 11
1184.324762712403
 21
2245.8744603287768
  0
LINE
  8
_0-b_ラッチ断面__扉側
  6
DASHED1
 62
    7
 10
1184.824762712403
 20
2247.2744603287765
 11
1184.824762712403
 21
2244.4744603287767
  0
LINE
  8
_0-b_ラッチ断面__扉側
  6
DASHED1
 62
    7
 10
1182.824762712403
 20
2247.2744603287765
 11
1182.824762712403
 21
2225.2744603287765
  0
LINE
  8
_0-b_ラッチ断面__扉側
  6
DASHED1
 62
    7
 10
1166.824762712403
 20
2247.2744603287765
 11
1166.824762712403
 21
2225.2744603287765
  0
LINE
  8
_0-b_ラッチ断面__扉側
  6
DASHED1
 62
    7
 10
1172.588712712403
 20
2220.2745103287766
 11
1177.060812712403
 21
2220.2745103287766
  0
LINE
  8
_0-b_ラッチ断面__扉側
  6
DASHED1
 62
    7
 10
1178.324762712403
 20
2218.2745103287766
 11
1178.324762712403
 21
2216.2745103287766
  0
LINE
  8
_0-b_ラッチ断面__扉側
  6
DASHED1
 62
    7
 10
1171.324762712403
 20
2218.2745103287766
 11
1171.324762712403
 21
2216.2745103287766
  0
LINE
  8
_0-b_ラッチ断面__扉側
  6
DASHED1
 62
    7
 10
1171.324762712403
 20
2216.2745103287766
 11
1171.824762712403
 21
2216.2745103287766
  0
LINE
  8
_0-b_ラッチ断面__扉側
  6
DASHED1
 62
    7
 10
1177.824762712403
 20
2216.2745103287766
 11
1178.324762712403
 21
2216.2745103287766
  0
LINE
  8
_0-b_ラッチ断面__扉側
  6
DASHED1
 62
    7
 10
1178.324762712403
 20
2211.2745103287766
 11
1171.324762712403
 21
2211.2745103287766
  0
LINE
  8
_0-b_ラッチ断面__扉側
  6
DASHED1
 62
    7
 10
1178.370712712403
 20
2211.3204603287767
 11
1178.324762712403
 21
2211.2745103287766
  0
LINE
  8
_0-b_ラッチ断面__扉側
  6
DASHED1
 62
    7
 10
1171.2788127124031
 20
2211.3204603287767
 11
1171.324762712403
 21
2211.2745103287766
  0
LINE
  8
_0-b_ラッチ断面__扉側
  6
DASHED1
 62
    7
 10
1177.824762712403
 20
2218.2745103287766
 11
1177.824762712403
 21
2212.2745103287761
  0
LINE
  8
_0-b_ラッチ断面__扉側
  6
DASHED1
 62
    7
 10
1171.824762712403
 20
2218.2745103287766
 11
1171.824762712403
 21
2212.2745103287761
  0
LINE
  8
_0-b_ラッチ断面__扉側
  6
DASHED1
 62
    7
 10
1171.824762712403
 20
2216.2745103287766
 11
1177.824762712403
 21
2216.2745103287766
  0
LINE
  8
_0-b_ラッチ断面__扉側
  6
DASHED1
 62
    7
 10
1170.253712712403
 20
2212.3455603287766
 11
1171.2788127124031
 21
2211.3204603287767
  0
LINE
  8
_0-b_ラッチ断面__扉側
  6
DASHED1
 62
    7
 10
1179.395812712403
 20
2212.3455603287766
 11
1178.370712712403
 21
2211.3204603287767
  0
LINE
  8
_0-b_ラッチ断面__扉側
  6
DASHED1
 62
    7
 10
1182.324762712403
 20
2219.4166103287766
 11
1182.324762712403
 21
2247.2744603287765
  0
LINE
  8
_0-b_ラッチ断面__扉側
  6
DASHED1
 62
    7
 10
1167.324762712403
 20
2219.4166103287766
 11
1167.324762712403
 21
2247.2744603287765
  0
LINE
  8
_0-b_ラッチ断面__扉側
  6
DASHED1
 62
    7
 10
1161.6493127124031
 20
2239.0370603287765
 11
1161.437812712403
 21
2239.3125603287767
  0
LINE
  8
_0-b_ラッチ断面__扉側
  6
DASHED1
 62
    7
 10
1161.6493127124031
 20
2239.0370603287765
 11
1162.324762712403
 21
2239.7744603287765
  0
LINE
  8
_0-b_ラッチ断面__扉側
  6
DASHED1
 62
    7
 10
1161.437812712403
 20
2239.3125603287767
 11
1162.324762712403
 21
2239.7744603287765
  0
LINE
  8
_0-b_ラッチ断面__扉側
  6
DASHED1
 62
    7
 10
1182.824762712403
 20
2247.2744603287765
 11
1192.0247627124028
 21
2247.2744603287765
  0
LINE
  8
_0-b_ラッチ断面__扉側
  6
DASHED1
 62
    7
 10
1166.824762712403
 20
2247.2744603287765
 11
1157.6247627124032
 21
2247.2744603287765
  0
LINE
  8
_0-b_ラッチ断面__扉側
  6
DASHED1
 62
    7
 10
1175.824762712403
 20
2247.2744603287765
 11
1175.824762712403
 21
2237.7748603287768
  0
LINE
  8
_0-b_ラッチ断面__扉側
  6
DASHED1
 62
    7
 10
1173.824762712403
 20
2247.2744603287765
 11
1173.824762712403
 21
2237.7748603287768
  0
LINE
  8
_0-b_ラッチ断面__扉側
  6
DASHED1
 62
    7
 10
1174.324762712403
 20
2237.2748603287764
 11
1175.324762712403
 21
2237.2748603287764
  0
LINE
  8
_0-b_ラッチ断面__扉側
  6
DASHED1
 62
    7
 10
1173.824762712403
 20
2241.4944603287767
 11
1167.324762712403
 21
2241.4944603287767
  0
LINE
  8
_0-b_ラッチ断面__扉側
  6
DASHED1
 62
    7
 10
1182.324762712403
 20
2241.4944603287767
 11
1175.824762712403
 21
2241.4944603287767
  0
LINE
  8
_0-b_ラッチ断面__扉側
  6
DASHED1
 62
    7
 10
1173.824762712403
 20
2241.8644603287766
 11
1172.7640127124029
 21
2241.8644603287766
  0
LINE
  8
_0-b_ラッチ断面__扉側
  6
DASHED1
 62
    7
 10
1170.3855127124031
 20
2241.8644603287766
 11
1167.324762712403
 21
2241.8644603287766
  0
LINE
  8
_0-b_ラッチ断面__扉側
  6
DASHED1
 62
    7
 10
1182.324762712403
 20
2241.8644603287766
 11
1179.2640127124029
 21
2241.8644603287766
  0
LINE
  8
_0-b_ラッチ断面__扉側
  6
DASHED1
 62
    7
 10
1176.8855127124029
 20
2241.8644603287766
 11
1175.824762712403
 21
2241.8644603287766
  0
LINE
  8
_0-b_ラッチ断面__扉側
  6
DASHED1
 62
    7
 10
1194.324762712403
 20
2237.2744603287765
 11
1194.324762712403
 21
2248.2744603287765
  0
LINE
  8
_0-b_ラッチ断面__扉側
  6
DASHED1
 62
    7
 10
1192.324762712403
 20
2236.2744603287769
 11
1193.324762712403
 21
2236.2744603287769
  0
LINE
  8
_0-b_ラッチ断面__扉側
  6
DASHED1
 62
    7
 10
1192.324762712403
 20
2246.9744603287767
 11
1192.324762712403
 21
2228.2744603287765
  0
LINE
  8
_0-b_ラッチ断面__扉側
  6
DASHED1
 62
    7
 10
1155.324762712403
 20
2237.2744603287765
 11
1155.324762712403
 21
2248.2744603287765
  0
LINE
  8
_0-b_ラッチ断面__扉側
  6
DASHED1
 62
    7
 10
1157.324762712403
 20
2236.2744603287769
 11
1156.324762712403
 21
2236.2744603287769
  0
LINE
  8
_0-b_ラッチ断面__扉側
  6
DASHED1
 62
    7
 10
1157.324762712403
 20
2246.9744603287767
 11
1157.324762712403
 21
2228.2744603287765
  0
LINE
  8
_0-b_ラッチ断面__扉側
  6
DASHED1
 62
    7
 10
1174.824762712403
 20
2283.9744603287767
 11
1174.824762712403
 21
2208.6744603287761
  0
LINE
  8
_0-b_ラッチ断面__扉側
  6
DASHED1
 62
    7
 10
1156.1947627124029
 20
2264.7744603287765
 11
1195.2247627124031
 21
2264.7744603287765
  0
LINE
  8
_0-b_ラッチ断面__扉側
  6
DASHED1
 62
    7
 10
1162.324762712403
 20
2243.9244603287766
 11
1162.324762712403
 21
2235.674460328777
  0
LINE
  8
_0-b_ラッチ断面__扉側
  6
DASHED1
 62
    7
 10
1165.574762712403
 20
2239.7744603287765
 11
1159.0247627124028
 21
2239.7744603287765
  0
LINE
  8
_0-b_ラッチ断面__扉側
  6
DASHED1
 62
    7
 10
1187.324762712403
 20
2243.5944603287766
 11
1187.324762712403
 21
2235.8744603287768
  0
LINE
  8
_0-b_ラッチ断面__扉側
  6
DASHED1
 62
    7
 10
1184.054762712403
 20
2239.7744603287765
 11
1191.064762712403
 21
2239.7744603287765
  0
LINE
  8
_0-b_ラッチ断面__扉側
  6
DASHED1
 62
    7
 10
1178.384762712403
 20
2213.7745103287766
 11
1171.114762712403
 21
2213.7745103287766
  0
ARC
  8
_0-b_ラッチ断面__扉側
  6
DASHED1
 62
    7
 10
1183.324762712403
 20
2273.2744603287765
 40
9
 50
0.0000000000000254
 51
90.000000000000056
  0
ARC
  8
_0-b_ラッチ断面__扉側
  6
DASHED1
 62
    7
 10
1186.324762712403
 20
2228.2744603287765
 40
6.0000000000000008
 50
270
 51
0
  0
ARC
  8
_0-b_ラッチ断面__扉側
  6
DASHED1
 62
    7
 10
1185.824762712403
 20
2225.2744603287765
 40
3.0000000000000004
 50
180.00000000000005
 51
270.00000000000005
  0
ARC
  8
_0-b_ラッチ断面__扉側
  6
DASHED1
 62
    7
 10
1166.324762712403
 20
2273.2744603287765
 40
9
 50
90.000000000000056
 51
180.00000000000011
  0
ARC
  8
_0-b_ラッチ断面__扉側
  6
DASHED1
 62
    7
 10
1163.324762712403
 20
2228.2744603287765
 40
6.0000000000000008
 50
180.00000000000005
 51
270.00000000000005
  0
ARC
  8
_0-b_ラッチ断面__扉側
  6
DASHED1
 62
    7
 10
1163.824762712403
 20
2225.2744603287765
 40
3.0000000000000004
 50
270
 51
0
  0
CIRCLE
  8
_0-b_ラッチ断面__扉側
  6
DASHED1
 62
    7
 10
1162.324762712403
 20
2239.7744603287765
 40
1.8999999999999999
  0
CIRCLE
  8
_0-b_ラッチ断面__扉側
  6
DASHED1
 62
    7
 10
1187.324762712403
 20
2239.7744603287765
 40
1.8999999999999999
  0
ARC
  8
_0-b_ラッチ断面__扉側
  6
DASHED1
 62
    7
 10
1193.324762712403
 20
2248.2744603287765
 40
1
 50
0.0000000000000254
 51
90.000000000000056
  0
ARC
  8
_0-b_ラッチ断面__扉側
  6
DASHED1
 62
    7
 10
1156.324762712403
 20
2248.2744603287765
 40
1
 50
90.000000000000056
 51
180.00000000000011
  0
ARC
  8
_0-b_ラッチ断面__扉側
  6
DASHED1
 62
    7
 10
1159.324762712403
 20
2249.2744603287765
 40
2
 50
180.00000000000005
 51
270.00000000000005
  0
ARC
  8
_0-b_ラッチ断面__扉側
  6
DASHED1
 62
    7
 10
1166.324762712403
 20
2246.3744603287768
 40
0.5
 50
270
 51
0
  0
ARC
  8
_0-b_ラッチ断面__扉側
  6
DASHED1
 62
    7
 10
1165.324762712403
 20
2246.3744603287768
 40
0.5
 50
180.00000000000005
 51
270.00000000000005
  0
ARC
  8
_0-b_ラッチ断面__扉側
  6
DASHED1
 62
    7
 10
1183.324762712403
 20
2246.3744603287768
 40
0.5
 50
180.00000000000005
 51
270.00000000000005
  0
ARC
  8
_0-b_ラッチ断面__扉側
  6
DASHED1
 62
    7
 10
1184.324762712403
 20
2246.3744603287768
 40
0.5
 50
270
 51
0
  0
ARC
  8
_0-b_ラッチ断面__扉側
  6
DASHED1
 62
    7
 10
1190.324762712403
 20
2249.2744603287765
 40
2
 50
270
 51
0
  0
ARC
  8
_0-b_ラッチ断面__扉側
  6
DASHED1
 62
    7
 10
1174.824762712403
 20
2218.2745103287766
 40
3.5000000000000008
 50
90.000000000000056
 51
180.00000000000011
  0
ARC
  8
_0-b_ラッチ断面__扉側
  6
DASHED1
 62
    7
 10
1174.824762712403
 20
2218.2745103287766
 40
3.5000000000000008
 50
0.0000000000000254
 51
90.000000000000056
  0
ARC
  8
_0-b_ラッチ断面__扉側
  6
DASHED1
 62
    7
 10
1174.824762712403
 20
2218.2745103287766
 40
3.0000000000000004
 50
138.19000000000005
 51
180.00000000000011
  0
ARC
  8
_0-b_ラッチ断面__扉側
  6
DASHED1
 62
    7
 10
1174.824762712403
 20
2218.2745103287766
 40
3.0000000000000004
 50
0.0000000000000254
 51
41.81000000000003
  0
ARC
  8
_0-b_ラッチ断面__扉側
  6
DASHED1
 62
    7
 10
1172.824762712403
 20
2212.2745103287761
 40
1
 50
180.00000000000005
 51
270.00000000000005
  0
ARC
  8
_0-b_ラッチ断面__扉側
  6
DASHED1
 62
    7
 10
1176.824762712403
 20
2212.2745103287761
 40
1
 50
270
 51
0
  0
ARC
  8
_0-b_ラッチ断面__扉側
  6
DASHED1
 62
    7
 10
1177.324762712403
 20
2219.4166103287766
 40
10
 50
180.00000000000005
 51
225.00000000000005
  0
ARC
  8
_0-b_ラッチ断面__扉側
  6
DASHED1
 62
    7
 10
1172.324762712403
 20
2219.4166103287766
 40
10
 50
315
 51
0
  0
ARC
  8
_0-b_ラッチ断面__扉側
  6
DASHED1
 62
    7
 10
1192.0247627124028
 20
2246.9744603287767
 40
0.2999999999999998
 50
0.0000000000000254
 51
90.000000000000056
  0
ARC
  8
_0-b_ラッチ断面__扉側
  6
DASHED1
 62
    7
 10
1157.6247627124032
 20
2246.9744603287767
 40
0.2999999999999998
 50
90.000000000000056
 51
180.00000000000011
  0
ARC
  8
_0-b_ラッチ断面__扉側
  6
DASHED1
 62
    7
 10
1175.324762712403
 20
2237.7748603287768
 40
0.5
 50
270
 51
0
  0
ARC
  8
_0-b_ラッチ断面__扉側
  6
DASHED1
 62
    7
 10
1174.324762712403
 20
2237.7748603287768
 40
0.5
 50
180.00000000000005
 51
270.00000000000005
  0
ARC
  8
_0-b_ラッチ断面__扉側
  6
DASHED1
 62
    7
 10
1193.324762712403
 20
2237.2744603287765
 40
1
 50
270
 51
0
  0
ARC
  8
_0-b_ラッチ断面__扉側
  6
DASHED1
 62
    7
 10
1156.324762712403
 20
2237.2744603287765
 40
1
 50
180.00000000000005
 51
270.00000000000005
  0
CIRCLE
  8
_0-b_ラッチ断面__扉側
  6
DASHED1
 62
    7
 10
1178.074762712403
 20
2237.2745103287761
 40
2.3250000000000001
  0
CIRCLE
  8
_0-b_ラッチ断面__扉側
  6
DASHED1
 62
    7
 10
1171.574762712403
 20
2237.2745103287761
 40
2.3250000000000001
  0
CIRCLE
  8
_0-b_ラッチ断面__扉側
  6
DASHED1
 62
    7
 10
1171.574762712403
 20
2243.7745103287766
 40
2.3250000000000001
  0
CIRCLE
  8
_0-b_ラッチ断面__扉側
  6
DASHED1
 62
    7
 10
1178.074762712403
 20
2243.7745103287766
 40
2.3250000000000001
  0
CIRCLE
  8
_0-b_ラッチ断面__扉側
  6
DASHED1
 62
    7
 10
1174.824762712403
 20
2213.7745103287766
 40
1.25
  0
LINE
  8
_0-b_ラッチ断面__扉側
  6
DASHED1
 62
    7
 10
1187.324762712403
 20
1332.1410513398291
 11
1187.324762712403
 21
1323.741051339829
  0
LINE
  8
_0-b_ラッチ断面__扉側
  6
DASHED1
 62
    7
 10
1186.324762712403
 20
1300.5410513398292
 11
1163.324762712403
 21
1300.5410513398292
  0
LINE
  8
_0-b_ラッチ断面__扉側
  6
DASHED1
 62
    7
 10
1174.824762712403
 20
1317.5410513398289
 11
1167.324762712403
 21
1317.5410513398289
  0
LINE
  8
_0-b_ラッチ断面__扉側
  6
DASHED1
 62
    7
 10
1164.824762712403
 20
1325.0410513398289
 11
1164.824762712403
 21
1319.5410513398289
  0
LINE
  8
_0-b_ラッチ断面__扉側
  6
DASHED1
 62
    7
 10
1166.324762712403
 20
1319.0410513398292
 11
1165.324762712403
 21
1319.0410513398292
  0
LINE
  8
_0-b_ラッチ断面__扉側
  6
DASHED1
 62
    7
 10
1194.4047627124029
 20
1328.491051339829
 11
1194.4247627124029
 21
1328.491051339829
  0
LINE
  8
_0-b_ラッチ断面__扉側
  6
DASHED1
 62
    7
 10
1157.324762712403
 20
1310.8410513398291
 11
1156.324762712403
 21
1310.8410513398291
  0
LINE
  8
_0-b_ラッチ断面__扉側
  6
DASHED1
 62
    7
 10
1158.324762712403
 20
1325.0410513398289
 11
1165.824762712403
 21
1325.0410513398289
  0
LINE
  8
_0-b_ラッチ断面__扉側
  6
DASHED1
 62
    7
 10
1157.324762712403
 20
1324.0410513398292
 11
1157.324762712403
 21
1306.5410513398292
  0
LINE
  8
_0-b_ラッチ断面__扉側
  6
DASHED1
 62
    7
 10
1155.324762712403
 20
1330.241051339829
 11
1155.324762712403
 21
1311.8410513398291
  0
LINE
  8
_0-b_ラッチ断面__扉側
  6
DASHED1
 62
    7
 10
1166.824762712403
 20
1330.241051339829
 11
1155.324762712403
 21
1330.241051339829
  0
LINE
  8
_0-b_ラッチ断面__扉側
  6
DASHED1
 62
    7
 10
1157.324762712403
 20
1330.241051339829
 11
1157.324762712403
 21
1326.0410513398289
  0
LINE
  8
_0-b_ラッチ断面__扉側
  6
DASHED1
 62
    7
 10
1166.824762712403
 20
1330.241051339829
 11
1166.824762712403
 21
1318.0410513398292
  0
LINE
  8
_0-b_ラッチ断面__扉側
  6
DASHED1
 62
    7
 10
1192.324762712403
 20
1330.241051339829
 11
1192.324762712403
 21
1306.5410513398292
  0
LINE
  8
_0-b_ラッチ断面__扉側
  6
DASHED1
 62
    7
 10
1182.824762712403
 20
1330.241051339829
 11
1194.324762712403
 21
1330.241051339829
  0
LINE
  8
_0-b_ラッチ断面__扉側
  6
DASHED1
 62
    7
 10
1194.324762712403
 20
1330.241051339829
 11
1194.324762712403
 21
1311.8410513398291
  0
LINE
  8
_0-b_ラッチ断面__扉側
  6
DASHED1
 62
    7
 10
1192.324762712403
 20
1310.8410513398291
 11
1193.324762712403
 21
1310.8410513398291
  0
LINE
  8
_0-b_ラッチ断面__扉側
  6
DASHED1
 62
    7
 10
1166.824762712403
 20
1329.3410513398291
 11
1182.824762712403
 21
1329.3410513398291
  0
LINE
  8
_0-b_ラッチ断面__扉側
  6
DASHED1
 62
    7
 10
1182.824762712403
 20
1330.241051339829
 11
1182.824762712403
 21
1318.0410513398292
  0
LINE
  8
_0-b_ラッチ断面__扉側
  6
DASHED1
 62
    7
 10
1174.824762712403
 20
1317.5410513398289
 11
1182.324762712403
 21
1317.5410513398289
  0
LINE
  8
_0-b_ラッチ断面__扉側
  6
DASHED1
 62
    7
 10
1191.324762712403
 20
1325.0410513398289
 11
1183.824762712403
 21
1325.0410513398289
  0
LINE
  8
_0-b_ラッチ断面__扉側
  6
DASHED1
 62
    7
 10
1181.324762712403
 20
1329.0410513398292
 11
1168.324762712403
 21
1329.0410513398292
  0
LINE
  8
_0-b_ラッチ断面__扉側
  6
DASHED1
 62
    7
 10
1171.824762712403
 20
1325.0410513398289
 11
1171.824762712403
 21
1320.0410513398289
  0
LINE
  8
_0-b_ラッチ断面__扉側
  6
DASHED1
 62
    7
 10
1176.824762712403
 20
1319.0410513398292
 11
1172.824762712403
 21
1319.0410513398292
  0
LINE
  8
_0-b_ラッチ断面__扉側
  6
DASHED1
 62
    7
 10
1177.824762712403
 20
1325.0410513398289
 11
1177.824762712403
 21
1320.0410513398289
  0
LINE
  8
_0-b_ラッチ断面__扉側
  6
DASHED1
 62
    7
 10
1181.324762712403
 20
1325.0410513398289
 11
1177.824762712403
 21
1325.0410513398289
  0
LINE
  8
_0-b_ラッチ断面__扉側
  6
DASHED1
 62
    7
 10
1171.824762712403
 20
1325.0410513398289
 11
1168.324762712403
 21
1325.0410513398289
  0
LINE
  8
_0-b_ラッチ断面__扉側
  6
DASHED1
 62
    7
 10
1169.324762712403
 20
1318.6449013398291
 11
1169.128162712403
 21
1319.1046513398291
  0
LINE
  8
_0-b_ラッチ断面__扉側
  6
DASHED1
 62
    7
 10
1180.324762712403
 20
1318.6449013398291
 11
1180.521362712403
 21
1319.1046513398291
  0
LINE
  8
_0-b_ラッチ断面__扉側
  6
DASHED1
 62
    7
 10
1182.324762712403
 20
1317.5410513398289
 11
1182.324762712403
 21
1328.0410513398292
  0
LINE
  8
_0-b_ラッチ断面__扉側
  6
DASHED1
 62
    7
 10
1167.324762712403
 20
1317.5410513398289
 11
1167.324762712403
 21
1328.0410513398292
  0
LINE
  8
_0-b_ラッチ断面__扉側
  6
DASHED1
 62
    7
 10
1183.324762712403
 20
1319.0410513398292
 11
1184.324762712403
 21
1319.0410513398292
  0
LINE
  8
_0-b_ラッチ断面__扉側
  6
DASHED1
 62
    7
 10
1184.824762712403
 20
1325.0410513398289
 11
1184.824762712403
 21
1319.5410513398289
  0
LINE
  8
_0-b_ラッチ断面__扉側
  6
DASHED1
 62
    7
 10
1166.824762712403
 20
1323.0410513398292
 11
1167.324762712403
 21
1323.0410513398292
  0
LINE
  8
_0-b_ラッチ断面__扉側
  6
DASHED1
 62
    7
 10
1166.824762712403
 20
1322.0410513398292
 11
1167.324762712403
 21
1322.0410513398292
  0
LINE
  8
_0-b_ラッチ断面__扉側
  6
DASHED1
 62
    7
 10
1182.324762712403
 20
1322.0410513398292
 11
1182.824762712403
 21
1322.0410513398292
  0
LINE
  8
_0-b_ラッチ断面__扉側
  6
DASHED1
 62
    7
 10
1182.324762712403
 20
1323.0410513398292
 11
1182.824762712403
 21
1323.0410513398292
  0
LINE
  8
_0-b_ラッチ断面__扉側
  6
DASHED1
 62
    7
 10
1166.824762712403
 20
1329.741051339829
 11
1182.824762712403
 21
1329.741051339829
  0
LINE
  8
_0-b_ラッチ断面__扉側
  6
DASHED1
 62
    7
 10
1174.824762712403
 20
1300.5410513398292
 11
1174.124762712403
 21
1300.5410513398292
  0
LINE
  8
_0-b_ラッチ断面__扉側
  6
DASHED1
 62
    7
 10
1174.824762712403
 20
1300.5410513398292
 11
1175.5247627124031
 21
1300.5410513398292
  0
LINE
  8
_0-b_ラッチ断面__扉側
  6
DASHED1
 62
    7
 10
1174.324762712403
 20
1314.5410513398289
 11
1174.824762712403
 21
1314.5410513398289
  0
LINE
  8
_0-b_ラッチ断面__扉側
  6
DASHED1
 62
    7
 10
1173.824762712403
 20
1300.8410513398291
 11
1173.824762712403
 21
1314.0410513398292
  0
LINE
  8
_0-b_ラッチ断面__扉側
  6
DASHED1
 62
    7
 10
1175.824762712403
 20
1300.8410513398291
 11
1175.824762712403
 21
1314.0410513398292
  0
LINE
  8
_0-b_ラッチ断面__扉側
  6
DASHED1
 62
    7
 10
1174.824762712403
 20
1314.5410513398289
 11
1175.324762712403
 21
1314.5410513398289
  0
LINE
  8
_0-b_ラッチ断面__扉側
  6
DASHED1
 62
    7
 10
1174.824762712403
 20
1330.8410513398291
 11
1174.824762712403
 21
1297.8410513398289
  0
ARC
  8
_0-b_ラッチ断面__扉側
  6
DASHED1
 62
    7
 10
1163.324762712403
 20
1306.5410513398292
 40
6.0000000000000008
 50
180.00000000000005
 51
270.00000000000005
  0
ARC
  8
_0-b_ラッチ断面__扉側
  6
DASHED1
 62
    7
 10
1186.324762712403
 20
1306.5410513398292
 40
6.0000000000000008
 50
270.00000000000005
 51
0.0000000000000508
  0
ARC
  8
_0-b_ラッチ断面__扉側
  6
DASHED1
 62
    7
 10
1165.824762712403
 20
1326.0410513398289
 40
1
 50
270.00000000000005
 51
0.0000000000000508
  0
ARC
  8
_0-b_ラッチ断面__扉側
  6
DASHED1
 62
    7
 10
1158.324762712403
 20
1326.0410513398289
 40
1
 50
180.00000000000005
 51
270.00000000000005
  0
ARC
  8
_0-b_ラッチ断面__扉側
  6
DASHED1
 62
    7
 10
1167.324762712403
 20
1318.0410513398292
 40
0.5
 50
180.00000000000005
 51
270.00000000000005
  0
ARC
  8
_0-b_ラッチ断面__扉側
  6
DASHED1
 62
    7
 10
1166.324762712403
 20
1319.5410513398289
 40
0.5
 50
270.00000000000005
 51
0.0000000000000508
  0
ARC
  8
_0-b_ラッチ断面__扉側
  6
DASHED1
 62
    7
 10
1165.324762712403
 20
1319.5410513398289
 40
0.5
 50
180.00000000000005
 51
270.00000000000005
  0
ARC
  8
_0-b_ラッチ断面__扉側
  6
DASHED1
 62
    7
 10
1156.324762712403
 20
1311.8410513398291
 40
1
 50
180.00000000000005
 51
270.00000000000005
  0
ARC
  8
_0-b_ラッチ断面__扉側
  6
DASHED1
 62
    7
 10
1158.324762712403
 20
1324.0410513398292
 40
1
 50
90.000000000000028
 51
180.00000000000005
  0
ARC
  8
_0-b_ラッチ断面__扉側
  6
DASHED1
 62
    7
 10
1193.324762712403
 20
1311.8410513398291
 40
1
 50
270.00000000000005
 51
0.0000000000000508
  0
ARC
  8
_0-b_ラッチ断面__扉側
  6
DASHED1
 62
    7
 10
1182.324762712403
 20
1318.0410513398292
 40
0.5
 50
270.00000000000005
 51
0.0000000000000508
  0
ARC
  8
_0-b_ラッチ断面__扉側
  6
DASHED1
 62
    7
 10
1183.824762712403
 20
1326.0410513398289
 40
1
 50
180.00000000000005
 51
270.00000000000005
  0
ARC
  8
_0-b_ラッチ断面__扉側
  6
DASHED1
 62
    7
 10
1191.324762712403
 20
1326.0410513398289
 40
1
 50
270.00000000000005
 51
0.0000000000000508
  0
ARC
  8
_0-b_ラッチ断面__扉側
  6
DASHED1
 62
    7
 10
1168.324762712403
 20
1328.0410513398292
 40
1
 50
90.000000000000028
 51
180.00000000000005
  0
ARC
  8
_0-b_ラッチ断面__扉側
  6
DASHED1
 62
    7
 10
1181.324762712403
 20
1328.0410513398292
 40
1
 50
0
 51
90.000000000000028
  0
ARC
  8
_0-b_ラッチ断面__扉側
  6
DASHED1
 62
    7
 10
1168.324762712403
 20
1326.0410513398289
 40
1
 50
180.00000000000005
 51
270.00000000000005
  0
ARC
  8
_0-b_ラッチ断面__扉側
  6
DASHED1
 62
    7
 10
1181.324762712403
 20
1326.0410513398289
 40
1
 50
270.00000000000005
 51
0.0000000000000508
  0
ARC
  8
_0-b_ラッチ断面__扉側
  6
DASHED1
 62
    7
 10
1172.824762712403
 20
1320.0410513398289
 40
1
 50
180.00000000000005
 51
270.00000000000005
  0
ARC
  8
_0-b_ラッチ断面__扉側
  6
DASHED1
 62
    7
 10
1176.824762712403
 20
1320.0410513398289
 40
1
 50
270.00000000000005
 51
0.0000000000000508
  0
ARC
  8
_0-b_ラッチ断面__扉側
  6
DASHED1
 62
    7
 10
1183.324762712403
 20
1319.5410513398289
 40
0.5
 50
180.00000000000005
 51
270.00000000000005
  0
ARC
  8
_0-b_ラッチ断面__扉側
  6
DASHED1
 62
    7
 10
1184.324762712403
 20
1319.5410513398289
 40
0.5
 50
270.00000000000005
 51
0.0000000000000508
  0
ARC
  8
_0-b_ラッチ断面__扉側
  6
DASHED1
 62
    7
 10
1174.124762712403
 20
1300.8410513398291
 40
0.2999999999999998
 50
180.00000000000005
 51
270.00000000000005
  0
ARC
  8
_0-b_ラッチ断面__扉側
  6
DASHED1
 62
    7
 10
1175.5247627124031
 20
1300.8410513398291
 40
0.2999999999999998
 50
270.00000000000005
 51
0.0000000000000508
  0
ARC
  8
_0-b_ラッチ断面__扉側
  6
DASHED1
 62
    7
 10
1174.324762712403
 20
1314.0410513398292
 40
0.5
 50
90.000000000000028
 51
180.00000000000005
  0
ARC
  8
_0-b_ラッチ断面__扉側
  6
DASHED1
 62
    7
 10
1175.324762712403
 20
1314.0410513398292
 40
0.5
 50
0
 51
90.000000000000028
  0
LINE
  8
_0-b_ラッチ断面__扉側
  6
DASHED1
 62
    7
 10
1162.324762712403
 20
1332.1410513398291
 11
1162.324762712403
 21
1323.741051339829
  0
LINE
  8
_0-b_ラッチ断面__扉側
  6
DASHED1
 62
    7
 10
2024.3570920036459
 20
1327.5560692003718
 11
2023.2504420036455
 21
1328.1950192003719
  0
LINE
  8
_0-b_ラッチ断面__扉側
  6
DASHED1
 62
    7
 10
2024.3570920036459
 20
1326.6900692003719
 11
2022.3570920036456
 21
1327.8447692003719
  0
LINE
  8
_0-b_ラッチ断面__扉側
  6
DASHED1
 62
    7
 10
2024.3570920036459
 20
1325.824019200372
 11
2022.3570920036456
 21
1326.9787192003718
  0
LINE
  8
_0-b_ラッチ断面__扉側
  6
DASHED1
 62
    7
 10
2024.3570920036459
 20
1324.9580192003718
 11
2022.3570920036456
 21
1326.1127192003718
  0
LINE
  8
_0-b_ラッチ断面__扉側
  6
DASHED1
 62
    7
 10
2024.3570920036459
 20
1324.0919692003717
 11
2022.3570920036456
 21
1325.2466692003717
  0
LINE
  8
_0-b_ラッチ断面__扉側
  6
DASHED1
 62
    7
 10
2024.3570920036459
 20
1323.2259692003719
 11
2022.3570920036456
 21
1324.3806692003718
  0
LINE
  8
_0-b_ラッチ断面__扉側
  6
DASHED1
 62
    7
 10
2024.3570920036459
 20
1322.3599192003716
 11
2022.3570920036456
 21
1323.5146192003719
  0
LINE
  8
_0-b_ラッチ断面__扉側
  6
DASHED1
 62
    7
 10
2024.3570920036459
 20
1321.4939192003721
 11
2022.3570920036456
 21
1322.6486192003719
  0
LINE
  8
_0-b_ラッチ断面__扉側
  6
DASHED1
 62
    7
 10
2024.3570920036459
 20
1320.6278692003718
 11
2022.3570920036456
 21
1321.7825692003721
  0
LINE
  8
_0-b_ラッチ断面__扉側
  6
DASHED1
 62
    7
 10
2024.3570920036459
 20
1319.761869200372
 11
2022.3570920036456
 21
1320.9165692003718
  0
LINE
  8
_0-b_ラッチ断面__扉側
  6
DASHED1
 62
    7
 10
2024.3570920036459
 20
1318.8958192003719
 11
2022.3570920036456
 21
1320.050519200372
  0
LINE
  8
_0-b_ラッチ断面__扉側
  6
DASHED1
 62
    7
 10
2024.3570920036459
 20
1318.0298192003717
 11
2022.3570920036456
 21
1319.184519200372
  0
LINE
  8
_0-b_ラッチ断面__扉側
  6
DASHED1
 62
    7
 10
2024.3570920036459
 20
1317.1637692003719
 11
2022.3570920036456
 21
1318.3184692003719
  0
LINE
  8
_0-b_ラッチ断面__扉側
  6
DASHED1
 62
    7
 10
2024.3570920036459
 20
1316.2977692003719
 11
2022.3570920036456
 21
1317.4524692003717
  0
LINE
  8
_0-b_ラッチ断面__扉側
  6
DASHED1
 62
    7
 10
2024.3570920036459
 20
1315.4317192003718
 11
2022.3570920036456
 21
1316.5864192003718
  0
LINE
  8
_0-b_ラッチ断面__扉側
  6
DASHED1
 62
    7
 10
2024.3570920036459
 20
1314.5657192003718
 11
2022.3570920036456
 21
1315.7204192003719
  0
LINE
  8
_0-b_ラッチ断面__扉側
  6
DASHED1
 62
    7
 10
2024.3570920036459
 20
1313.6996692003719
 11
2022.3570920036456
 21
1314.8543692003718
  0
LINE
  8
_0-b_ラッチ断面__扉側
  6
DASHED1
 62
    7
 10
2024.3570920036459
 20
1312.833669200372
 11
2022.3570920036456
 21
1313.9883692003718
  0
LINE
  8
_0-b_ラッチ断面__扉側
  6
DASHED1
 62
    7
 10
2024.3570920036459
 20
1311.9676192003721
 11
2022.3570920036456
 21
1313.1223192003719
  0
LINE
  8
_0-b_ラッチ断面__扉側
  6
DASHED1
 62
    7
 10
2024.3570920036459
 20
1311.1016192003719
 11
2022.3570920036456
 21
1312.2563192003717
  0
LINE
  8
_0-b_ラッチ断面__扉側
  6
DASHED1
 62
    7
 10
2024.3570920036459
 20
1310.235569200372
 11
2022.3570920036456
 21
1311.3902692003719
  0
LINE
  8
_0-b_ラッチ断面__扉側
  6
DASHED1
 62
    7
 10
2024.3570920036459
 20
1309.3695692003716
 11
2022.3570920036456
 21
1310.5242692003719
  0
LINE
  8
_0-b_ラッチ断面__扉側
  6
DASHED1
 62
    7
 10
2024.3570920036459
 20
1308.5035192003717
 11
2022.3570920036456
 21
1309.658219200372
  0
LINE
  8
_0-b_ラッチ断面__扉側
  6
DASHED1
 62
    7
 10
2024.3570920036459
 20
1307.6375192003717
 11
2022.3570920036456
 21
1308.792219200372
  0
LINE
  8
_0-b_ラッチ断面__扉側
  6
DASHED1
 62
    7
 10
2024.3570920036459
 20
1306.7714692003719
 11
2022.3570920036456
 21
1307.9261692003717
  0
LINE
  8
_0-b_ラッチ断面__扉側
  6
DASHED1
 62
    7
 10
2024.2470420036456
 20
1305.969019200372
 11
2022.3570920036456
 21
1307.060169200372
  0
LINE
  8
_0-b_ラッチ断面__扉側
  6
DASHED1
 62
    7
 10
2024.1262920036456
 20
1305.1726692003717
 11
2022.2849920036455
 21
1306.2357692003718
  0
LINE
  8
_0-b_ラッチ断面__扉側
  6
DASHED1
 62
    7
 10
2023.8535420036455
 20
1304.4641192003718
 11
2022.0969920036454
 21
1305.4782692003718
  0
LINE
  8
_0-b_ラッチ断面__扉側
  6
DASHED1
 62
    7
 10
2023.5086920036453
 20
1303.7972192003717
 11
2021.7966920036453
 21
1304.7856192003719
  0
LINE
  8
_0-b_ラッチ断面__扉側
  6
DASHED1
 62
    7
 10
2023.1638420036458
 20
1303.1302692003719
 11
2021.2486420036455
 21
1304.2360192003718
  0
LINE
  8
_0-b_ラッチ断面__扉側
  6
DASHED1
 62
    7
 10
2022.6612920036454
 20
1302.5544192003717
 11
2020.7536420036456
 21
1303.6557692003721
  0
LINE
  8
_0-b_ラッチ断面__扉側
  6
DASHED1
 62
    7
 10
2022.0836920036456
 20
1302.0218192003719
 11
2019.5320920036456
 21
1303.495019200372
  0
LINE
  8
_0-b_ラッチ断面__扉側
  6
DASHED1
 62
    7
 10
2021.4147420036456
 20
1301.5420192003718
 11
2018.0320920036456
 21
1303.495019200372
  0
LINE
  8
_0-b_ラッチ断面__扉側
  6
DASHED1
 62
    7
 10
2020.5263420036455
 20
1301.1889192003718
 11
2016.5320920036456
 21
1303.495019200372
  0
LINE
  8
_0-b_ラッチ断面__扉側
  6
DASHED1
 62
    7
 10
2019.6120420036456
 20
1300.8507692003718
 11
2015.0320920036458
 21
1303.495019200372
  0
LINE
  8
_0-b_ラッチ断面__扉側
  6
DASHED1
 62
    7
 10
2016.8818420036454
 20
1300.6950192003719
 11
2012.5670420036456
 21
1303.1861692003717
  0
LINE
  8
_0-b_ラッチ断面__扉側
  6
DASHED1
 62
    7
 10
2018.3316920036454
 20
1300.7239692003718
 11
2013.5915920036454
 21
1303.4606692003717
  0
LINE
  8
_0-b_ラッチ断面__扉側
  6
DASHED1
 62
    7
 10
2015.3818420036454
 20
1300.6950192003719
 11
2011.5425420036456
 21
1302.9116192003718
  0
LINE
  8
_0-b_ラッチ断面__扉側
  6
DASHED1
 62
    7
 10
2012.3818420036454
 20
1300.6950192003719
 11
2009.4934920036457
 21
1302.362569200372
  0
LINE
  8
_0-b_ラッチ断面__扉側
  6
DASHED1
 62
    7
 10
2013.8818420036457
 20
1300.6950192003719
 11
2010.5180420036456
 21
1302.6371192003718
  0
LINE
  8
_0-b_ラッチ断面__扉側
  6
DASHED1
 62
    7
 10
2010.8818420036457
 20
1300.6950192003719
 11
2008.1054920036456
 21
1302.297919200372
  0
LINE
  8
_0-b_ラッチ断面__扉側
  6
DASHED1
 62
    7
 10
2009.3818420036454
 20
1300.6950192003719
 11
2006.6616920036458
 21
1302.2655192003719
  0
LINE
  8
_0-b_ラッチ断面__扉側
  6
DASHED1
 62
    7
 10
2007.8818420036454
 20
1300.6950192003719
 11
2004.8059920036457
 21
1302.470819200372
  0
LINE
  8
_0-b_ラッチ断面__扉側
  6
DASHED1
 62
    7
 10
2006.3818420036457
 20
1300.6950192003719
 11
2002.4319920036455
 21
1302.9754692003716
  0
LINE
  8
_0-b_ラッチ断面__扉側
  6
DASHED1
 62
    7
 10
2004.8818420036454
 20
1300.6950192003719
 11
2000.0579920036457
 21
1303.4800692003718
  0
LINE
  8
_0-b_ラッチ断面__扉側
  6
DASHED1
 62
    7
 10
2003.3818420036457
 20
1300.6950192003719
 11
1997.6839920036456
 21
1303.984669200372
  0
LINE
  8
_0-b_ラッチ断面__扉側
  6
DASHED1
 62
    7
 10
2001.8818420036454
 20
1300.6950192003719
 11
1995.3099420036458
 21
1304.4892692003718
  0
LINE
  8
_0-b_ラッチ断面__扉側
  6
DASHED1
 62
    7
 10
2000.3818420036454
 20
1300.6950192003719
 11
1992.9359420036457
 21
1304.9939192003719
  0
LINE
  8
_0-b_ラッチ断面__扉側
  6
DASHED1
 62
    7
 10
1998.8818420036457
 20
1300.6950192003719
 11
1981.0416920036457
 21
1310.995019200372
  0
LINE
  8
_0-b_ラッチ断面__扉側
  6
DASHED1
 62
    7
 10
1997.3818420036454
 20
1300.6950192003719
 11
1978.3570920036456
 21
1311.6789692003721
  0
LINE
  8
_0-b_ラッチ断面__扉側
  6
DASHED1
 62
    7
 10
1995.8818420036457
 20
1300.6950192003719
 11
1978.3570920036456
 21
1310.8129192003718
  0
LINE
  8
_0-b_ラッチ断面__扉側
  6
DASHED1
 62
    7
 10
1994.3818420036454
 20
1300.6950192003719
 11
1978.3570920036456
 21
1309.9469192003718
  0
LINE
  8
_0-b_ラッチ断面__扉側
  6
DASHED1
 62
    7
 10
1991.3570920036456
 20
1316.2977692003719
 11
1989.3570920036454
 21
1317.4524692003717
  0
LINE
  8
_0-b_ラッチ断面__扉側
  6
DASHED1
 62
    7
 10
1991.3570920036456
 20
1315.4317192003718
 11
1989.3570920036454
 21
1316.5864192003718
  0
LINE
  8
_0-b_ラッチ断面__扉側
  6
DASHED1
 62
    7
 10
1991.3570920036456
 20
1314.5657192003718
 11
1989.3570920036454
 21
1315.7204192003719
  0
LINE
  8
_0-b_ラッチ断面__扉側
  6
DASHED1
 62
    7
 10
1991.3570920036456
 20
1313.6996692003719
 11
1989.0862920036456
 21
1315.010719200372
  0
LINE
  8
_0-b_ラッチ断面__扉側
  6
DASHED1
 62
    7
 10
1991.3570920036456
 20
1312.833669200372
 11
1988.0486920036455
 21
1314.7437692003718
  0
LINE
  8
_0-b_ラッチ断面__扉側
  6
DASHED1
 62
    7
 10
1991.3570920036456
 20
1311.9676192003721
 11
1986.6330920036457
 21
1314.6950192003719
  0
LINE
  8
_0-b_ラッチ断面__扉側
  6
DASHED1
 62
    7
 10
1991.3570920036456
 20
1311.1016192003719
 11
1985.1330920036455
 21
1314.6950192003719
  0
LINE
  8
_0-b_ラッチ断面__扉側
  6
DASHED1
 62
    7
 10
1991.3570920036456
 20
1310.235569200372
 11
1983.6330920036457
 21
1314.6950192003719
  0
LINE
  8
_0-b_ラッチ断面__扉側
  6
DASHED1
 62
    7
 10
1991.3570920036456
 20
1309.3695692003716
 11
1988.5416920036457
 21
1310.995019200372
  0
LINE
  8
_0-b_ラッチ断面__扉側
  6
DASHED1
 62
    7
 10
1991.3570920036456
 20
1308.5035192003717
 11
1987.0416920036454
 21
1310.995019200372
  0
LINE
  8
_0-b_ラッチ断面__扉側
  6
DASHED1
 62
    7
 10
1991.3570920036456
 20
1307.6375192003717
 11
1985.5416920036454
 21
1310.995019200372
  0
LINE
  8
_0-b_ラッチ断面__扉側
  6
DASHED1
 62
    7
 10
1991.3604920036457
 20
1306.769519200372
 11
1984.0416920036457
 21
1310.995019200372
  0
LINE
  8
_0-b_ラッチ断面__扉側
  6
DASHED1
 62
    7
 10
1991.4922420036455
 20
1305.8274192003718
 11
1982.5416920036454
 21
1310.995019200372
  0
LINE
  8
_0-b_ラッチ断面__扉側
  6
DASHED1
 62
    7
 10
1988.5416920036457
 20
1310.995019200372
 11
1982.1330920036457
 21
1314.6950192003719
  0
LINE
  8
_0-b_ラッチ断面__扉側
  6
DASHED1
 62
    7
 10
1987.0416920036454
 20
1310.995019200372
 11
1980.6330920036455
 21
1314.6950192003719
  0
LINE
  8
_0-b_ラッチ断面__扉側
  6
DASHED1
 62
    7
 10
1985.5416920036454
 20
1310.995019200372
 11
1979.3570920036454
 21
1314.5657192003718
  0
LINE
  8
_0-b_ラッチ断面__扉側
  6
DASHED1
 62
    7
 10
1984.0416920036457
 20
1310.995019200372
 11
1978.3570920036456
 21
1314.2770192003717
  0
LINE
  8
_0-b_ラッチ断面__扉側
  6
DASHED1
 62
    7
 10
1982.5416920036454
 20
1310.995019200372
 11
1978.3570920036456
 21
1313.411019200372
  0
LINE
  8
_0-b_ラッチ断面__扉側
  6
DASHED1
 62
    7
 10
1981.0416920036457
 20
1310.995019200372
 11
1978.3570920036456
 21
1312.5449692003717
  0
LINE
  8
_0-b_ラッチ断面__扉側
  6
DASHED1
 62
    7
 10
2024.3570920036459
 20
1328.3060692003718
 11
2023.3570920036456
 21
1328.8834192003719
  0
LINE
  8
_0-b_ラッチ断面__扉側
  6
DASHED1
 62
    7
 10
2024.3570920036459
 20
1328.3060692003718
 11
2023.2504420036455
 21
1328.9450192003719
  0
LINE
  8
_0-b_ラッチ断面__扉側
  6
DASHED1
 62
    7
 10
2024.3570920036459
 20
1329.0560692003718
 11
2023.5968420036456
 21
1329.4950192003718
  0
LINE
  8
_0-b_ラッチ断面__扉側
  6
DASHED1
 62
    7
 10
1989.3570920036454
 20
1319.1950192003719
 11
1989.3570920036454
 21
1321.1950192003719
  0
LINE
  8
_0-b_ラッチ断面__扉側
  6
DASHED1
 62
    7
 10
2009.3570920036454
 20
1302.3260192003717
 11
2006.8570920036454
 21
1302.1950192003719
  0
LINE
  8
_0-b_ラッチ断面__扉側
  6
DASHED1
 62
    7
 10
2013.7197920036455
 20
1303.495019200372
 11
2009.3570920036454
 21
1302.3260192003717
  0
LINE
  8
_0-b_ラッチ断面__扉側
  6
DASHED1
 62
    7
 10
1991.3570920036456
 20
1316.5403192003718
 11
1989.3570920036454
 21
1317.6950192003719
  0
LINE
  8
_0-b_ラッチ断面__扉側
  6
DASHED1
 62
    7
 10
1991.3570920036456
 20
1306.8032192003718
 11
1991.3570920036456
 21
1316.5403192003718
  0
LINE
  8
_0-b_ラッチ断面__扉側
  6
DASHED1
 62
    7
 10
2014.4070920036458
 20
1328.1950192003719
 11
2014.4070920036458
 21
1327.1950192003719
  0
LINE
  8
_0-b_ラッチ断面__扉側
  6
DASHED1
 62
    7
 10
1987.6250420036456
 20
1321.6950192003719
 11
1989.3570920036454
 21
1318.6950192003719
  0
LINE
  8
_0-b_ラッチ断面__扉側
  6
DASHED1
 62
    7
 10
2005.8570920036456
 20
1302.2474192003719
 11
2006.8570920036454
 21
1302.1950192003719
  0
LINE
  8
_0-b_ラッチ断面__扉側
  6
DASHED1
 62
    7
 10
1991.6650920036456
 20
1305.2640192003718
 11
2005.8570920036456
 21
1302.2474192003719
  0
LINE
  8
_0-b_ラッチ断面__扉側
  6
DASHED1
 62
    7
 10
2022.3570920036456
 20
1328.1950192003719
 11
2022.3570920036456
 21
1306.7927192003719
  0
LINE
  8
_0-b_ラッチ断面__扉側
  6
DASHED1
 62
    7
 10
2013.7197920036455
 20
1303.495019200372
 11
2020.6209920036453
 21
1303.495019200372
  0
LINE
  8
_0-b_ラッチ断面__扉側
  6
DASHED1
 62
    7
 10
1981.8570920036454
 20
1323.3950192003721
 11
1981.8570920036454
 21
1330.995019200372
  0
LINE
  8
_0-b_ラッチ断面__扉側
  6
DASHED1
 62
    7
 10
1996.6570920036454
 20
1327.1950192003719
 11
2014.4070920036458
 21
1327.1950192003719
  0
LINE
  8
_0-b_ラッチ断面__扉側
  6
DASHED1
 62
    7
 10
2024.3570920036459
 20
1306.6950192003719
 11
2024.3570920036459
 21
1329.4950192003718
  0
LINE
  8
_0-b_ラッチ断面__扉側
  6
DASHED1
 62
    7
 10
2023.3570920036456
 20
1328.1950192003719
 11
2023.3570920036456
 21
1329.5116692003718
  0
LINE
  8
_0-b_ラッチ断面__扉側
  6
DASHED1
 62
    7
 10
2024.3570920036459
 20
1329.4950192003718
 11
1964.3570920036454
 21
1330.3950192003719
  0
LINE
  8
_0-b_ラッチ断面__扉側
  6
DASHED1
 62
    7
 10
1965.3570920036454
 20
1330.3950192003719
 11
1965.3570920036454
 21
1329.095019200372
  0
LINE
  8
_0-b_ラッチ断面__扉側
  6
DASHED1
 62
    7
 10
1986.6166420036456
 20
1329.095019200372
 11
1990.8570920036456
 21
1329.095019200372
  0
LINE
  8
_0-b_ラッチ断面__扉側
  6
DASHED1
 62
    7
 10
1974.5356420036455
 20
1329.095019200372
 11
1965.4570920036458
 21
1329.095019200372
  0
LINE
  8
_0-b_ラッチ断面__扉側
  6
DASHED1
 62
    7
 10
1990.8570920036456
 20
1327.1950192003719
 11
1992.0570920036457
 21
1327.1950192003719
  0
LINE
  8
_0-b_ラッチ断面__扉側
  6
DASHED1
 62
    7
 10
1955.3571420036455
 20
1319.1950192003719
 11
1953.3571420036455
 21
1321.1950192003719
  0
LINE
  8
_0-b_ラッチ断面__扉側
  6
DASHED1
 62
    7
 10
1953.3571420036455
 20
1321.1950192003719
 11
1953.3571420036455
 21
1328.1950192003719
  0
LINE
  8
_0-b_ラッチ断面__扉側
  6
DASHED1
 62
    7
 10
1958.3571420036455
 20
1325.1950192003719
 11
1958.3571420036455
 21
1323.8950192003719
  0
LINE
  8
_0-b_ラッチ断面__扉側
  6
DASHED1
 62
    7
 10
1994.3570920036454
 20
1325.095019200372
 11
1994.3570920036454
 21
1313.8950192003719
  0
LINE
  8
_0-b_ラッチ断面__扉側
  6
DASHED1
 62
    7
 10
1953.3571420036455
 20
1325.1950192003719
 11
1983.2854920036456
 21
1325.1950192003719
  0
LINE
  8
_0-b_ラッチ断面__扉側
  6
DASHED1
 62
    7
 10
1984.6997420036454
 20
1324.609219200372
 11
1992.2354920036455
 21
1317.0734192003717
  0
LINE
  8
_0-b_ラッチ断面__扉側
  6
DASHED1
 62
    7
 10
1986.5281420036455
 20
1329.1950192003719
 11
1954.3571420036455
 21
1329.1950192003719
  0
LINE
  8
_0-b_ラッチ断面__扉側
  6
DASHED1
 62
    7
 10
1990.0636920036456
 20
1327.7305692003719
 11
1993.8418420036455
 21
1323.9523692003717
  0
LINE
  8
_0-b_ラッチ断面__扉側
  6
DASHED1
 62
    7
 10
1989.1570920036454
 20
1319.1950192003719
 11
1998.4670920036455
 21
1319.1950192003719
  0
LINE
  8
_0-b_ラッチ断面__扉側
  6
DASHED1
 62
    7
 10
2007.8570920036454
 20
1308.2650192003716
 11
2007.8570920036454
 21
1328.9850192003718
  0
LINE
  8
_0-b_ラッチ断面__扉側
  6
DASHED1
 62
    7
 10
1963.8571420036455
 20
1325.1950192003719
 11
1963.8571420036455
 21
1329.1950192003719
  0
LINE
  8
_0-b_ラッチ断面__扉側
  6
DASHED1
 62
    7
 10
1958.3571420036455
 20
1329.1950192003719
 11
1958.3571420036455
 21
1325.1950192003719
  0
LINE
  8
_0-b_ラッチ断面__扉側
  6
DASHED1
 62
    7
 10
1955.3571420036455
 20
1319.1950192003719
 11
1962.3571420036455
 21
1319.1950192003719
  0
LINE
  8
_0-b_ラッチ断面__扉側
  6
DASHED1
 62
    7
 10
1962.3571420036455
 20
1320.3550192003717
 11
1962.3571420036455
 21
1319.1950192003719
  0
LINE
  8
_0-b_ラッチ断面__扉側
  6
DASHED1
 62
    7
 10
1962.3571420036455
 20
1320.3550192003717
 11
1958.3571420036455
 21
1323.8950192003719
  0
LINE
  8
_0-b_ラッチ断面__扉側
  6
DASHED1
 62
    7
 10
2020.7861920036455
 20
1313.473169200372
 11
2021.7464920036454
 21
1321.2944192003717
  0
LINE
  8
_0-b_ラッチ断面__扉側
  6
DASHED1
 62
    7
 10
2021.7512420036455
 20
1321.292869200372
 11
2016.0662420036455
 21
1323.1950192003719
  0
LINE
  8
_0-b_ラッチ断面__扉側
  6
DASHED1
 62
    7
 10
2005.8570920036456
 20
1322.1950192003719
 11
1994.3570920036454
 21
1322.1950192003719
  0
LINE
  8
_0-b_ラッチ断面__扉側
  6
DASHED1
 62
    7
 10
2005.8570920036456
 20
1322.1950192003719
 11
2005.8570920036456
 21
1323.1950192003719
  0
LINE
  8
_0-b_ラッチ断面__扉側
  6
DASHED1
 62
    7
 10
2005.8570920036456
 20
1323.1950192003719
 11
2016.0662420036455
 21
1323.1950192003719
  0
LINE
  8
_0-b_ラッチ断面__扉側
  6
DASHED1
 62
    7
 10
2002.7512420036455
 20
1316.2812192003718
 11
2002.7512420036455
 21
1315.5793692003721
  0
LINE
  8
_0-b_ラッチ断面__扉側
  6
DASHED1
 62
    7
 10
2002.7512420036455
 20
1316.2812192003718
 11
2006.2512420036457
 21
1319.1586192003717
  0
LINE
  8
_0-b_ラッチ断面__扉側
  6
DASHED1
 62
    7
 10
2013.2512420036457
 20
1318.3107192003717
 11
2013.2512420036457
 21
1314.6913692003718
  0
LINE
  8
_0-b_ラッチ断面__扉側
  6
DASHED1
 62
    7
 10
2002.7512420036455
 20
1315.5793692003721
 11
2006.2512420036457
 21
1318.7404192003718
  0
LINE
  8
_0-b_ラッチ断面__扉側
  6
DASHED1
 62
    7
 10
2013.2512420036457
 20
1314.6913692003718
 11
2013.2512420036457
 21
1315.209919200372
  0
LINE
  8
_0-b_ラッチ断面__扉側
  6
DASHED1
 62
    7
 10
1996.6570920036454
 20
1327.1950192003719
 11
1996.6570920036454
 21
1322.3672692003719
  0
LINE
  8
_0-b_ラッチ断面__扉側
  6
DASHED1
 62
    7
 10
1992.0570920036457
 20
1327.1950192003719
 11
1992.0570920036457
 21
1325.737119200372
  0
LINE
  8
_0-b_ラッチ断面__扉側
  6
DASHED1
 62
    7
 10
1992.0570920036457
 20
1325.737119200372
 11
1992.0570920036457
 21
1318.5324692003719
  0
LINE
  8
_0-b_ラッチ断面__扉側
  6
DASHED1
 62
    7
 10
1996.6570920036454
 20
1322.3672692003719
 11
1996.6570920036454
 21
1319.1950192003719
  0
LINE
  8
_0-b_ラッチ断面__扉側
  6
DASHED1
 62
    7
 10
1990.8570920036456
 20
1326.9371192003718
 11
1990.8570920036456
 21
1329.9975192003719
  0
LINE
  8
_0-b_ラッチ断面__扉側
  6
DASHED1
 62
    7
 10
1990.8570920036456
 20
1316.8290192003719
 11
1990.8570920036456
 21
1318.4518692003716
  0
LINE
  8
_0-b_ラッチ断面__扉側
  6
DASHED1
 62
    7
 10
1990.8570920036456
 20
1326.9371192003718
 11
1990.8570920036456
 21
1318.4518692003716
  0
LINE
  8
_0-b_ラッチ断面__扉側
  6
DASHED1
 62
    7
 10
1987.3570920036456
 20
1323.1950192003719
 11
1987.3570920036456
 21
1322.6950192003719
  0
LINE
  8
_0-b_ラッチ断面__扉側
  6
DASHED1
 62
    7
 10
1983.2854920036456
 20
1325.1950192003719
 11
1965.3570920036454
 21
1325.1950192003719
  0
LINE
  8
_0-b_ラッチ断面__扉側
  6
DASHED1
 62
    7
 10
1985.3570920036454
 20
1325.1950192003719
 11
1983.7570920036455
 21
1325.1950192003719
  0
LINE
  8
_0-b_ラッチ断面__扉側
  6
DASHED1
 62
    7
 10
1974.5356420036455
 20
1329.095019200372
 11
1978.9570920036455
 21
1329.095019200372
  0
LINE
  8
_0-b_ラッチ断面__扉側
  6
DASHED1
 62
    7
 10
1978.9640920036456
 20
1330.1515692003717
 11
1978.9581920036457
 21
1329.095019200372
  0
LINE
  8
_0-b_ラッチ断面__扉側
  6
DASHED1
 62
    7
 10
1984.7505920036455
 20
1330.0551192003717
 11
1984.7559920036455
 21
1329.095019200372
  0
LINE
  8
_0-b_ラッチ断面__扉側
  6
DASHED1
 62
    7
 10
1984.7570920036455
 20
1329.095019200372
 11
1986.6166420036456
 21
1329.095019200372
  0
LINE
  8
_0-b_ラッチ断面__扉側
  6
DASHED1
 62
    7
 10
1983.7570920036455
 20
1325.1950192003719
 11
1983.7570920036455
 21
1330.104019200372
  0
LINE
  8
_0-b_ラッチ断面__扉側
  6
DASHED1
 62
    7
 10
1979.9570920036455
 20
1325.1950192003719
 11
1979.9570920036455
 21
1330.1355692003719
  0
LINE
  8
_0-b_ラッチ断面__扉側
  6
DASHED1
 62
    7
 10
2006.8570920036454
 20
1325.6950192003719
 11
2006.8570920036454
 21
1330.6950192003719
  0
LINE
  8
_0-b_ラッチ断面__扉側
  6
DASHED1
 62
    7
 10
1996.6570920036454
 20
1327.1950192003719
 11
1996.6570920036454
 21
1322.3950192003717
  0
LINE
  8
_0-b_ラッチ断面__扉側
  6
DASHED1
 62
    7
 10
2010.1570920036456
 20
1327.1950192003719
 11
1990.9570920036455
 21
1327.1950192003719
  0
LINE
  8
_0-b_ラッチ断面__扉側
  6
DASHED1
 62
    7
 10
1992.9570920036458
 20
1327.1950192003719
 11
1992.9570920036458
 21
1322.1950192003719
  0
LINE
  8
_0-b_ラッチ断面__扉側
  6
DASHED1
 62
    7
 10
1992.9570920036458
 20
1322.1950192003719
 11
1992.3570920036456
 21
1322.1950192003719
  0
LINE
  8
_0-b_ラッチ断面__扉側
  6
DASHED1
 62
    7
 10
2010.1570920036456
 20
1327.1950192003719
 11
2012.3570920036456
 21
1328.1950192003719
  0
LINE
  8
_0-b_ラッチ断面__扉側
  6
DASHED1
 62
    7
 10
2021.6570920036454
 20
1328.1950192003719
 11
2021.6570920036454
 21
1326.1950192003719
  0
LINE
  8
_0-b_ラッチ断面__扉側
  6
DASHED1
 62
    7
 10
2023.3570920036456
 20
1328.1950192003719
 11
2012.3570920036456
 21
1328.1950192003719
  0
LINE
  8
_0-b_ラッチ断面__扉側
  6
DASHED1
 62
    7
 10
2023.3570920036456
 20
1329.3950192003717
 11
1990.9570920036455
 21
1329.8950192003717
  0
LINE
  8
_0-b_ラッチ断面__扉側
  6
DASHED1
 62
    7
 10
2023.3570920036456
 20
1329.3950192003717
 11
2023.3570920036456
 21
1328.1950192003719
  0
LINE
  8
_0-b_ラッチ断面__扉側
  6
DASHED1
 62
    7
 10
2022.3570920036456
 20
1326.1950192003719
 11
2021.6570920036454
 21
1326.1950192003719
  0
LINE
  8
_0-b_ラッチ断面__扉側
  6
DASHED1
 62
    7
 10
1990.9570920036455
 20
1322.1950192003719
 11
1992.3570920036456
 21
1322.1950192003719
  0
LINE
  8
_0-b_ラッチ断面__扉側
  6
DASHED1
 62
    7
 10
1990.9570920036455
 20
1329.8950192003717
 11
1990.9570920036455
 21
1326.8371192003719
  0
LINE
  8
_0-b_ラッチ断面__扉側
  6
DASHED1
 62
    7
 10
1992.3570920036456
 20
1327.1950192003719
 11
1992.3570920036456
 21
1325.4371192003718
  0
LINE
  8
_0-b_ラッチ断面__扉側
  6
DASHED1
 62
    7
 10
1992.3570920036456
 20
1325.4371192003718
 11
1992.3570920036456
 21
1322.3950192003717
  0
LINE
  8
_0-b_ラッチ断面__扉側
  6
DASHED1
 62
    7
 10
1990.9570920036455
 20
1326.8371192003719
 11
1990.9570920036455
 21
1322.1950192003719
  0
LINE
  8
_0-b_ラッチ断面__扉側
  6
DASHED1
 62
    7
 10
1995.6570920036458
 20
1321.3950192003719
 11
1993.3570920036456
 21
1321.3950192003719
  0
LINE
  8
_0-b_ラッチ断面__扉側
  6
DASHED1
 62
    7
 10
2022.3570920036456
 20
1329.095019200372
 11
1991.9570920036458
 21
1329.095019200372
  0
LINE
  8
_0-b_ラッチ断面__扉側
  6
DASHED1
 62
    7
 10
1991.9570920036458
 20
1329.095019200372
 11
1991.9570920036458
 21
1329.876519200372
  0
LINE
  8
_0-b_ラッチ断面__扉側
  6
DASHED1
 62
    7
 10
2014.4070920036458
 20
1328.1950192003719
 11
2023.3570920036456
 21
1328.1950192003719
  0
LINE
  8
_0-b_ラッチ断面__扉側
  6
DASHED1
 62
    7
 10
2022.3570920036456
 20
1329.095019200372
 11
2022.3570920036456
 21
1329.410469200372
  0
LINE
  8
_0-b_ラッチ断面__扉側
  6
DASHED1
 62
    7
 10
1991.0173420036458
 20
1329.8939192003717
 11
1990.9570920036455
 21
1329.8591192003718
  0
LINE
  8
_0-b_ラッチ断面__扉側
  6
DASHED1
 62
    7
 10
1998.6336420036454
 20
1329.095019200372
 11
1995.3427420036455
 21
1327.1950192003719
  0
LINE
  8
_0-b_ラッチ断面__扉側
  6
DASHED1
 62
    7
 10
1997.1336420036457
 20
1329.095019200372
 11
1993.8427420036455
 21
1327.1950192003719
  0
LINE
  8
_0-b_ラッチ断面__扉側
  6
DASHED1
 62
    7
 10
1995.6336420036454
 20
1329.095019200372
 11
1992.3427420036457
 21
1327.1950192003719
  0
LINE
  8
_0-b_ラッチ断面__扉側
  6
DASHED1
 62
    7
 10
1994.1336420036454
 20
1329.095019200372
 11
1990.9570920036455
 21
1327.2610192003719
  0
LINE
  8
_0-b_ラッチ断面__扉側
  6
DASHED1
 62
    7
 10
1992.6336420036457
 20
1329.095019200372
 11
1990.9570920036455
 21
1328.1270692003718
  0
LINE
  8
_0-b_ラッチ断面__扉側
  6
DASHED1
 62
    7
 10
1991.9570920036458
 20
1329.570419200372
 11
1990.9570920036455
 21
1328.9930692003717
  0
LINE
  8
_0-b_ラッチ断面__扉側
  6
DASHED1
 62
    7
 10
2012.1336420036457
 20
1329.095019200372
 11
2008.8427420036455
 21
1327.1950192003719
  0
LINE
  8
_0-b_ラッチ断面__扉側
  6
DASHED1
 62
    7
 10
2010.6336420036454
 20
1329.095019200372
 11
2007.3427420036457
 21
1327.1950192003719
  0
LINE
  8
_0-b_ラッチ断面__扉側
  6
DASHED1
 62
    7
 10
2009.1336420036454
 20
1329.095019200372
 11
2005.8427420036455
 21
1327.1950192003719
  0
LINE
  8
_0-b_ラッチ断面__扉側
  6
DASHED1
 62
    7
 10
2007.6336420036457
 20
1329.095019200372
 11
2004.3427420036457
 21
1327.1950192003719
  0
LINE
  8
_0-b_ラッチ断面__扉側
  6
DASHED1
 62
    7
 10
2006.1336420036454
 20
1329.095019200372
 11
2002.8427420036455
 21
1327.1950192003719
  0
LINE
  8
_0-b_ラッチ断面__扉側
  6
DASHED1
 62
    7
 10
2004.6336420036457
 20
1329.095019200372
 11
2001.3427420036455
 21
1327.1950192003719
  0
LINE
  8
_0-b_ラッチ断面__扉側
  6
DASHED1
 62
    7
 10
2003.1336420036454
 20
1329.095019200372
 11
1999.8427420036457
 21
1327.1950192003719
  0
LINE
  8
_0-b_ラッチ断面__扉側
  6
DASHED1
 62
    7
 10
2001.6336420036454
 20
1329.095019200372
 11
1998.3427420036455
 21
1327.1950192003719
  0
LINE
  8
_0-b_ラッチ断面__扉側
  6
DASHED1
 62
    7
 10
2000.1336420036457
 20
1329.095019200372
 11
1996.8427420036457
 21
1327.1950192003719
  0
LINE
  8
_0-b_ラッチ断面__扉側
  6
DASHED1
 62
    7
 10
2013.6336420036454
 20
1329.095019200372
 11
2011.0299420036458
 21
1327.5917692003718
  0
LINE
  8
_0-b_ラッチ断面__扉側
  6
DASHED1
 62
    7
 10
2015.1336420036457
 20
1329.095019200372
 11
2013.5747920036455
 21
1328.1950192003719
  0
LINE
  8
_0-b_ラッチ断面__扉側
  6
DASHED1
 62
    7
 10
2016.6336420036454
 20
1329.095019200372
 11
2015.0747920036453
 21
1328.1950192003719
  0
LINE
  8
_0-b_ラッチ断面__扉側
  6
DASHED1
 62
    7
 10
2018.1336420036454
 20
1329.095019200372
 11
2016.5747920036458
 21
1328.1950192003719
  0
LINE
  8
_0-b_ラッチ断面__扉側
  6
DASHED1
 62
    7
 10
2019.6336420036457
 20
1329.095019200372
 11
2018.0747920036455
 21
1328.1950192003719
  0
LINE
  8
_0-b_ラッチ断面__扉側
  6
DASHED1
 62
    7
 10
2021.1336420036454
 20
1329.095019200372
 11
2019.5747920036455
 21
1328.1950192003719
  0
LINE
  8
_0-b_ラッチ断面__扉側
  6
DASHED1
 62
    7
 10
2023.1585420036456
 20
1329.3980692003719
 11
2021.0747920036455
 21
1328.1950192003719
  0
LINE
  8
_0-b_ラッチ断面__扉側
  6
DASHED1
 62
    7
 10
2023.3570920036456
 20
1328.6466692003718
 11
2022.5747920036453
 21
1328.1950192003719
  0
LINE
  8
_0-b_ラッチ断面__扉側
  6
DASHED1
 62
    7
 10
1964.3570920036454
 20
1330.3950192003719
 11
1964.3570920036454
 21
1329.1950192003719
  0
LINE
  8
_0-b_ラッチ断面__扉側
  6
DASHED1
 62
    7
 10
1964.3570920036454
 20
1329.1950192003719
 11
1964.3570920036454
 21
1326.1950192003719
  0
LINE
  8
_0-b_ラッチ断面__扉側
  6
DASHED1
 62
    7
 10
1992.8818420036454
 20
1300.6950192003719
 11
1978.3570920036456
 21
1309.080869200372
  0
LINE
  8
_0-b_ラッチ断面__扉側
  6
DASHED1
 62
    7
 10
1991.3818420036457
 20
1300.6950192003719
 11
1978.3570920036456
 21
1308.2148692003718
  0
LINE
  8
_0-b_ラッチ断面__扉側
  6
DASHED1
 62
    7
 10
1989.8818420036454
 20
1300.6950192003719
 11
1978.3327420036457
 21
1307.3629192003718
  0
LINE
  8
_0-b_ラッチ断面__扉側
  6
DASHED1
 62
    7
 10
1988.3818420036457
 20
1300.6950192003719
 11
1978.3570920036456
 21
1306.4828192003719
  0
LINE
  8
_0-b_ラッチ断面__扉側
  6
DASHED1
 62
    7
 10
1986.8818420036454
 20
1300.6950192003719
 11
1978.3570920036456
 21
1305.6167692003718
  0
LINE
  8
_0-b_ラッチ断面__扉側
  6
DASHED1
 62
    7
 10
1985.3818420036454
 20
1300.6950192003719
 11
1978.3570920036456
 21
1304.7507692003719
  0
LINE
  8
_0-b_ラッチ断面__扉側
  6
DASHED1
 62
    7
 10
1983.8818420036457
 20
1300.6950192003719
 11
1978.3570920036456
 21
1303.884719200372
  0
LINE
  8
_0-b_ラッチ断面__扉側
  6
DASHED1
 62
    7
 10
1982.3818420036454
 20
1300.6950192003719
 11
1978.3570920036456
 21
1303.018719200372
  0
LINE
  8
_0-b_ラッチ断面__扉側
  6
DASHED1
 62
    7
 10
1980.8818420036457
 20
1300.6950192003719
 11
1978.4474920036454
 21
1302.1004692003721
  0
LINE
  8
_0-b_ラッチ断面__扉側
  6
DASHED1
 62
    7
 10
1989.3570920036454
 20
1319.1950192003719
 11
1989.3570920036454
 21
1315.6950192003719
  0
LINE
  8
_0-b_ラッチ断面__扉側
  6
DASHED1
 62
    7
 10
1978.3570920036456
 20
1302.6950192003719
 11
1978.3570920036456
 21
1325.1950192003719
  0
LINE
  8
_0-b_ラッチ断面__扉側
  6
DASHED1
 62
    7
 10
1980.3570920036454
 20
1300.6950192003719
 11
2018.3570920036456
 21
1300.6950192003719
  0
LINE
  8
_0-b_ラッチ断面__扉側
  6
DASHED1
 62
    7
 10
1988.3570920036456
 20
1314.6950192003719
 11
1978.3570920036456
 21
1314.6950192003719
  0
LINE
  8
_0-b_ラッチ断面__扉側
  6
DASHED1
 62
    7
 10
2018.5658920036457
 20
1302.8086692003719
 11
2009.3570920036454
 21
1302.3260192003717
  0
LINE
  8
_0-b_ラッチ断面__扉側
  6
DASHED1
 62
    7
 10
1995.1477420036458
 20
1302.8086692003719
 11
2005.8570920036456
 21
1302.2474192003719
  0
LINE
  8
_0-b_ラッチ断面__扉側
  6
DASHED1
 62
    7
 10
2006.2512420036457
 20
1319.1586192003717
 11
2006.2512420036457
 21
1318.7404192003718
  0
LINE
  8
_0-b_ラッチ断面__扉側
  6
DASHED1
 62
    7
 10
2020.2187920036456
 20
1314.5579692003718
 11
2007.8570920036454
 21
1321.6950192003719
  0
LINE
  8
_0-b_ラッチ断面__扉側
  6
DASHED1
 62
    7
 10
2021.2104920036454
 20
1316.9288192003718
 11
2010.3570920036454
 21
1323.1950192003719
  0
LINE
  8
_0-b_ラッチ断面__扉側
  6
DASHED1
 62
    7
 10
1992.4494920036456
 20
1317.5665692003717
 11
2007.8570920036454
 21
1321.6950192003719
  0
LINE
  8
_0-b_ラッチ断面__扉側
  6
DASHED1
 62
    7
 10
1989.3570920036454
 20
1310.995019200372
 11
1980.3570920036454
 21
1310.995019200372
  0
LINE
  8
_0-b_ラッチ断面__扉側
  6
DASHED1
 62
    7
 10
1989.3570920036454
 20
1310.995019200372
 11
1989.3570920036454
 21
1306.6950192003719
  0
LINE
  8
_0-b_ラッチ断面__扉側
  6
DASHED1
 62
    7
 10
1989.3570920036454
 20
1310.995019200372
 11
1989.3570920036454
 21
1315.6950192003719
  0
LINE
  8
_0-b_ラッチ断面__扉側
  6
DASHED1
 62
    7
 10
1957.1071420036455
 20
1321.6950192003719
 11
1954.6071420036455
 21
1321.6950192003719
  0
LINE
  8
_0-b_ラッチ断面__扉側
  6
DASHED1
 62
    7
 10
1954.6071420036455
 20
1329.1950192003719
 11
1954.6071420036455
 21
1321.6950192003719
  0
LINE
  8
_0-b_ラッチ断面__扉側
  6
DASHED1
 62
    7
 10
1957.1071420036455
 20
1329.1950192003719
 11
1957.1071420036455
 21
1321.6950192003719
  0
LINE
  8
_0-b_ラッチ断面__扉側
  6
DASHED1
 62
    7
 10
1955.8571420036455
 20
1320.1050192003719
 11
1955.8571420036455
 21
1331.1950192003719
  0
ARC
  8
_0-b_ラッチ断面__扉側
  6
DASHED1
 62
    7
 10
2018.3570920036456
 20
1306.6950192003719
 40
6.0000000000000008
 50
269.99999999999988
 51
359.99999999999988
  0
ARC
  8
_0-b_ラッチ断面__扉側
  6
DASHED1
 62
    7
 10
1995.3570920036454
 20
1306.8032192003718
 40
4
 50
179.99999999999991
 51
202.63099999999988
  0
ARC
  8
_0-b_ラッチ断面__扉側
  6
DASHED1
 62
    7
 10
2018.3570920036456
 20
1306.7927192003719
 40
4
 50
304.46999999999991
 51
0
  0
ARC
  8
_0-b_ラッチ断面__扉側
  6
DASHED1
 62
    7
 10
1985.3570920036454
 20
1321.1950192003719
 40
4
 50
84.812999999999973
 51
89.999999999999971
  0
ARC
  8
_0-b_ラッチ断面__扉側
  6
DASHED1
 62
    7
 10
1985.3570920036454
 20
1321.1950192003719
 40
4
 50
359.99999999999994
 51
84.813000000000002
  0
CIRCLE
  8
_0-b_ラッチ断面__扉側
  6
DASHED1
 62
    7
 10
1994.3570920036454
 20
1319.1950192003719
 40
2.1
  0
CIRCLE
  8
_0-b_ラッチ断面__扉側
  6
DASHED1
 62
    7
 10
1994.3570920036454
 20
1319.1950192003719
 40
3.0000000000000004
  0
ARC
  8
_0-b_ラッチ断面__扉側
  6
DASHED1
 62
    7
 10
1954.3571420036455
 20
1328.1950192003719
 40
1
 50
89.999999999999971
 51
180
  0
ARC
  8
_0-b_ラッチ断面__扉側
  6
DASHED1
 62
    7
 10
1996.5247420036457
 20
1321.2689692003718
 40
6.0000000000000008
 50
223.73399999999995
 51
281.21399999999994
  0
CIRCLE
  8
_0-b_ラッチ断面__扉側
  6
DASHED1
 62
    7
 10
1994.3570920036454
 20
1319.1950192003719
 40
3.0000000000000004
  0
CIRCLE
  8
_0-b_ラッチ断面__扉側
  6
DASHED1
 62
    7
 10
1994.3570920036454
 20
1319.1950192003719
 40
2.1
  0
ARC
  8
_0-b_ラッチ断面__扉側
  6
DASHED1
 62
    7
 10
1983.2854920036456
 20
1323.1950192003719
 40
2
 50
44.999999999999964
 51
89.999999999999971
  0
ARC
  8
_0-b_ラッチ断面__扉側
  6
DASHED1
 62
    7
 10
1986.5281420036455
 20
1324.1950192003719
 40
5
 50
44.999999999999964
 51
89.999999999999971
  0
ARC
  8
_0-b_ラッチ断面__扉側
  6
DASHED1
 62
    7
 10
1998.0844920036454
 20
1328.1950192003719
 40
6.0000000000000008
 50
224.99999999999994
 51
269.99999999999994
  0
ARC
  8
_0-b_ラッチ断面__扉側
  6
DASHED1
 62
    7
 10
1992.1906920036453
 20
1318.5324692003719
 40
1
 50
224.99999999999991
 51
284.99999999999994
  0
ARC
  8
_0-b_ラッチ断面__扉側
  6
DASHED1
 62
    7
 10
2021.7230420036455
 20
1322.3857692003718
 40
10
 50
240.93599999999992
 51
257.62099999999992
  0
ARC
  8
_0-b_ラッチ断面__扉側
  6
DASHED1
 62
    7
 10
2019.7936420036455
 20
1313.595019200372
 40
1
 50
257.62099999999986
 51
352.99999999999994
  0
ARC
  8
_0-b_ラッチ断面__扉側
  6
DASHED1
 62
    7
 10
2005.9570920036455
 20
1273.6950192003719
 40
42.00685
 50
86.96199999999996
 51
94.376999999999981
  0
ARC
  8
_0-b_ラッチ断面__扉側
  6
DASHED1
 62
    7
 10
2007.1495420036455
 20
1296.1634192003721
 40
19.50685
 50
71.771999999999977
 51
86.961999999999974
  0
ARC
  8
_0-b_ラッチ断面__扉側
  6
DASHED1
 62
    7
 10
2005.9570920036455
 20
1273.6950192003719
 40
42.706699999999997
 50
86.96199999999996
 51
94.304999999999992
  0
ARC
  8
_0-b_ラッチ断面__扉側
  6
DASHED1
 62
    7
 10
2007.1495420036455
 20
1296.1634192003721
 40
20.206700000000004
 50
72.423999999999978
 51
86.961999999999974
  0
ARC
  8
_0-b_ラッチ断面__扉側
  6
DASHED1
 62
    7
 10
2005.9570920036455
 20
1273.6950192003719
 40
42.5
 50
86.96199999999996
 51
101.21399999999998
  0
ARC
  8
_0-b_ラッチ断面__扉側
  6
DASHED1
 62
    7
 10
2007.1495420036455
 20
1296.1634192003721
 40
20
 50
60.935999999999985
 51
87.972999999999984
  0
ARC
  8
_0-b_ラッチ断面__扉側
  6
DASHED1
 62
    7
 10
2020.4687920036453
 20
1314.9910192003719
 40
0.5
 50
239.99999999999994
 51
352.99999999999994
  0
ARC
  8
_0-b_ラッチ断面__扉側
  6
DASHED1
 62
    7
 10
1994.3570920036454
 20
1319.1950192003719
 40
2.2999999999999998
 50
179.99999999999985
 51
359.99999999999988
  0
ARC
  8
_0-b_ラッチ断面__扉側
  6
DASHED1
 62
    7
 10
1985.3570920036454
 20
1323.1950192003719
 40
2
 50
359.99999999999994
 51
89.999999999999943
  0
ARC
  8
_0-b_ラッチ断面__扉側
  6
DASHED1
 62
    7
 10
1989.3570920036454
 20
1322.6950192003719
 40
2
 50
179.99999999999985
 51
209.99999999999991
  0
ARC
  8
_0-b_ラッチ断面__扉側
  6
DASHED1
 62
    7
 10
1993.3570920036456
 20
1322.3950192003717
 40
1
 50
179.99999999999991
 51
269.99999999999994
  0
ARC
  8
_0-b_ラッチ断面__扉側
  6
DASHED1
 62
    7
 10
1995.6570920036458
 20
1322.3950192003717
 40
1
 50
269.99999999999988
 51
359.99999999999988
  0
ARC
  8
_0-b_ラッチ断面__扉側
  6
DASHED1
 62
    7
 10
1965.3570920036454
 20
1326.1950192003719
 40
1
 50
179.99999999999991
 51
269.99999999999994
  0
ARC
  8
_0-b_ラッチ断面__扉側
  6
DASHED1
 62
    7
 10
2007.4170920036456
 20
1310.9850192003718
 40
8.7300000000000004
 50
146.57599999999996
 51
22.665999999999996
  0
ARC
  8
_0-b_ラッチ断面__扉側
  6
DASHED1
 62
    7
 10
1980.3570920036454
 20
1311.9950192003718
 40
1
 50
179.99999999999991
 51
269.99999999999994
  0
ARC
  8
_0-b_ラッチ断面__扉側
  6
DASHED1
 62
    7
 10
1988.3570920036456
 20
1315.6950192003719
 40
1
 50
269.99999999999988
 51
359.99999999999988
  0
ARC
  8
_0-b_ラッチ断面__扉側
  6
DASHED1
 62
    7
 10
1980.3570920036454
 20
1302.6950192003719
 40
2
 50
179.99999999999991
 51
269.99999999999994
  0
ARC
  8
_0-b_ラッチ断面__扉側
  6
DASHED1
 62
    7
 10
2018.3570920036456
 20
1306.7927192003719
 40
4
 50
273
 51
304.46999999999997
  0
ARC
  8
_0-b_ラッチ断面__扉側
  6
DASHED1
 62
    7
 10
1995.3570920036454
 20
1306.8032192003718
 40
4
 50
202.63099999999991
 51
266.99999999999994
  0
ARC
  8
_0-b_ラッチ断面__扉側
  6
DASHED1
 62
    7
 10
2005.9570920036455
 20
1273.6950192003719
 40
45.472499999999996
 50
86.96199999999996
 51
89.62899999999999
  0
ARC
  8
_0-b_ラッチ断面__扉側
  6
DASHED1
 62
    7
 10
2005.9570920036455
 20
1273.6950192003719
 40
45.046349999999996
 50
86.96199999999996
 51
89.625999999999976
  0
ARC
  8
_0-b_ラッチ断面__扉側
  6
DASHED1
 62
    7
 10
2007.1495420036455
 20
1296.1634192003721
 40
22.54635
 50
74.297999999999973
 51
86.961999999999974
  0
ARC
  8
_0-b_ラッチ断面__扉側
  6
DASHED1
 62
    7
 10
2007.1495420036455
 20
1296.1634192003721
 40
22.9725
 50
74.596999999999965
 51
86.96199999999996
  0
ARC
  8
_0-b_ラッチ断面__扉側
  6
DASHED1
 62
    7
 10
2007.4170920036456
 20
1310.9850192003718
 40
8.7300000000000004
 50
22.665999999999975
 51
146.57599999999999
  0
ARC
  8
_0-b_ラッチ断面__扉側
  6
DASHED1
 62
    7
 10
1995.3570920036454
 20
1306.6950192003719
 40
6.0000000000000008
 50
179.99999999999991
 51
269.99999999999994
  0
LINE
  8
_0-b_ラッチ断面__扉側
  6
DASHED1
 62
    7
 10
2006.8570920036454
 20
1331.295019200372
 11
2006.8570920036454
 21
1296.8950192003717
  0
ARC
  8
_0-b_ラッチ断面__扉側
  6
DASHED1
 62
    7
 10
1943.057092003645
 20
1315.1325192003719
 40
1.1999999999999999
 50
90.000000000000028
 51
180.00000000000005
  0
ARC
  8
_0-b_ラッチ断面__扉側
  6
DASHED1
 62
    7
 10
1943.057092003645
 20
1315.1325192003719
 40
1.1999999999999999
 50
90.000000000000028
 51
180.00000000000005
  0
LINE
  8
_0-b_ラッチ断面__扉側
  6
DASHED1
 62
    7
 10
1941.8570920036449
 20
1312.1325192003719
 11
1943.057092003645
 21
1312.1325192003719
  0
LINE
  8
_0-b_ラッチ断面__扉側
  6
DASHED1
 62
    7
 10
1943.057092003645
 20
1315.1325192003719
 11
1943.057092003645
 21
1295.1325192003719
  0
LINE
  8
_0-b_ラッチ断面__扉側
  6
DASHED1
 62
    7
 10
1941.8570920036449
 20
1295.1325192003719
 11
1943.057092003645
 21
1295.1325192003719
  0
LINE
  8
_0-b_ラッチ断面__扉側
  6
DASHED1
 62
    7
 10
1941.8570920036449
 20
1315.1325192003719
 11
1941.8570920036449
 21
1295.1325192003719
  0
LINE
  8
_0-b_ラッチ断面__扉側
  6
DASHED1
 62
    7
 10
1943.057092003645
 20
1314.6325192003719
 11
1943.057092003645
 21
1299.4918192003717
  0
LINE
  8
_0-b_ラッチ断面__扉側
  6
DASHED1
 62
    7
 10
1943.5570920036452
 20
1315.1325192003719
 11
1958.6977920036451
 21
1315.1325192003719
  0
LINE
  8
_0-b_ラッチ断面__扉側
  6
DASHED1
 62
    7
 10
1972.8570920036449
 20
1315.1325192003719
 11
1972.8570920036449
 21
1316.3325192003719
  0
LINE
  8
_0-b_ラッチ断面__扉側
  6
DASHED1
 62
    7
 10
1943.057092003645
 20
1316.3325192003719
 11
1978.8570920036452
 21
1316.3325192003719
  0
LINE
  8
_0-b_ラッチ断面__扉側
  6
DASHED1
 62
    7
 10
1943.057092003645
 20
1315.1325192003719
 11
1978.8570920036452
 21
1315.1325192003719
  0
LINE
  8
_0-b_ラッチ断面__扉側
  6
DASHED1
 62
    7
 10
1978.8570920036452
 20
1316.3325192003719
 11
1978.8570920036452
 21
1315.1325192003719
  0
LINE
  8
_0-4_背面本体
  6
CONTINUOUS
 62
    3
 10
327.82476271240255
 20
2199.7744603287769
 11
720.82476271240261
 21
2199.7744603287769
  0
LINE
  8
_0-4_背面本体
  6
CONTINUOUS
 62
    3
 10
327.82476271240255
 20
2187.7744603287765
 11
720.82476271240261
 21
2187.7744603287765
  0
LINE
  8
_0-4_背面本体
  6
CONTINUOUS
 62
    3
 10
1115.8247627124028
 20
2187.7744603287765
 11
721.82476271240261
 21
2187.7744603287765
  0
LINE
  8
_0-4_背面本体
  6
CONTINUOUS
 62
    3
 10
1115.8247627124028
 20
2199.7744603287769
 11
721.82476271240261
 21
2199.7744603287769
  0
LINE
  8
_0-4_背面本体
  6
CONTINUOUS
 62
    3
 10
720.82476271240295
 20
2199.7744603287769
 11
720.82476271240295
 21
2187.7744603287765
  0
LINE
  8
_0-4_背面本体
  6
CONTINUOUS
 62
    3
 10
720.82476271240261
 20
2199.7744603287769
 11
720.82476271240261
 21
2187.7744603287765
  0
LINE
  8
_0-4_背面本体
  6
CONTINUOUS
 62
    3
 10
721.82476271240284
 20
2199.7744603287769
 11
721.82476271240284
 21
2187.7744603287765
  0
LINE
  8
_0-4_背面本体
  6
CONTINUOUS
 62
    3
 10
721.82476271240261
 20
2199.7744603287769
 11
721.82476271240261
 21
2187.7744603287765
  0
LINE
  8
_0-b_ラッチ断面__扉側
  6
DASHED1
 62
    7
 10
682.32476271240329
 20
2222.2744603287769
 11
681.82476271240318
 21
2222.2744603287769
  0
LINE
  8
_0-b_ラッチ断面__扉側
  6
DASHED1
 62
    7
 10
659.32476271240318
 20
2222.2744603287769
 11
659.82476271240329
 21
2222.2744603287769
  0
LINE
  8
_0-b_ラッチ断面__扉側
  6
DASHED1
 62
    7
 10
662.32476271240329
 20
2282.2744603287769
 11
679.32476271240318
 21
2282.2744603287769
  0
LINE
  8
_0-b_ラッチ断面__扉側
  6
DASHED1
 62
    7
 10
662.82476271240307
 20
2247.2744603287769
 11
678.82476271240307
 21
2247.2744603287769
  0
LINE
  8
_0-b_ラッチ断面__扉側
  6
DASHED1
 62
    7
 10
682.32476271240329
 20
2222.2744603287769
 11
681.82476271240318
 21
2222.2744603287769
  0
LINE
  8
_0-b_ラッチ断面__扉側
  6
DASHED1
 62
    7
 10
688.32476271240295
 20
2249.2744603287769
 11
689.32476271240318
 21
2249.2744603287769
  0
LINE
  8
_0-b_ラッチ断面__扉側
  6
DASHED1
 62
    7
 10
688.32476271240295
 20
2273.2744603287765
 11
688.32476271240295
 21
2249.2744603287769
  0
LINE
  8
_0-b_ラッチ断面__扉側
  6
DASHED1
 62
    7
 10
653.32476271240295
 20
2249.2744603287769
 11
652.32476271240329
 21
2249.2744603287769
  0
LINE
  8
_0-b_ラッチ断面__扉側
  6
DASHED1
 62
    7
 10
653.32476271240295
 20
2273.2744603287765
 11
653.32476271240295
 21
2249.2744603287769
  0
LINE
  8
_0-b_ラッチ断面__扉側
  6
DASHED1
 62
    7
 10
651.93476271240285
 20
2252.2744603287769
 11
659.32476271240318
 21
2252.2744603287769
  0
LINE
  8
_0-b_ラッチ断面__扉側
  6
DASHED1
 62
    7
 10
682.32476271240329
 20
2252.2744603287769
 11
690.42476271240298
 21
2252.2744603287769
  0
LINE
  8
_0-b_ラッチ断面__扉側
  6
DASHED1
 62
    7
 10
660.82476271240295
 20
2247.2744603287769
 11
660.82476271240295
 21
2244.4744603287767
  0
LINE
  8
_0-b_ラッチ断面__扉側
  6
DASHED1
 62
    7
 10
662.32476271240329
 20
2245.8744603287768
 11
661.32476271240307
 21
2245.8744603287768
  0
LINE
  8
_0-b_ラッチ断面__扉側
  6
DASHED1
 62
    7
 10
679.32476271240318
 20
2245.8744603287768
 11
680.32476271240307
 21
2245.8744603287768
  0
LINE
  8
_0-b_ラッチ断面__扉側
  6
DASHED1
 62
    7
 10
680.82476271240295
 20
2247.2744603287769
 11
680.82476271240295
 21
2244.4744603287767
  0
LINE
  8
_0-b_ラッチ断面__扉側
  6
DASHED1
 62
    7
 10
678.82476271240307
 20
2247.2744603287769
 11
678.82476271240307
 21
2225.2744603287765
  0
LINE
  8
_0-b_ラッチ断面__扉側
  6
DASHED1
 62
    7
 10
662.82476271240307
 20
2247.2744603287769
 11
662.82476271240307
 21
2225.2744603287765
  0
LINE
  8
_0-b_ラッチ断面__扉側
  6
DASHED1
 62
    7
 10
668.58871271240332
 20
2220.274510328777
 11
673.06081271240316
 21
2220.274510328777
  0
LINE
  8
_0-b_ラッチ断面__扉側
  6
DASHED1
 62
    7
 10
674.32476271240318
 20
2218.2745103287766
 11
674.32476271240318
 21
2216.2745103287766
  0
LINE
  8
_0-b_ラッチ断面__扉側
  6
DASHED1
 62
    7
 10
667.32476271240329
 20
2218.2745103287766
 11
667.32476271240329
 21
2216.2745103287766
  0
LINE
  8
_0-b_ラッチ断面__扉側
  6
DASHED1
 62
    7
 10
667.32476271240329
 20
2216.2745103287766
 11
667.82476271240307
 21
2216.2745103287766
  0
LINE
  8
_0-b_ラッチ断面__扉側
  6
DASHED1
 62
    7
 10
673.82476271240307
 20
2216.2745103287766
 11
674.32476271240318
 21
2216.2745103287766
  0
LINE
  8
_0-b_ラッチ断面__扉側
  6
DASHED1
 62
    7
 10
674.32476271240318
 20
2211.2745103287766
 11
667.32476271240329
 21
2211.2745103287766
  0
LINE
  8
_0-b_ラッチ断面__扉側
  6
DASHED1
 62
    7
 10
674.37071271240313
 20
2211.3204603287767
 11
674.32476271240318
 21
2211.2745103287766
  0
LINE
  8
_0-b_ラッチ断面__扉側
  6
DASHED1
 62
    7
 10
667.27881271240335
 20
2211.3204603287767
 11
667.32476271240329
 21
2211.2745103287766
  0
LINE
  8
_0-b_ラッチ断面__扉側
  6
DASHED1
 62
    7
 10
673.82476271240307
 20
2218.2745103287766
 11
673.82476271240307
 21
2212.274510328777
  0
LINE
  8
_0-b_ラッチ断面__扉側
  6
DASHED1
 62
    7
 10
667.82476271240307
 20
2218.2745103287766
 11
667.82476271240307
 21
2212.274510328777
  0
LINE
  8
_0-b_ラッチ断面__扉側
  6
DASHED1
 62
    7
 10
667.82476271240307
 20
2216.2745103287766
 11
673.82476271240307
 21
2216.2745103287766
  0
LINE
  8
_0-b_ラッチ断面__扉側
  6
DASHED1
 62
    7
 10
666.25371271240305
 20
2212.3455603287766
 11
667.27881271240335
 21
2211.3204603287767
  0
LINE
  8
_0-b_ラッチ断面__扉側
  6
DASHED1
 62
    7
 10
675.39581271240308
 20
2212.3455603287766
 11
674.37071271240313
 21
2211.3204603287767
  0
LINE
  8
_0-b_ラッチ断面__扉側
  6
DASHED1
 62
    7
 10
678.32476271240295
 20
2219.4166103287766
 11
678.32476271240295
 21
2247.2744603287769
  0
LINE
  8
_0-b_ラッチ断面__扉側
  6
DASHED1
 62
    7
 10
663.32476271240295
 20
2219.4166103287766
 11
663.32476271240295
 21
2247.2744603287769
  0
LINE
  8
_0-b_ラッチ断面__扉側
  6
DASHED1
 62
    7
 10
657.649312712403
 20
2239.0370603287765
 11
657.43781271240322
 21
2239.3125603287767
  0
LINE
  8
_0-b_ラッチ断面__扉側
  6
DASHED1
 62
    7
 10
657.649312712403
 20
2239.0370603287765
 11
658.32476271240295
 21
2239.7744603287769
  0
LINE
  8
_0-b_ラッチ断面__扉側
  6
DASHED1
 62
    7
 10
657.43781271240322
 20
2239.3125603287767
 11
658.32476271240295
 21
2239.7744603287769
  0
LINE
  8
_0-b_ラッチ断面__扉側
  6
DASHED1
 62
    7
 10
678.82476271240307
 20
2247.2744603287769
 11
688.02476271240288
 21
2247.2744603287769
  0
LINE
  8
_0-b_ラッチ断面__扉側
  6
DASHED1
 62
    7
 10
662.82476271240307
 20
2247.2744603287769
 11
653.62476271240325
 21
2247.2744603287769
  0
LINE
  8
_0-b_ラッチ断面__扉側
  6
DASHED1
 62
    7
 10
671.82476271240318
 20
2247.2744603287769
 11
671.82476271240318
 21
2237.7748603287768
  0
LINE
  8
_0-b_ラッチ断面__扉側
  6
DASHED1
 62
    7
 10
669.82476271240329
 20
2247.2744603287769
 11
669.82476271240329
 21
2237.7748603287768
  0
LINE
  8
_0-b_ラッチ断面__扉側
  6
DASHED1
 62
    7
 10
670.32476271240307
 20
2237.2748603287764
 11
671.32476271240307
 21
2237.2748603287764
  0
LINE
  8
_0-b_ラッチ断面__扉側
  6
DASHED1
 62
    7
 10
669.82476271240329
 20
2241.4944603287767
 11
663.32476271240295
 21
2241.4944603287767
  0
LINE
  8
_0-b_ラッチ断面__扉側
  6
DASHED1
 62
    7
 10
678.32476271240295
 20
2241.4944603287767
 11
671.82476271240318
 21
2241.4944603287767
  0
LINE
  8
_0-b_ラッチ断面__扉側
  6
DASHED1
 62
    7
 10
669.82476271240329
 20
2241.8644603287771
 11
668.76401271240297
 21
2241.8644603287771
  0
LINE
  8
_0-b_ラッチ断面__扉側
  6
DASHED1
 62
    7
 10
666.38551271240316
 20
2241.8644603287771
 11
663.32476271240295
 21
2241.8644603287771
  0
LINE
  8
_0-b_ラッチ断面__扉側
  6
DASHED1
 62
    7
 10
678.32476271240295
 20
2241.8644603287771
 11
675.26401271240297
 21
2241.8644603287771
  0
LINE
  8
_0-b_ラッチ断面__扉側
  6
DASHED1
 62
    7
 10
672.88551271240294
 20
2241.8644603287771
 11
671.82476271240318
 21
2241.8644603287771
  0
LINE
  8
_0-b_ラッチ断面__扉側
  6
DASHED1
 62
    7
 10
690.32476271240307
 20
2237.2744603287769
 11
690.32476271240307
 21
2248.2744603287765
  0
LINE
  8
_0-b_ラッチ断面__扉側
  6
DASHED1
 62
    7
 10
688.32476271240295
 20
2236.2744603287769
 11
689.32476271240318
 21
2236.2744603287769
  0
LINE
  8
_0-b_ラッチ断面__扉側
  6
DASHED1
 62
    7
 10
688.32476271240295
 20
2246.9744603287767
 11
688.32476271240295
 21
2228.2744603287765
  0
LINE
  8
_0-b_ラッチ断面__扉側
  6
DASHED1
 62
    7
 10
651.32476271240307
 20
2237.2744603287769
 11
651.32476271240307
 21
2248.2744603287765
  0
LINE
  8
_0-b_ラッチ断面__扉側
  6
DASHED1
 62
    7
 10
653.32476271240295
 20
2236.2744603287769
 11
652.32476271240329
 21
2236.2744603287769
  0
LINE
  8
_0-b_ラッチ断面__扉側
  6
DASHED1
 62
    7
 10
653.32476271240295
 20
2246.9744603287767
 11
653.32476271240295
 21
2228.2744603287765
  0
LINE
  8
_0-b_ラッチ断面__扉側
  6
DASHED1
 62
    7
 10
670.82476271240295
 20
2283.9744603287767
 11
670.82476271240295
 21
2208.674460328777
  0
LINE
  8
_0-b_ラッチ断面__扉側
  6
DASHED1
 62
    7
 10
652.19476271240296
 20
2264.7744603287769
 11
691.22476271240316
 21
2264.7744603287769
  0
LINE
  8
_0-b_ラッチ断面__扉側
  6
DASHED1
 62
    7
 10
658.32476271240295
 20
2243.9244603287766
 11
658.32476271240295
 21
2235.674460328777
  0
LINE
  8
_0-b_ラッチ断面__扉側
  6
DASHED1
 62
    7
 10
661.57476271240307
 20
2239.7744603287769
 11
655.02476271240311
 21
2239.7744603287769
  0
LINE
  8
_0-b_ラッチ断面__扉側
  6
DASHED1
 62
    7
 10
683.32476271240295
 20
2243.5944603287771
 11
683.32476271240295
 21
2235.8744603287768
  0
LINE
  8
_0-b_ラッチ断面__扉側
  6
DASHED1
 62
    7
 10
680.05476271240297
 20
2239.7744603287769
 11
687.06476271240319
 21
2239.7744603287769
  0
LINE
  8
_0-b_ラッチ断面__扉側
  6
DASHED1
 62
    7
 10
674.3847627124029
 20
2213.7745103287766
 11
667.11476271240314
 21
2213.7745103287766
  0
ARC
  8
_0-b_ラッチ断面__扉側
  6
DASHED1
 62
    7
 10
679.32476271240318
 20
2273.2744603287765
 40
9
 50
0.0000000000000254
 51
90.000000000000056
  0
ARC
  8
_0-b_ラッチ断面__扉側
  6
DASHED1
 62
    7
 10
682.32476271240329
 20
2228.2744603287765
 40
6.0000000000000008
 50
270
 51
0
  0
ARC
  8
_0-b_ラッチ断面__扉側
  6
DASHED1
 62
    7
 10
681.82476271240318
 20
2225.2744603287765
 40
3.0000000000000004
 50
180.00000000000005
 51
270.00000000000005
  0
ARC
  8
_0-b_ラッチ断面__扉側
  6
DASHED1
 62
    7
 10
662.32476271240329
 20
2273.2744603287765
 40
9
 50
90.000000000000056
 51
180.00000000000011
  0
ARC
  8
_0-b_ラッチ断面__扉側
  6
DASHED1
 62
    7
 10
659.32476271240318
 20
2228.2744603287765
 40
6.0000000000000008
 50
180.00000000000005
 51
270.00000000000005
  0
ARC
  8
_0-b_ラッチ断面__扉側
  6
DASHED1
 62
    7
 10
659.82476271240329
 20
2225.2744603287765
 40
3.0000000000000004
 50
270
 51
0
  0
CIRCLE
  8
_0-b_ラッチ断面__扉側
  6
DASHED1
 62
    7
 10
658.32476271240295
 20
2239.7744603287769
 40
1.8999999999999999
  0
CIRCLE
  8
_0-b_ラッチ断面__扉側
  6
DASHED1
 62
    7
 10
683.32476271240295
 20
2239.7744603287769
 40
1.8999999999999999
  0
ARC
  8
_0-b_ラッチ断面__扉側
  6
DASHED1
 62
    7
 10
689.32476271240318
 20
2248.2744603287765
 40
1
 50
0.0000000000000254
 51
90.000000000000056
  0
ARC
  8
_0-b_ラッチ断面__扉側
  6
DASHED1
 62
    7
 10
652.32476271240329
 20
2248.2744603287765
 40
1
 50
90.000000000000056
 51
180.00000000000011
  0
ARC
  8
_0-b_ラッチ断面__扉側
  6
DASHED1
 62
    7
 10
655.32476271240307
 20
2249.2744603287769
 40
2
 50
180.00000000000005
 51
270.00000000000005
  0
ARC
  8
_0-b_ラッチ断面__扉側
  6
DASHED1
 62
    7
 10
662.32476271240329
 20
2246.3744603287768
 40
0.5
 50
270
 51
0
  0
ARC
  8
_0-b_ラッチ断面__扉側
  6
DASHED1
 62
    7
 10
661.32476271240307
 20
2246.3744603287768
 40
0.5
 50
180.00000000000005
 51
270.00000000000005
  0
ARC
  8
_0-b_ラッチ断面__扉側
  6
DASHED1
 62
    7
 10
679.32476271240318
 20
2246.3744603287768
 40
0.5
 50
180.00000000000005
 51
270.00000000000005
  0
ARC
  8
_0-b_ラッチ断面__扉側
  6
DASHED1
 62
    7
 10
680.32476271240307
 20
2246.3744603287768
 40
0.5
 50
270
 51
0
  0
ARC
  8
_0-b_ラッチ断面__扉側
  6
DASHED1
 62
    7
 10
686.32476271240307
 20
2249.2744603287769
 40
2
 50
270
 51
0
  0
ARC
  8
_0-b_ラッチ断面__扉側
  6
DASHED1
 62
    7
 10
670.82476271240295
 20
2218.2745103287766
 40
3.5000000000000008
 50
90.000000000000056
 51
180.00000000000011
  0
ARC
  8
_0-b_ラッチ断面__扉側
  6
DASHED1
 62
    7
 10
670.82476271240295
 20
2218.2745103287766
 40
3.5000000000000008
 50
0.0000000000000254
 51
90.000000000000056
  0
ARC
  8
_0-b_ラッチ断面__扉側
  6
DASHED1
 62
    7
 10
670.82476271240295
 20
2218.2745103287766
 40
3.0000000000000004
 50
138.19000000000005
 51
180.00000000000011
  0
ARC
  8
_0-b_ラッチ断面__扉側
  6
DASHED1
 62
    7
 10
670.82476271240295
 20
2218.2745103287766
 40
3.0000000000000004
 50
0.0000000000000254
 51
41.81000000000003
  0
ARC
  8
_0-b_ラッチ断面__扉側
  6
DASHED1
 62
    7
 10
668.82476271240307
 20
2212.274510328777
 40
1
 50
180.00000000000005
 51
270.00000000000005
  0
ARC
  8
_0-b_ラッチ断面__扉側
  6
DASHED1
 62
    7
 10
672.82476271240307
 20
2212.274510328777
 40
1
 50
270
 51
0
  0
ARC
  8
_0-b_ラッチ断面__扉側
  6
DASHED1
 62
    7
 10
673.32476271240295
 20
2219.4166103287766
 40
10
 50
180.00000000000005
 51
225.00000000000005
  0
ARC
  8
_0-b_ラッチ断面__扉側
  6
DASHED1
 62
    7
 10
668.32476271240295
 20
2219.4166103287766
 40
10
 50
315
 51
0
  0
ARC
  8
_0-b_ラッチ断面__扉側
  6
DASHED1
 62
    7
 10
688.02476271240288
 20
2246.9744603287767
 40
0.2999999999999998
 50
0.0000000000000254
 51
90.000000000000056
  0
ARC
  8
_0-b_ラッチ断面__扉側
  6
DASHED1
 62
    7
 10
653.62476271240325
 20
2246.9744603287767
 40
0.2999999999999998
 50
90.000000000000056
 51
180.00000000000011
  0
ARC
  8
_0-b_ラッチ断面__扉側
  6
DASHED1
 62
    7
 10
671.32476271240307
 20
2237.7748603287768
 40
0.5
 50
270
 51
0
  0
ARC
  8
_0-b_ラッチ断面__扉側
  6
DASHED1
 62
    7
 10
670.32476271240307
 20
2237.7748603287768
 40
0.5
 50
180.00000000000005
 51
270.00000000000005
  0
ARC
  8
_0-b_ラッチ断面__扉側
  6
DASHED1
 62
    7
 10
689.32476271240318
 20
2237.2744603287769
 40
1
 50
270
 51
0
  0
ARC
  8
_0-b_ラッチ断面__扉側
  6
DASHED1
 62
    7
 10
652.32476271240329
 20
2237.2744603287769
 40
1
 50
180.00000000000005
 51
270.00000000000005
  0
CIRCLE
  8
_0-b_ラッチ断面__扉側
  6
DASHED1
 62
    7
 10
674.07476271240307
 20
2237.274510328777
 40
2.3250000000000001
  0
CIRCLE
  8
_0-b_ラッチ断面__扉側
  6
DASHED1
 62
    7
 10
667.57476271240307
 20
2237.274510328777
 40
2.3250000000000001
  0
CIRCLE
  8
_0-b_ラッチ断面__扉側
  6
DASHED1
 62
    7
 10
667.57476271240307
 20
2243.7745103287766
 40
2.3250000000000001
  0
CIRCLE
  8
_0-b_ラッチ断面__扉側
  6
DASHED1
 62
    7
 10
674.07476271240307
 20
2243.7745103287766
 40
2.3250000000000001
  0
CIRCLE
  8
_0-b_ラッチ断面__扉側
  6
DASHED1
 62
    7
 10
670.82476271240295
 20
2213.7745103287766
 40
1.25
  0
LINE
  8
_0-b_ラッチ断面__扉側
  6
DASHED1
 62
    7
 10
783.32476271240295
 20
2222.2744603287769
 11
782.82476271240284
 21
2222.2744603287769
  0
LINE
  8
_0-b_ラッチ断面__扉側
  6
DASHED1
 62
    7
 10
760.32476271240284
 20
2222.2744603287769
 11
760.82476271240295
 21
2222.2744603287769
  0
LINE
  8
_0-b_ラッチ断面__扉側
  6
DASHED1
 62
    7
 10
763.32476271240295
 20
2282.2744603287769
 11
780.32476271240284
 21
2282.2744603287769
  0
LINE
  8
_0-b_ラッチ断面__扉側
  6
DASHED1
 62
    7
 10
763.82476271240307
 20
2247.2744603287769
 11
779.82476271240273
 21
2247.2744603287769
  0
LINE
  8
_0-b_ラッチ断面__扉側
  6
DASHED1
 62
    7
 10
783.32476271240295
 20
2222.2744603287769
 11
782.82476271240284
 21
2222.2744603287769
  0
LINE
  8
_0-b_ラッチ断面__扉側
  6
DASHED1
 62
    7
 10
789.32476271240284
 20
2249.2744603287769
 11
790.32476271240284
 21
2249.2744603287769
  0
LINE
  8
_0-b_ラッチ断面__扉側
  6
DASHED1
 62
    7
 10
789.32476271240284
 20
2273.2744603287765
 11
789.32476271240284
 21
2249.2744603287769
  0
LINE
  8
_0-b_ラッチ断面__扉側
  6
DASHED1
 62
    7
 10
754.32476271240284
 20
2249.2744603287769
 11
753.32476271240295
 21
2249.2744603287769
  0
LINE
  8
_0-b_ラッチ断面__扉側
  6
DASHED1
 62
    7
 10
754.32476271240284
 20
2273.2744603287765
 11
754.32476271240284
 21
2249.2744603287769
  0
LINE
  8
_0-b_ラッチ断面__扉側
  6
DASHED1
 62
    7
 10
752.93476271240274
 20
2252.2744603287769
 11
760.32476271240284
 21
2252.2744603287769
  0
LINE
  8
_0-b_ラッチ断面__扉側
  6
DASHED1
 62
    7
 10
783.32476271240295
 20
2252.2744603287769
 11
791.42476271240298
 21
2252.2744603287769
  0
LINE
  8
_0-b_ラッチ断面__扉側
  6
DASHED1
 62
    7
 10
761.82476271240284
 20
2247.2744603287769
 11
761.82476271240284
 21
2244.4744603287767
  0
LINE
  8
_0-b_ラッチ断面__扉側
  6
DASHED1
 62
    7
 10
763.32476271240295
 20
2245.8744603287768
 11
762.32476271240273
 21
2245.8744603287768
  0
LINE
  8
_0-b_ラッチ断面__扉側
  6
DASHED1
 62
    7
 10
780.32476271240284
 20
2245.8744603287768
 11
781.32476271240307
 21
2245.8744603287768
  0
LINE
  8
_0-b_ラッチ断面__扉側
  6
DASHED1
 62
    7
 10
781.82476271240284
 20
2247.2744603287769
 11
781.82476271240284
 21
2244.4744603287767
  0
LINE
  8
_0-b_ラッチ断面__扉側
  6
DASHED1
 62
    7
 10
779.82476271240273
 20
2247.2744603287769
 11
779.82476271240273
 21
2225.2744603287765
  0
LINE
  8
_0-b_ラッチ断面__扉側
  6
DASHED1
 62
    7
 10
763.82476271240307
 20
2247.2744603287769
 11
763.82476271240307
 21
2225.2744603287765
  0
LINE
  8
_0-b_ラッチ断面__扉側
  6
DASHED1
 62
    7
 10
769.58871271240298
 20
2220.274510328777
 11
774.06081271240282
 21
2220.274510328777
  0
LINE
  8
_0-b_ラッチ断面__扉側
  6
DASHED1
 62
    7
 10
775.32476271240284
 20
2218.2745103287766
 11
775.32476271240284
 21
2216.2745103287766
  0
LINE
  8
_0-b_ラッチ断面__扉側
  6
DASHED1
 62
    7
 10
768.32476271240295
 20
2218.2745103287766
 11
768.32476271240295
 21
2216.2745103287766
  0
LINE
  8
_0-b_ラッチ断面__扉側
  6
DASHED1
 62
    7
 10
768.32476271240295
 20
2216.2745103287766
 11
768.82476271240307
 21
2216.2745103287766
  0
LINE
  8
_0-b_ラッチ断面__扉側
  6
DASHED1
 62
    7
 10
774.82476271240273
 20
2216.2745103287766
 11
775.32476271240284
 21
2216.2745103287766
  0
LINE
  8
_0-b_ラッチ断面__扉側
  6
DASHED1
 62
    7
 10
775.32476271240284
 20
2211.2745103287766
 11
768.32476271240295
 21
2211.2745103287766
  0
LINE
  8
_0-b_ラッチ断面__扉側
  6
DASHED1
 62
    7
 10
775.37071271240279
 20
2211.3204603287767
 11
775.32476271240284
 21
2211.2745103287766
  0
LINE
  8
_0-b_ラッチ断面__扉側
  6
DASHED1
 62
    7
 10
768.278812712403
 20
2211.3204603287767
 11
768.32476271240295
 21
2211.2745103287766
  0
LINE
  8
_0-b_ラッチ断面__扉側
  6
DASHED1
 62
    7
 10
774.82476271240273
 20
2218.2745103287766
 11
774.82476271240273
 21
2212.274510328777
  0
LINE
  8
_0-b_ラッチ断面__扉側
  6
DASHED1
 62
    7
 10
768.82476271240307
 20
2218.2745103287766
 11
768.82476271240307
 21
2212.274510328777
  0
LINE
  8
_0-b_ラッチ断面__扉側
  6
DASHED1
 62
    7
 10
768.82476271240307
 20
2216.2745103287766
 11
774.82476271240273
 21
2216.2745103287766
  0
LINE
  8
_0-b_ラッチ断面__扉側
  6
DASHED1
 62
    7
 10
767.25371271240305
 20
2212.3455603287766
 11
768.278812712403
 21
2211.3204603287767
  0
LINE
  8
_0-b_ラッチ断面__扉側
  6
DASHED1
 62
    7
 10
776.39581271240274
 20
2212.3455603287766
 11
775.37071271240279
 21
2211.3204603287767
  0
LINE
  8
_0-b_ラッチ断面__扉側
  6
DASHED1
 62
    7
 10
779.32476271240284
 20
2219.4166103287766
 11
779.32476271240284
 21
2247.2744603287769
  0
LINE
  8
_0-b_ラッチ断面__扉側
  6
DASHED1
 62
    7
 10
764.32476271240284
 20
2219.4166103287766
 11
764.32476271240284
 21
2247.2744603287769
  0
LINE
  8
_0-b_ラッチ断面__扉側
  6
DASHED1
 62
    7
 10
758.64931271240288
 20
2239.0370603287765
 11
758.43781271240288
 21
2239.3125603287767
  0
LINE
  8
_0-b_ラッチ断面__扉側
  6
DASHED1
 62
    7
 10
758.64931271240288
 20
2239.0370603287765
 11
759.32476271240284
 21
2239.7744603287769
  0
LINE
  8
_0-b_ラッチ断面__扉側
  6
DASHED1
 62
    7
 10
758.43781271240288
 20
2239.3125603287767
 11
759.32476271240284
 21
2239.7744603287769
  0
LINE
  8
_0-b_ラッチ断面__扉側
  6
DASHED1
 62
    7
 10
779.82476271240273
 20
2247.2744603287769
 11
789.02476271240288
 21
2247.2744603287769
  0
LINE
  8
_0-b_ラッチ断面__扉側
  6
DASHED1
 62
    7
 10
763.82476271240307
 20
2247.2744603287769
 11
754.62476271240291
 21
2247.2744603287769
  0
LINE
  8
_0-b_ラッチ断面__扉側
  6
DASHED1
 62
    7
 10
772.82476271240284
 20
2247.2744603287769
 11
772.82476271240284
 21
2237.7748603287768
  0
LINE
  8
_0-b_ラッチ断面__扉側
  6
DASHED1
 62
    7
 10
770.82476271240295
 20
2247.2744603287769
 11
770.82476271240295
 21
2237.7748603287768
  0
LINE
  8
_0-b_ラッチ断面__扉側
  6
DASHED1
 62
    7
 10
771.32476271240307
 20
2237.2748603287764
 11
772.32476271240273
 21
2237.2748603287764
  0
LINE
  8
_0-b_ラッチ断面__扉側
  6
DASHED1
 62
    7
 10
770.82476271240295
 20
2241.4944603287767
 11
764.32476271240284
 21
2241.4944603287767
  0
LINE
  8
_0-b_ラッチ断面__扉側
  6
DASHED1
 62
    7
 10
779.32476271240284
 20
2241.4944603287767
 11
772.82476271240284
 21
2241.4944603287767
  0
LINE
  8
_0-b_ラッチ断面__扉側
  6
DASHED1
 62
    7
 10
770.82476271240295
 20
2241.8644603287771
 11
769.76401271240263
 21
2241.8644603287771
  0
LINE
  8
_0-b_ラッチ断面__扉側
  6
DASHED1
 62
    7
 10
767.38551271240282
 20
2241.8644603287771
 11
764.32476271240284
 21
2241.8644603287771
  0
LINE
  8
_0-b_ラッチ断面__扉側
  6
DASHED1
 62
    7
 10
779.32476271240284
 20
2241.8644603287771
 11
776.26401271240297
 21
2241.8644603287771
  0
LINE
  8
_0-b_ラッチ断面__扉側
  6
DASHED1
 62
    7
 10
773.8855127124026
 20
2241.8644603287771
 11
772.82476271240284
 21
2241.8644603287771
  0
LINE
  8
_0-b_ラッチ断面__扉側
  6
DASHED1
 62
    7
 10
791.32476271240307
 20
2237.2744603287769
 11
791.32476271240307
 21
2248.2744603287765
  0
LINE
  8
_0-b_ラッチ断面__扉側
  6
DASHED1
 62
    7
 10
789.32476271240284
 20
2236.2744603287769
 11
790.32476271240284
 21
2236.2744603287769
  0
LINE
  8
_0-b_ラッチ断面__扉側
  6
DASHED1
 62
    7
 10
789.32476271240284
 20
2246.9744603287767
 11
789.32476271240284
 21
2228.2744603287765
  0
LINE
  8
_0-b_ラッチ断面__扉側
  6
DASHED1
 62
    7
 10
752.32476271240273
 20
2237.2744603287769
 11
752.32476271240273
 21
2248.2744603287765
  0
LINE
  8
_0-b_ラッチ断面__扉側
  6
DASHED1
 62
    7
 10
754.32476271240284
 20
2236.2744603287769
 11
753.32476271240295
 21
2236.2744603287769
  0
LINE
  8
_0-b_ラッチ断面__扉側
  6
DASHED1
 62
    7
 10
754.32476271240284
 20
2246.9744603287767
 11
754.32476271240284
 21
2228.2744603287765
  0
LINE
  8
_0-b_ラッチ断面__扉側
  6
DASHED1
 62
    7
 10
771.82476271240284
 20
2283.9744603287767
 11
771.82476271240284
 21
2208.674460328777
  0
LINE
  8
_0-b_ラッチ断面__扉側
  6
DASHED1
 62
    7
 10
753.19476271240262
 20
2264.7744603287769
 11
792.22476271240282
 21
2264.7744603287769
  0
LINE
  8
_0-b_ラッチ断面__扉側
  6
DASHED1
 62
    7
 10
759.32476271240284
 20
2243.9244603287766
 11
759.32476271240284
 21
2235.674460328777
  0
LINE
  8
_0-b_ラッチ断面__扉側
  6
DASHED1
 62
    7
 10
762.57476271240307
 20
2239.7744603287769
 11
756.02476271240277
 21
2239.7744603287769
  0
LINE
  8
_0-b_ラッチ断面__扉側
  6
DASHED1
 62
    7
 10
784.32476271240284
 20
2243.5944603287771
 11
784.32476271240284
 21
2235.8744603287768
  0
LINE
  8
_0-b_ラッチ断面__扉側
  6
DASHED1
 62
    7
 10
781.05476271240286
 20
2239.7744603287769
 11
788.06476271240285
 21
2239.7744603287769
  0
LINE
  8
_0-b_ラッチ断面__扉側
  6
DASHED1
 62
    7
 10
775.38476271240278
 20
2213.7745103287766
 11
768.1147627124028
 21
2213.7745103287766
  0
ARC
  8
_0-b_ラッチ断面__扉側
  6
DASHED1
 62
    7
 10
780.32476271240284
 20
2273.2744603287765
 40
9
 50
0.0000000000000254
 51
90.000000000000056
  0
ARC
  8
_0-b_ラッチ断面__扉側
  6
DASHED1
 62
    7
 10
783.32476271240295
 20
2228.2744603287765
 40
6.0000000000000008
 50
270
 51
0
  0
ARC
  8
_0-b_ラッチ断面__扉側
  6
DASHED1
 62
    7
 10
782.82476271240284
 20
2225.2744603287765
 40
3.0000000000000004
 50
180.00000000000005
 51
270.00000000000005
  0
ARC
  8
_0-b_ラッチ断面__扉側
  6
DASHED1
 62
    7
 10
763.32476271240295
 20
2273.2744603287765
 40
9
 50
90.000000000000056
 51
180.00000000000011
  0
ARC
  8
_0-b_ラッチ断面__扉側
  6
DASHED1
 62
    7
 10
760.32476271240284
 20
2228.2744603287765
 40
6.0000000000000008
 50
180.00000000000005
 51
270.00000000000005
  0
ARC
  8
_0-b_ラッチ断面__扉側
  6
DASHED1
 62
    7
 10
760.82476271240295
 20
2225.2744603287765
 40
3.0000000000000004
 50
270
 51
0
  0
CIRCLE
  8
_0-b_ラッチ断面__扉側
  6
DASHED1
 62
    7
 10
759.32476271240284
 20
2239.7744603287769
 40
1.8999999999999999
  0
CIRCLE
  8
_0-b_ラッチ断面__扉側
  6
DASHED1
 62
    7
 10
784.32476271240284
 20
2239.7744603287769
 40
1.8999999999999999
  0
ARC
  8
_0-b_ラッチ断面__扉側
  6
DASHED1
 62
    7
 10
790.32476271240284
 20
2248.2744603287765
 40
1
 50
0.0000000000000254
 51
90.000000000000056
  0
ARC
  8
_0-b_ラッチ断面__扉側
  6
DASHED1
 62
    7
 10
753.32476271240295
 20
2248.2744603287765
 40
1
 50
90.000000000000056
 51
180.00000000000011
  0
ARC
  8
_0-b_ラッチ断面__扉側
  6
DASHED1
 62
    7
 10
756.32476271240307
 20
2249.2744603287769
 40
2
 50
180.00000000000005
 51
270.00000000000005
  0
ARC
  8
_0-b_ラッチ断面__扉側
  6
DASHED1
 62
    7
 10
763.32476271240295
 20
2246.3744603287768
 40
0.5
 50
270
 51
0
  0
ARC
  8
_0-b_ラッチ断面__扉側
  6
DASHED1
 62
    7
 10
762.32476271240273
 20
2246.3744603287768
 40
0.5
 50
180.00000000000005
 51
270.00000000000005
  0
ARC
  8
_0-b_ラッチ断面__扉側
  6
DASHED1
 62
    7
 10
780.32476271240284
 20
2246.3744603287768
 40
0.5
 50
180.00000000000005
 51
270.00000000000005
  0
ARC
  8
_0-b_ラッチ断面__扉側
  6
DASHED1
 62
    7
 10
781.32476271240307
 20
2246.3744603287768
 40
0.5
 50
270
 51
0
  0
ARC
  8
_0-b_ラッチ断面__扉側
  6
DASHED1
 62
    7
 10
787.32476271240273
 20
2249.2744603287769
 40
2
 50
270
 51
0
  0
ARC
  8
_0-b_ラッチ断面__扉側
  6
DASHED1
 62
    7
 10
771.82476271240284
 20
2218.2745103287766
 40
3.5000000000000008
 50
90.000000000000056
 51
180.00000000000011
  0
ARC
  8
_0-b_ラッチ断面__扉側
  6
DASHED1
 62
    7
 10
771.82476271240284
 20
2218.2745103287766
 40
3.5000000000000008
 50
0.0000000000000254
 51
90.000000000000056
  0
ARC
  8
_0-b_ラッチ断面__扉側
  6
DASHED1
 62
    7
 10
771.82476271240284
 20
2218.2745103287766
 40
3.0000000000000004
 50
138.19000000000005
 51
180.00000000000011
  0
ARC
  8
_0-b_ラッチ断面__扉側
  6
DASHED1
 62
    7
 10
771.82476271240284
 20
2218.2745103287766
 40
3.0000000000000004
 50
0.0000000000000254
 51
41.81000000000003
  0
ARC
  8
_0-b_ラッチ断面__扉側
  6
DASHED1
 62
    7
 10
769.82476271240273
 20
2212.274510328777
 40
1
 50
180.00000000000005
 51
270.00000000000005
  0
ARC
  8
_0-b_ラッチ断面__扉側
  6
DASHED1
 62
    7
 10
773.82476271240307
 20
2212.274510328777
 40
1
 50
270
 51
0
  0
ARC
  8
_0-b_ラッチ断面__扉側
  6
DASHED1
 62
    7
 10
774.32476271240284
 20
2219.4166103287766
 40
10
 50
180.00000000000005
 51
225.00000000000005
  0
ARC
  8
_0-b_ラッチ断面__扉側
  6
DASHED1
 62
    7
 10
769.32476271240284
 20
2219.4166103287766
 40
10
 50
315
 51
0
  0
ARC
  8
_0-b_ラッチ断面__扉側
  6
DASHED1
 62
    7
 10
789.02476271240288
 20
2246.9744603287767
 40
0.2999999999999998
 50
0.0000000000000254
 51
90.000000000000056
  0
ARC
  8
_0-b_ラッチ断面__扉側
  6
DASHED1
 62
    7
 10
754.62476271240291
 20
2246.9744603287767
 40
0.2999999999999998
 50
90.000000000000056
 51
180.00000000000011
  0
ARC
  8
_0-b_ラッチ断面__扉側
  6
DASHED1
 62
    7
 10
772.32476271240273
 20
2237.7748603287768
 40
0.5
 50
270
 51
0
  0
ARC
  8
_0-b_ラッチ断面__扉側
  6
DASHED1
 62
    7
 10
771.32476271240307
 20
2237.7748603287768
 40
0.5
 50
180.00000000000005
 51
270.00000000000005
  0
ARC
  8
_0-b_ラッチ断面__扉側
  6
DASHED1
 62
    7
 10
790.32476271240284
 20
2237.2744603287769
 40
1
 50
270
 51
0
  0
ARC
  8
_0-b_ラッチ断面__扉側
  6
DASHED1
 62
    7
 10
753.32476271240295
 20
2237.2744603287769
 40
1
 50
180.00000000000005
 51
270.00000000000005
  0
CIRCLE
  8
_0-b_ラッチ断面__扉側
  6
DASHED1
 62
    7
 10
775.07476271240307
 20
2237.274510328777
 40
2.3250000000000001
  0
CIRCLE
  8
_0-b_ラッチ断面__扉側
  6
DASHED1
 62
    7
 10
768.57476271240273
 20
2237.274510328777
 40
2.3250000000000001
  0
CIRCLE
  8
_0-b_ラッチ断面__扉側
  6
DASHED1
 62
    7
 10
768.57476271240273
 20
2243.7745103287766
 40
2.3250000000000001
  0
CIRCLE
  8
_0-b_ラッチ断面__扉側
  6
DASHED1
 62
    7
 10
775.07476271240307
 20
2243.7745103287766
 40
2.3250000000000001
  0
CIRCLE
  8
_0-b_ラッチ断面__扉側
  6
DASHED1
 62
    7
 10
771.82476271240284
 20
2213.7745103287766
 40
1.25
  0
LINE
  8
ADD_LINE
  6
DOT
 62
    9
 10
622.05073382680154
 20
144.42521185597115
 11
2202.0507338268016
 21
144.42521185597115
  0
LINE
  8
_0-0_立面本体
  6
CONTINUOUS
 62
    7
 10
622.05073382680154
 20
104.42521185597115
 11
622.05073382680154
 21
204.42521185597115
  0
LINE
  8
_0-0_立面本体
  6
CONTINUOUS
 62
    7
 10
162.05073382680211
 20
104.42521185597115
 11
602.05073382680154
 21
104.42521185597115
  0
LINE
  8
_0-0_立面本体
  6
CONTINUOUS
 62
    7
 10
162.05073382680211
 20
204.42521185597115
 11
602.05073382680154
 21
204.42521185597115
  0
LINE
  8
_0-0_立面本体
  6
CONTINUOUS
 62
    7
 10
1412.0507338268016
 20
104.42521185597115
 11
1412.0507338268016
 21
204.42521185597115
  0
LINE
  8
_0-0_立面本体
  6
CONTINUOUS
 62
    7
 10
2202.0507338268016
 20
104.42521185597115
 11
2202.0507338268016
 21
204.42521185597115
  0
LINE
  8
_0-0_立面本体
  6
CONTINUOUS
 62
    7
 10
2212.0507338268016
 20
104.42521185597115
 11
2212.0507338268016
 21
204.42521185597115
  0
LINE
  8
_0-0_立面本体
  6
CONTINUOUS
 62
    7
 10
622.05073382680154
 20
104.42521185597115
 11
2202.0507338268016
 21
104.42521185597115
  0
LINE
  8
_0-0_立面本体
  6
CONTINUOUS
 62
    7
 10
622.05073382680154
 20
204.42521185597115
 11
2202.0507338268016
 21
204.42521185597115
  0
LINE
  8
_0-0_立面本体
  6
CONTINUOUS
 62
    7
 10
2702.0507338268021
 20
104.42521185597115
 11
2702.0507338268021
 21
204.42521185597115
  0
LINE
  8
_0-0_立面本体
  6
CONTINUOUS
 62
    7
 10
2712.0507338268021
 20
104.42521185597115
 11
2712.0507338268021
 21
204.42521185597115
  0
LINE
  8
_0-0_立面本体
  6
CONTINUOUS
 62
    7
 10
2212.0507338268016
 20
104.42521185597115
 11
2702.0507338268021
 21
104.42521185597115
  0
LINE
  8
_0-0_立面本体
  6
CONTINUOUS
 62
    7
 10
2212.0507338268016
 20
204.42521185597115
 11
2702.0507338268021
 21
204.42521185597115
  0
LINE
  8
_0-0_立面本体
  6
CONTINUOUS
 62
    7
 10
3012.0507338268021
 20
104.42521185597115
 11
3012.0507338268021
 21
204.42521185597115
  0
LINE
  8
_0-0_立面本体
  6
CONTINUOUS
 62
    7
 10
3312.0507338268021
 20
104.42521185597115
 11
3312.0507338268021
 21
204.42521185597115
  0
LINE
  8
_0-0_立面本体
  6
CONTINUOUS
 62
    7
 10
3692.0507338268021
 20
104.42521185597115
 11
3692.0507338268021
 21
204.42521185597115
  0
LINE
  8
_0-0_立面本体
  6
CONTINUOUS
 62
    7
 10
2712.0507338268021
 20
104.42521185597115
 11
4102.0507338268025
 21
104.42521185597115
  0
LINE
  8
_0-0_立面本体
  6
CONTINUOUS
 62
    7
 10
4102.0507338268025
 20
104.42521185597115
 11
4102.0507338268025
 21
204.42521185597115
  0
LINE
  8
_0-0_立面本体
  6
CONTINUOUS
 62
    7
 10
2712.0507338268021
 20
204.42521185597115
 11
4102.0507338268025
 21
204.42521185597115
  0
LINE
  8
_0-0_立面本体
  6
CONTINUOUS
 62
    7
 10
162.05073382680211
 20
154.42521185597115
 11
602.05073382680154
 21
154.42521185597115
  0
LINE
  8
ADD_LINE
  6
DOT
 62
    9
 10
622.05073382680154
 20
184.42521185597115
 11
2202.0507338268016
 21
184.42521185597115
  0
LINE
  8
ADD_LINE
  6
DOT
 62
    9
 10
647.05073382680154
 20
104.42521185597115
 11
647.05073382680154
 21
204.42521185597115
  0
LINE
  8
ADD_LINE
  6
DOT
 62
    9
 10
1437.0507338268016
 20
104.42521185597115
 11
1437.0507338268016
 21
204.42521185597115
  0
LINE
  8
ADD_LINE
  6
DOT
 62
    9
 10
2737.0507338268021
 20
104.42521185597115
 11
2737.0507338268021
 21
204.42521185597115
  0
LINE
  8
ADD_LINE
  6
DOT
 62
    9
 10
3037.0507338268021
 20
104.42521185597115
 11
3037.0507338268021
 21
204.42521185597115
  0
LINE
  8
ADD_LINE
  6
DOT
 62
    9
 10
3337.0507338268021
 20
104.42521185597115
 11
3337.0507338268021
 21
204.42521185597115
  0
LINE
  8
ADD_LINE
  6
DOT
 62
    9
 10
3717.0507338268021
 20
104.42521185597115
 11
3717.0507338268021
 21
204.42521185597115
  0
LINE
  8
ADD_LINE
  6
DOT
 62
    9
 10
2712.0507338268021
 20
184.42521185597115
 11
4102.0507338268025
 21
184.42521185597115
  0
LINE
  8
ADD_LINE
  6
DOT
 62
    9
 10
2712.0507338268021
 20
144.42521185597115
 11
4102.0507338268025
 21
144.42521185597115
  0
TEXT
  8
_0-0_立面本体
 62
    7
 10
647.05073382680041
 20
171.92521185597115
 40
25
 41
0.8
 50
0
  1
名　称
  0
TEXT
  8
_0-0_立面本体
 62
    7
 10
1437.0507338268025
 20
171.92521185597115
 40
25
 41
0.8
 50
0
  1
図面名称
  0
TEXT
  8
_0-0_立面本体
 62
    7
 10
2737.0507338268016
 20
171.92521185597115
 40
25
 41
0.64
 50
0
  1
ＳＣＡＬＥ
  0
LINE
  8
ADD_LINE
  6
DOT
 62
    9
 10
3672.0507338268021
 20
104.42521185597115
 11
3672.0507338268021
 21
204.42521185597115
  0
TEXT
  8
_0-0_立面本体
 62
    7
 10
3037.0507338268021
 20
171.92521185597115
 40
25
 41
0.64
 50
0
  1
ＤＡＴＡ
  0
TEXT
  8
_0-0_立面本体
 62
    7
 10
3717.0507338268021
 20
171.92521185597115
 40
25
 41
0.64
 50
0
  1
ＳＨＥＥＴ　ＮＯ．
  0
TEXT
  8
_0-0_立面本体
 62
    7
 10
2824.007169387964
 20
125.15256180468327
 40
35
 41
0.5714285714285713
 50
0
  1
１／１０
  0
TEXT
  8
_0-0_立面本体
 62
    7
 10
3337.0507338268021
 20
171.92521185597115
 40
25
 41
0.64
 50
0
  1
ＣＨＥＣＫＥＤ
  0
TEXT
  8
_0-0_立面本体
 62
    7
 10
3554.0507338268025
 20
171.92521185597115
 40
25
 41
0.64
 50
0
  1
ＤＲＡＷＩＮＧ
  0
TEXT
  8
_0-d_ラッチ平面__扉側
 62
    7
 10
3857.5859827624976
 20
2089.2162833038482
 40
35
 41
0.857142857142857
 50
0
  1
扉　色
  0
TEXT
  8
_0-d_ラッチ平面__扉側
 62
    7
 10
3712.6771425682336
 20
2021.716283303848
 40
35
 41
0.857142857142857
 50
0
  1
ＳＷ
  0
TEXT
  8
_0-d_ラッチ平面__扉側
 62
    7
 10
3827.2070429756568
 20
2021.716283303848
 40
35
 41
0.857142857142857
 50
0
  1
ホワイト
  0
TEXT
  8
_0-d_ラッチ平面__扉側
 62
    7
 10
3717.6685979779213
 20
1962.3056101196284
 40
35
 41
0.857142857142857
 50
0
  1
ＬＧ
  0
TEXT
  8
_0-d_ラッチ平面__扉側
 62
    7
 10
3827.3060368806932
 20
1962.3056101196284
 40
35
 41
0.857142857142857
 50
0
  1
木　　目
  0
TEXT
  8
_0-d_ラッチ平面__扉側
 62
    7
 10
3712.6771425682336
 20
1896.716283303848
 40
35
 41
0.857142857142857
 50
0
  1
ＵＷ
  0
TEXT
  8
_0-d_ラッチ平面__扉側
 62
    7
 10
3827.2070429756568
 20
1896.716283303848
 40
35
 41
0.857142857142857
 50
0
  1
ｳﾙﾄﾗﾎﾜｲﾄ（艶有）
  0
TEXT
  8
_0-d_ラッチ平面__扉側
 62
    7
 10
3717.6685979779213
 20
1837.3056101196284
 40
35
 41
0.857142857142857
 50
0
  1
ＷＮ
  0
TEXT
  8
_0-d_ラッチ平面__扉側
 62
    7
 10
3827.2070429756568
 20
1836.716283303848
 40
35
 41
0.857142857142857
 50
0
  1
ｳｨﾝｻﾞｰﾅｯﾄ（艶有）
  0
LINE
  8
ADD_LINE
  6
DOT
 62
    9
 10
3682.2070429756577
 20
2139.2162833038482
 11
3697.2070429756577
 21
2139.2162833038482
  0
LINE
  8
ADD_LINE
  6
DOT
 62
    9
 10
3697.2070429756577
 20
2139.2162833038482
 11
3697.2070429756577
 21
2154.2162833038482
  0
LINE
  8
ADD_LINE
  6
DOT
 62
    9
 10
3697.2070429756577
 20
2154.2162833038482
 11
3682.2070429756577
 21
2154.2162833038482
  0
LINE
  8
ADD_LINE
  6
DOT
 62
    9
 10
3682.2070429756577
 20
2154.2162833038482
 11
3682.2070429756577
 21
2139.2162833038482
  0
LINE
  8
_0-d_ラッチ平面__扉側
  6
CONTINUOUS
 62
    3
 10
4111.9649225493367
 20
2139.2162833038482
 11
4111.9649225493367
 21
1644.2162833038473
  0
LINE
  8
ADD_LINE
  6
DOT
 62
    9
 10
3827.2070429756568
 20
2069.2162833038482
 11
3827.2070429756568
 21
1949.216283303848
  0
LINE
  8
_0-d_ラッチ平面__扉側
  6
CONTINUOUS
 62
    7
 10
3797.2070429756581
 20
2069.2162833038482
 11
3797.2070429756581
 21
1949.216283303848
  0
TEXT
  8
_0-d_ラッチ平面__扉側
 62
    7
 10
3717.6685979779213
 20
1777.3056101196284
 40
35
 41
0.857142857142857
 50
0
  1
ＢＳ
  0
TEXT
  8
_0-d_ラッチ平面__扉側
 62
    7
 10
3827.3060368806927
 20
1777.3056101196284
 40
35
 41
0.857142857142857
 50
0
  1
ブラックストーン
  0
LINE
  8
ADD_LINE
  6
DOT
 62
    9
 10
3747.2070429756581
 20
2069.2162833038482
 11
3747.2070429756581
 21
1949.216283303848
  0
LINE
  8
_0-d_ラッチ平面__扉側
  6
CONTINUOUS
 62
    3
 10
3697.2070429756581
 20
2139.2162833038482
 11
3697.2070429756581
 21
1644.2162833038473
  0
LINE
  8
_0-d_ラッチ平面__扉側
  6
CONTINUOUS
 62
    7
 10
3797.2070429756581
 20
1944.216283303848
 11
3797.2070429756581
 21
1644.2162833038473
  0
LINE
  8
ADD_LINE
  6
DOT
 62
    9
 10
3827.2070429756568
 20
1944.216283303848
 11
3827.2070429756568
 21
1644.2162833038473
  0
LINE
  8
ADD_LINE
  6
DOT
 62
    9
 10
3747.2070429756581
 20
1944.216283303848
 11
3747.2070429756581
 21
1644.2162833038473
  0
TEXT
  8
_0-d_ラッチ平面__扉側
 62
    7
 10
3717.6685979779213
 20
1717.3056101196277
 40
35
 41
0.857142857142857
 50
0
  1
ＰＭ
  0
TEXT
  8
_0-d_ラッチ平面__扉側
 62
    7
 10
3827.3060368806932
 20
1717.3056101196277
 40
35
 41
0.857142857142857
 50
0
  1
ペールグレイン
  0
TEXT
  8
_0-d_ラッチ平面__扉側
 62
    7
 10
3717.6685979779213
 20
1657.3056101196277
 40
35
 41
0.857142857142857
 50
0
  1
ＭＤ
  0
TEXT
  8
_0-d_ラッチ平面__扉側
 62
    7
 10
3827.3060368806932
 20
1657.3056101196277
 40
35
 41
0.857142857142857
 50
0
  1
ダークグレイン
  0
LINE
  8
_0-d_ラッチ平面__扉側
  6
CONTINUOUS
 62
    3
 10
4111.9649225493367
 20
2139.2162833038482
 11
3697.2070429756581
 21
2139.2162833038482
  0
LINE
  8
_0-d_ラッチ平面__扉側
  6
CONTINUOUS
 62
    3
 10
4111.9649225493367
 20
1644.2162833038473
 11
3697.2070429756581
 21
1644.2162833038473
  0
LINE
  8
_0-d_ラッチ平面__扉側
  6
CONTINUOUS
 62
    7
 10
3697.2070429756581
 20
2009.216283303848
 11
4111.9649225493367
 21
2009.216283303848
  0
LINE
  8
_0-d_ラッチ平面__扉側
  6
CONTINUOUS
 62
    7
 10
4111.9649225493367
 20
2009.216283303848
 11
3697.2070429756581
 21
2009.216283303848
  0
LINE
  8
_0-d_ラッチ平面__扉側
  6
CONTINUOUS
 62
    3
 10
4111.9649225493367
 20
2009.216283303848
 11
3697.2070429756581
 21
2009.216283303848
  0
LINE
  8
_0-d_ラッチ平面__扉側
  6
CONTINUOUS
 62
    3
 10
4111.9649225493367
 20
1949.216283303848
 11
3697.2070429756581
 21
1949.216283303848
  0
LINE
  8
ADD_LINE
  6
DOT
 62
    9
 10
3697.2070429756581
 20
1979.216283303848
 11
4111.9649225493367
 21
1979.216283303848
  0
LINE
  8
_0-d_ラッチ平面__扉側
  6
CONTINUOUS
 62
    7
 10
4111.9649225493367
 20
1884.216283303848
 11
3697.2070429756581
 21
1884.216283303848
  0
LINE
  8
_0-d_ラッチ平面__扉側
  6
CONTINUOUS
 62
    3
 10
4111.9649225493367
 20
1884.216283303848
 11
3697.2070429756581
 21
1884.216283303848
  0
LINE
  8
_0-d_ラッチ平面__扉側
  6
CONTINUOUS
 62
    3
 10
4111.9649225493367
 20
1824.216283303848
 11
3697.2070429756581
 21
1824.216283303848
  0
LINE
  8
_0-d_ラッチ平面__扉側
  6
CONTINUOUS
 62
    7
 10
3697.2070429756581
 20
1884.216283303848
 11
4111.9649225493367
 21
1884.216283303848
  0
LINE
  8
_0-d_ラッチ平面__扉側
  6
CONTINUOUS
 62
    7
 10
4111.9649225493367
 20
1949.216283303848
 11
3697.2070429756581
 21
1949.216283303848
  0
LINE
  8
_0-d_ラッチ平面__扉側
  6
CONTINUOUS
 62
    7
 10
4111.9649225493367
 20
1944.216283303848
 11
3697.2070429756581
 21
1944.216283303848
  0
LINE
  8
ADD_LINE
  6
DOT
 62
    9
 10
3697.2070429756581
 20
1914.216283303848
 11
4111.9649225493367
 21
1914.216283303848
  0
LINE
  8
ADD_LINE
  6
DOT
 62
    9
 10
3697.2070429756581
 20
1854.216283303848
 11
4111.9649225493367
 21
1854.216283303848
  0
LINE
  8
_0-d_ラッチ平面__扉側
  6
CONTINUOUS
 62
    7
 10
4111.9649225493367
 20
1824.216283303848
 11
3697.2070429756581
 21
1824.216283303848
  0
LINE
  8
_0-d_ラッチ平面__扉側
  6
CONTINUOUS
 62
    3
 10
4111.9649225493367
 20
1824.216283303848
 11
3697.2070429756581
 21
1824.216283303848
  0
LINE
  8
_0-d_ラッチ平面__扉側
  6
CONTINUOUS
 62
    3
 10
4111.9649225493367
 20
1764.2162833038473
 11
3697.2070429756581
 21
1764.2162833038473
  0
LINE
  8
_0-d_ラッチ平面__扉側
  6
CONTINUOUS
 62
    7
 10
3697.2070429756581
 20
1824.216283303848
 11
4111.9649225493367
 21
1824.216283303848
  0
LINE
  8
ADD_LINE
  6
DOT
 62
    9
 10
3697.2070429756581
 20
1794.2162833038473
 11
4111.9649225493367
 21
1794.2162833038473
  0
LINE
  8
_0-d_ラッチ平面__扉側
  6
CONTINUOUS
 62
    7
 10
4111.9649225493367
 20
1764.2162833038473
 11
3697.2070429756581
 21
1764.2162833038473
  0
LINE
  8
_0-d_ラッチ平面__扉側
  6
CONTINUOUS
 62
    3
 10
4111.9649225493367
 20
1764.2162833038473
 11
3697.2070429756581
 21
1764.2162833038473
  0
LINE
  8
_0-d_ラッチ平面__扉側
  6
CONTINUOUS
 62
    3
 10
4111.9649225493367
 20
1704.2162833038473
 11
3697.2070429756581
 21
1704.2162833038473
  0
LINE
  8
_0-d_ラッチ平面__扉側
  6
CONTINUOUS
 62
    7
 10
3697.2070429756581
 20
1764.2162833038473
 11
4111.9649225493367
 21
1764.2162833038473
  0
LINE
  8
ADD_LINE
  6
DOT
 62
    9
 10
3697.2070429756581
 20
1734.2162833038473
 11
4111.9649225493367
 21
1734.2162833038473
  0
LINE
  8
_0-d_ラッチ平面__扉側
  6
CONTINUOUS
 62
    7
 10
4111.9649225493367
 20
1704.2162833038473
 11
3697.2070429756581
 21
1704.2162833038473
  0
LINE
  8
_0-d_ラッチ平面__扉側
  6
CONTINUOUS
 62
    3
 10
4111.9649225493367
 20
1704.2162833038473
 11
3697.2070429756581
 21
1704.2162833038473
  0
LINE
  8
_0-d_ラッチ平面__扉側
  6
CONTINUOUS
 62
    7
 10
3697.2070429756581
 20
1704.2162833038473
 11
4111.9649225493367
 21
1704.2162833038473
  0
LINE
  8
ADD_LINE
  6
DOT
 62
    9
 10
3697.2070429756581
 20
1674.2162833038473
 11
4111.9649225493367
 21
1674.2162833038473
  0
LINE
  8
ADD_LINE
  6
DOT
 62
    9
 10
3697.2070429756581
 20
2039.216283303848
 11
4111.9649225493367
 21
2039.216283303848
  0
LINE
  8
_0-d_ラッチ平面__扉側
  6
CONTINUOUS
 62
    7
 10
4111.9649225493367
 20
2069.2162833038482
 11
3697.2070429756581
 21
2069.2162833038482
  0
LINE
  8
ADD_LINE
  6
DOT
 62
    9
 10
3697.2070429756581
 20
2106.7162833038482
 11
4111.9649225493367
 21
2106.7162833038482
  0
LINE
  8
_0-d_ラッチ平面__扉側
  6
CONTINUOUS
 62
    7
 10
4111.9649225493367
 20
2074.2162833038482
 11
3697.2070429756581
 21
2074.2162833038482
  0
LINE
  8
ADD_LINE
  6
DOT
 62
    9
 10
3904.5859827624972
 20
2139.2162833038482
 11
3904.5859827624972
 21
2074.2162833038482
  0
LINE
  8
ADD_LINE
  6
DOT
 62
    9
 10
4111.9649225493367
 20
2854.2162833038482
 11
4127.7167019027483
 21
2854.2162833038482
  0
LINE
  8
_0-d_ラッチ平面__扉側
  6
CONTINUOUS
 62
    7
 10
4111.9649225493367
 20
2294.2162833038482
 11
2831.7077254749301
 21
2294.2162833038482
  0
TEXT
  8
_0-d_ラッチ平面__扉側
 62
    7
 10
2911.5604965184361
 20
2733.8962864735085
 40
35
 41
0.857142857142857
 50
0
  1
天　板
  0
LINE
  8
_0-d_ラッチ平面__扉側
  6
CONTINUOUS
 62
    3
 10
4111.9649225493367
 20
2854.2162833038482
 11
2831.7077254749301
 21
2854.2162833038482
  0
TEXT
  8
_0-d_ラッチ平面__扉側
 62
    7
 10
3277.2082254749307
 20
2804.2162833038482
 40
35
 41
0.857142857142857
 50
0
  1
仕　様
  0
TEXT
  8
_0-d_ラッチ平面__扉側
 62
    7
 10
3171.7077254749301
 20
2731.7162833038482
 40
35
 41
0.857142857142857
 50
0
  1
片面化粧パーティクルボード　１５ｔ
  0
LINE
  8
_0-d_ラッチ平面__扉側
  6
CONTINUOUS
 62
    3
 10
2831.7077254749301
 20
2224.2162833038482
 11
4111.9649225493367
 21
2224.2162833038482
  0
LINE
  8
_0-d_ラッチ平面__扉側
  6
CONTINUOUS
 62
    7
 10
4111.9649225493367
 20
2574.2162833038482
 11
2831.7077254749301
 21
2574.2162833038482
  0
LINE
  8
_0-d_ラッチ平面__扉側
  6
CONTINUOUS
 62
    7
 10
4111.9649225493367
 20
2504.2162833038482
 11
2831.7077254749301
 21
2504.2162833038482
  0
LINE
  8
_0-d_ラッチ平面__扉側
  6
CONTINUOUS
 62
    7
 10
4111.9649225493367
 20
2434.2162833038482
 11
2831.7077254749301
 21
2434.2162833038482
  0
LINE
  8
_0-d_ラッチ平面__扉側
  6
CONTINUOUS
 62
    7
 10
4111.9649225493367
 20
2364.2162833038482
 11
2831.7077254749301
 21
2364.2162833038482
  0
LINE
  8
_0-d_ラッチ平面__扉側
  6
CONTINUOUS
 62
    7
 10
4111.9649225493367
 20
2644.2162833038482
 11
2831.7077254749301
 21
2644.2162833038482
  0
LINE
  8
_0-d_ラッチ平面__扉側
  6
CONTINUOUS
 62
    7
 10
4111.9649225493367
 20
2714.2162833038482
 11
2831.7077254749301
 21
2714.2162833038482
  0
LINE
  8
_0-d_ラッチ平面__扉側
  6
CONTINUOUS
 62
    7
 10
4111.9649225493367
 20
2784.2162833038482
 11
2831.7077254749301
 21
2784.2162833038482
  0
LINE
  8
_0-d_ラッチ平面__扉側
  6
CONTINUOUS
 62
    7
 10
4111.9649225493367
 20
2789.2162833038482
 11
2831.7077254749301
 21
2789.2162833038482
  0
TEXT
  8
_0-d_ラッチ平面__扉側
 62
    7
 10
2911.7077254749306
 20
2241.7162833038482
 40
35
 41
0.857142857142857
 50
0
  1
棚　板
  0
TEXT
  8
_0-d_ラッチ平面__扉側
 62
    7
 10
2911.7077254749306
 20
2311.7162833038482
 40
35
 41
0.857142857142857
 50
0
  1
丁　番
  0
TEXT
  8
_0-d_ラッチ平面__扉側
 62
    7
 10
2911.7077254749301
 20
2381.7162833038482
 40
35
 41
0.857142857142857
 50
0
  1
　扉
  0
TEXT
  8
_0-d_ラッチ平面__扉側
 62
    7
 10
2911.7077254749306
 20
2451.7162833038482
 40
35
 41
0.857142857142857
 50
0
  1
背　板
  0
TEXT
  8
_0-d_ラッチ平面__扉側
 62
    7
 10
2911.7077254749292
 20
2521.7162833038482
 40
35
 41
0.857142857142857
 50
0
  1
見　上　板
  0
TEXT
  8
_0-d_ラッチ平面__扉側
 62
    7
 10
2911.7077254749306
 20
2661.7162833038482
 40
35
 41
0.857142857142857
 50
0
  1
左　側　板
  0
TEXT
  8
_0-d_ラッチ平面__扉側
 62
    7
 10
2911.7077254749292
 20
2591.7162833038482
 40
35
 41
0.857142857142857
 50
0
  1
右　側　板
  0
TEXT
  8
_0-d_ラッチ平面__扉側
 62
    7
 10
3171.7077254749301
 20
2521.7162833038482
 40
35
 41
0.857142857142857
 50
0
  1
両面フラッシュ２０．５ｔ　片面不燃材６ｔ貼
  0
TEXT
  8
_0-d_ラッチ平面__扉側
 62
    7
 10
3174.1517563557445
 20
2661.7458236376273
 40
35
 41
0.857142857142857
 50
0
  1
両面フラッシュ１４．５ｔ　片側不燃材９ｔ貼
  0
LINE
  8
ADD_LINE
  6
DOT
 62
    9
 10
2832.9442479251492
 20
2821.7162833038482
 11
4111.9649225493367
 21
2821.7162833038482
  0
LINE
  8
ADD_LINE
  6
DOT
 62
    9
 10
3324.2082254749307
 20
2854.2162833038482
 11
3324.2082254749307
 21
2789.2162833038482
  0
LINE
  8
ADD_LINE
  6
DOT
 62
    9
 10
2834.5733201896364
 20
2749.2162833038482
 11
4111.9649225493367
 21
2749.2162833038482
  0
LINE
  8
ADD_LINE
  6
DOT
 62
    9
 10
2834.5733201896364
 20
2679.2162833038482
 11
4111.9649225493367
 21
2679.2162833038482
  0
LINE
  8
ADD_LINE
  6
DOT
 62
    9
 10
2832.9442479251492
 20
2609.2162833038482
 11
4111.9649225493367
 21
2609.2162833038482
  0
LINE
  8
ADD_LINE
  6
DOT
 62
    9
 10
2832.9442479251492
 20
2539.2162833038482
 11
4111.9649225493367
 21
2539.2162833038482
  0
LINE
  8
ADD_LINE
  6
DOT
 62
    9
 10
2832.9442479251492
 20
2469.2162833038482
 11
4111.9649225493367
 21
2469.2162833038482
  0
LINE
  8
ADD_LINE
  6
DOT
 62
    9
 10
2832.9442479251492
 20
2399.2162833038482
 11
4111.9649225493367
 21
2399.2162833038482
  0
LINE
  8
ADD_LINE
  6
DOT
 62
    9
 10
2832.9442479251492
 20
2329.2162833038482
 11
4111.9649225493367
 21
2329.2162833038482
  0
LINE
  8
ADD_LINE
  6
DOT
 62
    9
 10
2831.7077254749301
 20
2259.2162833038482
 11
4111.9649225493367
 21
2259.2162833038482
  0
LINE
  8
_0-d_ラッチ平面__扉側
  6
CONTINUOUS
 62
    7
 10
4111.9649225493367
 20
2224.2162833038482
 11
2831.7077254749301
 21
2224.2162833038482
  0
LINE
  8
_0-d_ラッチ平面__扉側
  6
CONTINUOUS
 62
    3
 10
2831.7077254749301
 20
2154.2162833038482
 11
4111.9649225493367
 21
2154.2162833038482
  0
LINE
  8
ADD_LINE
  6
DOT
 62
    9
 10
2831.7077254749301
 20
2189.2162833038482
 11
4111.9649225493367
 21
2189.2162833038482
  0
LINE
  8
_0-d_ラッチ平面__扉側
  6
CONTINUOUS
 62
    3
 10
2831.7077254749301
 20
2854.2162833038482
 11
2831.7077254749301
 21
2154.2162833038482
  0
LINE
  8
_0-d_ラッチ平面__扉側
  6
CONTINUOUS
 62
    3
 10
4111.9649225493367
 20
2854.2162833038482
 11
4111.9649225493367
 21
2154.2162833038482
  0
LINE
  8
_0-d_ラッチ平面__扉側
  6
CONTINUOUS
 62
    7
 10
3131.7077254749301
 20
2784.2162833038482
 11
3131.7077254749301
 21
2154.2162833038482
  0
LINE
  8
ADD_LINE
  6
DOT
 62
    9
 10
2911.7077254749301
 20
2784.2162833038482
 11
2911.7077254749301
 21
2154.2162833038482
  0
LINE
  8
ADD_LINE
  6
DOT
 62
    9
 10
3171.7077254749301
 20
2784.2162833038482
 11
3171.7077254749301
 21
2154.2162833038482
  0
TEXT
  8
_0-d_ラッチ平面__扉側
 62
    7
 10
3171.7077254749297
 20
2171.7162833038482
 40
35
 41
0.857142857142857
 50
0
  1
アルミ一文字把手
  0
TEXT
  8
_0-d_ラッチ平面__扉側
 62
    7
 10
3171.7077254749306
 20
2451.7162833038482
 40
35
 41
0.857142857142857
 50
0
  1
カラーＭＤＦ・落とし込み
  0
TEXT
  8
_0-d_ラッチ平面__扉側
 62
    7
 10
2911.7077254749292
 20
2171.7162833038482
 40
35
 41
0.857142857142857
 50
0
  1
把　手
  0
TEXT
  8
_0-d_ラッチ平面__扉側
 62
    7
 10
3171.7077254749301
 20
2241.7162833038482
 40
35
 41
0.857142857142857
 50
0
  1
可動式　棚板　１５ｔ
  0
TEXT
  8
_0-d_ラッチ平面__扉側
 62
    7
 10
3171.7077254749301
 20
2311.7162833038482
 40
35
 41
0.857142857142857
 50
0
  1
ワンタッチスライド式丁番
  0
TEXT
  8
_0-d_ラッチ平面__扉側
 62
    7
 10
3174.1517563557445
 20
2591.7458236376273
 40
35
 41
0.857142857142857
 50
0
  1
両面フラッシュ１４．５ｔ　片側不燃材９ｔ貼
  0
LINE
  8
ADD_LINE
  6
DOT
 62
    9
 10
4111.9649225493367
 20
2854.2162833038482
 11
4111.9649225493367
 21
2868.7632135306557
  0
LINE
  8
_0-8_ラッチ立面__受け
  6
CONTINUOUS
 62
    4
 10
834.77801268498956
 20
1918.7336152219872
 11
1084.7780126849895
 21
1918.7336152219872
  0
LINE
  8
_0-8_ラッチ立面__受け
  6
CONTINUOUS
 62
    4
 10
834.77801268498956
 20
1988.7336152219872
 11
834.77801268498956
 21
1918.7336152219872
  0
LINE
  8
_0-8_ラッチ立面__受け
  6
CONTINUOUS
 62
    4
 10
1084.7780126849895
 20
1988.7336152219872
 11
834.77801268498956
 21
1988.7336152219872
  0
LINE
  8
_0-8_ラッチ立面__受け
  6
CONTINUOUS
 62
    4
 10
1084.7780126849895
 20
1918.7336152219872
 11
1084.7780126849895
 21
1988.7336152219872
  0
TEXT
  8
_0-8_ラッチ立面__受け
 62
    7
 10
909.93762905067433
 20
1938.7336152219872
 40
30
 41
1
 50
0
  1
平面図
  0
LINE
  8
_0-8_ラッチ立面__受け
  6
CONTINUOUS
 62
    4
 10
835.09724541635864
 20
411.67369927125179
 11
835.09724541635864
 21
341.67369927125179
  0
LINE
  8
_0-8_ラッチ立面__受け
  6
CONTINUOUS
 62
    4
 10
835.09724541635864
 20
411.67369927125179
 11
1085.0972454163588
 21
411.67369927125179
  0
LINE
  8
_0-8_ラッチ立面__受け
  6
CONTINUOUS
 62
    4
 10
1085.0972454163588
 20
411.67369927125179
 11
1085.0972454163588
 21
341.67369927125179
  0
LINE
  8
_0-8_ラッチ立面__受け
  6
CONTINUOUS
 62
    4
 10
1085.0972454163588
 20
341.67369927125179
 11
835.09724541635864
 21
341.67369927125179
  0
LINE
  8
_0-8_ラッチ立面__受け
  6
CONTINUOUS
 62
    4
 10
1986.05485360601
 20
411.5842343587721
 11
1986.05485360601
 21
341.5842343587721
  0
LINE
  8
_0-8_ラッチ立面__受け
  6
CONTINUOUS
 62
    4
 10
1986.05485360601
 20
341.5842343587721
 11
2236.05485360601
 21
341.5842343587721
  0
LINE
  8
_0-8_ラッチ立面__受け
  6
CONTINUOUS
 62
    4
 10
2236.05485360601
 20
341.5842343587721
 11
2236.05485360601
 21
411.5842343587721
  0
LINE
  8
_0-8_ラッチ立面__受け
  6
CONTINUOUS
 62
    4
 10
2236.05485360601
 20
411.5842343587721
 11
1986.05485360601
 21
411.5842343587721
  0
LINE
  8
_0-8_ラッチ立面__受け
  6
CONTINUOUS
 62
    4
 10
3245.194303151034
 20
411.51252889017058
 11
3245.194303151034
 21
341.51252889017041
  0
LINE
  8
_0-8_ラッチ立面__受け
  6
CONTINUOUS
 62
    4
 10
3245.194303151034
 20
341.51252889017041
 11
3495.1943031510345
 21
341.51252889017041
  0
LINE
  8
_0-8_ラッチ立面__受け
  6
CONTINUOUS
 62
    4
 10
3495.1943031510345
 20
341.51252889017041
 11
3495.1943031510345
 21
411.51252889017058
  0
LINE
  8
_0-8_ラッチ立面__受け
  6
CONTINUOUS
 62
    4
 10
3495.1943031510345
 20
411.51252889017058
 11
3245.194303151034
 21
411.51252889017058
  0
TEXT
  8
_0-8_ラッチ立面__受け
 62
    7
 10
3320.1943031510359
 20
361.51252889017041
 40
30
 41
1
 50
0
  1
背面図
  0
TEXT
  8
_0-8_ラッチ立面__受け
 62
    7
 10
910.09724541635864
 20
361.67369927125179
 40
30
 41
1
 50
0
  1
立面図
  0
TEXT
  8
_0-8_ラッチ立面__受け
 62
    7
 10
2061.05485360601
 20
361.5842343587721
 40
30
 41
1
 50
0
  1
断面図
  0
LINE
  8
ADD_LINE
  6
DOT
 62
    7
 10
959.93762905067433
 20
1988.7336152219872
 11
959.93762905067433
 21
1918.7336152219872
  0
LINE
  8
ADD_LINE
  6
DOT
 62
    7
 10
834.77801268498956
 20
1953.7336152219872
 11
1084.7780126849895
 21
1953.7336152219872
  0
LINE
  8
ADD_LINE
  6
DOT
 62
    7
 10
960.09724541635864
 20
411.67369927125179
 11
960.09724541635864
 21
341.67369927125179
  0
LINE
  8
ADD_LINE
  6
DOT
 62
    7
 10
835.09724541635864
 20
376.67369927125179
 11
1085.0972454163588
 21
376.67369927125179
  0
LINE
  8
ADD_LINE
  6
DOT
 62
    7
 10
2111.05485360601
 20
411.5842343587721
 11
2111.05485360601
 21
341.5842343587721
  0
LINE
  8
ADD_LINE
  6
DOT
 62
    7
 10
1986.05485360601
 20
376.5842343587721
 11
2236.05485360601
 21
376.5842343587721
  0
LINE
  8
ADD_LINE
  6
DOT
 62
    7
 10
3370.1943031510345
 20
411.51252889017058
 11
3370.1943031510345
 21
341.51252889017041
  0
LINE
  8
ADD_LINE
  6
DOT
 62
    7
 10
3245.194303151034
 20
376.51252889017041
 11
3495.1943031510345
 21
376.51252889017041
  0
LINE
  8
_f-e_
  6
CONTINUOUS
 62
    7
 10
87.716701902748468
 20
2868.7632135306557
 11
87.716701902748468
 21
48.763213530655491
  0
LINE
  8
_f-e_
  6
CONTINUOUS
 62
    7
 10
87.716701902748468
 20
48.763213530655491
 11
4127.7167019027483
 21
48.763213530655491
  0
LINE
  8
_f-e_
  6
CONTINUOUS
 62
    7
 10
4127.7167019027483
 20
48.763213530655491
 11
4127.7167019027483
 21
2868.7632135306557
  0
LINE
  8
_f-e_
  6
CONTINUOUS
 62
    7
 10
4127.7167019027483
 20
2868.7632135306557
 11
87.716701902748468
 21
2868.7632135306557
  0
TEXT
  8
_f-0_
 62
    7
 10
1530.0386130811662
 20
122.04885736800633
 40
45
 41
0.6666666666666666
 50
0
  1
ＫＴＤ３－６０－１２０ＦＨ
  0
TEXT
  8
_0-0_立面本体
 62
    7
 10
3037.0507338268021
 20
126.92521185597115
 40
35
 41
0.5714285714285713
 50
0
  1
２０２３．０５．０１
  0
TEXT
  8
_0-0_立面本体
 62
    7
 10
3555.6767504087997
 20
128.17117585848052
 40
30
 41
0.7333333333333332
 50
0
  1
Ｔ．Ｋ
  0
TEXT
  8
_0-d_ラッチ平面__扉側
 62
    7
 10
3171.7077254749306
 20
2381.7162833038482
 40
35
 41
0.857142857142857
 50
0
  1
両面化粧パ－ティクルボ－ド　１２ｔ　耐震ラッチ付
  0
TEXT
  8
_0-0_立面本体
 62
    7
 10
684.38938140267941
 20
122.04885736800633
 40
45
 41
0.6666666666666666
 50
0
  1
不燃仕様　吊り戸棚　高さ６０ｃｍタイプ
  0
ENDSEC
  0
EOF
