  0
SECTION
  2
HEADER
  9
$ACADVER
  1
AC1009
  9
$INSBASE
 10
0
 20
0
 30
0
  9
$EXTMIN
 10
0
 20
0
  9
$EXTMAX
 10
4200
 20
2970
  9
$LIMMIN
 10
0
 20
0
  9
$LIMMAX
 10
4200
 20
2970
  9
$LTSCALE
 40
10
  0
ENDSEC
  0
SECTION
  2
TABLES
  0
TABLE
  2
LTYPE
 70
     9
  0
LTYPE
  2
CONTINUOUS
 70
    64
  3
実線
 72
    65
 73
     0
 40
0.0
  0
LTYPE
  2
DASHED1
 70
    64
  3
--  --  --  --  --  --  --  --  
 72
    65
 73
     2
 40
2.5
 49
1.25
 49
-1.25
  0
LTYPE
  2
DASHED2
 70
    64
  3
----    ----    ----    ----    
 72
    65
 73
     2
 40
5.0
 49
2.5
 49
-2.5
  0
LTYPE
  2
DASHED3
 70
    64
  3
------  ------  ------  ------  
 72
    65
 73
     2
 40
5.0
 49
3.75
 49
-1.25
  0
LTYPE
  2
CENTER1
 70
    64
  3
----- - ----- - ----- - ----- - 
 72
    65
 73
     4
 40
10.0
 49
6.25
 49
-1.25
 49
1.25
 49
-1.25
  0
LTYPE
  2
CENTER2
 70
    64
  3
----------  --  ----------  --  
 72
    65
 73
     4
 40
20.0
 49
12.5
 49
-2.5
 49
2.5
 49
-2.5
  0
LTYPE
  2
PHANTOM1
 70
    64
  3
--- - - --- - - --- - - --- - - 
 72
    65
 73
     6
 40
10.0
 49
3.25
 49
-1.25
 49
1.25
 49
-1.25
 49
1.25
 49
-1.25
  0
LTYPE
  2
PHANTOM2
 70
    64
  3
--------  -  -  --------  -  -  
 72
    65
 73
     6
 40
20.0
 49
10.0
 49
-2.5
 49
1.25
 49
-2.5
 49
1.25
 49
-2.5
  0
LTYPE
  2
DOT
 70
    64
  3
-   -   -   -   -   -   -   -   
 72
    65
 73
     2
 40
2.5
 49
0.625
 49
-1.875
  0
LTYPE
  2
DUMMY
 70
    64
  3
ダミー
 72
    65
 73
     0
 40
0.0
  0
LTYPE
  2
RAND1
 70
    64
  3
ランダム線1
 72
    65
 73
     4
 40
10.0
 49
1.0
 49
-2.0
 49
3.0
 49
-4.0
  0
LTYPE
  2
RAND2
 70
    64
  3
ランダム線2
 72
    65
 73
     4
 40
14.0
 49
2.0
 49
-3.0
 49
4.0
 49
-5.0
  0
LTYPE
  2
RAND3
 70
    64
  3
ランダム線3
 72
    65
 73
     4
 40
18.0
 49
3.0
 49
-4.0
 49
5.0
 49
-6.0
  0
LTYPE
  2
RAND4
 70
    64
  3
ランダム線4
 72
    65
 73
     4
 40
22.0
 49
4.0
 49
-5.0
 49
6.0
 49
-7.0
  0
LTYPE
  2
RAND5
 70
    64
  3
ランダム線5
 72
    65
 73
     4
 40
26.0
 49
5.0
 49
-6.0
 49
7.0
 49
-8.0
  0
LTYPE
  2
LONG1
 70
    64
  3
----------  --  ----------  --  
 72
    65
 73
     4
 40
40.0
 49
32.5
 49
-2.5
 49
2.5
 49
-2.5
  0
LTYPE
  2
LONG2
 70
    64
  3
--------  -  -  --------  -  -  
 72
    65
 73
     6
 40
40.0
 49
30.0
 49
-2.5
 49
1.25
 49
-2.5
 49
1.25
 49
-2.5
  0
LTYPE
  2
LONG3
 70
    64
  3
+++++++++++++++..+++++++++++++++
 72
    65
 73
     2
 40
40.0
 49
37.5
 49
-2.5
  0
LTYPE
  2
LONG4
 70
    64
  3
+++++++++++++++..+++++++++++++++
 72
    65
 73
     2
 40
80.0
 49
75.0
 49
-5.0
  0
LTYPE
  2
LONG5
 70
    64
  3
----------  --  ----------  --  
 72
    65
 73
     4
 40
60.0
 49
37.5
 49
-7.5
 49
7.5
 49
-7.5
  0
LTYPE
  2
dashed
 70
   64
  3
-------   -------------   ------
 72
   65
 73
    2
 40
7.5
 49
6
 49
-1.5
  0
LTYPE
  2
dashed_spaced
 70
   64
  3
----        --------        ----
 72
   65
 73
    2
 40
12
 49
6
 49
-6
  0
LTYPE
  2
long_dashed_dotted
 70
   64
  3
------------- --- --------------
 72
   65
 73
    4
 40
15.25
 49
12
 49
-1.5
 49
0.25
 49
-1.5
  0
LTYPE
  2
long_dashed_double-dotted
 70
   64
  3
----------- --- --- ------------
 72
   65
 73
    6
 40
17
 49
12
 49
-1.5
 49
0.25
 49
-1.5
 49
0.25
 49
-1.5
  0
LTYPE
  2
long_dashed_triplicate-dotted
 70
   64
  3
--------- --- --- --- ----------
 72
   65
 73
    8
 40
18.75
 49
12
 49
-1.5
 49
0.25
 49
-1.5
 49
0.25
 49
-1.5
 49
0.25
 49
-1.5
  0
LTYPE
  2
dotted
 70
   64
  3
   -       -       -       -    
 72
   65
 73
    2
 40
1.75
 49
0.25
 49
-1.5
  0
LTYPE
  2
chain
 70
   64
  3
-------------- -- --------------
 72
   65
 73
    4
 40
18.5
 49
12
 49
-1.5
 49
3.5
 49
-1.5
  0
LTYPE
  2
chain_double_dash
 70
   64
  3
------------ -- -- -------------
 72
   65
 73
    6
 40
23.5
 49
12
 49
-1.5
 49
3.5
 49
-1.5
 49
3.5
 49
-1.5
  0
LTYPE
  2
dashed_dotted
 70
   64
  3
-----------     -     ----------
 72
   65
 73
    4
 40
9.25
 49
6
 49
-1.5
 49
0.25
 49
-1.5
  0
LTYPE
  2
double-dashed_dotted
 70
   64
  3
------   -----------   -   -----
 72
   65
 73
    6
 40
16.75
 49
6
 49
-1.5
 49
6
 49
-1.5
 49
0.25
 49
-1.5
  0
LTYPE
  2
dashed_double-dotted
 70
   64
  3
---------    -    -    ---------
 72
   65
 73
    6
 40
11
 49
6
 49
-1.5
 49
0.25
 49
-1.5
 49
0.25
 49
-1.5
  0
LTYPE
  2
double-dashed_double-dotted
 70
   64
  3
-----   ---------   -   -   ----
 72
   65
 73
    8
 40
18.5
 49
6
 49
-1.5
 49
6
 49
-1.5
 49
0.25
 49
-1.5
 49
0.25
 49
-1.5
  0
LTYPE
  2
dashed_triplicate-dotted
 70
   64
  3
-------    -    -    -    ------
 72
   65
 73
    8
 40
12.75
 49
6
 49
-1.5
 49
0.25
 49
-1.5
 49
0.25
 49
-1.5
 49
0.25
 49
-1.5
  0
LTYPE
  2
double-dashed_triplicate-dotted
 70
   64
  3
-----  ---------  -  -  -  -----
 72
   65
 73
   10
 40
20.25
 49
6
 49
-1.5
 49
6
 49
-1.5
 49
0.25
 49
-1.5
 49
0.25
 49
-1.5
 49
0.25
 49
-1.5
  0
LTYPE
  2
undefined
 70
   64
  3
--------------------------------
 72
   65
 73
    0
 40
0
  0
LTYPE
  2
_
 70
   64
  3
                                
 72
   65
 73
    0
 40
0
  0
LTYPE
  2
__18
 70
   64
  3
                                
 72
   65
 73
    0
 40
0
  0
LTYPE
  2
__19
 70
   64
  3
                                
 72
   65
 73
    0
 40
0
  0
LTYPE
  2
__20
 70
   64
  3
                                
 72
   65
 73
    0
 40
0
  0
LTYPE
  2
__21
 70
   64
  3
                                
 72
   65
 73
    0
 40
0
  0
LTYPE
  2
__22
 70
   64
  3
                                
 72
   65
 73
    0
 40
0
  0
LTYPE
  2
__23
 70
   64
  3
                                
 72
   65
 73
    0
 40
0
  0
LTYPE
  2
__24
 70
   64
  3
                                
 72
   65
 73
    0
 40
0
  0
LTYPE
  2
__25
 70
   64
  3
                                
 72
   65
 73
    0
 40
0
  0
LTYPE
  2
__26
 70
   64
  3
                                
 72
   65
 73
    0
 40
0
  0
LTYPE
  2
__27
 70
   64
  3
                                
 72
   65
 73
    0
 40
0
  0
LTYPE
  2
__28
 70
   64
  3
                                
 72
   65
 73
    0
 40
0
  0
LTYPE
  2
__29
 70
   64
  3
                                
 72
   65
 73
    0
 40
0
  0
LTYPE
  2
__30
 70
   64
  3
                                
 72
   65
 73
    0
 40
0
  0
LTYPE
  2
__31
 70
   64
  3
                                
 72
   65
 73
    0
 40
0
  0
LTYPE
  2
__32
 70
   64
  3
                                
 72
   65
 73
    0
 40
0
  0
ENDTAB
  0
TABLE
  2
STYLE
  5
3
100
AcDbSymbolTable
 70
     1
  0
STYLE
  5
10
100
AcDbSymbolTableRecord
100
AcDbTextStyleTableRecord
  2
STANDARD
 70
     0
 40
0.0
 41
1.0
 50
0.0
 71
     0
 42
0.2
  3
txt
  4
bigfont.shx
  0
STYLE
  5
26
100
AcDbSymbolTableRecord
100
AcDbTextStyleTableRecord
  2
TATEGAKI
 70
    68
 40
0.0
 41
1.0
 50
0.0
 71
     0
 42
1.0
  3
txt
  4
bigfont.shx
  0
ENDTAB
  0
TABLE
  2
LAYER
 70
   16
  0
LAYER
  2
_0-0_立面本体
 70
   64
 62
    7
  6
CONTINUOUS
  0
LAYER
  2
_0-3_断面__扉
 70
   64
 62
    7
  6
CONTINUOUS
  0
LAYER
  2
_0-4_背面本体
 70
   64
 62
    7
  6
CONTINUOUS
  0
LAYER
  2
_0-5_平面本体
 70
   64
 62
    7
  6
CONTINUOUS
  0
LAYER
  2
_0-6_平面扉
 70
   64
 62
    7
  6
CONTINUOUS
  0
LAYER
  2
_0-8_ラッチ立面__受け
 70
   64
 62
    7
  6
CONTINUOUS
  0
LAYER
  2
_0-9_ラッチ断面__受け
 70
   64
 62
    7
  6
CONTINUOUS
  0
LAYER
  2
_0-a_ラッチ平面受け
 70
   64
 62
    7
  6
CONTINUOUS
  0
LAYER
  2
_0-b_ラッチ断面__扉側
 70
   64
 62
    7
  6
CONTINUOUS
  0
LAYER
  2
_0-d_ラッチ平面__扉側
 70
   64
 62
    7
  6
CONTINUOUS
  0
LAYER
  2
_e-0_
 70
   64
 62
    7
  6
CONTINUOUS
  0
LAYER
  2
_f-8_
 70
   64
 62
    7
  6
CONTINUOUS
  0
LAYER
  2
_f-9_ADD_LINE
 70
   64
 62
    7
  6
CONTINUOUS
  0
LAYER
  2
_f-a__0-7_寸法
 70
   64
 62
    7
  6
CONTINUOUS
  0
LAYER
  2
_f-b__0-1_立面__扉
 70
   64
 62
    7
  6
CONTINUOUS
  0
LAYER
  2
ADD_LINE
 70
   64
 62
    7
  6
CONTINUOUS
  0
ENDTAB
  0
ENDSEC
  0
SECTION
  2
BLOCKS
  0
ENDSEC
  0
SECTION
  2
ENTITIES
  0
LINE
  8
_0-3_断面__扉
  6
CONTINUOUS
 62
    4
 10
1944.4169289246092
 20
1345.2410513398299
 11
2286.4169289246083
 21
1345.2410513398299
  0
LINE
  8
_0-3_断面__扉
  6
CONTINUOUS
 62
    4
 10
2286.4169289246083
 20
1327.2410513398301
 11
2286.4169289246083
 21
1331.2410513398299
  0
LINE
  8
_0-3_断面__扉
  6
CONTINUOUS
 62
    4
 10
2286.4169289246083
 20
1345.2410513398299
 11
2286.4169289246083
 21
1331.2410513398299
  0
LINE
  8
_0-3_断面__扉
  6
CONTINUOUS
 62
    4
 10
2271.4169289246083
 20
1260.2410513398299
 11
2286.4169289246083
 21
1260.2410513398299
  0
LINE
  8
_0-3_断面__扉
  6
CONTINUOUS
 62
    4
 10
2286.4169289246083
 20
1345.2410513398299
 11
2271.4169289246083
 21
1260.2410513398299
  0
LINE
  8
_0-3_断面__扉
  6
CONTINUOUS
 62
    5
 10
2286.4169289246083
 20
752.2410513398297
 11
2286.4169289246083
 21
745.2410513398297
  0
LINE
  8
_0-3_断面__扉
  6
CONTINUOUS
 62
    5
 10
1944.4169289246092
 20
745.2410513398297
 11
2286.4169289246083
 21
745.2410513398297
  0
LINE
  8
_0-3_断面__扉
  6
CONTINUOUS
 62
    5
 10
1944.4169289246092
 20
760.2410513398297
 11
1944.4169289246092
 21
745.2410513398297
  0
LINE
  8
_0-3_断面__扉
  6
CONTINUOUS
 62
    4
 10
2286.4169289246083
 20
797.2410513398297
 11
2271.4169289246083
 21
752.2410513398297
  0
LINE
  8
_0-3_断面__扉
  6
CONTINUOUS
 62
    4
 10
2271.4169289246083
 20
797.2410513398297
 11
2286.4169289246083
 21
797.2410513398297
  0
LINE
  8
_0-3_断面__扉
  6
CONTINUOUS
 62
    4
 10
1944.4169289246092
 20
1345.2410513398299
 11
1944.4169289246092
 21
760.2410513398297
  0
LINE
  8
_0-3_断面__扉
  6
CONTINUOUS
 62
    4
 10
2271.4169289246083
 20
752.2410513398297
 11
2271.4169289246083
 21
1345.2410513398299
  0
LINE
  8
_0-3_断面__扉
  6
CONTINUOUS
 62
    4
 10
2286.4169289246083
 20
1327.2410513398301
 11
2286.4169289246083
 21
752.2410513398297
  0
LINE
  8
_0-5_平面本体
  6
CONTINUOUS
 62
    4
 10
1943.4570920036421
 20
774.24105133983005
 11
1943.4570920036421
 21
732.24105133982993
  0
LINE
  8
_0-5_平面本体
  6
CONTINUOUS
 62
    4
 10
1942.9570920036419
 20
774.74105133982993
 11
1942.6570920036422
 21
774.74105133982993
  0
LINE
  8
_0-5_平面本体
  6
CONTINUOUS
 62
    4
 10
1942.1570920036426
 20
765.96555113966974
 11
1942.1570920036426
 21
773.3165515399902
  0
LINE
  8
_0-5_平面本体
  6
CONTINUOUS
 62
    4
 10
1942.1570920036426
 20
760.54105133982989
 11
1942.1570920036426
 21
764.71655153999006
  0
LINE
  8
_0-5_平面本体
  6
CONTINUOUS
 62
    4
 10
1942.1570920036426
 20
756.7914386780551
 11
1942.1570920036426
 21
732.24105133982993
  0
LINE
  8
_0-5_平面本体
  6
CONTINUOUS
 62
    4
 10
1941.4570920036417
 20
731.54105133982977
 11
1930.6856634322141
 21
731.54105133982977
  0
LINE
  8
_0-5_平面本体
  6
CONTINUOUS
 62
    4
 10
1930.0235012700509
 20
732.01402431280268
 11
1928.8946718560086
 21
735.30644343709411
  0
LINE
  8
_0-5_平面本体
  6
CONTINUOUS
 62
    4
 10
1928.793771540322
 20
731.59240269118129
 11
1927.3111460576965
 21
735.91672701550555
  0
LINE
  8
_0-5_平面本体
  6
CONTINUOUS
 62
    4
 10
1929.1570920036415
 20
760.54105133982989
 11
1929.1570920036415
 21
765.44105133982964
  0
LINE
  8
_0-5_平面本体
  6
CONTINUOUS
 62
    4
 10
1941.8570920036424
 20
760.24105133982982
 11
1929.4570920036424
 21
760.24105133982982
  0
LINE
  8
_0-5_平面本体
  6
CONTINUOUS
 62
    4
 10
1927.5570920036423
 20
759.5906640016044
 11
1927.5570920036423
 21
765.44105133982964
  0
LINE
  8
_0-5_平面本体
  6
CONTINUOUS
 62
    4
 10
1941.2087470890699
 20
757.79010366299735
 11
1928.5054369182134
 21
758.59199901666227
  0
LINE
  8
_0-5_平面本体
  6
CONTINUOUS
 62
    4
 10
1930.6856634322141
 20
730.24105133982982
 11
1941.4570920036417
 21
730.24105133982982
  0
LINE
  8
_0-5_平面本体
  6
CONTINUOUS
 62
    4
 10
1112.342581528313
 20
766.2410513398297
 11
818.34258152831353
 21
766.2410513398297
  0
LINE
  8
_0-5_平面本体
  6
CONTINUOUS
 62
    4
 10
1112.342581528313
 20
758.64105133982684
 11
818.34258152831353
 21
758.64105133982684
  0
LINE
  8
_0-5_平面本体
  6
CONTINUOUS
 62
    4
 10
821.3425815283133
 20
737.24105133982993
 11
1109.342581528313
 21
737.24105133982993
  0
LINE
  8
_0-5_平面本体
  6
CONTINUOUS
 62
    4
 10
1112.342581528313
 20
730.24105133982982
 11
818.34258152831353
 21
730.24105133982982
  0
LINE
  8
ADD_LINE
  6
DOT
 62
  250
 10
4127.7167019027483
 20
2880.5175892928359
 11
105.14567635813222
 21
2880.5175892928359
  0
LINE
  8
ADD_LINE
  6
DOT
 62
  250
 10
105.14567635813222
 20
20.517589292836078
 11
4205.1456763581327
 21
20.517589292836078
  0
LINE
  8
ADD_LINE
  6
DOT
 62
  250
 10
4205.1456763581327
 20
20.517589292836078
 11
4205.1456763581327
 21
2880.5175892928359
  0
LINE
  8
_0-3_断面__扉
  6
CONTINUOUS
 62
    4
 10
1115.3425815283144
 20
2204.2744603287765
 11
1115.3425815283144
 21
2545.7744603287765
  0
LINE
  8
_0-3_断面__扉
  6
CONTINUOUS
 62
    4
 10
1103.3425815283144
 20
2204.2744603287765
 11
1103.3425815283144
 21
2545.7744603287765
  0
LINE
  8
_0-3_断面__扉
  6
CONTINUOUS
 62
    4
 10
815.34258152831455
 20
2545.7744603287765
 11
815.34258152831455
 21
2204.2744603287765
  0
LINE
  8
_0-3_断面__扉
  6
CONTINUOUS
 62
    4
 10
827.34258152831421
 20
2545.7744603287765
 11
827.34258152831421
 21
2204.2744603287765
  0
LINE
  8
_0-3_断面__扉
  6
CONTINUOUS
 62
    4
 10
815.34258152831455
 20
2545.7744603287765
 11
1115.3425815283144
 21
2545.7744603287765
  0
LINE
  8
_0-3_断面__扉
  6
CONTINUOUS
 62
    4
 10
815.34258152831455
 20
2204.2744603287765
 11
1115.3425815283144
 21
2204.2744603287765
  0
LINE
  8
_0-3_断面__扉
  6
CONTINUOUS
 62
    4
 10
815.34258152831455
 20
1345.2410513398297
 11
815.34258152831455
 21
745.24105133982948
  0
LINE
  8
_0-3_断面__扉
  6
CONTINUOUS
 62
    4
 10
815.34258152831455
 20
745.24105133982948
 11
819.84258152831387
 21
745.24105133982948
  0
LINE
  8
_0-3_断面__扉
  6
DASHED1
 62
    2
 10
827.34258152831421
 20
1345.2410513398297
 11
827.34258152831421
 21
745.24105133982948
  0
LINE
  8
_0-3_断面__扉
  6
DASHED1
 62
    2
 10
819.84258152831387
 20
745.24105133982948
 11
1111.3425815283139
 21
745.24105133982948
  0
LINE
  8
_0-3_断面__扉
  6
CONTINUOUS
 62
    4
 10
1115.3425815283137
 20
745.24105133982948
 11
1115.3425815283137
 21
1345.2410513398297
  0
LINE
  8
_0-3_断面__扉
  6
CONTINUOUS
 62
    4
 10
1110.8425815283139
 20
745.24105133982948
 11
1115.3425815283137
 21
745.24105133982948
  0
LINE
  8
_0-3_断面__扉
  6
DASHED1
 62
    2
 10
1103.3425815283139
 20
745.24105133982948
 11
1103.3425815283139
 21
1345.2410513398297
  0
LINE
  8
_0-3_断面__扉
  6
CONTINUOUS
 62
    4
 10
1115.3425815283137
 20
1345.2410513398297
 11
815.34258152831455
 21
1345.2410513398297
  0
LINE
  8
_0-3_断面__扉
  6
DASHED1
 62
    2
 10
1103.3425815283139
 20
1330.7410513398299
 11
827.34258152831421
 21
1330.7410513398299
  0
LINE
  8
_0-3_断面__扉
  6
DASHED1
 62
    2
 10
827.34258152831421
 20
760.24105133982948
 11
1103.3425815283139
 21
760.24105133982948
  0
LINE
  8
_0-3_断面__扉
  6
CONTINUOUS
 62
    5
 10
3202.6287353810857
 20
1345.2410513398299
 11
3502.6287353810857
 21
1345.2410513398299
  0
LINE
  8
_0-3_断面__扉
  6
CONTINUOUS
 62
    2
 10
3214.6287353810857
 20
1260.2410513398299
 11
3490.6287353810866
 21
1260.2410513398299
  0
LINE
  8
_0-3_断面__扉
  6
CONTINUOUS
 62
    5
 10
3202.6287353810857
 20
745.2410513398297
 11
3502.6287353810857
 21
745.2410513398297
  0
LINE
  8
_0-3_断面__扉
  6
CONTINUOUS
 62
    4
 10
3214.6287353810857
 20
752.24105133982959
 11
3490.6287353810866
 21
752.24105133982959
  0
LINE
  8
_0-3_断面__扉
  6
CONTINUOUS
 62
    2
 10
3214.6287353810857
 20
797.2410513398297
 11
3490.6287353810866
 21
797.2410513398297
  0
LINE
  8
_0-3_断面__扉
  6
CONTINUOUS
 62
    5
 10
3202.6287353810857
 20
1345.2410513398299
 11
3202.6287353810857
 21
745.2410513398297
  0
LINE
  8
_0-3_断面__扉
  6
CONTINUOUS
 62
    5
 10
3214.6287353810857
 20
1345.2410513398299
 11
3214.6287353810857
 21
745.2410513398297
  0
LINE
  8
_0-3_断面__扉
  6
CONTINUOUS
 62
    5
 10
3490.6287353810866
 20
1345.2410513398299
 11
3490.6287353810866
 21
745.2410513398297
  0
LINE
  8
_0-3_断面__扉
  6
CONTINUOUS
 62
    5
 10
3502.6287353810857
 20
1345.2410513398299
 11
3502.6287353810857
 21
745.2410513398297
  0
LINE
  8
_0-4_背面本体
  6
CONTINUOUS
 62
    3
 10
818.34258152831353
 20
730.24105133982982
 11
818.34258152831353
 21
1340.2410513398297
  0
LINE
  8
_0-4_背面本体
  6
CONTINUOUS
 62
    3
 10
818.34258152831353
 20
1340.2410513398297
 11
1112.3425815283139
 21
1340.2410513398297
  0
LINE
  8
_0-4_背面本体
  6
CONTINUOUS
 62
    3
 10
1112.3425815283139
 20
730.24105133982982
 11
1112.3425815283139
 21
1340.2410513398297
  0
LINE
  8
_0-4_背面本体
  6
CONTINUOUS
 62
    3
 10
817.34258152831353
 20
2199.7744603287765
 11
817.34258152831353
 21
2187.7744603287765
  0
LINE
  8
_0-4_背面本体
  6
CONTINUOUS
 62
    3
 10
1112.3425815283139
 20
2199.7744603287765
 11
817.34258152831353
 21
2199.7744603287765
  0
LINE
  8
_0-4_背面本体
  6
CONTINUOUS
 62
    3
 10
1112.3425815283139
 20
2187.7744603287765
 11
817.34258152831353
 21
2187.7744603287765
  0
LINE
  8
_0-4_背面本体
  6
CONTINUOUS
 62
    3
 10
1112.3425815283139
 20
2187.7744603287765
 11
1112.3425815283139
 21
2199.7744603287765
  0
LINE
  8
_0-9_ラッチ断面__受け
  6
DASHED1
 62
    9
 10
2477.8570920036445
 20
745.24105133982959
 11
2477.8570920036445
 21
658.783511159893
  0
LINE
  8
_0-9_ラッチ断面__受け
  6
DASHED1
 62
    9
 10
2397.8570920036445
 20
745.24105133982959
 11
2397.8570920036445
 21
658.783511159893
  0
LINE
  8
_0-9_ラッチ断面__受け
  6
CONTINUOUS
 62
    4
 10
2487.8570920036445
 20
745.24105133982959
 11
2317.8570920036445
 21
745.24105133982959
  0
LINE
  8
_0-9_ラッチ断面__受け
  6
CONTINUOUS
 62
    4
 10
2487.8570920036445
 20
1345.2410513398299
 11
2317.8570920036445
 21
1345.2410513398299
  0
LINE
  8
_0-9_ラッチ断面__受け
  6
DASHED1
 62
    9
 10
1305.3425815283148
 20
2187.7744603287765
 11
1305.3425815283148
 21
2101.3169201488403
  0
LINE
  8
_0-9_ラッチ断面__受け
  6
DASHED1
 62
    9
 10
1225.3425815283148
 20
2187.7744603287765
 11
1225.3425815283148
 21
2101.3169201488403
  0
LINE
  8
_0-9_ラッチ断面__受け
  6
CONTINUOUS
 62
    4
 10
1315.3425815283148
 20
2187.7744603287765
 11
1145.3425815283148
 21
2187.7744603287765
  0
LINE
  8
_0-9_ラッチ断面__受け
  6
CONTINUOUS
 62
    4
 10
1315.3425815283148
 20
1345.2410513398297
 11
1145.3425815283148
 21
1345.2410513398297
  0
LINE
  8
_0-9_ラッチ断面__受け
  6
CONTINUOUS
 62
    4
 10
1315.3425815283144
 20
745.24105133982959
 11
1145.3425815283148
 21
745.24105133982959
  0
LINE
  8
_0-9_ラッチ断面__受け
  6
DASHED1
 62
    9
 10
1115.3425815283148
 20
2735.7744603287765
 11
1201.8001217082514
 21
2735.7744603287765
  0
LINE
  8
_0-9_ラッチ断面__受け
  6
DASHED1
 62
    9
 10
1115.3425815283148
 20
2655.7744603287765
 11
1201.8001217082514
 21
2655.7744603287765
  0
LINE
  8
_0-9_ラッチ断面__受け
  6
CONTINUOUS
 62
    4
 10
815.34258152831455
 20
2745.7744603287765
 11
815.34258152831455
 21
2575.7744603287765
  0
LINE
  8
_0-9_ラッチ断面__受け
  6
CONTINUOUS
 62
    4
 10
1115.3425815283148
 20
2745.7744603287765
 11
1115.3425815283148
 21
2575.7744603287765
  0
LINE
  8
_0-9_ラッチ断面__受け
  6
CONTINUOUS
 62
    4
 10
815.34258152831455
 20
1545.2410513398297
 11
815.34258152831455
 21
1375.2410513398297
  0
LINE
  8
_0-9_ラッチ断面__受け
  6
CONTINUOUS
 62
    4
 10
1115.3425815283148
 20
1545.2410513398297
 11
1115.3425815283148
 21
1375.2410513398297
  0
LINE
  8
_0-9_ラッチ断面__受け
  6
CONTINUOUS
 62
    4
 10
3202.6287353810866
 20
1545.2410513398297
 11
3202.6287353810866
 21
1375.2410513398297
  0
POINT
  8
_0-9_ラッチ断面__受け
 62
    4
 10
3202.6287353810866
 20
1535.2410513398297
  0
LINE
  8
_0-9_ラッチ断面__受け
  6
CONTINUOUS
 62
    4
 10
3202.6287353810866
 20
1545.2410513398297
 11
3202.6287353810866
 21
1375.2410513398297
  0
POINT
  8
_0-9_ラッチ断面__受け
 62
    4
 10
3202.6287353810866
 20
1535.2410513398297
  0
LINE
  8
_0-9_ラッチ断面__受け
  6
CONTINUOUS
 62
    4
 10
3202.6287353810866
 20
1545.2410513398297
 11
3202.6287353810866
 21
1375.2410513398297
  0
POINT
  8
_0-9_ラッチ断面__受け
 62
    4
 10
3202.6287353810866
 20
1535.2410513398297
  0
LINE
  8
_0-9_ラッチ断面__受け
  6
CONTINUOUS
 62
    4
 10
3202.6287353810866
 20
1545.2410513398297
 11
3202.6287353810866
 21
1375.2410513398297
  0
POINT
  8
_0-9_ラッチ断面__受け
 62
    4
 10
3202.6287353810866
 20
1535.2410513398297
  0
LINE
  8
_0-9_ラッチ断面__受け
  6
CONTINUOUS
 62
    4
 10
3202.6287353810866
 20
1545.2410513398297
 11
3202.6287353810866
 21
1375.2410513398297
  0
POINT
  8
_0-9_ラッチ断面__受け
 62
    4
 10
3202.6287353810866
 20
1535.2410513398297
  0
LINE
  8
_0-9_ラッチ断面__受け
  6
CONTINUOUS
 62
    4
 10
3202.6287353810866
 20
1545.2410513398297
 11
3202.6287353810866
 21
1375.2410513398297
  0
LINE
  8
_0-9_ラッチ断面__受け
  6
CONTINUOUS
 62
    4
 10
3502.6287353810866
 20
1545.2410513398297
 11
3502.6287353810866
 21
1375.2410513398297
  0
POINT
  8
_0-9_ラッチ断面__受け
 62
    4
 10
3502.6287353810866
 20
1535.2410513398297
  0
LINE
  8
_0-9_ラッチ断面__受け
  6
CONTINUOUS
 62
    4
 10
3502.6287353810866
 20
1545.2410513398297
 11
3502.6287353810866
 21
1375.2410513398297
  0
POINT
  8
_0-9_ラッチ断面__受け
 62
    4
 10
3502.6287353810866
 20
1535.2410513398297
  0
LINE
  8
_0-9_ラッチ断面__受け
  6
CONTINUOUS
 62
    4
 10
3502.6287353810866
 20
1545.2410513398297
 11
3502.6287353810866
 21
1375.2410513398297
  0
POINT
  8
_0-9_ラッチ断面__受け
 62
    4
 10
3502.6287353810866
 20
1535.2410513398297
  0
LINE
  8
_0-9_ラッチ断面__受け
  6
CONTINUOUS
 62
    4
 10
3502.6287353810866
 20
1545.2410513398297
 11
3502.6287353810866
 21
1375.2410513398297
  0
POINT
  8
_0-9_ラッチ断面__受け
 62
    4
 10
3502.6287353810866
 20
1535.2410513398297
  0
LINE
  8
_0-9_ラッチ断面__受け
  6
CONTINUOUS
 62
    4
 10
3502.6287353810866
 20
1545.2410513398297
 11
3502.6287353810866
 21
1375.2410513398297
  0
POINT
  8
_0-9_ラッチ断面__受け
 62
    4
 10
3502.6287353810866
 20
1535.2410513398297
  0
LINE
  8
_0-9_ラッチ断面__受け
  6
CONTINUOUS
 62
    4
 10
3502.6287353810866
 20
1545.2410513398297
 11
3502.6287353810866
 21
1375.2410513398297
  0
POINT
  8
_0-9_ラッチ断面__受け
 62
    4
 10
3202.6287353810866
 20
1535.2410513398297
  0
POINT
  8
_0-9_ラッチ断面__受け
 62
    4
 10
3502.6287353810866
 20
1535.2410513398297
  0
LINE
  8
_0-9_ラッチ断面__受け
  6
CONTINUOUS
 62
    4
 10
3202.6287353810866
 20
1545.2410513398297
 11
3202.6287353810866
 21
1375.2410513398297
  0
LINE
  8
_0-9_ラッチ断面__受け
  6
CONTINUOUS
 62
    4
 10
3502.6287353810866
 20
1545.2410513398297
 11
3502.6287353810866
 21
1375.2410513398297
  0
LINE
  8
_0-9_ラッチ断面__受け
  6
DASHED1
 62
    9
 10
785.34258152831455
 20
2575.7744603287765
 11
785.34258152831455
 21
2174.2744603287765
  0
LINE
  8
_0-9_ラッチ断面__受け
  6
DASHED1
 62
    9
 10
785.34258152831455
 20
715.24105133982948
 11
785.34258152831455
 21
1375.2410513398297
  0
LINE
  8
_0-9_ラッチ断面__受け
  6
DASHED1
 62
    9
 10
785.34258152831455
 20
1375.2410513398297
 11
1145.3425815283137
 21
1375.2410513398297
  0
LINE
  8
_0-9_ラッチ断面__受け
  6
DASHED1
 62
    9
 10
1145.3425815283137
 20
1375.2410513398297
 11
1145.3425815283137
 21
715.24105133982948
  0
LINE
  8
_0-9_ラッチ断面__受け
  6
DASHED1
 62
    9
 10
2316.4169289246083
 20
1375.2410513398299
 11
1914.4169289246092
 21
1375.2410513398299
  0
LINE
  8
_0-9_ラッチ断面__受け
  6
DASHED1
 62
    9
 10
1914.4169289246092
 20
1375.2410513398299
 11
1914.4169289246092
 21
715.2410513398297
  0
LINE
  8
_0-9_ラッチ断面__受け
  6
DASHED1
 62
    9
 10
1914.4169289246092
 20
715.2410513398297
 11
2316.4169289246083
 21
715.2410513398297
  0
LINE
  8
_0-9_ラッチ断面__受け
  6
DASHED1
 62
    9
 10
2316.4169289246083
 20
1375.2410513398299
 11
2316.4169289246083
 21
715.2410513398297
  0
LINE
  8
_0-9_ラッチ断面__受け
  6
DASHED1
 62
    9
 10
3172.6287353810857
 20
1375.2410513398299
 11
3532.6287353810857
 21
1375.2410513398299
  0
LINE
  8
_0-9_ラッチ断面__受け
  6
DASHED1
 62
    9
 10
3532.6287353810857
 20
1375.2410513398299
 11
3532.6287353810857
 21
715.2410513398297
  0
LINE
  8
_0-9_ラッチ断面__受け
  6
DASHED1
 62
    9
 10
3172.6287353810857
 20
715.2410513398297
 11
3172.6287353810857
 21
1375.2410513398299
  0
LINE
  8
_0-9_ラッチ断面__受け
  6
DASHED1
 62
    9
 10
3532.6287353810857
 20
715.2410513398297
 11
3172.6287353810857
 21
715.2410513398297
  0
LINE
  8
_0-9_ラッチ断面__受け
  6
DASHED1
 62
    9
 10
3532.6287353810857
 20
555.2410513398297
 11
3172.6287353810857
 21
555.2410513398297
  0
LINE
  8
_0-9_ラッチ断面__受け
  6
DASHED1
 62
    9
 10
785.34258152831455
 20
715.24105133982948
 11
1145.3425815283137
 21
715.24105133982948
  0
LINE
  8
_f-a__0-7_寸法
  6
CONTINUOUS
 62
    4
 10
815.34258152831455
 20
2735.7744603287765
 11
1115.3425815283148
 21
2735.7744603287765
  0
TEXT
  8
_0-9_ラッチ断面__受け
 62
    7
 10
932.24258152831453
 20
2740.7744603287765
 40
35
 41
0.6285714285714286
 50
0
  1
３００
  0
LINE
  8
_f-b__0-1_立面__扉
  6
CONTINUOUS
 62
    4
 10
1305.3425815283148
 20
2545.7744603287765
 11
1305.3425815283148
 21
2187.7744603287765
  0
TEXT
  8
_0-9_ラッチ断面__受け
 62
    7
 10
1300.3425815283148
 20
2333.6744603287766
 40
35
 41
0.6285714285714286
 50
90
  1
３５８
  0
LINE
  8
_f-a__0-7_寸法
  6
CONTINUOUS
 62
    4
 10
815.34258152831455
 20
1535.2410513398297
 11
1115.3425815283148
 21
1535.2410513398297
  0
TEXT
  8
_0-9_ラッチ断面__受け
 62
    7
 10
932.24258152831453
 20
1540.2410513398297
 40
35
 41
0.6285714285714286
 50
0
  1
３００
  0
LINE
  8
_f-a__0-7_寸法
  6
CONTINUOUS
 62
    4
 10
1305.3425815283148
 20
1345.2410513398297
 11
1305.3425815283144
 21
745.24105133982959
  0
TEXT
  8
_0-9_ラッチ断面__受け
 62
    7
 10
1300.3425815283158
 20
1012.1410513398295
 40
35
 41
0.6285714285714286
 50
90
  1
６００
  0
LINE
  8
_f-a__0-7_寸法
  6
CONTINUOUS
 62
    4
 10
2477.8570920036445
 20
1345.2410513398299
 11
2477.8570920036445
 21
745.24105133982959
  0
TEXT
  8
_0-9_ラッチ断面__受け
 62
    7
 10
2472.8570920036445
 20
1012.1410513398296
 40
35
 41
0.6285714285714286
 50
90
  1
６００
  0
LINE
  8
_f-a__0-7_寸法
  6
CONTINUOUS
 62
    4
 10
3202.6287353810866
 20
1535.2410513398297
 11
3502.6287353810866
 21
1535.2410513398297
  0
TEXT
  8
_0-9_ラッチ断面__受け
 62
    7
 10
3319.5287353810863
 20
1540.2410513398297
 40
35
 41
0.6285714285714286
 50
0
  1
３００
  0
LINE
  8
_0-9_ラッチ断面__受け
  6
CONTINUOUS
 62
    4
 10
1315.3425815283148
 20
2545.7744603287765
 11
1145.3425815283148
 21
2545.7744603287765
  0
ARC
  8
_0-5_平面本体
  6
CONTINUOUS
 62
    4
 10
1941.4570920036417
 20
732.24105133982993
 40
0.6999999999999999
 50
270
 51
0
  0
ARC
  8
_0-5_平面本体
  6
CONTINUOUS
 62
    4
 10
1942.9570920036419
 20
774.24105133983005
 40
0.4999999999999997
 50
0
 51
90
  0
ARC
  8
_0-5_平面本体
  6
CONTINUOUS
 62
    4
 10
1942.6570920036422
 20
773.94105133982986
 40
0.8000000000000001
 50
89.999999999999971
 51
231.31781254650667
  0
ARC
  8
_0-5_平面本体
  6
CONTINUOUS
 62
    4
 10
1942.6570920036422
 20
765.34105133982973
 40
0.8000000000000001
 50
128.68218745349335
 51
231.31781254650667
  0
ARC
  8
_0-5_平面本体
  6
CONTINUOUS
 62
    4
 10
1941.8570920036424
 20
760.54105133982989
 40
0.2999999999999998
 50
270
 51
0
  0
ARC
  8
_0-5_平面本体
  6
CONTINUOUS
 62
    4
 10
1941.1570920036419
 20
756.7914386780551
 40
0.9999999999999996
 50
359.99999999999994
 51
87.03906386583624
  0
ARC
  8
_0-5_平面本体
  6
CONTINUOUS
 62
    4
 10
1928.3570920036422
 20
765.44105133982964
 40
0.8000000000000001
 50
0.0000000000000254
 51
179.99999999999997
  0
ARC
  8
_0-5_平面本体
  6
CONTINUOUS
 62
    4
 10
1930.6856634322141
 20
732.24105133982993
 40
0.6999999999999999
 50
198.92464441604994
 51
270
  0
ARC
  8
_0-5_平面本体
  6
CONTINUOUS
 62
    4
 10
1929.0838610451974
 20
735.37130830195883
 40
0.2
 50
133.54896276822287
 51
198.92464441605298
  0
ARC
  8
_0-5_平面本体
  6
CONTINUOUS
 62
    4
 10
1928.2570920036423
 20
736.2410513398297
 40
0.9999999999999996
 50
313.54896276821995
 51
198.92464441604971
  0
ARC
  8
_0-5_平面本体
  6
CONTINUOUS
 62
    4
 10
1929.4570920036424
 20
760.54105133982989
 40
0.2999999999999998
 50
179.99999999999997
 51
270
  0
ARC
  8
_0-5_平面本体
  6
CONTINUOUS
 62
    4
 10
1928.557092003642
 20
759.5906640016044
 40
0.9999999999999996
 50
180
 51
267.03906386583628
  0
LINE
  8
ADD_LINE
  6
DOT
 62
    9
 10
1929.3455601201483
 20
766.2410513398297
 11
1927.2398654778417
 21
766.2410513398297
  0
LINE
  8
ADD_LINE
  6
DOT
 62
    9
 10
1927.5570920036423
 20
759.5906640016044
 11
1927.5570920036423
 21
758.64105133982707
  0
LINE
  8
ADD_LINE
  6
DOT
 62
    9
 10
1928.5054369182134
 20
758.59199901666227
 11
1927.5570920036423
 21
758.64105133982707
  0
LINE
  8
ADD_LINE
  6
DOT
 62
    9
 10
1930.7064105819292
 20
737.24105133982993
 11
1925.585003569648
 21
737.24105133982993
  0
LINE
  8
ADD_LINE
  6
DOT
 62
    7
 10
1941.2108013059078
 20
765.34105133983007
 11
1942.4383229062677
 21
765.34105133983007
  0
ARC
  8
_0-5_平面本体
  6
CONTINUOUS
 62
    4
 10
1941.4570920036417
 20
732.24105133982993
 40
1.9999999999999995
 50
269.99999999999994
 51
359.99999999999994
  0
ARC
  8
_0-5_平面本体
  6
CONTINUOUS
 62
    4
 10
1930.6856634322141
 20
732.24105133982993
 40
1.9999999999999995
 50
198.92464441605042
 51
270
  0
ARC
  8
_0-5_平面本体
  6
CONTINUOUS
 62
    4
 10
821.3425815283133
 20
734.2410513398297
 40
3.0000000000000004
 50
90
 51
180
  0
ARC
  8
_0-5_平面本体
  6
CONTINUOUS
 62
    4
 10
1109.342581528313
 20
734.2410513398297
 40
3.0000000000000004
 50
0
 51
90
  0
POINT
  8
_0-9_ラッチ断面__受け
 62
    3
 10
3092.6287353810857
 20
1345.2410513398299
  0
POINT
  8
_0-9_ラッチ断面__受け
 62
    3
 10
3092.6287353810857
 20
1260.2410513398299
  0
LINE
  8
_0-9_ラッチ断面__受け
  6
CONTINUOUS
 62
    4
 10
3082.6287353810857
 20
1345.2410513398299
 11
3172.6287353810857
 21
1345.2410513398299
  0
LINE
  8
_0-9_ラッチ断面__受け
  6
CONTINUOUS
 62
    4
 10
3082.6287353810857
 20
1260.2410513398299
 11
3172.6287353810857
 21
1260.2410513398299
  0
LINE
  8
_0-9_ラッチ断面__受け
  6
CONTINUOUS
 62
    4
 10
3092.6287353810857
 20
1345.2410513398299
 11
3092.6287353810857
 21
1260.2410513398299
  0
TEXT
  8
_0-9_ラッチ断面__受け
 62
    7
 10
3087.6287353810857
 20
1280.6910513398302
 40
35
 41
0.6285714285714286
 50
90
  1
８５
  0
POINT
  8
_0-9_ラッチ断面__受け
 62
    3
 10
3092.6287353810857
 20
797.2410513398297
  0
POINT
  8
_0-9_ラッチ断面__受け
 62
    3
 10
3092.6287353810857
 20
752.24105133982959
  0
LINE
  8
_0-9_ラッチ断面__受け
  6
CONTINUOUS
 62
    4
 10
3082.6287353810857
 20
797.2410513398297
 11
3172.6287353810857
 21
797.2410513398297
  0
LINE
  8
_0-9_ラッチ断面__受け
  6
CONTINUOUS
 62
    4
 10
3082.6287353810857
 20
752.24105133982959
 11
3172.6287353810857
 21
752.24105133982959
  0
LINE
  8
_0-9_ラッチ断面__受け
  6
CONTINUOUS
 62
    4
 10
3092.6287353810857
 20
797.2410513398297
 11
3092.6287353810857
 21
752.24105133982959
  0
TEXT
  8
_0-9_ラッチ断面__受け
 62
    7
 10
3087.6287353810857
 20
701.24157097956958
 40
35
 41
0.6285714285714286
 50
90
  1
４５
  0
LINE
  8
_0-9_ラッチ断面__受け
  6
CONTINUOUS
 62
    4
 10
3092.6287353810857
 20
752.24105133982959
 11
3092.6287353810857
 21
703.95938528452506
  0
LINE
  8
_0-9_ラッチ断面__受け
  6
CONTINUOUS
 62
    4
 10
3214.6287353810862
 20
545.2410513398297
 11
3214.6287353810862
 21
715.2410513398297
  0
POINT
  8
_0-9_ラッチ断面__受け
 62
    4
 10
3214.6287353810862
 20
555.2410513398297
  0
LINE
  8
_0-9_ラッチ断面__受け
  6
CONTINUOUS
 62
    4
 10
3214.6287353810862
 20
545.2410513398297
 11
3214.6287353810862
 21
715.2410513398297
  0
POINT
  8
_0-9_ラッチ断面__受け
 62
    4
 10
3214.6287353810862
 20
555.2410513398297
  0
LINE
  8
_0-9_ラッチ断面__受け
  6
CONTINUOUS
 62
    4
 10
3214.6287353810862
 20
545.2410513398297
 11
3214.6287353810862
 21
715.2410513398297
  0
POINT
  8
_0-9_ラッチ断面__受け
 62
    4
 10
3214.6287353810862
 20
555.2410513398297
  0
LINE
  8
_0-9_ラッチ断面__受け
  6
CONTINUOUS
 62
    4
 10
3214.6287353810862
 20
545.2410513398297
 11
3214.6287353810862
 21
715.2410513398297
  0
POINT
  8
_0-9_ラッチ断面__受け
 62
    4
 10
3214.6287353810862
 20
555.2410513398297
  0
LINE
  8
_0-9_ラッチ断面__受け
  6
CONTINUOUS
 62
    4
 10
3214.6287353810862
 20
545.2410513398297
 11
3214.6287353810862
 21
715.2410513398297
  0
LINE
  8
_0-9_ラッチ断面__受け
  6
CONTINUOUS
 62
    4
 10
3490.6287353810866
 20
545.2410513398297
 11
3490.6287353810866
 21
715.2410513398297
  0
POINT
  8
_0-9_ラッチ断面__受け
 62
    4
 10
3490.6287353810866
 20
555.2410513398297
  0
LINE
  8
_0-9_ラッチ断面__受け
  6
CONTINUOUS
 62
    4
 10
3490.6287353810866
 20
545.2410513398297
 11
3490.6287353810866
 21
715.2410513398297
  0
POINT
  8
_0-9_ラッチ断面__受け
 62
    4
 10
3490.6287353810866
 20
555.2410513398297
  0
LINE
  8
_0-9_ラッチ断面__受け
  6
CONTINUOUS
 62
    4
 10
3490.6287353810866
 20
545.2410513398297
 11
3490.6287353810866
 21
715.2410513398297
  0
POINT
  8
_0-9_ラッチ断面__受け
 62
    4
 10
3490.6287353810866
 20
555.2410513398297
  0
LINE
  8
_0-9_ラッチ断面__受け
  6
CONTINUOUS
 62
    4
 10
3490.6287353810866
 20
545.2410513398297
 11
3490.6287353810866
 21
715.2410513398297
  0
POINT
  8
_0-9_ラッチ断面__受け
 62
    4
 10
3490.6287353810866
 20
555.2410513398297
  0
LINE
  8
_0-9_ラッチ断面__受け
  6
CONTINUOUS
 62
    4
 10
3490.6287353810866
 20
545.2410513398297
 11
3490.6287353810866
 21
715.2410513398297
  0
POINT
  8
_0-9_ラッチ断面__受け
 62
    4
 10
3214.6287353810862
 20
555.2410513398297
  0
POINT
  8
_0-9_ラッチ断面__受け
 62
    4
 10
3490.6287353810866
 20
555.2410513398297
  0
LINE
  8
_0-9_ラッチ断面__受け
  6
CONTINUOUS
 62
    4
 10
3214.6287353810862
 20
545.2410513398297
 11
3214.6287353810862
 21
715.2410513398297
  0
LINE
  8
_0-9_ラッチ断面__受け
  6
CONTINUOUS
 62
    4
 10
3490.6287353810866
 20
545.2410513398297
 11
3490.6287353810866
 21
715.2410513398297
  0
LINE
  8
_f-a__0-7_寸法
  6
CONTINUOUS
 62
    4
 10
3214.6287353810862
 20
555.2410513398297
 11
3490.6287353810866
 21
555.2410513398297
  0
TEXT
  8
_0-9_ラッチ断面__受け
 62
    7
 10
3319.5287353810863
 20
560.2410513398297
 40
35
 41
0.6285714285714286
 50
0
  1
２７６
  0
POINT
  8
_0-9_ラッチ断面__受け
 62
    3
 10
2397.8570920036445
 20
745.24105072021484
  0
LINE
  8
_0-9_ラッチ断面__受け
  6
CONTINUOUS
 62
    4
 10
1225.3425815283148
 20
745.24105133982959
 11
1225.3425815283148
 21
730.24105133982982
  0
POINT
  8
_0-9_ラッチ断面__受け
 62
    3
 10
1112.3425815283139
 20
555.2410513398297
  0
POINT
  8
_0-9_ラッチ断面__受け
 62
    3
 10
818.34258152831353
 20
555.2410513398297
  0
LINE
  8
_0-9_ラッチ断面__受け
  6
CONTINUOUS
 62
    4
 10
1112.3425815283139
 20
545.2410513398297
 11
1112.3425815283139
 21
715.2410513398297
  0
LINE
  8
_0-9_ラッチ断面__受け
  6
CONTINUOUS
 62
    4
 10
818.34258152831353
 20
545.2410513398297
 11
818.34258152831353
 21
715.2410513398297
  0
LINE
  8
_0-9_ラッチ断面__受け
  6
CONTINUOUS
 62
    4
 10
1112.3425815283139
 20
555.2410513398297
 11
818.34258152831353
 21
555.2410513398297
  0
TEXT
  8
_0-9_ラッチ断面__受け
 62
    7
 10
932.24258152831362
 20
560.2410513398297
 40
35
 41
0.6285714285714286
 50
0
  1
２９４
  0
LINE
  8
_0-a_ラッチ平面受け
  6
CONTINUOUS
 62
    4
 10
3487.4445124451581
 20
1260.2410513398303
 11
3490.6287353810857
 21
1263.425274275758
  0
LINE
  8
_0-a_ラッチ平面受け
  6
CONTINUOUS
 62
    4
 10
3459.1602411976882
 20
1260.2410513398272
 11
3490.6287353810876
 21
1291.7095455232265
  0
LINE
  8
_0-a_ラッチ平面受け
  6
CONTINUOUS
 62
    4
 10
3430.8759699502388
 20
1260.2410513398265
 11
3490.6287353810917
 21
1319.9938167706791
  0
LINE
  8
_0-a_ラッチ平面受け
  6
CONTINUOUS
 62
    4
 10
3402.5916987027749
 20
1260.241051339829
 11
3487.5916987027721
 21
1345.2410513398262
  0
LINE
  8
_0-a_ラッチ平面受け
  6
CONTINUOUS
 62
    4
 10
3374.3074274553059
 20
1260.2410513398265
 11
3459.3074274553082
 21
1345.241051339829
  0
LINE
  8
_0-a_ラッチ平面受け
  6
CONTINUOUS
 62
    4
 10
3346.0231562078388
 20
1260.2410513398265
 11
3431.0231562078433
 21
1345.2410513398306
  0
LINE
  8
_0-a_ラッチ平面受け
  6
CONTINUOUS
 62
    4
 10
3317.7388849603926
 20
1260.2410513398281
 11
3402.7388849603894
 21
1345.2410513398251
  0
LINE
  8
_0-a_ラッチ平面受け
  6
CONTINUOUS
 62
    4
 10
3289.4546137129282
 20
1260.2410513398308
 11
3374.4546137129254
 21
1345.2410513398281
  0
LINE
  8
_0-a_ラッチ平面受け
  6
CONTINUOUS
 62
    4
 10
3261.1703424654592
 20
1260.2410513398283
 11
3346.1703424654615
 21
1345.2410513398308
  0
LINE
  8
_0-a_ラッチ平面受け
  6
CONTINUOUS
 62
    4
 10
3232.8860712179903
 20
1260.241051339826
 11
3317.8860712179944
 21
1345.2410513398299
  0
LINE
  8
_0-a_ラッチ平面受け
  6
CONTINUOUS
 62
    4
 10
3214.6287353810862
 20
1270.2679867503707
 11
3289.6017999705427
 21
1345.2410513398267
  0
LINE
  8
_0-a_ラッチ平面受け
  6
CONTINUOUS
 62
    4
 10
3214.6287353810844
 20
1298.5522579978355
 11
3261.3175287230787
 21
1345.2410513398297
  0
LINE
  8
_0-a_ラッチ平面受け
  6
CONTINUOUS
 62
    4
 10
3214.6287353810839
 20
1326.8365292453017
 11
3233.0332574756148
 21
1345.2410513398322
  0
LINE
  8
_0-a_ラッチ平面受け
  6
CONTINUOUS
 62
    4
 10
3488.5613948994682
 20
752.2410513398313
 11
3490.6287353810839
 21
754.30839182144734
  0
LINE
  8
_0-a_ラッチ平面受け
  6
CONTINUOUS
 62
    4
 10
3460.2771236520184
 20
752.24105133983027
 11
3490.6287353810871
 21
782.59266306889821
  0
LINE
  8
_0-a_ラッチ平面受け
  6
CONTINUOUS
 62
    4
 10
3431.9928524045549
 20
752.241051339833
 11
3476.9928524045531
 21
797.24105133983084
  0
LINE
  8
_0-a_ラッチ平面受け
  6
CONTINUOUS
 62
    4
 10
3403.708581157085
 20
752.24105133983039
 11
3448.7085811570887
 21
797.24105133983357
  0
LINE
  8
_0-a_ラッチ平面受け
  6
CONTINUOUS
 62
    4
 10
3375.4243099096197
 20
752.24105133983107
 11
3420.4243099096179
 21
797.24105133982959
  0
LINE
  8
_0-a_ラッチ平面受け
  6
CONTINUOUS
 62
    4
 10
3347.1400386621717
 20
752.24105133983198
 11
3392.1400386621698
 21
797.24105133982993
  0
LINE
  8
_0-a_ラッチ平面受け
  6
CONTINUOUS
 62
    4
 10
3318.8557674147077
 20
752.24105133983471
 11
3363.8557674147059
 21
797.24105133983255
  0
LINE
  8
_0-a_ラッチ平面受け
  6
CONTINUOUS
 62
    4
 10
3290.5714961672392
 20
752.24105133983198
 11
3335.571496167242
 21
797.24105133983528
  0
LINE
  8
_0-a_ラッチ平面受け
  6
CONTINUOUS
 62
    4
 10
3262.2872249197698
 20
752.24105133983039
 11
3307.2872249197689
 21
797.24105133982914
  0
LINE
  8
_0-a_ラッチ平面受け
  6
CONTINUOUS
 62
    4
 10
3234.002953672325
 20
752.24105133983357
 11
3279.0029536723227
 21
797.24105133983152
  0
LINE
  8
_0-a_ラッチ平面受け
  6
CONTINUOUS
 62
    4
 10
3214.6287353810839
 20
761.15110429605908
 11
3250.7186824248587
 21
797.24105133983414
  0
LINE
  8
_0-a_ラッチ平面受け
  6
CONTINUOUS
 62
    4
 10
3214.6287353810794
 20
789.4353755435211
 11
3222.4344111773953
 21
797.24105133983687
  0
LINE
  8
_0-9_ラッチ断面__受け
  6
CONTINUOUS
 62
    4
 10
1234.6551609838022
 20
730.24105133982982
 11
1145.3425815283148
 21
730.24105133982982
  0
LINE
  8
_0-4_背面本体
  6
CENTER2
 62
    4
 10
1112.3425815283139
 20
1340.2410513398297
 11
818.34258152831353
 21
1035.2410513398294
  0
LINE
  8
_0-4_背面本体
  6
CENTER2
 62
    4
 10
818.34258152831353
 20
1035.2410513398294
 11
1112.342581528313
 21
730.24105133982982
  0
LINE
  8
_0-4_背面本体
  6
CONTINUOUS
 62
    3
 10
1940.4169289246083
 20
1340.2410513398299
 11
1928.4169289246085
 21
1340.2410513398299
  0
LINE
  8
_0-4_背面本体
  6
CONTINUOUS
 62
    3
 10
1928.4169289246085
 20
760.24105133982982
 11
1928.4169289246085
 21
1340.2410513398299
  0
LINE
  8
_0-4_背面本体
  6
CONTINUOUS
 62
    3
 10
1940.4169289246083
 20
760.24105133982982
 11
1940.4169289246083
 21
1340.2410513398299
  0
POINT
  8
_0-9_ラッチ断面__受け
 62
    4
 10
2397.8570920036445
 20
925.24105133982959
  0
LINE
  8
_f-a__0-7_寸法
  6
CONTINUOUS
 62
    4
 10
2397.8570920036445
 20
1105.2410513398294
 11
2397.8570920036445
 21
1165.2410513398294
  0
TEXT
  8
_0-9_ラッチ断面__受け
 62
    7
 10
2392.8570920036445
 20
1113.1910513398295
 40
35
 41
0.6285714285714286
 50
90
  1
６０
  0
LINE
  8
_f-a__0-7_寸法
  6
CONTINUOUS
 62
    4
 10
2397.8570920036445
 20
1045.2410513398294
 11
2397.8570920036445
 21
1105.2410513398294
  0
TEXT
  8
_0-9_ラッチ断面__受け
 62
    7
 10
2392.8570920036445
 20
1053.1910513398295
 40
35
 41
0.6285714285714286
 50
90
  1
６０
  0
LINE
  8
_f-a__0-7_寸法
  6
CONTINUOUS
 62
    4
 10
2397.8570920036445
 20
985.24105133982959
 11
2397.8570920036445
 21
1045.2410513398294
  0
TEXT
  8
_0-9_ラッチ断面__受け
 62
    7
 10
2392.8570920036445
 20
993.19105133982952
 40
35
 41
0.6285714285714286
 50
90
  1
６０
  0
LINE
  8
_f-a__0-7_寸法
  6
CONTINUOUS
 62
    4
 10
2397.8570920036445
 20
925.24105133982959
 11
2397.8570920036445
 21
985.24105133982959
  0
TEXT
  8
_0-9_ラッチ断面__受け
 62
    7
 10
2392.8570920036445
 20
933.19105133982952
 40
35
 41
0.6285714285714286
 50
90
  1
６０
  0
POINT
  8
_0-9_ラッチ断面__受け
 62
    3
 10
2397.8570920036445
 20
925.24105133982959
  0
LINE
  8
_0-9_ラッチ断面__受け
  6
CONTINUOUS
 62
    4
 10
2407.8570920036445
 20
1165.2410513398294
 11
2316.4169289246083
 21
1165.2410513398294
  0
LINE
  8
_0-9_ラッチ断面__受け
  6
CONTINUOUS
 62
    4
 10
2407.8570920036445
 20
925.24105133982959
 11
2316.4169289246083
 21
925.24105133982959
  0
LINE
  8
_0-9_ラッチ断面__受け
  6
CONTINUOUS
 62
    4
 10
2407.8570920036445
 20
985.24105133982959
 11
2316.4169289246083
 21
985.24105133982959
  0
LINE
  8
_0-9_ラッチ断面__受け
  6
CONTINUOUS
 62
    4
 10
2407.8570920036445
 20
1045.2410513398294
 11
2316.4169289246083
 21
1045.2410513398294
  0
LINE
  8
_0-9_ラッチ断面__受け
  6
CONTINUOUS
 62
    4
 10
2407.8570920036445
 20
1105.2410513398294
 11
2316.4169289246083
 21
1105.2410513398294
  0
POINT
  8
_0-9_ラッチ断面__受け
 62
    3
 10
2397.8570920036445
 20
745.24105072021484
  0
POINT
  8
_0-9_ラッチ断面__受け
 62
    3
 10
2397.8570920036445
 20
925.24105133982959
  0
LINE
  8
_0-9_ラッチ断面__受け
  6
CONTINUOUS
 62
    4
 10
2407.8570920036445
 20
745.24105072021484
 11
2317.8570920036445
 21
745.24105072021484
  0
LINE
  8
_0-9_ラッチ断面__受け
  6
CONTINUOUS
 62
    4
 10
2407.8570920036445
 20
925.24105133982959
 11
2317.8570920036445
 21
925.24105133982959
  0
LINE
  8
_0-9_ラッチ断面__受け
  6
CONTINUOUS
 62
    4
 10
2397.8570920036445
 20
745.24105072021484
 11
2397.8570920036445
 21
925.24105133982959
  0
TEXT
  8
_0-9_ラッチ断面__受け
 62
    7
 10
2392.8570920036445
 20
802.14105103002225
 40
35
 41
0.6285714285714286
 50
90
  1
１８０
  0
LINE
  8
_0-3_断面__扉
  6
CONTINUOUS
 62
    4
 10
827.34258152831421
 20
2530.7744603287765
 11
1103.3425815283144
 21
2530.7744603287765
  0
LINE
  8
_0-3_断面__扉
  6
DASHED1
 62
    4
 10
827.34258152831421
 20
2527.7744603287765
 11
1103.3425815283144
 21
2527.7744603287765
  0
LINE
  8
_0-3_断面__扉
  6
CONTINUOUS
 62
    4
 10
2268.4169289246083
 20
752.2410513398297
 11
2268.4169289246083
 21
1345.2410513398299
  0
LINE
  8
_0-3_断面__扉
  6
CONTINUOUS
 62
    5
 10
2268.4169289246083
 20
760.2410513398297
 11
2268.4169289246083
 21
752.2410513398297
  0
LINE
  8
_0-3_断面__扉
  6
CONTINUOUS
 62
    5
 10
1944.4169289246092
 20
760.2410513398297
 11
2268.4169289246083
 21
760.2410513398297
  0
LINE
  8
_0-3_断面__扉
  6
CONTINUOUS
 62
    5
 10
2268.4169289246083
 20
752.2410513398297
 11
2286.4169289246083
 21
752.2410513398297
  0
LINE
  8
_0-3_断面__扉
  6
CONTINUOUS
 62
    4
 10
1944.4169289246092
 20
1330.2410513398299
 11
2268.4169289246083
 21
1330.2410513398299
  0
LINE
  8
_0-3_断面__扉
  6
CONTINUOUS
 62
    7
 10
2270.9169289246083
 20
752.2410513398297
 11
2270.9169289246083
 21
1345.2410513398299
  0
CIRCLE
  8
_0-3_断面__扉
  6
CONTINUOUS
 62
    4
 10
1993.4169289246094
 20
1165.2410513398294
 40
2.5
  0
LINE
  8
ADD_LINE
  6
DOT
 62
    9
 10
1993.4169289246094
 20
1165.2410513398294
 11
1963.6469323160285
 21
1165.2410513398294
  0
CIRCLE
  8
_0-3_断面__扉
  6
CONTINUOUS
 62
    7
 10
1993.4169289246094
 20
1165.2410513398294
 40
2.5
  0
LINE
  8
_0-3_断面__扉
  6
CENTER2
 62
    4
 10
1993.4169289246094
 20
1175.2410513398294
 11
1993.4169289246094
 21
1155.2410513398294
  0
LINE
  8
_0-3_断面__扉
  6
CENTER2
 62
    4
 10
1983.4169289246094
 20
1165.2410513398294
 11
2005.9169289246094
 21
1165.2410513398294
  0
LINE
  8
ADD_LINE
  6
DOT
 62
    9
 10
2233.4169289246092
 20
1165.2410513398294
 11
2252.3247267740398
 21
1165.2410513398294
  0
CIRCLE
  8
_0-3_断面__扉
  6
CONTINUOUS
 62
    4
 10
2245.4169289246096
 20
1165.2410513398294
 40
2.5
  0
CIRCLE
  8
_0-3_断面__扉
  6
CONTINUOUS
 62
    7
 10
2245.4169289246096
 20
1165.2410513398294
 40
2.5
  0
LINE
  8
_0-3_断面__扉
  6
CENTER2
 62
    4
 10
2245.4169289246096
 20
1175.2410513398294
 11
2245.4169289246096
 21
1155.2410513398294
  0
LINE
  8
_0-3_断面__扉
  6
CENTER2
 62
    4
 10
2235.4169289246092
 20
1165.2410513398294
 11
2257.9169289246096
 21
1165.2410513398294
  0
CIRCLE
  8
_0-3_断面__扉
  6
CONTINUOUS
 62
    4
 10
1993.4169289246094
 20
1105.2410513398294
 40
2.5
  0
LINE
  8
ADD_LINE
  6
DOT
 62
    9
 10
1993.4169289246094
 20
1105.2410513398294
 11
1963.6469323160285
 21
1105.2410513398294
  0
CIRCLE
  8
_0-3_断面__扉
  6
CONTINUOUS
 62
    7
 10
1993.4169289246094
 20
1105.2410513398294
 40
2.5
  0
LINE
  8
_0-3_断面__扉
  6
CENTER2
 62
    4
 10
1993.4169289246094
 20
1115.2410513398294
 11
1993.4169289246094
 21
1095.2410513398294
  0
LINE
  8
_0-3_断面__扉
  6
CENTER2
 62
    4
 10
1983.4169289246094
 20
1105.2410513398294
 11
2005.9169289246094
 21
1105.2410513398294
  0
LINE
  8
ADD_LINE
  6
DOT
 62
    9
 10
2233.4169289246092
 20
1105.2410513398294
 11
2252.3247267740398
 21
1105.2410513398294
  0
CIRCLE
  8
_0-3_断面__扉
  6
CONTINUOUS
 62
    4
 10
2245.4169289246096
 20
1105.2410513398294
 40
2.5
  0
CIRCLE
  8
_0-3_断面__扉
  6
CONTINUOUS
 62
    7
 10
2245.4169289246096
 20
1105.2410513398294
 40
2.5
  0
LINE
  8
_0-3_断面__扉
  6
CENTER2
 62
    4
 10
2245.4169289246096
 20
1115.2410513398294
 11
2245.4169289246096
 21
1095.2410513398294
  0
LINE
  8
_0-3_断面__扉
  6
CENTER2
 62
    4
 10
2235.4169289246092
 20
1105.2410513398294
 11
2257.9169289246096
 21
1105.2410513398294
  0
CIRCLE
  8
_0-3_断面__扉
  6
CONTINUOUS
 62
    4
 10
1993.4169289246094
 20
1045.2410513398294
 40
2.5
  0
LINE
  8
ADD_LINE
  6
DOT
 62
    9
 10
1993.4169289246094
 20
1045.2410513398294
 11
1963.6469323160285
 21
1045.2410513398294
  0
CIRCLE
  8
_0-3_断面__扉
  6
CONTINUOUS
 62
    7
 10
1993.4169289246094
 20
1045.2410513398294
 40
2.5
  0
LINE
  8
_0-3_断面__扉
  6
CENTER2
 62
    4
 10
1993.4169289246094
 20
1055.2410513398294
 11
1993.4169289246094
 21
1035.2410513398294
  0
LINE
  8
_0-3_断面__扉
  6
CENTER2
 62
    4
 10
1983.4169289246094
 20
1045.2410513398294
 11
2005.9169289246094
 21
1045.2410513398294
  0
LINE
  8
ADD_LINE
  6
DOT
 62
    9
 10
2233.4169289246092
 20
1045.2410513398294
 11
2252.3247267740398
 21
1045.2410513398294
  0
CIRCLE
  8
_0-3_断面__扉
  6
CONTINUOUS
 62
    4
 10
2245.4169289246096
 20
1045.2410513398294
 40
2.5
  0
CIRCLE
  8
_0-3_断面__扉
  6
CONTINUOUS
 62
    7
 10
2245.4169289246096
 20
1045.2410513398294
 40
2.5
  0
LINE
  8
_0-3_断面__扉
  6
CENTER2
 62
    4
 10
2245.4169289246096
 20
1055.2410513398294
 11
2245.4169289246096
 21
1035.2410513398294
  0
LINE
  8
_0-3_断面__扉
  6
CENTER2
 62
    4
 10
2235.4169289246092
 20
1045.2410513398294
 11
2257.9169289246096
 21
1045.2410513398294
  0
CIRCLE
  8
_0-3_断面__扉
  6
CONTINUOUS
 62
    4
 10
1993.4169289246094
 20
985.24105133982959
 40
2.5
  0
LINE
  8
ADD_LINE
  6
DOT
 62
    9
 10
1993.4169289246094
 20
985.24105133982959
 11
1963.6469323160285
 21
985.24105133982959
  0
CIRCLE
  8
_0-3_断面__扉
  6
CONTINUOUS
 62
    7
 10
1993.4169289246094
 20
985.24105133982959
 40
2.5
  0
LINE
  8
_0-3_断面__扉
  6
CENTER2
 62
    4
 10
1993.4169289246094
 20
995.24105133982959
 11
1993.4169289246094
 21
975.24105133982959
  0
LINE
  8
_0-3_断面__扉
  6
CENTER2
 62
    4
 10
1983.4169289246094
 20
985.24105133982959
 11
2005.9169289246094
 21
985.24105133982959
  0
LINE
  8
ADD_LINE
  6
DOT
 62
    9
 10
2233.4169289246092
 20
985.24105133982959
 11
2252.3247267740398
 21
985.24105133982959
  0
CIRCLE
  8
_0-3_断面__扉
  6
CONTINUOUS
 62
    4
 10
2245.4169289246096
 20
985.24105133982959
 40
2.5
  0
CIRCLE
  8
_0-3_断面__扉
  6
CONTINUOUS
 62
    7
 10
2245.4169289246096
 20
985.24105133982959
 40
2.5
  0
LINE
  8
_0-3_断面__扉
  6
CENTER2
 62
    4
 10
2245.4169289246096
 20
995.24105133982959
 11
2245.4169289246096
 21
975.24105133982959
  0
LINE
  8
_0-3_断面__扉
  6
CENTER2
 62
    4
 10
2235.4169289246092
 20
985.24105133982959
 11
2257.9169289246096
 21
985.24105133982959
  0
CIRCLE
  8
_0-3_断面__扉
  6
CONTINUOUS
 62
    4
 10
1994.8570920036449
 20
925.24105133982959
 40
2.5
  0
LINE
  8
ADD_LINE
  6
DOT
 62
    9
 10
1994.8570920036449
 20
925.24105133982959
 11
1965.0870953950643
 21
925.24105133982959
  0
CIRCLE
  8
_0-3_断面__扉
  6
CONTINUOUS
 62
    7
 10
1994.8570920036449
 20
925.24105133982959
 40
2.5
  0
LINE
  8
_0-3_断面__扉
  6
CENTER2
 62
    4
 10
1994.8570920036449
 20
935.24105133982959
 11
1994.8570920036449
 21
915.24105133982959
  0
LINE
  8
_0-3_断面__扉
  6
CENTER2
 62
    4
 10
1984.8570920036449
 20
925.24105133982959
 11
2007.3570920036449
 21
925.24105133982959
  0
LINE
  8
ADD_LINE
  6
DOT
 62
    9
 10
2234.8570920036449
 20
925.24105133982959
 11
2253.764889853076
 21
925.24105133982959
  0
CIRCLE
  8
_0-3_断面__扉
  6
CONTINUOUS
 62
    4
 10
2246.8570920036454
 20
925.24105133982959
 40
2.5
  0
CIRCLE
  8
_0-3_断面__扉
  6
CONTINUOUS
 62
    7
 10
2246.8570920036454
 20
925.24105133982959
 40
2.5
  0
LINE
  8
_0-3_断面__扉
  6
CENTER2
 62
    4
 10
2246.8570920036454
 20
935.24105133982959
 11
2246.8570920036454
 21
915.24105133982959
  0
LINE
  8
_0-3_断面__扉
  6
CENTER2
 62
    4
 10
2236.8570920036454
 20
925.24105133982959
 11
2259.3570920036454
 21
925.24105133982959
  0
CIRCLE
  8
_0-0_立面本体
  6
CONTINUOUS
 62
    7
 10
1993.4169289246094
 20
1045.2410513398294
 40
1.5000000000000002
  0
LINE
  8
_0-0_立面本体
  6
CONTINUOUS
 62
    7
 10
1998.4169289246094
 20
1046.3099263398296
 11
1998.4169289246094
 21
1047.2410513398294
  0
LINE
  8
_0-0_立面本体
  6
CONTINUOUS
 62
    7
 10
1998.4169289246094
 20
1047.2410513398294
 11
1999.3457039246093
 21
1047.3073763398294
  0
LINE
  8
_0-0_立面本体
  6
CONTINUOUS
 62
    7
 10
1988.4169289246094
 20
1045.2410513398294
 11
1988.4169289246094
 21
1046.2410513398294
  0
LINE
  8
_0-0_立面本体
  6
CONTINUOUS
 62
    7
 10
1987.4169289246092
 20
1047.2410513398294
 11
1974.9169289246092
 21
1047.2410513398294
  0
LINE
  8
_0-0_立面本体
  6
CONTINUOUS
 62
    7
 10
1998.4169289246094
 20
1045.2410513398294
 11
1998.4169289246094
 21
1046.3099263398296
  0
LINE
  8
_0-0_立面本体
  6
CONTINUOUS
 62
    7
 10
1999.3457039246093
 20
1047.3073763398294
 11
2011.4881789246092
 21
1048.1747013398294
  0
LINE
  8
_0-0_立面本体
  6
CONTINUOUS
 62
    7
 10
2012.4169289246092
 20
1049.1721513398294
 11
2012.4169289246092
 21
1049.2410513398294
  0
LINE
  8
_0-0_立面本体
  6
CONTINUOUS
 62
    7
 10
1980.0509039246094
 20
1067.2410513398294
 11
1978.1745289246091
 21
1070.4910513398294
  0
LINE
  8
_0-0_立面本体
  6
CONTINUOUS
 62
    7
 10
2011.4169289246092
 20
1050.2410513398294
 11
1975.9169289246094
 21
1050.2410513398294
  0
LINE
  8
_0-0_立面本体
  6
CONTINUOUS
 62
    7
 10
1979.1848789246093
 20
1065.7410513398294
 11
1975.9169289246094
 21
1065.7410513398294
  0
LINE
  8
_0-0_立面本体
  6
CONTINUOUS
 62
    7
 10
1974.9169289246092
 20
1064.7410513398294
 11
1974.9169289246092
 21
1051.2410513398294
  0
ARC
  8
_0-0_立面本体
  6
CONTINUOUS
 62
    7
 10
1974.9169289246092
 20
1051.0410513398296
 40
3.7999999999999998
 50
177.46800000000004
 51
270.00000000000005
  0
ARC
  8
_0-0_立面本体
  6
CONTINUOUS
 62
    7
 10
1993.4169289246094
 20
1045.2410513398294
 40
5
 50
180.00000000000005
 51
0.0000000000001017
  0
CIRCLE
  8
_0-0_立面本体
  6
PHANTOM2
 62
    7
 10
1993.4169289246094
 20
1045.2410513398294
 40
4.0999999999999996
  0
CIRCLE
  8
_0-0_立面本体
  6
PHANTOM2
 62
    7
 10
1993.4169289246094
 20
1045.2410513398294
 40
1.925
  0
ARC
  8
_0-0_立面本体
  6
CONTINUOUS
 62
    7
 10
1973.0737039246093
 20
1069.7410513398294
 40
1
 50
90.000000000000028
 51
177.46800000000004
  0
ARC
  8
_0-0_立面本体
  6
CONTINUOUS
 62
    7
 10
1977.7415039246093
 20
1070.2410513398294
 40
0.5
 50
30.000000000000003
 51
90.000000000000028
  0
ARC
  8
_0-0_立面本体
  6
CONTINUOUS
 62
    7
 10
1987.4169289246092
 20
1046.2410513398294
 40
1
 50
0
 51
90.000000000000028
  0
ARC
  8
_0-0_立面本体
  6
CONTINUOUS
 62
    7
 10
1999.4169289246092
 20
1046.3099263398296
 40
1
 50
94.086000000000041
 51
180.00000000000005
  0
ARC
  8
_0-0_立面本体
  6
CONTINUOUS
 62
    7
 10
2011.4169289246092
 20
1049.1721513398294
 40
1
 50
274.08600000000006
 51
0.0000000000000508
  0
ARC
  8
_0-0_立面本体
  6
CONTINUOUS
 62
    7
 10
2011.4169289246092
 20
1049.2410513398294
 40
1
 50
0
 51
90.000000000000028
  0
ARC
  8
_0-0_立面本体
  6
CONTINUOUS
 62
    7
 10
1979.1848789246093
 20
1066.7410513398294
 40
1
 50
270.00000000000005
 51
30.000000000000042
  0
ARC
  8
_0-0_立面本体
  6
CONTINUOUS
 62
    7
 10
1975.9169289246094
 20
1064.7410513398294
 40
1
 50
90.000000000000028
 51
180.00000000000005
  0
ARC
  8
_0-0_立面本体
  6
CONTINUOUS
 62
    7
 10
1975.9169289246094
 20
1051.2410513398294
 40
1
 50
180.00000000000005
 51
270.00000000000005
  0
LINE
  8
_0-0_立面本体
  6
CONTINUOUS
 62
    7
 10
1973.0737039246093
 20
1070.7410513398294
 11
1977.7415039246093
 21
1070.7410513398294
  0
LINE
  8
_0-0_立面本体
  6
CONTINUOUS
 62
    7
 10
1971.120653924609
 20
1051.2089013398294
 11
1972.0754008738583
 21
1069.7992837952231
  0
LINE
  8
_0-0_立面本体
  6
CENTER1
 62
    7
 10
1993.4169289246094
 20
1045.2410513398294
 11
1993.4169289246094
 21
1039.1263234621712
  0
LINE
  8
_0-0_立面本体
  6
CENTER1
 62
    7
 10
1993.4169289246094
 20
1045.2410513398294
 11
1993.4169289246094
 21
1051.3384542918822
  0
LINE
  8
_0-0_立面本体
  6
CENTER1
 62
    7
 10
1993.5297909957287
 20
1045.2410513398294
 11
1990.8501525737972
 21
1045.2410513398294
  0
LINE
  8
_0-0_立面本体
  6
CENTER1
 62
    7
 10
1993.5297909957287
 20
1045.2410513398294
 11
1996.1950741003743
 21
1045.2410513398294
  0
ARC
  8
_0-0_立面本体
  6
CONTINUOUS
 62
    7
 10
2259.6489789246097
 20
1066.7410513398294
 40
1
 50
149.99999999999994
 51
269.99999999999994
  0
CIRCLE
  8
_0-0_立面本体
  6
CONTINUOUS
 62
    7
 10
2245.4169289246096
 20
1045.2410513398294
 40
1.5000000000000002
  0
LINE
  8
_0-0_立面本体
  6
CONTINUOUS
 62
    7
 10
2240.4169289246096
 20
1046.3099263398296
 11
2240.4169289246096
 21
1047.2410513398294
  0
LINE
  8
_0-0_立面本体
  6
CONTINUOUS
 62
    7
 10
2240.4169289246096
 20
1047.2410513398294
 11
2239.4881539246093
 21
1047.3073763398294
  0
LINE
  8
_0-0_立面本体
  6
CONTINUOUS
 62
    7
 10
2250.4169289246096
 20
1045.2410513398294
 11
2250.4169289246096
 21
1046.2410513398294
  0
LINE
  8
_0-0_立面本体
  6
CONTINUOUS
 62
    7
 10
2251.4169289246096
 20
1047.2410513398294
 11
2263.9169289246096
 21
1047.2410513398294
  0
LINE
  8
_0-0_立面本体
  6
CONTINUOUS
 62
    7
 10
2240.4169289246096
 20
1045.2410513398294
 11
2240.4169289246096
 21
1046.3099263398296
  0
LINE
  8
_0-0_立面本体
  6
CONTINUOUS
 62
    7
 10
2239.4881539246093
 20
1047.3073763398294
 11
2227.3456789246092
 21
1048.1747013398294
  0
LINE
  8
_0-0_立面本体
  6
CONTINUOUS
 62
    7
 10
2226.4169289246096
 20
1049.1721513398294
 11
2226.4169289246096
 21
1049.2410513398294
  0
LINE
  8
_0-0_立面本体
  6
CONTINUOUS
 62
    7
 10
2258.7829539246095
 20
1067.2410513398294
 11
2260.6593289246093
 21
1070.4910513398294
  0
LINE
  8
_0-0_立面本体
  6
CONTINUOUS
 62
    7
 10
2227.4169289246092
 20
1050.2410513398294
 11
2262.9169289246096
 21
1050.2410513398294
  0
LINE
  8
_0-0_立面本体
  6
CONTINUOUS
 62
    7
 10
2259.6489789246097
 20
1065.7410513398294
 11
2262.9169289246096
 21
1065.7410513398294
  0
LINE
  8
_0-0_立面本体
  6
CONTINUOUS
 62
    7
 10
2263.9169289246096
 20
1064.7410513398294
 11
2263.9169289246096
 21
1051.2410513398294
  0
ARC
  8
_0-0_立面本体
  6
CONTINUOUS
 62
    7
 10
2263.9169289246096
 20
1051.0410513398296
 40
3.7999999999999998
 50
269.99999999999994
 51
2.5319999999999902
  0
ARC
  8
_0-0_立面本体
  6
CONTINUOUS
 62
    7
 10
2245.4169289246096
 20
1045.2410513398294
 40
5
 50
179.99999999999985
 51
359.99999999999988
  0
CIRCLE
  8
_0-0_立面本体
  6
PHANTOM2
 62
    7
 10
2245.4169289246096
 20
1045.2410513398294
 40
4.0999999999999996
  0
CIRCLE
  8
_0-0_立面本体
  6
PHANTOM2
 62
    7
 10
2245.4169289246096
 20
1045.2410513398294
 40
1.925
  0
ARC
  8
_0-0_立面本体
  6
CONTINUOUS
 62
    7
 10
2265.7601539246093
 20
1069.7410513398294
 40
1
 50
2.531999999999964
 51
89.999999999999957
  0
ARC
  8
_0-0_立面本体
  6
CONTINUOUS
 62
    7
 10
2261.0923539246095
 20
1070.2410513398294
 40
0.5
 50
89.999999999999985
 51
149.99999999999997
  0
ARC
  8
_0-0_立面本体
  6
CONTINUOUS
 62
    7
 10
2251.4169289246096
 20
1046.2410513398294
 40
1
 50
89.999999999999971
 51
180
  0
ARC
  8
_0-0_立面本体
  6
CONTINUOUS
 62
    7
 10
2239.4169289246092
 20
1046.3099263398296
 40
1
 50
359.99999999999994
 51
85.913999999999987
  0
ARC
  8
_0-0_立面本体
  6
CONTINUOUS
 62
    7
 10
2227.4169289246092
 20
1049.1721513398294
 40
1
 50
179.99999999999994
 51
265.91399999999993
  0
ARC
  8
_0-0_立面本体
  6
CONTINUOUS
 62
    7
 10
2227.4169289246092
 20
1049.2410513398294
 40
1
 50
89.999999999999971
 51
180
  0
ARC
  8
_0-0_立面本体
  6
CONTINUOUS
 62
    7
 10
2262.9169289246096
 20
1064.7410513398294
 40
1
 50
359.99999999999994
 51
89.999999999999943
  0
ARC
  8
_0-0_立面本体
  6
CONTINUOUS
 62
    7
 10
2262.9169289246096
 20
1051.2410513398294
 40
1
 50
269.99999999999988
 51
359.99999999999988
  0
LINE
  8
_0-0_立面本体
  6
CONTINUOUS
 62
    7
 10
2265.7601539246093
 20
1070.7410513398294
 11
2261.0923539246095
 21
1070.7410513398294
  0
LINE
  8
_0-0_立面本体
  6
CONTINUOUS
 62
    7
 10
2267.7132039246093
 20
1051.2089013398294
 11
2266.7584569753603
 21
1069.7992837952231
  0
LINE
  8
_0-0_立面本体
  6
CENTER1
 62
    7
 10
2245.4169289246096
 20
1045.2410513398294
 11
2245.4169289246096
 21
1039.1263234621712
  0
LINE
  8
_0-0_立面本体
  6
CENTER1
 62
    7
 10
2245.4169289246096
 20
1045.2410513398294
 11
2245.4169289246096
 21
1051.3384542918822
  0
LINE
  8
_0-0_立面本体
  6
CENTER1
 62
    7
 10
2245.3040668534899
 20
1045.2410513398294
 11
2247.9837052754214
 21
1045.2410513398294
  0
LINE
  8
_0-0_立面本体
  6
CENTER1
 62
    7
 10
2245.3040668534899
 20
1045.2410513398294
 11
2242.6387837488446
 21
1045.2410513398294
  0
ARC
  8
_0-0_立面本体
  6
CONTINUOUS
 62
    7
 10
1993.4169289246094
 20
1045.2410513398294
 40
7.0000000000000017
 50
45.585000000000007
 51
134.41500000000002
  0
ARC
  8
_0-0_立面本体
  6
CONTINUOUS
 62
    7
 10
1993.4169289246094
 20
1045.2410513398294
 40
11
 50
27.036000000000012
 51
152.96400000000005
  0
ARC
  8
_0-0_立面本体
  6
CONTINUOUS
 62
    7
 10
2245.4169289246096
 20
1045.2410513398294
 40
7.0000000000000017
 50
45.585000000000007
 51
134.41500000000002
  0
ARC
  8
_0-0_立面本体
  6
CONTINUOUS
 62
    7
 10
2245.4169289246096
 20
1045.2410513398294
 40
11
 50
27.036000000000012
 51
152.96400000000005
  0
LINE
  8
_0-0_立面本体
  6
DASHED1
 62
    7
 10
828.34258152831353
 20
1050.2410513398292
 11
837.34258152831375
 21
1050.2410513398292
  0
LINE
  8
_0-0_立面本体
  6
DASHED1
 62
    7
 10
827.34258152831375
 20
1050.2410513398292
 11
837.34258152831375
 21
1050.2410513398292
  0
LINE
  8
_0-0_立面本体
  6
DASHED1
 62
    7
 10
817.34788152831356
 20
1045.2410513398292
 11
839.62880652831381
 21
1045.2410513398292
  0
LINE
  8
_0-0_立面本体
  6
DASHED1
 62
    7
 10
827.34258152831375
 20
1041.6410513398293
 11
827.34258152831375
 21
1048.8410513398293
  0
LINE
  8
_0-0_立面本体
  6
DASHED1
 62
    7
 10
828.14258152831371
 20
1047.7410513398292
 11
828.14258152831371
 21
1042.7410513398292
  0
LINE
  8
_0-0_立面本体
  6
DASHED1
 62
    7
 10
836.14258152831371
 20
1043.2410513398292
 11
828.64258152831371
 21
1043.2410513398292
  0
LINE
  8
_0-0_立面本体
  6
DASHED1
 62
    7
 10
828.14258152831371
 20
1042.7410513398292
 11
828.14258152831371
 21
1041.6410513398293
  0
LINE
  8
_0-0_立面本体
  6
DASHED1
 62
    7
 10
826.84258152831398
 20
1042.8410513398291
 11
818.84258152831364
 21
1042.8410513398291
  0
LINE
  8
_0-0_立面本体
  6
DASHED1
 62
    7
 10
818.34258152831353
 20
1043.3410513398293
 11
818.34258152831353
 21
1047.1410513398293
  0
LINE
  8
_0-0_立面本体
  6
DASHED1
 62
    7
 10
818.84258152831364
 20
1047.6410513398291
 11
826.84258152831398
 21
1047.6410513398291
  0
LINE
  8
_0-0_立面本体
  6
DASHED1
 62
    7
 10
828.14258152831371
 20
1048.8410513398293
 11
828.14258152831371
 21
1047.7410513398292
  0
LINE
  8
_0-0_立面本体
  6
DASHED1
 62
    7
 10
828.64258152831371
 20
1047.2410513398292
 11
836.14258152831371
 21
1047.2410513398292
  0
LINE
  8
_0-0_立面本体
  6
DASHED1
 62
    7
 10
836.14258152831371
 20
1047.2410513398292
 11
836.14258152831371
 21
1043.2410513398292
  0
LINE
  8
_0-0_立面本体
  6
DASHED1
 62
    7
 10
836.54258152831357
 20
1046.7410513398292
 11
836.54258152831357
 21
1047.2410513398292
  0
LINE
  8
_0-0_立面本体
  6
DASHED1
 62
    7
 10
837.34258152831375
 20
1049.3410513398291
 11
837.34258152831375
 21
1040.7410513398292
  0
LINE
  8
_0-0_立面本体
  6
DASHED1
 62
    7
 10
836.54258152831357
 20
1046.7410513398292
 11
837.34258152831375
 21
1046.7410513398292
  0
LINE
  8
_0-0_立面本体
  6
DASHED1
 62
    7
 10
836.54258152831357
 20
1043.7410513398292
 11
837.34258152831375
 21
1043.7410513398292
  0
LINE
  8
_0-0_立面本体
  6
DASHED1
 62
    7
 10
827.34258152831375
 20
1043.2410513398292
 11
836.14258152831371
 21
1043.2410513398292
  0
LINE
  8
_0-0_立面本体
  6
DASHED1
 62
    7
 10
827.34258152831375
 20
1040.7410513398292
 11
827.34258152831375
 21
1043.2410513398292
  0
LINE
  8
_0-0_立面本体
  6
DASHED1
 62
    7
 10
836.14258152831371
 20
1043.2410513398292
 11
836.54258152831357
 21
1043.2410513398292
  0
LINE
  8
_0-0_立面本体
  6
DASHED1
 62
    7
 10
827.34258152831375
 20
1047.2410513398292
 11
836.54258152831357
 21
1047.2410513398292
  0
LINE
  8
_0-0_立面本体
  6
DASHED1
 62
    7
 10
836.54258152831357
 20
1043.2410513398292
 11
836.54258152831357
 21
1043.7410513398292
  0
LINE
  8
_0-0_立面本体
  6
DASHED1
 62
    7
 10
827.34258152831375
 20
1048.1747013398291
 11
837.34258152831375
 21
1048.1747013398291
  0
LINE
  8
_0-0_立面本体
  6
DASHED1
 62
    7
 10
836.54258152831357
 20
1047.2410513398292
 11
837.34258152831375
 21
1047.2410513398292
  0
LINE
  8
_0-0_立面本体
  6
DASHED1
 62
    7
 10
837.34258152831375
 20
1050.2410513398292
 11
837.34258152831375
 21
1049.3410513398291
  0
LINE
  8
_0-0_立面本体
  6
DASHED1
 62
    7
 10
827.34258152831375
 20
1043.2410513398292
 11
827.34258152831375
 21
1050.2410513398292
  0
LINE
  8
_0-0_立面本体
  6
DASHED1
 62
    7
 10
827.84258152831353
 20
1070.7410513398292
 11
836.84258152831398
 21
1070.7410513398292
  0
LINE
  8
_0-0_立面本体
  6
DASHED1
 62
    7
 10
836.84258152831398
 20
1040.2410513398292
 11
827.84258152831353
 21
1040.2410513398292
  0
LINE
  8
_0-0_立面本体
  6
DASHED1
 62
    7
 10
825.86518152831376
 20
1045.2410513398292
 11
838.93900652831371
 21
1045.2410513398292
  0
LINE
  8
_0-0_立面本体
  6
DASHED1
 62
    7
 10
837.34258152831375
 20
1070.2410513398292
 11
837.34258152831375
 21
1050.2410513398292
  0
ARC
  8
_0-0_立面本体
  6
DASHED1
 62
    7
 10
826.84258152831398
 20
1048.1410513398291
 40
0.5
 50
270.00000000000005
 51
0.0000000000000508
  0
ARC
  8
_0-0_立面本体
  6
DASHED1
 62
    7
 10
826.84258152831398
 20
1042.3410513398291
 40
0.5
 50
0
 51
90.000000000000028
  0
ARC
  8
_0-0_立面本体
  6
DASHED1
 62
    7
 10
828.64258152831371
 20
1042.7410513398292
 40
0.5
 50
90.000000000000028
 51
180.00000000000005
  0
ARC
  8
_0-0_立面本体
  6
DASHED1
 62
    7
 10
828.64258152831371
 20
1047.7410513398292
 40
0.5
 50
180.00000000000005
 51
270.00000000000005
  0
ARC
  8
_0-0_立面本体
  6
DASHED1
 62
    7
 10
818.84258152831364
 20
1047.1410513398293
 40
0.5
 50
90.000000000000028
 51
180.00000000000005
  0
ARC
  8
_0-0_立面本体
  6
DASHED1
 62
    7
 10
818.84258152831364
 20
1043.3410513398293
 40
0.5
 50
180.00000000000005
 51
270.00000000000005
  0
ARC
  8
_0-0_立面本体
  6
DASHED1
 62
    7
 10
827.74258152831362
 20
1041.6410513398293
 40
0.4
 50
270.00000000000005
 51
0.0000000000000508
  0
ARC
  8
_0-0_立面本体
  6
DASHED1
 62
    7
 10
827.74258152831362
 20
1041.6410513398293
 40
0.4
 50
180.00000000000005
 51
270.00000000000005
  0
ARC
  8
_0-0_立面本体
  6
DASHED1
 62
    7
 10
827.74258152831362
 20
1048.8410513398293
 40
0.4
 50
90.000000000000028
 51
180.00000000000005
  0
ARC
  8
_0-0_立面本体
  6
DASHED1
 62
    7
 10
827.74258152831362
 20
1048.8410513398293
 40
0.4
 50
0
 51
90.000000000000028
  0
ARC
  8
_0-0_立面本体
  6
DASHED1
 62
    7
 10
827.84258152831353
 20
1070.2410513398292
 40
0.5
 50
90.000000000000028
 51
180.00000000000005
  0
ARC
  8
_0-0_立面本体
  6
DASHED1
 62
    7
 10
836.84258152831398
 20
1070.2410513398292
 40
0.5
 50
0
 51
90.000000000000028
  0
ARC
  8
_0-0_立面本体
  6
DASHED1
 62
    7
 10
836.84258152831398
 20
1040.7410513398292
 40
0.5
 50
270.00000000000005
 51
0.0000000000000508
  0
ARC
  8
_0-0_立面本体
  6
DASHED1
 62
    7
 10
827.84258152831353
 20
1040.7410513398292
 40
0.5
 50
180.00000000000005
 51
270.00000000000005
  0
LINE
  8
_0-0_立面本体
  6
DASHED1
 62
    7
 10
827.34258152831375
 20
1050.2410513398292
 11
827.34258152831375
 21
1070.2410513398292
  0
LINE
  8
_0-0_立面本体
  6
DASHED1
 62
    7
 10
1102.3425815283139
 20
1050.2410513398292
 11
1093.3425815283139
 21
1050.2410513398292
  0
LINE
  8
_0-0_立面本体
  6
DASHED1
 62
    7
 10
1103.3425815283139
 20
1050.2410513398292
 11
1093.3425815283139
 21
1050.2410513398292
  0
LINE
  8
_0-0_立面本体
  6
DASHED1
 62
    7
 10
1113.3372815283139
 20
1045.2410513398292
 11
1091.0563565283139
 21
1045.2410513398292
  0
LINE
  8
_0-0_立面本体
  6
DASHED1
 62
    7
 10
1103.3425815283139
 20
1041.6410513398293
 11
1103.3425815283139
 21
1048.8410513398293
  0
LINE
  8
_0-0_立面本体
  6
DASHED1
 62
    7
 10
1102.5425815283138
 20
1047.7410513398292
 11
1102.5425815283138
 21
1042.7410513398292
  0
LINE
  8
_0-0_立面本体
  6
DASHED1
 62
    7
 10
1094.542581528314
 20
1043.2410513398292
 11
1102.042581528314
 21
1043.2410513398292
  0
LINE
  8
_0-0_立面本体
  6
DASHED1
 62
    7
 10
1102.5425815283138
 20
1042.7410513398292
 11
1102.5425815283138
 21
1041.6410513398293
  0
LINE
  8
_0-0_立面本体
  6
DASHED1
 62
    7
 10
1103.8425815283137
 20
1042.8410513398291
 11
1111.8425815283139
 21
1042.8410513398291
  0
LINE
  8
_0-0_立面本体
  6
DASHED1
 62
    7
 10
1112.3425815283139
 20
1043.3410513398293
 11
1112.3425815283139
 21
1047.1410513398293
  0
LINE
  8
_0-0_立面本体
  6
DASHED1
 62
    7
 10
1111.8425815283139
 20
1047.6410513398291
 11
1103.8425815283137
 21
1047.6410513398291
  0
LINE
  8
_0-0_立面本体
  6
DASHED1
 62
    7
 10
1102.5425815283138
 20
1048.8410513398293
 11
1102.5425815283138
 21
1047.7410513398292
  0
LINE
  8
_0-0_立面本体
  6
DASHED1
 62
    7
 10
1102.042581528314
 20
1047.2410513398292
 11
1094.542581528314
 21
1047.2410513398292
  0
LINE
  8
_0-0_立面本体
  6
DASHED1
 62
    7
 10
1094.542581528314
 20
1047.2410513398292
 11
1094.542581528314
 21
1043.2410513398292
  0
LINE
  8
_0-0_立面本体
  6
DASHED1
 62
    7
 10
1094.1425815283141
 20
1046.7410513398292
 11
1094.1425815283141
 21
1047.2410513398292
  0
LINE
  8
_0-0_立面本体
  6
DASHED1
 62
    7
 10
1093.3425815283139
 20
1049.3410513398291
 11
1093.3425815283139
 21
1040.7410513398292
  0
LINE
  8
_0-0_立面本体
  6
DASHED1
 62
    7
 10
1094.1425815283141
 20
1046.7410513398292
 11
1093.3425815283139
 21
1046.7410513398292
  0
LINE
  8
_0-0_立面本体
  6
DASHED1
 62
    7
 10
1094.1425815283141
 20
1043.7410513398292
 11
1093.3425815283139
 21
1043.7410513398292
  0
LINE
  8
_0-0_立面本体
  6
DASHED1
 62
    7
 10
1103.3425815283139
 20
1043.2410513398292
 11
1094.542581528314
 21
1043.2410513398292
  0
LINE
  8
_0-0_立面本体
  6
DASHED1
 62
    7
 10
1103.3425815283139
 20
1040.7410513398292
 11
1103.3425815283139
 21
1043.2410513398292
  0
LINE
  8
_0-0_立面本体
  6
DASHED1
 62
    7
 10
1094.542581528314
 20
1043.2410513398292
 11
1094.1425815283141
 21
1043.2410513398292
  0
LINE
  8
_0-0_立面本体
  6
DASHED1
 62
    7
 10
1103.3425815283139
 20
1047.2410513398292
 11
1094.1425815283141
 21
1047.2410513398292
  0
LINE
  8
_0-0_立面本体
  6
DASHED1
 62
    7
 10
1094.1425815283141
 20
1043.2410513398292
 11
1094.1425815283141
 21
1043.7410513398292
  0
LINE
  8
_0-0_立面本体
  6
DASHED1
 62
    7
 10
1103.3425815283139
 20
1048.1747013398291
 11
1093.3425815283139
 21
1048.1747013398291
  0
LINE
  8
_0-0_立面本体
  6
DASHED1
 62
    7
 10
1094.1425815283141
 20
1047.2410513398292
 11
1093.3425815283139
 21
1047.2410513398292
  0
LINE
  8
_0-0_立面本体
  6
DASHED1
 62
    7
 10
1093.3425815283139
 20
1050.2410513398292
 11
1093.3425815283139
 21
1049.3410513398291
  0
LINE
  8
_0-0_立面本体
  6
DASHED1
 62
    7
 10
1103.3425815283139
 20
1043.2410513398292
 11
1103.3425815283139
 21
1050.2410513398292
  0
LINE
  8
_0-0_立面本体
  6
DASHED1
 62
    7
 10
1102.8425815283142
 20
1070.7410513398292
 11
1093.8425815283137
 21
1070.7410513398292
  0
LINE
  8
_0-0_立面本体
  6
DASHED1
 62
    7
 10
1093.8425815283137
 20
1040.2410513398292
 11
1102.8425815283142
 21
1040.2410513398292
  0
LINE
  8
_0-0_立面本体
  6
DASHED1
 62
    7
 10
1104.8199815283139
 20
1045.2410513398292
 11
1091.746156528314
 21
1045.2410513398292
  0
LINE
  8
_0-0_立面本体
  6
DASHED1
 62
    7
 10
1093.3425815283139
 20
1070.2410513398292
 11
1093.3425815283139
 21
1050.2410513398292
  0
ARC
  8
_0-0_立面本体
  6
DASHED1
 62
    7
 10
1103.8425815283137
 20
1048.1410513398291
 40
0.5
 50
179.99999999999991
 51
269.99999999999994
  0
ARC
  8
_0-0_立面本体
  6
DASHED1
 62
    7
 10
1103.8425815283137
 20
1042.3410513398291
 40
0.5
 50
89.999999999999971
 51
180
  0
ARC
  8
_0-0_立面本体
  6
DASHED1
 62
    7
 10
1102.042581528314
 20
1042.7410513398292
 40
0.5
 50
359.99999999999994
 51
89.999999999999943
  0
ARC
  8
_0-0_立面本体
  6
DASHED1
 62
    7
 10
1102.042581528314
 20
1047.7410513398292
 40
0.5
 50
269.99999999999988
 51
359.99999999999988
  0
ARC
  8
_0-0_立面本体
  6
DASHED1
 62
    7
 10
1111.8425815283139
 20
1047.1410513398293
 40
0.5
 50
359.99999999999994
 51
89.999999999999943
  0
ARC
  8
_0-0_立面本体
  6
DASHED1
 62
    7
 10
1111.8425815283139
 20
1043.3410513398293
 40
0.5
 50
269.99999999999988
 51
359.99999999999988
  0
ARC
  8
_0-0_立面本体
  6
DASHED1
 62
    7
 10
1102.9425815283141
 20
1041.6410513398293
 40
0.4
 50
179.99999999999991
 51
269.99999999999994
  0
ARC
  8
_0-0_立面本体
  6
DASHED1
 62
    7
 10
1102.9425815283141
 20
1041.6410513398293
 40
0.4
 50
269.99999999999988
 51
359.99999999999988
  0
ARC
  8
_0-0_立面本体
  6
DASHED1
 62
    7
 10
1102.9425815283141
 20
1048.8410513398293
 40
0.4
 50
359.99999999999994
 51
89.999999999999943
  0
ARC
  8
_0-0_立面本体
  6
DASHED1
 62
    7
 10
1102.9425815283141
 20
1048.8410513398293
 40
0.4
 50
89.999999999999971
 51
180
  0
ARC
  8
_0-0_立面本体
  6
DASHED1
 62
    7
 10
1102.8425815283142
 20
1070.2410513398292
 40
0.5
 50
359.99999999999994
 51
89.999999999999943
  0
ARC
  8
_0-0_立面本体
  6
DASHED1
 62
    7
 10
1093.8425815283137
 20
1070.2410513398292
 40
0.5
 50
89.999999999999971
 51
180
  0
ARC
  8
_0-0_立面本体
  6
DASHED1
 62
    7
 10
1093.8425815283137
 20
1040.7410513398292
 40
0.5
 50
179.99999999999991
 51
269.99999999999994
  0
ARC
  8
_0-0_立面本体
  6
DASHED1
 62
    7
 10
1102.8425815283142
 20
1040.7410513398292
 40
0.5
 50
269.99999999999988
 51
359.99999999999988
  0
LINE
  8
_0-0_立面本体
  6
DASHED1
 62
    7
 10
1103.3425815283139
 20
1050.2410513398292
 11
1103.3425815283139
 21
1070.2410513398292
  0
LINE
  8
_0-6_平面扉
  6
CONTINUOUS
 62
    7
 10
1974.9169289246094
 20
1050.2410513398294
 11
2263.9169289246096
 21
1050.2410513398294
  0
LINE
  8
_0-6_平面扉
  6
CONTINUOUS
 62
    7
 10
2263.9169289246096
 20
1050.2410513398294
 11
2263.9169289246096
 21
1065.2410513398294
  0
LINE
  8
_0-6_平面扉
  6
CONTINUOUS
 62
    7
 10
2263.9169289246096
 20
1065.2410513398294
 11
1974.9169289246094
 21
1065.2410513398294
  0
LINE
  8
_0-6_平面扉
  6
CONTINUOUS
 62
    7
 10
1974.9169289246094
 20
1065.2410513398294
 11
1974.9169289246094
 21
1050.2410513398294
  0
LINE
  8
_0-6_平面扉
  6
DASHED1
 62
    7
 10
829.34258152831444
 20
2234.7744603287765
 11
1101.3425815283144
 21
2234.7744603287765
  0
LINE
  8
_0-6_平面扉
  6
DASHED1
 62
    7
 10
1101.3425815283144
 20
2234.7744603287765
 11
1101.3425815283144
 21
2523.7744603287769
  0
LINE
  8
_0-6_平面扉
  6
DASHED1
 62
    7
 10
829.34258152831444
 20
2234.7744603287765
 11
829.34258152831444
 21
2523.7744603287769
  0
LINE
  8
_0-6_平面扉
  6
DASHED1
 62
    7
 10
829.34258152831444
 20
2523.7744603287769
 11
1101.3425815283144
 21
2523.7744603287769
  0
LINE
  8
_0-6_平面扉
  6
DASHED1
 62
    7
 10
829.34258152831375
 20
1065.2410513398294
 11
829.34258152831375
 21
1050.2410513398294
  0
LINE
  8
_0-6_平面扉
  6
DASHED1
 62
    7
 10
1101.3425815283139
 20
1065.2410513398294
 11
829.34258152831375
 21
1065.2410513398294
  0
LINE
  8
_0-6_平面扉
  6
DASHED1
 62
    7
 10
1101.3425815283139
 20
1050.2410513398294
 11
829.34258152831375
 21
1050.2410513398294
  0
LINE
  8
_0-6_平面扉
  6
DASHED1
 62
    7
 10
1101.3425815283139
 20
1050.2410513398294
 11
1101.3425815283139
 21
1065.2410513398294
  0
LINE
  8
_0-b_ラッチ断面__扉側
  6
DASHED1
 62
    7
 10
2022.916928924609
 20
1327.6646013398299
 11
2021.810278924609
 21
1328.3035513398299
  0
LINE
  8
_0-b_ラッチ断面__扉側
  6
DASHED1
 62
    7
 10
2022.916928924609
 20
1326.7986013398299
 11
2020.9169289246092
 21
1327.9533013398299
  0
LINE
  8
_0-b_ラッチ断面__扉側
  6
DASHED1
 62
    7
 10
2022.916928924609
 20
1325.93255133983
 11
2020.9169289246092
 21
1327.0872513398298
  0
LINE
  8
_0-b_ラッチ断面__扉側
  6
DASHED1
 62
    7
 10
2022.916928924609
 20
1325.06655133983
 11
2020.9169289246092
 21
1326.2212513398299
  0
LINE
  8
_0-b_ラッチ断面__扉側
  6
DASHED1
 62
    7
 10
2022.916928924609
 20
1324.2005013398297
 11
2020.9169289246092
 21
1325.35520133983
  0
LINE
  8
_0-b_ラッチ断面__扉側
  6
DASHED1
 62
    7
 10
2022.916928924609
 20
1323.3345013398297
 11
2020.9169289246092
 21
1324.4892013398298
  0
LINE
  8
_0-b_ラッチ断面__扉側
  6
DASHED1
 62
    7
 10
2022.916928924609
 20
1322.4684513398299
 11
2020.9169289246092
 21
1323.6231513398299
  0
LINE
  8
_0-b_ラッチ断面__扉側
  6
DASHED1
 62
    7
 10
2022.916928924609
 20
1321.6024513398297
 11
2020.9169289246092
 21
1322.7571513398299
  0
LINE
  8
_0-b_ラッチ断面__扉側
  6
DASHED1
 62
    7
 10
2022.916928924609
 20
1320.7364013398298
 11
2020.9169289246092
 21
1321.8911013398296
  0
LINE
  8
_0-b_ラッチ断面__扉側
  6
DASHED1
 62
    7
 10
2022.916928924609
 20
1319.8704013398298
 11
2020.9169289246092
 21
1321.0251013398301
  0
LINE
  8
_0-b_ラッチ断面__扉側
  6
DASHED1
 62
    7
 10
2022.916928924609
 20
1319.00435133983
 11
2020.9169289246092
 21
1320.1590513398298
  0
LINE
  8
_0-b_ラッチ断面__扉側
  6
DASHED1
 62
    7
 10
2022.916928924609
 20
1318.13835133983
 11
2020.9169289246092
 21
1319.29305133983
  0
LINE
  8
_0-b_ラッチ断面__扉側
  6
DASHED1
 62
    7
 10
2022.916928924609
 20
1317.2723013398299
 11
2020.9169289246092
 21
1318.4270013398299
  0
LINE
  8
_0-b_ラッチ断面__扉側
  6
DASHED1
 62
    7
 10
2022.916928924609
 20
1316.4063013398299
 11
2020.9169289246092
 21
1317.5610013398297
  0
LINE
  8
_0-b_ラッチ断面__扉側
  6
DASHED1
 62
    7
 10
2022.916928924609
 20
1315.54025133983
 11
2020.9169289246092
 21
1316.6949513398299
  0
LINE
  8
_0-b_ラッチ断面__扉側
  6
DASHED1
 62
    7
 10
2022.916928924609
 20
1314.6742513398298
 11
2020.9169289246092
 21
1315.8289513398299
  0
LINE
  8
_0-b_ラッチ断面__扉側
  6
DASHED1
 62
    7
 10
2022.916928924609
 20
1313.8082013398297
 11
2020.9169289246092
 21
1314.9629013398298
  0
LINE
  8
_0-b_ラッチ断面__扉側
  6
DASHED1
 62
    7
 10
2022.916928924609
 20
1312.94220133983
 11
2020.9169289246092
 21
1314.0969013398298
  0
LINE
  8
_0-b_ラッチ断面__扉側
  6
DASHED1
 62
    7
 10
2022.916928924609
 20
1312.0761513398297
 11
2020.9169289246092
 21
1313.2308513398299
  0
LINE
  8
_0-b_ラッチ断面__扉側
  6
DASHED1
 62
    7
 10
2022.916928924609
 20
1311.2101513398301
 11
2020.9169289246092
 21
1312.36485133983
  0
LINE
  8
_0-b_ラッチ断面__扉側
  6
DASHED1
 62
    7
 10
2022.916928924609
 20
1310.3441013398298
 11
2020.9169289246092
 21
1311.4988013398301
  0
LINE
  8
_0-b_ラッチ断面__扉側
  6
DASHED1
 62
    7
 10
2022.916928924609
 20
1309.4781013398298
 11
2020.9169289246092
 21
1310.6328013398299
  0
LINE
  8
_0-b_ラッチ断面__扉側
  6
DASHED1
 62
    7
 10
2022.916928924609
 20
1308.61205133983
 11
2020.9169289246092
 21
1309.76675133983
  0
LINE
  8
_0-b_ラッチ断面__扉側
  6
DASHED1
 62
    7
 10
2022.916928924609
 20
1307.7460513398298
 11
2020.9169289246092
 21
1308.90075133983
  0
LINE
  8
_0-b_ラッチ断面__扉側
  6
DASHED1
 62
    7
 10
2022.916928924609
 20
1306.8800013398299
 11
2020.9169289246092
 21
1308.0347013398297
  0
LINE
  8
_0-b_ラッチ断面__扉側
  6
DASHED1
 62
    7
 10
2022.806878924609
 20
1306.07755133983
 11
2020.9169289246092
 21
1307.1687013398297
  0
LINE
  8
_0-b_ラッチ断面__扉側
  6
DASHED1
 62
    7
 10
2022.6861289246089
 20
1305.2812013398297
 11
2020.8448289246089
 21
1306.3443013398298
  0
LINE
  8
_0-b_ラッチ断面__扉側
  6
DASHED1
 62
    7
 10
2022.4133789246091
 20
1304.5726513398299
 11
2020.656828924609
 21
1305.5868013398298
  0
LINE
  8
_0-b_ラッチ断面__扉側
  6
DASHED1
 62
    7
 10
2022.0685289246091
 20
1303.9057513398299
 11
2020.3565289246091
 21
1304.8941513398299
  0
LINE
  8
_0-b_ラッチ断面__扉側
  6
DASHED1
 62
    7
 10
2021.7236789246089
 20
1303.2388013398299
 11
2019.808478924609
 21
1304.3445513398298
  0
LINE
  8
_0-b_ラッチ断面__扉側
  6
DASHED1
 62
    7
 10
2021.221128924609
 20
1302.6629513398299
 11
2019.3134789246091
 21
1303.7643013398296
  0
LINE
  8
_0-b_ラッチ断面__扉側
  6
DASHED1
 62
    7
 10
2020.6435289246089
 20
1302.1303513398299
 11
2018.0919289246091
 21
1303.6035513398296
  0
LINE
  8
_0-b_ラッチ断面__扉側
  6
DASHED1
 62
    7
 10
2019.9745789246089
 20
1301.6505513398301
 11
2016.5919289246089
 21
1303.6035513398296
  0
LINE
  8
_0-b_ラッチ断面__扉側
  6
DASHED1
 62
    7
 10
2019.0861789246091
 20
1301.2974513398298
 11
2015.0919289246089
 21
1303.6035513398296
  0
LINE
  8
_0-b_ラッチ断面__扉側
  6
DASHED1
 62
    7
 10
2018.171878924609
 20
1300.9593013398298
 11
2013.5919289246089
 21
1303.6035513398296
  0
LINE
  8
_0-b_ラッチ断面__扉側
  6
DASHED1
 62
    7
 10
2015.441678924609
 20
1300.8035513398299
 11
2011.1268789246091
 21
1303.2947013398299
  0
LINE
  8
_0-b_ラッチ断面__扉側
  6
DASHED1
 62
    7
 10
2016.891528924609
 20
1300.83250133983
 11
2012.151428924609
 21
1303.5692013398297
  0
LINE
  8
_0-b_ラッチ断面__扉側
  6
DASHED1
 62
    7
 10
2013.941678924609
 20
1300.8035513398299
 11
2010.1023789246091
 21
1303.0201513398299
  0
LINE
  8
_0-b_ラッチ断面__扉側
  6
DASHED1
 62
    7
 10
2010.9416789246092
 20
1300.8035513398299
 11
2008.0533289246091
 21
1302.47110133983
  0
LINE
  8
_0-b_ラッチ断面__扉側
  6
DASHED1
 62
    7
 10
2012.4416789246088
 20
1300.8035513398299
 11
2009.0778789246089
 21
1302.7456513398301
  0
LINE
  8
_0-b_ラッチ断面__扉側
  6
DASHED1
 62
    7
 10
2009.441678924609
 20
1300.8035513398299
 11
2006.6653289246091
 21
1302.4064513398298
  0
LINE
  8
_0-b_ラッチ断面__扉側
  6
DASHED1
 62
    7
 10
2007.941678924609
 20
1300.8035513398299
 11
2005.2215289246089
 21
1302.3740513398299
  0
LINE
  8
_0-b_ラッチ断面__扉側
  6
DASHED1
 62
    7
 10
2006.441678924609
 20
1300.8035513398299
 11
2003.3658289246091
 21
1302.5793513398298
  0
LINE
  8
_0-b_ラッチ断面__扉側
  6
DASHED1
 62
    7
 10
2004.9416789246088
 20
1300.8035513398299
 11
2000.991828924609
 21
1303.0840013398299
  0
LINE
  8
_0-b_ラッチ断面__扉側
  6
DASHED1
 62
    7
 10
2003.4416789246092
 20
1300.8035513398299
 11
1998.617828924609
 21
1303.5886013398298
  0
LINE
  8
_0-b_ラッチ断面__扉側
  6
DASHED1
 62
    7
 10
2001.941678924609
 20
1300.8035513398299
 11
1996.2438289246092
 21
1304.0932013398298
  0
LINE
  8
_0-b_ラッチ断面__扉側
  6
DASHED1
 62
    7
 10
2000.441678924609
 20
1300.8035513398299
 11
1993.8697789246089
 21
1304.59780133983
  0
LINE
  8
_0-b_ラッチ断面__扉側
  6
DASHED1
 62
    7
 10
1998.941678924609
 20
1300.8035513398299
 11
1991.4957789246091
 21
1305.1024513398301
  0
LINE
  8
_0-b_ラッチ断面__扉側
  6
DASHED1
 62
    7
 10
1997.4416789246088
 20
1300.8035513398299
 11
1979.601528924609
 21
1311.1035513398296
  0
LINE
  8
_0-b_ラッチ断面__扉側
  6
DASHED1
 62
    7
 10
1995.9416789246092
 20
1300.8035513398299
 11
1976.916928924609
 21
1311.7875013398297
  0
LINE
  8
_0-b_ラッチ断面__扉側
  6
DASHED1
 62
    7
 10
1994.441678924609
 20
1300.8035513398299
 11
1976.916928924609
 21
1310.9214513398299
  0
LINE
  8
_0-b_ラッチ断面__扉側
  6
DASHED1
 62
    7
 10
1992.941678924609
 20
1300.8035513398299
 11
1976.916928924609
 21
1310.0554513398299
  0
LINE
  8
_0-b_ラッチ断面__扉側
  6
DASHED1
 62
    7
 10
1989.9169289246087
 20
1316.4063013398299
 11
1987.916928924609
 21
1317.5610013398297
  0
LINE
  8
_0-b_ラッチ断面__扉側
  6
DASHED1
 62
    7
 10
1989.9169289246087
 20
1315.54025133983
 11
1987.916928924609
 21
1316.6949513398299
  0
LINE
  8
_0-b_ラッチ断面__扉側
  6
DASHED1
 62
    7
 10
1989.9169289246087
 20
1314.6742513398298
 11
1987.916928924609
 21
1315.8289513398299
  0
LINE
  8
_0-b_ラッチ断面__扉側
  6
DASHED1
 62
    7
 10
1989.9169289246087
 20
1313.8082013398297
 11
1987.646128924609
 21
1315.11925133983
  0
LINE
  8
_0-b_ラッチ断面__扉側
  6
DASHED1
 62
    7
 10
1989.9169289246087
 20
1312.94220133983
 11
1986.6085289246088
 21
1314.8523013398298
  0
LINE
  8
_0-b_ラッチ断面__扉側
  6
DASHED1
 62
    7
 10
1989.9169289246087
 20
1312.0761513398297
 11
1985.192928924609
 21
1314.8035513398299
  0
LINE
  8
_0-b_ラッチ断面__扉側
  6
DASHED1
 62
    7
 10
1989.9169289246087
 20
1311.2101513398301
 11
1983.6929289246088
 21
1314.8035513398299
  0
LINE
  8
_0-b_ラッチ断面__扉側
  6
DASHED1
 62
    7
 10
1989.9169289246087
 20
1310.3441013398298
 11
1982.192928924609
 21
1314.8035513398299
  0
LINE
  8
_0-b_ラッチ断面__扉側
  6
DASHED1
 62
    7
 10
1989.9169289246087
 20
1309.4781013398298
 11
1987.101528924609
 21
1311.1035513398296
  0
LINE
  8
_0-b_ラッチ断面__扉側
  6
DASHED1
 62
    7
 10
1989.9169289246087
 20
1308.61205133983
 11
1985.601528924609
 21
1311.1035513398296
  0
LINE
  8
_0-b_ラッチ断面__扉側
  6
DASHED1
 62
    7
 10
1989.9169289246087
 20
1307.7460513398298
 11
1984.101528924609
 21
1311.1035513398296
  0
LINE
  8
_0-b_ラッチ断面__扉側
  6
DASHED1
 62
    7
 10
1989.920328924609
 20
1306.8780513398296
 11
1982.6015289246088
 21
1311.1035513398296
  0
LINE
  8
_0-b_ラッチ断面__扉側
  6
DASHED1
 62
    7
 10
1990.052078924609
 20
1305.9359513398298
 11
1981.1015289246092
 21
1311.1035513398296
  0
LINE
  8
_0-b_ラッチ断面__扉側
  6
DASHED1
 62
    7
 10
1987.101528924609
 20
1311.1035513398296
 11
1980.692928924609
 21
1314.8035513398299
  0
LINE
  8
_0-b_ラッチ断面__扉側
  6
DASHED1
 62
    7
 10
1985.601528924609
 20
1311.1035513398296
 11
1979.192928924609
 21
1314.8035513398299
  0
LINE
  8
_0-b_ラッチ断面__扉側
  6
DASHED1
 62
    7
 10
1984.101528924609
 20
1311.1035513398296
 11
1977.916928924609
 21
1314.6742513398298
  0
LINE
  8
_0-b_ラッチ断面__扉側
  6
DASHED1
 62
    7
 10
1982.6015289246088
 20
1311.1035513398296
 11
1976.916928924609
 21
1314.3855513398298
  0
LINE
  8
_0-b_ラッチ断面__扉側
  6
DASHED1
 62
    7
 10
1981.1015289246092
 20
1311.1035513398296
 11
1976.916928924609
 21
1313.5195513398298
  0
LINE
  8
_0-b_ラッチ断面__扉側
  6
DASHED1
 62
    7
 10
1979.601528924609
 20
1311.1035513398296
 11
1976.916928924609
 21
1312.6535013398299
  0
LINE
  8
_0-b_ラッチ断面__扉側
  6
DASHED1
 62
    7
 10
2022.916928924609
 20
1328.4146013398299
 11
2021.916928924609
 21
1328.9919513398299
  0
LINE
  8
_0-b_ラッチ断面__扉側
  6
DASHED1
 62
    7
 10
2022.916928924609
 20
1328.4146013398299
 11
2021.810278924609
 21
1329.0535513398299
  0
LINE
  8
_0-b_ラッチ断面__扉側
  6
DASHED1
 62
    7
 10
2022.916928924609
 20
1329.1646013398299
 11
2022.1566789246091
 21
1329.6035513398301
  0
LINE
  8
_0-b_ラッチ断面__扉側
  6
DASHED1
 62
    7
 10
1987.916928924609
 20
1319.3035513398299
 11
1987.916928924609
 21
1321.3035513398299
  0
LINE
  8
_0-b_ラッチ断面__扉側
  6
DASHED1
 62
    7
 10
2007.916928924609
 20
1302.4345513398297
 11
2005.416928924609
 21
1302.3035513398299
  0
LINE
  8
_0-b_ラッチ断面__扉側
  6
DASHED1
 62
    7
 10
2012.2796289246091
 20
1303.6035513398296
 11
2007.916928924609
 21
1302.4345513398297
  0
LINE
  8
_0-b_ラッチ断面__扉側
  6
DASHED1
 62
    7
 10
1989.9169289246087
 20
1316.6488513398298
 11
1987.916928924609
 21
1317.8035513398299
  0
LINE
  8
_0-b_ラッチ断面__扉側
  6
DASHED1
 62
    7
 10
1989.9169289246087
 20
1306.91175133983
 11
1989.9169289246087
 21
1316.6488513398298
  0
LINE
  8
_0-b_ラッチ断面__扉側
  6
DASHED1
 62
    7
 10
2012.9669289246089
 20
1328.3035513398299
 11
2012.9669289246089
 21
1327.3035513398299
  0
LINE
  8
_0-b_ラッチ断面__扉側
  6
DASHED1
 62
    7
 10
1986.1848789246091
 20
1321.8035513398299
 11
1987.916928924609
 21
1318.8035513398299
  0
LINE
  8
_0-b_ラッチ断面__扉側
  6
DASHED1
 62
    7
 10
2004.416928924609
 20
1302.3559513398299
 11
2005.416928924609
 21
1302.3035513398299
  0
LINE
  8
_0-b_ラッチ断面__扉側
  6
DASHED1
 62
    7
 10
1990.2249289246087
 20
1305.3725513398298
 11
2004.416928924609
 21
1302.3559513398299
  0
LINE
  8
_0-b_ラッチ断面__扉側
  6
DASHED1
 62
    7
 10
2020.9169289246092
 20
1328.3035513398299
 11
2020.9169289246092
 21
1306.9012513398299
  0
LINE
  8
_0-b_ラッチ断面__扉側
  6
DASHED1
 62
    7
 10
2012.2796289246091
 20
1303.6035513398296
 11
2019.1808289246091
 21
1303.6035513398296
  0
LINE
  8
_0-b_ラッチ断面__扉側
  6
DASHED1
 62
    7
 10
1980.416928924609
 20
1323.5035513398297
 11
1980.416928924609
 21
1331.1035513398296
  0
LINE
  8
_0-b_ラッチ断面__扉側
  6
DASHED1
 62
    7
 10
1995.2169289246091
 20
1327.3035513398299
 11
2012.9669289246089
 21
1327.3035513398299
  0
LINE
  8
_0-b_ラッチ断面__扉側
  6
DASHED1
 62
    7
 10
2022.916928924609
 20
1306.8035513398299
 11
2022.916928924609
 21
1329.6035513398301
  0
LINE
  8
_0-b_ラッチ断面__扉側
  6
DASHED1
 62
    7
 10
2021.916928924609
 20
1328.3035513398299
 11
2021.916928924609
 21
1329.6202013398301
  0
LINE
  8
_0-b_ラッチ断面__扉側
  6
DASHED1
 62
    7
 10
2022.916928924609
 20
1329.6035513398301
 11
1962.916928924609
 21
1330.5035513398299
  0
LINE
  8
_0-b_ラッチ断面__扉側
  6
DASHED1
 62
    7
 10
1963.916928924609
 20
1330.5035513398299
 11
1963.916928924609
 21
1329.2035513398298
  0
LINE
  8
_0-b_ラッチ断面__扉側
  6
DASHED1
 62
    7
 10
1985.176478924609
 20
1329.2035513398298
 11
1989.416928924609
 21
1329.2035513398298
  0
LINE
  8
_0-b_ラッチ断面__扉側
  6
DASHED1
 62
    7
 10
1973.0954789246088
 20
1329.2035513398298
 11
1964.0169289246091
 21
1329.2035513398298
  0
LINE
  8
_0-b_ラッチ断面__扉側
  6
DASHED1
 62
    7
 10
1989.416928924609
 20
1327.3035513398299
 11
1990.616928924609
 21
1327.3035513398299
  0
LINE
  8
_0-b_ラッチ断面__扉側
  6
DASHED1
 62
    7
 10
1953.9169789246091
 20
1319.3035513398299
 11
1951.9169789246088
 21
1321.3035513398299
  0
LINE
  8
_0-b_ラッチ断面__扉側
  6
DASHED1
 62
    7
 10
1951.9169789246088
 20
1321.3035513398299
 11
1951.9169789246088
 21
1328.3035513398299
  0
LINE
  8
_0-b_ラッチ断面__扉側
  6
DASHED1
 62
    7
 10
1956.9169789246088
 20
1325.3035513398299
 11
1956.9169789246088
 21
1324.0035513398299
  0
LINE
  8
_0-b_ラッチ断面__扉側
  6
DASHED1
 62
    7
 10
1992.916928924609
 20
1325.20355133983
 11
1992.916928924609
 21
1314.0035513398299
  0
LINE
  8
_0-b_ラッチ断面__扉側
  6
DASHED1
 62
    7
 10
1951.9169789246088
 20
1325.3035513398299
 11
1981.845328924609
 21
1325.3035513398299
  0
LINE
  8
_0-b_ラッチ断面__扉側
  6
DASHED1
 62
    7
 10
1983.259578924609
 20
1324.7177513398298
 11
1990.7953289246092
 21
1317.1819513398299
  0
LINE
  8
_0-b_ラッチ断面__扉側
  6
DASHED1
 62
    7
 10
1985.0879789246091
 20
1329.3035513398299
 11
1952.9169789246088
 21
1329.3035513398299
  0
LINE
  8
_0-b_ラッチ断面__扉側
  6
DASHED1
 62
    7
 10
1988.6235289246089
 20
1327.8391013398299
 11
1992.401678924609
 21
1324.0609013398297
  0
LINE
  8
_0-b_ラッチ断面__扉側
  6
DASHED1
 62
    7
 10
1987.7169289246091
 20
1319.3035513398299
 11
1997.0269289246089
 21
1319.3035513398299
  0
LINE
  8
_0-b_ラッチ断面__扉側
  6
DASHED1
 62
    7
 10
2006.416928924609
 20
1308.3735513398298
 11
2006.416928924609
 21
1329.0935513398299
  0
LINE
  8
_0-b_ラッチ断面__扉側
  6
DASHED1
 62
    7
 10
1962.4169789246091
 20
1325.3035513398299
 11
1962.4169789246091
 21
1329.3035513398299
  0
LINE
  8
_0-b_ラッチ断面__扉側
  6
DASHED1
 62
    7
 10
1956.9169789246088
 20
1329.3035513398299
 11
1956.9169789246088
 21
1325.3035513398299
  0
LINE
  8
_0-b_ラッチ断面__扉側
  6
DASHED1
 62
    7
 10
1953.9169789246091
 20
1319.3035513398299
 11
1960.9169789246088
 21
1319.3035513398299
  0
LINE
  8
_0-b_ラッチ断面__扉側
  6
DASHED1
 62
    7
 10
1960.9169789246088
 20
1320.4635513398297
 11
1960.9169789246088
 21
1319.3035513398299
  0
LINE
  8
_0-b_ラッチ断面__扉側
  6
DASHED1
 62
    7
 10
1960.9169789246088
 20
1320.4635513398297
 11
1956.9169789246088
 21
1324.0035513398299
  0
LINE
  8
_0-b_ラッチ断面__扉側
  6
DASHED1
 62
    7
 10
2019.346028924609
 20
1313.5817013398298
 11
2020.3063289246092
 21
1321.4029513398299
  0
LINE
  8
_0-b_ラッチ断面__扉側
  6
DASHED1
 62
    7
 10
2020.311078924609
 20
1321.4014013398298
 11
2014.6260789246091
 21
1323.3035513398299
  0
LINE
  8
_0-b_ラッチ断面__扉側
  6
DASHED1
 62
    7
 10
2004.416928924609
 20
1322.3035513398299
 11
1992.916928924609
 21
1322.3035513398299
  0
LINE
  8
_0-b_ラッチ断面__扉側
  6
DASHED1
 62
    7
 10
2004.416928924609
 20
1322.3035513398299
 11
2004.416928924609
 21
1323.3035513398299
  0
LINE
  8
_0-b_ラッチ断面__扉側
  6
DASHED1
 62
    7
 10
2004.416928924609
 20
1323.3035513398299
 11
2014.6260789246091
 21
1323.3035513398299
  0
LINE
  8
_0-b_ラッチ断面__扉側
  6
DASHED1
 62
    7
 10
2001.311078924609
 20
1316.3897513398298
 11
2001.311078924609
 21
1315.6879013398297
  0
LINE
  8
_0-b_ラッチ断面__扉側
  6
DASHED1
 62
    7
 10
2001.311078924609
 20
1316.3897513398298
 11
2004.8110789246088
 21
1319.2671513398297
  0
LINE
  8
_0-b_ラッチ断面__扉側
  6
DASHED1
 62
    7
 10
2011.811078924609
 20
1318.4192513398297
 11
2011.811078924609
 21
1314.7999013398298
  0
LINE
  8
_0-b_ラッチ断面__扉側
  6
DASHED1
 62
    7
 10
2001.311078924609
 20
1315.6879013398297
 11
2004.8110789246088
 21
1318.8489513398299
  0
LINE
  8
_0-b_ラッチ断面__扉側
  6
DASHED1
 62
    7
 10
2011.811078924609
 20
1314.7999013398298
 11
2011.811078924609
 21
1315.3184513398298
  0
LINE
  8
_0-b_ラッチ断面__扉側
  6
DASHED1
 62
    7
 10
1995.2169289246091
 20
1327.3035513398299
 11
1995.2169289246091
 21
1322.4758013398297
  0
LINE
  8
_0-b_ラッチ断面__扉側
  6
DASHED1
 62
    7
 10
1990.616928924609
 20
1327.3035513398299
 11
1990.616928924609
 21
1325.84565133983
  0
LINE
  8
_0-b_ラッチ断面__扉側
  6
DASHED1
 62
    7
 10
1990.616928924609
 20
1325.84565133983
 11
1990.616928924609
 21
1318.6410013398299
  0
LINE
  8
_0-b_ラッチ断面__扉側
  6
DASHED1
 62
    7
 10
1995.2169289246091
 20
1322.4758013398297
 11
1995.2169289246091
 21
1319.3035513398299
  0
LINE
  8
_0-b_ラッチ断面__扉側
  6
DASHED1
 62
    7
 10
1989.416928924609
 20
1327.0456513398298
 11
1989.416928924609
 21
1330.1060513398301
  0
LINE
  8
_0-b_ラッチ断面__扉側
  6
DASHED1
 62
    7
 10
1989.416928924609
 20
1316.9375513398299
 11
1989.416928924609
 21
1318.5604013398299
  0
LINE
  8
_0-b_ラッチ断面__扉側
  6
DASHED1
 62
    7
 10
1989.416928924609
 20
1327.0456513398298
 11
1989.416928924609
 21
1318.5604013398299
  0
LINE
  8
_0-b_ラッチ断面__扉側
  6
DASHED1
 62
    7
 10
1985.9169289246092
 20
1323.3035513398299
 11
1985.9169289246092
 21
1322.8035513398299
  0
LINE
  8
_0-b_ラッチ断面__扉側
  6
DASHED1
 62
    7
 10
1981.845328924609
 20
1325.3035513398299
 11
1963.916928924609
 21
1325.3035513398299
  0
LINE
  8
_0-b_ラッチ断面__扉側
  6
DASHED1
 62
    7
 10
1983.916928924609
 20
1325.3035513398299
 11
1982.3169289246088
 21
1325.3035513398299
  0
LINE
  8
_0-b_ラッチ断面__扉側
  6
DASHED1
 62
    7
 10
1973.0954789246088
 20
1329.2035513398298
 11
1977.5169289246091
 21
1329.2035513398298
  0
LINE
  8
_0-b_ラッチ断面__扉側
  6
DASHED1
 62
    7
 10
1977.5239289246089
 20
1330.2601013398298
 11
1977.518028924609
 21
1329.2035513398298
  0
LINE
  8
_0-b_ラッチ断面__扉側
  6
DASHED1
 62
    7
 10
1983.3104289246091
 20
1330.1636513398298
 11
1983.3158289246091
 21
1329.2035513398298
  0
LINE
  8
_0-b_ラッチ断面__扉側
  6
DASHED1
 62
    7
 10
1983.3169289246088
 20
1329.2035513398298
 11
1985.176478924609
 21
1329.2035513398298
  0
LINE
  8
_0-b_ラッチ断面__扉側
  6
DASHED1
 62
    7
 10
1982.3169289246088
 20
1325.3035513398299
 11
1982.3169289246088
 21
1330.21255133983
  0
LINE
  8
_0-b_ラッチ断面__扉側
  6
DASHED1
 62
    7
 10
1978.5169289246091
 20
1325.3035513398299
 11
1978.5169289246091
 21
1330.2441013398299
  0
LINE
  8
_0-b_ラッチ断面__扉側
  6
DASHED1
 62
    7
 10
2005.416928924609
 20
1325.8035513398299
 11
2005.416928924609
 21
1330.8035513398299
  0
LINE
  8
_0-b_ラッチ断面__扉側
  6
DASHED1
 62
    7
 10
1995.2169289246091
 20
1327.3035513398299
 11
1995.2169289246091
 21
1322.5035513398299
  0
LINE
  8
_0-b_ラッチ断面__扉側
  6
DASHED1
 62
    7
 10
2008.7169289246091
 20
1327.3035513398299
 11
1989.5169289246089
 21
1327.3035513398299
  0
LINE
  8
_0-b_ラッチ断面__扉側
  6
DASHED1
 62
    7
 10
1991.5169289246091
 20
1327.3035513398299
 11
1991.5169289246091
 21
1322.3035513398299
  0
LINE
  8
_0-b_ラッチ断面__扉側
  6
DASHED1
 62
    7
 10
1991.5169289246091
 20
1322.3035513398299
 11
1990.9169289246092
 21
1322.3035513398299
  0
LINE
  8
_0-b_ラッチ断面__扉側
  6
DASHED1
 62
    7
 10
2008.7169289246091
 20
1327.3035513398299
 11
2010.9169289246092
 21
1328.3035513398299
  0
LINE
  8
_0-b_ラッチ断面__扉側
  6
DASHED1
 62
    7
 10
2020.2169289246089
 20
1328.3035513398299
 11
2020.2169289246089
 21
1326.3035513398299
  0
LINE
  8
_0-b_ラッチ断面__扉側
  6
DASHED1
 62
    7
 10
2021.916928924609
 20
1328.3035513398299
 11
2010.9169289246092
 21
1328.3035513398299
  0
LINE
  8
_0-b_ラッチ断面__扉側
  6
DASHED1
 62
    7
 10
2021.916928924609
 20
1329.5035513398297
 11
1989.5169289246089
 21
1330.0035513398299
  0
LINE
  8
_0-b_ラッチ断面__扉側
  6
DASHED1
 62
    7
 10
2021.916928924609
 20
1329.5035513398297
 11
2021.916928924609
 21
1328.3035513398299
  0
LINE
  8
_0-b_ラッチ断面__扉側
  6
DASHED1
 62
    7
 10
2020.9169289246092
 20
1326.3035513398299
 11
2020.2169289246089
 21
1326.3035513398299
  0
LINE
  8
_0-b_ラッチ断面__扉側
  6
DASHED1
 62
    7
 10
1989.5169289246089
 20
1322.3035513398299
 11
1990.9169289246092
 21
1322.3035513398299
  0
LINE
  8
_0-b_ラッチ断面__扉側
  6
DASHED1
 62
    7
 10
1989.5169289246089
 20
1330.0035513398299
 11
1989.5169289246089
 21
1326.9456513398299
  0
LINE
  8
_0-b_ラッチ断面__扉側
  6
DASHED1
 62
    7
 10
1990.9169289246092
 20
1327.3035513398299
 11
1990.9169289246092
 21
1325.5456513398301
  0
LINE
  8
_0-b_ラッチ断面__扉側
  6
DASHED1
 62
    7
 10
1990.9169289246092
 20
1325.5456513398301
 11
1990.9169289246092
 21
1322.5035513398299
  0
LINE
  8
_0-b_ラッチ断面__扉側
  6
DASHED1
 62
    7
 10
1989.5169289246089
 20
1326.9456513398299
 11
1989.5169289246089
 21
1322.3035513398299
  0
LINE
  8
_0-b_ラッチ断面__扉側
  6
DASHED1
 62
    7
 10
1994.2169289246089
 20
1321.5035513398299
 11
1991.916928924609
 21
1321.5035513398299
  0
LINE
  8
_0-b_ラッチ断面__扉側
  6
DASHED1
 62
    7
 10
2020.9169289246092
 20
1329.2035513398298
 11
1990.5169289246089
 21
1329.2035513398298
  0
LINE
  8
_0-b_ラッチ断面__扉側
  6
DASHED1
 62
    7
 10
1990.5169289246089
 20
1329.2035513398298
 11
1990.5169289246089
 21
1329.98505133983
  0
LINE
  8
_0-b_ラッチ断面__扉側
  6
DASHED1
 62
    7
 10
2012.9669289246089
 20
1328.3035513398299
 11
2021.916928924609
 21
1328.3035513398299
  0
LINE
  8
_0-b_ラッチ断面__扉側
  6
DASHED1
 62
    7
 10
2020.9169289246092
 20
1329.2035513398298
 11
2020.9169289246092
 21
1329.51900133983
  0
LINE
  8
_0-b_ラッチ断面__扉側
  6
DASHED1
 62
    7
 10
1989.5771789246089
 20
1330.0024513398298
 11
1989.5169289246089
 21
1329.9676513398298
  0
LINE
  8
_0-b_ラッチ断面__扉側
  6
DASHED1
 62
    7
 10
1997.1934789246092
 20
1329.2035513398298
 11
1993.902578924609
 21
1327.3035513398299
  0
LINE
  8
_0-b_ラッチ断面__扉側
  6
DASHED1
 62
    7
 10
1995.693478924609
 20
1329.2035513398298
 11
1992.402578924609
 21
1327.3035513398299
  0
LINE
  8
_0-b_ラッチ断面__扉側
  6
DASHED1
 62
    7
 10
1994.193478924609
 20
1329.2035513398298
 11
1990.9025789246088
 21
1327.3035513398299
  0
LINE
  8
_0-b_ラッチ断面__扉側
  6
DASHED1
 62
    7
 10
1992.693478924609
 20
1329.2035513398298
 11
1989.5169289246089
 21
1327.3695513398299
  0
LINE
  8
_0-b_ラッチ断面__扉側
  6
DASHED1
 62
    7
 10
1991.1934789246088
 20
1329.2035513398298
 11
1989.5169289246089
 21
1328.2356013398298
  0
LINE
  8
_0-b_ラッチ断面__扉側
  6
DASHED1
 62
    7
 10
1990.5169289246089
 20
1329.67895133983
 11
1989.5169289246089
 21
1329.10160133983
  0
LINE
  8
_0-b_ラッチ断面__扉側
  6
DASHED1
 62
    7
 10
2010.693478924609
 20
1329.2035513398298
 11
2007.402578924609
 21
1327.3035513398299
  0
LINE
  8
_0-b_ラッチ断面__扉側
  6
DASHED1
 62
    7
 10
2009.193478924609
 20
1329.2035513398298
 11
2005.9025789246088
 21
1327.3035513398299
  0
LINE
  8
_0-b_ラッチ断面__扉側
  6
DASHED1
 62
    7
 10
2007.693478924609
 20
1329.2035513398298
 11
2004.4025789246093
 21
1327.3035513398299
  0
LINE
  8
_0-b_ラッチ断面__扉側
  6
DASHED1
 62
    7
 10
2006.1934789246088
 20
1329.2035513398298
 11
2002.902578924609
 21
1327.3035513398299
  0
LINE
  8
_0-b_ラッチ断面__扉側
  6
DASHED1
 62
    7
 10
2004.6934789246092
 20
1329.2035513398298
 11
2001.402578924609
 21
1327.3035513398299
  0
LINE
  8
_0-b_ラッチ断面__扉側
  6
DASHED1
 62
    7
 10
2003.193478924609
 20
1329.2035513398298
 11
1999.902578924609
 21
1327.3035513398299
  0
LINE
  8
_0-b_ラッチ断面__扉側
  6
DASHED1
 62
    7
 10
2001.693478924609
 20
1329.2035513398298
 11
1998.4025789246088
 21
1327.3035513398299
  0
LINE
  8
_0-b_ラッチ断面__扉側
  6
DASHED1
 62
    7
 10
2000.193478924609
 20
1329.2035513398298
 11
1996.9025789246093
 21
1327.3035513398299
  0
LINE
  8
_0-b_ラッチ断面__扉側
  6
DASHED1
 62
    7
 10
1998.6934789246088
 20
1329.2035513398298
 11
1995.402578924609
 21
1327.3035513398299
  0
LINE
  8
_0-b_ラッチ断面__扉側
  6
DASHED1
 62
    7
 10
2012.1934789246092
 20
1329.2035513398298
 11
2009.5897789246089
 21
1327.70030133983
  0
LINE
  8
_0-b_ラッチ断面__扉側
  6
DASHED1
 62
    7
 10
2013.6934789246088
 20
1329.2035513398298
 11
2012.1346289246091
 21
1328.3035513398299
  0
LINE
  8
_0-b_ラッチ断面__扉側
  6
DASHED1
 62
    7
 10
2015.193478924609
 20
1329.2035513398298
 11
2013.6346289246091
 21
1328.3035513398299
  0
LINE
  8
_0-b_ラッチ断面__扉側
  6
DASHED1
 62
    7
 10
2016.693478924609
 20
1329.2035513398298
 11
2015.1346289246089
 21
1328.3035513398299
  0
LINE
  8
_0-b_ラッチ断面__扉側
  6
DASHED1
 62
    7
 10
2018.193478924609
 20
1329.2035513398298
 11
2016.6346289246089
 21
1328.3035513398299
  0
LINE
  8
_0-b_ラッチ断面__扉側
  6
DASHED1
 62
    7
 10
2019.6934789246092
 20
1329.2035513398298
 11
2018.1346289246089
 21
1328.3035513398299
  0
LINE
  8
_0-b_ラッチ断面__扉側
  6
DASHED1
 62
    7
 10
2021.7183789246089
 20
1329.5066013398297
 11
2019.6346289246091
 21
1328.3035513398299
  0
LINE
  8
_0-b_ラッチ断面__扉側
  6
DASHED1
 62
    7
 10
2021.916928924609
 20
1328.7552013398299
 11
2021.1346289246091
 21
1328.3035513398299
  0
LINE
  8
_0-b_ラッチ断面__扉側
  6
DASHED1
 62
    7
 10
1962.916928924609
 20
1330.5035513398299
 11
1962.916928924609
 21
1329.3035513398299
  0
LINE
  8
_0-b_ラッチ断面__扉側
  6
DASHED1
 62
    7
 10
1962.916928924609
 20
1329.3035513398299
 11
1962.916928924609
 21
1326.3035513398299
  0
LINE
  8
_0-b_ラッチ断面__扉側
  6
DASHED1
 62
    7
 10
1991.441678924609
 20
1300.8035513398299
 11
1976.916928924609
 21
1309.18940133983
  0
LINE
  8
_0-b_ラッチ断面__扉側
  6
DASHED1
 62
    7
 10
1989.9416789246088
 20
1300.8035513398299
 11
1976.916928924609
 21
1308.32340133983
  0
LINE
  8
_0-b_ラッチ断面__扉側
  6
DASHED1
 62
    7
 10
1988.4416789246092
 20
1300.8035513398299
 11
1976.892578924609
 21
1307.4714513398298
  0
LINE
  8
_0-b_ラッチ断面__扉側
  6
DASHED1
 62
    7
 10
1986.941678924609
 20
1300.8035513398299
 11
1976.916928924609
 21
1306.5913513398299
  0
LINE
  8
_0-b_ラッチ断面__扉側
  6
DASHED1
 62
    7
 10
1985.441678924609
 20
1300.8035513398299
 11
1976.916928924609
 21
1305.7253013398299
  0
LINE
  8
_0-b_ラッチ断面__扉側
  6
DASHED1
 62
    7
 10
1983.941678924609
 20
1300.8035513398299
 11
1976.916928924609
 21
1304.8593013398299
  0
LINE
  8
_0-b_ラッチ断面__扉側
  6
DASHED1
 62
    7
 10
1982.4416789246088
 20
1300.8035513398299
 11
1976.916928924609
 21
1303.9932513398298
  0
LINE
  8
_0-b_ラッチ断面__扉側
  6
DASHED1
 62
    7
 10
1980.9416789246092
 20
1300.8035513398299
 11
1976.916928924609
 21
1303.12725133983
  0
LINE
  8
_0-b_ラッチ断面__扉側
  6
DASHED1
 62
    7
 10
1979.441678924609
 20
1300.8035513398299
 11
1977.007328924609
 21
1302.2090013398296
  0
LINE
  8
_0-b_ラッチ断面__扉側
  6
DASHED1
 62
    7
 10
1987.916928924609
 20
1319.3035513398299
 11
1987.916928924609
 21
1315.8035513398299
  0
LINE
  8
_0-b_ラッチ断面__扉側
  6
DASHED1
 62
    7
 10
1976.916928924609
 20
1302.8035513398299
 11
1976.916928924609
 21
1325.3035513398299
  0
LINE
  8
_0-b_ラッチ断面__扉側
  6
DASHED1
 62
    7
 10
1978.916928924609
 20
1300.8035513398299
 11
2016.916928924609
 21
1300.8035513398299
  0
LINE
  8
_0-b_ラッチ断面__扉側
  6
DASHED1
 62
    7
 10
1986.916928924609
 20
1314.8035513398299
 11
1976.916928924609
 21
1314.8035513398299
  0
LINE
  8
_0-b_ラッチ断面__扉側
  6
DASHED1
 62
    7
 10
2017.1257289246091
 20
1302.9172013398301
 11
2007.916928924609
 21
1302.4345513398297
  0
LINE
  8
_0-b_ラッチ断面__扉側
  6
DASHED1
 62
    7
 10
1993.7075789246091
 20
1302.9172013398301
 11
2004.416928924609
 21
1302.3559513398299
  0
LINE
  8
_0-b_ラッチ断面__扉側
  6
DASHED1
 62
    7
 10
2004.8110789246088
 20
1319.2671513398297
 11
2004.8110789246088
 21
1318.8489513398299
  0
LINE
  8
_0-b_ラッチ断面__扉側
  6
DASHED1
 62
    7
 10
2018.7786289246091
 20
1314.6665013398298
 11
2006.416928924609
 21
1321.8035513398299
  0
LINE
  8
_0-b_ラッチ断面__扉側
  6
DASHED1
 62
    7
 10
2019.7703289246089
 20
1317.0373513398299
 11
2008.916928924609
 21
1323.3035513398299
  0
LINE
  8
_0-b_ラッチ断面__扉側
  6
DASHED1
 62
    7
 10
1991.0093289246087
 20
1317.67510133983
 11
2006.416928924609
 21
1321.8035513398299
  0
LINE
  8
_0-b_ラッチ断面__扉側
  6
DASHED1
 62
    7
 10
1987.916928924609
 20
1311.1035513398296
 11
1978.916928924609
 21
1311.1035513398296
  0
LINE
  8
_0-b_ラッチ断面__扉側
  6
DASHED1
 62
    7
 10
1987.916928924609
 20
1311.1035513398296
 11
1987.916928924609
 21
1306.8035513398299
  0
LINE
  8
_0-b_ラッチ断面__扉側
  6
DASHED1
 62
    7
 10
1987.916928924609
 20
1311.1035513398296
 11
1987.916928924609
 21
1315.8035513398299
  0
LINE
  8
_0-b_ラッチ断面__扉側
  6
DASHED1
 62
    7
 10
1955.6669789246088
 20
1321.8035513398299
 11
1953.1669789246088
 21
1321.8035513398299
  0
LINE
  8
_0-b_ラッチ断面__扉側
  6
DASHED1
 62
    7
 10
1953.1669789246088
 20
1329.3035513398299
 11
1953.1669789246088
 21
1321.8035513398299
  0
LINE
  8
_0-b_ラッチ断面__扉側
  6
DASHED1
 62
    7
 10
1955.6669789246088
 20
1329.3035513398299
 11
1955.6669789246088
 21
1321.8035513398299
  0
LINE
  8
_0-b_ラッチ断面__扉側
  6
DASHED1
 62
    7
 10
1954.4169789246088
 20
1320.2135513398297
 11
1954.4169789246088
 21
1331.3035513398299
  0
ARC
  8
_0-b_ラッチ断面__扉側
  6
DASHED1
 62
    7
 10
2016.916928924609
 20
1306.8035513398299
 40
6.0000000000000008
 50
269.99999999999988
 51
359.99999999999988
  0
ARC
  8
_0-b_ラッチ断面__扉側
  6
DASHED1
 62
    7
 10
1993.916928924609
 20
1306.91175133983
 40
4
 50
179.99999999999991
 51
202.63099999999988
  0
ARC
  8
_0-b_ラッチ断面__扉側
  6
DASHED1
 62
    7
 10
2016.916928924609
 20
1306.9012513398299
 40
4
 50
304.46999999999991
 51
0
  0
ARC
  8
_0-b_ラッチ断面__扉側
  6
DASHED1
 62
    7
 10
1983.916928924609
 20
1321.3035513398299
 40
4
 50
84.812999999999973
 51
89.999999999999971
  0
ARC
  8
_0-b_ラッチ断面__扉側
  6
DASHED1
 62
    7
 10
1983.916928924609
 20
1321.3035513398299
 40
4
 50
359.99999999999994
 51
84.813000000000002
  0
CIRCLE
  8
_0-b_ラッチ断面__扉側
  6
DASHED1
 62
    7
 10
1992.916928924609
 20
1319.3035513398299
 40
2.1
  0
CIRCLE
  8
_0-b_ラッチ断面__扉側
  6
DASHED1
 62
    7
 10
1992.916928924609
 20
1319.3035513398299
 40
3.0000000000000004
  0
ARC
  8
_0-b_ラッチ断面__扉側
  6
DASHED1
 62
    7
 10
1952.9169789246088
 20
1328.3035513398299
 40
1
 50
89.999999999999971
 51
180
  0
ARC
  8
_0-b_ラッチ断面__扉側
  6
DASHED1
 62
    7
 10
1995.0845789246091
 20
1321.3775013398299
 40
6.0000000000000008
 50
223.73399999999995
 51
281.21399999999994
  0
CIRCLE
  8
_0-b_ラッチ断面__扉側
  6
DASHED1
 62
    7
 10
1992.916928924609
 20
1319.3035513398299
 40
3.0000000000000004
  0
CIRCLE
  8
_0-b_ラッチ断面__扉側
  6
DASHED1
 62
    7
 10
1992.916928924609
 20
1319.3035513398299
 40
2.1
  0
ARC
  8
_0-b_ラッチ断面__扉側
  6
DASHED1
 62
    7
 10
1981.845328924609
 20
1323.3035513398299
 40
2
 50
44.999999999999964
 51
89.999999999999971
  0
ARC
  8
_0-b_ラッチ断面__扉側
  6
DASHED1
 62
    7
 10
1985.0879789246091
 20
1324.3035513398299
 40
5
 50
44.999999999999964
 51
89.999999999999971
  0
ARC
  8
_0-b_ラッチ断面__扉側
  6
DASHED1
 62
    7
 10
1996.6443289246089
 20
1328.3035513398299
 40
6.0000000000000008
 50
224.99999999999994
 51
269.99999999999994
  0
ARC
  8
_0-b_ラッチ断面__扉側
  6
DASHED1
 62
    7
 10
1990.7505289246091
 20
1318.6410013398299
 40
1
 50
224.99999999999991
 51
284.99999999999994
  0
ARC
  8
_0-b_ラッチ断面__扉側
  6
DASHED1
 62
    7
 10
2020.2828789246088
 20
1322.4943013398299
 40
10
 50
240.93599999999992
 51
257.62099999999992
  0
ARC
  8
_0-b_ラッチ断面__扉側
  6
DASHED1
 62
    7
 10
2018.3534789246091
 20
1313.70355133983
 40
1
 50
257.62099999999986
 51
352.99999999999994
  0
ARC
  8
_0-b_ラッチ断面__扉側
  6
DASHED1
 62
    7
 10
2004.5169289246089
 20
1273.8035513398299
 40
42.00685
 50
86.96199999999996
 51
94.376999999999981
  0
ARC
  8
_0-b_ラッチ断面__扉側
  6
DASHED1
 62
    7
 10
2005.7093789246091
 20
1296.2719513398296
 40
19.50685
 50
71.771999999999977
 51
86.961999999999974
  0
ARC
  8
_0-b_ラッチ断面__扉側
  6
DASHED1
 62
    7
 10
2004.5169289246089
 20
1273.8035513398299
 40
42.706699999999997
 50
86.96199999999996
 51
94.304999999999992
  0
ARC
  8
_0-b_ラッチ断面__扉側
  6
DASHED1
 62
    7
 10
2005.7093789246091
 20
1296.2719513398296
 40
20.206700000000004
 50
72.423999999999978
 51
86.961999999999974
  0
ARC
  8
_0-b_ラッチ断面__扉側
  6
DASHED1
 62
    7
 10
2004.5169289246089
 20
1273.8035513398299
 40
42.5
 50
86.96199999999996
 51
101.21399999999998
  0
ARC
  8
_0-b_ラッチ断面__扉側
  6
DASHED1
 62
    7
 10
2005.7093789246091
 20
1296.2719513398296
 40
20
 50
60.935999999999985
 51
87.972999999999984
  0
ARC
  8
_0-b_ラッチ断面__扉側
  6
DASHED1
 62
    7
 10
2019.0286289246091
 20
1315.0995513398299
 40
0.5
 50
239.99999999999994
 51
352.99999999999994
  0
ARC
  8
_0-b_ラッチ断面__扉側
  6
DASHED1
 62
    7
 10
1992.916928924609
 20
1319.3035513398299
 40
2.2999999999999998
 50
179.99999999999985
 51
359.99999999999988
  0
ARC
  8
_0-b_ラッチ断面__扉側
  6
DASHED1
 62
    7
 10
1983.916928924609
 20
1323.3035513398299
 40
2
 50
359.99999999999994
 51
89.999999999999943
  0
ARC
  8
_0-b_ラッチ断面__扉側
  6
DASHED1
 62
    7
 10
1987.916928924609
 20
1322.8035513398299
 40
2
 50
179.99999999999985
 51
209.99999999999991
  0
ARC
  8
_0-b_ラッチ断面__扉側
  6
DASHED1
 62
    7
 10
1991.916928924609
 20
1322.5035513398299
 40
1
 50
179.99999999999991
 51
269.99999999999994
  0
ARC
  8
_0-b_ラッチ断面__扉側
  6
DASHED1
 62
    7
 10
1994.2169289246089
 20
1322.5035513398299
 40
1
 50
269.99999999999988
 51
359.99999999999988
  0
ARC
  8
_0-b_ラッチ断面__扉側
  6
DASHED1
 62
    7
 10
1963.916928924609
 20
1326.3035513398299
 40
1
 50
179.99999999999991
 51
269.99999999999994
  0
ARC
  8
_0-b_ラッチ断面__扉側
  6
DASHED1
 62
    7
 10
2005.9769289246091
 20
1311.0935513398299
 40
8.7300000000000004
 50
146.57599999999996
 51
22.665999999999996
  0
ARC
  8
_0-b_ラッチ断面__扉側
  6
DASHED1
 62
    7
 10
1978.916928924609
 20
1312.1035513398301
 40
1
 50
179.99999999999991
 51
269.99999999999994
  0
ARC
  8
_0-b_ラッチ断面__扉側
  6
DASHED1
 62
    7
 10
1986.916928924609
 20
1315.8035513398299
 40
1
 50
269.99999999999988
 51
359.99999999999988
  0
ARC
  8
_0-b_ラッチ断面__扉側
  6
DASHED1
 62
    7
 10
1978.916928924609
 20
1302.8035513398299
 40
2
 50
179.99999999999991
 51
269.99999999999994
  0
ARC
  8
_0-b_ラッチ断面__扉側
  6
DASHED1
 62
    7
 10
2016.916928924609
 20
1306.9012513398299
 40
4
 50
273
 51
304.46999999999997
  0
ARC
  8
_0-b_ラッチ断面__扉側
  6
DASHED1
 62
    7
 10
1993.916928924609
 20
1306.91175133983
 40
4
 50
202.63099999999991
 51
266.99999999999994
  0
ARC
  8
_0-b_ラッチ断面__扉側
  6
DASHED1
 62
    7
 10
2004.5169289246089
 20
1273.8035513398299
 40
45.472499999999996
 50
86.96199999999996
 51
89.62899999999999
  0
ARC
  8
_0-b_ラッチ断面__扉側
  6
DASHED1
 62
    7
 10
2004.5169289246089
 20
1273.8035513398299
 40
45.046349999999996
 50
86.96199999999996
 51
89.625999999999976
  0
ARC
  8
_0-b_ラッチ断面__扉側
  6
DASHED1
 62
    7
 10
2005.7093789246091
 20
1296.2719513398296
 40
22.54635
 50
74.297999999999973
 51
86.961999999999974
  0
ARC
  8
_0-b_ラッチ断面__扉側
  6
DASHED1
 62
    7
 10
2005.7093789246091
 20
1296.2719513398296
 40
22.9725
 50
74.596999999999965
 51
86.96199999999996
  0
ARC
  8
_0-b_ラッチ断面__扉側
  6
DASHED1
 62
    7
 10
2005.9769289246091
 20
1311.0935513398299
 40
8.7300000000000004
 50
22.665999999999975
 51
146.57599999999999
  0
ARC
  8
_0-b_ラッチ断面__扉側
  6
DASHED1
 62
    7
 10
1993.916928924609
 20
1306.8035513398299
 40
6.0000000000000008
 50
179.99999999999991
 51
269.99999999999994
  0
LINE
  8
_0-b_ラッチ断面__扉側
  6
DASHED1
 62
    7
 10
2005.416928924609
 20
1331.40355133983
 11
2005.416928924609
 21
1297.0035513398297
  0
ARC
  8
_0-b_ラッチ断面__扉側
  6
DASHED1
 62
    7
 10
1941.6169289246086
 20
1315.2410513398299
 40
1.1999999999999999
 50
90.000000000000028
 51
180.00000000000005
  0
ARC
  8
_0-b_ラッチ断面__扉側
  6
DASHED1
 62
    7
 10
1941.6169289246086
 20
1315.2410513398299
 40
1.1999999999999999
 50
90.000000000000028
 51
180.00000000000005
  0
LINE
  8
_0-b_ラッチ断面__扉側
  6
DASHED1
 62
    7
 10
1940.4169289246083
 20
1312.2410513398299
 11
1941.6169289246086
 21
1312.2410513398299
  0
LINE
  8
_0-b_ラッチ断面__扉側
  6
DASHED1
 62
    7
 10
1941.6169289246086
 20
1315.2410513398299
 11
1941.6169289246086
 21
1295.2410513398299
  0
LINE
  8
_0-b_ラッチ断面__扉側
  6
DASHED1
 62
    7
 10
1940.4169289246083
 20
1295.2410513398299
 11
1941.6169289246086
 21
1295.2410513398299
  0
LINE
  8
_0-b_ラッチ断面__扉側
  6
DASHED1
 62
    7
 10
1940.4169289246083
 20
1315.2410513398299
 11
1940.4169289246083
 21
1295.2410513398299
  0
LINE
  8
_0-b_ラッチ断面__扉側
  6
DASHED1
 62
    7
 10
1941.6169289246086
 20
1314.7410513398299
 11
1941.6169289246086
 21
1299.6003513398297
  0
LINE
  8
_0-b_ラッチ断面__扉側
  6
DASHED1
 62
    7
 10
1942.1169289246086
 20
1315.2410513398299
 11
1957.2576289246085
 21
1315.2410513398299
  0
LINE
  8
_0-b_ラッチ断面__扉側
  6
DASHED1
 62
    7
 10
1971.4169289246083
 20
1315.2410513398299
 11
1971.4169289246083
 21
1316.4410513398297
  0
LINE
  8
_0-b_ラッチ断面__扉側
  6
DASHED1
 62
    7
 10
1941.6169289246086
 20
1316.4410513398297
 11
1977.4169289246085
 21
1316.4410513398297
  0
LINE
  8
_0-b_ラッチ断面__扉側
  6
DASHED1
 62
    7
 10
1941.6169289246086
 20
1315.2410513398299
 11
1977.4169289246085
 21
1315.2410513398299
  0
LINE
  8
_0-b_ラッチ断面__扉側
  6
DASHED1
 62
    7
 10
1977.4169289246085
 20
1316.4410513398297
 11
1977.4169289246085
 21
1315.2410513398299
  0
LINE
  8
_0-b_ラッチ断面__扉側
  6
DASHED1
 62
    7
 10
1073.8425815283146
 20
2222.7744603287765
 11
1073.3425815283146
 21
2222.7744603287765
  0
LINE
  8
_0-b_ラッチ断面__扉側
  6
DASHED1
 62
    7
 10
1050.8425815283146
 20
2222.7744603287765
 11
1051.3425815283146
 21
2222.7744603287765
  0
LINE
  8
_0-b_ラッチ断面__扉側
  6
DASHED1
 62
    7
 10
1053.8425815283146
 20
2282.7744603287765
 11
1070.8425815283146
 21
2282.7744603287765
  0
LINE
  8
_0-b_ラッチ断面__扉側
  6
DASHED1
 62
    7
 10
1054.3425815283146
 20
2247.7744603287765
 11
1070.3425815283146
 21
2247.7744603287765
  0
LINE
  8
_0-b_ラッチ断面__扉側
  6
DASHED1
 62
    7
 10
1073.8425815283146
 20
2222.7744603287765
 11
1073.3425815283146
 21
2222.7744603287765
  0
LINE
  8
_0-b_ラッチ断面__扉側
  6
DASHED1
 62
    7
 10
1079.8425815283146
 20
2249.7744603287769
 11
1080.8425815283146
 21
2249.7744603287769
  0
LINE
  8
_0-b_ラッチ断面__扉側
  6
DASHED1
 62
    7
 10
1079.8425815283146
 20
2273.7744603287769
 11
1079.8425815283146
 21
2249.7744603287769
  0
LINE
  8
_0-b_ラッチ断面__扉側
  6
DASHED1
 62
    7
 10
1044.8425815283146
 20
2249.7744603287769
 11
1043.8425815283146
 21
2249.7744603287769
  0
LINE
  8
_0-b_ラッチ断面__扉側
  6
DASHED1
 62
    7
 10
1044.8425815283146
 20
2273.7744603287769
 11
1044.8425815283146
 21
2249.7744603287769
  0
LINE
  8
_0-b_ラッチ断面__扉側
  6
DASHED1
 62
    7
 10
1043.4525815283145
 20
2252.7744603287765
 11
1050.8425815283146
 21
2252.7744603287765
  0
LINE
  8
_0-b_ラッチ断面__扉側
  6
DASHED1
 62
    7
 10
1073.8425815283146
 20
2252.7744603287765
 11
1081.9425815283145
 21
2252.7744603287765
  0
LINE
  8
_0-b_ラッチ断面__扉側
  6
DASHED1
 62
    7
 10
1052.3425815283146
 20
2247.7744603287765
 11
1052.3425815283146
 21
2244.9744603287767
  0
LINE
  8
_0-b_ラッチ断面__扉側
  6
DASHED1
 62
    7
 10
1053.8425815283146
 20
2246.3744603287768
 11
1052.8425815283146
 21
2246.3744603287768
  0
LINE
  8
_0-b_ラッチ断面__扉側
  6
DASHED1
 62
    7
 10
1070.8425815283146
 20
2246.3744603287768
 11
1071.8425815283146
 21
2246.3744603287768
  0
LINE
  8
_0-b_ラッチ断面__扉側
  6
DASHED1
 62
    7
 10
1072.3425815283146
 20
2247.7744603287765
 11
1072.3425815283146
 21
2244.9744603287767
  0
LINE
  8
_0-b_ラッチ断面__扉側
  6
DASHED1
 62
    7
 10
1070.3425815283146
 20
2247.7744603287765
 11
1070.3425815283146
 21
2225.7744603287765
  0
LINE
  8
_0-b_ラッチ断面__扉側
  6
DASHED1
 62
    7
 10
1054.3425815283146
 20
2247.7744603287765
 11
1054.3425815283146
 21
2225.7744603287765
  0
LINE
  8
_0-b_ラッチ断面__扉側
  6
DASHED1
 62
    7
 10
1060.1065315283146
 20
2220.774510328777
 11
1064.5786315283146
 21
2220.774510328777
  0
LINE
  8
_0-b_ラッチ断面__扉側
  6
DASHED1
 62
    7
 10
1065.8425815283146
 20
2218.7745103287766
 11
1065.8425815283146
 21
2216.774510328777
  0
LINE
  8
_0-b_ラッチ断面__扉側
  6
DASHED1
 62
    7
 10
1058.8425815283146
 20
2218.7745103287766
 11
1058.8425815283146
 21
2216.774510328777
  0
LINE
  8
_0-b_ラッチ断面__扉側
  6
DASHED1
 62
    7
 10
1058.8425815283146
 20
2216.774510328777
 11
1059.3425815283146
 21
2216.774510328777
  0
LINE
  8
_0-b_ラッチ断面__扉側
  6
DASHED1
 62
    7
 10
1065.3425815283146
 20
2216.774510328777
 11
1065.8425815283146
 21
2216.774510328777
  0
LINE
  8
_0-b_ラッチ断面__扉側
  6
DASHED1
 62
    7
 10
1065.8425815283146
 20
2211.774510328777
 11
1058.8425815283146
 21
2211.774510328777
  0
LINE
  8
_0-b_ラッチ断面__扉側
  6
DASHED1
 62
    7
 10
1065.8885315283146
 20
2211.8204603287767
 11
1065.8425815283146
 21
2211.774510328777
  0
LINE
  8
_0-b_ラッチ断面__扉側
  6
DASHED1
 62
    7
 10
1058.7966315283147
 20
2211.8204603287767
 11
1058.8425815283146
 21
2211.774510328777
  0
LINE
  8
_0-b_ラッチ断面__扉側
  6
DASHED1
 62
    7
 10
1065.3425815283146
 20
2218.7745103287766
 11
1065.3425815283146
 21
2212.7745103287766
  0
LINE
  8
_0-b_ラッチ断面__扉側
  6
DASHED1
 62
    7
 10
1059.3425815283146
 20
2218.7745103287766
 11
1059.3425815283146
 21
2212.7745103287766
  0
LINE
  8
_0-b_ラッチ断面__扉側
  6
DASHED1
 62
    7
 10
1059.3425815283146
 20
2216.774510328777
 11
1065.3425815283146
 21
2216.774510328777
  0
LINE
  8
_0-b_ラッチ断面__扉側
  6
DASHED1
 62
    7
 10
1057.7715315283146
 20
2212.8455603287766
 11
1058.7966315283147
 21
2211.8204603287767
  0
LINE
  8
_0-b_ラッチ断面__扉側
  6
DASHED1
 62
    7
 10
1066.9136315283146
 20
2212.8455603287766
 11
1065.8885315283146
 21
2211.8204603287767
  0
LINE
  8
_0-b_ラッチ断面__扉側
  6
DASHED1
 62
    7
 10
1069.8425815283146
 20
2219.916610328777
 11
1069.8425815283146
 21
2247.7744603287765
  0
LINE
  8
_0-b_ラッチ断面__扉側
  6
DASHED1
 62
    7
 10
1054.8425815283146
 20
2219.916610328777
 11
1054.8425815283146
 21
2247.7744603287765
  0
LINE
  8
_0-b_ラッチ断面__扉側
  6
DASHED1
 62
    7
 10
1049.1671315283147
 20
2239.5370603287765
 11
1048.9556315283148
 21
2239.8125603287767
  0
LINE
  8
_0-b_ラッチ断面__扉側
  6
DASHED1
 62
    7
 10
1049.1671315283147
 20
2239.5370603287765
 11
1049.8425815283146
 21
2240.2744603287765
  0
LINE
  8
_0-b_ラッチ断面__扉側
  6
DASHED1
 62
    7
 10
1048.9556315283148
 20
2239.8125603287767
 11
1049.8425815283146
 21
2240.2744603287765
  0
LINE
  8
_0-b_ラッチ断面__扉側
  6
DASHED1
 62
    7
 10
1070.3425815283146
 20
2247.7744603287765
 11
1079.5425815283144
 21
2247.7744603287765
  0
LINE
  8
_0-b_ラッチ断面__扉側
  6
DASHED1
 62
    7
 10
1054.3425815283146
 20
2247.7744603287765
 11
1045.1425815283146
 21
2247.7744603287765
  0
LINE
  8
_0-b_ラッチ断面__扉側
  6
DASHED1
 62
    7
 10
1063.3425815283146
 20
2247.7744603287765
 11
1063.3425815283146
 21
2238.2748603287768
  0
LINE
  8
_0-b_ラッチ断面__扉側
  6
DASHED1
 62
    7
 10
1061.3425815283146
 20
2247.7744603287765
 11
1061.3425815283146
 21
2238.2748603287768
  0
LINE
  8
_0-b_ラッチ断面__扉側
  6
DASHED1
 62
    7
 10
1061.8425815283146
 20
2237.7748603287768
 11
1062.8425815283146
 21
2237.7748603287768
  0
LINE
  8
_0-b_ラッチ断面__扉側
  6
DASHED1
 62
    7
 10
1061.3425815283146
 20
2241.9944603287767
 11
1054.8425815283146
 21
2241.9944603287767
  0
LINE
  8
_0-b_ラッチ断面__扉側
  6
DASHED1
 62
    7
 10
1069.8425815283146
 20
2241.9944603287767
 11
1063.3425815283146
 21
2241.9944603287767
  0
LINE
  8
_0-b_ラッチ断面__扉側
  6
DASHED1
 62
    7
 10
1061.3425815283146
 20
2242.3644603287766
 11
1060.2818315283145
 21
2242.3644603287766
  0
LINE
  8
_0-b_ラッチ断面__扉側
  6
DASHED1
 62
    7
 10
1057.9033315283145
 20
2242.3644603287766
 11
1054.8425815283146
 21
2242.3644603287766
  0
LINE
  8
_0-b_ラッチ断面__扉側
  6
DASHED1
 62
    7
 10
1069.8425815283146
 20
2242.3644603287766
 11
1066.7818315283145
 21
2242.3644603287766
  0
LINE
  8
_0-b_ラッチ断面__扉側
  6
DASHED1
 62
    7
 10
1064.4033315283145
 20
2242.3644603287766
 11
1063.3425815283146
 21
2242.3644603287766
  0
LINE
  8
_0-b_ラッチ断面__扉側
  6
DASHED1
 62
    7
 10
1081.8425815283146
 20
2237.7744603287765
 11
1081.8425815283146
 21
2248.7744603287769
  0
LINE
  8
_0-b_ラッチ断面__扉側
  6
DASHED1
 62
    7
 10
1079.8425815283146
 20
2236.7744603287765
 11
1080.8425815283146
 21
2236.7744603287765
  0
LINE
  8
_0-b_ラッチ断面__扉側
  6
DASHED1
 62
    7
 10
1079.8425815283146
 20
2247.4744603287767
 11
1079.8425815283146
 21
2228.7744603287769
  0
LINE
  8
_0-b_ラッチ断面__扉側
  6
DASHED1
 62
    7
 10
1042.8425815283146
 20
2237.7744603287765
 11
1042.8425815283146
 21
2248.7744603287769
  0
LINE
  8
_0-b_ラッチ断面__扉側
  6
DASHED1
 62
    7
 10
1044.8425815283146
 20
2236.7744603287765
 11
1043.8425815283146
 21
2236.7744603287765
  0
LINE
  8
_0-b_ラッチ断面__扉側
  6
DASHED1
 62
    7
 10
1044.8425815283146
 20
2247.4744603287767
 11
1044.8425815283146
 21
2228.7744603287769
  0
LINE
  8
_0-b_ラッチ断面__扉側
  6
DASHED1
 62
    7
 10
1062.3425815283146
 20
2284.4744603287767
 11
1062.3425815283146
 21
2209.1744603287766
  0
LINE
  8
_0-b_ラッチ断面__扉側
  6
DASHED1
 62
    7
 10
1043.7125815283145
 20
2265.2744603287765
 11
1082.7425815283145
 21
2265.2744603287765
  0
LINE
  8
_0-b_ラッチ断面__扉側
  6
DASHED1
 62
    7
 10
1049.8425815283146
 20
2244.424460328777
 11
1049.8425815283146
 21
2236.1744603287766
  0
LINE
  8
_0-b_ラッチ断面__扉側
  6
DASHED1
 62
    7
 10
1053.0925815283146
 20
2240.2744603287765
 11
1046.5425815283147
 21
2240.2744603287765
  0
LINE
  8
_0-b_ラッチ断面__扉側
  6
DASHED1
 62
    7
 10
1074.8425815283146
 20
2244.0944603287766
 11
1074.8425815283146
 21
2236.3744603287768
  0
LINE
  8
_0-b_ラッチ断面__扉側
  6
DASHED1
 62
    7
 10
1071.5725815283146
 20
2240.2744603287765
 11
1078.5825815283146
 21
2240.2744603287765
  0
LINE
  8
_0-b_ラッチ断面__扉側
  6
DASHED1
 62
    7
 10
1065.9025815283146
 20
2214.274510328777
 11
1058.6325815283146
 21
2214.274510328777
  0
ARC
  8
_0-b_ラッチ断面__扉側
  6
DASHED1
 62
    7
 10
1070.8425815283146
 20
2273.7744603287769
 40
9
 50
0.0000000000000254
 51
90.000000000000056
  0
ARC
  8
_0-b_ラッチ断面__扉側
  6
DASHED1
 62
    7
 10
1073.8425815283146
 20
2228.7744603287769
 40
6.0000000000000008
 50
270
 51
0
  0
ARC
  8
_0-b_ラッチ断面__扉側
  6
DASHED1
 62
    7
 10
1073.3425815283146
 20
2225.7744603287765
 40
3.0000000000000004
 50
180.00000000000005
 51
270.00000000000005
  0
ARC
  8
_0-b_ラッチ断面__扉側
  6
DASHED1
 62
    7
 10
1053.8425815283146
 20
2273.7744603287769
 40
9
 50
90.000000000000056
 51
180.00000000000011
  0
ARC
  8
_0-b_ラッチ断面__扉側
  6
DASHED1
 62
    7
 10
1050.8425815283146
 20
2228.7744603287769
 40
6.0000000000000008
 50
180.00000000000005
 51
270.00000000000005
  0
ARC
  8
_0-b_ラッチ断面__扉側
  6
DASHED1
 62
    7
 10
1051.3425815283146
 20
2225.7744603287765
 40
3.0000000000000004
 50
270
 51
0
  0
CIRCLE
  8
_0-b_ラッチ断面__扉側
  6
DASHED1
 62
    7
 10
1049.8425815283146
 20
2240.2744603287765
 40
1.8999999999999999
  0
CIRCLE
  8
_0-b_ラッチ断面__扉側
  6
DASHED1
 62
    7
 10
1074.8425815283146
 20
2240.2744603287765
 40
1.8999999999999999
  0
ARC
  8
_0-b_ラッチ断面__扉側
  6
DASHED1
 62
    7
 10
1080.8425815283146
 20
2248.7744603287769
 40
1
 50
0.0000000000000254
 51
90.000000000000056
  0
ARC
  8
_0-b_ラッチ断面__扉側
  6
DASHED1
 62
    7
 10
1043.8425815283146
 20
2248.7744603287769
 40
1
 50
90.000000000000056
 51
180.00000000000011
  0
ARC
  8
_0-b_ラッチ断面__扉側
  6
DASHED1
 62
    7
 10
1046.8425815283146
 20
2249.7744603287769
 40
2
 50
180.00000000000005
 51
270.00000000000005
  0
ARC
  8
_0-b_ラッチ断面__扉側
  6
DASHED1
 62
    7
 10
1053.8425815283146
 20
2246.8744603287764
 40
0.5
 50
270
 51
0
  0
ARC
  8
_0-b_ラッチ断面__扉側
  6
DASHED1
 62
    7
 10
1052.8425815283146
 20
2246.8744603287764
 40
0.5
 50
180.00000000000005
 51
270.00000000000005
  0
ARC
  8
_0-b_ラッチ断面__扉側
  6
DASHED1
 62
    7
 10
1070.8425815283146
 20
2246.8744603287764
 40
0.5
 50
180.00000000000005
 51
270.00000000000005
  0
ARC
  8
_0-b_ラッチ断面__扉側
  6
DASHED1
 62
    7
 10
1071.8425815283146
 20
2246.8744603287764
 40
0.5
 50
270
 51
0
  0
ARC
  8
_0-b_ラッチ断面__扉側
  6
DASHED1
 62
    7
 10
1077.8425815283146
 20
2249.7744603287769
 40
2
 50
270
 51
0
  0
ARC
  8
_0-b_ラッチ断面__扉側
  6
DASHED1
 62
    7
 10
1062.3425815283146
 20
2218.7745103287766
 40
3.5000000000000008
 50
90.000000000000056
 51
180.00000000000011
  0
ARC
  8
_0-b_ラッチ断面__扉側
  6
DASHED1
 62
    7
 10
1062.3425815283146
 20
2218.7745103287766
 40
3.5000000000000008
 50
0.0000000000000254
 51
90.000000000000056
  0
ARC
  8
_0-b_ラッチ断面__扉側
  6
DASHED1
 62
    7
 10
1062.3425815283146
 20
2218.7745103287766
 40
3.0000000000000004
 50
138.19000000000005
 51
180.00000000000011
  0
ARC
  8
_0-b_ラッチ断面__扉側
  6
DASHED1
 62
    7
 10
1062.3425815283146
 20
2218.7745103287766
 40
3.0000000000000004
 50
0.0000000000000254
 51
41.81000000000003
  0
ARC
  8
_0-b_ラッチ断面__扉側
  6
DASHED1
 62
    7
 10
1060.3425815283146
 20
2212.7745103287766
 40
1
 50
180.00000000000005
 51
270.00000000000005
  0
ARC
  8
_0-b_ラッチ断面__扉側
  6
DASHED1
 62
    7
 10
1064.3425815283146
 20
2212.7745103287766
 40
1
 50
270
 51
0
  0
ARC
  8
_0-b_ラッチ断面__扉側
  6
DASHED1
 62
    7
 10
1064.8425815283146
 20
2219.916610328777
 40
10
 50
180.00000000000005
 51
225.00000000000005
  0
ARC
  8
_0-b_ラッチ断面__扉側
  6
DASHED1
 62
    7
 10
1059.8425815283146
 20
2219.916610328777
 40
10
 50
315
 51
0
  0
ARC
  8
_0-b_ラッチ断面__扉側
  6
DASHED1
 62
    7
 10
1079.5425815283144
 20
2247.4744603287767
 40
0.2999999999999998
 50
0.0000000000000254
 51
90.000000000000056
  0
ARC
  8
_0-b_ラッチ断面__扉側
  6
DASHED1
 62
    7
 10
1045.1425815283146
 20
2247.4744603287767
 40
0.2999999999999998
 50
90.000000000000056
 51
180.00000000000011
  0
ARC
  8
_0-b_ラッチ断面__扉側
  6
DASHED1
 62
    7
 10
1062.8425815283146
 20
2238.2748603287768
 40
0.5
 50
270
 51
0
  0
ARC
  8
_0-b_ラッチ断面__扉側
  6
DASHED1
 62
    7
 10
1061.8425815283146
 20
2238.2748603287768
 40
0.5
 50
180.00000000000005
 51
270.00000000000005
  0
ARC
  8
_0-b_ラッチ断面__扉側
  6
DASHED1
 62
    7
 10
1080.8425815283146
 20
2237.7744603287765
 40
1
 50
270
 51
0
  0
ARC
  8
_0-b_ラッチ断面__扉側
  6
DASHED1
 62
    7
 10
1043.8425815283146
 20
2237.7744603287765
 40
1
 50
180.00000000000005
 51
270.00000000000005
  0
CIRCLE
  8
_0-b_ラッチ断面__扉側
  6
DASHED1
 62
    7
 10
1065.5925815283146
 20
2237.7745103287766
 40
2.3250000000000001
  0
CIRCLE
  8
_0-b_ラッチ断面__扉側
  6
DASHED1
 62
    7
 10
1059.0925815283146
 20
2237.7745103287766
 40
2.3250000000000001
  0
CIRCLE
  8
_0-b_ラッチ断面__扉側
  6
DASHED1
 62
    7
 10
1059.0925815283146
 20
2244.274510328777
 40
2.3250000000000001
  0
CIRCLE
  8
_0-b_ラッチ断面__扉側
  6
DASHED1
 62
    7
 10
1065.5925815283146
 20
2244.274510328777
 40
2.3250000000000001
  0
CIRCLE
  8
_0-b_ラッチ断面__扉側
  6
DASHED1
 62
    7
 10
1062.3425815283146
 20
2214.274510328777
 40
1.25
  0
LINE
  8
_0-b_ラッチ断面__扉側
  6
DASHED1
 62
    7
 10
1074.8425815283139
 20
1332.6410513398298
 11
1074.8425815283139
 21
1324.2410513398297
  0
LINE
  8
_0-b_ラッチ断面__扉側
  6
DASHED1
 62
    7
 10
1073.8425815283139
 20
1301.0410513398298
 11
1050.8425815283139
 21
1301.0410513398298
  0
LINE
  8
_0-b_ラッチ断面__扉側
  6
DASHED1
 62
    7
 10
1062.3425815283139
 20
1318.0410513398296
 11
1054.8425815283139
 21
1318.0410513398296
  0
LINE
  8
_0-b_ラッチ断面__扉側
  6
DASHED1
 62
    7
 10
1052.3425815283139
 20
1325.5410513398296
 11
1052.3425815283139
 21
1320.0410513398298
  0
LINE
  8
_0-b_ラッチ断面__扉側
  6
DASHED1
 62
    7
 10
1053.8425815283139
 20
1319.5410513398296
 11
1052.8425815283142
 21
1319.5410513398296
  0
LINE
  8
_0-b_ラッチ断面__扉側
  6
DASHED1
 62
    7
 10
1081.9225815283141
 20
1328.9910513398297
 11
1081.9425815283141
 21
1328.9910513398297
  0
LINE
  8
_0-b_ラッチ断面__扉側
  6
DASHED1
 62
    7
 10
1044.8425815283139
 20
1311.3410513398298
 11
1043.8425815283139
 21
1311.3410513398298
  0
LINE
  8
_0-b_ラッチ断面__扉側
  6
DASHED1
 62
    7
 10
1045.8425815283139
 20
1325.5410513398296
 11
1053.3425815283139
 21
1325.5410513398296
  0
LINE
  8
_0-b_ラッチ断面__扉側
  6
DASHED1
 62
    7
 10
1044.8425815283139
 20
1324.5410513398296
 11
1044.8425815283139
 21
1307.0410513398296
  0
LINE
  8
_0-b_ラッチ断面__扉側
  6
DASHED1
 62
    7
 10
1042.8425815283142
 20
1330.7410513398299
 11
1042.8425815283142
 21
1312.3410513398298
  0
LINE
  8
_0-b_ラッチ断面__扉側
  6
DASHED1
 62
    7
 10
1054.3425815283139
 20
1330.7410513398299
 11
1042.8425815283142
 21
1330.7410513398299
  0
LINE
  8
_0-b_ラッチ断面__扉側
  6
DASHED1
 62
    7
 10
1044.8425815283139
 20
1330.7410513398299
 11
1044.8425815283139
 21
1326.5410513398296
  0
LINE
  8
_0-b_ラッチ断面__扉側
  6
DASHED1
 62
    7
 10
1054.3425815283139
 20
1330.7410513398299
 11
1054.3425815283139
 21
1318.5410513398298
  0
LINE
  8
_0-b_ラッチ断面__扉側
  6
DASHED1
 62
    7
 10
1079.8425815283139
 20
1330.7410513398299
 11
1079.8425815283139
 21
1307.0410513398296
  0
LINE
  8
_0-b_ラッチ断面__扉側
  6
DASHED1
 62
    7
 10
1070.3425815283142
 20
1330.7410513398299
 11
1081.8425815283139
 21
1330.7410513398299
  0
LINE
  8
_0-b_ラッチ断面__扉側
  6
DASHED1
 62
    7
 10
1081.8425815283139
 20
1330.7410513398299
 11
1081.8425815283139
 21
1312.3410513398298
  0
LINE
  8
_0-b_ラッチ断面__扉側
  6
DASHED1
 62
    7
 10
1079.8425815283139
 20
1311.3410513398298
 11
1080.8425815283139
 21
1311.3410513398298
  0
LINE
  8
_0-b_ラッチ断面__扉側
  6
DASHED1
 62
    7
 10
1054.3425815283139
 20
1329.8410513398298
 11
1070.3425815283142
 21
1329.8410513398298
  0
LINE
  8
_0-b_ラッチ断面__扉側
  6
DASHED1
 62
    7
 10
1070.3425815283142
 20
1330.7410513398299
 11
1070.3425815283142
 21
1318.5410513398298
  0
LINE
  8
_0-b_ラッチ断面__扉側
  6
DASHED1
 62
    7
 10
1062.3425815283139
 20
1318.0410513398296
 11
1069.8425815283139
 21
1318.0410513398296
  0
LINE
  8
_0-b_ラッチ断面__扉側
  6
DASHED1
 62
    7
 10
1078.8425815283139
 20
1325.5410513398296
 11
1071.3425815283139
 21
1325.5410513398296
  0
LINE
  8
_0-b_ラッチ断面__扉側
  6
DASHED1
 62
    7
 10
1068.8425815283139
 20
1329.5410513398296
 11
1055.8425815283139
 21
1329.5410513398296
  0
LINE
  8
_0-b_ラッチ断面__扉側
  6
DASHED1
 62
    7
 10
1059.3425815283139
 20
1325.5410513398296
 11
1059.3425815283139
 21
1320.5410513398296
  0
LINE
  8
_0-b_ラッチ断面__扉側
  6
DASHED1
 62
    7
 10
1064.3425815283139
 20
1319.5410513398296
 11
1060.3425815283142
 21
1319.5410513398296
  0
LINE
  8
_0-b_ラッチ断面__扉側
  6
DASHED1
 62
    7
 10
1065.3425815283142
 20
1325.5410513398296
 11
1065.3425815283142
 21
1320.5410513398296
  0
LINE
  8
_0-b_ラッチ断面__扉側
  6
DASHED1
 62
    7
 10
1068.8425815283139
 20
1325.5410513398296
 11
1065.3425815283142
 21
1325.5410513398296
  0
LINE
  8
_0-b_ラッチ断面__扉側
  6
DASHED1
 62
    7
 10
1059.3425815283139
 20
1325.5410513398296
 11
1055.8425815283139
 21
1325.5410513398296
  0
LINE
  8
_0-b_ラッチ断面__扉側
  6
DASHED1
 62
    7
 10
1056.8425815283139
 20
1319.1449013398298
 11
1056.6459815283139
 21
1319.6046513398298
  0
LINE
  8
_0-b_ラッチ断面__扉側
  6
DASHED1
 62
    7
 10
1067.8425815283142
 20
1319.1449013398298
 11
1068.0391815283139
 21
1319.6046513398298
  0
LINE
  8
_0-b_ラッチ断面__扉側
  6
DASHED1
 62
    7
 10
1069.8425815283139
 20
1318.0410513398296
 11
1069.8425815283139
 21
1328.5410513398298
  0
LINE
  8
_0-b_ラッチ断面__扉側
  6
DASHED1
 62
    7
 10
1054.8425815283139
 20
1318.0410513398296
 11
1054.8425815283139
 21
1328.5410513398298
  0
LINE
  8
_0-b_ラッチ断面__扉側
  6
DASHED1
 62
    7
 10
1070.8425815283139
 20
1319.5410513398296
 11
1071.8425815283139
 21
1319.5410513398296
  0
LINE
  8
_0-b_ラッチ断面__扉側
  6
DASHED1
 62
    7
 10
1072.3425815283139
 20
1325.5410513398296
 11
1072.3425815283139
 21
1320.0410513398298
  0
LINE
  8
_0-b_ラッチ断面__扉側
  6
DASHED1
 62
    7
 10
1054.3425815283139
 20
1323.5410513398298
 11
1054.8425815283139
 21
1323.5410513398298
  0
LINE
  8
_0-b_ラッチ断面__扉側
  6
DASHED1
 62
    7
 10
1054.3425815283139
 20
1322.5410513398298
 11
1054.8425815283139
 21
1322.5410513398298
  0
LINE
  8
_0-b_ラッチ断面__扉側
  6
DASHED1
 62
    7
 10
1069.8425815283139
 20
1322.5410513398298
 11
1070.3425815283142
 21
1322.5410513398298
  0
LINE
  8
_0-b_ラッチ断面__扉側
  6
DASHED1
 62
    7
 10
1069.8425815283139
 20
1323.5410513398298
 11
1070.3425815283142
 21
1323.5410513398298
  0
LINE
  8
_0-b_ラッチ断面__扉側
  6
DASHED1
 62
    7
 10
1054.3425815283139
 20
1330.2410513398297
 11
1070.3425815283142
 21
1330.2410513398297
  0
LINE
  8
_0-b_ラッチ断面__扉側
  6
DASHED1
 62
    7
 10
1062.3425815283139
 20
1301.0410513398298
 11
1061.6425815283141
 21
1301.0410513398298
  0
LINE
  8
_0-b_ラッチ断面__扉側
  6
DASHED1
 62
    7
 10
1062.3425815283139
 20
1301.0410513398298
 11
1063.042581528314
 21
1301.0410513398298
  0
LINE
  8
_0-b_ラッチ断面__扉側
  6
DASHED1
 62
    7
 10
1061.8425815283139
 20
1315.0410513398298
 11
1062.3425815283139
 21
1315.0410513398298
  0
LINE
  8
_0-b_ラッチ断面__扉側
  6
DASHED1
 62
    7
 10
1061.3425815283139
 20
1301.3410513398298
 11
1061.3425815283139
 21
1314.5410513398296
  0
LINE
  8
_0-b_ラッチ断面__扉側
  6
DASHED1
 62
    7
 10
1063.3425815283139
 20
1301.3410513398298
 11
1063.3425815283139
 21
1314.5410513398296
  0
LINE
  8
_0-b_ラッチ断面__扉側
  6
DASHED1
 62
    7
 10
1062.3425815283139
 20
1315.0410513398298
 11
1062.8425815283142
 21
1315.0410513398298
  0
LINE
  8
_0-b_ラッチ断面__扉側
  6
DASHED1
 62
    7
 10
1062.3425815283139
 20
1331.3410513398298
 11
1062.3425815283139
 21
1298.3410513398298
  0
ARC
  8
_0-b_ラッチ断面__扉側
  6
DASHED1
 62
    7
 10
1050.8425815283139
 20
1307.0410513398296
 40
6.0000000000000008
 50
180.00000000000005
 51
270.00000000000005
  0
ARC
  8
_0-b_ラッチ断面__扉側
  6
DASHED1
 62
    7
 10
1073.8425815283139
 20
1307.0410513398296
 40
6.0000000000000008
 50
270.00000000000005
 51
0.0000000000000508
  0
ARC
  8
_0-b_ラッチ断面__扉側
  6
DASHED1
 62
    7
 10
1053.3425815283139
 20
1326.5410513398296
 40
1
 50
270.00000000000005
 51
0.0000000000000508
  0
ARC
  8
_0-b_ラッチ断面__扉側
  6
DASHED1
 62
    7
 10
1045.8425815283139
 20
1326.5410513398296
 40
1
 50
180.00000000000005
 51
270.00000000000005
  0
ARC
  8
_0-b_ラッチ断面__扉側
  6
DASHED1
 62
    7
 10
1054.8425815283139
 20
1318.5410513398298
 40
0.5
 50
180.00000000000005
 51
270.00000000000005
  0
ARC
  8
_0-b_ラッチ断面__扉側
  6
DASHED1
 62
    7
 10
1053.8425815283139
 20
1320.0410513398298
 40
0.5
 50
270.00000000000005
 51
0.0000000000000508
  0
ARC
  8
_0-b_ラッチ断面__扉側
  6
DASHED1
 62
    7
 10
1052.8425815283142
 20
1320.0410513398298
 40
0.5
 50
180.00000000000005
 51
270.00000000000005
  0
ARC
  8
_0-b_ラッチ断面__扉側
  6
DASHED1
 62
    7
 10
1043.8425815283139
 20
1312.3410513398298
 40
1
 50
180.00000000000005
 51
270.00000000000005
  0
ARC
  8
_0-b_ラッチ断面__扉側
  6
DASHED1
 62
    7
 10
1045.8425815283139
 20
1324.5410513398296
 40
1
 50
90.000000000000028
 51
180.00000000000005
  0
ARC
  8
_0-b_ラッチ断面__扉側
  6
DASHED1
 62
    7
 10
1080.8425815283139
 20
1312.3410513398298
 40
1
 50
270.00000000000005
 51
0.0000000000000508
  0
ARC
  8
_0-b_ラッチ断面__扉側
  6
DASHED1
 62
    7
 10
1069.8425815283139
 20
1318.5410513398298
 40
0.5
 50
270.00000000000005
 51
0.0000000000000508
  0
ARC
  8
_0-b_ラッチ断面__扉側
  6
DASHED1
 62
    7
 10
1071.3425815283139
 20
1326.5410513398296
 40
1
 50
180.00000000000005
 51
270.00000000000005
  0
ARC
  8
_0-b_ラッチ断面__扉側
  6
DASHED1
 62
    7
 10
1078.8425815283139
 20
1326.5410513398296
 40
1
 50
270.00000000000005
 51
0.0000000000000508
  0
ARC
  8
_0-b_ラッチ断面__扉側
  6
DASHED1
 62
    7
 10
1055.8425815283139
 20
1328.5410513398298
 40
1
 50
90.000000000000028
 51
180.00000000000005
  0
ARC
  8
_0-b_ラッチ断面__扉側
  6
DASHED1
 62
    7
 10
1068.8425815283139
 20
1328.5410513398298
 40
1
 50
0
 51
90.000000000000028
  0
ARC
  8
_0-b_ラッチ断面__扉側
  6
DASHED1
 62
    7
 10
1055.8425815283139
 20
1326.5410513398296
 40
1
 50
180.00000000000005
 51
270.00000000000005
  0
ARC
  8
_0-b_ラッチ断面__扉側
  6
DASHED1
 62
    7
 10
1068.8425815283139
 20
1326.5410513398296
 40
1
 50
270.00000000000005
 51
0.0000000000000508
  0
ARC
  8
_0-b_ラッチ断面__扉側
  6
DASHED1
 62
    7
 10
1060.3425815283142
 20
1320.5410513398296
 40
1
 50
180.00000000000005
 51
270.00000000000005
  0
ARC
  8
_0-b_ラッチ断面__扉側
  6
DASHED1
 62
    7
 10
1064.3425815283139
 20
1320.5410513398296
 40
1
 50
270.00000000000005
 51
0.0000000000000508
  0
ARC
  8
_0-b_ラッチ断面__扉側
  6
DASHED1
 62
    7
 10
1070.8425815283139
 20
1320.0410513398298
 40
0.5
 50
180.00000000000005
 51
270.00000000000005
  0
ARC
  8
_0-b_ラッチ断面__扉側
  6
DASHED1
 62
    7
 10
1071.8425815283139
 20
1320.0410513398298
 40
0.5
 50
270.00000000000005
 51
0.0000000000000508
  0
ARC
  8
_0-b_ラッチ断面__扉側
  6
DASHED1
 62
    7
 10
1061.6425815283141
 20
1301.3410513398298
 40
0.2999999999999998
 50
180.00000000000005
 51
270.00000000000005
  0
ARC
  8
_0-b_ラッチ断面__扉側
  6
DASHED1
 62
    7
 10
1063.042581528314
 20
1301.3410513398298
 40
0.2999999999999998
 50
270.00000000000005
 51
0.0000000000000508
  0
ARC
  8
_0-b_ラッチ断面__扉側
  6
DASHED1
 62
    7
 10
1061.8425815283139
 20
1314.5410513398296
 40
0.5
 50
90.000000000000028
 51
180.00000000000005
  0
ARC
  8
_0-b_ラッチ断面__扉側
  6
DASHED1
 62
    7
 10
1062.8425815283142
 20
1314.5410513398296
 40
0.5
 50
0
 51
90.000000000000028
  0
LINE
  8
_0-b_ラッチ断面__扉側
  6
DASHED1
 62
    7
 10
1049.8425815283139
 20
1332.6410513398298
 11
1049.8425815283139
 21
1324.2410513398297
  0
LINE
  8
ADD_LINE
  6
DOT
 62
    9
 10
4112.7167019027483
 20
2853.7632135306557
 11
4127.7167019027483
 21
2853.7632135306557
  0
LINE
  8
ADD_LINE
  6
DOT
 62
    9
 10
4127.7167019027483
 20
2853.7632135306557
 11
4127.7167019027483
 21
2868.7632135306557
  0
LINE
  8
ADD_LINE
  6
DOT
 62
    9
 10
4127.7167019027483
 20
2868.7632135306557
 11
4112.7167019027483
 21
2868.7632135306557
  0
LINE
  8
ADD_LINE
  6
DOT
 62
    9
 10
4112.7167019027483
 20
2868.7632135306557
 11
4112.7167019027483
 21
2853.7632135306557
  0
LINE
  8
_0-d_ラッチ平面__扉側
  6
CONTINUOUS
 62
    7
 10
4112.7167019027483
 20
2293.7632135306548
 11
2832.4595048283417
 21
2293.7632135306548
  0
TEXT
  8
_0-d_ラッチ平面__扉側
 62
    7
 10
2912.3122758718463
 20
2733.4432167003151
 40
35
 41
0.857142857142857
 50
0
  1
天　板
  0
LINE
  8
_0-d_ラッチ平面__扉側
  6
CONTINUOUS
 62
    3
 10
4112.7167019027483
 20
2853.7632135306557
 11
2832.4595048283417
 21
2853.7632135306557
  0
TEXT
  8
_0-d_ラッチ平面__扉側
 62
    7
 10
3277.9600048283427
 20
2803.7632135306557
 40
35
 41
0.857142857142857
 50
0
  1
仕　様
  0
TEXT
  8
_0-d_ラッチ平面__扉側
 62
    7
 10
3172.4595048283417
 20
2731.2632135306548
 40
35
 41
0.857142857142857
 50
0
  1
片面化粧パーティクルボード　１５ｔ
  0
LINE
  8
_0-d_ラッチ平面__扉側
  6
CONTINUOUS
 62
    3
 10
2832.4595048283417
 20
2223.7632135306548
 11
4112.7167019027483
 21
2223.7632135306548
  0
LINE
  8
_0-d_ラッチ平面__扉側
  6
CONTINUOUS
 62
    7
 10
4112.7167019027483
 20
2573.7632135306548
 11
2832.4595048283417
 21
2573.7632135306548
  0
LINE
  8
_0-d_ラッチ平面__扉側
  6
CONTINUOUS
 62
    7
 10
4112.7167019027483
 20
2503.7632135306548
 11
2832.4595048283417
 21
2503.7632135306548
  0
LINE
  8
_0-d_ラッチ平面__扉側
  6
CONTINUOUS
 62
    7
 10
4112.7167019027483
 20
2433.7632135306548
 11
2832.4595048283417
 21
2433.7632135306548
  0
LINE
  8
_0-d_ラッチ平面__扉側
  6
CONTINUOUS
 62
    7
 10
4112.7167019027483
 20
2363.7632135306548
 11
2832.4595048283417
 21
2363.7632135306548
  0
LINE
  8
_0-d_ラッチ平面__扉側
  6
CONTINUOUS
 62
    7
 10
4112.7167019027483
 20
2643.7632135306548
 11
2832.4595048283417
 21
2643.7632135306548
  0
LINE
  8
_0-d_ラッチ平面__扉側
  6
CONTINUOUS
 62
    7
 10
4112.7167019027483
 20
2713.7632135306548
 11
2832.4595048283417
 21
2713.7632135306548
  0
LINE
  8
_0-d_ラッチ平面__扉側
  6
CONTINUOUS
 62
    7
 10
4112.7167019027483
 20
2783.7632135306557
 11
2832.4595048283417
 21
2783.7632135306557
  0
LINE
  8
_0-d_ラッチ平面__扉側
  6
CONTINUOUS
 62
    7
 10
4112.7167019027483
 20
2788.7632135306557
 11
2832.4595048283417
 21
2788.7632135306557
  0
TEXT
  8
_0-d_ラッチ平面__扉側
 62
    7
 10
2912.4595048283413
 20
2241.2632135306548
 40
35
 41
0.857142857142857
 50
0
  1
棚　板
  0
TEXT
  8
_0-d_ラッチ平面__扉側
 62
    7
 10
2912.4595048283413
 20
2311.2632135306548
 40
35
 41
0.857142857142857
 50
0
  1
丁　番
  0
TEXT
  8
_0-d_ラッチ平面__扉側
 62
    7
 10
2912.4595048283426
 20
2381.2632135306548
 40
35
 41
0.857142857142857
 50
0
  1
　扉
  0
TEXT
  8
_0-d_ラッチ平面__扉側
 62
    7
 10
2912.4595048283413
 20
2451.2632135306548
 40
35
 41
0.857142857142857
 50
0
  1
背　板
  0
TEXT
  8
_0-d_ラッチ平面__扉側
 62
    7
 10
2912.4595048283408
 20
2521.2632135306548
 40
35
 41
0.857142857142857
 50
0
  1
見　上　板
  0
TEXT
  8
_0-d_ラッチ平面__扉側
 62
    7
 10
2912.4595048283408
 20
2661.2632135306548
 40
35
 41
0.857142857142857
 50
0
  1
左　側　板
  0
TEXT
  8
_0-d_ラッチ平面__扉側
 62
    7
 10
2912.4595048283408
 20
2591.2632135306548
 40
35
 41
0.857142857142857
 50
0
  1
右　側　板
  0
LINE
  8
ADD_LINE
  6
DOT
 62
    9
 10
2833.6960272785609
 20
2821.2632135306557
 11
4112.7167019027483
 21
2821.2632135306557
  0
LINE
  8
ADD_LINE
  6
DOT
 62
    9
 10
3324.9600048283418
 20
2853.7632135306557
 11
3324.9600048283418
 21
2788.7632135306557
  0
LINE
  8
ADD_LINE
  6
DOT
 62
    9
 10
2835.325099543048
 20
2748.7632135306548
 11
4112.7167019027483
 21
2748.7632135306548
  0
LINE
  8
ADD_LINE
  6
DOT
 62
    9
 10
2835.325099543048
 20
2678.7632135306548
 11
4112.7167019027483
 21
2678.7632135306548
  0
LINE
  8
ADD_LINE
  6
DOT
 62
    9
 10
2833.6960272785609
 20
2608.7632135306548
 11
4112.7167019027483
 21
2608.7632135306548
  0
LINE
  8
ADD_LINE
  6
DOT
 62
    9
 10
2833.6960272785609
 20
2538.7632135306548
 11
4112.7167019027483
 21
2538.7632135306548
  0
LINE
  8
ADD_LINE
  6
DOT
 62
    9
 10
2833.6960272785609
 20
2468.7632135306548
 11
4112.7167019027483
 21
2468.7632135306548
  0
LINE
  8
ADD_LINE
  6
DOT
 62
    9
 10
2833.6960272785609
 20
2398.7632135306548
 11
4112.7167019027483
 21
2398.7632135306548
  0
LINE
  8
ADD_LINE
  6
DOT
 62
    9
 10
2833.6960272785609
 20
2328.7632135306548
 11
4112.7167019027483
 21
2328.7632135306548
  0
LINE
  8
ADD_LINE
  6
DOT
 62
    9
 10
2832.4595048283417
 20
2258.7632135306548
 11
4112.7167019027483
 21
2258.7632135306548
  0
LINE
  8
_0-d_ラッチ平面__扉側
  6
CONTINUOUS
 62
    7
 10
4112.7167019027483
 20
2223.7632135306548
 11
2832.4595048283417
 21
2223.7632135306548
  0
LINE
  8
_0-d_ラッチ平面__扉側
  6
CONTINUOUS
 62
    3
 10
2832.4595048283417
 20
2153.7632135306548
 11
4112.7167019027483
 21
2153.7632135306548
  0
LINE
  8
ADD_LINE
  6
DOT
 62
    9
 10
2832.4595048283417
 20
2188.7632135306548
 11
4112.7167019027483
 21
2188.7632135306548
  0
LINE
  8
_0-d_ラッチ平面__扉側
  6
CONTINUOUS
 62
    3
 10
2832.4595048283417
 20
2853.7632135306557
 11
2832.4595048283417
 21
2153.7632135306548
  0
LINE
  8
_0-d_ラッチ平面__扉側
  6
CONTINUOUS
 62
    3
 10
4112.7167019027483
 20
2853.7632135306557
 11
4112.7167019027483
 21
2153.7632135306548
  0
LINE
  8
_0-d_ラッチ平面__扉側
  6
CONTINUOUS
 62
    7
 10
3132.4595048283417
 20
2783.7632135306557
 11
3132.4595048283417
 21
2153.7632135306548
  0
LINE
  8
ADD_LINE
  6
DOT
 62
    9
 10
2912.4595048283413
 20
2783.7632135306557
 11
2912.4595048283413
 21
2153.7632135306548
  0
LINE
  8
ADD_LINE
  6
DOT
 62
    9
 10
3172.4595048283417
 20
2783.7632135306557
 11
3172.4595048283417
 21
2153.7632135306548
  0
TEXT
  8
_0-d_ラッチ平面__扉側
 62
    7
 10
3172.4595048283413
 20
2171.2632135306548
 40
35
 41
0.857142857142857
 50
0
  1
アルミ一文字把手
  0
TEXT
  8
_0-d_ラッチ平面__扉側
 62
    7
 10
3173.4393824625249
 20
2592.4775512727633
 40
35
 41
0.857142857142857
 50
0
  1
低圧メラミン化粧パーティクルボード　１２ｔ
  0
TEXT
  8
_0-d_ラッチ平面__扉側
 62
    7
 10
3172.4595048283417
 20
2661.2632135306548
 40
35
 41
0.857142857142857
 50
0
  1
低圧メラミン化粧パーティクルボード　１２ｔ
  0
TEXT
  8
_0-d_ラッチ平面__扉側
 62
    7
 10
3172.4595048283417
 20
2521.2632135306548
 40
35
 41
0.857142857142857
 50
0
  1
低圧メラミン化粧パーティクルボード　１５ｔ
  0
TEXT
  8
_0-d_ラッチ平面__扉側
 62
    7
 10
3172.4595048283426
 20
2451.2632135306548
 40
35
 41
0.857142857142857
 50
0
  1
カラーＭＤＦ・落とし込み
  0
TEXT
  8
_0-d_ラッチ平面__扉側
 62
    7
 10
2912.4595048283426
 20
2171.2632135306548
 40
35
 41
0.857142857142857
 50
0
  1
把　手
  0
TEXT
  8
_0-d_ラッチ平面__扉側
 62
    7
 10
3172.4595048283413
 20
2241.2632135306548
 40
35
 41
0.857142857142857
 50
0
  1
可動式　棚板　１５ｔ
  0
TEXT
  8
_0-d_ラッチ平面__扉側
 62
    7
 10
3172.4595048283413
 20
2311.2632135306548
 40
35
 41
0.857142857142857
 50
0
  1
ワンタッチスライド式丁番
  0
TEXT
  8
_0-d_ラッチ平面__扉側
 62
    7
 10
3172.4595048283426
 20
2381.2632135306548
 40
35
 41
0.857142857142857
 50
0
  1
両面化粧パ－ティクルボ－ド　１２ｔ　耐震ラッチ付
  0
TEXT
  8
_0-d_ラッチ平面__扉側
 62
    7
 10
3858.3377621159092
 20
2088.7632135306548
 40
35
 41
0.857142857142857
 50
0
  1
扉　色
  0
TEXT
  8
_0-d_ラッチ平面__扉側
 62
    7
 10
3713.4289219216452
 20
2021.2632135306546
 40
35
 41
0.857142857142857
 50
0
  1
ＳＷ
  0
TEXT
  8
_0-d_ラッチ平面__扉側
 62
    7
 10
3827.9588223290693
 20
2021.2632135306546
 40
35
 41
0.857142857142857
 50
0
  1
ホワイト
  0
TEXT
  8
_0-d_ラッチ平面__扉側
 62
    7
 10
3718.4203773313333
 20
1961.852540346435
 40
35
 41
0.857142857142857
 50
0
  1
ＬＧ
  0
TEXT
  8
_0-d_ラッチ平面__扉側
 62
    7
 10
3828.0578162341043
 20
1961.852540346435
 40
35
 41
0.857142857142857
 50
0
  1
木　　目
  0
TEXT
  8
_0-d_ラッチ平面__扉側
 62
    7
 10
3713.4289219216452
 20
1896.2632135306546
 40
35
 41
0.857142857142857
 50
0
  1
ＵＷ
  0
TEXT
  8
_0-d_ラッチ平面__扉側
 62
    7
 10
3827.9588223290688
 20
1896.2632135306546
 40
35
 41
0.857142857142857
 50
0
  1
ｳﾙﾄﾗﾎﾜｲﾄ（艶有）
  0
TEXT
  8
_0-d_ラッチ平面__扉側
 62
    7
 10
3718.4203773313333
 20
1836.852540346435
 40
35
 41
0.857142857142857
 50
0
  1
ＷＮ
  0
TEXT
  8
_0-d_ラッチ平面__扉側
 62
    7
 10
3827.9588223290693
 20
1836.2632135306544
 40
35
 41
0.857142857142857
 50
0
  1
ｳｨﾝｻﾞｰﾅｯﾄ（艶有）
  0
LINE
  8
ADD_LINE
  6
DOT
 62
    9
 10
3682.9588223290693
 20
2138.7632135306548
 11
3697.9588223290693
 21
2138.7632135306548
  0
LINE
  8
ADD_LINE
  6
DOT
 62
    9
 10
3697.9588223290693
 20
2138.7632135306548
 11
3697.9588223290693
 21
2153.7632135306548
  0
LINE
  8
ADD_LINE
  6
DOT
 62
    9
 10
3697.9588223290693
 20
2153.7632135306548
 11
3682.9588223290693
 21
2153.7632135306548
  0
LINE
  8
ADD_LINE
  6
DOT
 62
    9
 10
3682.9588223290693
 20
2153.7632135306548
 11
3682.9588223290693
 21
2138.7632135306548
  0
LINE
  8
_0-d_ラッチ平面__扉側
  6
CONTINUOUS
 62
    3
 10
4112.7167019027483
 20
2138.7632135306548
 11
4112.7167019027483
 21
1643.7632135306539
  0
LINE
  8
ADD_LINE
  6
DOT
 62
    9
 10
3827.9588223290693
 20
2068.7632135306548
 11
3827.9588223290693
 21
1948.7632135306546
  0
LINE
  8
_0-d_ラッチ平面__扉側
  6
CONTINUOUS
 62
    7
 10
3797.9588223290693
 20
2068.7632135306548
 11
3797.9588223290693
 21
1948.7632135306546
  0
TEXT
  8
_0-d_ラッチ平面__扉側
 62
    7
 10
3718.4203773313333
 20
1776.8525403464345
 40
35
 41
0.857142857142857
 50
0
  1
ＢＳ
  0
TEXT
  8
_0-d_ラッチ平面__扉側
 62
    7
 10
3828.0578162341043
 20
1776.8525403464345
 40
35
 41
0.857142857142857
 50
0
  1
ブラックストーン
  0
LINE
  8
ADD_LINE
  6
DOT
 62
    9
 10
3747.9588223290693
 20
2068.7632135306548
 11
3747.9588223290693
 21
1948.7632135306546
  0
LINE
  8
_0-d_ラッチ平面__扉側
  6
CONTINUOUS
 62
    3
 10
3697.9588223290693
 20
2138.7632135306548
 11
3697.9588223290693
 21
1643.7632135306539
  0
LINE
  8
_0-d_ラッチ平面__扉側
  6
CONTINUOUS
 62
    7
 10
3797.9588223290693
 20
1943.7632135306546
 11
3797.9588223290693
 21
1643.7632135306539
  0
LINE
  8
ADD_LINE
  6
DOT
 62
    9
 10
3827.9588223290693
 20
1943.7632135306546
 11
3827.9588223290693
 21
1643.7632135306539
  0
LINE
  8
ADD_LINE
  6
DOT
 62
    9
 10
3747.9588223290693
 20
1943.7632135306546
 11
3747.9588223290693
 21
1643.7632135306539
  0
TEXT
  8
_0-d_ラッチ平面__扉側
 62
    7
 10
3718.4203773313333
 20
1716.8525403464343
 40
35
 41
0.857142857142857
 50
0
  1
ＰＭ
  0
TEXT
  8
_0-d_ラッチ平面__扉側
 62
    7
 10
3828.0578162341053
 20
1716.8525403464343
 40
35
 41
0.857142857142857
 50
0
  1
ペールグレイン
  0
TEXT
  8
_0-d_ラッチ平面__扉側
 62
    7
 10
3718.4203773313333
 20
1656.8525403464343
 40
35
 41
0.857142857142857
 50
0
  1
ＭＤ
  0
TEXT
  8
_0-d_ラッチ平面__扉側
 62
    7
 10
3828.0578162341053
 20
1656.8525403464343
 40
35
 41
0.857142857142857
 50
0
  1
ダークグレイン
  0
LINE
  8
_0-d_ラッチ平面__扉側
  6
CONTINUOUS
 62
    3
 10
4112.7167019027483
 20
2138.7632135306548
 11
3697.9588223290693
 21
2138.7632135306548
  0
LINE
  8
_0-d_ラッチ平面__扉側
  6
CONTINUOUS
 62
    3
 10
4112.7167019027483
 20
1643.7632135306539
 11
3697.9588223290693
 21
1643.7632135306539
  0
LINE
  8
_0-d_ラッチ平面__扉側
  6
CONTINUOUS
 62
    7
 10
3697.9588223290693
 20
2008.7632135306546
 11
4112.7167019027483
 21
2008.7632135306546
  0
LINE
  8
_0-d_ラッチ平面__扉側
  6
CONTINUOUS
 62
    7
 10
4112.7167019027483
 20
2008.7632135306546
 11
3697.9588223290693
 21
2008.7632135306546
  0
LINE
  8
_0-d_ラッチ平面__扉側
  6
CONTINUOUS
 62
    3
 10
4112.7167019027483
 20
2008.7632135306546
 11
3697.9588223290693
 21
2008.7632135306546
  0
LINE
  8
_0-d_ラッチ平面__扉側
  6
CONTINUOUS
 62
    3
 10
4112.7167019027483
 20
1948.7632135306546
 11
3697.9588223290693
 21
1948.7632135306546
  0
LINE
  8
ADD_LINE
  6
DOT
 62
    9
 10
3697.9588223290693
 20
1978.7632135306546
 11
4112.7167019027483
 21
1978.7632135306546
  0
LINE
  8
_0-d_ラッチ平面__扉側
  6
CONTINUOUS
 62
    7
 10
4112.7167019027483
 20
1883.7632135306546
 11
3697.9588223290693
 21
1883.7632135306546
  0
LINE
  8
_0-d_ラッチ平面__扉側
  6
CONTINUOUS
 62
    3
 10
4112.7167019027483
 20
1883.7632135306546
 11
3697.9588223290693
 21
1883.7632135306546
  0
LINE
  8
_0-d_ラッチ平面__扉側
  6
CONTINUOUS
 62
    3
 10
4112.7167019027483
 20
1823.7632135306546
 11
3697.9588223290693
 21
1823.7632135306546
  0
LINE
  8
_0-d_ラッチ平面__扉側
  6
CONTINUOUS
 62
    7
 10
3697.9588223290693
 20
1883.7632135306546
 11
4112.7167019027483
 21
1883.7632135306546
  0
LINE
  8
_0-d_ラッチ平面__扉側
  6
CONTINUOUS
 62
    7
 10
4112.7167019027483
 20
1948.7632135306546
 11
3697.9588223290693
 21
1948.7632135306546
  0
LINE
  8
_0-d_ラッチ平面__扉側
  6
CONTINUOUS
 62
    7
 10
4112.7167019027483
 20
1943.7632135306546
 11
3697.9588223290693
 21
1943.7632135306546
  0
LINE
  8
ADD_LINE
  6
DOT
 62
    9
 10
3697.9588223290693
 20
1913.7632135306546
 11
4112.7167019027483
 21
1913.7632135306546
  0
LINE
  8
ADD_LINE
  6
DOT
 62
    9
 10
3697.9588223290693
 20
1853.7632135306544
 11
4112.7167019027483
 21
1853.7632135306544
  0
LINE
  8
_0-d_ラッチ平面__扉側
  6
CONTINUOUS
 62
    7
 10
4112.7167019027483
 20
1823.7632135306546
 11
3697.9588223290693
 21
1823.7632135306546
  0
LINE
  8
_0-d_ラッチ平面__扉側
  6
CONTINUOUS
 62
    3
 10
4112.7167019027483
 20
1823.7632135306546
 11
3697.9588223290693
 21
1823.7632135306546
  0
LINE
  8
_0-d_ラッチ平面__扉側
  6
CONTINUOUS
 62
    3
 10
4112.7167019027483
 20
1763.7632135306539
 11
3697.9588223290693
 21
1763.7632135306539
  0
LINE
  8
_0-d_ラッチ平面__扉側
  6
CONTINUOUS
 62
    7
 10
3697.9588223290693
 20
1823.7632135306546
 11
4112.7167019027483
 21
1823.7632135306546
  0
LINE
  8
ADD_LINE
  6
DOT
 62
    9
 10
3697.9588223290693
 20
1793.7632135306539
 11
4112.7167019027483
 21
1793.7632135306539
  0
LINE
  8
_0-d_ラッチ平面__扉側
  6
CONTINUOUS
 62
    7
 10
4112.7167019027483
 20
1763.7632135306539
 11
3697.9588223290693
 21
1763.7632135306539
  0
LINE
  8
_0-d_ラッチ平面__扉側
  6
CONTINUOUS
 62
    3
 10
4112.7167019027483
 20
1763.7632135306539
 11
3697.9588223290693
 21
1763.7632135306539
  0
LINE
  8
_0-d_ラッチ平面__扉側
  6
CONTINUOUS
 62
    3
 10
4112.7167019027483
 20
1703.7632135306539
 11
3697.9588223290693
 21
1703.7632135306539
  0
LINE
  8
_0-d_ラッチ平面__扉側
  6
CONTINUOUS
 62
    7
 10
3697.9588223290693
 20
1763.7632135306539
 11
4112.7167019027483
 21
1763.7632135306539
  0
LINE
  8
ADD_LINE
  6
DOT
 62
    9
 10
3697.9588223290693
 20
1733.7632135306539
 11
4112.7167019027483
 21
1733.7632135306539
  0
LINE
  8
_0-d_ラッチ平面__扉側
  6
CONTINUOUS
 62
    7
 10
4112.7167019027483
 20
1703.7632135306539
 11
3697.9588223290693
 21
1703.7632135306539
  0
LINE
  8
_0-d_ラッチ平面__扉側
  6
CONTINUOUS
 62
    3
 10
4112.7167019027483
 20
1703.7632135306539
 11
3697.9588223290693
 21
1703.7632135306539
  0
LINE
  8
_0-d_ラッチ平面__扉側
  6
CONTINUOUS
 62
    7
 10
3697.9588223290693
 20
1703.7632135306539
 11
4112.7167019027483
 21
1703.7632135306539
  0
LINE
  8
ADD_LINE
  6
DOT
 62
    9
 10
3697.9588223290693
 20
1673.7632135306539
 11
4112.7167019027483
 21
1673.7632135306539
  0
LINE
  8
ADD_LINE
  6
DOT
 62
    9
 10
3697.9588223290693
 20
2038.7632135306546
 11
4112.7167019027483
 21
2038.7632135306546
  0
LINE
  8
_0-d_ラッチ平面__扉側
  6
CONTINUOUS
 62
    7
 10
4112.7167019027483
 20
2068.7632135306548
 11
3697.9588223290693
 21
2068.7632135306548
  0
LINE
  8
ADD_LINE
  6
DOT
 62
    9
 10
3697.9588223290693
 20
2106.2632135306548
 11
4112.7167019027483
 21
2106.2632135306548
  0
LINE
  8
_0-d_ラッチ平面__扉側
  6
CONTINUOUS
 62
    7
 10
4112.7167019027483
 20
2073.7632135306548
 11
3697.9588223290693
 21
2073.7632135306548
  0
LINE
  8
ADD_LINE
  6
DOT
 62
    9
 10
3905.3377621159092
 20
2138.7632135306548
 11
3905.3377621159092
 21
2073.7632135306548
  0
LINE
  8
_e-0_
  6
CONTINUOUS
 62
    7
 10
2235.8366640958884
 20
183.94486665957714
 11
2264.9846622966547
 21
194.55387039310096
  0
LINE
  8
_e-0_
  6
CONTINUOUS
 62
    7
 10
2229.6843953320885
 20
176.38473509396874
 11
2279.6036842974681
 21
194.55387039310011
  0
LINE
  8
_e-0_
  6
CONTINUOUS
 62
    7
 10
2226.2574714057891
 20
169.81654792732371
 11
2255.9150768319382
 21
180.61103352205378
  0
LINE
  8
_e-0_
  6
CONTINUOUS
 62
    7
 10
2224.2626908639713
 20
163.76961832382903
 11
2246.0093920977324
 21
171.68477026639777
  0
LINE
  8
_e-0_
  6
CONTINUOUS
 62
    7
 10
2223.253185238545
 20
158.08129946246992
 11
2241.5081926224484
 21
164.72557877652036
  0
LINE
  8
_e-0_
  6
CONTINUOUS
 62
    7
 10
2223.0156427143556
 20
152.67395219190916
 11
2241.4255440656406
 21
159.37460829955426
  0
LINE
  8
_e-0_
  6
CONTINUOUS
 62
    7
 10
2223.4344835706642
 20
147.50550893412082
 11
2241.8793979036299
 21
154.21890872491019
  0
LINE
  8
_e-0_
  6
CONTINUOUS
 62
    7
 10
2224.4457407209774
 20
142.55268757364603
 11
2243.3203026450692
 21
149.42246629882959
  0
LINE
  8
_e-0_
  6
CONTINUOUS
 62
    7
 10
2226.0182888832982
 20
137.80415943430114
 11
2245.7132505946715
 21
144.97253926225369
  0
LINE
  8
_e-0_
  6
CONTINUOUS
 62
    7
 10
2228.1462640287199
 20
133.25779018411338
 11
2249.1506443149041
 21
140.90275939749233
  0
LINE
  8
_e-0_
  6
CONTINUOUS
 62
    7
 10
2230.8477427532316
 20
128.92015916595937
 11
2253.9308498295386
 21
137.32172305611442
  0
LINE
  8
_e-0_
  6
CONTINUOUS
 62
    7
 10
2234.1689215693718
 20
124.80808053533024
 11
2260.9975727253272
 21
134.57291098160936
  0
LINE
  8
_e-0_
  6
CONTINUOUS
 62
    7
 10
2238.1963030092374
 20
120.95303863909776
 11
2276.6158743796222
 21
134.93661903118379
  0
LINE
  8
_e-0_
  6
CONTINUOUS
 62
    7
 10
2243.0858385970814
 20
117.41179519008085
 11
2271.2352160844511
 21
127.65733070860676
  0
LINE
  8
_e-0_
  6
CONTINUOUS
 62
    7
 10
2271.6356660451692
 20
186.33286006079629
 11
2294.2227062982819
 21
194.55387039310181
  0
LINE
  8
_e-0_
  6
CONTINUOUS
 62
    7
 10
2252.6131881355313
 20
174.08835545732216
 11
2305.1018637432653
 21
193.19267101459161
  0
LINE
  8
_e-0_
  6
CONTINUOUS
 62
    7
 10
2265.1203526762756
 20
173.3197022028429
 11
2305.1018637432653
 21
187.87178215221217
  0
LINE
  8
_e-0_
  6
CONTINUOUS
 62
    7
 10
2279.7393746770908
 20
173.3197022028429
 11
2305.1018637432653
 21
182.55089328983274
  0
LINE
  8
_e-0_
  6
CONTINUOUS
 62
    7
 10
2283.9258801693504
 20
169.52257672523785
 11
2305.1018637432653
 21
177.2300044274533
  0
LINE
  8
_e-0_
  6
CONTINUOUS
 62
    7
 10
2283.9258801693504
 20
164.20168786285842
 11
2305.1018637432653
 21
171.9091155650733
  0
LINE
  8
_e-0_
  6
CONTINUOUS
 62
    7
 10
2283.9258801693504
 20
158.88079900047898
 11
2305.1018637432653
 21
166.58822670269387
  0
LINE
  8
_e-0_
  6
CONTINUOUS
 62
    7
 10
2283.9258801693504
 20
153.55991013809955
 11
2305.1018637432653
 21
161.26733784031443
  0
LINE
  8
_e-0_
  6
CONTINUOUS
 62
    7
 10
2283.8515813964468
 20
148.21197873394055
 11
2305.1018637432653
 21
155.946448977935
  0
LINE
  8
_e-0_
  6
CONTINUOUS
 62
    7
 10
2282.7047247631385
 20
142.47366819406579
 11
2305.1018637432653
 21
150.62556011555528
  0
LINE
  8
_e-0_
  6
CONTINUOUS
 62
    7
 10
2280.4457301125839
 20
136.33057251951811
 11
2305.1018637432653
 21
145.30467125317585
  0
LINE
  8
_e-0_
  6
CONTINUOUS
 62
    7
 10
2276.4511200095648
 20
129.55576448214031
 11
2303.9116004635197
 21
139.55056198602875
  0
LINE
  8
_e-0_
  6
CONTINUOUS
 62
    7
 10
2267.7970807133169
 20
121.0850629097564
 11
2301.0895051181669
 21
133.20251441967968
  0
LINE
  8
_e-0_
  6
CONTINUOUS
 62
    7
 10
2259.0298539746227
 20
112.57316447742937
 11
2296.2211119089834
 21
126.10967534045357
  0
LINE
  8
_e-0_
  6
CONTINUOUS
 62
    7
 10
2274.1883752837684
 20
112.76952616706864
 11
2284.7751922141192
 21
116.62281240534184
  0
LINE
  8
_e-0_
  6
CONTINUOUS
 62
    3
 10
2258.4972011002919
 20
181.99134005275396
 11
2254.375207286127
 21
179.18201849977236
  0
LINE
  8
_e-0_
  6
CONTINUOUS
 62
    3
 10
2274.4375760187454
 20
112.57316447742766
 11
2258.971134866972
 21
112.57316447742766
  0
ARC
  8
_e-0_
  6
CONTINUOUS
 62
    3
 10
2274.4375760187454
 20
117.57316447742766
 40
5
 50
270
 51
286.20399351045659
  0
LINE
  8
_e-0_
  6
CONTINUOUS
 62
    3
 10
2305.279594668063
 20
194.55387039310011
 11
2305.279594668063
 21
144.19867916164037
  0
ARC
  8
_e-0_
  6
CONTINUOUS
 62
    3
 10
2263.9728996034464
 20
153.58344839081951
 40
42.5
 50
286.20399351045648
 51
345.50707147989851
  0
ARC
  8
_e-0_
  6
CONTINUOUS
 62
    3
 10
2300.279594668063
 20
144.19867916164037
 40
5
 50
345.50707147989879
 51
0.0000000000000159
  0
ARC
  8
_e-0_
  6
CONTINUOUS
 62
    3
 10
2242.1434725645221
 20
154.92082031886695
 40
40
 50
279.71265316664215
 51
332.69093929010892
  0
ARC
  8
_e-0_
  6
CONTINUOUS
 62
    3
 10
2248.0482195817735
 20
120.42250206040307
 40
5
 50
241.9452628118
 51
279.71265316664221
  0
ARC
  8
_e-0_
  6
CONTINUOUS
 62
    3
 10
2255.3150461234199
 20
189.55387039310011
 40
5
 50
90
 51
106.05338143786269
  0
LINE
  8
_e-0_
  6
CONTINUOUS
 62
    3
 10
2280.4842327420237
 20
194.55387039309982
 11
2270.268932781993
 21
189.66588876819173
  0
LINE
  8
_e-0_
  6
CONTINUOUS
 62
    3
 10
2270.268932781993
 20
189.66588876819173
 11
2264.3501921643833
 21
185.86970164581146
  0
LINE
  8
_e-0_
  6
CONTINUOUS
 62
    3
 10
2258.4972011002919
 20
181.99134005275368
 11
2264.3501921643833
 21
185.86970164581146
  0
ARC
  8
_e-0_
  6
CONTINUOUS
 62
    3
 10
2255.3150461234199
 20
189.55387039310011
 40
5
 50
90
 51
106.05338143786269
  0
ARC
  8
_e-0_
  6
CONTINUOUS
 62
    3
 10
2255.3150461234199
 20
189.55387039310011
 40
5
 50
90
 51
106.05338143786269
  0
LINE
  8
_e-0_
  6
CONTINUOUS
 62
    3
 10
2280.4842327420237
 20
194.55387039310011
 11
2255.3150461234199
 21
194.55387039310011
  0
ARC
  8
_e-0_
  6
CONTINUOUS
 62
    3
 10
2265.6850271033658
 20
153.5162026761742
 40
42.5
 50
106.05338143786271
 51
241.94526281180051
  0
ARC
  8
_e-0_
  6
CONTINUOUS
 62
    3
 10
2255.3150461234199
 20
189.55387039310011
 40
5
 50
90
 51
106.05338143786269
  0
LINE
  8
_e-0_
  6
CONTINUOUS
 62
    3
 10
2291.2227167726573
 20
194.55387039310011
 11
2305.279594668063
 21
194.55387039310011
  0
ARC
  8
_e-0_
  6
CONTINUOUS
 62
    3
 10
2291.2227167726573
 20
189.55387039310011
 40
5
 50
90
 51
112.84552721528329
  0
LINE
  8
_e-0_
  6
CONTINUOUS
 62
    3
 10
2284.1036110941486
 20
173.31970220284119
 11
2261.0680884297689
 21
173.31970220284119
  0
ARC
  8
_e-0_
  6
CONTINUOUS
 62
    3
 10
2261.0680884297689
 20
168.31970220284119
 40
5
 50
90
 51
110.93110431809542
  0
ARC
  8
_e-0_
  6
CONTINUOUS
 62
    3
 10
2246.280000107059
 20
162.1290763781451
 40
0.5
 50
165.368776721252
 51
224.67319701305797
  0
LINE
  8
_e-0_
  6
CONTINUOUS
 62
    3
 10
2245.9244358848645
 20
161.77754532134485
 11
2245.7344921007288
 21
161.96966835730563
  0
ARC
  8
_e-0_
  6
CONTINUOUS
 62
    3
 10
2268.2129904475896
 20
149.63948873629476
 40
25
 50
110.93110431809527
 51
150.17701829297226
  0
ARC
  8
_e-0_
  6
CONTINUOUS
 62
    3
 10
2246.0900563229238
 20
162.32119941410587
 40
0.5
 50
224.67319701305652
 51
330.17701829297561
  0
LINE
  8
_e-0_
  6
CONTINUOUS
 62
    3
 10
2289.2814768910575
 20
194.16164509702042
 11
2275.5741279425565
 21
188.38678539583099
  0
LINE
  8
_e-0_
  6
CONTINUOUS
 62
    3
 10
2275.5741279425565
 20
188.38678539583099
 11
2269.1652622122451
 21
184.88657977403136
  0
ARC
  8
_e-0_
  6
CONTINUOUS
 62
    3
 10
2269.9855058223765
 20
155.94045789086862
 40
25
 50
126.05682261028304
 51
165.36877672125814
  0
ARC
  8
_e-0_
  6
CONTINUOUS
 62
    3
 10
2314.0795261788807
 20
95.540573190998543
 40
100
 50
116.6886898974924
 51
126.03335467187628
  0
LINE
  8
_e-0_
  6
CONTINUOUS
 62
    3
 10
2254.375207286127
 20
179.18201849977265
 11
2246.4067752679411
 21
171.92707079532567
  0
LINE
  8
_e-0_
  6
CONTINUOUS
 62
    3
 10
2246.4067752679411
 20
171.92707079532567
 11
2244.5616298314562
 21
169.7938494987261
  0
ARC
  8
_e-0_
  6
CONTINUOUS
 62
    3
 10
2266.6001168011466
 20
158.97724261098005
 40
25
 50
169.07329675873063
 51
296.32138326661799
  0
LINE
  8
_e-0_
  6
CONTINUOUS
 62
    3
 10
2244.5616298314557
 20
169.7938494987261
 11
2242.0533548929147
 21
163.71606945109476
  0
LINE
  8
_e-0_
  6
CONTINUOUS
 62
    3
 10
2284.1036110941486
 20
173.31970220284119
 11
2284.1036110941486
 21
148.84947071428769
  0
ARC
  8
_e-0_
  6
CONTINUOUS
 62
    3
 10
2269.3348263498528
 20
128.55612168904315
 40
5
 50
311.4163090429962
 51
326.13300916724881
  0
ARC
  8
_e-0_
  6
CONTINUOUS
 62
    3
 10
2244.3366749153346
 20
153.16117420016951
 40
40
 50
316.78132524618342
 51
353.81191653224226
  0
ARC
  8
_e-0_
  6
CONTINUOUS
 62
    3
 10
2232.9509318238069
 20
169.80187564163315
 40
60
 50
294.69555798319504
 51
311.41630904299643
  0
ARC
  8
_e-0_
  6
CONTINUOUS
 62
    3
 10
2263.9775491586719
 20
187.40588336388725
 40
75
 50
264.68313230529076
 51
266.17253517307824
  0
ARC
  8
_e-0_
  6
CONTINUOUS
 62
    3
 10
2257.0741018984176
 20
113.22642248740947
 40
0.5
 50
174.02086603460466
 51
264.68313230528985
  0
ARC
  8
_e-0_
  6
CONTINUOUS
 62
    3
 10
2259.0632216918124
 20
113.01808994668988
 40
2.5
 50
114.69555798319522
 51
174.02086603461154
  0
LINE
  8
_e-0_
  6
CONTINUOUS
 62
    7
 10
2368.9407257363964
 20
153.8555320965915
 11
2380.3126248015978
 21
157.9945648634046
  0
LINE
  8
_e-0_
  6
CONTINUOUS
 62
    3
 10
2428.3092572732289
 20
147.05833678116505
 11
2428.3092572732289
 21
120.91539808426659
  0
CIRCLE
  8
_e-0_
  6
CONTINUOUS
 62
    3
 10
2357.5674768778403
 20
146.88814634727634
 40
13.33773795583065
  0
CIRCLE
  8
_e-0_
  6
CONTINUOUS
 62
    3
 10
2357.2837594304651
 20
146.60442889990122
 40
25.691707563897665
  0
LINE
  8
_e-0_
  6
CONTINUOUS
 62
    3
 10
2391.5446955520596
 20
172.68771567712093
 11
2391.5446955520596
 21
120.91539808426659
  0
LINE
  8
_e-0_
  6
CONTINUOUS
 62
    3
 10
2391.5446955520596
 20
120.91539808426659
 11
2406.9076645804707
 21
120.91539808426659
  0
LINE
  8
_e-0_
  6
CONTINUOUS
 62
    3
 10
2406.9076645804707
 20
120.91539808426659
 11
2406.9076645804707
 21
157.05833678116505
  0
LINE
  8
_e-0_
  6
CONTINUOUS
 62
    3
 10
2443.2282098557325
 20
120.91539808426659
 11
2428.3092572732289
 21
120.91539808426659
  0
LINE
  8
_e-0_
  6
CONTINUOUS
 62
    3
 10
2418.3092572732289
 20
157.05833678116505
 11
2406.9076645804707
 21
157.05833678116505
  0
ARC
  8
_e-0_
  6
CONTINUOUS
 62
    3
 10
2418.3092572732289
 20
147.05833678116505
 40
10
 50
0
 51
90
  0
LINE
  8
_e-0_
  6
CONTINUOUS
 62
    3
 10
2418.2282098557325
 20
172.68771567712093
 11
2391.5446955520596
 21
172.68771567712093
  0
LINE
  8
_e-0_
  6
CONTINUOUS
 62
    3
 10
2443.2282098557325
 20
147.68771567712093
 11
2443.2282098557325
 21
120.91539808426659
  0
ARC
  8
_e-0_
  6
CONTINUOUS
 62
    3
 10
2418.2282098557325
 20
147.68771567712093
 40
25
 50
0
 51
90
  0
ARC
  8
_e-0_
  6
CONTINUOUS
 62
    3
 10
2478.295994444325
 20
146.60174948003543
 40
13.33773795583065
 50
23.422555400004949
 51
97.191484740792631
  0
LINE
  8
_e-0_
  6
CONTINUOUS
 62
    3
 10
2466.0573099578646
 20
151.90362233962787
 11
2490.5346789307855
 21
151.90362233962787
  0
ARC
  8
_e-0_
  6
CONTINUOUS
 62
    3
 10
2478.295994444325
 20
146.60174948003543
 40
13.33773795583065
 50
92.530763017635251
 51
156.57744459999506
  0
ARC
  8
_e-0_
  6
CONTINUOUS
 62
    3
 10
2478.295994444325
 20
146.60174948003543
 40
13.33773795583065
 50
204.21097500392608
 51
316.0067678116265
  0
LINE
  8
_e-0_
  6
CONTINUOUS
 62
    3
 10
2466.1314228627888
 20
141.13197324913869
 11
2503.5708091830401
 21
141.13197324913869
  0
LINE
  8
_e-0_
  6
CONTINUOUS
 62
    3
 10
2487.8914545430643
 20
137.33771152286408
 11
2500.7599750366907
 21
134.21464658261612
  0
ARC
  8
_e-0_
  6
CONTINUOUS
 62
    3
 10
2478.6163205945872
 20
147.24240178055936
 40
25.691707563897665
 50
346.24110979921471
 51
329.53046432565099
  0
ARC
  8
_e-0_
  6
CONTINUOUS
 62
    3
 10
2538.5642928691422
 20
146.56831030951025
 40
11.089756641867943
 50
94.502189492040685
 51
357.22978420280037
  0
LINE
  8
_e-0_
  6
CONTINUOUS
 62
    3
 10
2548.6410899779489
 20
157.6238476750268
 11
2537.6937781159522
 21
157.6238476750268
  0
LINE
  8
_e-0_
  6
CONTINUOUS
 62
    3
 10
2549.6410899779489
 20
156.62384767502715
 11
2549.6410899779489
 21
146.03233625585858
  0
ARC
  8
_e-0_
  6
CONTINUOUS
 62
    3
 10
2548.6410899779489
 20
156.62384767502715
 40
1
 50
0
 51
90
  0
LINE
  8
_e-0_
  6
CONTINUOUS
 62
    3
 10
2541.0210795623534
 20
172.7157992833321
 11
2549.4438113726191
 21
172.7157992833321
  0
ARC
  8
_e-0_
  6
CONTINUOUS
 62
    3
 10
2539.017019488006
 20
147.10237349201634
 40
25.691707563897665
 50
85.526146014136969
 51
347.40557840019874
  0
LINE
  8
_e-0_
  6
CONTINUOUS
 62
    3
 10
2549.4438113726191
 20
193.55387039310016
 11
2549.4438113726191
 21
172.7157992833321
  0
ARC
  8
_e-0_
  6
CONTINUOUS
 62
    3
 10
2550.4438113726191
 20
193.55387039310016
 40
1
 50
90
 51
180
  0
LINE
  8
_e-0_
  6
CONTINUOUS
 62
    3
 10
2564.0905330831633
 20
193.55387039310016
 11
2564.0905330831633
 21
141.50034229411204
  0
LINE
  8
_e-0_
  6
CONTINUOUS
 62
    3
 10
2563.0905330831637
 20
194.55387039310011
 11
2550.4438113726191
 21
194.55387039310011
  0
ARC
  8
_e-0_
  6
CONTINUOUS
 62
    3
 10
2563.0905330831637
 20
193.55387039310016
 40
1
 50
0
 51
90
  0
CIRCLE
  8
_e-0_
  6
CONTINUOUS
 62
    3
 10
2599.5440184063854
 20
147.043799567397
 40
13.33773795583065
  0
CIRCLE
  8
_e-0_
  6
CONTINUOUS
 62
    3
 10
2599.2603009590102
 20
146.76008212002216
 40
25.691707563897665
  0
ARC
  8
_e-0_
  6
CONTINUOUS
 62
    3
 10
2353.3563784056705
 20
167.9863014610953
 40
5
 50
90
 51
106.05338143786269
  0
ARC
  8
_e-0_
  6
CONTINUOUS
 62
    3
 10
2353.3563784056705
 20
167.9863014610953
 40
5
 50
90
 51
106.05338143786269
  0
ARC
  8
_e-0_
  6
CONTINUOUS
 62
    3
 10
2353.3563784056705
 20
167.9863014610953
 40
5
 50
90
 51
106.05338143786269
  0
ARC
  8
_e-0_
  6
CONTINUOUS
 62
    3
 10
2353.3563784056705
 20
167.9863014610953
 40
5
 50
90
 51
106.05338143786269
  0
LINE
  8
_e-0_
  6
CONTINUOUS
 62
    7
 10
2338.3978142599034
 20
164.02237690083893
 11
2360.5551916202571
 21
172.08700272941143
  0
LINE
  8
_e-0_
  6
CONTINUOUS
 62
    7
 10
2353.2922401344162
 20
164.1226157132661
 11
2368.5713183881321
 21
169.68374540464282
  0
LINE
  8
_e-0_
  6
CONTINUOUS
 62
    7
 10
2333.8018889252853
 20
157.02870801774821
 11
2353.2922401344162
 21
164.1226157132661
  0
LINE
  8
_e-0_
  6
CONTINUOUS
 62
    7
 10
2331.9785744704108
 20
151.04418696608718
 11
2349.2864007501184
 21
157.343720551751
  0
LINE
  8
_e-0_
  6
CONTINUOUS
 62
    7
 10
2331.612090482029
 20
145.58990884060165
 11
2344.6864605819832
 21
150.34859038876504
  0
LINE
  8
_e-0_
  6
CONTINUOUS
 62
    7
 10
2332.3211868115895
 20
140.52710993540927
 11
2344.3765135579678
 21
144.91489003544415
  0
LINE
  8
_e-0_
  6
CONTINUOUS
 62
    7
 10
2333.971216176696
 20
135.8067826475937
 11
2346.0301909803711
 21
140.19589053189747
  0
LINE
  8
_e-0_
  6
CONTINUOUS
 62
    7
 10
2336.5548628009087
 20
131.42626425228996
 11
2349.6156774979731
 21
136.18001203728795
  0
LINE
  8
_e-0_
  6
CONTINUOUS
 62
    7
 10
2340.1868985942028
 20
127.42732830845881
 11
2357.0387292924815
 21
133.56089307552565
  0
LINE
  8
_e-0_
  6
CONTINUOUS
 62
    7
 10
2345.2008630322079
 20
123.93137325718271
 11
2367.3042092217142
 21
131.97633334784399
  0
LINE
  8
_e-0_
  6
CONTINUOUS
 62
    7
 10
2352.6724918069285
 20
121.32993487028784
 11
2367.3578368417856
 21
126.6749633429049
  0
LINE
  8
_e-0_
  6
CONTINUOUS
 62
    7
 10
2367.3578368417856
 20
126.6749633429049
 11
2377.0623269725419
 21
130.20710888923048
  0
LINE
  8
_e-0_
  6
CONTINUOUS
 62
    7
 10
2366.4508876466361
 20
131.66574969425852
 11
2381.1137543140057
 21
137.00259671019495
  0
LINE
  8
_e-0_
  6
CONTINUOUS
 62
    7
 10
2366.5391143016527
 20
137.01875043293284
 11
2382.7075173187545
 21
142.90356786677762
  0
LINE
  8
_e-0_
  6
CONTINUOUS
 62
    7
 10
2370.5419646629043
 20
143.79655767902988
 11
2382.9193516787918
 21
148.3015581308058
  0
LINE
  8
_e-0_
  6
CONTINUOUS
 62
    7
 10
2370.7072497472495
 20
149.17760539227913
 11
2382.0827968697476
 21
153.31796594336083
  0
LINE
  8
_e-0_
  6
CONTINUOUS
 62
    7
 10
2357.1904356777322
 20
160.22055399600276
 11
2373.8148342762628
 21
166.2713402484448
  0
LINE
  8
_e-0_
  6
CONTINUOUS
 62
    7
 10
2365.2105772791237
 20
157.81875795113023
 11
2377.6015196979014
 21
162.32869216607127
  0
LINE
  8
_e-0_
  6
CONTINUOUS
 62
    7
 10
2391.5446955520596
 20
167.40359314812394
 11
2406.0627028821104
 21
172.68771567712093
  0
LINE
  8
_e-0_
  6
CONTINUOUS
 62
    7
 10
2391.5446955520596
 20
162.08270428574451
 11
2420.4177781140142
 21
172.59164690980639
  0
LINE
  8
_e-0_
  6
CONTINUOUS
 62
    7
 10
2391.5446955520596
 20
156.76181542336507
 11
2428.825043624869
 21
170.3307524449508
  0
LINE
  8
_e-0_
  6
CONTINUOUS
 62
    7
 10
2391.5446955520596
 20
151.44092656098564
 11
2434.1617370349076
 21
166.95226113322974
  0
LINE
  8
_e-0_
  6
CONTINUOUS
 62
    7
 10
2391.5446955520596
 20
146.12003769860621
 11
2406.9076645804707
 21
151.7117011349012
  0
LINE
  8
_e-0_
  6
CONTINUOUS
 62
    7
 10
2420.759742105426
 20
156.75344503673244
 11
2437.9751424470605
 21
163.01933833206305
  0
LINE
  8
_e-0_
  6
CONTINUOUS
 62
    7
 10
2391.5446955520596
 20
140.79914883622677
 11
2406.9076645804707
 21
146.39081227252177
  0
LINE
  8
_e-0_
  6
CONTINUOUS
 62
    7
 10
2395.3906273502475
 20
120.91539808426659
 11
2406.9076645804707
 21
125.10725682300346
  0
LINE
  8
_e-0_
  6
CONTINUOUS
 62
    7
 10
2391.5446955520596
 20
124.8364822490879
 11
2406.9076645804707
 21
130.42814568538318
  0
LINE
  8
_e-0_
  6
CONTINUOUS
 62
    7
 10
2391.5446955520596
 20
130.15737111146762
 11
2406.9076645804707
 21
135.74903454776261
  0
LINE
  8
_e-0_
  6
CONTINUOUS
 62
    7
 10
2391.5446955520596
 20
135.47825997384705
 11
2406.9076645804707
 21
141.06992341014233
  0
LINE
  8
_e-0_
  6
CONTINUOUS
 62
    7
 10
2428.3092572732289
 20
143.53857725381516
 11
2443.2282098557325
 21
148.96863192027495
  0
LINE
  8
_e-0_
  6
CONTINUOUS
 62
    7
 10
2428.3092572732289
 20
138.21768839143601
 11
2443.2282098557325
 21
143.6477430578958
  0
LINE
  8
_e-0_
  6
CONTINUOUS
 62
    7
 10
2428.1557813921931
 20
148.80360546382007
 11
2442.4194517644268
 21
153.99515691069751
  0
LINE
  8
_e-0_
  6
CONTINUOUS
 62
    7
 10
2428.3092572732289
 20
132.89679952905657
 11
2443.2282098557325
 21
138.32685419551637
  0
LINE
  8
_e-0_
  6
CONTINUOUS
 62
    7
 10
2428.3092572732289
 20
127.57591066667686
 11
2443.2282098557325
 21
133.00596533313665
  0
LINE
  8
_e-0_
  6
CONTINUOUS
 62
    7
 10
2428.3092572732289
 20
122.25502180429714
 11
2443.2282098557325
 21
127.68507647075722
  0
LINE
  8
_e-0_
  6
CONTINUOUS
 62
    7
 10
2439.247693352695
 20
120.91539808426659
 11
2443.2282098557325
 21
122.3641876083775
  0
LINE
  8
_e-0_
  6
CONTINUOUS
 62
    7
 10
2426.0696362324174
 20
153.36519958368285
 11
2440.6804200699466
 21
158.68308999984094
  0
LINE
  8
_e-0_
  6
CONTINUOUS
 62
    7
 10
2461.2391180831359
 20
166.16584413190906
 11
2479.7642757393732
 21
172.9084501038676
  0
LINE
  8
_e-0_
  6
CONTINUOUS
 62
    7
 10
2455.6823727205842
 20
158.8224653581642
 11
2488.7412225351813
 21
170.85490266975369
  0
LINE
  8
_e-0_
  6
CONTINUOUS
 62
    7
 10
2453.5136329133938
 20
152.71221976009883
 11
2494.3301637756285
 21
167.56822205995973
  0
LINE
  8
_e-0_
  6
CONTINUOUS
 62
    7
 10
2453.5499758138648
 20
147.40455863171803
 11
2466.0402009988042
 21
151.95062881831773
  0
LINE
  8
_e-0_
  6
CONTINUOUS
 62
    7
 10
2484.2015654578563
 20
158.5608248950723
 11
2498.33930178449
 21
163.70654009787131
  0
LINE
  8
_e-0_
  6
CONTINUOUS
 62
    7
 10
2488.743461686327
 20
154.89305106698225
 11
2501.229225702727
 21
159.43749752102377
  0
LINE
  8
_e-0_
  6
CONTINUOUS
 62
    7
 10
2455.2600765304937
 20
142.70609552778864
 11
2480.5300737608513
 21
151.90362233962787
  0
LINE
  8
_e-0_
  6
CONTINUOUS
 62
    7
 10
2454.9396132864276
 20
137.26856758339266
 11
2503.1647877023642
 21
154.82109561308902
  0
LINE
  8
_e-0_
  6
CONTINUOUS
 62
    7
 10
2457.3510255582341
 20
132.82536101049515
 11
2468.979076889896
 21
137.05762557773937
  0
LINE
  8
_e-0_
  6
CONTINUOUS
 62
    7
 10
2480.1732551160739
 20
141.13197324913869
 11
2504.1735768638141
 21
149.86737597812748
  0
LINE
  8
_e-0_
  6
CONTINUOUS
 62
    7
 10
2494.7922771168896
 20
141.13197324913869
 11
2504.1658959394976
 21
144.54369148792522
  0
LINE
  8
_e-0_
  6
CONTINUOUS
 62
    7
 10
2460.7789079158069
 20
128.75211929283807
 11
2474.6057479243422
 21
133.78467748990601
  0
LINE
  8
_e-0_
  6
CONTINUOUS
 62
    7
 10
2465.5015919032312
 20
125.15014682772687
 11
2494.5480952820462
 21
135.72220946712775
  0
LINE
  8
_e-0_
  6
CONTINUOUS
 62
    7
 10
2472.3576833866291
 20
122.32467118870999
 11
2499.4275233351891
 21
132.17728717633548
  0
LINE
  8
_e-0_
  6
CONTINUOUS
 62
    7
 10
2544.6739029189734
 20
122.04117824124523
 11
2550.7926211614717
 21
124.26820955337575
  0
LINE
  8
_e-0_
  6
CONTINUOUS
 62
    7
 10
2531.4520014282843
 20
122.54968852061381
 11
2560.5943212189044
 21
133.15662548186594
  0
LINE
  8
_e-0_
  6
CONTINUOUS
 62
    7
 10
2525.0484139172749
 20
125.53986213646737
 11
2563.5777072966575
 21
139.56337807387171
  0
LINE
  8
_e-0_
  6
CONTINUOUS
 62
    7
 10
2514.1325981815766
 20
153.49216330021562
 11
2564.0905330831633
 21
171.67536456980116
  0
LINE
  8
_e-0_
  6
CONTINUOUS
 62
    7
 10
2516.6404168063627
 20
159.72582349495553
 11
2564.0905330831633
 21
176.99625343218059
  0
LINE
  8
_e-0_
  6
CONTINUOUS
 62
    7
 10
2549.4438113726191
 20
192.94883814948036
 11
2553.8536012194617
 21
194.55387039310011
  0
LINE
  8
_e-0_
  6
CONTINUOUS
 62
    7
 10
2549.4438113726191
 20
187.62794928710093
 11
2564.0905330831633
 21
192.95892001931918
  0
LINE
  8
_e-0_
  6
CONTINUOUS
 62
    7
 10
2549.4438113726191
 20
182.30706042472121
 11
2564.0905330831633
 21
187.63803115693974
  0
LINE
  8
_e-0_
  6
CONTINUOUS
 62
    7
 10
2549.4438113726191
 20
176.98617156234149
 11
2564.0905330831633
 21
182.31714229456031
  0
LINE
  8
_e-0_
  6
CONTINUOUS
 62
    7
 10
2523.4107658070579
 20
167.51091786918209
 11
2537.8537439408219
 21
172.76773200402942
  0
LINE
  8
_e-0_
  6
CONTINUOUS
 62
    7
 10
2540.1033297065005
 20
157.6238476750268
 11
2564.0905330831633
 21
166.35447570742172
  0
LINE
  8
_e-0_
  6
CONTINUOUS
 62
    7
 10
2513.3371361174354
 20
147.88174992400058
 11
2530.4259422685104
 21
154.10156670213723
  0
LINE
  8
_e-0_
  6
CONTINUOUS
 62
    7
 10
2513.7061446004349
 20
142.6951691656248
 11
2527.5354029593377
 21
147.72860757024204
  0
LINE
  8
_e-0_
  6
CONTINUOUS
 62
    7
 10
2515.0447452877542
 20
137.86149110899771
 11
2528.1911856253786
 21
142.64640407844922
  0
LINE
  8
_e-0_
  6
CONTINUOUS
 62
    7
 10
2517.3070774056068
 20
133.36402379754076
 11
2531.0862222029413
 21
138.37922235741473
  0
LINE
  8
_e-0_
  6
CONTINUOUS
 62
    7
 10
2520.5624650595818
 20
129.22799914220604
 11
2537.8068709000103
 21
135.50444957572807
  0
LINE
  8
_e-0_
  6
CONTINUOUS
 62
    7
 10
2546.2562243546644
 20
138.57976273201643
 11
2564.0905330831633
 21
145.0709202579037
  0
LINE
  8
_e-0_
  6
CONTINUOUS
 62
    7
 10
2549.5566716184766
 20
145.10191615818882
 11
2564.0905330831633
 21
150.39180912028314
  0
LINE
  8
_e-0_
  6
CONTINUOUS
 62
    7
 10
2549.6410899779489
 20
150.4535307906417
 11
2564.0905330831633
 21
155.71269798266257
  0
LINE
  8
_e-0_
  6
CONTINUOUS
 62
    7
 10
2549.6410899779489
 20
155.77441965302114
 11
2564.0905330831633
 21
161.033586845042
  0
LINE
  8
_e-0_
  6
CONTINUOUS
 62
    7
 10
2587.1974966456623
 20
169.44383378606516
 11
2593.9201106595442
 21
171.8906651835789
  0
LINE
  8
_e-0_
  6
CONTINUOUS
 62
    7
 10
2577.6443798702302
 20
160.64589477295925
 11
2606.8934288682321
 21
171.29167798882519
  0
LINE
  8
_e-0_
  6
CONTINUOUS
 62
    7
 10
2600.5688513241625
 20
121.1017202570602
 11
2614.7507703136088
 21
126.26351663399304
  0
LINE
  8
_e-0_
  6
CONTINUOUS
 62
    7
 10
2590.2952099751182
 20
122.68330947086099
 11
2621.6042102293968
 21
134.07885362805103
  0
LINE
  8
_e-0_
  6
CONTINUOUS
 62
    7
 10
2574.6838259529545
 20
154.24745240775138
 11
2613.2741842187642
 21
168.2931941461743
  0
LINE
  8
_e-0_
  6
CONTINUOUS
 62
    7
 10
2584.3475524073419
 20
125.8394280149622
 11
2624.1316663639163
 21
140.31966129180915
  0
LINE
  8
_e-0_
  6
CONTINUOUS
 62
    7
 10
2580.1202834180858
 20
129.62171679301548
 11
2594.2968457670781
 21
134.78156351226772
  0
LINE
  8
_e-0_
  6
CONTINUOUS
 62
    7
 10
2577.060163208755
 20
133.82881298592224
 11
2589.4416673383839
 21
138.33531194455133
  0
LINE
  8
_e-0_
  6
CONTINUOUS
 62
    7
 10
2574.9705638104942
 20
138.38914986579482
 11
2586.9202518331721
 21
142.73848061481658
  0
LINE
  8
_e-0_
  6
CONTINUOUS
 62
    7
 10
2573.8046086959921
 20
143.2856657720049
 11
2586.2281608356038
 21
147.80746895467757
  0
LINE
  8
_e-0_
  6
CONTINUOUS
 62
    7
 10
2573.6305462928121
 20
148.54320110072194
 11
2588.0360729418825
 21
153.78638400991206
  0
LINE
  8
_e-0_
  6
CONTINUOUS
 62
    7
 10
2604.0255663442703
 20
159.60608366937663
 11
2617.7476653121634
 21
164.60051924534468
  0
LINE
  8
_e-0_
  6
CONTINUOUS
 62
    7
 10
2609.2536798838054
 20
156.18807251675207
 11
2620.9938043422398
 21
160.46112836620267
  0
LINE
  8
_e-0_
  6
CONTINUOUS
 62
    7
 10
2611.9817903194934
 20
151.86013464875372
 11
2623.2480506609945
 21
155.9607180645537
  0
LINE
  8
_e-0_
  6
CONTINUOUS
 62
    7
 10
2612.880576247539
 20
146.8663771111602
 11
2624.5786526959909
 21
151.12412873656694
  0
LINE
  8
_e-0_
  6
CONTINUOUS
 62
    7
 10
2611.4455992521011
 20
141.02319933558476
 11
2624.9387339199165
 21
145.93429872161465
  0
LINE
  8
ADD_LINE
  6
DOT
 62
    9
 10
2331.612090482029
 20
104.42521185597115
 11
2331.612090482029
 21
204.42521185597115
  0
LINE
  8
ADD_LINE
  6
DOT
 62
    9
 10
2478.2754122009728
 20
204.42521185597115
 11
2478.2754122009728
 21
104.42521185597115
  0
LINE
  8
ADD_LINE
  6
DOT
 62
    9
 10
2624.9387339199165
 20
104.42521185597115
 11
2624.9387339199165
 21
204.42521185597115
  0
LINE
  8
ADD_LINE
  6
DOT
 62
    9
 10
2212.0507338268016
 20
204.42521185597115
 11
2212.0507338268016
 21
104.42521185597115
  0
LINE
  8
ADD_LINE
  6
DOT
 62
    9
 10
2702.0507338268021
 20
204.42521185597115
 11
2702.0507338268021
 21
104.42521185597115
  0
TEXT
  8
_e-0_
 62
    7
 10
2634.9094164018197
 20
164.98768243046669
 40
35
 41
0.5714285714285713
 50
0
  1
ワンド
  0
TEXT
  8
_e-0_
 62
    7
 10
2641.755243841706
 20
131.44312797502095
 40
30
 41
0.6666666666666666
 50
0
  1
株式
  0
TEXT
  8
_e-0_
 62
    7
 10
2641.0706610977176
 20
103.37523547148492
 40
30
 41
0.6666666666666666
 50
0
  1
会社
  0
POINT
  8
_0-9_ラッチ断面__受け
 62
    3
 10
815.34258152831455
 20
2735.7744603287765
  0
POINT
  8
_0-9_ラッチ断面__受け
 62
    3
 10
1115.3425815283148
 20
2735.7744603287765
  0
POINT
  8
_0-9_ラッチ断面__受け
 62
    3
 10
1305.3425815283148
 20
2545.7744603287765
  0
POINT
  8
_0-9_ラッチ断面__受け
 62
    3
 10
1305.3425815283148
 20
2187.7744603287765
  0
POINT
  8
_0-9_ラッチ断面__受け
 62
    3
 10
1115.3425815283148
 20
1535.2410513398297
  0
POINT
  8
_0-9_ラッチ断面__受け
 62
    3
 10
815.34258152831455
 20
1535.2410513398297
  0
POINT
  8
_0-9_ラッチ断面__受け
 62
    3
 10
1305.3425815283148
 20
1345.2410513398297
  0
POINT
  8
_0-9_ラッチ断面__受け
 62
    3
 10
1305.3425815283144
 20
745.24105133982959
  0
POINT
  8
_0-9_ラッチ断面__受け
 62
    3
 10
1225.3425815283148
 20
745.24105133982959
  0
POINT
  8
_0-9_ラッチ断面__受け
 62
    3
 10
1225.3425815283148
 20
730.24105133982982
  0
POINT
  8
_0-9_ラッチ断面__受け
 62
    3
 10
2477.8570920036445
 20
1345.2410513398299
  0
POINT
  8
_0-9_ラッチ断面__受け
 62
    3
 10
2477.8570920036445
 20
745.24105133982959
  0
POINT
  8
_0-9_ラッチ断面__受け
 62
    3
 10
2397.8570920036445
 20
1165.2410513398294
  0
POINT
  8
_0-9_ラッチ断面__受け
 62
    3
 10
2397.8570920036445
 20
1105.2410513398294
  0
POINT
  8
_0-9_ラッチ断面__受け
 62
    3
 10
2397.8570920036445
 20
1045.2410513398294
  0
POINT
  8
_0-9_ラッチ断面__受け
 62
    3
 10
2397.8570920036445
 20
985.24105133982959
  0
POINT
  8
_0-9_ラッチ断面__受け
 62
    3
 10
3202.6287353810866
 20
1535.2410513398297
  0
POINT
  8
_0-9_ラッチ断面__受け
 62
    3
 10
3502.6287353810866
 20
1535.2410513398297
  0
POINT
  8
_0-9_ラッチ断面__受け
 62
    3
 10
3490.6287353810866
 20
555.2410513398297
  0
POINT
  8
_0-9_ラッチ断面__受け
 62
    3
 10
3214.6287353810862
 20
555.2410513398297
  0
LINE
  8
_0-8_ラッチ立面__受け
  6
CONTINUOUS
 62
    4
 10
1084.7780126849895
 20
1918.7336152219872
 11
1084.7780126849895
 21
1988.7336152219872
  0
LINE
  8
_0-8_ラッチ立面__受け
  6
CONTINUOUS
 62
    4
 10
834.77801268498956
 20
1918.7336152219872
 11
1084.7780126849895
 21
1918.7336152219872
  0
LINE
  8
_0-8_ラッチ立面__受け
  6
CONTINUOUS
 62
    4
 10
834.77801268498956
 20
1988.7336152219872
 11
834.77801268498956
 21
1918.7336152219872
  0
LINE
  8
_0-8_ラッチ立面__受け
  6
CONTINUOUS
 62
    4
 10
1084.7780126849895
 20
1988.7336152219872
 11
834.77801268498956
 21
1988.7336152219872
  0
TEXT
  8
_0-8_ラッチ立面__受け
 62
    7
 10
909.93762905067433
 20
1938.7336152219872
 40
30
 41
1
 50
0
  1
平面図
  0
LINE
  8
_0-8_ラッチ立面__受け
  6
CONTINUOUS
 62
    4
 10
835.09724541635887
 20
411.67369927125179
 11
835.09724541635887
 21
341.67369927125179
  0
LINE
  8
_0-8_ラッチ立面__受け
  6
CONTINUOUS
 62
    4
 10
835.09724541635887
 20
411.67369927125179
 11
1085.0972454163588
 21
411.67369927125179
  0
LINE
  8
_0-8_ラッチ立面__受け
  6
CONTINUOUS
 62
    4
 10
1085.0972454163588
 20
411.67369927125179
 11
1085.0972454163588
 21
341.67369927125179
  0
LINE
  8
_0-8_ラッチ立面__受け
  6
CONTINUOUS
 62
    4
 10
1085.0972454163588
 20
341.67369927125179
 11
835.09724541635887
 21
341.67369927125179
  0
LINE
  8
_0-8_ラッチ立面__受け
  6
CONTINUOUS
 62
    4
 10
1986.05485360601
 20
411.58423435877193
 11
1986.05485360601
 21
341.58423435877193
  0
LINE
  8
_0-8_ラッチ立面__受け
  6
CONTINUOUS
 62
    4
 10
1986.05485360601
 20
341.58423435877193
 11
2236.05485360601
 21
341.58423435877193
  0
LINE
  8
_0-8_ラッチ立面__受け
  6
CONTINUOUS
 62
    4
 10
2236.05485360601
 20
341.58423435877193
 11
2236.05485360601
 21
411.58423435877193
  0
LINE
  8
_0-8_ラッチ立面__受け
  6
CONTINUOUS
 62
    4
 10
2236.05485360601
 20
411.58423435877193
 11
1986.05485360601
 21
411.58423435877193
  0
LINE
  8
_0-8_ラッチ立面__受け
  6
CONTINUOUS
 62
    4
 10
3245.1943031510345
 20
411.51252889017041
 11
3245.1943031510345
 21
341.51252889017001
  0
LINE
  8
_0-8_ラッチ立面__受け
  6
CONTINUOUS
 62
    4
 10
3245.1943031510345
 20
341.51252889017001
 11
3495.1943031510345
 21
341.51252889017001
  0
LINE
  8
_0-8_ラッチ立面__受け
  6
CONTINUOUS
 62
    4
 10
3495.1943031510345
 20
341.51252889017001
 11
3495.1943031510345
 21
411.51252889017041
  0
LINE
  8
_0-8_ラッチ立面__受け
  6
CONTINUOUS
 62
    4
 10
3495.1943031510345
 20
411.51252889017041
 11
3245.1943031510345
 21
411.51252889017041
  0
TEXT
  8
_0-8_ラッチ立面__受け
 62
    7
 10
3320.1943031510345
 20
361.51252889017001
 40
30
 41
1
 50
0
  1
背面図
  0
TEXT
  8
_0-8_ラッチ立面__受け
 62
    7
 10
910.09724541635887
 20
361.67369927125179
 40
30
 41
1
 50
0
  1
立面図
  0
TEXT
  8
_0-8_ラッチ立面__受け
 62
    7
 10
2061.05485360601
 20
361.58423435877193
 40
30
 41
1
 50
0
  1
断面図
  0
LINE
  8
ADD_LINE
  6
DOT
 62
    7
 10
959.93762905067433
 20
1988.7336152219872
 11
959.93762905067433
 21
1918.7336152219872
  0
LINE
  8
ADD_LINE
  6
DOT
 62
    7
 10
834.77801268498956
 20
1953.7336152219872
 11
1084.7780126849895
 21
1953.7336152219872
  0
LINE
  8
ADD_LINE
  6
DOT
 62
    7
 10
960.09724541635887
 20
411.67369927125179
 11
960.09724541635887
 21
341.67369927125179
  0
LINE
  8
ADD_LINE
  6
DOT
 62
    7
 10
835.09724541635887
 20
376.67369927125179
 11
1085.0972454163588
 21
376.67369927125179
  0
LINE
  8
ADD_LINE
  6
DOT
 62
    7
 10
2111.05485360601
 20
411.58423435877193
 11
2111.05485360601
 21
341.58423435877193
  0
LINE
  8
ADD_LINE
  6
DOT
 62
    7
 10
1986.05485360601
 20
376.58423435877193
 11
2236.05485360601
 21
376.58423435877193
  0
LINE
  8
ADD_LINE
  6
DOT
 62
    7
 10
3370.1943031510345
 20
411.51252889017041
 11
3370.1943031510345
 21
341.51252889017001
  0
LINE
  8
ADD_LINE
  6
DOT
 62
    7
 10
3245.1943031510345
 20
376.51252889017001
 11
3495.1943031510345
 21
376.51252889017001
  0
LINE
  8
ADD_LINE
  6
DOT
 62
    9
 10
4102.0507338268025
 20
104.42521185597115
 11
4102.0507338268025
 21
48.763213530655491
  0
LINE
  8
ADD_LINE
  6
DOT
 62
    9
 10
4102.0507338268025
 20
104.42521185597115
 11
4127.7167019027483
 21
104.42521185597115
  0
LINE
  8
_f-8_
  6
CONTINUOUS
 62
    7
 10
622.05073382680154
 20
104.42521185597115
 11
622.05073382680154
 21
204.42521185597115
  0
LINE
  8
_f-8_
  6
CONTINUOUS
 62
    7
 10
162.05073382680211
 20
104.42521185597115
 11
602.05073382680154
 21
104.42521185597115
  0
LINE
  8
_f-8_
  6
CONTINUOUS
 62
    7
 10
162.05073382680211
 20
204.42521185597115
 11
602.05073382680154
 21
204.42521185597115
  0
LINE
  8
_f-8_
  6
CONTINUOUS
 62
    7
 10
1412.0507338268016
 20
104.42521185597115
 11
1412.0507338268016
 21
204.42521185597115
  0
LINE
  8
_f-8_
  6
CONTINUOUS
 62
    7
 10
2202.0507338268016
 20
104.42521185597115
 11
2202.0507338268016
 21
204.42521185597115
  0
LINE
  8
_f-8_
  6
CONTINUOUS
 62
    7
 10
2212.0507338268016
 20
104.42521185597115
 11
2212.0507338268016
 21
204.42521185597115
  0
LINE
  8
_f-8_
  6
CONTINUOUS
 62
    7
 10
622.05073382680154
 20
104.42521185597115
 11
2202.0507338268016
 21
104.42521185597115
  0
LINE
  8
_f-8_
  6
CONTINUOUS
 62
    7
 10
622.05073382680154
 20
204.42521185597115
 11
2202.0507338268016
 21
204.42521185597115
  0
LINE
  8
_f-8_
  6
CONTINUOUS
 62
    7
 10
2702.0507338268021
 20
104.42521185597115
 11
2702.0507338268021
 21
204.42521185597115
  0
LINE
  8
_f-8_
  6
CONTINUOUS
 62
    7
 10
2712.0507338268021
 20
104.42521185597115
 11
2712.0507338268021
 21
204.42521185597115
  0
LINE
  8
_f-8_
  6
CONTINUOUS
 62
    7
 10
2212.0507338268016
 20
104.42521185597115
 11
2702.0507338268021
 21
104.42521185597115
  0
LINE
  8
_f-8_
  6
CONTINUOUS
 62
    7
 10
2212.0507338268016
 20
204.42521185597115
 11
2702.0507338268021
 21
204.42521185597115
  0
LINE
  8
_f-8_
  6
CONTINUOUS
 62
    7
 10
3012.0507338268021
 20
104.42521185597115
 11
3012.0507338268021
 21
204.42521185597115
  0
LINE
  8
_f-8_
  6
CONTINUOUS
 62
    7
 10
3312.0507338268021
 20
104.42521185597115
 11
3312.0507338268021
 21
204.42521185597115
  0
LINE
  8
_f-8_
  6
CONTINUOUS
 62
    7
 10
3692.0507338268021
 20
104.42521185597115
 11
3692.0507338268021
 21
204.42521185597115
  0
LINE
  8
_f-8_
  6
CONTINUOUS
 62
    7
 10
2712.0507338268021
 20
104.42521185597115
 11
4102.0507338268025
 21
104.42521185597115
  0
LINE
  8
_f-8_
  6
CONTINUOUS
 62
    7
 10
4102.0507338268025
 20
104.42521185597115
 11
4102.0507338268025
 21
204.42521185597115
  0
LINE
  8
_f-8_
  6
CONTINUOUS
 62
    7
 10
2712.0507338268021
 20
204.42521185597115
 11
4102.0507338268025
 21
204.42521185597115
  0
LINE
  8
_f-8_
  6
CONTINUOUS
 62
    7
 10
162.05073382680211
 20
154.42521185597115
 11
602.05073382680154
 21
154.42521185597115
  0
LINE
  8
ADD_LINE
  6
DOT
 62
    9
 10
622.05073382680154
 20
184.42521185597115
 11
2202.0507338268016
 21
184.42521185597115
  0
LINE
  8
ADD_LINE
  6
DOT
 62
    9
 10
622.05073382680154
 20
144.42521185597115
 11
2202.0507338268016
 21
144.42521185597115
  0
LINE
  8
ADD_LINE
  6
DOT
 62
    9
 10
647.05073382680154
 20
104.42521185597115
 11
647.05073382680154
 21
204.42521185597115
  0
LINE
  8
ADD_LINE
  6
DOT
 62
    9
 10
1437.0507338268016
 20
104.42521185597115
 11
1437.0507338268016
 21
204.42521185597115
  0
LINE
  8
ADD_LINE
  6
DOT
 62
    9
 10
2737.0507338268021
 20
104.42521185597115
 11
2737.0507338268021
 21
204.42521185597115
  0
LINE
  8
ADD_LINE
  6
DOT
 62
    9
 10
3037.0507338268021
 20
104.42521185597115
 11
3037.0507338268021
 21
204.42521185597115
  0
LINE
  8
ADD_LINE
  6
DOT
 62
    9
 10
3337.0507338268021
 20
104.42521185597115
 11
3337.0507338268021
 21
204.42521185597115
  0
LINE
  8
ADD_LINE
  6
DOT
 62
    9
 10
3717.0507338268021
 20
104.42521185597115
 11
3717.0507338268021
 21
204.42521185597115
  0
LINE
  8
ADD_LINE
  6
DOT
 62
    9
 10
2712.0507338268021
 20
184.42521185597115
 11
4102.0507338268025
 21
184.42521185597115
  0
LINE
  8
ADD_LINE
  6
DOT
 62
    9
 10
2712.0507338268021
 20
144.42521185597115
 11
4102.0507338268025
 21
144.42521185597115
  0
TEXT
  8
_f-8_
 62
    7
 10
647.05073382680041
 20
171.92521185597115
 40
25
 41
0.8
 50
0
  1
名　称
  0
TEXT
  8
_f-8_
 62
    7
 10
2737.0507338268016
 20
171.92521185597115
 40
25
 41
0.64
 50
0
  1
ＳＣＡＬＥ
  0
LINE
  8
ADD_LINE
  6
DOT
 62
    9
 10
3672.0507338268021
 20
104.42521185597115
 11
3672.0507338268021
 21
204.42521185597115
  0
TEXT
  8
_f-8_
 62
    7
 10
3037.0507338268021
 20
171.92521185597115
 40
25
 41
0.64
 50
0
  1
ＤＡＴＡ
  0
TEXT
  8
_f-8_
 62
    7
 10
3717.0507338268021
 20
171.92521185597115
 40
25
 41
0.64
 50
0
  1
ＳＨＥＥＴ　ＮＯ．
  0
TEXT
  8
_f-8_
 62
    7
 10
2824.007169387964
 20
125.15256180468327
 40
35
 41
0.5714285714285713
 50
0
  1
１／１０
  0
TEXT
  8
_f-8_
 62
    7
 10
3554.0507338268025
 20
171.92521185597115
 40
25
 41
0.64
 50
0
  1
ＤＲＡＷＩＮＧ
  0
TEXT
  8
_f-8_
 62
    7
 10
3337.0507338268021
 20
171.92521185597115
 40
25
 41
0.64
 50
0
  1
ＣＨＥＣＫＥＤ
  0
POINT
  8
_0-9_ラッチ断面__受け
 62
    3
 10
2287.8570920036445
 20
1535.2410513398297
  0
POINT
  8
_0-9_ラッチ断面__受け
 62
    3
 10
1929.8570920036443
 20
1535.2410513398297
  0
POINT
  8
_0-9_ラッチ断面__受け
 62
    3
 10
1929.8570920036443
 20
1535.2410513398297
  0
POINT
  8
_0-9_ラッチ断面__受け
 62
    3
 10
2287.8570920036445
 20
1535.2410513398297
  0
LINE
  8
_0-9_ラッチ断面__受け
  6
CONTINUOUS
 62
    4
 10
1929.8570920036443
 20
1535.2410513398297
 11
2287.8570920036445
 21
1535.2410513398297
  0
TEXT
  8
_0-9_ラッチ断面__受け
 62
    7
 10
2075.7570920036441
 20
1535.2410513398297
 40
35
 41
0.6285714285714286
 50
0
  1
３５８
  0
POINT
  8
_0-9_ラッチ断面__受け
 62
    9
 10
2287.8570920036445
 20
1455.2410513398297
  0
POINT
  8
_0-9_ラッチ断面__受け
 62
    9
 10
1945.8570920036454
 20
1455.2410513398297
  0
POINT
  8
_0-9_ラッチ断面__受け
 62
    9
 10
1929.8570920036443
 20
1455.2410513398297
  0
POINT
  8
_0-9_ラッチ断面__受け
 62
    9
 10
1929.8570920036443
 20
1455.2410513398297
  0
POINT
  8
_0-9_ラッチ断面__受け
 62
    9
 10
1945.8570920036454
 20
1455.2410513398297
  0
LINE
  8
_0-9_ラッチ断面__受け
  6
CONTINUOUS
 62
    9
 10
1929.8570920036443
 20
1455.2410513398297
 11
1945.8570920036454
 21
1455.2410513398297
  0
POINT
  8
_0-9_ラッチ断面__受け
 62
    3
 10
1945.8570920036454
 20
1455.2410513398297
  0
POINT
  8
_0-9_ラッチ断面__受け
 62
    3
 10
2287.8570920036445
 20
1455.2410513398297
  0
LINE
  8
_0-9_ラッチ断面__受け
  6
CONTINUOUS
 62
    4
 10
1945.8570920036454
 20
1455.2410513398297
 11
2287.8570920036445
 21
1455.2410513398297
  0
TEXT
  8
_0-9_ラッチ断面__受け
 62
    7
 10
2083.757092003645
 20
1460.2410513398297
 40
35
 41
0.6285714285714286
 50
0
  1
３４２
  0
LINE
  8
_0-9_ラッチ断面__受け
  6
CONTINUOUS
 62
    4
 10
2287.8570920036445
 20
1545.2410513398297
 11
2287.8570920036445
 21
1375.2410513398299
  0
LINE
  8
_0-9_ラッチ断面__受け
  6
CONTINUOUS
 62
    4
 10
1929.8570920036443
 20
1545.2410513398297
 11
1929.8570920036443
 21
1375.2410513398299
  0
LINE
  8
_0-9_ラッチ断面__受け
  6
CONTINUOUS
 62
    4
 10
2287.8570920036445
 20
1505.2410513398294
 11
2287.8570920036445
 21
1375.2410513398299
  0
LINE
  8
_0-9_ラッチ断面__受け
  6
CONTINUOUS
 62
    4
 10
1945.8570920036454
 20
1455.2410513398297
 11
1945.8570920036454
 21
1375.2410513398299
  0
LINE
  8
_0-9_ラッチ断面__受け
  6
DASHED1
 62
    9
 10
1145.3425815283144
 20
2575.7744603287765
 11
785.34258152831455
 21
2575.7744603287765
  0
LINE
  8
_0-9_ラッチ断面__受け
  6
DASHED1
 62
    9
 10
1145.3425815283144
 20
2174.2744603287765
 11
1145.3425815283144
 21
2575.7744603287765
  0
LINE
  8
_0-9_ラッチ断面__受け
  6
DASHED1
 62
    9
 10
785.34258152831455
 20
2174.2744603287765
 11
1145.3425815283144
 21
2174.2744603287765
  0
TEXT
  8
_f-8_
 62
    7
 10
711.9982904712333
 20
121.93882860115934
 40
45
 41
0.8
 50
0
  1
吊り戸棚　高さ６０ｃｍタイプ
  0
TEXT
  8
_f-8_
 62
    7
 10
1437.0507338268025
 20
171.92521185597115
 40
25
 41
0.8
 50
0
  1
図面名称
  0
TEXT
  8
_f-8_
 62
    7
 10
1524.9574468085106
 20
121.92521185597115
 40
45
 41
0.6666666666666666
 50
0
  1
ＫＴＤ３－６０－３０ＨＳ（左）
  0
TEXT
  8
_f-8_
 62
    7
 10
3037.0507338268021
 20
126.92521185597115
 40
35
 41
0.5714285714285713
 50
0
  1
２０２３．０５．０１
  0
TEXT
  8
_f-8_
 62
    7
 10
3594.0507338268025
 20
129.42521185597115
 40
30
 41
0.7333333333333332
 50
0
  1
Ｔ．Ｋ
  0
TEXT
  8
_0-9_ラッチ断面__受け
 62
    7
 10
1220.3778293345405
 20
680.70994794024454
 40
35
 41
0.6285714285714286
 50
90
  1
１５
  0
LINE
  8
_0-9_ラッチ断面__受け
  6
CONTINUOUS
 62
    4
 10
1225.3425815283148
 20
730.24105133982982
 11
1225.3425815283148
 21
686.46461068356734
  0
LINE
  8
_f-a__0-7_寸法
  6
CONTINUOUS
 62
    4
 10
1979.8164462322185
 20
1141.4131960162969
 11
2269.8164462322188
 21
1141.4131960162969
  0
TEXT
  8
_0-9_ラッチ断面__受け
 62
    7
 10
2091.7164462322189
 20
1146.4131960162969
 40
35
 41
0.6285714285714286
 50
0
  1
２９０
  0
POINT
  8
_0-9_ラッチ断面__受け
 62
    3
 10
2269.8164462322188
 20
1141.4131960162969
  0
POINT
  8
_0-9_ラッチ断面__受け
 62
    3
 10
1979.8164462322185
 20
1141.4131960162969
  0
LINE
  8
_0-9_ラッチ断面__受け
  6
CONTINUOUS
 62
    4
 10
1979.8164462322185
 20
1151.4131960162969
 11
1979.8164462322185
 21
1086.7927795382527
  0
LINE
  8
_f-8_
  6
CONTINUOUS
 62
    7
 10
87.716701902748468
 20
2868.7632135306557
 11
4127.7167019027483
 21
2868.7632135306557
  0
LINE
  8
_f-8_
  6
CONTINUOUS
 62
    7
 10
4127.7167019027483
 20
2868.7632135306557
 11
4127.7167019027483
 21
48.763213530655491
  0
LINE
  8
_f-8_
  6
CONTINUOUS
 62
    7
 10
4127.7167019027483
 20
48.763213530655491
 11
87.716701902748468
 21
48.763213530655491
  0
LINE
  8
_f-8_
  6
CONTINUOUS
 62
    7
 10
87.716701902748468
 20
48.763213530655491
 11
87.716701902748468
 21
2868.7632135306557
  0
ENDSEC
  0
EOF
