  0
SECTION
  2
HEADER
  9
$ACADVER
  1
AC1009
  9
$INSBASE
 10
0
 20
0
 30
0
  9
$EXTMIN
 10
0
 20
0
  9
$EXTMAX
 10
4200
 20
2970
  9
$LIMMIN
 10
0
 20
0
  9
$LIMMAX
 10
4200
 20
2970
  9
$LTSCALE
 40
10
  0
ENDSEC
  0
SECTION
  2
TABLES
  0
TABLE
  2
LTYPE
 70
     9
  0
LTYPE
  2
CONTINUOUS
 70
    64
  3
実線
 72
    65
 73
     0
 40
0.0
  0
LTYPE
  2
DASHED1
 70
    64
  3
--  --  --  --  --  --  --  --  
 72
    65
 73
     2
 40
2.5
 49
1.25
 49
-1.25
  0
LTYPE
  2
DASHED2
 70
    64
  3
----    ----    ----    ----    
 72
    65
 73
     2
 40
5.0
 49
2.5
 49
-2.5
  0
LTYPE
  2
DASHED3
 70
    64
  3
------  ------  ------  ------  
 72
    65
 73
     2
 40
5.0
 49
3.75
 49
-1.25
  0
LTYPE
  2
CENTER1
 70
    64
  3
----- - ----- - ----- - ----- - 
 72
    65
 73
     4
 40
10.0
 49
6.25
 49
-1.25
 49
1.25
 49
-1.25
  0
LTYPE
  2
CENTER2
 70
    64
  3
----------  --  ----------  --  
 72
    65
 73
     4
 40
20.0
 49
12.5
 49
-2.5
 49
2.5
 49
-2.5
  0
LTYPE
  2
PHANTOM1
 70
    64
  3
--- - - --- - - --- - - --- - - 
 72
    65
 73
     6
 40
10.0
 49
3.25
 49
-1.25
 49
1.25
 49
-1.25
 49
1.25
 49
-1.25
  0
LTYPE
  2
PHANTOM2
 70
    64
  3
--------  -  -  --------  -  -  
 72
    65
 73
     6
 40
20.0
 49
10.0
 49
-2.5
 49
1.25
 49
-2.5
 49
1.25
 49
-2.5
  0
LTYPE
  2
DOT
 70
    64
  3
-   -   -   -   -   -   -   -   
 72
    65
 73
     2
 40
2.5
 49
0.625
 49
-1.875
  0
LTYPE
  2
DUMMY
 70
    64
  3
ダミー
 72
    65
 73
     0
 40
0.0
  0
LTYPE
  2
RAND1
 70
    64
  3
ランダム線1
 72
    65
 73
     4
 40
10.0
 49
1.0
 49
-2.0
 49
3.0
 49
-4.0
  0
LTYPE
  2
RAND2
 70
    64
  3
ランダム線2
 72
    65
 73
     4
 40
14.0
 49
2.0
 49
-3.0
 49
4.0
 49
-5.0
  0
LTYPE
  2
RAND3
 70
    64
  3
ランダム線3
 72
    65
 73
     4
 40
18.0
 49
3.0
 49
-4.0
 49
5.0
 49
-6.0
  0
LTYPE
  2
RAND4
 70
    64
  3
ランダム線4
 72
    65
 73
     4
 40
22.0
 49
4.0
 49
-5.0
 49
6.0
 49
-7.0
  0
LTYPE
  2
RAND5
 70
    64
  3
ランダム線5
 72
    65
 73
     4
 40
26.0
 49
5.0
 49
-6.0
 49
7.0
 49
-8.0
  0
LTYPE
  2
LONG1
 70
    64
  3
----------  --  ----------  --  
 72
    65
 73
     4
 40
40.0
 49
32.5
 49
-2.5
 49
2.5
 49
-2.5
  0
LTYPE
  2
LONG2
 70
    64
  3
--------  -  -  --------  -  -  
 72
    65
 73
     6
 40
40.0
 49
30.0
 49
-2.5
 49
1.25
 49
-2.5
 49
1.25
 49
-2.5
  0
LTYPE
  2
LONG3
 70
    64
  3
+++++++++++++++..+++++++++++++++
 72
    65
 73
     2
 40
40.0
 49
37.5
 49
-2.5
  0
LTYPE
  2
LONG4
 70
    64
  3
+++++++++++++++..+++++++++++++++
 72
    65
 73
     2
 40
80.0
 49
75.0
 49
-5.0
  0
LTYPE
  2
LONG5
 70
    64
  3
----------  --  ----------  --  
 72
    65
 73
     4
 40
60.0
 49
37.5
 49
-7.5
 49
7.5
 49
-7.5
  0
LTYPE
  2
dashed
 70
   64
  3
-------   -------------   ------
 72
   65
 73
    2
 40
7.5
 49
6
 49
-1.5
  0
LTYPE
  2
dashed_spaced
 70
   64
  3
----        --------        ----
 72
   65
 73
    2
 40
12
 49
6
 49
-6
  0
LTYPE
  2
long_dashed_dotted
 70
   64
  3
------------- --- --------------
 72
   65
 73
    4
 40
15.25
 49
12
 49
-1.5
 49
0.25
 49
-1.5
  0
LTYPE
  2
long_dashed_double-dotted
 70
   64
  3
----------- --- --- ------------
 72
   65
 73
    6
 40
17
 49
12
 49
-1.5
 49
0.25
 49
-1.5
 49
0.25
 49
-1.5
  0
LTYPE
  2
long_dashed_triplicate-dotted
 70
   64
  3
--------- --- --- --- ----------
 72
   65
 73
    8
 40
18.75
 49
12
 49
-1.5
 49
0.25
 49
-1.5
 49
0.25
 49
-1.5
 49
0.25
 49
-1.5
  0
LTYPE
  2
dotted
 70
   64
  3
   -       -       -       -    
 72
   65
 73
    2
 40
1.75
 49
0.25
 49
-1.5
  0
LTYPE
  2
chain
 70
   64
  3
-------------- -- --------------
 72
   65
 73
    4
 40
18.5
 49
12
 49
-1.5
 49
3.5
 49
-1.5
  0
LTYPE
  2
chain_double_dash
 70
   64
  3
------------ -- -- -------------
 72
   65
 73
    6
 40
23.5
 49
12
 49
-1.5
 49
3.5
 49
-1.5
 49
3.5
 49
-1.5
  0
LTYPE
  2
dashed_dotted
 70
   64
  3
-----------     -     ----------
 72
   65
 73
    4
 40
9.25
 49
6
 49
-1.5
 49
0.25
 49
-1.5
  0
LTYPE
  2
double-dashed_dotted
 70
   64
  3
------   -----------   -   -----
 72
   65
 73
    6
 40
16.75
 49
6
 49
-1.5
 49
6
 49
-1.5
 49
0.25
 49
-1.5
  0
LTYPE
  2
dashed_double-dotted
 70
   64
  3
---------    -    -    ---------
 72
   65
 73
    6
 40
11
 49
6
 49
-1.5
 49
0.25
 49
-1.5
 49
0.25
 49
-1.5
  0
LTYPE
  2
double-dashed_double-dotted
 70
   64
  3
-----   ---------   -   -   ----
 72
   65
 73
    8
 40
18.5
 49
6
 49
-1.5
 49
6
 49
-1.5
 49
0.25
 49
-1.5
 49
0.25
 49
-1.5
  0
LTYPE
  2
dashed_triplicate-dotted
 70
   64
  3
-------    -    -    -    ------
 72
   65
 73
    8
 40
12.75
 49
6
 49
-1.5
 49
0.25
 49
-1.5
 49
0.25
 49
-1.5
 49
0.25
 49
-1.5
  0
LTYPE
  2
double-dashed_triplicate-dotted
 70
   64
  3
-----  ---------  -  -  -  -----
 72
   65
 73
   10
 40
20.25
 49
6
 49
-1.5
 49
6
 49
-1.5
 49
0.25
 49
-1.5
 49
0.25
 49
-1.5
 49
0.25
 49
-1.5
  0
LTYPE
  2
undefined
 70
   64
  3
--------------------------------
 72
   65
 73
    0
 40
0
  0
LTYPE
  2
_
 70
   64
  3
                                
 72
   65
 73
    0
 40
0
  0
LTYPE
  2
__18
 70
   64
  3
                                
 72
   65
 73
    0
 40
0
  0
LTYPE
  2
__19
 70
   64
  3
                                
 72
   65
 73
    0
 40
0
  0
LTYPE
  2
__20
 70
   64
  3
                                
 72
   65
 73
    0
 40
0
  0
LTYPE
  2
__21
 70
   64
  3
                                
 72
   65
 73
    0
 40
0
  0
LTYPE
  2
__22
 70
   64
  3
                                
 72
   65
 73
    0
 40
0
  0
LTYPE
  2
__23
 70
   64
  3
                                
 72
   65
 73
    0
 40
0
  0
LTYPE
  2
__24
 70
   64
  3
                                
 72
   65
 73
    0
 40
0
  0
LTYPE
  2
__25
 70
   64
  3
                                
 72
   65
 73
    0
 40
0
  0
LTYPE
  2
__26
 70
   64
  3
                                
 72
   65
 73
    0
 40
0
  0
LTYPE
  2
__27
 70
   64
  3
                                
 72
   65
 73
    0
 40
0
  0
LTYPE
  2
__28
 70
   64
  3
                                
 72
   65
 73
    0
 40
0
  0
LTYPE
  2
__29
 70
   64
  3
                                
 72
   65
 73
    0
 40
0
  0
LTYPE
  2
__30
 70
   64
  3
                                
 72
   65
 73
    0
 40
0
  0
LTYPE
  2
__31
 70
   64
  3
                                
 72
   65
 73
    0
 40
0
  0
LTYPE
  2
__32
 70
   64
  3
                                
 72
   65
 73
    0
 40
0
  0
ENDTAB
  0
TABLE
  2
STYLE
  5
3
100
AcDbSymbolTable
 70
     1
  0
STYLE
  5
10
100
AcDbSymbolTableRecord
100
AcDbTextStyleTableRecord
  2
STANDARD
 70
     0
 40
0.0
 41
1.0
 50
0.0
 71
     0
 42
0.2
  3
txt
  4
bigfont.shx
  0
STYLE
  5
26
100
AcDbSymbolTableRecord
100
AcDbTextStyleTableRecord
  2
TATEGAKI
 70
    68
 40
0.0
 41
1.0
 50
0.0
 71
     0
 42
1.0
  3
txt
  4
bigfont.shx
  0
ENDTAB
  0
TABLE
  2
LAYER
 70
   17
  0
LAYER
  2
_0-2_
 70
   64
 62
    7
  6
CONTINUOUS
  0
LAYER
  2
_0-3_
 70
   64
 62
    7
  6
CONTINUOUS
  0
LAYER
  2
_0-4_
 70
   64
 62
    7
  6
CONTINUOUS
  0
LAYER
  2
_0-5_
 70
   64
 62
    7
  6
CONTINUOUS
  0
LAYER
  2
_0-8_
 70
   64
 62
    7
  6
CONTINUOUS
  0
LAYER
  2
_0-9_
 70
   64
 62
    7
  6
CONTINUOUS
  0
LAYER
  2
_0-d_
 70
   64
 62
    7
  6
CONTINUOUS
  0
LAYER
  2
_0-e_
 70
   64
 62
    7
  6
CONTINUOUS
  0
LAYER
  2
_e-0_
 70
   64
 62
    7
  6
CONTINUOUS
  0
LAYER
  2
_f-0_
 70
   64
 62
    7
  6
CONTINUOUS
  0
LAYER
  2
_f-7_
 70
   64
 62
    7
  6
CONTINUOUS
  0
LAYER
  2
_f-8_
 70
   64
 62
    7
  6
CONTINUOUS
  0
LAYER
  2
_f-9_
 70
   64
 62
    7
  6
CONTINUOUS
  0
LAYER
  2
_f-d_固定文字
 70
   64
 62
    7
  6
CONTINUOUS
  0
LAYER
  2
_f-e_
 70
   64
 62
    7
  6
CONTINUOUS
  0
LAYER
  2
_f-f_図面枠
 70
   64
 62
    7
  6
CONTINUOUS
  0
LAYER
  2
ADD_LINE
 70
   64
 62
    7
  6
CONTINUOUS
  0
ENDTAB
  0
ENDSEC
  0
SECTION
  2
BLOCKS
  0
ENDSEC
  0
SECTION
  2
ENTITIES
  0
LINE
  8
ADD_LINE
  6
DOT
 62
    9
 10
149.98500000000007
 20
100
 11
149.98500000000007
 21
65
  0
LINE
  8
ADD_LINE
  6
DOT
 62
    9
 10
179.98500000000007
 20
100
 11
179.98500000000007
 21
65.000000646005844
  0
LINE
  8
ADD_LINE
  6
DOT
 62
    9
 10
150.01499999999993
 20
65
 11
120.02999999999986
 21
65
  0
LINE
  8
ADD_LINE
  6
DOT
 62
    9
 10
74.98500000000007
 20
55
 11
4144.9850000000006
 21
55
  0
LINE
  8
ADD_LINE
  6
DOT
 62
    9
 10
4130
 20
100
 11
4130
 21
65.00000323002979
  0
LINE
  8
ADD_LINE
  6
DOT
 62
    9
 10
4100
 20
100
 11
4100
 21
65.00000323002979
  0
LINE
  8
ADD_LINE
  6
DOT
 62
    9
 10
4070
 20
100
 11
4070
 21
65.00000323002979
  0
LINE
  8
ADD_LINE
  6
DOT
 62
    9
 10
4040
 20
100
 11
4040
 21
65.00000323002979
  0
LINE
  8
ADD_LINE
  6
DOT
 62
    9
 10
4010
 20
100
 11
4010
 21
65.00000323002979
  0
LINE
  8
ADD_LINE
  6
DOT
 62
    9
 10
3980
 20
100
 11
3980
 21
65
  0
LINE
  8
ADD_LINE
  6
DOT
 62
    9
 10
74.98500000000007
 20
2875
 11
74.98500000000007
 21
55
  0
LINE
  8
ADD_LINE
  6
DOT
 62
    9
 10
120.02999999999986
 20
65
 11
120.02999999999986
 21
2860
  0
LINE
  8
ADD_LINE
  6
DOT
 62
    9
 10
4144.9850000000006
 20
2875
 11
74.98500000000007
 21
2875
  0
LINE
  8
ADD_LINE
  6
DOT
 62
    9
 10
4144.9850000000006
 20
55
 11
4144.9850000000006
 21
2875
  0
LINE
  8
_f-9_
  6
CONTINUOUS
 62
    7
 10
630
 20
120
 11
630
 21
220
  0
LINE
  8
ADD_LINE
  6
DOT
 62
    9
 10
170
 20
120
 11
170
 21
220
  0
LINE
  8
ADD_LINE
  6
DOT
 62
    9
 10
610
 20
120
 11
610
 21
220
  0
LINE
  8
_f-9_
  6
CONTINUOUS
 62
    7
 10
170
 20
120
 11
610
 21
120
  0
LINE
  8
_f-9_
  6
CONTINUOUS
 62
    7
 10
170
 20
220
 11
610
 21
220
  0
LINE
  8
_f-9_
  6
CONTINUOUS
 62
    7
 10
1420
 20
120
 11
1420
 21
220
  0
LINE
  8
_f-9_
  6
CONTINUOUS
 62
    7
 10
2210
 20
120
 11
2210
 21
220
  0
LINE
  8
_f-9_
  6
CONTINUOUS
 62
    7
 10
2220
 20
120
 11
2220
 21
220
  0
LINE
  8
_f-9_
  6
CONTINUOUS
 62
    7
 10
630
 20
120
 11
2210
 21
120
  0
LINE
  8
_f-9_
  6
CONTINUOUS
 62
    7
 10
630
 20
220
 11
2210
 21
220
  0
LINE
  8
_f-9_
  6
CONTINUOUS
 62
    7
 10
2710
 20
120
 11
2710
 21
220
  0
LINE
  8
_f-9_
  6
CONTINUOUS
 62
    7
 10
2720
 20
120
 11
2720
 21
220
  0
LINE
  8
_f-9_
  6
CONTINUOUS
 62
    7
 10
2220
 20
120
 11
2710
 21
120
  0
LINE
  8
_f-9_
  6
CONTINUOUS
 62
    7
 10
2220
 20
220
 11
2710
 21
220
  0
LINE
  8
_f-9_
  6
CONTINUOUS
 62
    7
 10
3020
 20
120
 11
3020
 21
220
  0
LINE
  8
_f-9_
  6
CONTINUOUS
 62
    7
 10
3320
 20
120
 11
3320
 21
220
  0
LINE
  8
_f-9_
  6
CONTINUOUS
 62
    7
 10
3700
 20
120
 11
3700
 21
220
  0
LINE
  8
_f-9_
  6
CONTINUOUS
 62
    7
 10
2720
 20
120
 11
4110
 21
120
  0
LINE
  8
_f-9_
  6
CONTINUOUS
 62
    7
 10
4110
 20
120
 11
4110
 21
220
  0
LINE
  8
_f-9_
  6
CONTINUOUS
 62
    7
 10
2720
 20
220
 11
4110
 21
220
  0
LINE
  8
_f-f_図面枠
  6
CONTINUOUS
 62
  230
 10
4130
 20
2860
 11
4130
 21
100
  0
LINE
  8
_f-f_図面枠
  6
CONTINUOUS
 62
  230
 10
150
 20
2860
 11
4130
 21
2860
  0
LINE
  8
_f-f_図面枠
  6
CONTINUOUS
 62
  230
 10
150
 20
100
 11
4130
 21
100
  0
LINE
  8
_f-f_図面枠
  6
CONTINUOUS
 62
  230
 10
150
 20
100
 11
150
 21
2860
  0
LINE
  8
ADD_LINE
  6
DOT
 62
    9
 10
630
 20
200
 11
2210
 21
200
  0
LINE
  8
ADD_LINE
  6
DOT
 62
    9
 10
2720
 20
200
 11
4110
 21
200
  0
LINE
  8
ADD_LINE
  6
DOT
 62
    9
 10
2740
 20
120
 11
2740
 21
220
  0
LINE
  8
ADD_LINE
  6
DOT
 62
    9
 10
3040
 20
120
 11
3040
 21
220
  0
LINE
  8
ADD_LINE
  6
DOT
 62
    9
 10
3340
 20
120
 11
3340
 21
220
  0
LINE
  8
ADD_LINE
  6
DOT
 62
    9
 10
3720
 20
120
 11
3720
 21
220
  0
LINE
  8
ADD_LINE
  6
DOT
 62
    9
 10
1445
 20
120
 11
1445
 21
220
  0
LINE
  8
ADD_LINE
  6
DOT
 62
    9
 10
655
 20
120
 11
655
 21
220
  0
LINE
  8
ADD_LINE
  6
DOT
 62
    9
 10
3660
 20
120
 11
3660
 21
220
  0
LINE
  8
ADD_LINE
  6
DOT
 62
    9
 10
2720
 20
160
 11
4110
 21
160
  0
TEXT
  8
_f-8_
 62
    7
 10
3040
 20
187.5
 40
25
 41
0.64
 50
0
  1
ＤＡＴＡ
  0
TEXT
  8
_f-8_
 62
    7
 10
3340
 20
187.5
 40
25
 41
0.64
 50
0
  1
ＣＨＥＣＫＥＤ
  0
TEXT
  8
_f-8_
 62
    7
 10
3720
 20
187.5
 40
25
 41
0.64
 50
0
  1
ＳＨＥＥＴ　ＮＯ．
  0
TEXT
  8
_f-8_
 62
    7
 10
3542
 20
187.5
 40
25
 41
0.64
 50
0
  1
ＤＲＡＷＩＮＧ
  0
LINE
  8
ADD_LINE
  6
DOT
 62
    9
 10
135
 20
65
 11
135
 21
2860
  0
LINE
  8
_f-9_
  6
CONTINUOUS
 62
    7
 10
170
 20
170
 11
610
 21
170
  0
LINE
  8
ADD_LINE
  6
DOT
 62
    9
 10
2910
 20
120
 11
2910
 21
220
  0
LINE
  8
ADD_LINE
  6
DOT
 62
    9
 10
3170
 20
120
 11
3170
 21
220
  0
LINE
  8
ADD_LINE
  6
DOT
 62
    9
 10
3500
 20
220
 11
3500
 21
120
  0
LINE
  8
ADD_LINE
  6
DOT
 62
    9
 10
630
 20
160
 11
2210
 21
160
  0
LINE
  8
ADD_LINE
  6
DOT
 62
    9
 10
1025
 20
220
 11
1025
 21
120
  0
TEXT
  8
_f-8_
 62
    7
 10
2861
 20
142.5
 40
35
 41
0.5714285714285714
 50
0
  1
１／１０
  0
TEXT
  8
_f-8_
 62
    7
 10
2740.3739840854214
 20
187.46937299484983
 40
25
 41
0.64
 50
0
  1
ＳＣＡＬＥ
  0
TEXT
  8
_f-8_
 62
    7
 10
1445
 20
187.5
 40
25
 41
0.8
 50
0
  1
図面名称
  0
TEXT
  8
_f-8_
 62
    7
 10
655
 20
187.5
 40
25
 41
0.8
 50
0
  1
名　称
  0
LINE
  8
ADD_LINE
  6
DOT
 62
    9
 10
1815
 20
120
 11
1815
 21
220
  0
LINE
  8
_f-8_
  6
CONTINUOUS
 62
    7
 10
2165
 20
2872
 11
2166.1500000000001
 21
2874.0000000000005
  0
LINE
  8
_f-8_
  6
CONTINUOUS
 62
    7
 10
2158.6399999999999
 20
2877
 11
2165
 21
2866
  0
LINE
  8
_f-8_
  6
CONTINUOUS
 62
    7
 10
2165
 20
2866
 11
2171.3499999999999
 21
2877
  0
LINE
  8
_f-8_
  6
CONTINUOUS
 62
    7
 10
2165
 20
2860
 11
2176.54
 21
2880
  0
LINE
  8
_f-8_
  6
CONTINUOUS
 62
    7
 10
2153.4499999999998
 20
2880
 11
2165
 21
2860
  0
LINE
  8
_f-8_
  6
CONTINUOUS
 62
    7
 10
2176.54
 20
2880
 11
2153.4499999999998
 21
2880
  0
LINE
  8
_f-8_
  6
CONTINUOUS
 62
    7
 10
2163.8400000000001
 20
2874.0000000000005
 11
2165
 21
2872
  0
LINE
  8
_f-8_
  6
CONTINUOUS
 62
    7
 10
2166.1500000000001
 20
2874.0000000000005
 11
2163.8400000000001
 21
2874.0000000000005
  0
LINE
  8
_f-8_
  6
CONTINUOUS
 62
    7
 10
2171.3499999999999
 20
2877
 11
2158.6399999999999
 21
2877
  0
LINE
  8
_f-7_
  6
CONTINUOUS
 62
    7
 10
120
 20
1462.6794919243114
 11
120
 21
1497.3205080756886
  0
LINE
  8
_f-7_
  6
CONTINUOUS
 62
    7
 10
120
 20
1497.3205080756886
 11
150
 21
1480
  0
LINE
  8
_f-7_
  6
CONTINUOUS
 62
    7
 10
150
 20
1480
 11
120
 21
1462.6794919243114
  0
LINE
  8
_f-7_
  6
CONTINUOUS
 62
    7
 10
125
 20
1471.3397459621556
 11
125
 21
1488.6602540378444
  0
LINE
  8
_f-7_
  6
CONTINUOUS
 62
    7
 10
125
 20
1488.6602540378444
 11
140
 21
1480
  0
LINE
  8
_f-7_
  6
CONTINUOUS
 62
    7
 10
140
 20
1480
 11
125
 21
1471.3397459621556
  0
LINE
  8
_f-7_
  6
CONTINUOUS
 62
    7
 10
128.99999999999977
 20
1478.2679491924309
 11
128.99999999999977
 21
1481.7320508075691
  0
LINE
  8
_f-7_
  6
CONTINUOUS
 62
    7
 10
128.99999999999977
 20
1481.7320508075691
 11
132.00000000000045
 21
1480
  0
LINE
  8
_f-7_
  6
CONTINUOUS
 62
    7
 10
132.00000000000045
 20
1480
 11
128.99999999999977
 21
1478.2679491924309
  0
LINE
  8
_f-7_
  6
CONTINUOUS
 62
    7
 10
4160
 20
1462.6794919243114
 11
4160
 21
1497.3205080756886
  0
LINE
  8
_f-7_
  6
CONTINUOUS
 62
    7
 10
4160
 20
1497.3205080756886
 11
4130
 21
1480
  0
LINE
  8
_f-7_
  6
CONTINUOUS
 62
    7
 10
4130
 20
1480
 11
4160
 21
1462.6794919243114
  0
LINE
  8
_f-7_
  6
CONTINUOUS
 62
    7
 10
4155
 20
1471.3397459621556
 11
4155
 21
1488.6602540378444
  0
LINE
  8
_f-7_
  6
CONTINUOUS
 62
    7
 10
4155
 20
1488.6602540378444
 11
4140
 21
1480
  0
LINE
  8
_f-7_
  6
CONTINUOUS
 62
    7
 10
4140
 20
1480
 11
4155
 21
1471.3397459621556
  0
LINE
  8
_f-7_
  6
CONTINUOUS
 62
    7
 10
4151
 20
1478.2679491924309
 11
4151
 21
1481.7320508075691
  0
LINE
  8
_f-7_
  6
CONTINUOUS
 62
    7
 10
4151
 20
1481.7320508075691
 11
4148
 21
1480
  0
LINE
  8
_f-7_
  6
CONTINUOUS
 62
    7
 10
4148
 20
1480
 11
4151
 21
1478.2679491924309
  0
LINE
  8
ADD_LINE
  6
DOT
 62
    9
 10
1075
 20
220
 11
1075
 21
120
  0
LINE
  8
ADD_LINE
  6
DOT
 62
    9
 10
1865
 20
120
 11
1865
 21
220
  0
TEXT
  8
_f-d_固定文字
 62
    7
 10
149.98500000000007
 20
65
 40
20
 41
1
 50
0
  1
%f
  0
LINE
  8
ADD_LINE
  6
DOT
 62
    9
 10
149.98500000000007
 20
65
 11
179.98500000000007
 21
65.000000646005844
  0
TEXT
  8
_f-d_固定文字
 62
    7
 10
4050
 20
65.00000323002979
 40
20
 41
1
 50
0
  1
%m
  0
TEXT
  8
_f-d_固定文字
 62
    7
 10
4080
 20
65.00000323002979
 40
20
 41
1
 50
0
  1
．
  0
TEXT
  8
_f-d_固定文字
 62
    7
 10
4110
 20
65.00000323002979
 40
20
 41
1
 50
0
  1
%d
  0
LINE
  8
ADD_LINE
  6
DOT
 62
    9
 10
3980
 20
65
 11
4130
 21
65.00000323002979
  0
TEXT
  8
_f-d_固定文字
 62
    7
 10
3990
 20
65.00000323002979
 40
20
 41
1
 50
0
  1
%y
  0
TEXT
  8
_f-d_固定文字
 62
    7
 10
4020
 20
65.00000323002979
 40
20
 41
1
 50
0
  1
．
  0
LINE
  8
_0-8_
  6
CONTINUOUS
 62
    4
 10
975
 20
1903.6399999999999
 11
1225
 21
1903.6399999999999
  0
LINE
  8
_0-8_
  6
CONTINUOUS
 62
    4
 10
1225
 20
1903.6399999999999
 11
1225
 21
1973.6399999999999
  0
LINE
  8
_0-8_
  6
CONTINUOUS
 62
    4
 10
1225
 20
1973.6399999999999
 11
975
 21
1973.6399999999999
  0
LINE
  8
_0-8_
  6
CONTINUOUS
 62
    4
 10
975
 20
1973.6399999999999
 11
975
 21
1903.6399999999999
  0
TEXT
  8
_0-8_
 62
    7
 10
1053
 20
1921.1399999999999
 40
35
 41
0.8571428571428571
 50
0
  1
平面図
  0
LINE
  8
ADD_LINE
  6
DOT
 62
    9
 10
1100
 20
1903.6399999999999
 11
1100
 21
1973.6399999999999
  0
LINE
  8
ADD_LINE
  6
DOT
 62
    9
 10
975
 20
1938.6399999999999
 11
1225
 21
1938.6399999999999
  0
LINE
  8
_0-8_
  6
CONTINUOUS
 62
    4
 10
975
 20
261.88599999999997
 11
1225
 21
261.88599999999997
  0
LINE
  8
_0-8_
  6
CONTINUOUS
 62
    4
 10
1225
 20
261.88599999999997
 11
1225
 21
331.8859999999998
  0
LINE
  8
_0-8_
  6
CONTINUOUS
 62
    4
 10
1225
 20
331.8859999999998
 11
975
 21
331.8859999999998
  0
LINE
  8
_0-8_
  6
CONTINUOUS
 62
    4
 10
975
 20
331.8859999999998
 11
975
 21
261.88599999999997
  0
LINE
  8
ADD_LINE
  6
DOT
 62
    9
 10
1100
 20
261.88599999999997
 11
1100
 21
331.8859999999998
  0
TEXT
  8
_0-8_
 62
    7
 10
1053.0000000000007
 20
279.3859999999998
 40
35
 41
0.8571428571428571
 50
0
  1
立面図
  0
LINE
  8
ADD_LINE
  6
DOT
 62
    9
 10
975
 20
296.8859999999998
 11
1225
 21
296.8859999999998
  0
LINE
  8
_0-2_
  6
CONTINUOUS
 62
    5
 10
2580.0000000000005
 20
1352.0000000000002
 11
3130
 21
1352.0000000000002
  0
LINE
  8
_0-2_
  6
CONTINUOUS
 62
    5
 10
2580.0000000000005
 20
1372.0000000000002
 11
2580.0000000000005
 21
1352.0000000000002
  0
ARC
  8
_0-2_
  6
CONTINUOUS
 62
    5
 10
2588
 20
1372.0000000000002
 40
8
 50
90
 51
180
  0
LINE
  8
_0-2_
  6
CONTINUOUS
 62
    5
 10
3130
 20
1469.9999999999998
 11
3130
 21
1352.0000000000002
  0
POINT
  8
_0-9_
 62
    3
 10
2261.6674015250046
 20
580
  0
POINT
  8
_0-9_
 62
    3
 10
2261.6674015250046
 20
1380
  0
LINE
  8
_0-9_
  6
CONTINUOUS
 62
    4
 10
2251.6674015250046
 20
580
 11
2538.1520228784852
 21
580
  0
LINE
  8
_0-9_
  6
CONTINUOUS
 62
    4
 10
2251.6674015250046
 20
1380
 11
2538.1520228784852
 21
1380
  0
LINE
  8
ADD_LINE
  6
DOT
 62
    9
 10
2421.6674015250046
 20
580.00001837158209
 11
2421.6674015250046
 21
526.02050038851996
  0
LINE
  8
ADD_LINE
  6
DOT
 62
    9
 10
2341.6674015250046
 20
580.00001837158209
 11
2341.6674015250046
 21
526.02050038851996
  0
LINE
  8
ADD_LINE
  6
DOT
 62
    9
 10
2261.6674015250046
 20
580.00001837158209
 11
2261.6674015250046
 21
526.02050038851996
  0
POINT
  8
_0-9_
 62
    3
 10
2341.6674015250046
 20
580
  0
POINT
  8
_0-9_
 62
    3
 10
2341.6674015250046
 20
669.99999999999989
  0
LINE
  8
_0-9_
  6
CONTINUOUS
 62
    4
 10
2331.6674015250046
 20
580
 11
2538.1520228784852
 21
580
  0
LINE
  8
_0-9_
  6
CONTINUOUS
 62
    4
 10
2331.6674015250046
 20
669.99999999999989
 11
2538.1520228784852
 21
669.99999999999989
  0
LINE
  8
_0-9_
  6
CONTINUOUS
 62
    4
 10
2331.6674015250046
 20
1380
 11
2538.1520228784852
 21
1380
  0
POINT
  8
_0-9_
 62
    3
 10
2421.6674015250046
 20
674.99999999999989
  0
LINE
  8
_0-9_
  6
CONTINUOUS
 62
    4
 10
2411.6674015250046
 20
669.99999999999989
 11
2538.1520228784852
 21
669.99999999999989
  0
LINE
  8
_0-9_
  6
CONTINUOUS
 62
    4
 10
2411.6674015250046
 20
674.99999999999989
 11
2538.1520228784852
 21
674.99999999999989
  0
LINE
  8
ADD_LINE
  6
DOT
 62
    9
 10
3105
 20
1469.9999999999998
 11
3105
 21
1379.9999999999998
  0
LINE
  8
ADD_LINE
  6
DOT
 62
    9
 10
3100.27
 20
1379.9999999999998
 11
3105
 21
1379.9999999999998
  0
LINE
  8
ADD_LINE
  6
DOT
 62
    9
 10
3110
 20
1469.9999999999998
 11
3110
 21
1352.0000000000002
  0
LINE
  8
ADD_LINE
  6
DOT
 62
    9
 10
3116.6200000000003
 20
1469.9999999999998
 11
3110
 21
1469.9999999999998
  0
LINE
  8
_0-2_
  6
CONTINUOUS
 62
    5
 10
3100.2700676729664
 20
1379.9999999999998
 11
2588
 21
1379.9999999999998
  0
ARC
  8
_0-2_
  6
CONTINUOUS
 62
    5
 10
3100.2700676729664
 20
1384.9999999999998
 40
5
 50
270
 51
356.82016988013578
  0
LINE
  8
_0-2_
  6
CONTINUOUS
 62
    5
 10
3109.6326827854086
 20
1463.3882901373572
 11
3105.262369438994
 21
1384.7226499018871
  0
LINE
  8
_0-2_
  6
CONTINUOUS
 62
    5
 10
3116.6219052578463
 20
1469.9999999999998
 11
3130
 21
1469.9999999999998
  0
ARC
  8
_0-2_
  6
CONTINUOUS
 62
    5
 10
3116.6219052578463
 20
1462.9999999999998
 40
7
 50
90
 51
176.82016988013578
  0
POINT
  8
_0-9_
 62
    3
 10
2580.0000000000005
 20
1776.5121313760806
  0
POINT
  8
_0-9_
 62
    3
 10
3130
 20
1776.5121313760806
  0
LINE
  8
_0-9_
  6
CONTINUOUS
 62
    4
 10
2580.0000000000005
 20
1786.5121313760806
 11
2580.0000000000005
 21
1502.2073875056083
  0
LINE
  8
_0-9_
  6
CONTINUOUS
 62
    4
 10
3130
 20
1786.5121313760806
 11
3130
 21
1502.2073875056083
  0
LINE
  8
ADD_LINE
  6
DOT
 62
    9
 10
3129.9999929199221
 20
1776.5121313760806
 11
3183.9795109029837
 21
1776.5121313760806
  0
LINE
  8
ADD_LINE
  6
DOT
 62
    9
 10
3129.9999929199221
 20
1696.5121313760806
 11
3183.9795109029837
 21
1696.5121313760806
  0
LINE
  8
ADD_LINE
  6
DOT
 62
    9
 10
3129.9999929199221
 20
1616.5121313760806
 11
3183.9795109029837
 21
1616.5121313760806
  0
POINT
  8
_0-9_
 62
    3
 10
3110
 20
1616.5121313760806
  0
POINT
  8
_0-9_
 62
    3
 10
3129.9999929199221
 20
1616.5121313760806
  0
LINE
  8
_0-9_
  6
CONTINUOUS
 62
    4
 10
3110
 20
1626.5121313760806
 11
3110
 21
1502.2073875056083
  0
LINE
  8
_0-9_
  6
CONTINUOUS
 62
    4
 10
3129.9999929199221
 20
1626.5121313760806
 11
3129.9999929199221
 21
1502.2073875056083
  0
POINT
  8
_0-9_
 62
    3
 10
3105
 20
1696.5121313760806
  0
POINT
  8
_0-9_
 62
    3
 10
3130
 20
1696.5121313760806
  0
LINE
  8
_0-9_
  6
CONTINUOUS
 62
    4
 10
3105
 20
1706.5121313760806
 11
3105
 21
1502.2073875056083
  0
LINE
  8
_0-9_
  6
CONTINUOUS
 62
    4
 10
3130
 20
1706.5121313760806
 11
3130
 21
1502.2073875056083
  0
LINE
  8
_0-9_
  6
CONTINUOUS
 62
    4
 10
3130
 20
1696.5121313760806
 11
3174.0018902811903
 21
1696.5121313760806
  0
LINE
  8
_0-9_
  6
CONTINUOUS
 62
    4
 10
3129.9999929199221
 20
1616.5121313760806
 11
3173.2713286586481
 21
1616.5121313760806
  0
POINT
  8
_0-9_
 62
    3
 10
3294.5527025351175
 20
580
  0
POINT
  8
_0-9_
 62
    3
 10
3294.5527025351175
 20
1469.9999999999998
  0
LINE
  8
_0-9_
  6
CONTINUOUS
 62
    4
 10
3304.5527025351175
 20
580
 11
3171.5440126943508
 21
580
  0
LINE
  8
_0-9_
  6
CONTINUOUS
 62
    4
 10
3304.5527025351175
 20
1469.9999999999998
 11
3171.5440126943508
 21
1469.9999999999998
  0
LINE
  8
_0-9_
  6
CONTINUOUS
 62
    4
 10
2261.6674015250046
 20
580
 11
2261.6674015250046
 21
1380
  0
TEXT
  8
_0-9_
 62
    7
 10
2261.6674015250046
 20
946.89999999999998
 40
35
 41
0.6285714285714286
 50
90
  1
８００
  0
LINE
  8
_0-9_
  6
CONTINUOUS
 62
    4
 10
2341.6674015250046
 20
580
 11
2341.6674015250046
 21
669.99999999999989
  0
TEXT
  8
_0-9_
 62
    7
 10
2341.6674015250046
 20
602.94999999999982
 40
35
 41
0.6285714285714286
 50
90
  1
９０
  0
LINE
  8
_0-9_
  6
CONTINUOUS
 62
    4
 10
2580.0000000000005
 20
1776.5121313760806
 11
3130
 21
1776.5121313760806
  0
TEXT
  8
_0-9_
 62
    7
 10
2821.9000000000005
 20
1776.5121313760806
 40
35
 41
0.6285714285714286
 50
0
  1
５５０
  0
LINE
  8
_0-9_
  6
CONTINUOUS
 62
    4
 10
3110
 20
1616.5121313760806
 11
3129.9999929199221
 21
1616.5121313760806
  0
TEXT
  8
_0-9_
 62
    7
 10
3131.1308840387519
 20
1616.5121313760806
 40
35
 41
0.6285714285714286
 50
0
  1
２０
  0
LINE
  8
_0-9_
  6
CONTINUOUS
 62
    4
 10
3105
 20
1696.5121313760806
 11
3130
 21
1696.5121313760806
  0
TEXT
  8
_0-9_
 62
    7
 10
3129.669760793668
 20
1696.5121313760806
 40
35
 41
0.6285714285714286
 50
0
  1
２５
  0
LINE
  8
_0-9_
  6
CONTINUOUS
 62
    4
 10
3294.5527025351175
 20
580
 11
3294.5527025351175
 21
1469.9999999999998
  0
TEXT
  8
_0-9_
 62
    7
 10
3294.5527025351175
 20
991.89999999999986
 40
35
 41
0.6285714285714286
 50
90
  1
８９０
  0
LINE
  8
_0-8_
  6
CONTINUOUS
 62
    4
 10
2732.5000000000005
 20
261.88599999999997
 11
2982.5
 21
261.88599999999997
  0
LINE
  8
_0-8_
  6
CONTINUOUS
 62
    4
 10
2982.5
 20
261.88599999999997
 11
2982.5
 21
331.88599999999997
  0
LINE
  8
_0-8_
  6
CONTINUOUS
 62
    4
 10
2982.5
 20
331.88599999999997
 11
2732.5000000000005
 21
331.88599999999997
  0
LINE
  8
_0-8_
  6
CONTINUOUS
 62
    4
 10
2732.5000000000005
 20
331.88599999999997
 11
2732.5000000000005
 21
261.88599999999997
  0
LINE
  8
ADD_LINE
  6
DOT
 62
    9
 10
2857.4970000000003
 20
261.88599999999997
 11
2857.4970000000003
 21
331.88599999999997
  0
TEXT
  8
_0-8_
 62
    7
 10
2810.4969999999998
 20
279.38599999999997
 40
35
 41
0.8571428571428571
 50
0
  1
断面図
  0
LINE
  8
ADD_LINE
  6
DOT
 62
    9
 10
2732.4970000000003
 20
296.88599999999997
 11
2982.4970000000003
 21
296.88599999999997
  0
LINE
  8
_0-2_
  6
CONTINUOUS
 62
    5
 10
800
 20
2610
 11
800
 21
2060
  0
POINT
  8
_0-9_
 62
    3
 10
800
 20
2749.5350085356249
  0
LINE
  8
_0-9_
  6
CONTINUOUS
 62
    4
 10
800
 20
2759.5350085356249
 11
800
 21
2625.1644127179247
  0
LINE
  8
_0-2_
  6
CONTINUOUS
 62
    5
 10
1400
 20
2610
 11
1400
 21
2060
  0
POINT
  8
_0-9_
 62
    3
 10
1400
 20
2749.5350085356249
  0
LINE
  8
_0-9_
  6
CONTINUOUS
 62
    4
 10
1400
 20
2759.5350085356249
 11
1400
 21
2625.1644127179247
  0
POINT
  8
_0-9_
 62
    3
 10
1701
 20
2060
  0
POINT
  8
_0-9_
 62
    3
 10
1701
 20
2610
  0
LINE
  8
_0-9_
  6
CONTINUOUS
 62
    4
 10
1711
 20
2060
 11
1438.828941279573
 21
2060
  0
LINE
  8
_0-9_
  6
CONTINUOUS
 62
    4
 10
1711
 20
2610
 11
1438.828941279573
 21
2610
  0
LINE
  8
ADD_LINE
  6
DOT
 62
    9
 10
1701
 20
2610
 11
1701
 21
2692.167248853355
  0
LINE
  8
ADD_LINE
  6
DOT
 62
    9
 10
1621
 20
2610
 11
1621
 21
2692.167248853355
  0
POINT
  8
_0-9_
 62
    3
 10
1621
 20
2585
  0
POINT
  8
_0-9_
 62
    3
 10
1621
 20
2610
  0
LINE
  8
_0-9_
  6
CONTINUOUS
 62
    4
 10
1631
 20
2585
 11
1438.828941279573
 21
2585
  0
LINE
  8
_0-9_
  6
CONTINUOUS
 62
    4
 10
1631
 20
2610
 11
1438.828941279573
 21
2610
  0
LINE
  8
_0-9_
  6
CONTINUOUS
 62
    4
 10
1621
 20
2610
 11
1621
 21
2653.1741041155456
  0
LINE
  8
_0-9_
  6
CONTINUOUS
 62
    4
 10
1701
 20
2060
 11
1701
 21
2610
  0
TEXT
  8
_0-9_
 62
    7
 10
1701
 20
2301.9000000000001
 40
35
 41
0.6285714285714286
 50
90
  1
５５０
  0
LINE
  8
_0-2_
  6
CONTINUOUS
 62
    5
 10
1400
 20
2060
 11
800
 21
2060
  0
LINE
  8
_0-2_
  6
CONTINUOUS
 62
    5
 10
1400
 20
2585
 11
800
 21
2585
  0
LINE
  8
_0-2_
  6
CONTINUOUS
 62
    5
 10
1400
 20
2610
 11
800
 21
2610
  0
LINE
  8
_0-9_
  6
CONTINUOUS
 62
    4
 10
800
 20
2749.5350085356249
 11
1400
 21
2749.5350085356249
  0
TEXT
  8
_0-9_
 62
    7
 10
1066.9000000000001
 20
2749.5350085356249
 40
35
 41
0.6285714285714286
 50
0
  1
６００
  0
LINE
  8
_0-2_
  6
CONTINUOUS
 62
    5
 10
800
 20
1469.9999999999998
 11
800
 21
1352.0000000000002
  0
POINT
  8
_0-9_
 62
    3
 10
800
 20
1635.0230020192271
  0
LINE
  8
_0-9_
  6
CONTINUOUS
 62
    4
 10
800
 20
1645.0230020192271
 11
800
 21
1503.8849441254413
  0
LINE
  8
_0-4_
  6
CONTINUOUS
 62
    3
 10
1099.5
 20
674.99999999999989
 11
805.50000000000011
 21
674.99999999999989
  0
LINE
  8
_0-2_
  6
CONTINUOUS
 62
    5
 10
1400
 20
1469.9999999999998
 11
1400
 21
1352.0000000000002
  0
POINT
  8
_0-9_
 62
    3
 10
1400
 20
1635.0230020192271
  0
LINE
  8
_0-9_
  6
CONTINUOUS
 62
    4
 10
1400
 20
1645.0230020192271
 11
1400
 21
1503.8849441254413
  0
LINE
  8
ADD_LINE
  6
DOT
 62
    9
 10
1701
 20
580.00001837158209
 11
1701
 21
526.02050038851996
  0
LINE
  8
ADD_LINE
  6
DOT
 62
    9
 10
1621
 20
580.00001837158209
 11
1621
 21
526.02050038851996
  0
LINE
  8
ADD_LINE
  6
DOT
 62
    9
 10
1541
 20
580.00001837158209
 11
1541
 21
526.02050038851996
  0
POINT
  8
_0-9_
 62
    3
 10
1701
 20
580
  0
POINT
  8
_0-9_
 62
    3
 10
1701
 20
1379.9999999999998
  0
LINE
  8
_0-9_
  6
CONTINUOUS
 62
    4
 10
1711
 20
580
 11
1431.3913793989086
 21
580
  0
LINE
  8
_0-9_
  6
CONTINUOUS
 62
    4
 10
1711
 20
1379.9999999999998
 11
1431.3913793989086
 21
1379.9999999999998
  0
POINT
  8
_0-9_
 62
    3
 10
1701
 20
1469.9999999999998
  0
LINE
  8
_0-9_
  6
CONTINUOUS
 62
    4
 10
1711
 20
1469.9999999999998
 11
1431.3913793989086
 21
1469.9999999999998
  0
POINT
  8
_0-9_
 62
    3
 10
1621
 20
580
  0
POINT
  8
_0-9_
 62
    3
 10
1621
 20
669.99999999999989
  0
LINE
  8
_0-9_
  6
CONTINUOUS
 62
    4
 10
1631
 20
580
 11
1431.3913793989086
 21
580
  0
LINE
  8
_0-9_
  6
CONTINUOUS
 62
    4
 10
1631
 20
669.99999999999989
 11
1431.3913793989086
 21
669.99999999999989
  0
LINE
  8
_0-9_
  6
CONTINUOUS
 62
    4
 10
1631
 20
1379.9999999999998
 11
1431.3913793989086
 21
1379.9999999999998
  0
POINT
  8
_0-9_
 62
    3
 10
1541
 20
674.99999999999989
  0
LINE
  8
_0-9_
  6
CONTINUOUS
 62
    4
 10
1551
 20
669.99999999999989
 11
1431.3913793989086
 21
669.99999999999989
  0
LINE
  8
_0-9_
  6
CONTINUOUS
 62
    4
 10
1551
 20
674.99999999999989
 11
1431.3913793989086
 21
674.99999999999989
  0
LINE
  8
_0-9_
  6
CONTINUOUS
 62
    4
 10
1701
 20
580
 11
1701
 21
1379.9999999999998
  0
TEXT
  8
_0-9_
 62
    7
 10
1701
 20
946.89999999999986
 40
35
 41
0.6285714285714286
 50
90
  1
８００
  0
LINE
  8
_0-9_
  6
CONTINUOUS
 62
    4
 10
1701
 20
1379.9999999999998
 11
1701
 21
1469.9999999999998
  0
TEXT
  8
_0-9_
 62
    7
 10
1701
 20
1402.9499999999996
 40
35
 41
0.6285714285714286
 50
90
  1
９０
  0
LINE
  8
_0-9_
  6
CONTINUOUS
 62
    4
 10
1621
 20
580
 11
1621
 21
669.99999999999989
  0
TEXT
  8
_0-9_
 62
    7
 10
1621
 20
602.94999999999982
 40
35
 41
0.6285714285714286
 50
90
  1
９０
  0
LINE
  8
_0-4_
  6
CONTINUOUS
 62
    3
 10
1100.5
 20
674.99999999999989
 11
1394.5
 21
674.99999999999989
  0
LINE
  8
_0-2_
  6
CONTINUOUS
 62
    5
 10
1400
 20
1352.0000000000002
 11
800
 21
1352.0000000000002
  0
LINE
  8
_0-2_
  6
CONTINUOUS
 62
    5
 10
1400
 20
1379.9999999999998
 11
800
 21
1379.9999999999998
  0
LINE
  8
_0-2_
  6
CONTINUOUS
 62
    5
 10
1400
 20
1469.9999999999998
 11
800
 21
1469.9999999999998
  0
LINE
  8
_0-9_
  6
CONTINUOUS
 62
    4
 10
800
 20
1635.0230020192271
 11
1400
 21
1635.0230020192271
  0
TEXT
  8
_0-9_
 62
    7
 10
1066.9000000000001
 20
1635.0230020192271
 40
35
 41
0.6285714285714286
 50
0
  1
６００
  0
TEXT
  8
_f-8_
 62
    7
 10
959
 20
137.5
 40
45
 41
0.8
 50
0
  1
調理台
  0
POINT
  8
_0-9_
 62
    3
 10
2421.6674015250046
 20
1349
  0
LINE
  8
_0-9_
  6
CONTINUOUS
 62
    4
 10
2411.6674015250046
 20
1349
 11
2538.1520228784852
 21
1349
  0
ARC
  8
_0-5_
  6
CONTINUOUS
 62
    4
 10
2604.5999999999999
 20
1347.0000000000002
 40
2
 50
0.0000000000000127
 51
90.000000000000028
  0
ARC
  8
_0-5_
  6
CONTINUOUS
 62
    4
 10
2604.5999999999999
 20
1347.0000000000002
 40
0.7000000000000001
 50
0
 51
90
  0
LINE
  8
_0-5_
  6
CONTINUOUS
 62
    4
 10
2606.6000000000004
 20
1305
 11
2606.6000000000004
 21
1347.0000000000002
  0
ARC
  8
_0-5_
  6
CONTINUOUS
 62
    4
 10
2606.1000000000004
 20
1305
 40
0.5
 50
270
 51
0
  0
ARC
  8
_0-5_
  6
CONTINUOUS
 62
    4
 10
2605.8000000000002
 20
1305.3
 40
0.8000000000000001
 50
128.68218745349333
 51
270
  0
LINE
  8
_0-5_
  6
CONTINUOUS
 62
    4
 10
2606.1000000000004
 20
1304.5000000000002
 11
2605.8000000000002
 21
1304.5000000000002
  0
LINE
  8
_0-5_
  6
CONTINUOUS
 62
    4
 10
2605.3000000000011
 20
1313.2755002001602
 11
2605.3000000000011
 21
1305.9244997998396
  0
ARC
  8
_0-5_
  6
CONTINUOUS
 62
    4
 10
2605.8000000000002
 20
1313.9000000000001
 40
0.8000000000000001
 50
128.68218745349336
 51
231.31781254650664
  0
LINE
  8
_0-5_
  6
CONTINUOUS
 62
    4
 10
2605.3000000000011
 20
1318.7
 11
2605.3000000000011
 21
1314.5244997998398
  0
ARC
  8
_0-5_
  6
CONTINUOUS
 62
    4
 10
2605.0000000000005
 20
1318.7
 40
0.3
 50
0.0000000000000127
 51
90.000000000000014
  0
LINE
  8
_0-5_
  6
CONTINUOUS
 62
    4
 10
2605.3000000000011
 20
1322.4496126617748
 11
2605.3000000000011
 21
1347.0000000000002
  0
ARC
  8
_0-5_
  6
CONTINUOUS
 62
    4
 10
2604.3000000000002
 20
1322.4496126617748
 40
1
 50
272.96093613416372
 51
0
  0
ARC
  8
_0-5_
  6
CONTINUOUS
 62
    4
 10
2591.5000000000005
 20
1313.8000000000002
 40
0.8000000000000001
 50
180
 51
359.99999999999994
  0
LINE
  8
_0-5_
  6
CONTINUOUS
 62
    4
 10
2593.8285714285721
 20
1349
 11
2604.5999999999999
 21
1349
  0
ARC
  8
_0-5_
  6
CONTINUOUS
 62
    4
 10
2593.8285714285721
 20
1347.0000000000002
 40
2
 50
90.000000000000014
 51
161.07535558394952
  0
ARC
  8
_0-5_
  6
CONTINUOUS
 62
    4
 10
2593.8285714285721
 20
1347.0000000000002
 40
0.7000000000000001
 50
90
 51
161.07535558395003
  0
LINE
  8
_0-5_
  6
CONTINUOUS
 62
    4
 10
2604.5999999999999
 20
1347.7
 11
2593.8285714285721
 21
1347.7
  0
LINE
  8
_0-5_
  6
CONTINUOUS
 62
    4
 10
2593.1664092664091
 20
1347.2270270270271
 11
2592.0375798523669
 21
1343.9346079027359
  0
ARC
  8
_0-5_
  6
CONTINUOUS
 62
    4
 10
2592.2267690415556
 20
1343.8697430378713
 40
0.2
 50
161.07535558394702
 51
226.45103723177709
  0
ARC
  8
_0-5_
  6
CONTINUOUS
 62
    4
 10
2591.4000000000005
 20
1343.0000000000005
 40
1
 50
161.07535558395028
 51
46.451037231780077
  0
LINE
  8
_0-5_
  6
CONTINUOUS
 62
    4
 10
2591.93667953668
 20
1347.6486486486488
 11
2590.4540540540547
 21
1343.3243243243246
  0
LINE
  8
_0-5_
  6
CONTINUOUS
 62
    4
 10
2592.2999999999997
 20
1318.7
 11
2592.2999999999997
 21
1313.8000000000002
  0
ARC
  8
_0-5_
  6
CONTINUOUS
 62
    4
 10
2592.6000000000004
 20
1318.7
 40
0.3
 50
90
 51
180
  0
LINE
  8
_0-5_
  6
CONTINUOUS
 62
    4
 10
2605.0000000000005
 20
1319
 11
2592.6000000000004
 21
1319
  0
LINE
  8
_0-5_
  6
CONTINUOUS
 62
    4
 10
2590.7000000000007
 20
1319.6503873382255
 11
2590.7000000000007
 21
1313.8000000000002
  0
ARC
  8
_0-5_
  6
CONTINUOUS
 62
    4
 10
2591.7000000000003
 20
1319.6503873382255
 40
1
 50
92.960936134163759
 51
180
  0
LINE
  8
_0-5_
  6
CONTINUOUS
 62
    4
 10
2604.3516550854283
 20
1321.4509476768328
 11
2591.6483449145717
 21
1320.6490523231676
  0
LINE
  8
ADD_LINE
  6
DOT
 62
    9
 10
2592.4884681165067
 20
1313.0000000000005
 11
2590.3827734741999
 21
1313.0000000000005
  0
LINE
  8
ADD_LINE
  6
DOT
 62
    9
 10
2590.7000000000007
 20
1319.6503873382255
 11
2590.7000000000007
 21
1320.6000000000029
  0
LINE
  8
ADD_LINE
  6
DOT
 62
    9
 10
2591.6483449145717
 20
1320.6490523231676
 11
2590.7000000000007
 21
1320.6000000000029
  0
LINE
  8
ADD_LINE
  6
DOT
 62
    9
 10
2593.8493185782872
 20
1342.0000000000002
 11
2588.7279115660062
 21
1342.0000000000002
  0
ARC
  8
_0-5_
  6
CONTINUOUS
 62
    4
 10
1103.5
 20
1345
 40
3.0000000000000004
 50
180
 51
270
  0
ARC
  8
_0-5_
  6
CONTINUOUS
 62
    4
 10
1096.5
 20
1345
 40
3.0000000000000004
 50
270
 51
0
  0
ARC
  8
_0-5_
  6
CONTINUOUS
 62
    4
 10
808.5
 20
1345
 40
3.0000000000000004
 50
180
 51
270
  0
LINE
  8
_0-5_
  6
CONTINUOUS
 62
    4
 10
1096.5
 20
1342
 11
808.5
 21
1342
  0
LINE
  8
_0-5_
  6
CONTINUOUS
 62
    4
 10
805.50000000000011
 20
1313.0000000000005
 11
1099.5
 21
1313.0000000000005
  0
LINE
  8
_0-5_
  6
CONTINUOUS
 62
    4
 10
805.50000000000011
 20
1320.6000000000029
 11
1099.5
 21
1320.6000000000029
  0
LINE
  8
_0-4_
  6
CONTINUOUS
 62
    3
 10
805.50000000000011
 20
1349
 11
1099.5
 21
1349
  0
POINT
  8
_0-9_
 62
    3
 10
1541
 20
1349
  0
LINE
  8
_0-9_
  6
CONTINUOUS
 62
    4
 10
1551
 20
1349
 11
1431.3913793989086
 21
1349
  0
POINT
  8
_0-9_
 62
    3
 10
1541
 20
1349
  0
LINE
  8
_0-9_
  6
CONTINUOUS
 62
    4
 10
1551
 20
1349
 11
1431.3913793989086
 21
1349
  0
ARC
  8
_0-5_
  6
CONTINUOUS
 62
    4
 10
1391.5
 20
1345
 40
3.0000000000000004
 50
270
 51
0
  0
LINE
  8
_0-5_
  6
CONTINUOUS
 62
    4
 10
1103.5
 20
1342
 11
1391.5
 21
1342
  0
LINE
  8
_0-5_
  6
CONTINUOUS
 62
    4
 10
1394.5
 20
1313.0000000000005
 11
1100.5
 21
1313.0000000000005
  0
LINE
  8
_0-5_
  6
CONTINUOUS
 62
    4
 10
1394.5
 20
1320.6000000000029
 11
1100.5
 21
1320.6000000000029
  0
LINE
  8
_0-4_
  6
CONTINUOUS
 62
    3
 10
1394.5
 20
1349
 11
1100.5
 21
1349
  0
POINT
  8
_0-9_
 62
    3
 10
2421.6674015250046
 20
1178.9999999999998
  0
LINE
  8
_0-9_
  6
CONTINUOUS
 62
    4
 10
2411.6674015250046
 20
1178.9999999999998
 11
2538.1520228784852
 21
1178.9999999999998
  0
LINE
  8
_0-4_
  6
CONTINUOUS
 62
    3
 10
1099.5
 20
1178.9999999999998
 11
805.50000000000011
 21
1178.9999999999998
  0
POINT
  8
_0-9_
 62
    3
 10
1541
 20
1178.9999999999998
  0
LINE
  8
_0-9_
  6
CONTINUOUS
 62
    4
 10
1551
 20
1178.9999999999998
 11
1431.3913793989086
 21
1178.9999999999998
  0
LINE
  8
_0-4_
  6
CONTINUOUS
 62
    3
 10
1100.5
 20
1178.9999999999998
 11
1394.5
 21
1178.9999999999998
  0
LINE
  8
_0-9_
  6
CONTINUOUS
 62
    4
 10
2421.6674015250046
 20
1178.9999999999998
 11
2421.6674015250046
 21
1349
  0
TEXT
  8
_0-9_
 62
    7
 10
2421.6674015250046
 20
1230.9000000000001
 40
35
 41
0.6285714285714286
 50
90
  1
１７０
  0
LINE
  8
_0-9_
  6
CONTINUOUS
 62
    4
 10
1541
 20
1178.9999999999998
 11
1541
 21
1349
  0
TEXT
  8
_0-9_
 62
    7
 10
1541
 20
1230.9000000000001
 40
35
 41
0.6285714285714286
 50
90
  1
１７０
  0
LINE
  8
_0-4_
  6
CONTINUOUS
 62
    3
 10
1394.5
 20
1349
 11
1394.5
 21
1178.9999999999998
  0
LINE
  8
_0-4_
  6
CONTINUOUS
 62
    3
 10
1100.5
 20
1349
 11
1100.5
 21
1178.9999999999998
  0
LINE
  8
_0-4_
  6
CONTINUOUS
 62
    3
 10
1099.5
 20
1349
 11
1099.5
 21
1178.9999999999998
  0
LINE
  8
_0-4_
  6
CONTINUOUS
 62
    3
 10
805.50000000000011
 20
1349
 11
805.50000000000011
 21
1178.9999999999998
  0
ARC
  8
_0-5_
  6
CONTINUOUS
 62
    4
 10
1103.5
 20
1171
 40
3.0000000000000004
 50
180
 51
270
  0
ARC
  8
_0-5_
  6
CONTINUOUS
 62
    4
 10
1096.5
 20
1171
 40
3.0000000000000004
 50
270
 51
0
  0
ARC
  8
_0-5_
  6
CONTINUOUS
 62
    4
 10
808.5
 20
1171
 40
3.0000000000000004
 50
180
 51
270
  0
LINE
  8
_0-5_
  6
CONTINUOUS
 62
    4
 10
1096.5
 20
1168
 11
808.5
 21
1168
  0
LINE
  8
_0-5_
  6
CONTINUOUS
 62
    4
 10
805.50000000000011
 20
1139.0000000000005
 11
1099.5
 21
1139.0000000000005
  0
LINE
  8
_0-5_
  6
CONTINUOUS
 62
    4
 10
805.50000000000011
 20
1146.6000000000029
 11
1099.5
 21
1146.6000000000029
  0
LINE
  8
_0-4_
  6
CONTINUOUS
 62
    3
 10
1099.5
 20
1175
 11
805.50000000000011
 21
1175
  0
POINT
  8
_0-9_
 62
    3
 10
1541
 20
1175
  0
LINE
  8
_0-9_
  6
CONTINUOUS
 62
    4
 10
1551
 20
1175
 11
1431.3913793989086
 21
1175
  0
ARC
  8
_0-5_
  6
CONTINUOUS
 62
    4
 10
1391.5
 20
1171
 40
3.0000000000000004
 50
270
 51
0
  0
LINE
  8
_0-5_
  6
CONTINUOUS
 62
    4
 10
1103.5
 20
1168
 11
1391.5
 21
1168
  0
LINE
  8
_0-5_
  6
CONTINUOUS
 62
    4
 10
1394.5
 20
1139.0000000000005
 11
1100.5
 21
1139.0000000000005
  0
LINE
  8
_0-5_
  6
CONTINUOUS
 62
    4
 10
1394.5
 20
1146.6000000000029
 11
1100.5
 21
1146.6000000000029
  0
LINE
  8
_0-4_
  6
CONTINUOUS
 62
    3
 10
1100.5
 20
1175
 11
1394.5
 21
1175
  0
LINE
  8
_0-4_
  6
CONTINUOUS
 62
    3
 10
1394.5
 20
1175
 11
1394.5
 21
674.99999999999989
  0
LINE
  8
_0-4_
  6
CONTINUOUS
 62
    3
 10
1100.5
 20
1175
 11
1100.5
 21
674.99999999999989
  0
LINE
  8
_0-4_
  6
CONTINUOUS
 62
    3
 10
1099.5
 20
1175
 11
1099.5
 21
674.99999999999989
  0
LINE
  8
_0-4_
  6
CONTINUOUS
 62
    3
 10
805.50000000000011
 20
1175
 11
805.50000000000011
 21
674.99999999999989
  0
LINE
  8
_0-5_
  6
CENTER2
 62
    4
 10
1099.5
 20
1175
 11
805.50000000000011
 21
925
  0
LINE
  8
_0-5_
  6
CENTER2
 62
    4
 10
805.50000000000011
 20
925
 11
1099.5
 21
674.99999999999989
  0
LINE
  8
_0-5_
  6
CENTER2
 62
    4
 10
1100.5
 20
674.99999999999989
 11
1394.5
 21
925
  0
LINE
  8
_0-5_
  6
CENTER2
 62
    4
 10
1394.5
 20
925
 11
1100.5
 21
1175
  0
POINT
  8
_0-9_
 62
    3
 10
2421.6674015250046
 20
1175
  0
LINE
  8
_0-9_
  6
CONTINUOUS
 62
    4
 10
2411.6674015250046
 20
1175
 11
2538.1520228784852
 21
1175
  0
ARC
  8
_0-5_
  6
CONTINUOUS
 62
    4
 10
2604.5999999999999
 20
1173
 40
2
 50
0.0000000000000127
 51
90.000000000000028
  0
ARC
  8
_0-5_
  6
CONTINUOUS
 62
    4
 10
2604.5999999999999
 20
1173
 40
0.7000000000000001
 50
0
 51
90
  0
LINE
  8
_0-5_
  6
CONTINUOUS
 62
    4
 10
2606.6000000000004
 20
1130.9999999999998
 11
2606.6000000000004
 21
1173
  0
ARC
  8
_0-5_
  6
CONTINUOUS
 62
    4
 10
2606.1000000000004
 20
1130.9999999999998
 40
0.5
 50
270
 51
0
  0
ARC
  8
_0-5_
  6
CONTINUOUS
 62
    4
 10
2605.8000000000002
 20
1131.3
 40
0.8000000000000001
 50
128.68218745349333
 51
270
  0
LINE
  8
_0-5_
  6
CONTINUOUS
 62
    4
 10
2606.1000000000004
 20
1130.5
 11
2605.8000000000002
 21
1130.5
  0
LINE
  8
_0-5_
  6
CONTINUOUS
 62
    4
 10
2605.3000000000011
 20
1139.2755002001602
 11
2605.3000000000011
 21
1131.9244997998396
  0
ARC
  8
_0-5_
  6
CONTINUOUS
 62
    4
 10
2605.8000000000002
 20
1139.9000000000001
 40
0.8000000000000001
 50
128.68218745349336
 51
231.31781254650664
  0
LINE
  8
_0-5_
  6
CONTINUOUS
 62
    4
 10
2605.3000000000011
 20
1144.7
 11
2605.3000000000011
 21
1140.5244997998398
  0
ARC
  8
_0-5_
  6
CONTINUOUS
 62
    4
 10
2605.0000000000005
 20
1144.7
 40
0.3
 50
0.0000000000000127
 51
90.000000000000014
  0
LINE
  8
_0-5_
  6
CONTINUOUS
 62
    4
 10
2605.3000000000011
 20
1148.4496126617748
 11
2605.3000000000011
 21
1173
  0
ARC
  8
_0-5_
  6
CONTINUOUS
 62
    4
 10
2604.3000000000002
 20
1148.4496126617748
 40
1
 50
272.96093613416372
 51
0
  0
ARC
  8
_0-5_
  6
CONTINUOUS
 62
    4
 10
2591.5000000000005
 20
1139.8000000000002
 40
0.8000000000000001
 50
180
 51
359.99999999999994
  0
LINE
  8
_0-5_
  6
CONTINUOUS
 62
    4
 10
2593.8285714285721
 20
1175
 11
2604.5999999999999
 21
1175
  0
ARC
  8
_0-5_
  6
CONTINUOUS
 62
    4
 10
2593.8285714285721
 20
1173
 40
2
 50
90.000000000000014
 51
161.07535558394952
  0
ARC
  8
_0-5_
  6
CONTINUOUS
 62
    4
 10
2593.8285714285721
 20
1173
 40
0.7000000000000001
 50
90
 51
161.07535558395003
  0
LINE
  8
_0-5_
  6
CONTINUOUS
 62
    4
 10
2604.5999999999999
 20
1173.7
 11
2593.8285714285721
 21
1173.7
  0
LINE
  8
_0-5_
  6
CONTINUOUS
 62
    4
 10
2593.1664092664091
 20
1173.2270270270271
 11
2592.0375798523669
 21
1169.9346079027357
  0
ARC
  8
_0-5_
  6
CONTINUOUS
 62
    4
 10
2592.2267690415556
 20
1169.8697430378711
 40
0.2
 50
161.07535558394702
 51
226.45103723177709
  0
ARC
  8
_0-5_
  6
CONTINUOUS
 62
    4
 10
2591.4000000000005
 20
1169.0000000000002
 40
1
 50
161.07535558395028
 51
46.451037231780077
  0
LINE
  8
_0-5_
  6
CONTINUOUS
 62
    4
 10
2591.93667953668
 20
1173.6486486486485
 11
2590.4540540540547
 21
1169.3243243243244
  0
LINE
  8
_0-5_
  6
CONTINUOUS
 62
    4
 10
2592.2999999999997
 20
1144.7
 11
2592.2999999999997
 21
1139.8000000000002
  0
ARC
  8
_0-5_
  6
CONTINUOUS
 62
    4
 10
2592.6000000000004
 20
1144.7
 40
0.3
 50
90
 51
180
  0
LINE
  8
_0-5_
  6
CONTINUOUS
 62
    4
 10
2605.0000000000005
 20
1145
 11
2592.6000000000004
 21
1145
  0
LINE
  8
_0-5_
  6
CONTINUOUS
 62
    4
 10
2590.7000000000007
 20
1145.6503873382255
 11
2590.7000000000007
 21
1139.8000000000002
  0
ARC
  8
_0-5_
  6
CONTINUOUS
 62
    4
 10
2591.7000000000003
 20
1145.6503873382255
 40
1
 50
92.960936134163759
 51
180
  0
LINE
  8
_0-5_
  6
CONTINUOUS
 62
    4
 10
2604.3516550854283
 20
1147.4509476768326
 11
2591.6483449145717
 21
1146.6490523231676
  0
LINE
  8
ADD_LINE
  6
DOT
 62
    9
 10
2592.4884681165067
 20
1139.0000000000002
 11
2590.3827734741999
 21
1139.0000000000002
  0
LINE
  8
ADD_LINE
  6
DOT
 62
    9
 10
2590.7000000000007
 20
1145.6503873382255
 11
2590.7000000000007
 21
1146.6000000000029
  0
LINE
  8
ADD_LINE
  6
DOT
 62
    9
 10
2591.6483449145717
 20
1146.6490523231676
 11
2590.7000000000007
 21
1146.6000000000029
  0
LINE
  8
ADD_LINE
  6
DOT
 62
    9
 10
2593.8493185782872
 20
1168
 11
2588.7279115660062
 21
1168
  0
POINT
  8
_0-9_
 62
    9
 10
1621
 20
1352.0000000000002
  0
POINT
  8
_0-9_
 62
    9
 10
1621
 20
1379.9999999999998
  0
LINE
  8
_0-9_
  6
CONTINUOUS
 62
    9
 10
1621
 20
1379.9999999999998
 11
1621
 21
1431.613257785501
  0
LINE
  8
_0-9_
  6
CONTINUOUS
 62
    9
 10
1621
 20
1352.0000000000002
 11
1621
 21
1379.9999999999998
  0
TEXT
  8
_0-9_
 62
    1
 10
1621
 20
1382.3897222137443
 40
35
 41
0.6285714285714286
 50
90
  1
２８
  0
LINE
  8
_0-9_
  6
CONTINUOUS
 62
    9
 10
1621
 20
669.99999999999989
 11
1621
 21
1352.0000000000002
  0
TEXT
  8
_0-9_
 62
    1
 10
1621
 20
977.89999999999986
 40
35
 41
0.6285714285714286
 50
90
  1
６８２
  0
LINE
  8
_0-e_
  6
CONTINUOUS
 62
    9
 10
1631
 20
1352.0000000000002
 11
1431.3913793989086
 21
1352.0000000000002
  0
LINE
  8
ADD_LINE
  6
DOT
 62
    9
 10
748.02048201693788
 20
472.08277206296657
 11
802.5
 21
472.08277206296657
  0
LINE
  8
_0-9_
  6
CONTINUOUS
 62
    9
 10
802.5
 20
472.08277206296657
 11
738.16570351445853
 21
472.08277206296657
  0
POINT
  8
_0-9_
 62
    9
 10
802.5
 20
472.08277206296657
  0
LINE
  8
_0-9_
  6
CONTINUOUS
 62
    9
 10
1397.5
 20
472.08277206296657
 11
1466.1911623996702
 21
472.08277206296657
  0
LINE
  8
_0-9_
  6
CONTINUOUS
 62
    9
 10
1099.498231082745
 20
472.08277206296657
 11
1100.501768917255
 21
472.08277206296657
  0
TEXT
  8
_0-9_
 62
    1
 10
1070.7566808663382
 20
472.08277206296657
 40
35
 41
0.6285714285714286
 50
0
  1
１
  0
LINE
  8
_0-9_
  6
CONTINUOUS
 62
    9
 10
802.5
 20
472.08277206296657
 11
805.50000000000011
 21
472.08277206296657
  0
TEXT
  8
_0-9_
 62
    1
 10
754.01725774235956
 20
472.08277206296657
 40
35
 41
0.6285714285714286
 50
0
  1
３
  0
LINE
  8
_0-9_
  6
CONTINUOUS
 62
    9
 10
1394.5
 20
472.08277206296657
 11
1397.5
 21
472.08277206296657
  0
TEXT
  8
_0-9_
 62
    1
 10
1423.687256901344
 20
472.08277206296657
 40
35
 41
0.6285714285714286
 50
0
  1
３
  0
POINT
  8
_0-9_
 62
    4
 10
1099.498231082745
 20
472.08277206296657
  0
LINE
  8
_0-9_
  6
CONTINUOUS
 62
    4
 10
1099.498231082745
 20
462.08277206296657
 11
1099.498231082745
 21
557.24264540409627
  0
POINT
  8
_0-9_
 62
    4
 10
1100.501768917255
 20
472.08277206296657
  0
LINE
  8
_0-9_
  6
CONTINUOUS
 62
    4
 10
1100.501768917255
 20
462.08277206296657
 11
1100.501768917255
 21
557.24264540409627
  0
POINT
  8
_0-9_
 62
    4
 10
805.50000000000011
 20
472.08277206296657
  0
LINE
  8
_0-9_
  6
CONTINUOUS
 62
    4
 10
805.50000000000011
 20
462.08277206296657
 11
805.50000000000011
 21
557.24264540409627
  0
POINT
  8
_0-9_
 62
    4
 10
805.50000000000011
 20
472.08277206296657
  0
LINE
  8
_0-9_
  6
CONTINUOUS
 62
    4
 10
805.50000000000011
 20
462.08277206296657
 11
805.50000000000011
 21
557.24264540409627
  0
POINT
  8
_0-9_
 62
    4
 10
1394.5
 20
472.08277206296657
  0
LINE
  8
_0-9_
  6
CONTINUOUS
 62
    4
 10
1394.5
 20
462.08277206296657
 11
1394.5
 21
557.24264540409627
  0
LINE
  8
_0-9_
  6
CONTINUOUS
 62
    4
 10
805.50000000000011
 20
472.08277206296657
 11
1099.498231082745
 21
472.08277206296657
  0
LINE
  8
_0-9_
  6
CONTINUOUS
 62
    4
 10
1100.5023585563399
 20
472.08277206296657
 11
1394.5
 21
472.08277206296657
  0
TEXT
  8
_0-9_
 62
    7
 10
919.39911554137257
 20
472.08277206296657
 40
35
 41
0.6285714285714286
 50
0
  1
２９４
  0
TEXT
  8
_0-9_
 62
    7
 10
1214.40117927817
 20
472.08277206296657
 40
35
 41
0.6285714285714286
 50
0
  1
２９４
  0
LINE
  8
_0-d_
  6
CONTINUOUS
 62
    3
 10
4115
 20
2145
 11
3129.9989999999998
 21
2145
  0
LINE
  8
_0-d_
  6
CONTINUOUS
 62
    3
 10
4115
 20
2845
 11
3129.9989999999998
 21
2845
  0
LINE
  8
_0-d_
  6
CONTINUOUS
 62
    7
 10
4115
 20
2285
 11
3129.9989999999998
 21
2285
  0
LINE
  8
_0-d_
  6
CONTINUOUS
 62
    7
 10
4115
 20
2355
 11
3129.9989999999998
 21
2355
  0
LINE
  8
_0-d_
  6
CONTINUOUS
 62
    7
 10
4115
 20
2425
 11
3129.9989999999998
 21
2425
  0
LINE
  8
_0-d_
  6
CONTINUOUS
 62
    7
 10
4115
 20
2495
 11
3129.9989999999998
 21
2495
  0
LINE
  8
_0-d_
  6
CONTINUOUS
 62
    7
 10
4115
 20
2565
 11
3129.9989999999998
 21
2565
  0
LINE
  8
_0-d_
  6
CONTINUOUS
 62
    7
 10
4115
 20
2635
 11
3129.9989999999998
 21
2635
  0
LINE
  8
_0-d_
  6
CONTINUOUS
 62
    7
 10
4115
 20
2705
 11
3129.9989999999998
 21
2705
  0
LINE
  8
_0-d_
  6
CONTINUOUS
 62
    7
 10
4115
 20
2775
 11
3129.9989999999998
 21
2775
  0
LINE
  8
_0-d_
  6
CONTINUOUS
 62
    7
 10
4115
 20
2780
 11
3129.9989999999998
 21
2780
  0
LINE
  8
ADD_LINE
  6
DOT
 62
    9
 10
3129.9989999999998
 20
2812.5
 11
4115
 21
2812.5
  0
LINE
  8
ADD_LINE
  6
DOT
 62
    9
 10
4115
 20
2740
 11
3129.9989999999998
 21
2740
  0
LINE
  8
ADD_LINE
  6
DOT
 62
    9
 10
4115
 20
2670
 11
3129.9989999999998
 21
2670
  0
LINE
  8
ADD_LINE
  6
DOT
 62
    9
 10
4115
 20
2600
 11
3129.9989999999998
 21
2600
  0
LINE
  8
ADD_LINE
  6
DOT
 62
    9
 10
4115
 20
2530
 11
3129.9989999999998
 21
2530
  0
LINE
  8
ADD_LINE
  6
DOT
 62
    9
 10
4115
 20
2460
 11
3129.9989999999998
 21
2460
  0
LINE
  8
ADD_LINE
  6
DOT
 62
    9
 10
4115
 20
2390
 11
3129.9989999999998
 21
2390
  0
LINE
  8
ADD_LINE
  6
DOT
 62
    9
 10
4115
 20
2180
 11
3129.9989999999998
 21
2180
  0
TEXT
  8
_0-d_
 62
    7
 10
3527.4994999999999
 20
2795
 40
35
 41
0.8571428571428571
 50
0
  1
仕　　　　様
  0
TEXT
  8
_0-d_
 62
    7
 10
3200.9989999999998
 20
2722.5
 40
35
 41
0.8571428571428571
 50
0
  1
ト　ッ　プ
  0
TEXT
  8
_0-d_
 62
    7
 10
3216.9990000000003
 20
2652.5
 40
35
 41
0.8571428571428571
 50
0
  1
側　　板
  0
TEXT
  8
_0-d_
 62
    7
 10
3454.9990000000003
 20
2652.5
 40
35
 41
0.7714285714285714
 50
0
  1
低圧メラミン化粧パーティクルボード　１２ｔ
  0
TEXT
  8
_0-d_
 62
    7
 10
3216.9990000000003
 20
2582.5
 40
35
 41
0.8571428571428571
 50
0
  1
地　　板
  0
TEXT
  8
_0-d_
 62
    7
 10
3454.9989999999989
 20
2582.5
 40
35
 41
0.8571428571428571
 50
0
  1
ステンレス貼り　片面フラッシュ
  0
TEXT
  8
_0-d_
 62
    7
 10
3216.9990000000003
 20
2512.5
 40
35
 41
0.8571428571428571
 50
0
  1
背　　板
  0
LINE
  8
ADD_LINE
  6
DOT
 62
    9
 10
3622.4994999999999
 20
2780
 11
3622.4994999999999
 21
2845
  0
TEXT
  8
_0-d_
 62
    7
 10
3454.9989999999989
 20
2512.5
 40
35
 41
0.8571428571428571
 50
0
  1
ＭＤＦ　２．５ｔ
  0
TEXT
  8
_0-d_
 62
    7
 10
3264.9989999999998
 20
2442.5
 40
35
 41
0.8571428571428571
 50
0
  1
扉
  0
TEXT
  8
_0-d_
 62
    7
 10
3454.9989999999989
 20
2442.5
 40
35
 41
0.7714285714285714
 50
0
  1
両面化粧パーティクルボード　１２ｔ
  0
TEXT
  8
_0-d_
 62
    7
 10
3216.9990000000003
 20
2372.5
 40
35
 41
0.8571428571428571
 50
0
  1
丁　　番
  0
TEXT
  8
_0-d_
 62
    7
 10
3454.9990000000003
 20
2372.5
 40
35
 41
0.8571428571428571
 50
0
  1
スライド式丁番
  0
LINE
  8
ADD_LINE
  6
DOT
 62
    9
 10
4115
 20
2320
 11
3129.9989999999998
 21
2320
  0
LINE
  8
_0-d_
  6
CONTINUOUS
 62
    3
 10
4115
 20
2145
 11
3129.9989999999998
 21
2145
  0
LINE
  8
_0-d_
  6
CONTINUOUS
 62
    7
 10
4115
 20
2285
 11
3129.9989999999998
 21
2285
  0
LINE
  8
ADD_LINE
  6
DOT
 62
    9
 10
4115
 20
2250
 11
3129.9989999999998
 21
2250
  0
LINE
  8
ADD_LINE
  6
DOT
 62
    9
 10
4115
 20
2180
 11
3129.9989999999998
 21
2180
  0
LINE
  8
_0-d_
  6
CONTINUOUS
 62
    7
 10
4115
 20
2145
 11
3129.9989999999998
 21
2145
  0
TEXT
  8
_0-d_
 62
    7
 10
3216.9990000000003
 20
2302.5
 40
35
 41
0.8571428571428571
 50
0
  1
把　　手
  0
TEXT
  8
_0-d_
 62
    7
 10
3454.9989999999989
 20
2302.5
 40
35
 41
0.8571428571428571
 50
0
  1
アルミ一文字把手
  0
LINE
  8
_0-d_
  6
CONTINUOUS
 62
    7
 10
4115
 20
2215
 11
3429.9989999999998
 21
2215
  0
TEXT
  8
_0-d_
 62
    7
 10
3454.9989999999989
 20
2232.5
 40
35
 41
0.7714285714285714
 50
0
  1
メタルボックス　スライドレール
  0
TEXT
  8
_0-d_
 62
    7
 10
3168.9989999999993
 20
2197.5
 40
35
 41
0.8571428571428571
 50
0
  1
引　き　出　し
  0
LINE
  8
_0-d_
  6
CONTINUOUS
 62
    3
 10
4115
 20
2145
 11
4115
 21
2845
  0
LINE
  8
_0-d_
  6
CONTINUOUS
 62
    7
 10
3429.9989999999998
 20
2775
 11
3429.9989999999998
 21
2145
  0
LINE
  8
_0-d_
  6
CONTINUOUS
 62
    3
 10
3129.9989999999998
 20
2845
 11
3129.9989999999998
 21
2145
  0
TEXT
  8
_0-d_
 62
    7
 10
3454.9990000000003
 20
2722.5
 40
35
 41
0.8571428571428571
 50
0
  1
ステンレスＳＵＳ４４３ＣＴ
  0
LINE
  8
ADD_LINE
  6
DOT
 62
    9
 10
746.02048201693776
 20
392.08277206296657
 11
800.49999999999977
 21
392.08277206296657
  0
LINE
  8
_0-3_
  6
CONTINUOUS
 62
    4
 10
3055
 20
682.99999999999977
 11
3055
 21
669.99999999999989
  0
LINE
  8
_0-3_
  6
CONTINUOUS
 62
    5
 10
3130
 20
1352.0000000000005
 11
3130
 21
580
  0
LINE
  8
_0-3_
  6
CONTINUOUS
 62
    4
 10
2612
 20
682.99999999999977
 11
3105
 21
682.99999999999977
  0
LINE
  8
_0-3_
  6
CONTINUOUS
 62
    4
 10
2612
 20
682.99999999999977
 11
2612
 21
669.99999999999989
  0
LINE
  8
_0-3_
  6
CONTINUOUS
 62
    5
 10
2608
 20
686.99999999999989
 11
2608
 21
669.99999999999989
  0
LINE
  8
_0-3_
  6
CONTINUOUS
 62
    5
 10
2608
 20
686.99999999999989
 11
3105
 21
686.99999999999989
  0
LINE
  8
_0-3_
  6
CONTINUOUS
 62
    5
 10
2608
 20
669.99999999999989
 11
3105
 21
669.99999999999989
  0
LINE
  8
_0-3_
  6
CONTINUOUS
 62
    5
 10
2650
 20
669.99999999999989
 11
2650
 21
580
  0
LINE
  8
_0-3_
  6
CONTINUOUS
 62
    4
 10
2663.4999999999995
 20
682.99999999999977
 11
2663.4999999999995
 21
669.99999999999989
  0
LINE
  8
_0-3_
  6
CONTINUOUS
 62
    5
 10
2650
 20
580
 11
3130
 21
580
  0
LINE
  8
_0-3_
  6
CONTINUOUS
 62
    7
 10
3087
 20
1179
 11
3087
 21
1134
  0
LINE
  8
_0-3_
  6
CONTINUOUS
 62
    7
 10
3087
 20
1179
 11
3105
 21
1179
  0
LINE
  8
_0-3_
  6
CONTINUOUS
 62
    7
 10
3087
 20
1134
 11
3105
 21
1134
  0
LINE
  8
_0-3_
  6
CONTINUOUS
 62
    7
 10
2662
 20
669.99999999999989
 11
2662
 21
580
  0
LINE
  8
_0-4_
  6
CONTINUOUS
 62
    3
 10
2593
 20
1177
 11
2605.0000000000005
 21
1177
  0
LINE
  8
_0-4_
  6
CONTINUOUS
 62
    3
 10
2593
 20
674.99999999999989
 11
2605.0000000000005
 21
674.99999999999989
  0
LINE
  8
_0-4_
  6
CONTINUOUS
 62
    3
 10
2605.0000000000005
 20
1317.0000000000005
 11
2593
 21
1317.0000000000005
  0
LINE
  8
_0-4_
  6
CONTINUOUS
 62
    3
 10
2605.0000000000005
 20
1145
 11
2593
 21
1145
  0
LINE
  8
_0-4_
  6
CONTINUOUS
 62
    3
 10
2593
 20
1145
 11
2593
 21
674.99999999999989
  0
LINE
  8
_0-4_
  6
CONTINUOUS
 62
    3
 10
2605.0000000000005
 20
1145
 11
2605.0000000000005
 21
674.99999999999989
  0
LINE
  8
_0-4_
  6
CONTINUOUS
 62
    3
 10
2593
 20
1317.0000000000005
 11
2593
 21
1177
  0
LINE
  8
_0-4_
  6
CONTINUOUS
 62
    3
 10
2605.0000000000005
 20
1317.0000000000005
 11
2605.0000000000005
 21
1177
  0
LINE
  8
_0-4_
  6
CONTINUOUS
 62
    7
 10
2612.5977000000007
 20
1221.3621999999998
 11
2612.6059000000005
 21
1221.1281999999999
  0
LINE
  8
_0-4_
  6
CONTINUOUS
 62
    7
 10
2612.6059000000005
 20
1221.1281999999999
 11
2612.6137000000008
 21
1220.9032
  0
LINE
  8
_0-4_
  6
CONTINUOUS
 62
    7
 10
2612.6137000000008
 20
1220.9032
 11
2612.6210000000001
 21
1220.6958999999999
  0
LINE
  8
_0-4_
  6
CONTINUOUS
 62
    7
 10
2612.6210000000001
 20
1220.6958999999999
 11
2612.6273000000001
 21
1220.5141999999998
  0
LINE
  8
_0-4_
  6
CONTINUOUS
 62
    7
 10
2612.6273000000001
 20
1220.5141999999998
 11
2612.6325000000006
 21
1220.3649999999998
  0
LINE
  8
_0-4_
  6
CONTINUOUS
 62
    7
 10
2612.6325000000006
 20
1220.3649999999998
 11
2612.6364000000008
 21
1220.2541999999999
  0
LINE
  8
_0-4_
  6
CONTINUOUS
 62
    7
 10
2612.6364000000008
 20
1220.2541999999999
 11
2612.6388000000006
 21
1220.1858999999999
  0
LINE
  8
_0-4_
  6
CONTINUOUS
 62
    7
 10
2612.6388000000006
 20
1220.1858999999999
 11
2612.6396000000004
 21
1220.1628999999998
  0
LINE
  8
_0-4_
  6
CONTINUOUS
 62
    7
 10
2608.5000000000009
 20
1224.1605
 11
2609.7000000000003
 21
1224.1605
  0
LINE
  8
_0-4_
  6
CONTINUOUS
 62
    7
 10
2608.5000000000009
 20
1224.1605
 11
2608.5000000000009
 21
1247.8394999999998
  0
LINE
  8
_0-4_
  6
CONTINUOUS
 62
    7
 10
2608.5000000000009
 20
1247.8394999999998
 11
2609.7000000000003
 21
1247.8394999999998
  0
LINE
  8
_0-4_
  6
CONTINUOUS
 62
    7
 10
2609.7000000000003
 20
1247.8394999999998
 11
2609.7000000000003
 21
1224.1605
  0
LINE
  8
_0-4_
  6
CONTINUOUS
 62
    7
 10
2612.6396000000004
 20
1251.837
 11
2612.6388000000006
 21
1251.8139999999999
  0
LINE
  8
_0-4_
  6
CONTINUOUS
 62
    7
 10
2612.6388000000006
 20
1251.8139999999999
 11
2612.6364000000008
 21
1251.7456999999999
  0
LINE
  8
_0-4_
  6
CONTINUOUS
 62
    7
 10
2612.6364000000008
 20
1251.7456999999999
 11
2612.6325000000006
 21
1251.6348999999998
  0
LINE
  8
_0-4_
  6
CONTINUOUS
 62
    7
 10
2612.6325000000006
 20
1251.6348999999998
 11
2612.6273000000001
 21
1251.4857999999999
  0
LINE
  8
_0-4_
  6
CONTINUOUS
 62
    7
 10
2612.6273000000001
 20
1251.4857999999999
 11
2612.6210000000001
 21
1251.3039999999999
  0
LINE
  8
_0-4_
  6
CONTINUOUS
 62
    7
 10
2612.6210000000001
 20
1251.3039999999999
 11
2612.6137000000008
 21
1251.0967000000001
  0
LINE
  8
_0-4_
  6
CONTINUOUS
 62
    7
 10
2612.6137000000008
 20
1251.0967000000001
 11
2612.6059000000005
 21
1250.8716999999999
  0
LINE
  8
_0-4_
  6
CONTINUOUS
 62
    7
 10
2612.6059000000005
 20
1250.8716999999999
 11
2612.5977000000007
 21
1250.6377999999997
  0
LINE
  8
_0-4_
  6
CONTINUOUS
 62
    7
 10
2612.5977000000007
 20
1221.3621999999998
 11
2637.2197000000006
 21
1222.2219999999998
  0
LINE
  8
_0-4_
  6
CONTINUOUS
 62
    7
 10
2637.2197000000006
 20
1249.7778999999998
 11
2612.5977000000007
 21
1250.6377999999997
  0
LINE
  8
_0-4_
  6
CONTINUOUS
 62
    7
 10
2612.6396000000004
 20
1251.837
 11
2637.2616000000007
 21
1250.9771999999998
  0
LINE
  8
_0-4_
  6
CONTINUOUS
 62
    7
 10
2637.2616000000007
 20
1250.9771999999998
 11
2637.2608
 21
1250.9541999999999
  0
LINE
  8
_0-4_
  6
CONTINUOUS
 62
    7
 10
2637.2608
 20
1250.9541999999999
 11
2637.2584000000006
 21
1250.8858999999998
  0
LINE
  8
_0-4_
  6
CONTINUOUS
 62
    7
 10
2637.2584000000006
 20
1250.8858999999998
 11
2637.2545
 21
1250.7750999999998
  0
LINE
  8
_0-4_
  6
CONTINUOUS
 62
    7
 10
2637.2545
 20
1250.7750999999998
 11
2637.2493000000009
 21
1250.626
  0
LINE
  8
_0-4_
  6
CONTINUOUS
 62
    7
 10
2637.2493000000009
 20
1250.626
 11
2637.2430000000008
 21
1250.4441999999999
  0
LINE
  8
_0-4_
  6
CONTINUOUS
 62
    7
 10
2637.2430000000008
 20
1250.4441999999999
 11
2637.2357000000006
 21
1250.2368999999999
  0
LINE
  8
_0-4_
  6
CONTINUOUS
 62
    7
 10
2637.2357000000006
 20
1250.2368999999999
 11
2637.2279000000003
 21
1250.0118999999997
  0
LINE
  8
_0-4_
  6
CONTINUOUS
 62
    7
 10
2637.2279000000003
 20
1250.0118999999997
 11
2637.2197000000006
 21
1249.7778999999998
  0
LINE
  8
_0-4_
  6
CONTINUOUS
 62
    7
 10
2637.2197000000006
 20
1222.2219999999998
 11
2637.2279000000003
 21
1221.9879999999998
  0
LINE
  8
_0-4_
  6
CONTINUOUS
 62
    7
 10
2637.2279000000003
 20
1221.9879999999998
 11
2637.2357000000006
 21
1221.7630999999999
  0
LINE
  8
_0-4_
  6
CONTINUOUS
 62
    7
 10
2637.2357000000006
 20
1221.7630999999999
 11
2637.2430000000008
 21
1221.5556999999999
  0
LINE
  8
_0-4_
  6
CONTINUOUS
 62
    7
 10
2637.2430000000008
 20
1221.5556999999999
 11
2637.2493000000009
 21
1221.3739999999998
  0
LINE
  8
_0-4_
  6
CONTINUOUS
 62
    7
 10
2637.2493000000009
 20
1221.3739999999998
 11
2637.2545
 21
1221.2247999999997
  0
LINE
  8
_0-4_
  6
CONTINUOUS
 62
    7
 10
2637.2545
 20
1221.2247999999997
 11
2637.2584000000006
 21
1221.1139999999998
  0
LINE
  8
_0-4_
  6
CONTINUOUS
 62
    7
 10
2637.2584000000006
 20
1221.1139999999998
 11
2637.2608
 21
1221.0457999999999
  0
LINE
  8
_0-4_
  6
CONTINUOUS
 62
    7
 10
2637.2608
 20
1221.0457999999999
 11
2637.2616000000007
 21
1221.0227
  0
LINE
  8
_0-4_
  6
CONTINUOUS
 62
    7
 10
2637.2616000000007
 20
1221.0227
 11
2612.6396000000004
 21
1220.1628999999998
  0
LINE
  8
_0-4_
  6
CONTINUOUS
 62
    7
 10
2642.2256000000007
 20
1226.4485
 11
2642.4549000000006
 21
1226.4011999999998
  0
LINE
  8
_0-4_
  6
CONTINUOUS
 62
    7
 10
2642.4549000000006
 20
1226.4011999999998
 11
2642.6753000000008
 21
1226.3557999999998
  0
LINE
  8
_0-4_
  6
CONTINUOUS
 62
    7
 10
2642.6753000000008
 20
1226.3557999999998
 11
2642.8785000000007
 21
1226.3138999999999
  0
LINE
  8
_0-4_
  6
CONTINUOUS
 62
    7
 10
2642.8785000000007
 20
1226.3138999999999
 11
2643.0566000000003
 21
1226.2771999999998
  0
LINE
  8
_0-4_
  6
CONTINUOUS
 62
    7
 10
2643.0566000000003
 20
1226.2771999999998
 11
2643.2028
 21
1226.2469999999998
  0
LINE
  8
_0-4_
  6
CONTINUOUS
 62
    7
 10
2643.2028
 20
1226.2469999999998
 11
2643.3114000000005
 21
1226.2246
  0
LINE
  8
_0-4_
  6
CONTINUOUS
 62
    7
 10
2643.3114000000005
 20
1226.2246
 11
2643.3783000000003
 21
1226.2108999999998
  0
LINE
  8
_0-4_
  6
CONTINUOUS
 62
    7
 10
2643.3783000000003
 20
1226.2108999999998
 11
2643.4008000000003
 21
1226.2061999999999
  0
LINE
  8
_0-4_
  6
CONTINUOUS
 62
    7
 10
2642.2256000000007
 20
1245.5513999999998
 11
2642.4549000000006
 21
1245.5987
  0
LINE
  8
_0-4_
  6
CONTINUOUS
 62
    7
 10
2642.4549000000006
 20
1245.5987
 11
2642.6753000000008
 21
1245.6441999999997
  0
LINE
  8
_0-4_
  6
CONTINUOUS
 62
    7
 10
2642.6753000000008
 20
1245.6441999999997
 11
2642.8785000000007
 21
1245.6859999999999
  0
LINE
  8
_0-4_
  6
CONTINUOUS
 62
    7
 10
2642.8785000000007
 20
1245.6859999999999
 11
2643.0566000000003
 21
1245.7227999999998
  0
LINE
  8
_0-4_
  6
CONTINUOUS
 62
    7
 10
2643.0566000000003
 20
1245.7227999999998
 11
2643.2028
 21
1245.7528999999997
  0
LINE
  8
_0-4_
  6
CONTINUOUS
 62
    7
 10
2643.2028
 20
1245.7528999999997
 11
2643.3114000000005
 21
1245.7752999999998
  0
LINE
  8
_0-4_
  6
CONTINUOUS
 62
    7
 10
2643.3114000000005
 20
1245.7752999999998
 11
2643.3783000000003
 21
1245.7890999999997
  0
LINE
  8
_0-4_
  6
CONTINUOUS
 62
    7
 10
2643.3783000000003
 20
1245.7890999999997
 11
2643.4008000000003
 21
1245.7936999999997
  0
LINE
  8
_0-4_
  6
CONTINUOUS
 62
    7
 10
2607.0000000000005
 20
1255.75
 11
2607.0000000000005
 21
1253.5348999999999
  0
LINE
  8
_0-4_
  6
CONTINUOUS
 62
    7
 10
2607.0000000000005
 20
1253.5
 11
2606.2000000000007
 21
1253.5
  0
LINE
  8
_0-4_
  6
CONTINUOUS
 62
    7
 10
2606.2000000000007
 20
1255.75
 11
2606.2000000000007
 21
1253.5
  0
LINE
  8
_0-4_
  6
CONTINUOUS
 62
    7
 10
2607.0000000000005
 20
1255.75
 11
2606.2000000000007
 21
1255.75
  0
LINE
  8
_0-4_
  6
CONTINUOUS
 62
    7
 10
2605.0000000000005
 20
1253.1365999999998
 11
2605.0000000000005
 21
1255.3865999999998
  0
LINE
  8
_0-4_
  6
CONTINUOUS
 62
    7
 10
2606.2000000000007
 20
1253.5
 11
2606.2000000000007
 21
1218.5
  0
LINE
  8
_0-4_
  6
CONTINUOUS
 62
    7
 10
2605.0000000000005
 20
1218.8633
 11
2605.0000000000005
 21
1253.1365999999998
  0
LINE
  8
_0-4_
  6
CONTINUOUS
 62
    7
 10
2606.2000000000007
 20
1218.5
 11
2606.2000000000007
 21
1216.25
  0
LINE
  8
_0-4_
  6
CONTINUOUS
 62
    7
 10
2605.0000000000005
 20
1216.6133
 11
2605.0000000000005
 21
1218.8633
  0
LINE
  8
_0-4_
  6
CONTINUOUS
 62
    7
 10
2607.0000000000005
 20
1218.4649999999999
 11
2637.3139000000001
 21
1219.5236
  0
LINE
  8
_0-4_
  6
CONTINUOUS
 62
    7
 10
2607.0000000000005
 20
1218.5
 11
2607.0000000000005
 21
1218.4649999999999
  0
LINE
  8
_0-4_
  6
CONTINUOUS
 62
    7
 10
2607.0000000000005
 20
1218.5
 11
2606.2000000000007
 21
1218.5
  0
LINE
  8
_0-4_
  6
CONTINUOUS
 62
    7
 10
2637.3139000000001
 20
1252.4762999999998
 11
2607.0000000000005
 21
1253.5348999999999
  0
LINE
  8
_0-4_
  6
CONTINUOUS
 62
    7
 10
2607.0000000000005
 20
1253.5348999999999
 11
2607.0000000000005
 21
1253.5
  0
LINE
  8
_0-4_
  6
CONTINUOUS
 62
    7
 10
2607.0000000000005
 20
1218.4649999999999
 11
2607.0000000000005
 21
1216.25
  0
LINE
  8
_0-4_
  6
CONTINUOUS
 62
    7
 10
2607.0000000000005
 20
1216.25
 11
2606.2000000000007
 21
1216.25
  0
LINE
  8
_0-4_
  6
CONTINUOUS
 62
    7
 10
2606.2000000000007
 20
1262.0382999999997
 11
2606.2000000000007
 21
1255.75
  0
LINE
  8
_0-4_
  6
CONTINUOUS
 62
    7
 10
2606.2000000000007
 20
1262.0382999999997
 11
2605.0000000000005
 21
1262.0382999999997
  0
LINE
  8
_0-4_
  6
CONTINUOUS
 62
    7
 10
2605.0000000000005
 20
1255.3865999999998
 11
2605.0000000000005
 21
1262.0382999999997
  0
LINE
  8
_0-4_
  6
CONTINUOUS
 62
    7
 10
2606.2000000000007
 20
1196.25
 11
2606.2000000000007
 21
1193.25
  0
LINE
  8
_0-4_
  6
CONTINUOUS
 62
    7
 10
2606.2000000000007
 20
1196.25
 11
2605.0000000000005
 21
1196.25
  0
LINE
  8
_0-4_
  6
CONTINUOUS
 62
    7
 10
2605.0000000000005
 20
1194.4499999999998
 11
2605.0000000000005
 21
1196.25
  0
LINE
  8
_0-4_
  6
CONTINUOUS
 62
    7
 10
2606.2000000000007
 20
1278.7499999999998
 11
2606.2000000000007
 21
1275.75
  0
LINE
  8
_0-4_
  6
CONTINUOUS
 62
    7
 10
2606.2000000000007
 20
1275.75
 11
2605.0000000000005
 21
1275.75
  0
LINE
  8
_0-4_
  6
CONTINUOUS
 62
    7
 10
2605.0000000000005
 20
1275.75
 11
2605.0000000000005
 21
1277.5499999999997
  0
LINE
  8
_0-4_
  6
CONTINUOUS
 62
    7
 10
2606.2000000000007
 20
1216.25
 11
2606.2000000000007
 21
1209.7835
  0
LINE
  8
_0-4_
  6
CONTINUOUS
 62
    7
 10
2605.0000000000005
 20
1209.7835
 11
2606.2000000000007
 21
1209.7835
  0
LINE
  8
_0-4_
  6
CONTINUOUS
 62
    7
 10
2605.0000000000005
 20
1209.7835
 11
2605.0000000000005
 21
1216.6133
  0
LINE
  8
_0-4_
  6
CONTINUOUS
 62
    7
 10
2606.2000000000007
 20
1209.7835
 11
2606.2000000000007
 21
1196.25
  0
LINE
  8
_0-4_
  6
CONTINUOUS
 62
    7
 10
2605.0000000000005
 20
1196.25
 11
2605.0000000000005
 21
1209.7835
  0
LINE
  8
_0-4_
  6
CONTINUOUS
 62
    7
 10
2606.2000000000007
 20
1275.75
 11
2606.2000000000007
 21
1262.0382999999997
  0
LINE
  8
_0-4_
  6
CONTINUOUS
 62
    7
 10
2605.0000000000005
 20
1262.0382999999997
 11
2605.0000000000005
 21
1275.75
  0
LINE
  8
_0-4_
  6
CONTINUOUS
 62
    7
 10
2607.0000000000005
 20
1193.25
 11
2606.2000000000007
 21
1193.25
  0
LINE
  8
_0-4_
  6
CONTINUOUS
 62
    7
 10
2606.2000000000007
 20
1196.25
 11
2607.0000000000005
 21
1196.25
  0
LINE
  8
_0-4_
  6
CONTINUOUS
 62
    7
 10
2607.0000000000005
 20
1196.25
 11
2607.0000000000005
 21
1193.25
  0
LINE
  8
_0-4_
  6
CONTINUOUS
 62
    7
 10
2607.0000000000005
 20
1275.75
 11
2606.2000000000007
 21
1275.75
  0
LINE
  8
_0-4_
  6
CONTINUOUS
 62
    7
 10
2606.2000000000007
 20
1278.7499999999998
 11
2607.0000000000005
 21
1278.7499999999998
  0
LINE
  8
_0-4_
  6
CONTINUOUS
 62
    7
 10
2607.0000000000005
 20
1278.7499999999998
 11
2607.0000000000005
 21
1275.75
  0
LINE
  8
_0-4_
  6
CONTINUOUS
 62
    7
 10
2607.0000000000005
 20
1275.75
 11
2607.0000000000005
 21
1255.75
  0
LINE
  8
_0-4_
  6
CONTINUOUS
 62
    7
 10
2607.0000000000005
 20
1216.25
 11
2607.0000000000005
 21
1196.25
  0
LINE
  8
_0-4_
  6
CONTINUOUS
 62
    7
 10
2637.3110000000006
 20
1252.4903999999997
 11
2607.0000000000005
 21
1253.5488999999998
  0
LINE
  8
_0-4_
  6
CONTINUOUS
 62
    7
 10
2607.0000000000005
 20
1218.4511
 11
2637.3110000000006
 21
1219.5095999999999
  0
ARC
  8
_0-4_
  6
CONTINUOUS
 62
    7
 10
2612.5000000000005
 20
1224.1605
 40
2.7999999999999998
 50
180.00000000000006
 51
272.00000000000006
  0
ARC
  8
_0-4_
  6
CONTINUOUS
 62
    7
 10
2612.5000000000005
 20
1224.1605
 40
4
 50
180.00000000000006
 51
272.00000000000006
  0
ARC
  8
_0-4_
  6
CONTINUOUS
 62
    7
 10
2612.5000000000005
 20
1247.8394999999998
 40
4
 50
88.000000000000028
 51
180.00000000000006
  0
ARC
  8
_0-4_
  6
CONTINUOUS
 62
    7
 10
2612.5000000000005
 20
1247.8394999999998
 40
2.7999999999999998
 50
88.000000000000028
 51
180.00000000000006
  0
ARC
  8
_0-4_
  6
CONTINUOUS
 62
    7
 10
2637.0347000000002
 20
1227.5187999999998
 40
5.3000000000000016
 50
272.00000000000011
 51
348.35000000000014
  0
ARC
  8
_0-4_
  6
CONTINUOUS
 62
    7
 10
2637.0347000000002
 20
1244.4811999999999
 40
5.3000000000000016
 50
11.650000000000002
 51
88.000000000000014
  0
ARC
  8
_0-4_
  6
CONTINUOUS
 62
    7
 10
2595.9000000000005
 20
1236
 40
47.299999999999997
 50
348.35000000000014
 51
11.650000000000073
  0
ARC
  8
_0-4_
  6
CONTINUOUS
 62
    7
 10
2637.0347000000002
 20
1227.5187999999998
 40
6.5
 50
272.00000000000011
 51
348.35000000000014
  0
ARC
  8
_0-4_
  6
CONTINUOUS
 62
    7
 10
2637.0347000000002
 20
1244.4811999999999
 40
6.5
 50
11.650000000000002
 51
88.000000000000014
  0
ARC
  8
_0-4_
  6
CONTINUOUS
 62
    7
 10
2595.9000000000005
 20
1236
 40
48.500000000000014
 50
348.35000000000014
 51
11.650000000000073
  0
LINE
  8
_0-4_
  6
CONTINUOUS
 62
    7
 10
2606.2000000000066
 20
1253.4999307652399
 11
2606.2000000000066
 21
1253.4999307652399
  0
LINE
  8
_0-4_
  6
CONTINUOUS
 62
    7
 10
2606.2000000000066
 20
1253.4999307652399
 11
2605.9916221868066
 21
1253.4944109545163
  0
LINE
  8
_0-4_
  6
CONTINUOUS
 62
    7
 10
2605.9916221868066
 20
1253.4944109545163
 11
2605.7895758280156
 21
1253.478019239001
  0
LINE
  8
_0-4_
  6
CONTINUOUS
 62
    7
 10
2605.7895758280156
 20
1253.478019239001
 11
2605.6000000000058
 21
1253.451253672675
  0
LINE
  8
_0-4_
  6
CONTINUOUS
 62
    7
 10
2605.6000000000058
 20
1253.451253672675
 11
2605.4286548683817
 21
1253.4149275137272
  0
LINE
  8
_0-4_
  6
CONTINUOUS
 62
    7
 10
2605.4286548683817
 20
1253.4149275137272
 11
2605.2807466682621
 21
1253.3701445141155
  0
LINE
  8
_0-4_
  6
CONTINUOUS
 62
    7
 10
2605.2807466682621
 20
1253.3701445141155
 11
2605.1607695154626
 21
1253.3182653826213
  0
LINE
  8
_0-4_
  6
CONTINUOUS
 62
    7
 10
2605.1607695154626
 20
1253.3182653826213
 11
2605.0723688550597
 21
1253.2608664404036
  0
LINE
  8
_0-4_
  6
CONTINUOUS
 62
    7
 10
2605.0723688550597
 20
1253.2608664404036
 11
2605.018230696387
 21
1253.1996917252759
  0
LINE
  8
_0-4_
  6
CONTINUOUS
 62
    7
 10
2605.018230696387
 20
1253.1996917252759
 11
2605.0000000000009
 21
1253.1366000000035
  0
LINE
  8
_0-4_
  6
CONTINUOUS
 62
    7
 10
2606.2000000000066
 20
1255.7499307652399
 11
2606.2000000000066
 21
1255.7499307652399
  0
LINE
  8
_0-4_
  6
CONTINUOUS
 62
    7
 10
2606.2000000000066
 20
1255.7499307652399
 11
2605.9916221868066
 21
1255.7444109545163
  0
LINE
  8
_0-4_
  6
CONTINUOUS
 62
    7
 10
2605.9916221868066
 20
1255.7444109545163
 11
2605.7895758280156
 21
1255.728019239001
  0
LINE
  8
_0-4_
  6
CONTINUOUS
 62
    7
 10
2605.7895758280156
 20
1255.728019239001
 11
2605.6000000000058
 21
1255.701253672675
  0
LINE
  8
_0-4_
  6
CONTINUOUS
 62
    7
 10
2605.6000000000058
 20
1255.701253672675
 11
2605.4286548683817
 21
1255.6649275137272
  0
LINE
  8
_0-4_
  6
CONTINUOUS
 62
    7
 10
2605.4286548683817
 20
1255.6649275137272
 11
2605.2807466682621
 21
1255.6201445141155
  0
LINE
  8
_0-4_
  6
CONTINUOUS
 62
    7
 10
2605.2807466682621
 20
1255.6201445141155
 11
2605.1607695154626
 21
1255.5682653826213
  0
LINE
  8
_0-4_
  6
CONTINUOUS
 62
    7
 10
2605.1607695154626
 20
1255.5682653826213
 11
2605.0723688550597
 21
1255.5108664404036
  0
LINE
  8
_0-4_
  6
CONTINUOUS
 62
    7
 10
2605.0723688550597
 20
1255.5108664404036
 11
2605.018230696387
 21
1255.4496917252759
  0
LINE
  8
_0-4_
  6
CONTINUOUS
 62
    7
 10
2605.018230696387
 20
1255.4496917252759
 11
2605.0000000000009
 21
1255.3866000000035
  0
LINE
  8
_0-4_
  6
CONTINUOUS
 62
    7
 10
2605.0000000000009
 20
1218.8633000000038
 11
2605.0000000000009
 21
1218.8633000000038
  0
LINE
  8
_0-4_
  6
CONTINUOUS
 62
    7
 10
2605.0000000000009
 20
1218.8633000000038
 11
2605.0182306963839
 21
1218.8002082747294
  0
LINE
  8
_0-4_
  6
CONTINUOUS
 62
    7
 10
2605.0182306963839
 20
1218.8002082747294
 11
2605.0723688550534
 21
1218.7390335596015
  0
LINE
  8
_0-4_
  6
CONTINUOUS
 62
    7
 10
2605.0723688550534
 20
1218.7390335596015
 11
2605.160769515453
 21
1218.6816346173832
  0
LINE
  8
_0-4_
  6
CONTINUOUS
 62
    7
 10
2605.160769515453
 20
1218.6816346173832
 11
2605.2807466682498
 21
1218.6297554858886
  0
LINE
  8
_0-4_
  6
CONTINUOUS
 62
    7
 10
2605.2807466682498
 20
1218.6297554858886
 11
2605.4286548683672
 21
1218.5849724862762
  0
LINE
  8
_0-4_
  6
CONTINUOUS
 62
    7
 10
2605.4286548683672
 20
1218.5849724862762
 11
2605.5999999999899
 21
1218.5486463273276
  0
LINE
  8
_0-4_
  6
CONTINUOUS
 62
    7
 10
2605.5999999999899
 20
1218.5486463273276
 11
2605.7895758279983
 21
1218.5218807610008
  0
LINE
  8
_0-4_
  6
CONTINUOUS
 62
    7
 10
2605.7895758279983
 20
1218.5218807610008
 11
2605.9916221867884
 21
1218.5054890454844
  0
LINE
  8
_0-4_
  6
CONTINUOUS
 62
    7
 10
2605.9916221867884
 20
1218.5054890454844
 11
2606.1999999999825
 21
1218.4999692347599
  0
LINE
  8
_0-4_
  6
CONTINUOUS
 62
    7
 10
2605.0000000000009
 20
1216.6133000000036
 11
2605.0000000000009
 21
1216.6133000000036
  0
LINE
  8
_0-4_
  6
CONTINUOUS
 62
    7
 10
2605.0000000000009
 20
1216.6133000000036
 11
2605.0182306963839
 21
1216.5502082747294
  0
LINE
  8
_0-4_
  6
CONTINUOUS
 62
    7
 10
2605.0182306963839
 20
1216.5502082747294
 11
2605.0723688550534
 21
1216.4890335596015
  0
LINE
  8
_0-4_
  6
CONTINUOUS
 62
    7
 10
2605.0723688550534
 20
1216.4890335596015
 11
2605.1607695154535
 21
1216.4316346173832
  0
LINE
  8
_0-4_
  6
CONTINUOUS
 62
    7
 10
2605.1607695154535
 20
1216.4316346173832
 11
2605.2807466682502
 21
1216.3797554858886
  0
LINE
  8
_0-4_
  6
CONTINUOUS
 62
    7
 10
2605.2807466682502
 20
1216.3797554858886
 11
2605.4286548683676
 21
1216.334972486276
  0
LINE
  8
_0-4_
  6
CONTINUOUS
 62
    7
 10
2605.4286548683676
 20
1216.334972486276
 11
2605.5999999999899
 21
1216.2986463273276
  0
LINE
  8
_0-4_
  6
CONTINUOUS
 62
    7
 10
2605.5999999999899
 20
1216.2986463273276
 11
2605.7895758279983
 21
1216.2718807610008
  0
LINE
  8
_0-4_
  6
CONTINUOUS
 62
    7
 10
2605.7895758279983
 20
1216.2718807610008
 11
2605.9916221867884
 21
1216.2554890454844
  0
LINE
  8
_0-4_
  6
CONTINUOUS
 62
    7
 10
2605.9916221867884
 20
1216.2554890454844
 11
2606.1999999999825
 21
1216.2499692347599
  0
ARC
  8
_0-4_
  6
CONTINUOUS
 62
    7
 10
2637.0347000000002
 20
1244.4811999999999
 40
8
 50
11.650000000000002
 51
88.000000000000014
  0
ARC
  8
_0-4_
  6
CONTINUOUS
 62
    7
 10
2595.9000000000005
 20
1236
 40
50
 50
348.35000000000014
 51
11.650000000000073
  0
ARC
  8
_0-4_
  6
CONTINUOUS
 62
    7
 10
2637.0347000000002
 20
1227.5187999999998
 40
8
 50
272.00000000000011
 51
348.35000000000014
  0
ARC
  8
_0-4_
  6
CONTINUOUS
 62
    7
 10
2606.2000000000007
 20
1194.4499999999998
 40
1.2
 50
180.00000000000006
 51
270.00000000000006
  0
ARC
  8
_0-4_
  6
CONTINUOUS
 62
    7
 10
2606.2000000000007
 20
1277.5499999999997
 40
1.2
 50
90.000000000000028
 51
180.00000000000006
  0
ARC
  8
_0-4_
  6
CONTINUOUS
 62
    7
 10
2637.0318000000007
 20
1244.4951999999998
 40
8
 50
11.670000000000002
 51
88.000000000000014
  0
ARC
  8
_0-4_
  6
CONTINUOUS
 62
    7
 10
2637.0318000000007
 20
1227.5046999999997
 40
8
 50
272.00000000000011
 51
348.3300000000001
  0
LINE
  8
ADD_LINE
  6
DOT
 62
    9
 10
2662.5552062735387
 20
1235.9999342731453
 11
2585.5750533149958
 21
1236.0000255330922
  0
ARC
  8
_0-4_
  6
CONTINUOUS
 62
    7
 10
2668.1000500000005
 20
1356.7999072187358
 40
80.200050000000005
 50
267
 51
270.00000000000006
  0
ARC
  8
_0-4_
  6
CONTINUOUS
 62
    7
 10
2668.1000500000005
 20
1356.7999072187358
 40
80.200050000000005
 50
267
 51
270.00000000000006
  0
LINE
  8
_0-4_
  6
CONTINUOUS
 62
    7
 10
2993.1880000000001
 20
1192.499957218736
 11
2994.1939000000002
 21
1192.4980072187361
  0
LINE
  8
_0-4_
  6
CONTINUOUS
 62
    7
 10
2994.1939000000002
 20
1192.4980072187361
 11
2995.1999500000002
 21
1192.496057218736
  0
LINE
  8
_0-4_
  6
CONTINUOUS
 62
    7
 10
2608.4999500000004
 20
1192.499957218736
 11
2993.2000000000007
 21
1192.499957218736
  0
LINE
  8
_0-4_
  6
CONTINUOUS
 62
    7
 10
2608.4999500000004
 20
1279.6133572187362
 11
2608.4999500000004
 21
1272.7643572187362
  0
LINE
  8
_0-4_
  6
CONTINUOUS
 62
    7
 10
2663.9027500000002
 20
1276.7098072187359
 11
2608.4999500000004
 21
1279.6133572187362
  0
LINE
  8
_0-4_
  6
CONTINUOUS
 62
    7
 10
2982.7501000000007
 20
1276.5998572187361
 11
2668.1000500000005
 21
1276.5998572187361
  0
LINE
  8
_0-4_
  6
CONTINUOUS
 62
    7
 10
2982.7501000000007
 20
1269.7603072187362
 11
2982.7501000000007
 21
1276.5998572187361
  0
LINE
  8
_0-4_
  6
CONTINUOUS
 62
    7
 10
2668.1000500000005
 20
1269.7603072187362
 11
2982.7501000000007
 21
1269.7603072187362
  0
LINE
  8
_0-4_
  6
CONTINUOUS
 62
    7
 10
2608.4999500000004
 20
1272.7643572187362
 11
2663.5448500000002
 21
1269.8795572187362
  0
LINE
  8
_0-4_
  6
CONTINUOUS
 62
    7
 10
3005.9999500000004
 20
1193.9999572187362
 11
3005.9999500000004
 21
1279.7999572187362
  0
LINE
  8
_0-4_
  6
CONTINUOUS
 62
    7
 10
3004.9127500000004
 20
1193.9999572187362
 11
3005.9999500000004
 21
1193.9999572187362
  0
LINE
  8
_0-4_
  6
CONTINUOUS
 62
    7
 10
3005.9999500000004
 20
1279.7999572187362
 11
3004.9127500000004
 21
1279.7999572187362
  0
LINE
  8
_0-4_
  6
CONTINUOUS
 62
    7
 10
2994.97165
 20
1193.9999572187362
 11
2995.1993500000003
 21
1193.9999572187362
  0
LINE
  8
_0-4_
  6
CONTINUOUS
 62
    7
 10
2995.1999500000002
 20
1194.227807218736
 11
2995.1999500000002
 21
1194.2230072187363
  0
LINE
  8
_0-4_
  6
CONTINUOUS
 62
    7
 10
2995.1999500000002
 20
1194.2230072187363
 11
2995.1999500000002
 21
1194.221057218736
  0
LINE
  8
_0-4_
  6
CONTINUOUS
 62
    7
 10
2995.1999500000002
 20
1194.221057218736
 11
2995.1999500000002
 21
1194.2186572187361
  0
LINE
  8
_0-4_
  6
CONTINUOUS
 62
    7
 10
2995.1999500000002
 20
1194.2186572187361
 11
2995.1998000000003
 21
1194.2159572187361
  0
LINE
  8
_0-4_
  6
CONTINUOUS
 62
    7
 10
2995.1998000000003
 20
1194.2159572187361
 11
2995.1998000000003
 21
1194.2129572187362
  0
LINE
  8
_0-4_
  6
CONTINUOUS
 62
    7
 10
2995.1998000000003
 20
1194.2129572187362
 11
2995.1994999999997
 21
1194.2096572187361
  0
LINE
  8
_0-4_
  6
CONTINUOUS
 62
    7
 10
2995.1994999999997
 20
1194.2096572187361
 11
2995.1992000000009
 21
1194.2063572187362
  0
LINE
  8
_0-4_
  6
CONTINUOUS
 62
    7
 10
2995.1992000000009
 20
1194.2063572187362
 11
2995.1985999999997
 21
1194.2029072187361
  0
LINE
  8
_0-4_
  6
CONTINUOUS
 62
    7
 10
2995.1985999999997
 20
1194.2029072187361
 11
2995.1980000000003
 21
1194.1994572187361
  0
LINE
  8
_0-4_
  6
CONTINUOUS
 62
    7
 10
2995.1980000000003
 20
1194.1994572187361
 11
2995.1972500000002
 21
1194.1960072187362
  0
LINE
  8
_0-4_
  6
CONTINUOUS
 62
    7
 10
2995.1972500000002
 20
1194.1960072187362
 11
2995.1962000000003
 21
1194.1924072187362
  0
LINE
  8
_0-4_
  6
CONTINUOUS
 62
    7
 10
2995.1962000000003
 20
1194.1924072187362
 11
2995.1949999999997
 21
1194.188957218736
  0
LINE
  8
_0-4_
  6
CONTINUOUS
 62
    7
 10
2995.1949999999997
 20
1194.188957218736
 11
2995.1935000000003
 21
1194.1852072187362
  0
LINE
  8
_0-4_
  6
CONTINUOUS
 62
    7
 10
2995.1935000000003
 20
1194.1852072187362
 11
2995.1918500000002
 21
1194.1814572187361
  0
LINE
  8
_0-4_
  6
CONTINUOUS
 62
    7
 10
2995.1918500000002
 20
1194.1814572187361
 11
2995.1897500000005
 21
1194.1775572187362
  0
LINE
  8
_0-4_
  6
CONTINUOUS
 62
    7
 10
2995.1897500000005
 20
1194.1775572187362
 11
2995.1875000000009
 21
1194.1733572187361
  0
LINE
  8
_0-4_
  6
CONTINUOUS
 62
    7
 10
2995.1875000000009
 20
1194.1733572187361
 11
2995.1849500000003
 21
1194.1688572187361
  0
LINE
  8
_0-4_
  6
CONTINUOUS
 62
    7
 10
2995.1849500000003
 20
1194.1688572187361
 11
2995.1821000000009
 21
1194.164207218736
  0
LINE
  8
_0-4_
  6
CONTINUOUS
 62
    7
 10
2995.1821000000009
 20
1194.164207218736
 11
2995.1789500000004
 21
1194.159257218736
  0
LINE
  8
_0-4_
  6
CONTINUOUS
 62
    7
 10
2995.1789500000004
 20
1194.159257218736
 11
2995.1755000000003
 21
1194.1541572187361
  0
LINE
  8
_0-4_
  6
CONTINUOUS
 62
    7
 10
2995.1755000000003
 20
1194.1541572187361
 11
2995.1720500000001
 21
1194.1492072187361
  0
LINE
  8
_0-4_
  6
CONTINUOUS
 62
    7
 10
2995.1720500000001
 20
1194.1492072187361
 11
2995.1686000000009
 21
1194.1441072187361
  0
LINE
  8
_0-4_
  6
CONTINUOUS
 62
    7
 10
2995.1686000000009
 20
1194.1441072187361
 11
2995.1650000000009
 21
1194.1393072187361
  0
LINE
  8
_0-4_
  6
CONTINUOUS
 62
    7
 10
2995.1650000000009
 20
1194.1393072187361
 11
2995.1615500000003
 21
1194.134657218736
  0
LINE
  8
_0-4_
  6
CONTINUOUS
 62
    7
 10
2995.1615500000003
 20
1194.134657218736
 11
2995.1580999999996
 21
1194.1303072187361
  0
LINE
  8
_0-4_
  6
CONTINUOUS
 62
    7
 10
2995.1580999999996
 20
1194.1303072187361
 11
2995.1548000000003
 21
1194.1264072187364
  0
LINE
  8
_0-4_
  6
CONTINUOUS
 62
    7
 10
2995.1548000000003
 20
1194.1264072187364
 11
2995.1516500000002
 21
1194.1228072187364
  0
LINE
  8
_0-4_
  6
CONTINUOUS
 62
    7
 10
2995.1516500000002
 20
1194.1228072187364
 11
2995.1485000000002
 21
1194.1193572187362
  0
LINE
  8
_0-4_
  6
CONTINUOUS
 62
    7
 10
2995.1485000000002
 20
1194.1193572187362
 11
2995.1452000000008
 21
1194.1159072187361
  0
LINE
  8
_0-4_
  6
CONTINUOUS
 62
    7
 10
2995.1452000000008
 20
1194.1159072187361
 11
2995.1416000000008
 21
1194.1124572187364
  0
LINE
  8
_0-4_
  6
CONTINUOUS
 62
    7
 10
2995.1416000000008
 20
1194.1124572187364
 11
2995.1377000000002
 21
1194.1088572187364
  0
LINE
  8
_0-4_
  6
CONTINUOUS
 62
    7
 10
2995.1377000000002
 20
1194.1088572187364
 11
2995.1332000000002
 21
1194.1049572187362
  0
LINE
  8
_0-4_
  6
CONTINUOUS
 62
    7
 10
2995.1332000000002
 20
1194.1049572187362
 11
2995.1282500000002
 21
1194.1006072187363
  0
LINE
  8
_0-4_
  6
CONTINUOUS
 62
    7
 10
2995.1282500000002
 20
1194.1006072187363
 11
2995.12255
 21
1194.0958072187364
  0
LINE
  8
_0-4_
  6
CONTINUOUS
 62
    7
 10
2995.12255
 20
1194.0958072187364
 11
2995.1164000000008
 21
1194.0907072187363
  0
LINE
  8
_0-4_
  6
CONTINUOUS
 62
    7
 10
2995.1164000000008
 20
1194.0907072187363
 11
2995.1096500000003
 21
1194.0851572187362
  0
LINE
  8
_0-4_
  6
CONTINUOUS
 62
    7
 10
2995.1096500000003
 20
1194.0851572187362
 11
2995.1026000000002
 21
1194.0794572187363
  0
LINE
  8
_0-4_
  6
CONTINUOUS
 62
    7
 10
2995.1026000000002
 20
1194.0794572187363
 11
2995.0954000000002
 21
1194.0737572187363
  0
LINE
  8
_0-4_
  6
CONTINUOUS
 62
    7
 10
2995.0954000000002
 20
1194.0737572187363
 11
2995.0880500000003
 21
1194.0680572187362
  0
LINE
  8
_0-4_
  6
CONTINUOUS
 62
    7
 10
2995.0880500000003
 20
1194.0680572187362
 11
2995.0807000000004
 21
1194.0626572187361
  0
LINE
  8
_0-4_
  6
CONTINUOUS
 62
    7
 10
2995.0807000000004
 20
1194.0626572187361
 11
2995.0735000000004
 21
1194.0574072187362
  0
LINE
  8
_0-4_
  6
CONTINUOUS
 62
    7
 10
2995.0735000000004
 20
1194.0574072187362
 11
2995.0664500000003
 21
1194.0524572187362
  0
LINE
  8
_0-4_
  6
CONTINUOUS
 62
    7
 10
2995.0664500000003
 20
1194.0524572187362
 11
2995.0597000000007
 21
1194.0479572187362
  0
LINE
  8
_0-4_
  6
CONTINUOUS
 62
    7
 10
2995.0597000000007
 20
1194.0479572187362
 11
2995.0531000000001
 21
1194.0437572187361
  0
LINE
  8
_0-4_
  6
CONTINUOUS
 62
    7
 10
2995.0531000000001
 20
1194.0437572187361
 11
2995.0466500000002
 21
1194.0398572187362
  0
LINE
  8
_0-4_
  6
CONTINUOUS
 62
    7
 10
2995.0466500000002
 20
1194.0398572187362
 11
2995.0402000000004
 21
1194.0359572187363
  0
LINE
  8
_0-4_
  6
CONTINUOUS
 62
    7
 10
2995.0402000000004
 20
1194.0359572187363
 11
2995.0340500000002
 21
1194.0325072187361
  0
LINE
  8
_0-4_
  6
CONTINUOUS
 62
    7
 10
2995.0340500000002
 20
1194.0325072187361
 11
2995.0277500000002
 21
1194.0290572187362
  0
LINE
  8
_0-4_
  6
CONTINUOUS
 62
    7
 10
2995.0277500000002
 20
1194.0290572187362
 11
2995.0216
 21
1194.0256072187362
  0
LINE
  8
_0-4_
  6
CONTINUOUS
 62
    7
 10
2995.0216
 20
1194.0256072187362
 11
2995.0154500000003
 21
1194.0223072187362
  0
LINE
  8
_0-4_
  6
CONTINUOUS
 62
    7
 10
2995.0154500000003
 20
1194.0223072187362
 11
2995.0093000000006
 21
1194.0191572187362
  0
LINE
  8
_0-4_
  6
CONTINUOUS
 62
    7
 10
2995.0093000000006
 20
1194.0191572187362
 11
2995.0034500000002
 21
1194.0160072187361
  0
LINE
  8
_0-4_
  6
CONTINUOUS
 62
    7
 10
2995.0034500000002
 20
1194.0160072187361
 11
2994.99775
 21
1194.0131572187361
  0
LINE
  8
_0-4_
  6
CONTINUOUS
 62
    7
 10
2994.99775
 20
1194.0131572187361
 11
2994.9925000000003
 21
1194.0104572187361
  0
LINE
  8
_0-4_
  6
CONTINUOUS
 62
    7
 10
2994.9925000000003
 20
1194.0104572187361
 11
2994.9877000000006
 21
1194.0080572187362
  0
LINE
  8
_0-4_
  6
CONTINUOUS
 62
    7
 10
2994.9877000000006
 20
1194.0080572187362
 11
2994.9835000000007
 21
1194.0059572187361
  0
LINE
  8
_0-4_
  6
CONTINUOUS
 62
    7
 10
2994.9835000000007
 20
1194.0059572187361
 11
2994.97165
 21
1193.9999572187362
  0
LINE
  8
_0-4_
  6
CONTINUOUS
 62
    7
 10
2995.1999500000002
 20
1194.2191072187361
 11
2995.1999500000002
 21
1195.9999072187361
  0
LINE
  8
_0-4_
  6
CONTINUOUS
 62
    7
 10
2995.1999500000002
 20
1195.9999072187361
 11
2995.1999500000002
 21
1229.7998572187362
  0
LINE
  8
_0-4_
  6
CONTINUOUS
 62
    7
 10
2994.6692500000008
 20
1195.9999072187361
 11
2994.6692500000008
 21
1262.2925572187362
  0
LINE
  8
_0-4_
  6
CONTINUOUS
 62
    7
 10
2995.1993500000003
 20
1193.9999572187362
 11
3004.9127500000004
 21
1193.9999572187362
  0
LINE
  8
_0-4_
  6
CONTINUOUS
 62
    7
 10
3004.9127500000004
 20
1279.7999572187362
 11
3001.3066000000003
 21
1279.7999572187362
  0
LINE
  8
_0-4_
  6
CONTINUOUS
 62
    7
 10
2613.2582499999999
 20
1272.514907218736
 11
2613.2582499999999
 21
1272.3832072187361
  0
LINE
  8
_0-4_
  6
CONTINUOUS
 62
    7
 10
2613.2582499999999
 20
1272.3832072187361
 11
2613.1789000000003
 21
1272.3872572187361
  0
LINE
  8
_0-4_
  6
CONTINUOUS
 62
    7
 10
2613.1789000000003
 20
1272.3872572187361
 11
2613.14545
 21
1272.3890572187361
  0
LINE
  8
_0-4_
  6
CONTINUOUS
 62
    7
 10
2613.14545
 20
1272.3890572187361
 11
2613.1046500000002
 21
1272.3910072187361
  0
LINE
  8
_0-4_
  6
CONTINUOUS
 62
    7
 10
2613.1046500000002
 20
1272.3910072187361
 11
2613.0563500000007
 21
1272.3929572187362
  0
LINE
  8
_0-4_
  6
CONTINUOUS
 62
    7
 10
2613.0563500000007
 20
1272.3929572187362
 11
2613.0008500000004
 21
1272.3949072187361
  0
LINE
  8
_0-4_
  6
CONTINUOUS
 62
    7
 10
2613.0008500000004
 20
1272.3949072187361
 11
2612.9380000000001
 21
1272.3964072187362
  0
LINE
  8
_0-4_
  6
CONTINUOUS
 62
    7
 10
2612.9380000000001
 20
1272.3964072187362
 11
2612.8678
 21
1272.3976072187361
  0
LINE
  8
_0-4_
  6
CONTINUOUS
 62
    7
 10
2612.8678
 20
1272.3976072187361
 11
2612.7903999999999
 21
1272.3980572187361
  0
LINE
  8
_0-4_
  6
CONTINUOUS
 62
    7
 10
2612.7903999999999
 20
1272.3980572187361
 11
2612.7056500000003
 21
1272.3977572187362
  0
LINE
  8
_0-4_
  6
CONTINUOUS
 62
    7
 10
2612.7056500000003
 20
1272.3977572187362
 11
2612.6138500000002
 21
1272.3965572187362
  0
LINE
  8
_0-4_
  6
CONTINUOUS
 62
    7
 10
2612.6138500000002
 20
1272.3965572187362
 11
2612.5150000000003
 21
1272.3938572187362
  0
LINE
  8
_0-4_
  6
CONTINUOUS
 62
    7
 10
2612.5150000000003
 20
1272.3938572187362
 11
2612.4092500000002
 21
1272.3895072187361
  0
LINE
  8
_0-4_
  6
CONTINUOUS
 62
    7
 10
2612.4092500000002
 20
1272.3895072187361
 11
2612.2966000000001
 21
1272.3830572187362
  0
LINE
  8
_0-4_
  6
CONTINUOUS
 62
    7
 10
2612.2966000000001
 20
1272.3830572187362
 11
2612.1772000000001
 21
1272.3740572187362
  0
LINE
  8
_0-4_
  6
CONTINUOUS
 62
    7
 10
2612.1772000000001
 20
1272.3740572187362
 11
2612.0513500000006
 21
1272.3620572187363
  0
LINE
  8
_0-4_
  6
CONTINUOUS
 62
    7
 10
2612.0513500000006
 20
1272.3620572187363
 11
2611.9192000000003
 21
1272.3469072187361
  0
LINE
  8
_0-4_
  6
CONTINUOUS
 62
    7
 10
2611.9192000000003
 20
1272.3469072187361
 11
2611.7806
 21
1272.3281572187361
  0
LINE
  8
_0-4_
  6
CONTINUOUS
 62
    7
 10
2611.7806
 20
1272.3281572187361
 11
2611.6360000000004
 21
1272.3053572187362
  0
LINE
  8
_0-4_
  6
CONTINUOUS
 62
    7
 10
2611.6360000000004
 20
1272.3053572187362
 11
2611.4864499999999
 21
1272.278657218736
  0
LINE
  8
_0-4_
  6
CONTINUOUS
 62
    7
 10
2611.4864499999999
 20
1272.278657218736
 11
2611.3331500000004
 21
1272.248507218736
  0
LINE
  8
_0-4_
  6
CONTINUOUS
 62
    7
 10
2611.3331500000004
 20
1272.248507218736
 11
2611.1773000000003
 21
1272.2147572187362
  0
LINE
  8
_0-4_
  6
CONTINUOUS
 62
    7
 10
2611.1773000000003
 20
1272.2147572187362
 11
2611.0201000000002
 21
1272.177707218736
  0
LINE
  8
_0-4_
  6
CONTINUOUS
 62
    7
 10
2611.0201000000002
 20
1272.177707218736
 11
2610.8626000000004
 21
1272.1376572187362
  0
LINE
  8
_0-4_
  6
CONTINUOUS
 62
    7
 10
2610.8626000000004
 20
1272.1376572187362
 11
2610.7063000000007
 21
1272.094757218736
  0
LINE
  8
_0-4_
  6
CONTINUOUS
 62
    7
 10
2610.7063000000007
 20
1272.094757218736
 11
2610.5520999999999
 21
1272.0490072187361
  0
LINE
  8
_0-4_
  6
CONTINUOUS
 62
    7
 10
2610.5520999999999
 20
1272.0490072187361
 11
2610.4012000000002
 21
1272.001007218736
  0
LINE
  8
_0-4_
  6
CONTINUOUS
 62
    7
 10
2610.4012000000002
 20
1272.001007218736
 11
2610.2543500000002
 21
1271.9509072187361
  0
LINE
  8
_0-4_
  6
CONTINUOUS
 62
    7
 10
2610.2543500000002
 20
1271.9509072187361
 11
2610.1116999999999
 21
1271.8993072187361
  0
LINE
  8
_0-4_
  6
CONTINUOUS
 62
    7
 10
2610.1116999999999
 20
1271.8993072187361
 11
2609.9740000000002
 21
1271.8466572187363
  0
LINE
  8
_0-4_
  6
CONTINUOUS
 62
    7
 10
2609.9740000000002
 20
1271.8466572187363
 11
2609.8418500000002
 21
1271.793257218736
  0
LINE
  8
_0-4_
  6
CONTINUOUS
 62
    7
 10
2609.8418500000002
 20
1271.793257218736
 11
2609.7154
 21
1271.7397072187362
  0
LINE
  8
_0-4_
  6
CONTINUOUS
 62
    7
 10
2609.7154
 20
1271.7397072187362
 11
2609.5954000000002
 21
1271.6864572187362
  0
LINE
  8
_0-4_
  6
CONTINUOUS
 62
    7
 10
2609.5954000000002
 20
1271.6864572187362
 11
2609.4821499999998
 21
1271.6341072187361
  0
LINE
  8
_0-4_
  6
CONTINUOUS
 62
    7
 10
2609.4821499999998
 20
1271.6341072187361
 11
2609.3762500000003
 21
1271.582807218736
  0
LINE
  8
_0-4_
  6
CONTINUOUS
 62
    7
 10
2609.3762500000003
 20
1271.582807218736
 11
2609.2775500000007
 21
1271.5328572187361
  0
LINE
  8
_0-4_
  6
CONTINUOUS
 62
    7
 10
2609.2775500000007
 20
1271.5328572187361
 11
2609.1857500000006
 21
1271.484707218736
  0
LINE
  8
_0-4_
  6
CONTINUOUS
 62
    7
 10
2609.1857500000006
 20
1271.484707218736
 11
2609.1007
 21
1271.438507218736
  0
LINE
  8
_0-4_
  6
CONTINUOUS
 62
    7
 10
2609.1007
 20
1271.438507218736
 11
2609.0223999999998
 21
1271.3945572187363
  0
LINE
  8
_0-4_
  6
CONTINUOUS
 62
    7
 10
2609.0223999999998
 20
1271.3945572187363
 11
2608.95055
 21
1271.3528572187361
  0
LINE
  8
_0-4_
  6
CONTINUOUS
 62
    7
 10
2608.95055
 20
1271.3528572187361
 11
2608.8850000000002
 21
1271.3138572187361
  0
LINE
  8
_0-4_
  6
CONTINUOUS
 62
    7
 10
2608.8850000000002
 20
1271.3138572187361
 11
2608.8254500000003
 21
1271.277857218736
  0
LINE
  8
_0-4_
  6
CONTINUOUS
 62
    7
 10
2608.8254500000003
 20
1271.277857218736
 11
2608.7719000000006
 21
1271.2448572187361
  0
LINE
  8
_0-4_
  6
CONTINUOUS
 62
    7
 10
2608.7719000000006
 20
1271.2448572187361
 11
2608.7240500000003
 21
1271.2150072187362
  0
LINE
  8
_0-4_
  6
CONTINUOUS
 62
    7
 10
2608.7240500000003
 20
1271.2150072187362
 11
2608.6817500000002
 21
1271.1880072187362
  0
LINE
  8
_0-4_
  6
CONTINUOUS
 62
    7
 10
2608.6817500000002
 20
1271.1880072187362
 11
2608.64455
 21
1271.1641572187361
  0
LINE
  8
_0-4_
  6
CONTINUOUS
 62
    7
 10
2608.64455
 20
1271.1641572187361
 11
2608.6123000000002
 21
1271.1431572187362
  0
LINE
  8
_0-4_
  6
CONTINUOUS
 62
    7
 10
2608.6123000000002
 20
1271.1431572187362
 11
2608.5850000000005
 21
1271.1251572187361
  0
LINE
  8
_0-4_
  6
CONTINUOUS
 62
    7
 10
2608.5850000000005
 20
1271.1251572187361
 11
2608.5622000000003
 21
1271.110007218736
  0
LINE
  8
_0-4_
  6
CONTINUOUS
 62
    7
 10
2608.5622000000003
 20
1271.110007218736
 11
2608.4999500000004
 21
1271.0681572187361
  0
LINE
  8
_0-4_
  6
CONTINUOUS
 62
    7
 10
2608.4999500000004
 20
1272.7643572187362
 11
2608.4999500000004
 21
1271.0681572187361
  0
LINE
  8
_0-4_
  6
CONTINUOUS
 62
    7
 10
2993.2000000000007
 20
1192.500407218736
 11
2993.2000000000007
 21
1192.5020572187361
  0
LINE
  8
_0-4_
  6
CONTINUOUS
 62
    7
 10
2993.2000000000007
 20
1192.5020572187361
 11
2993.2000000000007
 21
1192.502657218736
  0
LINE
  8
_0-4_
  6
CONTINUOUS
 62
    7
 10
2993.2000000000007
 20
1192.502657218736
 11
2993.2000000000007
 21
1192.5034072187361
  0
LINE
  8
_0-4_
  6
CONTINUOUS
 62
    7
 10
2993.2000000000007
 20
1192.5034072187361
 11
2993.2000000000007
 21
1192.5043072187361
  0
LINE
  8
_0-4_
  6
CONTINUOUS
 62
    7
 10
2993.2000000000007
 20
1192.5043072187361
 11
2993.2000000000007
 21
1192.505357218736
  0
LINE
  8
_0-4_
  6
CONTINUOUS
 62
    7
 10
2993.2000000000007
 20
1192.505357218736
 11
2993.2000000000007
 21
1192.506707218736
  0
LINE
  8
_0-4_
  6
CONTINUOUS
 62
    7
 10
2993.2000000000007
 20
1192.506707218736
 11
2993.2000000000007
 21
1192.508057218736
  0
LINE
  8
_0-4_
  6
CONTINUOUS
 62
    7
 10
2993.2000000000007
 20
1192.508057218736
 11
2993.2000000000007
 21
1192.5095572187361
  0
LINE
  8
_0-4_
  6
CONTINUOUS
 62
    7
 10
2993.2000000000007
 20
1192.5095572187361
 11
2993.2000000000007
 21
1192.511207218736
  0
LINE
  8
_0-4_
  6
CONTINUOUS
 62
    7
 10
2993.2000000000007
 20
1192.511207218736
 11
2993.2000000000007
 21
1192.513007218736
  0
LINE
  8
_0-4_
  6
CONTINUOUS
 62
    7
 10
2993.2000000000007
 20
1192.513007218736
 11
2993.2000000000007
 21
1192.515257218736
  0
LINE
  8
_0-4_
  6
CONTINUOUS
 62
    7
 10
2993.2000000000007
 20
1192.515257218736
 11
2993.2000000000007
 21
1192.5181072187361
  0
LINE
  8
_0-4_
  6
CONTINUOUS
 62
    7
 10
2993.2000000000007
 20
1192.5181072187361
 11
2993.2000000000007
 21
1192.5218572187362
  0
LINE
  8
_0-4_
  6
CONTINUOUS
 62
    7
 10
2993.2000000000007
 20
1192.5218572187362
 11
2993.2000000000007
 21
1192.5266572187361
  0
LINE
  8
_0-4_
  6
CONTINUOUS
 62
    7
 10
2993.2000000000007
 20
1192.5266572187361
 11
2993.2000000000007
 21
1192.532807218736
  0
LINE
  8
_0-4_
  6
CONTINUOUS
 62
    7
 10
2993.2000000000007
 20
1192.532807218736
 11
2993.2000000000007
 21
1192.5406072187361
  0
LINE
  8
_0-4_
  6
CONTINUOUS
 62
    7
 10
2993.2000000000007
 20
1192.5406072187361
 11
2993.2000000000007
 21
1192.5503572187361
  0
LINE
  8
_0-4_
  6
CONTINUOUS
 62
    7
 10
2993.2000000000007
 20
1192.5503572187361
 11
2993.2000000000007
 21
1192.5620572187361
  0
LINE
  8
_0-4_
  6
CONTINUOUS
 62
    7
 10
2993.2000000000007
 20
1192.5620572187361
 11
2993.2000000000007
 21
1192.5757072187362
  0
LINE
  8
_0-4_
  6
CONTINUOUS
 62
    7
 10
2993.2000000000007
 20
1192.5757072187362
 11
2993.2000000000007
 21
1192.5911572187363
  0
LINE
  8
_0-4_
  6
CONTINUOUS
 62
    7
 10
2993.2000000000007
 20
1192.5911572187363
 11
2993.2000000000007
 21
1192.6085572187362
  0
LINE
  8
_0-4_
  6
CONTINUOUS
 62
    7
 10
2993.2000000000007
 20
1192.6085572187362
 11
2993.2000000000007
 21
1192.6276072187361
  0
LINE
  8
_0-4_
  6
CONTINUOUS
 62
    7
 10
2993.2000000000007
 20
1192.6276072187361
 11
2993.2000000000007
 21
1192.6481572187363
  0
LINE
  8
_0-4_
  6
CONTINUOUS
 62
    7
 10
2993.2000000000007
 20
1192.6481572187363
 11
2993.2000000000007
 21
1192.6702072187363
  0
LINE
  8
_0-4_
  6
CONTINUOUS
 62
    7
 10
2993.2000000000007
 20
1192.6702072187363
 11
2993.2000000000007
 21
1192.6937572187362
  0
LINE
  8
_0-4_
  6
CONTINUOUS
 62
    7
 10
2993.2000000000007
 20
1192.6937572187362
 11
2993.2000000000007
 21
1192.7185072187362
  0
LINE
  8
_0-4_
  6
CONTINUOUS
 62
    7
 10
2993.2000000000007
 20
1192.7185072187362
 11
2993.2000000000007
 21
1192.7446072187361
  0
LINE
  8
_0-4_
  6
CONTINUOUS
 62
    7
 10
2993.2000000000007
 20
1192.7446072187361
 11
2993.2000000000007
 21
1192.771907218736
  0
LINE
  8
_0-4_
  6
CONTINUOUS
 62
    7
 10
2993.2000000000007
 20
1192.771907218736
 11
2993.2000000000007
 21
1192.8005572187362
  0
LINE
  8
_0-4_
  6
CONTINUOUS
 62
    7
 10
2993.2000000000007
 20
1192.8005572187362
 11
2993.2000000000007
 21
1192.8304072187361
  0
LINE
  8
_0-4_
  6
CONTINUOUS
 62
    7
 10
2993.2000000000007
 20
1192.8304072187361
 11
2993.2000000000007
 21
1192.8614572187362
  0
LINE
  8
_0-4_
  6
CONTINUOUS
 62
    7
 10
2993.2000000000007
 20
1192.8614572187362
 11
2993.2000000000007
 21
1192.8937072187362
  0
LINE
  8
_0-4_
  6
CONTINUOUS
 62
    7
 10
2993.2000000000007
 20
1192.8937072187362
 11
2993.2000000000007
 21
1192.9271572187363
  0
LINE
  8
_0-4_
  6
CONTINUOUS
 62
    7
 10
2993.2000000000007
 20
1192.9271572187363
 11
2993.2000000000007
 21
1192.961957218736
  0
LINE
  8
_0-4_
  6
CONTINUOUS
 62
    7
 10
2993.2000000000007
 20
1192.961957218736
 11
2993.2000000000007
 21
1192.9978072187362
  0
LINE
  8
_0-4_
  6
CONTINUOUS
 62
    7
 10
2993.2000000000007
 20
1192.9978072187362
 11
2993.2000000000007
 21
1193.0348572187361
  0
LINE
  8
_0-4_
  6
CONTINUOUS
 62
    7
 10
2993.2000000000007
 20
1193.0348572187361
 11
2993.2000000000007
 21
1193.0729572187361
  0
LINE
  8
_0-4_
  6
CONTINUOUS
 62
    7
 10
2993.2000000000007
 20
1193.0729572187361
 11
2993.2000000000007
 21
1193.1121072187361
  0
LINE
  8
_0-4_
  6
CONTINUOUS
 62
    7
 10
2993.2000000000007
 20
1193.1121072187361
 11
2993.2000000000007
 21
1193.1523072187363
  0
LINE
  8
_0-4_
  6
CONTINUOUS
 62
    7
 10
2993.2000000000007
 20
1193.1523072187363
 11
2993.2000000000007
 21
1193.193407218736
  0
LINE
  8
_0-4_
  6
CONTINUOUS
 62
    7
 10
2993.2000000000007
 20
1193.193407218736
 11
2993.2000000000007
 21
1193.2354072187361
  0
LINE
  8
_0-4_
  6
CONTINUOUS
 62
    7
 10
2993.2000000000007
 20
1193.2354072187361
 11
2993.2000000000007
 21
1193.2781572187362
  0
LINE
  8
_0-4_
  6
CONTINUOUS
 62
    7
 10
2993.2000000000007
 20
1193.2781572187362
 11
2993.2000000000007
 21
1193.3216572187362
  0
LINE
  8
_0-4_
  6
CONTINUOUS
 62
    7
 10
2993.2000000000007
 20
1193.3216572187362
 11
2993.2000000000007
 21
1193.3653072187362
  0
LINE
  8
_0-4_
  6
CONTINUOUS
 62
    7
 10
2993.2000000000007
 20
1193.3653072187362
 11
2993.2000000000007
 21
1193.4089572187361
  0
LINE
  8
_0-4_
  6
CONTINUOUS
 62
    7
 10
2993.2000000000007
 20
1193.4089572187361
 11
2993.2000000000007
 21
1193.452307218736
  0
LINE
  8
_0-4_
  6
CONTINUOUS
 62
    7
 10
2993.2000000000007
 20
1193.452307218736
 11
2993.2000000000007
 21
1193.4950572187361
  0
LINE
  8
_0-4_
  6
CONTINUOUS
 62
    7
 10
2993.2000000000007
 20
1193.4950572187361
 11
2993.2000000000007
 21
1193.5369072187361
  0
LINE
  8
_0-4_
  6
CONTINUOUS
 62
    7
 10
2993.2000000000007
 20
1193.5369072187361
 11
2993.2000000000007
 21
1193.5775572187363
  0
LINE
  8
_0-4_
  6
CONTINUOUS
 62
    7
 10
2993.2000000000007
 20
1193.5775572187363
 11
2993.2000000000007
 21
1193.6165572187363
  0
LINE
  8
_0-4_
  6
CONTINUOUS
 62
    7
 10
2993.2000000000007
 20
1193.6165572187363
 11
2993.2000000000007
 21
1193.6542072187362
  0
LINE
  8
_0-4_
  6
CONTINUOUS
 62
    7
 10
2993.2000000000007
 20
1193.6542072187362
 11
2993.2000000000007
 21
1193.690057218736
  0
LINE
  8
_0-4_
  6
CONTINUOUS
 62
    7
 10
2993.2000000000007
 20
1193.690057218736
 11
2993.2000000000007
 21
1193.7242572187361
  0
LINE
  8
_0-4_
  6
CONTINUOUS
 62
    7
 10
2993.2000000000007
 20
1193.7242572187361
 11
2993.2000000000007
 21
1193.7565072187363
  0
LINE
  8
_0-4_
  6
CONTINUOUS
 62
    7
 10
2993.2000000000007
 20
1193.7565072187363
 11
2993.2000000000007
 21
1193.786957218736
  0
LINE
  8
_0-4_
  6
CONTINUOUS
 62
    7
 10
2993.2000000000007
 20
1193.786957218736
 11
2993.2000000000007
 21
1193.8154572187361
  0
LINE
  8
_0-4_
  6
CONTINUOUS
 62
    7
 10
2993.2000000000007
 20
1193.8154572187361
 11
2993.2000000000007
 21
1193.8418572187361
  0
LINE
  8
_0-4_
  6
CONTINUOUS
 62
    7
 10
2993.2000000000007
 20
1193.8418572187361
 11
2993.2000000000007
 21
1193.8663072187362
  0
LINE
  8
_0-4_
  6
CONTINUOUS
 62
    7
 10
2993.2000000000007
 20
1193.8663072187362
 11
2993.2000000000007
 21
1193.8885072187361
  0
LINE
  8
_0-4_
  6
CONTINUOUS
 62
    7
 10
2993.2000000000007
 20
1193.8885072187361
 11
2993.2000000000007
 21
1193.9086072187361
  0
LINE
  8
_0-4_
  6
CONTINUOUS
 62
    7
 10
2993.2000000000007
 20
1193.9086072187361
 11
2993.2000000000007
 21
1193.9266072187361
  0
LINE
  8
_0-4_
  6
CONTINUOUS
 62
    7
 10
2993.2000000000007
 20
1193.9266072187361
 11
2993.2000000000007
 21
1193.9423572187361
  0
LINE
  8
_0-4_
  6
CONTINUOUS
 62
    7
 10
2993.2000000000007
 20
1193.9423572187361
 11
2993.2000000000007
 21
1193.9561572187361
  0
LINE
  8
_0-4_
  6
CONTINUOUS
 62
    7
 10
2993.2000000000007
 20
1193.9561572187361
 11
2993.2000000000007
 21
1193.9678572187361
  0
LINE
  8
_0-4_
  6
CONTINUOUS
 62
    7
 10
2993.2000000000007
 20
1193.9678572187361
 11
2993.2000000000007
 21
1193.9999572187362
  0
LINE
  8
_0-4_
  6
CONTINUOUS
 62
    7
 10
2993.7427000000002
 20
1193.9999572187362
 11
2993.7274000000002
 21
1194.0026572187362
  0
LINE
  8
_0-4_
  6
CONTINUOUS
 62
    7
 10
2993.7274000000002
 20
1194.0026572187362
 11
2993.7209500000008
 21
1194.0037072187363
  0
LINE
  8
_0-4_
  6
CONTINUOUS
 62
    7
 10
2993.7209500000008
 20
1194.0037072187363
 11
2993.7131500000005
 21
1194.0052072187361
  0
LINE
  8
_0-4_
  6
CONTINUOUS
 62
    7
 10
2993.7131500000005
 20
1194.0052072187361
 11
2993.7044500000002
 21
1194.0067072187362
  0
LINE
  8
_0-4_
  6
CONTINUOUS
 62
    7
 10
2993.7044500000002
 20
1194.0067072187362
 11
2993.6947000000005
 21
1194.0085072187362
  0
LINE
  8
_0-4_
  6
CONTINUOUS
 62
    7
 10
2993.6947000000005
 20
1194.0085072187362
 11
2993.6843500000004
 21
1194.0103072187362
  0
LINE
  8
_0-4_
  6
CONTINUOUS
 62
    7
 10
2993.6843500000004
 20
1194.0103072187362
 11
2993.6734000000001
 21
1194.0122572187361
  0
LINE
  8
_0-4_
  6
CONTINUOUS
 62
    7
 10
2993.6734000000001
 20
1194.0122572187361
 11
2993.6620000000003
 21
1194.0143572187362
  0
LINE
  8
_0-4_
  6
CONTINUOUS
 62
    7
 10
2993.6620000000003
 20
1194.0143572187362
 11
2993.6506000000004
 21
1194.0166072187362
  0
LINE
  8
_0-4_
  6
CONTINUOUS
 62
    7
 10
2993.6506000000004
 20
1194.0166072187362
 11
2993.6390500000007
 21
1194.0187072187362
  0
LINE
  8
_0-4_
  6
CONTINUOUS
 62
    7
 10
2993.6390500000007
 20
1194.0187072187362
 11
2993.6275000000001
 21
1194.0209572187362
  0
LINE
  8
_0-4_
  6
CONTINUOUS
 62
    7
 10
2993.6275000000001
 20
1194.0209572187362
 11
2993.6156500000006
 21
1194.0232072187362
  0
LINE
  8
_0-4_
  6
CONTINUOUS
 62
    7
 10
2993.6156500000006
 20
1194.0232072187362
 11
2993.60365
 21
1194.0256072187362
  0
LINE
  8
_0-4_
  6
CONTINUOUS
 62
    7
 10
2993.60365
 20
1194.0256072187362
 11
2993.5913500000006
 21
1194.0283072187362
  0
LINE
  8
_0-4_
  6
CONTINUOUS
 62
    7
 10
2993.5913500000006
 20
1194.0283072187362
 11
2993.57845
 21
1194.0310072187362
  0
LINE
  8
_0-4_
  6
CONTINUOUS
 62
    7
 10
2993.57845
 20
1194.0310072187362
 11
2993.5652500000006
 21
1194.0340072187362
  0
LINE
  8
_0-4_
  6
CONTINUOUS
 62
    7
 10
2993.5652500000006
 20
1194.0340072187362
 11
2993.5513000000001
 21
1194.0371572187362
  0
LINE
  8
_0-4_
  6
CONTINUOUS
 62
    7
 10
2993.5513000000001
 20
1194.0371572187362
 11
2993.5367500000007
 21
1194.0406072187361
  0
LINE
  8
_0-4_
  6
CONTINUOUS
 62
    7
 10
2993.5367500000007
 20
1194.0406072187361
 11
2993.5217499999999
 21
1194.0442072187361
  0
LINE
  8
_0-4_
  6
CONTINUOUS
 62
    7
 10
2993.5217499999999
 20
1194.0442072187361
 11
2993.5066000000006
 21
1194.0479572187362
  0
LINE
  8
_0-4_
  6
CONTINUOUS
 62
    7
 10
2993.5066000000006
 20
1194.0479572187362
 11
2993.4916000000003
 21
1194.0518572187361
  0
LINE
  8
_0-4_
  6
CONTINUOUS
 62
    7
 10
2993.4916000000003
 20
1194.0518572187361
 11
2993.4769000000006
 21
1194.0556072187362
  0
LINE
  8
_0-4_
  6
CONTINUOUS
 62
    7
 10
2993.4769000000006
 20
1194.0556072187362
 11
2993.4629500000005
 21
1194.0592072187362
  0
LINE
  8
_0-4_
  6
CONTINUOUS
 62
    7
 10
2993.4629500000005
 20
1194.0592072187362
 11
2993.4497500000002
 21
1194.0626572187361
  0
LINE
  8
_0-4_
  6
CONTINUOUS
 62
    7
 10
2993.4497500000002
 20
1194.0626572187361
 11
2993.4377500000005
 21
1194.0658072187362
  0
LINE
  8
_0-4_
  6
CONTINUOUS
 62
    7
 10
2993.4377500000005
 20
1194.0658072187362
 11
2993.4270999999999
 21
1194.0686572187362
  0
LINE
  8
_0-4_
  6
CONTINUOUS
 62
    7
 10
2993.4270999999999
 20
1194.0686572187362
 11
2993.4176500000003
 21
1194.0712072187362
  0
LINE
  8
_0-4_
  6
CONTINUOUS
 62
    7
 10
2993.4176500000003
 20
1194.0712072187362
 11
2993.4092500000002
 21
1194.0734572187362
  0
LINE
  8
_0-4_
  6
CONTINUOUS
 62
    7
 10
2993.4092500000002
 20
1194.0734572187362
 11
2993.4014500000003
 21
1194.0757072187362
  0
LINE
  8
_0-4_
  6
CONTINUOUS
 62
    7
 10
2993.4014500000003
 20
1194.0757072187362
 11
2993.3944000000001
 21
1194.0778072187363
  0
LINE
  8
_0-4_
  6
CONTINUOUS
 62
    7
 10
2993.3944000000001
 20
1194.0778072187363
 11
2993.3874999999998
 21
1194.0799072187363
  0
LINE
  8
_0-4_
  6
CONTINUOUS
 62
    7
 10
2993.3874999999998
 20
1194.0799072187363
 11
2993.3809000000001
 21
1194.0820072187362
  0
LINE
  8
_0-4_
  6
CONTINUOUS
 62
    7
 10
2993.3809000000001
 20
1194.0820072187362
 11
2993.3739999999998
 21
1194.0842572187362
  0
LINE
  8
_0-4_
  6
CONTINUOUS
 62
    7
 10
2993.3739999999998
 20
1194.0842572187362
 11
2993.3669500000001
 21
1194.0868072187363
  0
LINE
  8
_0-4_
  6
CONTINUOUS
 62
    7
 10
2993.3669500000001
 20
1194.0868072187363
 11
2993.3597500000001
 21
1194.0893572187363
  0
LINE
  8
_0-4_
  6
CONTINUOUS
 62
    7
 10
2993.3597500000001
 20
1194.0893572187363
 11
2993.3523999999998
 21
1194.0919072187362
  0
LINE
  8
_0-4_
  6
CONTINUOUS
 62
    7
 10
2993.3523999999998
 20
1194.0919072187362
 11
2993.3450500000004
 21
1194.0946072187362
  0
LINE
  8
_0-4_
  6
CONTINUOUS
 62
    7
 10
2993.3450500000004
 20
1194.0946072187362
 11
2993.3379999999997
 21
1194.0971572187364
  0
LINE
  8
_0-4_
  6
CONTINUOUS
 62
    7
 10
2993.3379999999997
 20
1194.0971572187364
 11
2993.3312500000002
 21
1194.0997072187361
  0
LINE
  8
_0-4_
  6
CONTINUOUS
 62
    7
 10
2993.3312500000002
 20
1194.0997072187361
 11
2993.3248000000003
 21
1194.1021072187364
  0
LINE
  8
_0-4_
  6
CONTINUOUS
 62
    7
 10
2993.3248000000003
 20
1194.1021072187364
 11
2993.3190999999997
 21
1194.1042072187361
  0
LINE
  8
_0-4_
  6
CONTINUOUS
 62
    7
 10
2993.3190999999997
 20
1194.1042072187361
 11
2993.3138500000005
 21
1194.1063072187362
  0
LINE
  8
_0-4_
  6
CONTINUOUS
 62
    7
 10
2993.3138500000005
 20
1194.1063072187362
 11
2993.3093500000004
 21
1194.1081072187362
  0
LINE
  8
_0-4_
  6
CONTINUOUS
 62
    7
 10
2993.3093500000004
 20
1194.1081072187362
 11
2993.3051500000001
 21
1194.1097572187364
  0
LINE
  8
_0-4_
  6
CONTINUOUS
 62
    7
 10
2993.3051500000001
 20
1194.1097572187364
 11
2993.3014000000003
 21
1194.1112572187362
  0
LINE
  8
_0-4_
  6
CONTINUOUS
 62
    7
 10
2993.3014000000003
 20
1194.1112572187362
 11
2993.2978000000003
 21
1194.1127572187361
  0
LINE
  8
_0-4_
  6
CONTINUOUS
 62
    7
 10
2993.2978000000003
 20
1194.1127572187361
 11
2993.2942000000003
 21
1194.1144072187362
  0
LINE
  8
_0-4_
  6
CONTINUOUS
 62
    7
 10
2993.2942000000003
 20
1194.1144072187362
 11
2993.2906000000003
 21
1194.1160572187364
  0
LINE
  8
_0-4_
  6
CONTINUOUS
 62
    7
 10
2993.2906000000003
 20
1194.1160572187364
 11
2993.2868500000004
 21
1194.1178572187364
  0
LINE
  8
_0-4_
  6
CONTINUOUS
 62
    7
 10
2993.2868500000004
 20
1194.1178572187364
 11
2993.2828000000009
 21
1194.1199572187361
  0
LINE
  8
_0-4_
  6
CONTINUOUS
 62
    7
 10
2993.2828000000009
 20
1194.1199572187361
 11
2993.2784500000002
 21
1194.1220572187362
  0
LINE
  8
_0-4_
  6
CONTINUOUS
 62
    7
 10
2993.2784500000002
 20
1194.1220572187362
 11
2993.2739500000002
 21
1194.1243072187362
  0
LINE
  8
_0-4_
  6
CONTINUOUS
 62
    7
 10
2993.2739500000002
 20
1194.1243072187362
 11
2993.2694500000002
 21
1194.1265572187363
  0
LINE
  8
_0-4_
  6
CONTINUOUS
 62
    7
 10
2993.2694500000002
 20
1194.1265572187363
 11
2993.2649500000002
 21
1194.1289572187361
  0
LINE
  8
_0-4_
  6
CONTINUOUS
 62
    7
 10
2993.2649500000002
 20
1194.1289572187361
 11
2993.2604500000002
 21
1194.131357218736
  0
LINE
  8
_0-4_
  6
CONTINUOUS
 62
    7
 10
2993.2604500000002
 20
1194.131357218736
 11
2993.2562500000004
 21
1194.133607218736
  0
LINE
  8
_0-4_
  6
CONTINUOUS
 62
    7
 10
2993.2562500000004
 20
1194.133607218736
 11
2993.2522000000008
 21
1194.1357072187361
  0
LINE
  8
_0-4_
  6
CONTINUOUS
 62
    7
 10
2993.2522000000008
 20
1194.1357072187361
 11
2993.2484500000005
 21
1194.137807218736
  0
LINE
  8
_0-4_
  6
CONTINUOUS
 62
    7
 10
2993.2484500000005
 20
1194.137807218736
 11
2993.2450000000008
 21
1194.1397572187361
  0
LINE
  8
_0-4_
  6
CONTINUOUS
 62
    7
 10
2993.2450000000008
 20
1194.1397572187361
 11
2993.2418500000003
 21
1194.1415572187361
  0
LINE
  8
_0-4_
  6
CONTINUOUS
 62
    7
 10
2993.2418500000003
 20
1194.1415572187361
 11
2993.2390000000005
 21
1194.1433572187361
  0
LINE
  8
_0-4_
  6
CONTINUOUS
 62
    7
 10
2993.2390000000005
 20
1194.1433572187361
 11
2993.2361500000002
 21
1194.1451572187361
  0
LINE
  8
_0-4_
  6
CONTINUOUS
 62
    7
 10
2993.2361500000002
 20
1194.1451572187361
 11
2993.2336000000005
 21
1194.1469572187361
  0
LINE
  8
_0-4_
  6
CONTINUOUS
 62
    7
 10
2993.2336000000005
 20
1194.1469572187361
 11
2993.2312000000002
 21
1194.1487572187361
  0
LINE
  8
_0-4_
  6
CONTINUOUS
 62
    7
 10
2993.2312000000002
 20
1194.1487572187361
 11
2993.2289500000002
 21
1194.1505572187361
  0
LINE
  8
_0-4_
  6
CONTINUOUS
 62
    7
 10
2993.2289500000002
 20
1194.1505572187361
 11
2993.2267000000002
 21
1194.152507218736
  0
LINE
  8
_0-4_
  6
CONTINUOUS
 62
    7
 10
2993.2267000000002
 20
1194.152507218736
 11
2993.2246000000005
 21
1194.1546072187361
  0
LINE
  8
_0-4_
  6
CONTINUOUS
 62
    7
 10
2993.2246000000005
 20
1194.1546072187361
 11
2993.2226500000002
 21
1194.156557218736
  0
LINE
  8
_0-4_
  6
CONTINUOUS
 62
    7
 10
2993.2226500000002
 20
1194.156557218736
 11
2993.2208500000002
 21
1194.1585072187361
  0
LINE
  8
_0-4_
  6
CONTINUOUS
 62
    7
 10
2993.2208500000002
 20
1194.1585072187361
 11
2993.2192000000005
 21
1194.1604572187362
  0
LINE
  8
_0-4_
  6
CONTINUOUS
 62
    7
 10
2993.2192000000005
 20
1194.1604572187362
 11
2993.2177000000001
 21
1194.1621072187361
  0
LINE
  8
_0-4_
  6
CONTINUOUS
 62
    7
 10
2993.2177000000001
 20
1194.1621072187361
 11
2993.2165000000005
 21
1194.1636072187362
  0
LINE
  8
_0-4_
  6
CONTINUOUS
 62
    7
 10
2993.2165000000005
 20
1194.1636072187362
 11
2993.2129000000004
 21
1194.1681072187362
  0
LINE
  8
_0-4_
  6
CONTINUOUS
 62
    7
 10
2993.2000000000007
 20
1194.1979572187361
 11
2993.2000000000007
 21
1195.9999072187361
  0
LINE
  8
_0-4_
  6
CONTINUOUS
 62
    7
 10
2995.1999500000002
 20
1195.9999072187361
 11
2993.2000000000007
 21
1195.9999072187361
  0
LINE
  8
_0-4_
  6
CONTINUOUS
 62
    7
 10
2995.1999500000002
 20
1192.4962072187361
 11
2995.1999500000002
 21
1194.0008572187362
  0
LINE
  8
_0-4_
  6
CONTINUOUS
 62
    7
 10
2608.4999500000004
 20
1194.1999072187361
 11
2608.4999500000004
 21
1192.499957218736
  0
LINE
  8
_0-4_
  6
CONTINUOUS
 62
    7
 10
2608.4999500000004
 20
1194.1999072187361
 11
2989.3154500000001
 21
1194.1999072187361
  0
LINE
  8
_0-4_
  6
CONTINUOUS
 62
    7
 10
2663.5379499999999
 20
1269.7481572187362
 11
2613.2582499999999
 21
1272.3832072187361
  0
LINE
  8
_0-4_
  6
CONTINUOUS
 62
    7
 10
2668.1000500000005
 20
1269.6286072187361
 11
2980
 21
1269.6286072187361
  0
LINE
  8
_0-4_
  6
CONTINUOUS
 62
    7
 10
2989.3154500000001
 20
1193.9999572187362
 11
2989.3154500000001
 21
1194.1999072187361
  0
LINE
  8
_0-4_
  6
CONTINUOUS
 62
    7
 10
2608.4999500000004
 20
1197.4999072187361
 11
2608.4999500000004
 21
1194.1999072187361
  0
LINE
  8
_0-4_
  6
CONTINUOUS
 62
    7
 10
2608
 20
1197.999857218736
 11
2608.4999500000004
 21
1197.4999072187361
  0
LINE
  8
_0-4_
  6
CONTINUOUS
 62
    7
 10
2608
 20
1223.9999572187362
 11
2608
 21
1197.999857218736
  0
LINE
  8
_0-4_
  6
CONTINUOUS
 62
    7
 10
2619.7157500000003
 20
1226.9999572187362
 11
2611
 21
1226.9999572187362
  0
LINE
  8
_0-4_
  6
CONTINUOUS
 62
    7
 10
2633.2000000000007
 20
1231.749857218736
 11
2625.5842000000002
 21
1231.749857218736
  0
LINE
  8
_0-4_
  6
CONTINUOUS
 62
    7
 10
2633.6999500000002
 20
1231.6159072187361
 11
2633.6999500000002
 21
1222.499957218736
  0
LINE
  8
_0-4_
  6
CONTINUOUS
 62
    7
 10
2639.5000000000005
 20
1222.499957218736
 11
2633.6999500000002
 21
1222.499957218736
  0
LINE
  8
_0-4_
  6
CONTINUOUS
 62
    7
 10
2639.6999500000002
 20
1249.2998572187362
 11
2639.6999500000002
 21
1222.6999072187361
  0
LINE
  8
_0-4_
  6
CONTINUOUS
 62
    7
 10
2633.6999500000002
 20
1249.499957218736
 11
2639.5000000000005
 21
1249.499957218736
  0
LINE
  8
_0-4_
  6
CONTINUOUS
 62
    7
 10
2633.6999500000002
 20
1249.499957218736
 11
2633.6999500000002
 21
1240.383857218736
  0
LINE
  8
_0-4_
  6
CONTINUOUS
 62
    7
 10
2625.5842000000002
 20
1240.2499072187361
 11
2633.2000000000007
 21
1240.2499072187361
  0
LINE
  8
_0-4_
  6
CONTINUOUS
 62
    7
 10
2611
 20
1244.999957218736
 11
2619.7157500000003
 21
1244.999957218736
  0
LINE
  8
_0-4_
  6
CONTINUOUS
 62
    7
 10
2608
 20
1269.4999072187361
 11
2608
 21
1247.9999572187362
  0
LINE
  8
_0-4_
  6
CONTINUOUS
 62
    7
 10
2608.4999500000004
 20
1269.4999072187361
 11
2608
 21
1269.4999072187361
  0
LINE
  8
_0-4_
  6
CONTINUOUS
 62
    7
 10
2989.3154500000001
 20
1193.9999572187362
 11
2993.2000000000007
 21
1193.9999572187362
  0
LINE
  8
_0-4_
  6
CONTINUOUS
 62
    7
 10
2993.2000000000007
 20
1193.9999572187362
 11
2993.7427000000002
 21
1193.9999572187362
  0
LINE
  8
_0-4_
  6
CONTINUOUS
 62
    7
 10
2986
 20
1279.7999572187362
 11
2990.6933500000005
 21
1279.7999572187362
  0
LINE
  8
_0-4_
  6
CONTINUOUS
 62
    7
 10
2608.4999500000004
 20
1271.0681572187361
 11
2608.4999500000004
 21
1269.4999072187361
  0
LINE
  8
_0-4_
  6
CONTINUOUS
 62
    7
 10
2668.1000500000005
 20
1269.6286072187361
 11
2668.1000500000005
 21
1269.7603072187362
  0
LINE
  8
_0-4_
  6
CONTINUOUS
 62
    7
 10
2980
 20
1269.6286072187361
 11
2980
 21
1269.7603072187362
  0
LINE
  8
_0-4_
  6
CONTINUOUS
 62
    7
 10
2663.5379499999999
 20
1269.7481572187362
 11
2663.5448500000002
 21
1269.8795572187362
  0
LINE
  8
_0-4_
  6
CONTINUOUS
 62
    7
 10
2634.1998999999996
 20
1241.249957218736
 11
2634.1998999999996
 21
1249.2998572187362
  0
LINE
  8
_0-4_
  6
CONTINUOUS
 62
    7
 10
2634.1998999999996
 20
1222.6999072187361
 11
2634.1998999999996
 21
1230.749957218736
  0
LINE
  8
_0-4_
  6
CONTINUOUS
 62
    7
 10
2605.9999000000007
 20
1193.9999572187362
 11
2605.9999000000007
 21
1192.9999072187361
  0
LINE
  8
_0-4_
  6
CONTINUOUS
 62
    7
 10
2605.9999000000007
 20
1192.9999072187361
 11
2608.4999500000004
 21
1192.9999072187361
  0
LINE
  8
_0-4_
  6
CONTINUOUS
 62
    7
 10
2608.4999500000004
 20
1193.9999572187362
 11
2605.9999000000007
 21
1193.9999572187362
  0
LINE
  8
_0-4_
  6
CONTINUOUS
 62
    7
 10
3004.9127500000004
 20
1193.9999572187362
 11
3004.9127500000004
 21
1268.2333072187362
  0
LINE
  8
_0-4_
  6
CONTINUOUS
 62
    7
 10
3004.9127500000004
 20
1275.366557218736
 11
3004.9127500000004
 21
1279.7999572187362
  0
LINE
  8
_0-4_
  6
CONTINUOUS
 62
    7
 10
2995.9999000000007
 20
1271.7998572187362
 11
2995.9999000000007
 21
1272.2999572187362
  0
LINE
  8
_0-4_
  6
CONTINUOUS
 62
    7
 10
2995.9999000000007
 20
1271.7998572187362
 11
2995.4999500000004
 21
1271.7998572187362
  0
LINE
  8
_0-4_
  6
CONTINUOUS
 62
    7
 10
2995.9999000000007
 20
1271.7998572187362
 11
2995.9999000000007
 21
1271.2999072187361
  0
LINE
  8
_0-4_
  6
CONTINUOUS
 62
    7
 10
2995.9999000000007
 20
1271.7998572187362
 11
2996.5000000000005
 21
1271.7998572187362
  0
LINE
  8
_0-4_
  6
CONTINUOUS
 62
    7
 10
2995.9999000000007
 20
1272.7999072187363
 11
2995.9999000000007
 21
1281.8999572187363
  0
LINE
  8
_0-4_
  6
CONTINUOUS
 62
    7
 10
2995
 20
1271.7998572187362
 11
2985.8999500000004
 21
1271.7998572187362
  0
LINE
  8
_0-4_
  6
CONTINUOUS
 62
    7
 10
2995.9999000000007
 20
1270.7999572187362
 11
2995.9999000000007
 21
1261.6999072187361
  0
LINE
  8
_0-4_
  6
CONTINUOUS
 62
    7
 10
2996.9999500000004
 20
1271.7998572187362
 11
3006.1000000000004
 21
1271.7998572187362
  0
LINE
  8
_0-4_
  6
CENTER2
 62
    7
 10
2646.9919000000004
 20
1235.9999572187362
 11
2621.8342000000002
 21
1235.9999572187362
  0
ARC
  8
_0-4_
  6
CONTINUOUS
 62
    7
 10
2668.1000500000005
 20
1356.7999072187358
 40
87.039600000000021
 50
267
 51
270.00000000000006
  0
CIRCLE
  8
_0-4_
  6
CONTINUOUS
 62
    7
 10
2995.9999000000007
 20
1271.7998572187362
 40
9.6000000000000014
  0
ARC
  8
_0-4_
  6
CONTINUOUS
 62
    7
 10
2668.1000500000005
 20
1356.7999072187358
 40
87.171300000000002
 50
267
 51
270.00000000000006
  0
ARC
  8
_0-4_
  6
CONTINUOUS
 62
    7
 10
2982.1300000000001
 20
1278.5999572187361
 40
1.9999500000000003
 50
270.00000000000006
 51
348.47200000000004
  0
ARC
  8
_0-4_
  6
CONTINUOUS
 62
    7
 10
2986.0493500000007
 20
1277.800457218736
 40
1.9999500000000003
 50
91.413000000000025
 51
168.47200000000004
  0
ARC
  8
_0-4_
  6
CONTINUOUS
 62
    7
 10
2611
 20
1223.9999572187362
 40
3.0000000000000004
 50
90.000000000000028
 51
180.00000000000006
  0
ARC
  8
_0-4_
  6
CONTINUOUS
 62
    7
 10
2619.7157500000003
 20
1229.999957218736
 40
3.0000000000000004
 50
270.00000000000006
 51
347.97500000000008
  0
ARC
  8
_0-4_
  6
CONTINUOUS
 62
    7
 10
2625.5842000000002
 20
1228.7498572187362
 40
3.0000000000000004
 50
90.000000000000028
 51
167.97500000000002
  0
ARC
  8
_0-4_
  6
CONTINUOUS
 62
    7
 10
2633.2000000000007
 20
1230.749957218736
 40
1.0000500000000001
 50
60.000000000000007
 51
90.000000000000014
  0
ARC
  8
_0-4_
  6
CONTINUOUS
 62
    7
 10
2639.5000000000005
 20
1222.6999072187361
 40
0.19995
 50
270.00000000000006
 51
0.0000000000000763
  0
ARC
  8
_0-4_
  6
CONTINUOUS
 62
    7
 10
2639.5000000000005
 20
1249.2998572187362
 40
0.19995
 50
0
 51
90.000000000000028
  0
ARC
  8
_0-4_
  6
CONTINUOUS
 62
    7
 10
2633.2000000000007
 20
1241.249957218736
 40
1.0000500000000001
 50
270.00000000000006
 51
300.00000000000006
  0
ARC
  8
_0-4_
  6
CONTINUOUS
 62
    7
 10
2625.5842000000002
 20
1243.2499072187361
 40
3.0000000000000004
 50
192.02500000000003
 51
270.00000000000006
  0
ARC
  8
_0-4_
  6
CONTINUOUS
 62
    7
 10
2619.7157500000003
 20
1241.999957218736
 40
3.0000000000000004
 50
12.025000000000002
 51
90.000000000000014
  0
ARC
  8
_0-4_
  6
CONTINUOUS
 62
    7
 10
2611
 20
1247.9999572187362
 40
3.0000000000000004
 50
180.00000000000006
 51
270.00000000000006
  0
ARC
  8
_0-4_
  6
CONTINUOUS
 62
    7
 10
2634.4000000000005
 20
1249.2998572187362
 40
0.19995
 50
90.000000000000028
 51
180.00000000000006
  0
ARC
  8
_0-4_
  6
CONTINUOUS
 62
    7
 10
2633.2000000000007
 20
1241.249957218736
 40
1.0000500000000001
 50
300.00000000000006
 51
0.0000000000000763
  0
ARC
  8
_0-4_
  6
CONTINUOUS
 62
    7
 10
2634.4000000000005
 20
1222.6999072187361
 40
0.19995
 50
180.00000000000006
 51
270.00000000000006
  0
ARC
  8
_0-4_
  6
CONTINUOUS
 62
    7
 10
2633.2000000000007
 20
1230.749957218736
 40
1.0000500000000001
 50
0
 51
60.000000000000007
  0
LINE
  8
_0-3_
  6
CONTINUOUS
 62
    2
 10
2608
 20
1124.5
 11
2628
 21
1124.5
  0
LINE
  8
_0-3_
  6
CONTINUOUS
 62
    2
 10
2628
 20
1182.5
 11
2628
 21
1124.5
  0
LINE
  8
_0-3_
  6
CONTINUOUS
 62
    2
 10
2608
 20
1182.5
 11
2608
 21
1124.5
  0
LINE
  8
_0-3_
  6
CONTINUOUS
 62
    2
 10
2608
 20
1182.5
 11
2628
 21
1182.5
  0
LINE
  8
_0-3_
  6
CONTINUOUS
 62
    2
 10
2608
 20
1314.5000000000002
 11
2628
 21
1314.5000000000002
  0
LINE
  8
_0-3_
  6
CONTINUOUS
 62
    2
 10
2628
 20
1372.5
 11
2628
 21
1314.5000000000002
  0
LINE
  8
_0-3_
  6
CONTINUOUS
 62
    2
 10
2608
 20
1372.5
 11
2608
 21
1314.5000000000002
  0
LINE
  8
_0-3_
  6
CONTINUOUS
 62
    2
 10
2608
 20
1372.5
 11
2628
 21
1372.5
  0
LINE
  8
_0-3_
  6
CONTINUOUS
 62
    4
 10
2608
 20
1379.9999999999998
 11
2608
 21
686.99999999999989
  0
LINE
  8
_0-3_
  6
CONTINUOUS
 62
    4
 10
3109
 20
1379.9999999999998
 11
3109
 21
580
  0
LINE
  8
_0-3_
  6
CONTINUOUS
 62
    4
 10
3105
 20
1379.9999999999998
 11
3105
 21
580
  0
LINE
  8
_0-3_
  6
DASHED1
 62
    9
 10
1085.0000000000002
 20
1314.5000000000002
 11
1085.0000000000002
 21
1181.5
  0
LINE
  8
_0-3_
  6
DASHED1
 62
    9
 10
1115.0000000000002
 20
1314.5000000000002
 11
1115.0000000000002
 21
1181.5
  0
TEXT
  8
_f-8_
 62
    7
 10
3582
 20
145
 40
30
 41
0.7333333333333333
 50
0
  1
Ｔ．Ｋ
  0
LINE
  8
ADD_LINE
  6
DOT
 62
    9
 10
3454.9989999999998
 20
2775
 11
3454.9989999999998
 21
2145
  0
LINE
  8
ADD_LINE
  6
DOT
 62
    9
 10
3279.9989999999998
 20
2145
 11
3279.9989999999998
 21
2775
  0
LINE
  8
ADD_LINE
  6
DOT
 62
    9
 10
3685.242120426321
 20
2130
 11
3700.242120426321
 21
2130
  0
LINE
  8
ADD_LINE
  6
DOT
 62
    9
 10
3700.242120426321
 20
2130
 11
3700.242120426321
 21
2145
  0
LINE
  8
ADD_LINE
  6
DOT
 62
    9
 10
3700.242120426321
 20
2145
 11
3685.242120426321
 21
2145
  0
LINE
  8
ADD_LINE
  6
DOT
 62
    9
 10
3685.242120426321
 20
2145
 11
3685.242120426321
 21
2130
  0
LINE
  8
_0-d_
  6
CONTINUOUS
 62
    3
 10
4115
 20
2130
 11
4115
 21
1634.9999999999995
  0
LINE
  8
ADD_LINE
  6
DOT
 62
    9
 10
3830.2421204263201
 20
2060
 11
3830.2421204263201
 21
1940
  0
LINE
  8
_0-d_
  6
CONTINUOUS
 62
    7
 10
3800.2421204263214
 20
2060
 11
3800.2421204263214
 21
1940
  0
TEXT
  8
_0-d_
 62
    7
 10
3860.6210602131605
 20
2080
 40
35
 41
0.8571428571428571
 50
0
  1
扉　色
  0
TEXT
  8
_0-d_
 62
    7
 10
3715.7122200188969
 20
2012.5
 40
35
 41
0.8571428571428571
 50
0
  1
ＳＷ
  0
TEXT
  8
_0-d_
 62
    7
 10
3830.2421204263201
 20
2012.5
 40
35
 41
0.8571428571428571
 50
0
  1
ホワイト
  0
TEXT
  8
_0-d_
 62
    7
 10
3720.7036754285846
 20
1953.0893268157802
 40
35
 41
0.8571428571428571
 50
0
  1
ＬＧ
  0
LINE
  8
ADD_LINE
  6
DOT
 62
    9
 10
3750.2421204263214
 20
2060
 11
3750.2421204263214
 21
1940
  0
LINE
  8
_0-d_
  6
CONTINUOUS
 62
    3
 10
3700.2421204263214
 20
2130
 11
3700.2421204263214
 21
1634.9999999999995
  0
LINE
  8
_0-d_
  6
CONTINUOUS
 62
    7
 10
3800.2421204263214
 20
1935
 11
3800.2421204263214
 21
1634.9999999999995
  0
LINE
  8
ADD_LINE
  6
DOT
 62
    9
 10
3830.2421204263201
 20
1935
 11
3830.2421204263201
 21
1634.9999999999995
  0
LINE
  8
ADD_LINE
  6
DOT
 62
    9
 10
3750.2421204263214
 20
1935
 11
3750.2421204263214
 21
1634.9999999999995
  0
TEXT
  8
_0-d_
 62
    7
 10
3830.3411143313565
 20
1953.0893268157802
 40
35
 41
0.8571428571428571
 50
0
  1
木　　目
  0
TEXT
  8
_0-d_
 62
    7
 10
3715.7122200188969
 20
1887.5
 40
35
 41
0.8571428571428571
 50
0
  1
ＵＷ
  0
TEXT
  8
_0-d_
 62
    7
 10
3830.2421204263201
 20
1887.5
 40
35
 41
0.8571428571428571
 50
0
  1
ｳﾙﾄﾗﾎﾜｲﾄ（艶有）
  0
TEXT
  8
_0-d_
 62
    7
 10
3720.7036754285846
 20
1828.0893268157802
 40
35
 41
0.8571428571428571
 50
0
  1
ＷＮ
  0
TEXT
  8
_0-d_
 62
    7
 10
3830.2421204263201
 20
1827.4999999999998
 40
35
 41
0.8571428571428571
 50
0
  1
ｳｨﾝｻﾞｰﾅｯﾄ（艶有）
  0
TEXT
  8
_0-d_
 62
    7
 10
3720.7036754285846
 20
1768.0893268157799
 40
35
 41
0.8571428571428571
 50
0
  1
ＢＳ
  0
TEXT
  8
_0-d_
 62
    7
 10
3830.3411143313565
 20
1768.0893268157799
 40
35
 41
0.8571428571428571
 50
0
  1
ブラックストーン
  0
TEXT
  8
_0-d_
 62
    7
 10
3720.7036754285846
 20
1708.0893268157797
 40
35
 41
0.8571428571428571
 50
0
  1
ＰＭ
  0
TEXT
  8
_0-d_
 62
    7
 10
3830.3411143313565
 20
1708.0893268157797
 40
35
 41
0.8571428571428571
 50
0
  1
ペールグレイン
  0
TEXT
  8
_0-d_
 62
    7
 10
3720.7036754285846
 20
1648.0893268157797
 40
35
 41
0.8571428571428571
 50
0
  1
ＭＤ
  0
LINE
  8
_0-d_
  6
CONTINUOUS
 62
    3
 10
4115
 20
2130
 11
3700.2421204263214
 21
2130
  0
LINE
  8
_0-d_
  6
CONTINUOUS
 62
    3
 10
4115
 20
1634.9999999999995
 11
3700.2421204263214
 21
1634.9999999999995
  0
LINE
  8
_0-d_
  6
CONTINUOUS
 62
    7
 10
3700.2421204263214
 20
2000
 11
4115
 21
2000
  0
LINE
  8
_0-d_
  6
CONTINUOUS
 62
    7
 10
4115
 20
2000
 11
3700.2421204263214
 21
2000
  0
LINE
  8
_0-d_
  6
CONTINUOUS
 62
    3
 10
4115
 20
2000
 11
3700.2421204263214
 21
2000
  0
LINE
  8
_0-d_
  6
CONTINUOUS
 62
    3
 10
4115
 20
1940
 11
3700.2421204263214
 21
1940
  0
LINE
  8
ADD_LINE
  6
DOT
 62
    9
 10
3700.2421204263214
 20
1970
 11
4115
 21
1970
  0
LINE
  8
_0-d_
  6
CONTINUOUS
 62
    7
 10
4115
 20
1875
 11
3700.2421204263214
 21
1875
  0
LINE
  8
_0-d_
  6
CONTINUOUS
 62
    3
 10
4115
 20
1875
 11
3700.2421204263214
 21
1875
  0
LINE
  8
_0-d_
  6
CONTINUOUS
 62
    3
 10
4115
 20
1814.9999999999998
 11
3700.2421204263214
 21
1814.9999999999998
  0
LINE
  8
_0-d_
  6
CONTINUOUS
 62
    7
 10
3700.2421204263214
 20
1875
 11
4115
 21
1875
  0
LINE
  8
_0-d_
  6
CONTINUOUS
 62
    7
 10
4115
 20
1940
 11
3700.2421204263214
 21
1940
  0
LINE
  8
_0-d_
  6
CONTINUOUS
 62
    7
 10
4115
 20
1935
 11
3700.2421204263214
 21
1935
  0
LINE
  8
ADD_LINE
  6
DOT
 62
    9
 10
3700.2421204263214
 20
1905
 11
4115
 21
1905
  0
LINE
  8
ADD_LINE
  6
DOT
 62
    9
 10
3700.2421204263214
 20
1844.9999999999998
 11
4115
 21
1844.9999999999998
  0
LINE
  8
_0-d_
  6
CONTINUOUS
 62
    7
 10
4115
 20
1814.9999999999998
 11
3700.2421204263214
 21
1814.9999999999998
  0
LINE
  8
_0-d_
  6
CONTINUOUS
 62
    3
 10
4115
 20
1814.9999999999998
 11
3700.2421204263214
 21
1814.9999999999998
  0
LINE
  8
_0-d_
  6
CONTINUOUS
 62
    3
 10
4115
 20
1754.9999999999995
 11
3700.2421204263214
 21
1754.9999999999995
  0
LINE
  8
_0-d_
  6
CONTINUOUS
 62
    7
 10
3700.2421204263214
 20
1814.9999999999998
 11
4115
 21
1814.9999999999998
  0
LINE
  8
ADD_LINE
  6
DOT
 62
    9
 10
3700.2421204263214
 20
1784.9999999999995
 11
4115
 21
1784.9999999999995
  0
LINE
  8
_0-d_
  6
CONTINUOUS
 62
    7
 10
4115
 20
1754.9999999999995
 11
3700.2421204263214
 21
1754.9999999999995
  0
LINE
  8
_0-d_
  6
CONTINUOUS
 62
    3
 10
4115
 20
1754.9999999999995
 11
3700.2421204263214
 21
1754.9999999999995
  0
LINE
  8
_0-d_
  6
CONTINUOUS
 62
    3
 10
4115
 20
1694.9999999999995
 11
3700.2421204263214
 21
1694.9999999999995
  0
LINE
  8
_0-d_
  6
CONTINUOUS
 62
    7
 10
3700.2421204263214
 20
1754.9999999999995
 11
4115
 21
1754.9999999999995
  0
LINE
  8
ADD_LINE
  6
DOT
 62
    9
 10
3700.2421204263214
 20
1724.9999999999995
 11
4115
 21
1724.9999999999995
  0
LINE
  8
_0-d_
  6
CONTINUOUS
 62
    7
 10
4115
 20
1694.9999999999995
 11
3700.2421204263214
 21
1694.9999999999995
  0
LINE
  8
_0-d_
  6
CONTINUOUS
 62
    3
 10
4115
 20
1694.9999999999995
 11
3700.2421204263214
 21
1694.9999999999995
  0
LINE
  8
_0-d_
  6
CONTINUOUS
 62
    7
 10
3700.2421204263214
 20
1694.9999999999995
 11
4115
 21
1694.9999999999995
  0
LINE
  8
ADD_LINE
  6
DOT
 62
    9
 10
3700.2421204263214
 20
1664.9999999999995
 11
4115
 21
1664.9999999999995
  0
LINE
  8
ADD_LINE
  6
DOT
 62
    9
 10
3700.2421204263214
 20
2030
 11
4115
 21
2030
  0
LINE
  8
_0-d_
  6
CONTINUOUS
 62
    7
 10
4115
 20
2060
 11
3700.2421204263214
 21
2060
  0
LINE
  8
ADD_LINE
  6
DOT
 62
    9
 10
3700.2421204263214
 20
2097.5
 11
4115
 21
2097.5
  0
LINE
  8
_0-d_
  6
CONTINUOUS
 62
    7
 10
4115
 20
2065
 11
3700.2421204263214
 21
2065
  0
LINE
  8
ADD_LINE
  6
DOT
 62
    9
 10
3907.6210602131605
 20
2130
 11
3907.6210602131605
 21
2065
  0
TEXT
  8
_0-d_
 62
    7
 10
3830.3411143313565
 20
1648.0893268157797
 40
35
 41
0.8571428571428571
 50
0
  1
ダークグレイン
  0
LINE
  8
_e-0_
  6
CONTINUOUS
 62
    7
 10
2243.7859302690863
 20
199.51965480360599
 11
2272.9339284698526
 21
210.12865853712981
  0
LINE
  8
_e-0_
  6
CONTINUOUS
 62
    7
 10
2237.6336615052869
 20
191.95952323799759
 11
2287.5529504706665
 21
210.12865853712896
  0
LINE
  8
_e-0_
  6
CONTINUOUS
 62
    7
 10
2234.2067375789875
 20
185.39133607135255
 11
2263.8643430051366
 21
196.18582166608263
  0
LINE
  8
_e-0_
  6
CONTINUOUS
 62
    7
 10
2232.2119570371697
 20
179.34440646785788
 11
2253.9586582709303
 21
187.25955841042662
  0
LINE
  8
_e-0_
  6
CONTINUOUS
 62
    7
 10
2231.2024514117434
 20
173.65608760649877
 11
2249.4574587956463
 21
180.30036692054921
  0
LINE
  8
_e-0_
  6
CONTINUOUS
 62
    7
 10
2230.9649088875535
 20
168.24874033593801
 11
2249.3748102388386
 21
174.94939644358311
  0
LINE
  8
_e-0_
  6
CONTINUOUS
 62
    7
 10
2231.3837497438626
 20
163.08029707814967
 11
2249.8286640768283
 21
169.79369686893904
  0
LINE
  8
_e-0_
  6
CONTINUOUS
 62
    7
 10
2232.3950068941754
 20
158.12747571767488
 11
2251.2695688182671
 21
164.99725444285843
  0
LINE
  8
_e-0_
  6
CONTINUOUS
 62
    7
 10
2233.9675550564962
 20
153.37894757832998
 11
2253.6625167678694
 21
160.54732740628253
  0
LINE
  8
_e-0_
  6
CONTINUOUS
 62
    7
 10
2236.0955302019183
 20
148.83257832814223
 11
2257.0999104881021
 21
156.47754754152118
  0
LINE
  8
_e-0_
  6
CONTINUOUS
 62
    7
 10
2238.79700892643
 20
144.49494730998822
 11
2261.880116002736
 21
152.89651120014327
  0
LINE
  8
_e-0_
  6
CONTINUOUS
 62
    7
 10
2242.1181877425702
 20
140.38286867935909
 11
2268.9468388985251
 21
150.14769912563821
  0
LINE
  8
_e-0_
  6
CONTINUOUS
 62
    7
 10
2246.1455691824353
 20
136.52782678312661
 11
2284.5651405528201
 21
150.51140717521264
  0
LINE
  8
_e-0_
  6
CONTINUOUS
 62
    7
 10
2251.0351047702798
 20
132.9865833341097
 11
2279.1844822576495
 21
143.23211885263561
  0
LINE
  8
_e-0_
  6
CONTINUOUS
 62
    7
 10
2279.5849322183672
 20
201.90764820482514
 11
2302.1719724714803
 21
210.12865853713066
  0
LINE
  8
_e-0_
  6
CONTINUOUS
 62
    7
 10
2260.5624543087297
 20
189.66314360135101
 11
2313.0511299164637
 21
208.76745915862045
  0
LINE
  8
_e-0_
  6
CONTINUOUS
 62
    7
 10
2273.069618849473
 20
188.89449034687175
 11
2313.0511299164637
 21
203.44657029624102
  0
LINE
  8
_e-0_
  6
CONTINUOUS
 62
    7
 10
2287.6886408502887
 20
188.89449034687175
 11
2313.0511299164637
 21
198.12568143386159
  0
LINE
  8
_e-0_
  6
CONTINUOUS
 62
    7
 10
2291.8751463425488
 20
185.0973648692667
 11
2313.0511299164637
 21
192.80479257148215
  0
LINE
  8
_e-0_
  6
CONTINUOUS
 62
    7
 10
2291.8751463425488
 20
179.77647600688726
 11
2313.0511299164637
 21
187.48390370910215
  0
LINE
  8
_e-0_
  6
CONTINUOUS
 62
    7
 10
2291.8751463425488
 20
174.45558714450783
 11
2313.0511299164637
 21
182.16301484672272
  0
LINE
  8
_e-0_
  6
CONTINUOUS
 62
    7
 10
2291.8751463425488
 20
169.1346982821284
 11
2313.0511299164637
 21
176.84212598434328
  0
LINE
  8
_e-0_
  6
CONTINUOUS
 62
    7
 10
2291.8008475696452
 20
163.7867668779694
 11
2313.0511299164637
 21
171.52123712196385
  0
LINE
  8
_e-0_
  6
CONTINUOUS
 62
    7
 10
2290.6539909363364
 20
158.04845633809464
 11
2313.0511299164637
 21
166.20034825958413
  0
LINE
  8
_e-0_
  6
CONTINUOUS
 62
    7
 10
2288.3949962857823
 20
151.90536066354696
 11
2313.0511299164637
 21
160.8794593972047
  0
LINE
  8
_e-0_
  6
CONTINUOUS
 62
    7
 10
2284.4003861827632
 20
145.13055262616916
 11
2311.8608666367177
 21
155.1253501300576
  0
LINE
  8
_e-0_
  6
CONTINUOUS
 62
    7
 10
2275.7463468865153
 20
136.65985105378525
 11
2309.0387712913653
 21
148.77730256370853
  0
LINE
  8
_e-0_
  6
CONTINUOUS
 62
    7
 10
2266.9791201478206
 20
128.14795262145822
 11
2304.1703780821813
 21
141.68446348448242
  0
LINE
  8
_e-0_
  6
CONTINUOUS
 62
    7
 10
2282.1376414569663
 20
128.34431431109749
 11
2292.7244583873171
 21
132.19760054937069
  0
LINE
  8
_e-0_
  6
CONTINUOUS
 62
    3
 10
2266.4464672734898
 20
197.5661281967827
 11
2266.4464672734898
 21
197.5661281967827
  0
LINE
  8
_e-0_
  6
CONTINUOUS
 62
    3
 10
2266.4464672734898
 20
197.5661281967827
 11
2262.324473459325
 21
194.75680664380121
  0
LINE
  8
_e-0_
  6
CONTINUOUS
 62
    3
 10
2282.3868421919433
 20
128.14795262145651
 11
2266.9204010401704
 21
128.14795262145651
  0
ARC
  8
_e-0_
  6
CONTINUOUS
 62
    3
 10
2282.3868421919433
 20
133.14795262145651
 40
5
 50
270
 51
286.2039935104566
  0
LINE
  8
_e-0_
  6
CONTINUOUS
 62
    3
 10
2313.2288608412614
 20
210.12865853712896
 11
2313.2288608412614
 21
159.77346730566921
  0
ARC
  8
_e-0_
  6
CONTINUOUS
 62
    3
 10
2271.9221657766448
 20
169.15823653484836
 40
42.5
 50
286.20399351045648
 51
345.50707147989851
  0
ARC
  8
_e-0_
  6
CONTINUOUS
 62
    3
 10
2308.2288608412614
 20
159.77346730566921
 40
5
 50
345.5070714798988
 51
0
  0
ARC
  8
_e-0_
  6
CONTINUOUS
 62
    3
 10
2250.0927387377205
 20
170.4956084628958
 40
40
 50
279.71265316664216
 51
332.69093929010893
  0
ARC
  8
_e-0_
  6
CONTINUOUS
 62
    3
 10
2255.9974857549714
 20
135.99729020443192
 40
5
 50
241.94526281180003
 51
279.71265316664227
  0
ARC
  8
_e-0_
  6
CONTINUOUS
 62
    3
 10
2263.2643122966178
 20
205.12865853712896
 40
5
 50
90
 51
106.0533814378627
  0
LINE
  8
_e-0_
  6
CONTINUOUS
 62
    3
 10
2288.4334989152221
 20
210.12865853712884
 11
2288.4334989152221
 21
210.12865853712884
  0
LINE
  8
_e-0_
  6
CONTINUOUS
 62
    3
 10
2288.4334989152221
 20
210.12865853712884
 11
2278.2181989551914
 21
205.24067691222058
  0
LINE
  8
_e-0_
  6
CONTINUOUS
 62
    3
 10
2278.2181989551914
 20
205.24067691222058
 11
2272.2994583375817
 21
201.44448978984022
  0
LINE
  8
_e-0_
  6
CONTINUOUS
 62
    3
 10
2266.4464672734898
 20
197.56612819678253
 11
2272.2994583375817
 21
201.4444897898403
  0
ARC
  8
_e-0_
  6
CONTINUOUS
 62
    3
 10
2263.2643122966178
 20
205.12865853712896
 40
5
 50
90
 51
106.0533814378627
  0
ARC
  8
_e-0_
  6
CONTINUOUS
 62
    3
 10
2263.2643122966178
 20
205.12865853712896
 40
5
 50
90
 51
106.0533814378627
  0
LINE
  8
_e-0_
  6
CONTINUOUS
 62
    3
 10
2288.4334989152221
 20
210.12865853712896
 11
2263.2643122966178
 21
210.12865853712896
  0
ARC
  8
_e-0_
  6
CONTINUOUS
 62
    3
 10
2273.6342932765642
 20
169.09099082020305
 40
42.5
 50
106.0533814378627
 51
241.94526281180052
  0
ARC
  8
_e-0_
  6
CONTINUOUS
 62
    3
 10
2263.2643122966178
 20
205.12865853712896
 40
5
 50
90
 51
106.0533814378627
  0
LINE
  8
_e-0_
  6
CONTINUOUS
 62
    3
 10
2299.1719829458552
 20
210.12865853712896
 11
2313.2288608412614
 21
210.12865853712896
  0
ARC
  8
_e-0_
  6
CONTINUOUS
 62
    3
 10
2299.1719829458552
 20
205.12865853712896
 40
5
 50
90
 51
112.8455272152833
  0
LINE
  8
_e-0_
  6
CONTINUOUS
 62
    3
 10
2292.0528772673465
 20
188.89449034687004
 11
2269.0173546029673
 21
188.89449034687004
  0
ARC
  8
_e-0_
  6
CONTINUOUS
 62
    3
 10
2269.0173546029673
 20
183.89449034687004
 40
5
 50
90
 51
110.93110431809542
  0
ARC
  8
_e-0_
  6
CONTINUOUS
 62
    3
 10
2254.2292662802574
 20
177.70386452217394
 40
0.5
 50
165.368776721252
 51
224.67319701305797
  0
LINE
  8
_e-0_
  6
CONTINUOUS
 62
    3
 10
2253.8737020580625
 20
177.3523334653737
 11
2253.6837582739272
 21
177.54445650133448
  0
ARC
  8
_e-0_
  6
CONTINUOUS
 62
    3
 10
2276.1622566207875
 20
165.21427688032361
 40
25
 50
110.93110431809528
 51
150.17701829297229
  0
ARC
  8
_e-0_
  6
CONTINUOUS
 62
    3
 10
2254.0393224961217
 20
177.89598755813472
 40
0.5
 50
224.67319701305652
 51
330.17701829297562
  0
LINE
  8
_e-0_
  6
CONTINUOUS
 62
    3
 10
2297.2307430642559
 20
209.73643324104927
 11
2283.5233941157549
 21
203.96157353985984
  0
LINE
  8
_e-0_
  6
CONTINUOUS
 62
    3
 10
2283.5233941157549
 20
203.96157353985984
 11
2277.114528385443
 21
200.4613679180602
  0
ARC
  8
_e-0_
  6
CONTINUOUS
 62
    3
 10
2277.9347719955745
 20
171.51524603489747
 40
25
 50
126.05682261028305
 51
165.36877672125814
  0
ARC
  8
_e-0_
  6
CONTINUOUS
 62
    3
 10
2322.0287923520791
 20
111.11536133502739
 40
100
 50
116.68868989749241
 51
126.03335467187628
  0
LINE
  8
_e-0_
  6
CONTINUOUS
 62
    3
 10
2262.3244734593245
 20
194.7568066438013
 11
2262.3244734593245
 21
194.7568066438013
  0
LINE
  8
_e-0_
  6
CONTINUOUS
 62
    3
 10
2262.3244734593245
 20
194.7568066438013
 11
2254.3560414411386
 21
187.50185893935441
  0
LINE
  8
_e-0_
  6
CONTINUOUS
 62
    3
 10
2254.3560414411386
 20
187.50185893935441
 11
2252.5108960046537
 21
185.36863764275498
  0
ARC
  8
_e-0_
  6
CONTINUOUS
 62
    3
 10
2274.5493829743446
 20
174.5520307550089
 40
25
 50
169.07329675873063
 51
296.321383266618
  0
LINE
  8
_e-0_
  6
CONTINUOUS
 62
    3
 10
2252.5108960046537
 20
185.36863764275483
 11
2252.5108960046537
 21
185.36863764275483
  0
LINE
  8
_e-0_
  6
CONTINUOUS
 62
    3
 10
2252.5108960046537
 20
185.36863764275483
 11
2250.0026210661126
 21
179.29085759512347
  0
LINE
  8
_e-0_
  6
CONTINUOUS
 62
    3
 10
2292.0528772673465
 20
188.89449034687004
 11
2292.0528772673465
 21
164.42425885831653
  0
ARC
  8
_e-0_
  6
CONTINUOUS
 62
    3
 10
2277.2840925230507
 20
144.130909833072
 40
5
 50
311.4163090429962
 51
326.13300916724882
  0
ARC
  8
_e-0_
  6
CONTINUOUS
 62
    3
 10
2252.285941088533
 20
168.73596234419836
 40
40
 50
316.78132524618343
 51
353.81191653224226
  0
ARC
  8
_e-0_
  6
CONTINUOUS
 62
    3
 10
2240.9001979970053
 20
185.376663785662
 40
60
 50
294.69555798319504
 51
311.41630904299643
  0
ARC
  8
_e-0_
  6
CONTINUOUS
 62
    3
 10
2271.9268153318699
 20
202.9806715079161
 40
75
 50
264.68313230529077
 51
266.17253517307824
  0
ARC
  8
_e-0_
  6
CONTINUOUS
 62
    3
 10
2265.0233680716156
 20
128.80121063143832
 40
0.5
 50
174.02086603460467
 51
264.68313230528986
  0
ARC
  8
_e-0_
  6
CONTINUOUS
 62
    3
 10
2267.0124878650104
 20
128.59287809071873
 40
2.5
 50
114.69555798319523
 51
174.02086603461154
  0
LINE
  8
_e-0_
  6
CONTINUOUS
 62
    7
 10
2376.8899919095943
 20
169.43032024062035
 11
2388.2618909747957
 21
173.56935300743345
  0
LINE
  8
_e-0_
  6
CONTINUOUS
 62
    3
 10
2436.2585234464268
 20
162.6331249251939
 11
2436.2585234464268
 21
136.49018622829544
  0
CIRCLE
  8
_e-0_
  6
CONTINUOUS
 62
    3
 10
2365.5167430510387
 20
162.46293449130519
 40
13.337737955830651
  0
CIRCLE
  8
_e-0_
  6
CONTINUOUS
 62
    3
 10
2365.2330256036635
 20
162.17921704393007
 40
25.691707563897666
  0
LINE
  8
_e-0_
  6
CONTINUOUS
 62
    3
 10
2399.4939617252576
 20
188.26250382114978
 11
2399.4939617252576
 21
136.49018622829544
  0
LINE
  8
_e-0_
  6
CONTINUOUS
 62
    3
 10
2399.4939617252576
 20
136.49018622829544
 11
2414.8569307536691
 21
136.49018622829544
  0
LINE
  8
_e-0_
  6
CONTINUOUS
 62
    3
 10
2414.8569307536691
 20
136.49018622829544
 11
2414.8569307536691
 21
172.6331249251939
  0
LINE
  8
_e-0_
  6
CONTINUOUS
 62
    3
 10
2451.17747602893
 20
136.49018622829544
 11
2436.2585234464268
 21
136.49018622829544
  0
LINE
  8
_e-0_
  6
CONTINUOUS
 62
    3
 10
2426.2585234464268
 20
172.6331249251939
 11
2414.8569307536691
 21
172.6331249251939
  0
ARC
  8
_e-0_
  6
CONTINUOUS
 62
    3
 10
2426.2585234464268
 20
162.6331249251939
 40
10
 50
0
 51
90
  0
LINE
  8
_e-0_
  6
CONTINUOUS
 62
    3
 10
2426.17747602893
 20
188.26250382114978
 11
2399.4939617252576
 21
188.26250382114978
  0
LINE
  8
_e-0_
  6
CONTINUOUS
 62
    3
 10
2451.17747602893
 20
163.26250382114978
 11
2451.17747602893
 21
136.49018622829544
  0
ARC
  8
_e-0_
  6
CONTINUOUS
 62
    3
 10
2426.17747602893
 20
163.26250382114978
 40
25
 50
0
 51
90
  0
ARC
  8
_e-0_
  6
CONTINUOUS
 62
    3
 10
2486.2452606175229
 20
162.17653762406428
 40
13.337737955830651
 50
23.422555400004953
 51
97.191484740792632
  0
LINE
  8
_e-0_
  6
CONTINUOUS
 62
    3
 10
2474.006576131063
 20
167.47841048365672
 11
2498.4839451039834
 21
167.47841048365672
  0
ARC
  8
_e-0_
  6
CONTINUOUS
 62
    3
 10
2486.2452606175229
 20
162.17653762406428
 40
13.337737955830651
 50
92.530763017635266
 51
156.57744459999506
  0
ARC
  8
_e-0_
  6
CONTINUOUS
 62
    3
 10
2486.2452606175229
 20
162.17653762406428
 40
13.337737955830651
 50
204.21097500392608
 51
316.0067678116265
  0
LINE
  8
_e-0_
  6
CONTINUOUS
 62
    3
 10
2474.0806890359868
 20
156.70676139316754
 11
2511.5200753562385
 21
156.70676139316754
  0
LINE
  8
_e-0_
  6
CONTINUOUS
 62
    3
 10
2495.8407207162627
 20
152.91249966689293
 11
2508.7092412098891
 21
149.78943472664497
  0
ARC
  8
_e-0_
  6
CONTINUOUS
 62
    3
 10
2486.5655867677851
 20
162.81718992458821
 40
25.691707563897666
 50
346.24110979921471
 51
329.53046432565105
  0
ARC
  8
_e-0_
  6
CONTINUOUS
 62
    3
 10
2546.5135590423406
 20
162.1430984535391
 40
11.089756641867943
 50
94.502189492040685
 51
357.22978420280037
  0
LINE
  8
_e-0_
  6
CONTINUOUS
 62
    3
 10
2556.5903561511468
 20
173.19863581905565
 11
2545.6430442891501
 21
173.19863581905565
  0
LINE
  8
_e-0_
  6
CONTINUOUS
 62
    3
 10
2557.5903561511468
 20
172.19863581905599
 11
2557.5903561511468
 21
161.60712439988743
  0
ARC
  8
_e-0_
  6
CONTINUOUS
 62
    3
 10
2556.5903561511468
 20
172.19863581905599
 40
1
 50
0
 51
90
  0
LINE
  8
_e-0_
  6
CONTINUOUS
 62
    3
 10
2548.9703457355517
 20
188.29058742736095
 11
2557.3930775458171
 21
188.29058742736095
  0
ARC
  8
_e-0_
  6
CONTINUOUS
 62
    3
 10
2546.966285661204
 20
162.67716163604518
 40
25.691707563897666
 50
85.52614601413697
 51
347.40557840019875
  0
LINE
  8
_e-0_
  6
CONTINUOUS
 62
    3
 10
2557.3930775458171
 20
209.12865853712901
 11
2557.3930775458171
 21
188.29058742736095
  0
ARC
  8
_e-0_
  6
CONTINUOUS
 62
    3
 10
2558.3930775458175
 20
209.12865853712901
 40
1
 50
90
 51
180
  0
LINE
  8
_e-0_
  6
CONTINUOUS
 62
    3
 10
2572.0397992563612
 20
209.12865853712901
 11
2572.0397992563612
 21
157.07513043814089
  0
LINE
  8
_e-0_
  6
CONTINUOUS
 62
    3
 10
2571.0397992563617
 20
210.12865853712896
 11
2558.3930775458175
 21
210.12865853712896
  0
ARC
  8
_e-0_
  6
CONTINUOUS
 62
    3
 10
2571.0397992563617
 20
209.12865853712901
 40
1
 50
0
 51
90
  0
CIRCLE
  8
_e-0_
  6
CONTINUOUS
 62
    3
 10
2607.4932845795829
 20
162.61858771142585
 40
13.337737955830651
  0
CIRCLE
  8
_e-0_
  6
CONTINUOUS
 62
    3
 10
2607.2095671322086
 20
162.33487026405101
 40
25.691707563897666
  0
ARC
  8
_e-0_
  6
CONTINUOUS
 62
    3
 10
2361.3056445788689
 20
183.56108960512415
 40
5
 50
90
 51
106.0533814378627
  0
ARC
  8
_e-0_
  6
CONTINUOUS
 62
    3
 10
2361.3056445788689
 20
183.56108960512415
 40
5
 50
90
 51
106.0533814378627
  0
ARC
  8
_e-0_
  6
CONTINUOUS
 62
    3
 10
2361.3056445788689
 20
183.56108960512415
 40
5
 50
90
 51
106.0533814378627
  0
ARC
  8
_e-0_
  6
CONTINUOUS
 62
    3
 10
2361.3056445788689
 20
183.56108960512415
 40
5
 50
90
 51
106.0533814378627
  0
LINE
  8
_e-0_
  6
CONTINUOUS
 62
    7
 10
2346.3470804331014
 20
179.59716504486778
 11
2368.504457793455
 21
187.66179087344028
  0
LINE
  8
_e-0_
  6
CONTINUOUS
 62
    7
 10
2361.2415063076141
 20
179.69740385729494
 11
2376.5205845613305
 21
185.25853354867166
  0
LINE
  8
_e-0_
  6
CONTINUOUS
 62
    7
 10
2341.7511550984832
 20
172.60349616177706
 11
2361.2415063076146
 21
179.69740385729494
  0
LINE
  8
_e-0_
  6
CONTINUOUS
 62
    7
 10
2339.9278406436088
 20
166.61897511011603
 11
2357.2356669233163
 21
172.91850869577985
  0
LINE
  8
_e-0_
  6
CONTINUOUS
 62
    7
 10
2339.561356655227
 20
161.1646969846305
 11
2352.6357267551816
 21
165.92337853279389
  0
LINE
  8
_e-0_
  6
CONTINUOUS
 62
    7
 10
2340.2704529847874
 20
156.10189807943812
 11
2352.3257797311662
 21
160.489678179473
  0
LINE
  8
_e-0_
  6
CONTINUOUS
 62
    7
 10
2341.920482349894
 20
151.38157079162255
 11
2353.9794571535695
 21
155.77067867592632
  0
LINE
  8
_e-0_
  6
CONTINUOUS
 62
    7
 10
2344.5041289741071
 20
147.00105239631881
 11
2357.564943671171
 21
151.7548001813168
  0
LINE
  8
_e-0_
  6
CONTINUOUS
 62
    7
 10
2348.1361647674007
 20
143.00211645248766
 11
2364.9879954656799
 21
149.1356812195545
  0
LINE
  8
_e-0_
  6
CONTINUOUS
 62
    7
 10
2353.1501292054063
 20
139.50616140121156
 11
2375.2534753949121
 21
147.55112149187283
  0
LINE
  8
_e-0_
  6
CONTINUOUS
 62
    7
 10
2360.6217579801264
 20
136.90472301431669
 11
2375.3071030149836
 21
142.24975148693375
  0
LINE
  8
_e-0_
  6
CONTINUOUS
 62
    7
 10
2375.3071030149836
 20
142.24975148693375
 11
2385.0115931457403
 21
145.78189703325933
  0
LINE
  8
_e-0_
  6
CONTINUOUS
 62
    7
 10
2374.4001538198345
 20
147.24053783828737
 11
2389.0630204872036
 21
152.57738485422379
  0
LINE
  8
_e-0_
  6
CONTINUOUS
 62
    7
 10
2374.4883804748506
 20
152.59353857696169
 11
2390.6567834919524
 21
158.47835601080646
  0
LINE
  8
_e-0_
  6
CONTINUOUS
 62
    7
 10
2378.4912308361022
 20
159.37134582305873
 11
2390.8686178519897
 21
163.87634627483465
  0
LINE
  8
_e-0_
  6
CONTINUOUS
 62
    7
 10
2378.6565159204474
 20
164.75239353630798
 11
2390.032063042946
 21
168.89275408738968
  0
LINE
  8
_e-0_
  6
CONTINUOUS
 62
    7
 10
2365.1397018509306
 20
175.79534214003161
 11
2381.7641004494612
 21
181.84612839247364
  0
LINE
  8
_e-0_
  6
CONTINUOUS
 62
    7
 10
2373.1598434523221
 20
173.39354609515908
 11
2385.5507858710998
 21
177.90348031010012
  0
LINE
  8
_e-0_
  6
CONTINUOUS
 62
    7
 10
2399.4939617252576
 20
182.97838129215279
 11
2414.0119690553083
 21
188.26250382114978
  0
LINE
  8
_e-0_
  6
CONTINUOUS
 62
    7
 10
2399.4939617252576
 20
177.65749242977336
 11
2428.3670442872126
 21
188.16643505383524
  0
LINE
  8
_e-0_
  6
CONTINUOUS
 62
    7
 10
2399.4939617252576
 20
172.33660356739392
 11
2436.7743097980665
 21
185.90554058897965
  0
LINE
  8
_e-0_
  6
CONTINUOUS
 62
    7
 10
2399.4939617252576
 20
167.01571470501449
 11
2442.1110032081056
 21
182.52704927725858
  0
LINE
  8
_e-0_
  6
CONTINUOUS
 62
    7
 10
2399.4939617252576
 20
161.69482584263505
 11
2414.8569307536691
 21
167.28648927893005
  0
LINE
  8
_e-0_
  6
CONTINUOUS
 62
    7
 10
2428.709008278624
 20
172.32823318076129
 11
2445.9244086202584
 21
178.5941264760919
  0
LINE
  8
_e-0_
  6
CONTINUOUS
 62
    7
 10
2399.4939617252576
 20
156.37393698025562
 11
2414.8569307536691
 21
161.96560041655061
  0
LINE
  8
_e-0_
  6
CONTINUOUS
 62
    7
 10
2403.3398935234459
 20
136.49018622829544
 11
2414.8569307536691
 21
140.68204496703231
  0
LINE
  8
_e-0_
  6
CONTINUOUS
 62
    7
 10
2399.4939617252576
 20
140.41127039311675
 11
2414.8569307536691
 21
146.00293382941203
  0
LINE
  8
_e-0_
  6
CONTINUOUS
 62
    7
 10
2399.4939617252576
 20
145.73215925549647
 11
2414.8569307536691
 21
151.32382269179146
  0
LINE
  8
_e-0_
  6
CONTINUOUS
 62
    7
 10
2399.4939617252576
 20
151.0530481178759
 11
2414.8569307536691
 21
156.64471155417118
  0
LINE
  8
_e-0_
  6
CONTINUOUS
 62
    7
 10
2436.2585234464268
 20
159.11336539784401
 11
2451.17747602893
 21
164.5434200643038
  0
LINE
  8
_e-0_
  6
CONTINUOUS
 62
    7
 10
2436.2585234464268
 20
153.79247653546486
 11
2451.17747602893
 21
159.22253120192465
  0
LINE
  8
_e-0_
  6
CONTINUOUS
 62
    7
 10
2436.105047565391
 20
164.37839360784892
 11
2450.3687179376248
 21
169.56994505472636
  0
LINE
  8
_e-0_
  6
CONTINUOUS
 62
    7
 10
2436.2585234464268
 20
148.47158767308542
 11
2451.17747602893
 21
153.90164233954522
  0
LINE
  8
_e-0_
  6
CONTINUOUS
 62
    7
 10
2436.2585234464268
 20
143.15069881070571
 11
2451.17747602893
 21
148.5807534771655
  0
LINE
  8
_e-0_
  6
CONTINUOUS
 62
    7
 10
2436.2585234464268
 20
137.82980994832599
 11
2451.17747602893
 21
143.25986461478607
  0
LINE
  8
_e-0_
  6
CONTINUOUS
 62
    7
 10
2447.1969595258929
 20
136.49018622829544
 11
2451.17747602893
 21
137.93897575240635
  0
LINE
  8
_e-0_
  6
CONTINUOUS
 62
    7
 10
2434.0189024056153
 20
168.9399877277117
 11
2448.6296862431445
 21
174.25787814386979
  0
LINE
  8
_e-0_
  6
CONTINUOUS
 62
    7
 10
2469.1883842563338
 20
181.74063227593791
 11
2487.7135419125711
 21
188.48323824789645
  0
LINE
  8
_e-0_
  6
CONTINUOUS
 62
    7
 10
2463.6316388937826
 20
174.39725350219305
 11
2496.6904887083792
 21
186.42969081378254
  0
LINE
  8
_e-0_
  6
CONTINUOUS
 62
    7
 10
2461.4628990865917
 20
168.28700790412768
 11
2502.2794299488264
 21
183.14301020398858
  0
LINE
  8
_e-0_
  6
CONTINUOUS
 62
    7
 10
2461.4992419870632
 20
162.97934677574688
 11
2473.9894671720022
 21
167.52541696234658
  0
LINE
  8
_e-0_
  6
CONTINUOUS
 62
    7
 10
2492.1508316310542
 20
174.13561303910114
 11
2506.288567957688
 21
179.28132824190016
  0
LINE
  8
_e-0_
  6
CONTINUOUS
 62
    7
 10
2496.6927278595249
 20
170.4678392110111
 11
2509.1784918759254
 21
175.01228566505262
  0
LINE
  8
_e-0_
  6
CONTINUOUS
 62
    7
 10
2463.2093427036916
 20
158.28088367181749
 11
2488.4793399340492
 21
167.47841048365672
  0
LINE
  8
_e-0_
  6
CONTINUOUS
 62
    7
 10
2462.8888794596251
 20
152.84335572742151
 11
2511.1140538755621
 21
170.39588375711787
  0
LINE
  8
_e-0_
  6
CONTINUOUS
 62
    7
 10
2465.300291731432
 20
148.400149154524
 11
2476.928343063094
 21
152.63241372176822
  0
LINE
  8
_e-0_
  6
CONTINUOUS
 62
    7
 10
2488.1225212892718
 20
156.70676139316754
 11
2512.122843037012
 21
165.44216412215633
  0
LINE
  8
_e-0_
  6
CONTINUOUS
 62
    7
 10
2502.741543290088
 20
156.70676139316754
 11
2512.115162112696
 21
160.11847963195407
  0
LINE
  8
_e-0_
  6
CONTINUOUS
 62
    7
 10
2468.7281740890053
 20
144.32690743686692
 11
2482.5550140975402
 21
149.35946563393486
  0
LINE
  8
_e-0_
  6
CONTINUOUS
 62
    7
 10
2473.4508580764295
 20
140.72493497175572
 11
2502.4973614552441
 21
151.2969976111566
  0
LINE
  8
_e-0_
  6
CONTINUOUS
 62
    7
 10
2480.306949559827
 20
137.89945933273884
 11
2507.376789508387
 21
147.75207532036433
  0
LINE
  8
_e-0_
  6
CONTINUOUS
 62
    7
 10
2552.6231690921718
 20
137.61596638527408
 11
2558.7418873346696
 21
139.8429976974046
  0
LINE
  8
_e-0_
  6
CONTINUOUS
 62
    7
 10
2539.4012676014827
 20
138.12447666464266
 11
2568.5435873921024
 21
148.73141362589479
  0
LINE
  8
_e-0_
  6
CONTINUOUS
 62
    7
 10
2532.9976800904733
 20
141.11465028049622
 11
2571.526973469855
 21
155.13816621790056
  0
LINE
  8
_e-0_
  6
CONTINUOUS
 62
    7
 10
2522.081864354775
 20
169.06695144424447
 11
2572.0397992563612
 21
187.25015271383
  0
LINE
  8
_e-0_
  6
CONTINUOUS
 62
    7
 10
2524.5896829795606
 20
175.30061163898438
 11
2572.0397992563612
 21
192.57104157620944
  0
LINE
  8
_e-0_
  6
CONTINUOUS
 62
    7
 10
2557.3930775458171
 20
208.52362629350921
 11
2561.8028673926597
 21
210.12865853712896
  0
LINE
  8
_e-0_
  6
CONTINUOUS
 62
    7
 10
2557.3930775458171
 20
203.20273743112978
 11
2572.0397992563612
 21
208.53370816334802
  0
LINE
  8
_e-0_
  6
CONTINUOUS
 62
    7
 10
2557.3930775458171
 20
197.88184856875006
 11
2572.0397992563612
 21
203.21281930096859
  0
LINE
  8
_e-0_
  6
CONTINUOUS
 62
    7
 10
2557.3930775458171
 20
192.56095970637034
 11
2572.0397992563612
 21
197.89193043858916
  0
LINE
  8
_e-0_
  6
CONTINUOUS
 62
    7
 10
2531.3600319802563
 20
183.08570601321094
 11
2545.8030101140193
 21
188.34252014805827
  0
LINE
  8
_e-0_
  6
CONTINUOUS
 62
    7
 10
2548.0525958796984
 20
173.19863581905565
 11
2572.0397992563612
 21
181.92926385145057
  0
LINE
  8
_e-0_
  6
CONTINUOUS
 62
    7
 10
2521.2864022906338
 20
163.45653806802943
 11
2538.3752084417083
 21
169.67635484616608
  0
LINE
  8
_e-0_
  6
CONTINUOUS
 62
    7
 10
2521.6554107736329
 20
158.26995730965365
 11
2535.4846691325356
 21
163.30339571427089
  0
LINE
  8
_e-0_
  6
CONTINUOUS
 62
    7
 10
2522.9940114609526
 20
153.43627925302656
 11
2536.1404517985766
 21
158.22119222247807
  0
LINE
  8
_e-0_
  6
CONTINUOUS
 62
    7
 10
2525.2563435788043
 20
148.93881194156961
 11
2539.0354883761393
 21
153.95401050144358
  0
LINE
  8
_e-0_
  6
CONTINUOUS
 62
    7
 10
2528.5117312327798
 20
144.80278728623489
 11
2545.7561370732083
 21
151.07923771975692
  0
LINE
  8
_e-0_
  6
CONTINUOUS
 62
    7
 10
2554.2054905278624
 20
154.15455087604528
 11
2572.0397992563612
 21
160.64570840193255
  0
LINE
  8
_e-0_
  6
CONTINUOUS
 62
    7
 10
2557.505937791675
 20
160.67670430221767
 11
2572.0397992563612
 21
165.96659726431199
  0
LINE
  8
_e-0_
  6
CONTINUOUS
 62
    7
 10
2557.5903561511468
 20
166.02831893467055
 11
2572.0397992563612
 21
171.28748612669142
  0
LINE
  8
_e-0_
  6
CONTINUOUS
 62
    7
 10
2557.5903561511468
 20
171.34920779704998
 11
2572.0397992563612
 21
176.60837498907085
  0
LINE
  8
_e-0_
  6
CONTINUOUS
 62
    7
 10
2595.1467628188602
 20
185.01862193009401
 11
2601.8693768327421
 21
187.46545332760775
  0
LINE
  8
_e-0_
  6
CONTINUOUS
 62
    7
 10
2585.5936460434282
 20
176.2206829169881
 11
2614.8426950414305
 21
186.86646613285404
  0
LINE
  8
_e-0_
  6
CONTINUOUS
 62
    7
 10
2608.5181174973604
 20
136.67650840108905
 11
2622.7000364868072
 21
141.83830477802189
  0
LINE
  8
_e-0_
  6
CONTINUOUS
 62
    7
 10
2598.2444761483162
 20
138.25809761488983
 11
2629.5534764025942
 21
149.65364177207988
  0
LINE
  8
_e-0_
  6
CONTINUOUS
 62
    7
 10
2582.6330921261529
 20
169.82224055178023
 11
2621.2234503919626
 21
183.86798229020314
  0
LINE
  8
_e-0_
  6
CONTINUOUS
 62
    7
 10
2592.2968185805403
 20
141.41421615899105
 11
2632.0809325371147
 21
155.894449435838
  0
LINE
  8
_e-0_
  6
CONTINUOUS
 62
    7
 10
2588.0695495912832
 20
145.19650493704432
 11
2602.246111940276
 21
150.35635165629657
  0
LINE
  8
_e-0_
  6
CONTINUOUS
 62
    7
 10
2585.0094293819529
 20
149.40360112995108
 11
2597.3909335115823
 21
153.91010008858018
  0
LINE
  8
_e-0_
  6
CONTINUOUS
 62
    7
 10
2582.919829983693
 20
153.96393800982366
 11
2594.869518006371
 21
158.31326875884542
  0
LINE
  8
_e-0_
  6
CONTINUOUS
 62
    7
 10
2581.7538748691904
 20
158.86045391603375
 11
2594.1774270088017
 21
163.38225709870642
  0
LINE
  8
_e-0_
  6
CONTINUOUS
 62
    7
 10
2581.5798124660105
 20
164.11798924475079
 11
2595.9853391150809
 21
169.36117215394091
  0
LINE
  8
_e-0_
  6
CONTINUOUS
 62
    7
 10
2611.9748325174678
 20
175.18087181340547
 11
2625.6969314853613
 21
180.17530738937353
  0
LINE
  8
_e-0_
  6
CONTINUOUS
 62
    7
 10
2617.2029460570038
 20
171.76286066078092
 11
2628.9430705154382
 21
176.03591651023152
  0
LINE
  8
_e-0_
  6
CONTINUOUS
 62
    7
 10
2619.9310564926914
 20
167.43492279278257
 11
2631.197316834192
 21
171.53550620858255
  0
LINE
  8
_e-0_
  6
CONTINUOUS
 62
    7
 10
2620.8298424207369
 20
162.44116525518905
 11
2632.5279188691889
 21
166.69891688059579
  0
LINE
  8
_e-0_
  6
CONTINUOUS
 62
    7
 10
2619.394865425299
 20
156.59798747961361
 11
2632.8880000931144
 21
161.5090868656435
  0
LINE
  8
ADD_LINE
  6
DOT
 62
    9
 10
2339.561356655227
 20
120
 11
2339.561356655227
 21
220
  0
LINE
  8
ADD_LINE
  6
DOT
 62
    9
 10
2486.2246783741707
 20
220
 11
2486.2246783741707
 21
120
  0
LINE
  8
ADD_LINE
  6
DOT
 62
    9
 10
2632.8880000931144
 20
120
 11
2632.8880000931144
 21
220
  0
LINE
  8
ADD_LINE
  6
DOT
 62
    9
 10
2220
 20
220
 11
2220
 21
120
  0
LINE
  8
ADD_LINE
  6
DOT
 62
    9
 10
2710
 20
220
 11
2710
 21
120
  0
TEXT
  8
_e-0_
 62
    7
 10
2642.8586825750176
 20
180.56247057449553
 40
35
 41
0.5714285714285714
 50
0
  1
ワンド
  0
TEXT
  8
_e-0_
 62
    7
 10
2649.7045100149039
 20
147.0179161190498
 40
30
 41
0.6666666666666666
 50
0
  1
株式
  0
TEXT
  8
_e-0_
 62
    7
 10
2649.0199272709156
 20
118.95002361551377
 40
30
 41
0.6666666666666666
 50
0
  1
会社
  0
TEXT
  8
_f-8_
 62
    7
 10
3041.3867294653483
 20
140.4400652140157
 40
35
 41
0.5714285714285714
 50
0
  1
２０２３．０５．０１
  0
LINE
  8
_0-9_
  6
CONTINUOUS
 62
    4
 10
1541
 20
674.99999999999989
 11
1541
 21
1175
  0
TEXT
  8
_0-9_
 62
    7
 10
1541
 20
891.89999999999986
 40
35
 41
0.6285714285714286
 50
90
  1
４９９
  0
LINE
  8
_0-9_
  6
CONTINUOUS
 62
    4
 10
2421.6674015250046
 20
674.99999999999989
 11
2421.6674015250046
 21
1175
  0
TEXT
  8
_0-9_
 62
    7
 10
2421.6674015250046
 20
891.89999999999986
 40
35
 41
0.6285714285714286
 50
90
  1
４９９
  0
LINE
  8
_0-9_
  6
CONTINUOUS
 62
    4
 10
1621
 20
2585
 11
1621
 21
2610
  0
TEXT
  8
_0-9_
 62
    7
 10
1621
 20
2608.8946563204317
 40
35
 41
0.6285714285714286
 50
90
  1
２５
  0
LINE
  8
_0-3_
  6
DASHED1
 62
    2
 10
812.00000000000068
 20
1379.9999999999998
 11
812.00000000000068
 21
580
  0
LINE
  8
_0-3_
  6
CONTINUOUS
 62
    5
 10
800
 20
1379.9999999999998
 11
800
 21
580
  0
LINE
  8
_0-3_
  6
DASHED1
 62
    2
 10
1388
 20
1379.9999999999998
 11
1388
 21
580
  0
LINE
  8
_0-3_
  6
CONTINUOUS
 62
    5
 10
1400
 20
1379.9999999999998
 11
1400
 21
580
  0
LINE
  8
_0-3_
  6
DASHED1
 62
    9
 10
1388
 20
1371.5
 11
812.00000000000068
 21
1371.5
  0
LINE
  8
_0-3_
  6
DASHED1
 62
    2
 10
1388
 20
686.99999999999989
 11
812.00000000000068
 21
686.99999999999989
  0
LINE
  8
_0-3_
  6
DASHED1
 62
    9
 10
1388
 20
1124.5
 11
812.00000000000068
 21
1124.5
  0
LINE
  8
_0-3_
  6
DASHED1
 62
    9
 10
1388
 20
1181.5
 11
812.00000000000068
 21
1181.5
  0
LINE
  8
_0-3_
  6
DASHED1
 62
    9
 10
1388
 20
1314.5000000000002
 11
812.00000000000068
 21
1314.5000000000002
  0
LINE
  8
_0-3_
  6
CONTINUOUS
 62
    4
 10
1400
 20
669.99999999999989
 11
800
 21
669.99999999999989
  0
LINE
  8
_0-3_
  6
CONTINUOUS
 62
    5
 10
1400
 20
580
 11
800
 21
580
  0
TEXT
  8
_f-8_
 62
    7
 10
1616.4356435643563
 20
135.59405940594047
 40
45
 41
0.6666666666666666
 50
0
  1
ＫＴＤ５－８０－６０Ｔ
  0
ENDSEC
  0
EOF
