  0
SECTION
  2
HEADER
  9
$ACADVER
  1
AC1009
  9
$INSBASE
 10
0
 20
0
 30
0
  9
$EXTMIN
 10
0
 20
0
  9
$EXTMAX
 10
4200
 20
2970
  9
$LIMMIN
 10
0
 20
0
  9
$LIMMAX
 10
4200
 20
2970
  9
$LTSCALE
 40
10
  0
ENDSEC
  0
SECTION
  2
TABLES
  0
TABLE
  2
LTYPE
 70
     9
  0
LTYPE
  2
CONTINUOUS
 70
    64
  3
実線
 72
    65
 73
     0
 40
0.0
  0
LTYPE
  2
DASHED1
 70
    64
  3
--  --  --  --  --  --  --  --  
 72
    65
 73
     2
 40
2.5
 49
1.25
 49
-1.25
  0
LTYPE
  2
DASHED2
 70
    64
  3
----    ----    ----    ----    
 72
    65
 73
     2
 40
5.0
 49
2.5
 49
-2.5
  0
LTYPE
  2
DASHED3
 70
    64
  3
------  ------  ------  ------  
 72
    65
 73
     2
 40
5.0
 49
3.75
 49
-1.25
  0
LTYPE
  2
CENTER1
 70
    64
  3
----- - ----- - ----- - ----- - 
 72
    65
 73
     4
 40
10.0
 49
6.25
 49
-1.25
 49
1.25
 49
-1.25
  0
LTYPE
  2
CENTER2
 70
    64
  3
----------  --  ----------  --  
 72
    65
 73
     4
 40
20.0
 49
12.5
 49
-2.5
 49
2.5
 49
-2.5
  0
LTYPE
  2
PHANTOM1
 70
    64
  3
--- - - --- - - --- - - --- - - 
 72
    65
 73
     6
 40
10.0
 49
3.25
 49
-1.25
 49
1.25
 49
-1.25
 49
1.25
 49
-1.25
  0
LTYPE
  2
PHANTOM2
 70
    64
  3
--------  -  -  --------  -  -  
 72
    65
 73
     6
 40
20.0
 49
10.0
 49
-2.5
 49
1.25
 49
-2.5
 49
1.25
 49
-2.5
  0
LTYPE
  2
DOT
 70
    64
  3
-   -   -   -   -   -   -   -   
 72
    65
 73
     2
 40
2.5
 49
0.625
 49
-1.875
  0
LTYPE
  2
DUMMY
 70
    64
  3
ダミー
 72
    65
 73
     0
 40
0.0
  0
LTYPE
  2
RAND1
 70
    64
  3
ランダム線1
 72
    65
 73
     4
 40
10.0
 49
1.0
 49
-2.0
 49
3.0
 49
-4.0
  0
LTYPE
  2
RAND2
 70
    64
  3
ランダム線2
 72
    65
 73
     4
 40
14.0
 49
2.0
 49
-3.0
 49
4.0
 49
-5.0
  0
LTYPE
  2
RAND3
 70
    64
  3
ランダム線3
 72
    65
 73
     4
 40
18.0
 49
3.0
 49
-4.0
 49
5.0
 49
-6.0
  0
LTYPE
  2
RAND4
 70
    64
  3
ランダム線4
 72
    65
 73
     4
 40
22.0
 49
4.0
 49
-5.0
 49
6.0
 49
-7.0
  0
LTYPE
  2
RAND5
 70
    64
  3
ランダム線5
 72
    65
 73
     4
 40
26.0
 49
5.0
 49
-6.0
 49
7.0
 49
-8.0
  0
LTYPE
  2
LONG1
 70
    64
  3
----------  --  ----------  --  
 72
    65
 73
     4
 40
40.0
 49
32.5
 49
-2.5
 49
2.5
 49
-2.5
  0
LTYPE
  2
LONG2
 70
    64
  3
--------  -  -  --------  -  -  
 72
    65
 73
     6
 40
40.0
 49
30.0
 49
-2.5
 49
1.25
 49
-2.5
 49
1.25
 49
-2.5
  0
LTYPE
  2
LONG3
 70
    64
  3
+++++++++++++++..+++++++++++++++
 72
    65
 73
     2
 40
40.0
 49
37.5
 49
-2.5
  0
LTYPE
  2
LONG4
 70
    64
  3
+++++++++++++++..+++++++++++++++
 72
    65
 73
     2
 40
80.0
 49
75.0
 49
-5.0
  0
LTYPE
  2
LONG5
 70
    64
  3
----------  --  ----------  --  
 72
    65
 73
     4
 40
60.0
 49
37.5
 49
-7.5
 49
7.5
 49
-7.5
  0
LTYPE
  2
dashed
 70
   64
  3
-------   -------------   ------
 72
   65
 73
    2
 40
7.5
 49
6
 49
-1.5
  0
LTYPE
  2
dashed_spaced
 70
   64
  3
----        --------        ----
 72
   65
 73
    2
 40
12
 49
6
 49
-6
  0
LTYPE
  2
long_dashed_dotted
 70
   64
  3
------------- --- --------------
 72
   65
 73
    4
 40
15.25
 49
12
 49
-1.5
 49
0.25
 49
-1.5
  0
LTYPE
  2
long_dashed_double-dotted
 70
   64
  3
----------- --- --- ------------
 72
   65
 73
    6
 40
17
 49
12
 49
-1.5
 49
0.25
 49
-1.5
 49
0.25
 49
-1.5
  0
LTYPE
  2
long_dashed_triplicate-dotted
 70
   64
  3
--------- --- --- --- ----------
 72
   65
 73
    8
 40
18.75
 49
12
 49
-1.5
 49
0.25
 49
-1.5
 49
0.25
 49
-1.5
 49
0.25
 49
-1.5
  0
LTYPE
  2
dotted
 70
   64
  3
   -       -       -       -    
 72
   65
 73
    2
 40
1.75
 49
0.25
 49
-1.5
  0
LTYPE
  2
chain
 70
   64
  3
-------------- -- --------------
 72
   65
 73
    4
 40
18.5
 49
12
 49
-1.5
 49
3.5
 49
-1.5
  0
LTYPE
  2
chain_double_dash
 70
   64
  3
------------ -- -- -------------
 72
   65
 73
    6
 40
23.5
 49
12
 49
-1.5
 49
3.5
 49
-1.5
 49
3.5
 49
-1.5
  0
LTYPE
  2
dashed_dotted
 70
   64
  3
-----------     -     ----------
 72
   65
 73
    4
 40
9.25
 49
6
 49
-1.5
 49
0.25
 49
-1.5
  0
LTYPE
  2
double-dashed_dotted
 70
   64
  3
------   -----------   -   -----
 72
   65
 73
    6
 40
16.75
 49
6
 49
-1.5
 49
6
 49
-1.5
 49
0.25
 49
-1.5
  0
LTYPE
  2
dashed_double-dotted
 70
   64
  3
---------    -    -    ---------
 72
   65
 73
    6
 40
11
 49
6
 49
-1.5
 49
0.25
 49
-1.5
 49
0.25
 49
-1.5
  0
LTYPE
  2
double-dashed_double-dotted
 70
   64
  3
-----   ---------   -   -   ----
 72
   65
 73
    8
 40
18.5
 49
6
 49
-1.5
 49
6
 49
-1.5
 49
0.25
 49
-1.5
 49
0.25
 49
-1.5
  0
LTYPE
  2
dashed_triplicate-dotted
 70
   64
  3
-------    -    -    -    ------
 72
   65
 73
    8
 40
12.75
 49
6
 49
-1.5
 49
0.25
 49
-1.5
 49
0.25
 49
-1.5
 49
0.25
 49
-1.5
  0
LTYPE
  2
double-dashed_triplicate-dotted
 70
   64
  3
-----  ---------  -  -  -  -----
 72
   65
 73
   10
 40
20.25
 49
6
 49
-1.5
 49
6
 49
-1.5
 49
0.25
 49
-1.5
 49
0.25
 49
-1.5
 49
0.25
 49
-1.5
  0
LTYPE
  2
undefined
 70
   64
  3
--------------------------------
 72
   65
 73
    0
 40
0
  0
LTYPE
  2
_
 70
   64
  3
                                
 72
   65
 73
    0
 40
0
  0
LTYPE
  2
__18
 70
   64
  3
                                
 72
   65
 73
    0
 40
0
  0
LTYPE
  2
__19
 70
   64
  3
                                
 72
   65
 73
    0
 40
0
  0
LTYPE
  2
__20
 70
   64
  3
                                
 72
   65
 73
    0
 40
0
  0
LTYPE
  2
__21
 70
   64
  3
                                
 72
   65
 73
    0
 40
0
  0
LTYPE
  2
__22
 70
   64
  3
                                
 72
   65
 73
    0
 40
0
  0
LTYPE
  2
__23
 70
   64
  3
                                
 72
   65
 73
    0
 40
0
  0
LTYPE
  2
__24
 70
   64
  3
                                
 72
   65
 73
    0
 40
0
  0
LTYPE
  2
__25
 70
   64
  3
                                
 72
   65
 73
    0
 40
0
  0
LTYPE
  2
__26
 70
   64
  3
                                
 72
   65
 73
    0
 40
0
  0
LTYPE
  2
__27
 70
   64
  3
                                
 72
   65
 73
    0
 40
0
  0
LTYPE
  2
__28
 70
   64
  3
                                
 72
   65
 73
    0
 40
0
  0
LTYPE
  2
__29
 70
   64
  3
                                
 72
   65
 73
    0
 40
0
  0
LTYPE
  2
__30
 70
   64
  3
                                
 72
   65
 73
    0
 40
0
  0
LTYPE
  2
__31
 70
   64
  3
                                
 72
   65
 73
    0
 40
0
  0
LTYPE
  2
__32
 70
   64
  3
                                
 72
   65
 73
    0
 40
0
  0
ENDTAB
  0
TABLE
  2
STYLE
  5
3
100
AcDbSymbolTable
 70
     1
  0
STYLE
  5
10
100
AcDbSymbolTableRecord
100
AcDbTextStyleTableRecord
  2
STANDARD
 70
     0
 40
0.0
 41
1.0
 50
0.0
 71
     0
 42
0.2
  3
txt
  4
bigfont.shx
  0
STYLE
  5
26
100
AcDbSymbolTableRecord
100
AcDbTextStyleTableRecord
  2
TATEGAKI
 70
    68
 40
0.0
 41
1.0
 50
0.0
 71
     0
 42
1.0
  3
txt
  4
bigfont.shx
  0
ENDTAB
  0
TABLE
  2
LAYER
 70
   16
  0
LAYER
  2
_0-2_
 70
   64
 62
    7
  6
CONTINUOUS
  0
LAYER
  2
_0-3_
 70
   64
 62
    7
  6
CONTINUOUS
  0
LAYER
  2
_0-4_
 70
   64
 62
    7
  6
CONTINUOUS
  0
LAYER
  2
_0-5_
 70
   64
 62
    7
  6
CONTINUOUS
  0
LAYER
  2
_0-8_
 70
   64
 62
    7
  6
CONTINUOUS
  0
LAYER
  2
_0-9_
 70
   64
 62
    7
  6
CONTINUOUS
  0
LAYER
  2
_0-d_
 70
   64
 62
    7
  6
CONTINUOUS
  0
LAYER
  2
_e-0_
 70
   64
 62
    7
  6
CONTINUOUS
  0
LAYER
  2
_f-0_
 70
   64
 62
    7
  6
CONTINUOUS
  0
LAYER
  2
_f-7_
 70
   64
 62
    7
  6
CONTINUOUS
  0
LAYER
  2
_f-8_
 70
   64
 62
    7
  6
CONTINUOUS
  0
LAYER
  2
_f-9_
 70
   64
 62
    7
  6
CONTINUOUS
  0
LAYER
  2
_f-d_固定文字
 70
   64
 62
    7
  6
CONTINUOUS
  0
LAYER
  2
_f-e_
 70
   64
 62
    7
  6
CONTINUOUS
  0
LAYER
  2
_f-f_図面枠
 70
   64
 62
    7
  6
CONTINUOUS
  0
LAYER
  2
ADD_LINE
 70
   64
 62
    7
  6
CONTINUOUS
  0
ENDTAB
  0
ENDSEC
  0
SECTION
  2
BLOCKS
  0
ENDSEC
  0
SECTION
  2
ENTITIES
  0
LINE
  8
ADD_LINE
  6
DOT
 62
    9
 10
630
 20
160
 11
2210
 21
160
  0
TEXT
  8
_0-9_
 62
    1
 10
1270.735487576384
 20
472.08277206296657
 40
35
 41
0.6285714285714286
 50
0
  1
１
  0
POINT
  8
_0-9_
 62
    4
 10
955.50000000000011
 20
472.08277206296657
  0
LINE
  8
_0-9_
  6
CONTINUOUS
 62
    4
 10
955.50000000000011
 20
462.08277206296657
 11
955.50000000000011
 21
540.1758258282905
  0
LINE
  8
ADD_LINE
  6
DOT
 62
    9
 10
4144.9850000000006
 20
2875
 11
74.98500000000007
 21
2875
  0
LINE
  8
_0-9_
  6
CONTINUOUS
 62
    4
 10
2615.0030000000006
 20
1175
 11
2766.3482247945203
 21
1175
  0
LINE
  8
ADD_LINE
  6
DOT
 62
    9
 10
149.98500000000007
 20
100
 11
149.98500000000007
 21
65
  0
LINE
  8
ADD_LINE
  6
DOT
 62
    9
 10
149.98500000000007
 20
65
 11
179.98500000000007
 21
65.000000646005844
  0
LINE
  8
ADD_LINE
  6
DOT
 62
    9
 10
179.98500000000007
 20
100
 11
179.98500000000007
 21
65.000000646005844
  0
LINE
  8
ADD_LINE
  6
DOT
 62
    9
 10
150.01499999999993
 20
65
 11
120.02999999999986
 21
65
  0
LINE
  8
ADD_LINE
  6
DOT
 62
    9
 10
74.98500000000007
 20
55
 11
4144.9850000000006
 21
55
  0
LINE
  8
ADD_LINE
  6
DOT
 62
    9
 10
4130
 20
100
 11
4130
 21
65.00000323002979
  0
LINE
  8
ADD_LINE
  6
DOT
 62
    9
 10
4100
 20
100
 11
4100
 21
65.00000323002979
  0
LINE
  8
ADD_LINE
  6
DOT
 62
    9
 10
4070
 20
100
 11
4070
 21
65.00000323002979
  0
LINE
  8
ADD_LINE
  6
DOT
 62
    9
 10
4040
 20
100
 11
4040
 21
65.00000323002979
  0
LINE
  8
ADD_LINE
  6
DOT
 62
    9
 10
4010
 20
100
 11
4010
 21
65.00000323002979
  0
LINE
  8
ADD_LINE
  6
DOT
 62
    9
 10
3980
 20
100
 11
3980
 21
65
  0
LINE
  8
ADD_LINE
  6
DOT
 62
    9
 10
74.98500000000007
 20
2875
 11
74.98500000000007
 21
55
  0
LINE
  8
ADD_LINE
  6
DOT
 62
    9
 10
120.02999999999986
 20
65
 11
120.02999999999986
 21
2860
  0
LINE
  8
ADD_LINE
  6
DOT
 62
    9
 10
4144.9850000000006
 20
55
 11
4144.9850000000006
 21
2875
  0
LINE
  8
_f-9_
  6
CONTINUOUS
 62
    7
 10
630
 20
120
 11
630
 21
220
  0
LINE
  8
ADD_LINE
  6
DOT
 62
    9
 10
170
 20
120
 11
170
 21
220
  0
LINE
  8
ADD_LINE
  6
DOT
 62
    9
 10
610
 20
120
 11
610
 21
220
  0
LINE
  8
_f-9_
  6
CONTINUOUS
 62
    7
 10
170
 20
120
 11
610
 21
120
  0
LINE
  8
_f-9_
  6
CONTINUOUS
 62
    7
 10
170
 20
220
 11
610
 21
220
  0
LINE
  8
_f-9_
  6
CONTINUOUS
 62
    7
 10
1420
 20
120
 11
1420
 21
220
  0
LINE
  8
_f-9_
  6
CONTINUOUS
 62
    7
 10
2210
 20
120
 11
2210
 21
220
  0
LINE
  8
_f-9_
  6
CONTINUOUS
 62
    7
 10
2220
 20
120
 11
2220
 21
220
  0
LINE
  8
_f-9_
  6
CONTINUOUS
 62
    7
 10
630
 20
120
 11
2210
 21
120
  0
LINE
  8
_f-9_
  6
CONTINUOUS
 62
    7
 10
630
 20
220
 11
2210
 21
220
  0
LINE
  8
_f-9_
  6
CONTINUOUS
 62
    7
 10
2710
 20
120
 11
2710
 21
220
  0
LINE
  8
_f-9_
  6
CONTINUOUS
 62
    7
 10
2720
 20
120
 11
2720
 21
220
  0
LINE
  8
_f-9_
  6
CONTINUOUS
 62
    7
 10
2220
 20
120
 11
2710
 21
120
  0
LINE
  8
_f-9_
  6
CONTINUOUS
 62
    7
 10
2220
 20
220
 11
2710
 21
220
  0
LINE
  8
_f-9_
  6
CONTINUOUS
 62
    7
 10
3020
 20
120
 11
3020
 21
220
  0
LINE
  8
_f-9_
  6
CONTINUOUS
 62
    7
 10
3320
 20
120
 11
3320
 21
220
  0
LINE
  8
_f-9_
  6
CONTINUOUS
 62
    7
 10
3700
 20
120
 11
3700
 21
220
  0
LINE
  8
_f-9_
  6
CONTINUOUS
 62
    7
 10
2720
 20
120
 11
4110
 21
120
  0
LINE
  8
_f-9_
  6
CONTINUOUS
 62
    7
 10
4110
 20
120
 11
4110
 21
220
  0
LINE
  8
_f-9_
  6
CONTINUOUS
 62
    7
 10
2720
 20
220
 11
4110
 21
220
  0
LINE
  8
_f-f_図面枠
  6
CONTINUOUS
 62
  230
 10
4130
 20
2860
 11
4130
 21
100
  0
LINE
  8
_f-f_図面枠
  6
CONTINUOUS
 62
  230
 10
150
 20
2860
 11
4130
 21
2860
  0
LINE
  8
_f-f_図面枠
  6
CONTINUOUS
 62
  230
 10
150
 20
100
 11
4130
 21
100
  0
LINE
  8
_f-f_図面枠
  6
CONTINUOUS
 62
  230
 10
150
 20
100
 11
150
 21
2860
  0
LINE
  8
ADD_LINE
  6
DOT
 62
    9
 10
630
 20
200
 11
2210
 21
200
  0
LINE
  8
ADD_LINE
  6
DOT
 62
    9
 10
2720
 20
200
 11
4110
 21
200
  0
LINE
  8
ADD_LINE
  6
DOT
 62
    9
 10
2740
 20
120
 11
2740
 21
220
  0
LINE
  8
ADD_LINE
  6
DOT
 62
    9
 10
3040
 20
120
 11
3040
 21
220
  0
LINE
  8
ADD_LINE
  6
DOT
 62
    9
 10
3340
 20
120
 11
3340
 21
220
  0
LINE
  8
ADD_LINE
  6
DOT
 62
    9
 10
3720
 20
120
 11
3720
 21
220
  0
LINE
  8
ADD_LINE
  6
DOT
 62
    9
 10
1445
 20
120
 11
1445
 21
220
  0
LINE
  8
ADD_LINE
  6
DOT
 62
    9
 10
655
 20
120
 11
655
 21
220
  0
LINE
  8
ADD_LINE
  6
DOT
 62
    9
 10
3660
 20
120
 11
3660
 21
220
  0
LINE
  8
ADD_LINE
  6
DOT
 62
    9
 10
2720
 20
160
 11
4110
 21
160
  0
TEXT
  8
_f-8_
 62
    7
 10
3340
 20
187.5
 40
25
 41
0.64
 50
0
  1
ＣＨＥＣＫＥＤ
  0
TEXT
  8
_f-8_
 62
    7
 10
3720
 20
187.5
 40
25
 41
0.64
 50
0
  1
ＳＨＥＥＴ　ＮＯ．
  0
TEXT
  8
_f-8_
 62
    7
 10
3542
 20
187.5
 40
25
 41
0.64
 50
0
  1
ＤＲＡＷＩＮＧ
  0
LINE
  8
ADD_LINE
  6
DOT
 62
    9
 10
135
 20
65
 11
135
 21
2860
  0
LINE
  8
_f-9_
  6
CONTINUOUS
 62
    7
 10
170
 20
170
 11
610
 21
170
  0
LINE
  8
ADD_LINE
  6
DOT
 62
    9
 10
2910
 20
120
 11
2910
 21
220
  0
LINE
  8
ADD_LINE
  6
DOT
 62
    9
 10
3170
 20
120
 11
3170
 21
220
  0
LINE
  8
ADD_LINE
  6
DOT
 62
    9
 10
3500
 20
220
 11
3500
 21
120
  0
LINE
  8
ADD_LINE
  6
DOT
 62
    9
 10
1025
 20
220
 11
1025
 21
120
  0
TEXT
  8
_f-8_
 62
    7
 10
2861
 20
142.5
 40
35
 41
0.5714285714285714
 50
0
  1
１／１０
  0
TEXT
  8
_f-8_
 62
    7
 10
2740.3739840854214
 20
187.46937299484983
 40
25
 41
0.64
 50
0
  1
ＳＣＡＬＥ
  0
TEXT
  8
_f-8_
 62
    7
 10
1445
 20
187.5
 40
25
 41
0.8
 50
0
  1
図面名称
  0
TEXT
  8
_f-8_
 62
    7
 10
655
 20
187.5
 40
25
 41
0.8
 50
0
  1
名　称
  0
LINE
  8
ADD_LINE
  6
DOT
 62
    9
 10
1815
 20
120
 11
1815
 21
220
  0
LINE
  8
_f-8_
  6
CONTINUOUS
 62
    7
 10
2165
 20
2872
 11
2166.1500000000001
 21
2874.0000000000005
  0
LINE
  8
_f-8_
  6
CONTINUOUS
 62
    7
 10
2158.6399999999999
 20
2877
 11
2165
 21
2866
  0
LINE
  8
_f-8_
  6
CONTINUOUS
 62
    7
 10
2165
 20
2866
 11
2171.3499999999999
 21
2877
  0
LINE
  8
_f-8_
  6
CONTINUOUS
 62
    7
 10
2165
 20
2860
 11
2176.54
 21
2880
  0
LINE
  8
_f-8_
  6
CONTINUOUS
 62
    7
 10
2153.4499999999998
 20
2880
 11
2165
 21
2860
  0
LINE
  8
_f-8_
  6
CONTINUOUS
 62
    7
 10
2176.54
 20
2880
 11
2153.4499999999998
 21
2880
  0
LINE
  8
_f-8_
  6
CONTINUOUS
 62
    7
 10
2163.8400000000001
 20
2874.0000000000005
 11
2165
 21
2872
  0
LINE
  8
_f-8_
  6
CONTINUOUS
 62
    7
 10
2166.1500000000001
 20
2874.0000000000005
 11
2163.8400000000001
 21
2874.0000000000005
  0
LINE
  8
_f-8_
  6
CONTINUOUS
 62
    7
 10
2171.3499999999999
 20
2877
 11
2158.6399999999999
 21
2877
  0
LINE
  8
_f-7_
  6
CONTINUOUS
 62
    7
 10
120
 20
1462.6794919243114
 11
120
 21
1497.3205080756886
  0
LINE
  8
_f-7_
  6
CONTINUOUS
 62
    7
 10
120
 20
1497.3205080756886
 11
150
 21
1480
  0
LINE
  8
_f-7_
  6
CONTINUOUS
 62
    7
 10
150
 20
1480
 11
120
 21
1462.6794919243114
  0
LINE
  8
_f-7_
  6
CONTINUOUS
 62
    7
 10
125
 20
1471.3397459621556
 11
125
 21
1488.6602540378444
  0
LINE
  8
_f-7_
  6
CONTINUOUS
 62
    7
 10
125
 20
1488.6602540378444
 11
140
 21
1480
  0
LINE
  8
_f-7_
  6
CONTINUOUS
 62
    7
 10
140
 20
1480
 11
125
 21
1471.3397459621556
  0
LINE
  8
_f-7_
  6
CONTINUOUS
 62
    7
 10
128.99999999999977
 20
1478.2679491924309
 11
128.99999999999977
 21
1481.7320508075691
  0
LINE
  8
_f-7_
  6
CONTINUOUS
 62
    7
 10
128.99999999999977
 20
1481.7320508075691
 11
132.00000000000045
 21
1480
  0
LINE
  8
_f-7_
  6
CONTINUOUS
 62
    7
 10
132.00000000000045
 20
1480
 11
128.99999999999977
 21
1478.2679491924309
  0
LINE
  8
_f-7_
  6
CONTINUOUS
 62
    7
 10
4160
 20
1462.6794919243114
 11
4160
 21
1497.3205080756886
  0
LINE
  8
_f-7_
  6
CONTINUOUS
 62
    7
 10
4160
 20
1497.3205080756886
 11
4130
 21
1480
  0
LINE
  8
_f-7_
  6
CONTINUOUS
 62
    7
 10
4130
 20
1480
 11
4160
 21
1462.6794919243114
  0
LINE
  8
_f-7_
  6
CONTINUOUS
 62
    7
 10
4155
 20
1471.3397459621556
 11
4155
 21
1488.6602540378444
  0
LINE
  8
_f-7_
  6
CONTINUOUS
 62
    7
 10
4155
 20
1488.6602540378444
 11
4140
 21
1480
  0
LINE
  8
_f-7_
  6
CONTINUOUS
 62
    7
 10
4140
 20
1480
 11
4155
 21
1471.3397459621556
  0
LINE
  8
_f-7_
  6
CONTINUOUS
 62
    7
 10
4151
 20
1478.2679491924309
 11
4151
 21
1481.7320508075691
  0
LINE
  8
_f-7_
  6
CONTINUOUS
 62
    7
 10
4151
 20
1481.7320508075691
 11
4148
 21
1480
  0
LINE
  8
_f-7_
  6
CONTINUOUS
 62
    7
 10
4148
 20
1480
 11
4151
 21
1478.2679491924309
  0
LINE
  8
ADD_LINE
  6
DOT
 62
    9
 10
1075
 20
220
 11
1075
 21
120
  0
LINE
  8
ADD_LINE
  6
DOT
 62
    9
 10
1865
 20
120
 11
1865
 21
220
  0
TEXT
  8
_f-d_固定文字
 62
    7
 10
150.01499999999993
 20
65
 40
20
 41
1
 50
0
  1
%f
  0
LINE
  8
ADD_LINE
  6
DOT
 62
    9
 10
3980
 20
65
 11
4130
 21
65.00000323002979
  0
TEXT
  8
_f-d_固定文字
 62
    7
 10
3989
 20
65.00000323002979
 40
20
 41
1
 50
0
  1
%y
  0
TEXT
  8
_f-d_固定文字
 62
    7
 10
4020
 20
65.00000323002979
 40
20
 41
1
 50
0
  1
．
  0
TEXT
  8
_f-d_固定文字
 62
    7
 10
4049
 20
65.00000323002979
 40
20
 41
1
 50
0
  1
%m
  0
TEXT
  8
_f-d_固定文字
 62
    7
 10
4080
 20
65.00000323002979
 40
20
 41
1
 50
0
  1
．
  0
TEXT
  8
_f-d_固定文字
 62
    7
 10
4109
 20
65.00000323002979
 40
20
 41
1
 50
0
  1
%d
  0
LINE
  8
_0-2_
  6
CONTINUOUS
 62
    5
 10
950
 20
2560
 11
1650
 21
2560
  0
POINT
  8
_0-9_
 62
    3
 10
950
 20
2720
  0
POINT
  8
_0-9_
 62
    3
 10
1650
 20
2720
  0
LINE
  8
_0-9_
  6
CONTINUOUS
 62
    4
 10
950
 20
2720
 11
1650
 21
2720
  0
TEXT
  8
_0-9_
 62
    7
 10
1266.9000000000001
 20
2720
 40
35
 41
0.6285714285714286
 50
0
  1
７００
  0
LINE
  8
_0-9_
  6
CONTINUOUS
 62
    4
 10
950
 20
2730
 11
950
 21
2586.5760922319132
  0
LINE
  8
_0-2_
  6
CONTINUOUS
 62
    5
 10
1650
 20
1200
 11
1650
 21
1180
  0
LINE
  8
_0-2_
  6
CONTINUOUS
 62
    5
 10
1650
 20
1180
 11
950
 21
1180
  0
LINE
  8
_0-2_
  6
CONTINUOUS
 62
    5
 10
950
 20
1180
 11
950
 21
1200
  0
LINE
  8
_0-2_
  6
CONTINUOUS
 62
    5
 10
1650
 20
1200
 11
950
 21
1200
  0
LINE
  8
_0-9_
  6
CONTINUOUS
 62
    4
 10
1650
 20
2720
 11
1650
 21
2586.5760922319132
  0
LINE
  8
_0-4_
  6
CONTINUOUS
 62
    3
 10
1644.5
 20
675
 11
1300.5
 21
675
  0
LINE
  8
_0-4_
  6
CENTER2
 62
    4
 10
1644.5
 20
926.00000000000011
 11
1300.5
 21
675
  0
LINE
  8
_0-4_
  6
CONTINUOUS
 62
    3
 10
955.50000000000011
 20
675
 11
1299.5
 21
675
  0
LINE
  8
_0-4_
  6
CENTER2
 62
    4
 10
955.50000000000011
 20
926.00000000000011
 11
1299.5
 21
675
  0
LINE
  8
_0-8_
  6
CONTINUOUS
 62
    4
 10
2942.5030000000006
 20
261.86599999999987
 11
3192.5
 21
261.86599999999987
  0
LINE
  8
_0-8_
  6
CONTINUOUS
 62
    4
 10
3192.5
 20
261.86599999999987
 11
3192.5
 21
331.86599999999987
  0
LINE
  8
_0-8_
  6
CONTINUOUS
 62
    4
 10
3192.5
 20
331.86599999999987
 11
2942.5030000000006
 21
331.86599999999987
  0
LINE
  8
_0-8_
  6
CONTINUOUS
 62
    4
 10
2942.5030000000006
 20
331.86599999999987
 11
2942.5030000000006
 21
261.86599999999987
  0
LINE
  8
ADD_LINE
  6
DOT
 62
    9
 10
3067.5
 20
261.86599999999987
 11
3067.5
 21
331.86599999999987
  0
TEXT
  8
_0-8_
 62
    7
 10
3020.5
 20
279.36599999999987
 40
35
 41
0.8571428571428571
 50
0
  1
断面図
  0
LINE
  8
ADD_LINE
  6
DOT
 62
    9
 10
2942.5
 20
296.86599999999987
 11
3192.5
 21
296.86599999999987
  0
LINE
  8
_0-3_
  6
CONTINUOUS
 62
    4
 10
3255
 20
682.99999999999977
 11
3255
 21
670
  0
LINE
  8
_0-3_
  6
CONTINUOUS
 62
    5
 10
2865.0030000000006
 20
670
 11
3305
 21
670
  0
LINE
  8
_0-4_
  6
CONTINUOUS
 62
    3
 10
2793.0030000000006
 20
675
 11
2805.0030000000006
 21
675
  0
LINE
  8
_0-3_
  6
CONTINUOUS
 62
    4
 10
2808.0030000000006
 20
682.99999999999977
 11
3305
 21
682.99999999999977
  0
LINE
  8
_0-3_
  6
CONTINUOUS
 62
    5
 10
2808.0030000000006
 20
686.99999999999989
 11
2808.0030000000006
 21
670
  0
LINE
  8
_0-3_
  6
CONTINUOUS
 62
    5
 10
2808.0030000000006
 20
686.99999999999989
 11
3305
 21
686.99999999999989
  0
LINE
  8
_0-3_
  6
CONTINUOUS
 62
    5
 10
2808.0030000000006
 20
670
 11
2865.0030000000006
 21
670
  0
LINE
  8
_0-3_
  6
CONTINUOUS
 62
    4
 10
2861.5030000000002
 20
682.99999999999977
 11
2861.5030000000002
 21
670
  0
LINE
  8
_0-3_
  6
CONTINUOUS
 62
    4
 10
3305
 20
1180
 11
3305
 21
580
  0
LINE
  8
_0-3_
  6
CONTINUOUS
 62
    4
 10
3309.0000000000005
 20
1180
 11
3309.0000000000005
 21
580
  0
LINE
  8
_0-3_
  6
CONTINUOUS
 62
    5
 10
3330
 20
1180
 11
3330
 21
580
  0
LINE
  8
_0-2_
  6
CONTINUOUS
 62
    5
 10
3330
 20
1198.9999999999998
 11
3330
 21
1180
  0
ARC
  8
_0-2_
  6
CONTINUOUS
 62
    5
 10
3329
 20
1198.9999999999998
 40
1
 50
0
 51
90
  0
ARC
  8
_0-2_
  6
CONTINUOUS
 62
    4
 10
3329
 20
1198.9999999999998
 40
0.6
 50
0
 51
90
  0
LINE
  8
_0-2_
  6
CONTINUOUS
 62
    4
 10
3329.5999999999999
 20
1180
 11
3329.5999999999999
 21
1198.9999999999998
  0
LINE
  8
_0-3_
  6
CONTINUOUS
 62
    2
 10
2808.0030000000006
 20
1180
 11
2808.0030000000006
 21
1119.9999999999998
  0
LINE
  8
_0-3_
  6
CONTINUOUS
 62
    4
 10
2808.0030000000006
 20
1119.9999999999998
 11
2808.0030000000006
 21
686.99999999999989
  0
LINE
  8
_0-3_
  6
CONTINUOUS
 62
    2
 10
2808.0030000000006
 20
1119.9999999999998
 11
2828.0030000000006
 21
1119.9999999999998
  0
LINE
  8
_0-3_
  6
CONTINUOUS
 62
    2
 10
2828.0030000000006
 20
1180
 11
2828.0030000000006
 21
1119.9999999999998
  0
LINE
  8
ADD_LINE
  6
DOT
 62
    9
 10
3383.9795179830621
 20
1299.9999999999998
 11
3330
 21
1299.9999999999998
  0
LINE
  8
ADD_LINE
  6
DOT
 62
    9
 10
3383.9795179830621
 20
1379.9999999999998
 11
3330
 21
1379.9999999999998
  0
LINE
  8
ADD_LINE
  6
DOT
 62
    9
 10
3383.9795179830621
 20
1459.9999999999998
 11
3330
 21
1459.9999999999998
  0
POINT
  8
_0-9_
 62
    3
 10
950
 20
1459.9999999999998
  0
POINT
  8
_0-9_
 62
    3
 10
1650
 20
1459.9999999999998
  0
LINE
  8
_0-9_
  6
CONTINUOUS
 62
    4
 10
950
 20
1459.9999999999998
 11
1650
 21
1459.9999999999998
  0
TEXT
  8
_0-9_
 62
    7
 10
1266.9000000000001
 20
1459.9999999999998
 40
35
 41
0.6285714285714286
 50
0
  1
７００
  0
LINE
  8
_0-9_
  6
CONTINUOUS
 62
    4
 10
1650
 20
1469.9999999999995
 11
1650
 21
1244.9674575119084
  0
LINE
  8
_0-9_
  6
CONTINUOUS
 62
    4
 10
950
 20
1469.9999999999998
 11
950
 21
1244.9674575119084
  0
POINT
  8
_0-9_
 62
    3
 10
3330
 20
1459.9999999999998
  0
LINE
  8
_0-9_
  6
CONTINUOUS
 62
    4
 10
3330
 20
1469.9999999999998
 11
3330
 21
1218.3574104546383
  0
POINT
  8
_0-9_
 62
    3
 10
1910
 20
2560
  0
LINE
  8
_0-9_
  6
CONTINUOUS
 62
    4
 10
1920
 20
2560
 11
1684.2088407113424
 21
2560
  0
POINT
  8
_0-9_
 62
    3
 10
1890
 20
580
  0
POINT
  8
_0-9_
 62
    3
 10
1890
 20
670
  0
LINE
  8
ADD_LINE
  6
DOT
 62
    9
 10
1890
 20
580.00000708007815
 11
1890
 21
526.02048909701602
  0
LINE
  8
ADD_LINE
  6
DOT
 62
    9
 10
1810
 20
580.00000708007815
 11
1810
 21
526.02048909701602
  0
POINT
  8
_0-9_
 62
    3
 10
1810
 20
675
  0
LINE
  8
_0-9_
  6
CONTINUOUS
 62
    4
 10
1890
 20
580
 11
1890
 21
670
  0
TEXT
  8
_0-9_
 62
    7
 10
1890
 20
602.95000000000005
 40
35
 41
0.6285714285714286
 50
90
  1
９０
  0
LINE
  8
ADD_LINE
  6
DOT
 62
    9
 10
1970
 20
580.00000708007815
 11
1970
 21
526.02048909701602
  0
POINT
  8
_0-9_
 62
    3
 10
1970
 20
580
  0
POINT
  8
_0-9_
 62
    3
 10
1970
 20
1200
  0
LINE
  8
_0-9_
  6
CONTINUOUS
 62
    4
 10
1970
 20
580
 11
1970
 21
1200
  0
TEXT
  8
_0-9_
 62
    7
 10
1970
 20
856.89999999999998
 40
35
 41
0.6285714285714286
 50
90
  1
６２０
  0
LINE
  8
_0-9_
  6
CONTINUOUS
 62
    4
 10
1980
 20
580
 11
1684.2088407113424
 21
580
  0
LINE
  8
_0-9_
  6
CONTINUOUS
 62
    4
 10
1900
 20
670
 11
1684.2088407113424
 21
670
  0
LINE
  8
_0-9_
  6
CONTINUOUS
 62
    4
 10
1820
 20
675
 11
1684.2088407113424
 21
675
  0
LINE
  8
_0-9_
  6
CONTINUOUS
 62
    4
 10
1980
 20
1200
 11
1684.2088407113424
 21
1200
  0
POINT
  8
_0-9_
 62
    3
 10
2465.0030000000006
 20
580
  0
LINE
  8
ADD_LINE
  6
DOT
 62
    9
 10
2625.0030000000006
 20
580.00000708007815
 11
2625.0030000000006
 21
526.02048909701602
  0
LINE
  8
ADD_LINE
  6
DOT
 62
    9
 10
2545.0030000000006
 20
580.00000708007815
 11
2545.0030000000006
 21
526.02048909701602
  0
LINE
  8
ADD_LINE
  6
DOT
 62
    9
 10
2465.0030000000006
 20
580.00000708007815
 11
2465.0030000000006
 21
526.02048909701602
  0
POINT
  8
_0-9_
 62
    3
 10
2545.0030000000006
 20
580
  0
POINT
  8
_0-9_
 62
    3
 10
2545.0030000000006
 20
670
  0
LINE
  8
_0-9_
  6
CONTINUOUS
 62
    4
 10
2545.0030000000006
 20
580
 11
2545.0030000000006
 21
670
  0
TEXT
  8
_0-9_
 62
    7
 10
2545.0030000000006
 20
602.95000000000005
 40
35
 41
0.6285714285714286
 50
90
  1
９０
  0
POINT
  8
_0-9_
 62
    3
 10
2465.0030000000006
 20
1200.0077243883957
  0
LINE
  8
_0-9_
  6
CONTINUOUS
 62
    4
 10
2465.0030000000006
 20
580
 11
2465.0030000000006
 21
1200.0077243883957
  0
TEXT
  8
_0-9_
 62
    7
 10
2465.0030000000006
 20
856.90386219419793
 40
35
 41
0.6285714285714286
 50
90
  1
６２０
  0
LINE
  8
_0-9_
  6
CONTINUOUS
 62
    4
 10
2455.0030000000006
 20
580
 11
2766.3482247945203
 21
580
  0
LINE
  8
_0-9_
  6
CONTINUOUS
 62
    4
 10
2535.0030000000006
 20
670
 11
2766.3482247945203
 21
670
  0
LINE
  8
_0-9_
  6
CONTINUOUS
 62
    4
 10
2615.0030000000006
 20
675
 11
2766.3482247945203
 21
675
  0
LINE
  8
_0-9_
  6
CONTINUOUS
 62
    4
 10
2455.0030000000006
 20
1200.0077243883957
 11
2766.3482247945203
 21
1200.0077243883957
  0
LINE
  8
_0-8_
  6
CONTINUOUS
 62
    4
 10
1424.9999999999998
 20
1765
 11
1174.9999999999998
 21
1765
  0
LINE
  8
_0-8_
  6
CONTINUOUS
 62
    4
 10
1424.9999999999998
 20
1835
 11
1424.9999999999998
 21
1765
  0
LINE
  8
_0-8_
  6
CONTINUOUS
 62
    4
 10
1174.9999999999998
 20
1835
 11
1424.9999999999998
 21
1835
  0
LINE
  8
_0-8_
  6
CONTINUOUS
 62
    4
 10
1174.9999999999998
 20
1765
 11
1174.9999999999998
 21
1835
  0
LINE
  8
ADD_LINE
  6
DOT
 62
    9
 10
1175
 20
1800
 11
1424.9999999999998
 21
1800
  0
LINE
  8
ADD_LINE
  6
DOT
 62
    9
 10
1300
 20
1765
 11
1300
 21
1835
  0
TEXT
  8
_0-8_
 62
    7
 10
1252.9999999999998
 20
1782.5
 40
35
 41
0.8571428571428571
 50
0
  1
平面図
  0
LINE
  8
_0-8_
  6
CONTINUOUS
 62
    4
 10
1424.9999999999998
 20
261.86599999999987
 11
1174.9999999999998
 21
261.86599999999987
  0
LINE
  8
_0-8_
  6
CONTINUOUS
 62
    4
 10
1174.9999999999998
 20
261.86599999999987
 11
1174.9999999999998
 21
331.86599999999987
  0
LINE
  8
_0-8_
  6
CONTINUOUS
 62
    4
 10
1174.9999999999998
 20
331.86599999999987
 11
1424.9999999999998
 21
331.86599999999987
  0
LINE
  8
_0-8_
  6
CONTINUOUS
 62
    4
 10
1424.9999999999998
 20
331.86599999999987
 11
1424.9999999999998
 21
261.86599999999987
  0
LINE
  8
ADD_LINE
  6
DOT
 62
    9
 10
1300
 20
261.86599999999987
 11
1300
 21
331.86599999999987
  0
LINE
  8
ADD_LINE
  6
DOT
 62
    9
 10
1175
 20
296.86599999999987
 11
1424.9999999999998
 21
296.86599999999987
  0
TEXT
  8
_0-8_
 62
    7
 10
1252.9999999999998
 20
279.36599999999987
 40
35
 41
0.8571428571428571
 50
0
  1
立面図
  0
ARC
  8
_0-2_
  6
CONTINUOUS
 62
    4
 10
1605
 20
2515
 40
30
 50
0
 51
90.000000000000014
  0
LINE
  8
_0-2_
  6
CONTINUOUS
 62
    4
 10
1635
 20
2060
 11
1635
 21
2515
  0
ARC
  8
_0-2_
  6
CONTINUOUS
 62
    4
 10
995
 20
2515
 40
30
 50
90
 51
180
  0
LINE
  8
_0-2_
  6
CONTINUOUS
 62
    4
 10
965
 20
2060
 11
965
 21
2515
  0
LINE
  8
_0-2_
  6
CONTINUOUS
 62
    4
 10
1605
 20
2545
 11
995
 21
2545
  0
LINE
  8
_0-2_
  6
CONTINUOUS
 62
    5
 10
950
 20
2020
 11
1650
 21
2020
  0
ARC
  8
_0-2_
  6
CONTINUOUS
 62
    4
 10
1605
 20
2065
 40
30
 50
270
 51
0
  0
ARC
  8
_0-2_
  6
CONTINUOUS
 62
    4
 10
995
 20
2065
 40
30
 50
180
 51
270
  0
LINE
  8
_0-2_
  6
CONTINUOUS
 62
    4
 10
995
 20
2035
 11
1605
 21
2035
  0
LINE
  8
_0-2_
  6
CONTINUOUS
 62
    5
 10
1650
 20
2020
 11
1650
 21
2560
  0
LINE
  8
_0-2_
  6
CONTINUOUS
 62
    5
 10
950
 20
2020
 11
950
 21
2560
  0
LINE
  8
_0-2_
  6
CONTINUOUS
 62
    4
 10
2798
 20
1180
 11
2798
 21
1180.3999999999999
  0
ARC
  8
_0-2_
  6
CONTINUOUS
 62
    5
 10
2790.3999999999996
 20
1180.3999999999999
 40
0.4
 50
180
 51
270
  0
LINE
  8
_0-2_
  6
CONTINUOUS
 62
    4
 10
2790.3999999999996
 20
1180.3999999999999
 11
2798
 21
1180.3999999999999
  0
LINE
  8
_0-2_
  6
CONTINUOUS
 62
    5
 10
2790
 20
1198.9999999999998
 11
2790
 21
1180.3999999999999
  0
ARC
  8
_0-2_
  6
CONTINUOUS
 62
    5
 10
2791
 20
1198.9999999999998
 40
1
 50
90
 51
180
  0
ARC
  8
_0-2_
  6
CONTINUOUS
 62
    4
 10
2791
 20
1198.9999999999998
 40
0.6
 50
90
 51
180
  0
LINE
  8
_0-2_
  6
CONTINUOUS
 62
    4
 10
2790.3999999999996
 20
1198.9999999999998
 11
2790.3999999999996
 21
1180.3999999999999
  0
LINE
  8
_0-2_
  6
CONTINUOUS
 62
    5
 10
3329
 20
1199.9999999999998
 11
2791
 21
1199.9999999999998
  0
LINE
  8
_0-2_
  6
CONTINUOUS
 62
    4
 10
2791
 20
1199.5999999999999
 11
3329
 21
1199.5999999999999
  0
LINE
  8
_0-2_
  6
CONTINUOUS
 62
    5
 10
2790.3999999999996
 20
1180
 11
3330
 21
1180
  0
POINT
  8
_0-9_
 62
    3
 10
1910
 20
2560
  0
POINT
  8
_0-9_
 62
    3
 10
1910
 20
2020
  0
LINE
  8
_0-9_
  6
CONTINUOUS
 62
    4
 10
1920
 20
2560
 11
1684.2088407113424
 21
2560
  0
LINE
  8
_0-9_
  6
CONTINUOUS
 62
    4
 10
1920
 20
2020
 11
1684.2088407113424
 21
2020
  0
LINE
  8
_0-9_
  6
CONTINUOUS
 62
    4
 10
1910
 20
2560
 11
1910
 21
2020
  0
TEXT
  8
_0-9_
 62
    7
 10
1910
 20
2256.9000000000001
 40
35
 41
0.6285714285714286
 50
90
  1
５４０
  0
POINT
  8
_0-9_
 62
    3
 10
3330
 20
1459.9999999999998
  0
POINT
  8
_0-9_
 62
    3
 10
2790
 20
1459.9999999999998
  0
LINE
  8
_0-9_
  6
CONTINUOUS
 62
    4
 10
3330
 20
1469.9999999999998
 11
3330
 21
1218.3574104546383
  0
LINE
  8
_0-9_
  6
CONTINUOUS
 62
    4
 10
2790
 20
1469.9999999999998
 11
2790
 21
1218.3574104546383
  0
LINE
  8
_0-9_
  6
CONTINUOUS
 62
    4
 10
3330
 20
1459.9999999999998
 11
2790
 21
1459.9999999999998
  0
TEXT
  8
_0-9_
 62
    7
 10
3026.9000000000001
 20
1459.9999999999998
 40
35
 41
0.6285714285714286
 50
0
  1
５４０
  0
LINE
  8
_0-4_
  6
CONTINUOUS
 62
    3
 10
2793.0030000000006
 20
922.11923315198931
 11
2793.0030000000006
 21
675
  0
LINE
  8
_0-4_
  6
CONTINUOUS
 62
    3
 10
2805.0030000000006
 20
922.11923315198931
 11
2805.0030000000006
 21
675
  0
LINE
  8
_0-4_
  6
CONTINUOUS
 62
    3
 10
2805.0030000000011
 20
1145
 11
2793.0030000000006
 21
1145
  0
ARC
  8
_0-5_
  6
CONTINUOUS
 62
    4
 10
2804.6030000000001
 20
1173
 40
2
 50
0.000000000000019
 51
90.000000000000028
  0
ARC
  8
_0-5_
  6
CONTINUOUS
 62
    4
 10
2804.6030000000001
 20
1173
 40
0.7000000000000001
 50
0.0000000000000063
 51
90
  0
LINE
  8
_0-5_
  6
CONTINUOUS
 62
    4
 10
2806.6030000000005
 20
1130.9999999999998
 11
2806.6030000000005
 21
1173
  0
ARC
  8
_0-5_
  6
CONTINUOUS
 62
    4
 10
2806.1030000000005
 20
1130.9999999999998
 40
0.5
 50
270
 51
0.0000000000000254
  0
ARC
  8
_0-5_
  6
CONTINUOUS
 62
    4
 10
2805.8030000000008
 20
1131.3
 40
0.8000000000000001
 50
128.68218745349336
 51
270
  0
LINE
  8
_0-5_
  6
CONTINUOUS
 62
    4
 10
2806.1030000000005
 20
1130.5
 11
2805.8030000000008
 21
1130.5
  0
LINE
  8
_0-5_
  6
CONTINUOUS
 62
    4
 10
2805.3030000000012
 20
1139.2755002001602
 11
2805.3030000000012
 21
1131.9244997998396
  0
ARC
  8
_0-5_
  6
CONTINUOUS
 62
    4
 10
2805.8030000000008
 20
1139.9000000000001
 40
0.8000000000000001
 50
128.68218745349336
 51
231.31781254650664
  0
LINE
  8
_0-5_
  6
CONTINUOUS
 62
    4
 10
2805.3030000000012
 20
1144.7
 11
2805.3030000000012
 21
1140.5244997998398
  0
ARC
  8
_0-5_
  6
CONTINUOUS
 62
    4
 10
2805.0030000000011
 20
1144.7
 40
0.3
 50
0.000000000000019
 51
90.000000000000028
  0
LINE
  8
_0-5_
  6
CONTINUOUS
 62
    4
 10
2805.3030000000012
 20
1148.4496126617748
 11
2805.3030000000012
 21
1173
  0
ARC
  8
_0-5_
  6
CONTINUOUS
 62
    4
 10
2804.3030000000003
 20
1148.4496126617748
 40
1
 50
272.96093613416377
 51
0.0000000000000254
  0
ARC
  8
_0-5_
  6
CONTINUOUS
 62
    4
 10
2791.5030000000006
 20
1139.8000000000002
 40
0.8000000000000001
 50
180.00000000000003
 51
0
  0
LINE
  8
_0-5_
  6
CONTINUOUS
 62
    4
 10
2793.8315714285727
 20
1175
 11
2804.6030000000001
 21
1175
  0
ARC
  8
_0-5_
  6
CONTINUOUS
 62
    4
 10
2793.8315714285727
 20
1173
 40
2
 50
90.000000000000028
 51
161.07535558394954
  0
ARC
  8
_0-5_
  6
CONTINUOUS
 62
    4
 10
2793.8315714285727
 20
1173
 40
0.7000000000000001
 50
90
 51
161.07535558395003
  0
LINE
  8
_0-5_
  6
CONTINUOUS
 62
    4
 10
2804.6030000000001
 20
1173.7
 11
2793.8315714285727
 21
1173.7
  0
LINE
  8
_0-5_
  6
CONTINUOUS
 62
    4
 10
2793.1694092664093
 20
1173.2270270270271
 11
2792.040579852367
 21
1169.9346079027357
  0
ARC
  8
_0-5_
  6
CONTINUOUS
 62
    4
 10
2792.2297690415558
 20
1169.8697430378711
 40
0.2
 50
161.07535558394704
 51
226.45103723177712
  0
ARC
  8
_0-5_
  6
CONTINUOUS
 62
    4
 10
2791.4030000000007
 20
1169.0000000000002
 40
1
 50
161.07535558395031
 51
46.451037231780084
  0
LINE
  8
_0-5_
  6
CONTINUOUS
 62
    4
 10
2791.9396795366806
 20
1173.6486486486485
 11
2790.4570540540549
 21
1169.3243243243244
  0
LINE
  8
_0-5_
  6
CONTINUOUS
 62
    4
 10
2792.3029999999999
 20
1144.7
 11
2792.3029999999999
 21
1139.8000000000002
  0
ARC
  8
_0-5_
  6
CONTINUOUS
 62
    4
 10
2792.603000000001
 20
1144.7
 40
0.3
 50
90.000000000000014
 51
180
  0
LINE
  8
_0-5_
  6
CONTINUOUS
 62
    4
 10
2805.0030000000011
 20
1145
 11
2792.603000000001
 21
1145
  0
LINE
  8
_0-5_
  6
CONTINUOUS
 62
    4
 10
2790.7030000000009
 20
1145.6503873382255
 11
2790.7030000000009
 21
1139.8000000000002
  0
ARC
  8
_0-5_
  6
CONTINUOUS
 62
    4
 10
2791.7030000000004
 20
1145.6503873382255
 40
1
 50
92.960936134163759
 51
180
  0
LINE
  8
_0-5_
  6
CONTINUOUS
 62
    4
 10
2804.3546550854285
 20
1147.4509476768326
 11
2791.6513449145718
 21
1146.6490523231676
  0
LINE
  8
ADD_LINE
  6
DOT
 62
    9
 10
2792.4914681165069
 20
1139.0000000000002
 11
2790.3857734742001
 21
1139.0000000000002
  0
LINE
  8
ADD_LINE
  6
DOT
 62
    9
 10
2790.7030000000009
 20
1145.6503873382255
 11
2790.7030000000009
 21
1146.6000000000029
  0
LINE
  8
ADD_LINE
  6
DOT
 62
    9
 10
2791.6513449145718
 20
1146.6490523231676
 11
2790.7030000000009
 21
1146.6000000000029
  0
LINE
  8
ADD_LINE
  6
DOT
 62
    9
 10
2793.8523185782878
 20
1168
 11
2788.7309115660064
 21
1168
  0
LINE
  8
_0-4_
  6
CONTINUOUS
 62
    3
 10
2793.0030000000006
 20
1145
 11
2793.0030000000006
 21
937.31871187081367
  0
LINE
  8
_0-4_
  6
CONTINUOUS
 62
    3
 10
2805.0030000000006
 20
1145
 11
2805.0030000000006
 21
937.31871187081367
  0
LINE
  8
_0-4_
  6
CONTINUOUS
 62
    3
 10
2793.0030000000006
 20
922.11923315198931
 11
2793.0030000000006
 21
937.31871187081367
  0
LINE
  8
_0-4_
  6
CONTINUOUS
 62
    3
 10
2805.0030000000006
 20
937.31871187081367
 11
2805.0030000000006
 21
922.11923315198931
  0
LINE
  8
_0-4_
  6
CENTER2
 62
    4
 10
1300.5
 20
1174.9999999999998
 11
1644.5
 21
924
  0
LINE
  8
_0-4_
  6
CONTINUOUS
 62
    3
 10
1300.5
 20
1174.9999999999998
 11
1644.5
 21
1174.9999999999998
  0
LINE
  8
_0-4_
  6
CENTER2
 62
    4
 10
1299.5
 20
1174.9999999999998
 11
955.50000000000011
 21
924
  0
LINE
  8
_0-4_
  6
CONTINUOUS
 62
    3
 10
1299.5
 20
1174.9999999999998
 11
955.50000000000011
 21
1174.9999999999998
  0
ARC
  8
_0-5_
  6
CONTINUOUS
 62
    4
 10
958.5
 20
1171
 40
3
 50
180
 51
270
  0
LINE
  8
_0-5_
  6
CONTINUOUS
 62
    4
 10
1296.5
 20
1167.9999999999998
 11
958.5
 21
1167.9999999999998
  0
ARC
  8
_0-5_
  6
CONTINUOUS
 62
    4
 10
1296.5
 20
1171
 40
3
 50
270
 51
0
  0
LINE
  8
_0-5_
  6
CONTINUOUS
 62
    4
 10
955.50000000000011
 20
1139
 11
1299.5
 21
1139
  0
LINE
  8
_0-5_
  6
CONTINUOUS
 62
    4
 10
955.50000000000011
 20
1146.6000000000029
 11
1299.5
 21
1146.6000000000029
  0
ARC
  8
_0-5_
  6
CONTINUOUS
 62
    4
 10
1303.5000000000002
 20
1171
 40
3
 50
180
 51
270
  0
ARC
  8
_0-5_
  6
CONTINUOUS
 62
    4
 10
1641.5
 20
1171
 40
3
 50
270
 51
0
  0
LINE
  8
_0-5_
  6
CONTINUOUS
 62
    4
 10
1303.5000000000002
 20
1167.9999999999998
 11
1641.5
 21
1167.9999999999998
  0
LINE
  8
_0-5_
  6
CONTINUOUS
 62
    4
 10
1644.5
 20
1139
 11
1300.5
 21
1139
  0
LINE
  8
_0-5_
  6
CONTINUOUS
 62
    4
 10
1644.5
 20
1146.6000000000029
 11
1300.5
 21
1146.6000000000029
  0
LINE
  8
_0-4_
  6
CONTINUOUS
 62
    3
 10
955.50000000000011
 20
1174.9999999999998
 11
955.50000000000011
 21
675
  0
LINE
  8
_0-4_
  6
CONTINUOUS
 62
    3
 10
1299.5
 20
1174.9999999999998
 11
1299.5
 21
675
  0
LINE
  8
_0-4_
  6
CONTINUOUS
 62
    3
 10
1300.5
 20
1174.9999999999998
 11
1300.5
 21
675
  0
LINE
  8
_0-4_
  6
CONTINUOUS
 62
    3
 10
1644.5
 20
1174.9999999999998
 11
1644.5
 21
675
  0
LINE
  8
_0-9_
  6
CONTINUOUS
 62
    4
 10
1820
 20
1174.9999999999998
 11
1684.2088407113424
 21
1174.9999999999998
  0
POINT
  8
_0-9_
 62
    9
 10
1810
 20
670
  0
POINT
  8
_0-9_
 62
    9
 10
1810
 20
1179.9999999999998
  0
LINE
  8
_0-9_
  6
CONTINUOUS
 62
    9
 10
1810
 20
670
 11
1810
 21
641.58856675880384
  0
POINT
  8
_0-9_
 62
    9
 10
1890
 20
1179.9999999999998
  0
POINT
  8
_0-9_
 62
    9
 10
1890
 20
1200
  0
LINE
  8
_0-9_
  6
CONTINUOUS
 62
    9
 10
1900
 20
1179.9999999999998
 11
1684.2088407113424
 21
1179.9999999999998
  0
POINT
  8
_0-9_
 62
    9
 10
1810
 20
1179.9999999999998
  0
POINT
  8
_0-9_
 62
    9
 10
1810
 20
1174.9999999999998
  0
LINE
  8
_0-9_
  6
CONTINUOUS
 62
    9
 10
1810
 20
670
 11
1810
 21
675
  0
TEXT
  8
_0-9_
 62
    1
 10
1810
 20
644.80967046187516
 40
35
 41
0.6285714285714286
 50
90
  1
５
  0
LINE
  8
_0-9_
  6
CONTINUOUS
 62
    9
 10
1890
 20
670
 11
1890
 21
1179.9999999999998
  0
TEXT
  8
_0-9_
 62
    1
 10
1890
 20
891.89999999999998
 40
35
 41
0.6285714285714286
 50
90
  1
５１０
  0
LINE
  8
_0-9_
  6
CONTINUOUS
 62
    9
 10
1890
 20
1179.9999999999998
 11
1890
 21
1200
  0
TEXT
  8
_0-9_
 62
    1
 10
1890
 20
1134.5103886230561
 40
35
 41
0.6285714285714286
 50
90
  1
２０
  0
LINE
  8
_0-9_
  6
CONTINUOUS
 62
    9
 10
1810
 20
1179.9999999999998
 11
1810
 21
1174.9999999999998
  0
POINT
  8
_0-9_
 62
    3
 10
1810
 20
675
  0
POINT
  8
_0-9_
 62
    3
 10
1810
 20
1174.9999999999998
  0
POINT
  8
_0-9_
 62
    9
 10
2625.0030000000006
 20
670
  0
LINE
  8
_0-9_
  6
CONTINUOUS
 62
    9
 10
2625.0030000000006
 20
670
 11
2625.0030000000006
 21
640.75273341891136
  0
POINT
  8
_0-9_
 62
    9
 10
2545.0030000000006
 20
1180
  0
POINT
  8
_0-9_
 62
    9
 10
2545.0030000000006
 20
1200.0077243883957
  0
LINE
  8
_0-9_
  6
CONTINUOUS
 62
    9
 10
2545.0030000000006
 20
1200.0077243883957
 11
2545.0030000000006
 21
1255.2001500130425
  0
POINT
  8
_0-9_
 62
    9
 10
2625.0030000000006
 20
1180
  0
LINE
  8
_0-9_
  6
CONTINUOUS
 62
    9
 10
2535.0030000000006
 20
1180
 11
2766.3482247945203
 21
1180
  0
POINT
  8
_0-9_
 62
    9
 10
2625.0030000000006
 20
1180
  0
POINT
  8
_0-9_
 62
    9
 10
2625.0030000000006
 20
1175
  0
POINT
  8
_0-9_
 62
    9
 10
2625.0030000000006
 20
675
  0
LINE
  8
_0-9_
  6
CONTINUOUS
 62
    9
 10
2625.0030000000006
 20
670
 11
2625.0030000000006
 21
675
  0
TEXT
  8
_0-9_
 62
    1
 10
2625.0030000000006
 20
647.86089391758901
 40
35
 41
0.6285714285714286
 50
90
  1
５
  0
LINE
  8
_0-9_
  6
CONTINUOUS
 62
    9
 10
2545.0030000000006
 20
1180
 11
2545.0030000000006
 21
1200.0077243883957
  0
TEXT
  8
_0-9_
 62
    1
 10
2545.0030000000006
 20
1200.3775877448074
 40
35
 41
0.6285714285714286
 50
90
  1
２０
  0
LINE
  8
_0-9_
  6
CONTINUOUS
 62
    9
 10
2545.0030000000006
 20
670
 11
2545.0030000000006
 21
1180
  0
TEXT
  8
_0-9_
 62
    1
 10
2545.0030000000006
 20
891.89999999999998
 40
35
 41
0.6285714285714286
 50
90
  1
５１０
  0
LINE
  8
_0-9_
  6
CONTINUOUS
 62
    9
 10
2625.0030000000006
 20
1180
 11
2625.0030000000006
 21
1175
  0
POINT
  8
_0-9_
 62
    3
 10
2625.0030000000006
 20
675
  0
POINT
  8
_0-9_
 62
    3
 10
2625.0030000000006
 20
1175
  0
LINE
  8
_0-9_
  6
CONTINUOUS
 62
    9
 10
1299.5
 20
472.08277206296657
 11
1300.5
 21
472.08277206296657
  0
POINT
  8
_0-9_
 62
    9
 10
2930.3331854475437
 20
1180
  0
LINE
  8
_0-9_
  6
CONTINUOUS
 62
    9
 10
2940.3331854475437
 20
1180
 11
2856.0914973807221
 21
1180
  0
POINT
  8
_0-9_
 62
    9
 10
2930.3331854475437
 20
1119.9999999999998
  0
LINE
  8
_0-9_
  6
CONTINUOUS
 62
    9
 10
2940.3331854475437
 20
1119.9999999999998
 11
2856.0914973807221
 21
1119.9999999999998
  0
POINT
  8
_0-9_
 62
    9
 10
2808.0030000000006
 20
1051.523251220098
  0
LINE
  8
_0-9_
  6
CONTINUOUS
 62
    9
 10
2808.0030000000006
 20
1041.523251220098
 11
2808.0030000000006
 21
1100.7987079016164
  0
POINT
  8
_0-9_
 62
    9
 10
2828.0030000000006
 20
1051.523251220098
  0
LINE
  8
_0-9_
  6
CONTINUOUS
 62
    9
 10
2828.0030000000006
 20
1041.523251220098
 11
2828.0030000000006
 21
1100.7987079016164
  0
LINE
  8
_0-9_
  6
CONTINUOUS
 62
    9
 10
2828.0030000000006
 20
1051.523251220098
 11
2876.0402299590874
 21
1051.523251220098
  0
LINE
  8
_0-9_
  6
CONTINUOUS
 62
    9
 10
2930.3331854475437
 20
1119.9999999999998
 11
2930.3331854475437
 21
1180
  0
TEXT
  8
_0-9_
 62
    1
 10
2930.3331854475437
 20
1127.9499999999998
 40
35
 41
0.6285714285714286
 50
90
  1
６０
  0
LINE
  8
_0-9_
  6
CONTINUOUS
 62
    9
 10
2808.0030000000006
 20
1051.523251220098
 11
2828.0030000000006
 21
1051.523251220098
  0
TEXT
  8
_0-9_
 62
    1
 10
2831.3765573039564
 20
1051.523251220098
 40
35
 41
0.6285714285714286
 50
0
  1
２０
  0
POINT
  8
_0-9_
 62
    4
 10
1300.5
 20
472.08277206296657
  0
LINE
  8
_0-9_
  6
CONTINUOUS
 62
    4
 10
1300.5
 20
462.08277206296657
 11
1300.5
 21
540.1758258282905
  0
POINT
  8
_0-9_
 62
    4
 10
1644.5
 20
472.08277206296657
  0
LINE
  8
_0-9_
  6
CONTINUOUS
 62
    4
 10
1644.5
 20
462.08277206296657
 11
1644.5
 21
540.1758258282905
  0
POINT
  8
_0-9_
 62
    4
 10
1299.5
 20
472.08277206296657
  0
LINE
  8
_0-9_
  6
CONTINUOUS
 62
    4
 10
1299.5
 20
462.08277206296657
 11
1299.5
 21
540.1758258282905
  0
LINE
  8
_0-9_
  6
CONTINUOUS
 62
    4
 10
1300.5
 20
472.08277206296657
 11
1644.5
 21
472.08277206296657
  0
LINE
  8
_0-9_
  6
CONTINUOUS
 62
    4
 10
955.50000000000011
 20
472.08277206296657
 11
1299.5
 21
472.08277206296657
  0
TEXT
  8
_0-9_
 62
    7
 10
1094.4000000000001
 20
472.08277206296657
 40
35
 41
0.6285714285714286
 50
0
  1
３４４
  0
TEXT
  8
_0-9_
 62
    7
 10
1439.4000000000001
 20
472.08277206296657
 40
35
 41
0.6285714285714286
 50
0
  1
３４４
  0
TEXT
  8
_f-8_
 62
    7
 10
959
 20
137.5
 40
45
 41
0.8
 50
0
  1
コンロ台
  0
LINE
  8
_0-d_
  6
CONTINUOUS
 62
    7
 10
4115
 20
2285
 11
2754.9999999999995
 21
2285
  0
LINE
  8
_0-d_
  6
CONTINUOUS
 62
    7
 10
4115
 20
2355
 11
2754.9999999999995
 21
2355
  0
LINE
  8
_0-d_
  6
CONTINUOUS
 62
    7
 10
4115
 20
2495
 11
2754.9999999999995
 21
2495
  0
LINE
  8
_0-d_
  6
CONTINUOUS
 62
    7
 10
4115
 20
2565
 11
2754.9999999999995
 21
2565
  0
LINE
  8
_0-d_
  6
CONTINUOUS
 62
    7
 10
4115
 20
2635
 11
2754.9999999999995
 21
2635
  0
LINE
  8
_0-d_
  6
CONTINUOUS
 62
    7
 10
4115
 20
2705
 11
2754.9999999999995
 21
2705
  0
LINE
  8
_0-d_
  6
CONTINUOUS
 62
    7
 10
4115
 20
2775
 11
2754.9999999999995
 21
2775
  0
LINE
  8
_0-d_
  6
CONTINUOUS
 62
    7
 10
4115
 20
2780
 11
2754.9999999999995
 21
2780
  0
LINE
  8
_0-d_
  6
CONTINUOUS
 62
    7
 10
4115
 20
2425
 11
2754.9999999999995
 21
2425
  0
LINE
  8
_0-d_
  6
CONTINUOUS
 62
    3
 10
4115
 20
2845
 11
2754.9999999999995
 21
2845
  0
LINE
  8
ADD_LINE
  6
DOT
 62
    9
 10
3247.5005000000001
 20
2780
 11
3247.5005000000001
 21
2845
  0
LINE
  8
ADD_LINE
  6
DOT
 62
    9
 10
2754.9999999999995
 20
2812.5
 11
4115
 21
2812.5
  0
LINE
  8
ADD_LINE
  6
DOT
 62
    9
 10
2754.9999999999995
 20
2740
 11
4115
 21
2740
  0
LINE
  8
ADD_LINE
  6
DOT
 62
    9
 10
2754.9999999999995
 20
2670
 11
4115
 21
2670
  0
LINE
  8
ADD_LINE
  6
DOT
 62
    9
 10
2754.9999999999995
 20
2600
 11
4115
 21
2600
  0
LINE
  8
ADD_LINE
  6
DOT
 62
    9
 10
2754.9999999999995
 20
2530
 11
4115
 21
2530
  0
LINE
  8
ADD_LINE
  6
DOT
 62
    9
 10
2754.9999999999995
 20
2460
 11
4115
 21
2460
  0
LINE
  8
ADD_LINE
  6
DOT
 62
    9
 10
2754.9999999999995
 20
2390
 11
4115
 21
2390
  0
LINE
  8
ADD_LINE
  6
DOT
 62
    9
 10
2754.9999999999995
 20
2320
 11
4115
 21
2320
  0
TEXT
  8
_0-d_
 62
    7
 10
3152.5005000000001
 20
2795
 40
35
 41
0.8571428571428571
 50
0
  1
仕　　　　様
  0
TEXT
  8
_0-d_
 62
    7
 10
2826.0000000000014
 20
2722.5
 40
35
 41
0.8571428571428571
 50
0
  1
ト　ッ　プ
  0
TEXT
  8
_0-d_
 62
    7
 10
3079.9999999999995
 20
2722.5
 40
35
 41
0.8571428571428571
 50
0
  1
ステンレスＳＵＳ４３０
  0
TEXT
  8
_0-d_
 62
    7
 10
2842.0000000000005
 20
2652.5
 40
35
 41
0.8571428571428571
 50
0
  1
側　　板
  0
TEXT
  8
_0-d_
 62
    7
 10
3079.9999999999995
 20
2652.5
 40
35
 41
0.8571428571428571
 50
0
  1
低圧メラミン化粧パ－ティクルボ－ド　１２ｔ
  0
TEXT
  8
_0-d_
 62
    7
 10
2842.0000000000005
 20
2582.5
 40
35
 41
0.8571428571428571
 50
0
  1
地　　板
  0
TEXT
  8
_0-d_
 62
    7
 10
3080
 20
2582.5
 40
35
 41
0.8571428571428571
 50
0
  1
ステンレス貼り　片面フラッシュ
  0
TEXT
  8
_0-d_
 62
    7
 10
2842.0000000000005
 20
2512.5
 40
35
 41
0.8571428571428571
 50
0
  1
背　　板
  0
TEXT
  8
_0-d_
 62
    7
 10
3080
 20
2512.5
 40
35
 41
0.8571428571428571
 50
0
  1
ＭＤＦ　２．５ｔ
  0
TEXT
  8
_0-d_
 62
    7
 10
2889.9999999999995
 20
2442.5
 40
35
 41
0.8571428571428571
 50
0
  1
扉
  0
TEXT
  8
_0-d_
 62
    7
 10
2842.0000000000005
 20
2372.5
 40
35
 41
0.8571428571428571
 50
0
  1
丁　　番
  0
TEXT
  8
_0-d_
 62
    7
 10
3080
 20
2372.5
 40
35
 41
0.8571428571428571
 50
0
  1
ワンタッチスライド式丁番
  0
TEXT
  8
_0-d_
 62
    7
 10
2842.0000000000005
 20
2302.5
 40
35
 41
0.8571428571428571
 50
0
  1
把　　手
  0
TEXT
  8
_0-d_
 62
    7
 10
3080
 20
2302.5
 40
35
 41
0.8571428571428571
 50
0
  1
アルミ一文字把手
  0
LINE
  8
_0-d_
  6
CONTINUOUS
 62
    3
 10
2754.9999999999995
 20
2845
 11
2754.9999999999995
 21
2285
  0
LINE
  8
_0-d_
  6
CONTINUOUS
 62
    7
 10
3054.9999999999995
 20
2775
 11
3054.9999999999995
 21
2285
  0
LINE
  8
_0-d_
  6
CONTINUOUS
 62
    3
 10
4115
 20
2285
 11
4115
 21
2845
  0
TEXT
  8
_f-8_
 62
    7
 10
3040
 20
187.5
 40
25
 41
0.64
 50
0
  1
ＤＡＴＡ
  0
LINE
  8
_0-3_
  6
CONTINUOUS
 62
    7
 10
2867.0030000000002
 20
670
 11
2867.0030000000002
 21
580
  0
LINE
  8
_0-3_
  6
CONTINUOUS
 62
    5
 10
2850.0030000000006
 20
670
 11
2850.0030000000006
 21
580
  0
LINE
  8
_0-3_
  6
CONTINUOUS
 62
    5
 10
2850.0030000000006
 20
580
 11
3330
 21
580
  0
TEXT
  8
_0-d_
 62
    7
 10
3079.9999999999995
 20
2442.5
 40
35
 41
0.8571428571428571
 50
0
  1
両面化粧パ－ティクルボ－ド　１２ｔ
  0
TEXT
  8
_0-9_
 62
    1
 10
2624.0894789145505
 20
1156.9823965104251
 40
35
 41
0.6285714285714286
 50
90
  1
6
  0
TEXT
  8
_0-9_
 62
    1
 10
1809.0102419140987
 20
1157.3229996756415
 40
35
 41
0.6285714285714286
 50
90
  1
6
  0
TEXT
  8
_f-8_
 62
    7
 10
3582
 20
145
 40
30
 41
0.7333333333333333
 50
0
  1
Ｔ．Ｋ
  0
LINE
  8
ADD_LINE
  6
DOT
 62
    9
 10
3079.9999999999995
 20
2775
 11
3079.9999999999995
 21
2285
  0
LINE
  8
ADD_LINE
  6
DOT
 62
    9
 10
2904.9999999999995
 20
2775
 11
2904.9999999999995
 21
2285
  0
LINE
  8
_e-0_
  6
CONTINUOUS
 62
    7
 10
2243.7859302690863
 20
199.51965480360599
 11
2272.9339284698526
 21
210.12865853712981
  0
LINE
  8
_e-0_
  6
CONTINUOUS
 62
    7
 10
2237.6336615052869
 20
191.95952323799759
 11
2287.5529504706665
 21
210.12865853712896
  0
LINE
  8
_e-0_
  6
CONTINUOUS
 62
    7
 10
2234.2067375789875
 20
185.39133607135255
 11
2263.8643430051366
 21
196.18582166608263
  0
LINE
  8
_e-0_
  6
CONTINUOUS
 62
    7
 10
2232.2119570371697
 20
179.34440646785788
 11
2253.9586582709303
 21
187.25955841042662
  0
LINE
  8
_e-0_
  6
CONTINUOUS
 62
    7
 10
2231.2024514117434
 20
173.65608760649877
 11
2249.4574587956463
 21
180.30036692054921
  0
LINE
  8
_e-0_
  6
CONTINUOUS
 62
    7
 10
2230.9649088875535
 20
168.24874033593801
 11
2249.3748102388386
 21
174.94939644358311
  0
LINE
  8
_e-0_
  6
CONTINUOUS
 62
    7
 10
2231.3837497438626
 20
163.08029707814967
 11
2249.8286640768283
 21
169.79369686893904
  0
LINE
  8
_e-0_
  6
CONTINUOUS
 62
    7
 10
2232.3950068941754
 20
158.12747571767488
 11
2251.2695688182671
 21
164.99725444285843
  0
LINE
  8
_e-0_
  6
CONTINUOUS
 62
    7
 10
2233.9675550564962
 20
153.37894757832998
 11
2253.6625167678694
 21
160.54732740628253
  0
LINE
  8
_e-0_
  6
CONTINUOUS
 62
    7
 10
2236.0955302019183
 20
148.83257832814223
 11
2257.0999104881021
 21
156.47754754152118
  0
LINE
  8
_e-0_
  6
CONTINUOUS
 62
    7
 10
2238.79700892643
 20
144.49494730998822
 11
2261.880116002736
 21
152.89651120014327
  0
LINE
  8
_e-0_
  6
CONTINUOUS
 62
    7
 10
2242.1181877425702
 20
140.38286867935909
 11
2268.9468388985251
 21
150.14769912563821
  0
LINE
  8
_e-0_
  6
CONTINUOUS
 62
    7
 10
2246.1455691824353
 20
136.52782678312661
 11
2284.5651405528201
 21
150.51140717521264
  0
LINE
  8
_e-0_
  6
CONTINUOUS
 62
    7
 10
2251.0351047702798
 20
132.9865833341097
 11
2279.1844822576495
 21
143.23211885263561
  0
LINE
  8
_e-0_
  6
CONTINUOUS
 62
    7
 10
2279.5849322183672
 20
201.90764820482514
 11
2302.1719724714803
 21
210.12865853713066
  0
LINE
  8
_e-0_
  6
CONTINUOUS
 62
    7
 10
2260.5624543087297
 20
189.66314360135101
 11
2313.0511299164637
 21
208.76745915862045
  0
LINE
  8
_e-0_
  6
CONTINUOUS
 62
    7
 10
2273.069618849473
 20
188.89449034687175
 11
2313.0511299164637
 21
203.44657029624102
  0
LINE
  8
_e-0_
  6
CONTINUOUS
 62
    7
 10
2287.6886408502887
 20
188.89449034687175
 11
2313.0511299164637
 21
198.12568143386159
  0
LINE
  8
_e-0_
  6
CONTINUOUS
 62
    7
 10
2291.8751463425488
 20
185.0973648692667
 11
2313.0511299164637
 21
192.80479257148215
  0
LINE
  8
_e-0_
  6
CONTINUOUS
 62
    7
 10
2291.8751463425488
 20
179.77647600688726
 11
2313.0511299164637
 21
187.48390370910215
  0
LINE
  8
_e-0_
  6
CONTINUOUS
 62
    7
 10
2291.8751463425488
 20
174.45558714450783
 11
2313.0511299164637
 21
182.16301484672272
  0
LINE
  8
_e-0_
  6
CONTINUOUS
 62
    7
 10
2291.8751463425488
 20
169.1346982821284
 11
2313.0511299164637
 21
176.84212598434328
  0
LINE
  8
_e-0_
  6
CONTINUOUS
 62
    7
 10
2291.8008475696452
 20
163.7867668779694
 11
2313.0511299164637
 21
171.52123712196385
  0
LINE
  8
_e-0_
  6
CONTINUOUS
 62
    7
 10
2290.6539909363364
 20
158.04845633809464
 11
2313.0511299164637
 21
166.20034825958413
  0
LINE
  8
_e-0_
  6
CONTINUOUS
 62
    7
 10
2288.3949962857823
 20
151.90536066354696
 11
2313.0511299164637
 21
160.8794593972047
  0
LINE
  8
_e-0_
  6
CONTINUOUS
 62
    7
 10
2284.4003861827632
 20
145.13055262616916
 11
2311.8608666367177
 21
155.1253501300576
  0
LINE
  8
_e-0_
  6
CONTINUOUS
 62
    7
 10
2275.7463468865153
 20
136.65985105378525
 11
2309.0387712913653
 21
148.77730256370853
  0
LINE
  8
_e-0_
  6
CONTINUOUS
 62
    7
 10
2266.9791201478206
 20
128.14795262145822
 11
2304.1703780821813
 21
141.68446348448242
  0
LINE
  8
_e-0_
  6
CONTINUOUS
 62
    7
 10
2282.1376414569663
 20
128.34431431109749
 11
2292.7244583873171
 21
132.19760054937069
  0
LINE
  8
_e-0_
  6
CONTINUOUS
 62
    3
 10
2266.4464672734898
 20
197.5661281967827
 11
2266.4464672734898
 21
197.5661281967827
  0
LINE
  8
_e-0_
  6
CONTINUOUS
 62
    3
 10
2266.4464672734898
 20
197.5661281967827
 11
2262.324473459325
 21
194.75680664380121
  0
LINE
  8
_e-0_
  6
CONTINUOUS
 62
    3
 10
2282.3868421919433
 20
128.14795262145651
 11
2266.9204010401704
 21
128.14795262145651
  0
ARC
  8
_e-0_
  6
CONTINUOUS
 62
    3
 10
2282.3868421919433
 20
133.14795262145651
 40
5
 50
270
 51
286.2039935104566
  0
LINE
  8
_e-0_
  6
CONTINUOUS
 62
    3
 10
2313.2288608412614
 20
210.12865853712896
 11
2313.2288608412614
 21
159.77346730566921
  0
ARC
  8
_e-0_
  6
CONTINUOUS
 62
    3
 10
2271.9221657766448
 20
169.15823653484836
 40
42.5
 50
286.20399351045648
 51
345.50707147989851
  0
ARC
  8
_e-0_
  6
CONTINUOUS
 62
    3
 10
2308.2288608412614
 20
159.77346730566921
 40
5
 50
345.5070714798988
 51
0
  0
ARC
  8
_e-0_
  6
CONTINUOUS
 62
    3
 10
2250.0927387377205
 20
170.4956084628958
 40
40
 50
279.71265316664216
 51
332.69093929010893
  0
ARC
  8
_e-0_
  6
CONTINUOUS
 62
    3
 10
2255.9974857549714
 20
135.99729020443192
 40
5
 50
241.94526281180003
 51
279.71265316664227
  0
ARC
  8
_e-0_
  6
CONTINUOUS
 62
    3
 10
2263.2643122966178
 20
205.12865853712896
 40
5
 50
90
 51
106.0533814378627
  0
LINE
  8
_e-0_
  6
CONTINUOUS
 62
    3
 10
2288.4334989152221
 20
210.12865853712884
 11
2288.4334989152221
 21
210.12865853712884
  0
LINE
  8
_e-0_
  6
CONTINUOUS
 62
    3
 10
2288.4334989152221
 20
210.12865853712884
 11
2278.2181989551914
 21
205.24067691222058
  0
LINE
  8
_e-0_
  6
CONTINUOUS
 62
    3
 10
2278.2181989551914
 20
205.24067691222058
 11
2272.2994583375817
 21
201.44448978984022
  0
LINE
  8
_e-0_
  6
CONTINUOUS
 62
    3
 10
2266.4464672734898
 20
197.56612819678253
 11
2272.2994583375817
 21
201.4444897898403
  0
ARC
  8
_e-0_
  6
CONTINUOUS
 62
    3
 10
2263.2643122966178
 20
205.12865853712896
 40
5
 50
90
 51
106.0533814378627
  0
ARC
  8
_e-0_
  6
CONTINUOUS
 62
    3
 10
2263.2643122966178
 20
205.12865853712896
 40
5
 50
90
 51
106.0533814378627
  0
LINE
  8
_e-0_
  6
CONTINUOUS
 62
    3
 10
2288.4334989152221
 20
210.12865853712896
 11
2263.2643122966178
 21
210.12865853712896
  0
ARC
  8
_e-0_
  6
CONTINUOUS
 62
    3
 10
2273.6342932765642
 20
169.09099082020305
 40
42.5
 50
106.0533814378627
 51
241.94526281180052
  0
ARC
  8
_e-0_
  6
CONTINUOUS
 62
    3
 10
2263.2643122966178
 20
205.12865853712896
 40
5
 50
90
 51
106.0533814378627
  0
LINE
  8
_e-0_
  6
CONTINUOUS
 62
    3
 10
2299.1719829458552
 20
210.12865853712896
 11
2313.2288608412614
 21
210.12865853712896
  0
ARC
  8
_e-0_
  6
CONTINUOUS
 62
    3
 10
2299.1719829458552
 20
205.12865853712896
 40
5
 50
90
 51
112.8455272152833
  0
LINE
  8
_e-0_
  6
CONTINUOUS
 62
    3
 10
2292.0528772673465
 20
188.89449034687004
 11
2269.0173546029673
 21
188.89449034687004
  0
ARC
  8
_e-0_
  6
CONTINUOUS
 62
    3
 10
2269.0173546029673
 20
183.89449034687004
 40
5
 50
90
 51
110.93110431809542
  0
ARC
  8
_e-0_
  6
CONTINUOUS
 62
    3
 10
2254.2292662802574
 20
177.70386452217394
 40
0.5
 50
165.368776721252
 51
224.67319701305797
  0
LINE
  8
_e-0_
  6
CONTINUOUS
 62
    3
 10
2253.8737020580625
 20
177.3523334653737
 11
2253.6837582739272
 21
177.54445650133448
  0
ARC
  8
_e-0_
  6
CONTINUOUS
 62
    3
 10
2276.1622566207875
 20
165.21427688032361
 40
25
 50
110.93110431809528
 51
150.17701829297229
  0
ARC
  8
_e-0_
  6
CONTINUOUS
 62
    3
 10
2254.0393224961217
 20
177.89598755813472
 40
0.5
 50
224.67319701305652
 51
330.17701829297562
  0
LINE
  8
_e-0_
  6
CONTINUOUS
 62
    3
 10
2297.2307430642559
 20
209.73643324104927
 11
2283.5233941157549
 21
203.96157353985984
  0
LINE
  8
_e-0_
  6
CONTINUOUS
 62
    3
 10
2283.5233941157549
 20
203.96157353985984
 11
2277.114528385443
 21
200.4613679180602
  0
ARC
  8
_e-0_
  6
CONTINUOUS
 62
    3
 10
2277.9347719955745
 20
171.51524603489747
 40
25
 50
126.05682261028305
 51
165.36877672125814
  0
ARC
  8
_e-0_
  6
CONTINUOUS
 62
    3
 10
2322.0287923520791
 20
111.11536133502739
 40
100
 50
116.68868989749241
 51
126.03335467187628
  0
LINE
  8
_e-0_
  6
CONTINUOUS
 62
    3
 10
2262.3244734593245
 20
194.7568066438013
 11
2262.3244734593245
 21
194.7568066438013
  0
LINE
  8
_e-0_
  6
CONTINUOUS
 62
    3
 10
2262.3244734593245
 20
194.7568066438013
 11
2254.3560414411386
 21
187.50185893935441
  0
LINE
  8
_e-0_
  6
CONTINUOUS
 62
    3
 10
2254.3560414411386
 20
187.50185893935441
 11
2252.5108960046537
 21
185.36863764275498
  0
ARC
  8
_e-0_
  6
CONTINUOUS
 62
    3
 10
2274.5493829743446
 20
174.5520307550089
 40
25
 50
169.07329675873063
 51
296.321383266618
  0
LINE
  8
_e-0_
  6
CONTINUOUS
 62
    3
 10
2252.5108960046537
 20
185.36863764275483
 11
2252.5108960046537
 21
185.36863764275483
  0
LINE
  8
_e-0_
  6
CONTINUOUS
 62
    3
 10
2252.5108960046537
 20
185.36863764275483
 11
2250.0026210661126
 21
179.29085759512347
  0
LINE
  8
_e-0_
  6
CONTINUOUS
 62
    3
 10
2292.0528772673465
 20
188.89449034687004
 11
2292.0528772673465
 21
164.42425885831653
  0
ARC
  8
_e-0_
  6
CONTINUOUS
 62
    3
 10
2277.2840925230507
 20
144.130909833072
 40
5
 50
311.4163090429962
 51
326.13300916724882
  0
ARC
  8
_e-0_
  6
CONTINUOUS
 62
    3
 10
2252.285941088533
 20
168.73596234419836
 40
40
 50
316.78132524618343
 51
353.81191653224226
  0
ARC
  8
_e-0_
  6
CONTINUOUS
 62
    3
 10
2240.9001979970053
 20
185.376663785662
 40
60
 50
294.69555798319504
 51
311.41630904299643
  0
ARC
  8
_e-0_
  6
CONTINUOUS
 62
    3
 10
2271.9268153318699
 20
202.9806715079161
 40
75
 50
264.68313230529077
 51
266.17253517307824
  0
ARC
  8
_e-0_
  6
CONTINUOUS
 62
    3
 10
2265.0233680716156
 20
128.80121063143832
 40
0.5
 50
174.02086603460467
 51
264.68313230528986
  0
ARC
  8
_e-0_
  6
CONTINUOUS
 62
    3
 10
2267.0124878650104
 20
128.59287809071873
 40
2.5
 50
114.69555798319523
 51
174.02086603461154
  0
LINE
  8
_e-0_
  6
CONTINUOUS
 62
    7
 10
2376.8899919095943
 20
169.43032024062035
 11
2388.2618909747957
 21
173.56935300743345
  0
LINE
  8
_e-0_
  6
CONTINUOUS
 62
    3
 10
2436.2585234464268
 20
162.6331249251939
 11
2436.2585234464268
 21
136.49018622829544
  0
CIRCLE
  8
_e-0_
  6
CONTINUOUS
 62
    3
 10
2365.5167430510387
 20
162.46293449130519
 40
13.337737955830651
  0
CIRCLE
  8
_e-0_
  6
CONTINUOUS
 62
    3
 10
2365.2330256036635
 20
162.17921704393007
 40
25.691707563897666
  0
LINE
  8
_e-0_
  6
CONTINUOUS
 62
    3
 10
2399.4939617252576
 20
188.26250382114978
 11
2399.4939617252576
 21
136.49018622829544
  0
LINE
  8
_e-0_
  6
CONTINUOUS
 62
    3
 10
2399.4939617252576
 20
136.49018622829544
 11
2414.8569307536691
 21
136.49018622829544
  0
LINE
  8
_e-0_
  6
CONTINUOUS
 62
    3
 10
2414.8569307536691
 20
136.49018622829544
 11
2414.8569307536691
 21
172.6331249251939
  0
LINE
  8
_e-0_
  6
CONTINUOUS
 62
    3
 10
2451.17747602893
 20
136.49018622829544
 11
2436.2585234464268
 21
136.49018622829544
  0
LINE
  8
_e-0_
  6
CONTINUOUS
 62
    3
 10
2426.2585234464268
 20
172.6331249251939
 11
2414.8569307536691
 21
172.6331249251939
  0
ARC
  8
_e-0_
  6
CONTINUOUS
 62
    3
 10
2426.2585234464268
 20
162.6331249251939
 40
10
 50
0
 51
90
  0
LINE
  8
_e-0_
  6
CONTINUOUS
 62
    3
 10
2426.17747602893
 20
188.26250382114978
 11
2399.4939617252576
 21
188.26250382114978
  0
LINE
  8
_e-0_
  6
CONTINUOUS
 62
    3
 10
2451.17747602893
 20
163.26250382114978
 11
2451.17747602893
 21
136.49018622829544
  0
ARC
  8
_e-0_
  6
CONTINUOUS
 62
    3
 10
2426.17747602893
 20
163.26250382114978
 40
25
 50
0
 51
90
  0
ARC
  8
_e-0_
  6
CONTINUOUS
 62
    3
 10
2486.2452606175229
 20
162.17653762406428
 40
13.337737955830651
 50
23.422555400004953
 51
97.191484740792632
  0
LINE
  8
_e-0_
  6
CONTINUOUS
 62
    3
 10
2474.006576131063
 20
167.47841048365672
 11
2498.4839451039834
 21
167.47841048365672
  0
ARC
  8
_e-0_
  6
CONTINUOUS
 62
    3
 10
2486.2452606175229
 20
162.17653762406428
 40
13.337737955830651
 50
92.530763017635266
 51
156.57744459999506
  0
ARC
  8
_e-0_
  6
CONTINUOUS
 62
    3
 10
2486.2452606175229
 20
162.17653762406428
 40
13.337737955830651
 50
204.21097500392608
 51
316.0067678116265
  0
LINE
  8
_e-0_
  6
CONTINUOUS
 62
    3
 10
2474.0806890359868
 20
156.70676139316754
 11
2511.5200753562385
 21
156.70676139316754
  0
LINE
  8
_e-0_
  6
CONTINUOUS
 62
    3
 10
2495.8407207162627
 20
152.91249966689293
 11
2508.7092412098891
 21
149.78943472664497
  0
ARC
  8
_e-0_
  6
CONTINUOUS
 62
    3
 10
2486.5655867677851
 20
162.81718992458821
 40
25.691707563897666
 50
346.24110979921471
 51
329.53046432565105
  0
ARC
  8
_e-0_
  6
CONTINUOUS
 62
    3
 10
2546.5135590423406
 20
162.1430984535391
 40
11.089756641867943
 50
94.502189492040685
 51
357.22978420280037
  0
LINE
  8
_e-0_
  6
CONTINUOUS
 62
    3
 10
2556.5903561511468
 20
173.19863581905565
 11
2545.6430442891501
 21
173.19863581905565
  0
LINE
  8
_e-0_
  6
CONTINUOUS
 62
    3
 10
2557.5903561511468
 20
172.19863581905599
 11
2557.5903561511468
 21
161.60712439988743
  0
ARC
  8
_e-0_
  6
CONTINUOUS
 62
    3
 10
2556.5903561511468
 20
172.19863581905599
 40
1
 50
0
 51
90
  0
LINE
  8
_e-0_
  6
CONTINUOUS
 62
    3
 10
2548.9703457355517
 20
188.29058742736095
 11
2557.3930775458171
 21
188.29058742736095
  0
ARC
  8
_e-0_
  6
CONTINUOUS
 62
    3
 10
2546.966285661204
 20
162.67716163604518
 40
25.691707563897666
 50
85.52614601413697
 51
347.40557840019875
  0
LINE
  8
_e-0_
  6
CONTINUOUS
 62
    3
 10
2557.3930775458171
 20
209.12865853712901
 11
2557.3930775458171
 21
188.29058742736095
  0
ARC
  8
_e-0_
  6
CONTINUOUS
 62
    3
 10
2558.3930775458175
 20
209.12865853712901
 40
1
 50
90
 51
180
  0
LINE
  8
_e-0_
  6
CONTINUOUS
 62
    3
 10
2572.0397992563612
 20
209.12865853712901
 11
2572.0397992563612
 21
157.07513043814089
  0
LINE
  8
_e-0_
  6
CONTINUOUS
 62
    3
 10
2571.0397992563617
 20
210.12865853712896
 11
2558.3930775458175
 21
210.12865853712896
  0
ARC
  8
_e-0_
  6
CONTINUOUS
 62
    3
 10
2571.0397992563617
 20
209.12865853712901
 40
1
 50
0
 51
90
  0
CIRCLE
  8
_e-0_
  6
CONTINUOUS
 62
    3
 10
2607.4932845795829
 20
162.61858771142585
 40
13.337737955830651
  0
CIRCLE
  8
_e-0_
  6
CONTINUOUS
 62
    3
 10
2607.2095671322086
 20
162.33487026405101
 40
25.691707563897666
  0
ARC
  8
_e-0_
  6
CONTINUOUS
 62
    3
 10
2361.3056445788689
 20
183.56108960512415
 40
5
 50
90
 51
106.0533814378627
  0
ARC
  8
_e-0_
  6
CONTINUOUS
 62
    3
 10
2361.3056445788689
 20
183.56108960512415
 40
5
 50
90
 51
106.0533814378627
  0
ARC
  8
_e-0_
  6
CONTINUOUS
 62
    3
 10
2361.3056445788689
 20
183.56108960512415
 40
5
 50
90
 51
106.0533814378627
  0
ARC
  8
_e-0_
  6
CONTINUOUS
 62
    3
 10
2361.3056445788689
 20
183.56108960512415
 40
5
 50
90
 51
106.0533814378627
  0
LINE
  8
_e-0_
  6
CONTINUOUS
 62
    7
 10
2346.3470804331014
 20
179.59716504486778
 11
2368.504457793455
 21
187.66179087344028
  0
LINE
  8
_e-0_
  6
CONTINUOUS
 62
    7
 10
2361.2415063076141
 20
179.69740385729494
 11
2376.5205845613305
 21
185.25853354867166
  0
LINE
  8
_e-0_
  6
CONTINUOUS
 62
    7
 10
2341.7511550984832
 20
172.60349616177706
 11
2361.2415063076146
 21
179.69740385729494
  0
LINE
  8
_e-0_
  6
CONTINUOUS
 62
    7
 10
2339.9278406436088
 20
166.61897511011603
 11
2357.2356669233163
 21
172.91850869577985
  0
LINE
  8
_e-0_
  6
CONTINUOUS
 62
    7
 10
2339.561356655227
 20
161.1646969846305
 11
2352.6357267551816
 21
165.92337853279389
  0
LINE
  8
_e-0_
  6
CONTINUOUS
 62
    7
 10
2340.2704529847874
 20
156.10189807943812
 11
2352.3257797311662
 21
160.489678179473
  0
LINE
  8
_e-0_
  6
CONTINUOUS
 62
    7
 10
2341.920482349894
 20
151.38157079162255
 11
2353.9794571535695
 21
155.77067867592632
  0
LINE
  8
_e-0_
  6
CONTINUOUS
 62
    7
 10
2344.5041289741071
 20
147.00105239631881
 11
2357.564943671171
 21
151.7548001813168
  0
LINE
  8
_e-0_
  6
CONTINUOUS
 62
    7
 10
2348.1361647674007
 20
143.00211645248766
 11
2364.9879954656799
 21
149.1356812195545
  0
LINE
  8
_e-0_
  6
CONTINUOUS
 62
    7
 10
2353.1501292054063
 20
139.50616140121156
 11
2375.2534753949121
 21
147.55112149187283
  0
LINE
  8
_e-0_
  6
CONTINUOUS
 62
    7
 10
2360.6217579801264
 20
136.90472301431669
 11
2375.3071030149836
 21
142.24975148693375
  0
LINE
  8
_e-0_
  6
CONTINUOUS
 62
    7
 10
2375.3071030149836
 20
142.24975148693375
 11
2385.0115931457403
 21
145.78189703325933
  0
LINE
  8
_e-0_
  6
CONTINUOUS
 62
    7
 10
2374.4001538198345
 20
147.24053783828737
 11
2389.0630204872036
 21
152.57738485422379
  0
LINE
  8
_e-0_
  6
CONTINUOUS
 62
    7
 10
2374.4883804748506
 20
152.59353857696169
 11
2390.6567834919524
 21
158.47835601080646
  0
LINE
  8
_e-0_
  6
CONTINUOUS
 62
    7
 10
2378.4912308361022
 20
159.37134582305873
 11
2390.8686178519897
 21
163.87634627483465
  0
LINE
  8
_e-0_
  6
CONTINUOUS
 62
    7
 10
2378.6565159204474
 20
164.75239353630798
 11
2390.032063042946
 21
168.89275408738968
  0
LINE
  8
_e-0_
  6
CONTINUOUS
 62
    7
 10
2365.1397018509306
 20
175.79534214003161
 11
2381.7641004494612
 21
181.84612839247364
  0
LINE
  8
_e-0_
  6
CONTINUOUS
 62
    7
 10
2373.1598434523221
 20
173.39354609515908
 11
2385.5507858710998
 21
177.90348031010012
  0
LINE
  8
_e-0_
  6
CONTINUOUS
 62
    7
 10
2399.4939617252576
 20
182.97838129215279
 11
2414.0119690553083
 21
188.26250382114978
  0
LINE
  8
_e-0_
  6
CONTINUOUS
 62
    7
 10
2399.4939617252576
 20
177.65749242977336
 11
2428.3670442872126
 21
188.16643505383524
  0
LINE
  8
_e-0_
  6
CONTINUOUS
 62
    7
 10
2399.4939617252576
 20
172.33660356739392
 11
2436.7743097980665
 21
185.90554058897965
  0
LINE
  8
_e-0_
  6
CONTINUOUS
 62
    7
 10
2399.4939617252576
 20
167.01571470501449
 11
2442.1110032081056
 21
182.52704927725858
  0
LINE
  8
_e-0_
  6
CONTINUOUS
 62
    7
 10
2399.4939617252576
 20
161.69482584263505
 11
2414.8569307536691
 21
167.28648927893005
  0
LINE
  8
_e-0_
  6
CONTINUOUS
 62
    7
 10
2428.709008278624
 20
172.32823318076129
 11
2445.9244086202584
 21
178.5941264760919
  0
LINE
  8
_e-0_
  6
CONTINUOUS
 62
    7
 10
2399.4939617252576
 20
156.37393698025562
 11
2414.8569307536691
 21
161.96560041655061
  0
LINE
  8
_e-0_
  6
CONTINUOUS
 62
    7
 10
2403.3398935234459
 20
136.49018622829544
 11
2414.8569307536691
 21
140.68204496703231
  0
LINE
  8
_e-0_
  6
CONTINUOUS
 62
    7
 10
2399.4939617252576
 20
140.41127039311675
 11
2414.8569307536691
 21
146.00293382941203
  0
LINE
  8
_e-0_
  6
CONTINUOUS
 62
    7
 10
2399.4939617252576
 20
145.73215925549647
 11
2414.8569307536691
 21
151.32382269179146
  0
LINE
  8
_e-0_
  6
CONTINUOUS
 62
    7
 10
2399.4939617252576
 20
151.0530481178759
 11
2414.8569307536691
 21
156.64471155417118
  0
LINE
  8
_e-0_
  6
CONTINUOUS
 62
    7
 10
2436.2585234464268
 20
159.11336539784401
 11
2451.17747602893
 21
164.5434200643038
  0
LINE
  8
_e-0_
  6
CONTINUOUS
 62
    7
 10
2436.2585234464268
 20
153.79247653546486
 11
2451.17747602893
 21
159.22253120192465
  0
LINE
  8
_e-0_
  6
CONTINUOUS
 62
    7
 10
2436.105047565391
 20
164.37839360784892
 11
2450.3687179376248
 21
169.56994505472636
  0
LINE
  8
_e-0_
  6
CONTINUOUS
 62
    7
 10
2436.2585234464268
 20
148.47158767308542
 11
2451.17747602893
 21
153.90164233954522
  0
LINE
  8
_e-0_
  6
CONTINUOUS
 62
    7
 10
2436.2585234464268
 20
143.15069881070571
 11
2451.17747602893
 21
148.5807534771655
  0
LINE
  8
_e-0_
  6
CONTINUOUS
 62
    7
 10
2436.2585234464268
 20
137.82980994832599
 11
2451.17747602893
 21
143.25986461478607
  0
LINE
  8
_e-0_
  6
CONTINUOUS
 62
    7
 10
2447.1969595258929
 20
136.49018622829544
 11
2451.17747602893
 21
137.93897575240635
  0
LINE
  8
_e-0_
  6
CONTINUOUS
 62
    7
 10
2434.0189024056153
 20
168.9399877277117
 11
2448.6296862431445
 21
174.25787814386979
  0
LINE
  8
_e-0_
  6
CONTINUOUS
 62
    7
 10
2469.1883842563338
 20
181.74063227593791
 11
2487.7135419125711
 21
188.48323824789645
  0
LINE
  8
_e-0_
  6
CONTINUOUS
 62
    7
 10
2463.6316388937826
 20
174.39725350219305
 11
2496.6904887083792
 21
186.42969081378254
  0
LINE
  8
_e-0_
  6
CONTINUOUS
 62
    7
 10
2461.4628990865917
 20
168.28700790412768
 11
2502.2794299488264
 21
183.14301020398858
  0
LINE
  8
_e-0_
  6
CONTINUOUS
 62
    7
 10
2461.4992419870632
 20
162.97934677574688
 11
2473.9894671720022
 21
167.52541696234658
  0
LINE
  8
_e-0_
  6
CONTINUOUS
 62
    7
 10
2492.1508316310542
 20
174.13561303910114
 11
2506.288567957688
 21
179.28132824190016
  0
LINE
  8
_e-0_
  6
CONTINUOUS
 62
    7
 10
2496.6927278595249
 20
170.4678392110111
 11
2509.1784918759254
 21
175.01228566505262
  0
LINE
  8
_e-0_
  6
CONTINUOUS
 62
    7
 10
2463.2093427036916
 20
158.28088367181749
 11
2488.4793399340492
 21
167.47841048365672
  0
LINE
  8
_e-0_
  6
CONTINUOUS
 62
    7
 10
2462.8888794596251
 20
152.84335572742151
 11
2511.1140538755621
 21
170.39588375711787
  0
LINE
  8
_e-0_
  6
CONTINUOUS
 62
    7
 10
2465.300291731432
 20
148.400149154524
 11
2476.928343063094
 21
152.63241372176822
  0
LINE
  8
_e-0_
  6
CONTINUOUS
 62
    7
 10
2488.1225212892718
 20
156.70676139316754
 11
2512.122843037012
 21
165.44216412215633
  0
LINE
  8
_e-0_
  6
CONTINUOUS
 62
    7
 10
2502.741543290088
 20
156.70676139316754
 11
2512.115162112696
 21
160.11847963195407
  0
LINE
  8
_e-0_
  6
CONTINUOUS
 62
    7
 10
2468.7281740890053
 20
144.32690743686692
 11
2482.5550140975402
 21
149.35946563393486
  0
LINE
  8
_e-0_
  6
CONTINUOUS
 62
    7
 10
2473.4508580764295
 20
140.72493497175572
 11
2502.4973614552441
 21
151.2969976111566
  0
LINE
  8
_e-0_
  6
CONTINUOUS
 62
    7
 10
2480.306949559827
 20
137.89945933273884
 11
2507.376789508387
 21
147.75207532036433
  0
LINE
  8
_e-0_
  6
CONTINUOUS
 62
    7
 10
2552.6231690921718
 20
137.61596638527408
 11
2558.7418873346696
 21
139.8429976974046
  0
LINE
  8
_e-0_
  6
CONTINUOUS
 62
    7
 10
2539.4012676014827
 20
138.12447666464266
 11
2568.5435873921024
 21
148.73141362589479
  0
LINE
  8
_e-0_
  6
CONTINUOUS
 62
    7
 10
2532.9976800904733
 20
141.11465028049622
 11
2571.526973469855
 21
155.13816621790056
  0
LINE
  8
_e-0_
  6
CONTINUOUS
 62
    7
 10
2522.081864354775
 20
169.06695144424447
 11
2572.0397992563612
 21
187.25015271383
  0
LINE
  8
_e-0_
  6
CONTINUOUS
 62
    7
 10
2524.5896829795606
 20
175.30061163898438
 11
2572.0397992563612
 21
192.57104157620944
  0
LINE
  8
_e-0_
  6
CONTINUOUS
 62
    7
 10
2557.3930775458171
 20
208.52362629350921
 11
2561.8028673926597
 21
210.12865853712896
  0
LINE
  8
_e-0_
  6
CONTINUOUS
 62
    7
 10
2557.3930775458171
 20
203.20273743112978
 11
2572.0397992563612
 21
208.53370816334802
  0
LINE
  8
_e-0_
  6
CONTINUOUS
 62
    7
 10
2557.3930775458171
 20
197.88184856875006
 11
2572.0397992563612
 21
203.21281930096859
  0
LINE
  8
_e-0_
  6
CONTINUOUS
 62
    7
 10
2557.3930775458171
 20
192.56095970637034
 11
2572.0397992563612
 21
197.89193043858916
  0
LINE
  8
_e-0_
  6
CONTINUOUS
 62
    7
 10
2531.3600319802563
 20
183.08570601321094
 11
2545.8030101140193
 21
188.34252014805827
  0
LINE
  8
_e-0_
  6
CONTINUOUS
 62
    7
 10
2548.0525958796984
 20
173.19863581905565
 11
2572.0397992563612
 21
181.92926385145057
  0
LINE
  8
_e-0_
  6
CONTINUOUS
 62
    7
 10
2521.2864022906338
 20
163.45653806802943
 11
2538.3752084417083
 21
169.67635484616608
  0
LINE
  8
_e-0_
  6
CONTINUOUS
 62
    7
 10
2521.6554107736329
 20
158.26995730965365
 11
2535.4846691325356
 21
163.30339571427089
  0
LINE
  8
_e-0_
  6
CONTINUOUS
 62
    7
 10
2522.9940114609526
 20
153.43627925302656
 11
2536.1404517985766
 21
158.22119222247807
  0
LINE
  8
_e-0_
  6
CONTINUOUS
 62
    7
 10
2525.2563435788043
 20
148.93881194156961
 11
2539.0354883761393
 21
153.95401050144358
  0
LINE
  8
_e-0_
  6
CONTINUOUS
 62
    7
 10
2528.5117312327798
 20
144.80278728623489
 11
2545.7561370732083
 21
151.07923771975692
  0
LINE
  8
_e-0_
  6
CONTINUOUS
 62
    7
 10
2554.2054905278624
 20
154.15455087604528
 11
2572.0397992563612
 21
160.64570840193255
  0
LINE
  8
_e-0_
  6
CONTINUOUS
 62
    7
 10
2557.505937791675
 20
160.67670430221767
 11
2572.0397992563612
 21
165.96659726431199
  0
LINE
  8
_e-0_
  6
CONTINUOUS
 62
    7
 10
2557.5903561511468
 20
166.02831893467055
 11
2572.0397992563612
 21
171.28748612669142
  0
LINE
  8
_e-0_
  6
CONTINUOUS
 62
    7
 10
2557.5903561511468
 20
171.34920779704998
 11
2572.0397992563612
 21
176.60837498907085
  0
LINE
  8
_e-0_
  6
CONTINUOUS
 62
    7
 10
2595.1467628188602
 20
185.01862193009401
 11
2601.8693768327421
 21
187.46545332760775
  0
LINE
  8
_e-0_
  6
CONTINUOUS
 62
    7
 10
2585.5936460434282
 20
176.2206829169881
 11
2614.8426950414305
 21
186.86646613285404
  0
LINE
  8
_e-0_
  6
CONTINUOUS
 62
    7
 10
2608.5181174973604
 20
136.67650840108905
 11
2622.7000364868072
 21
141.83830477802189
  0
LINE
  8
_e-0_
  6
CONTINUOUS
 62
    7
 10
2598.2444761483162
 20
138.25809761488983
 11
2629.5534764025942
 21
149.65364177207988
  0
LINE
  8
_e-0_
  6
CONTINUOUS
 62
    7
 10
2582.6330921261529
 20
169.82224055178023
 11
2621.2234503919626
 21
183.86798229020314
  0
LINE
  8
_e-0_
  6
CONTINUOUS
 62
    7
 10
2592.2968185805403
 20
141.41421615899105
 11
2632.0809325371147
 21
155.894449435838
  0
LINE
  8
_e-0_
  6
CONTINUOUS
 62
    7
 10
2588.0695495912832
 20
145.19650493704432
 11
2602.246111940276
 21
150.35635165629657
  0
LINE
  8
_e-0_
  6
CONTINUOUS
 62
    7
 10
2585.0094293819529
 20
149.40360112995108
 11
2597.3909335115823
 21
153.91010008858018
  0
LINE
  8
_e-0_
  6
CONTINUOUS
 62
    7
 10
2582.919829983693
 20
153.96393800982366
 11
2594.869518006371
 21
158.31326875884542
  0
LINE
  8
_e-0_
  6
CONTINUOUS
 62
    7
 10
2581.7538748691904
 20
158.86045391603375
 11
2594.1774270088017
 21
163.38225709870642
  0
LINE
  8
_e-0_
  6
CONTINUOUS
 62
    7
 10
2581.5798124660105
 20
164.11798924475079
 11
2595.9853391150809
 21
169.36117215394091
  0
LINE
  8
_e-0_
  6
CONTINUOUS
 62
    7
 10
2611.9748325174678
 20
175.18087181340547
 11
2625.6969314853613
 21
180.17530738937353
  0
LINE
  8
_e-0_
  6
CONTINUOUS
 62
    7
 10
2617.2029460570038
 20
171.76286066078092
 11
2628.9430705154382
 21
176.03591651023152
  0
LINE
  8
_e-0_
  6
CONTINUOUS
 62
    7
 10
2619.9310564926914
 20
167.43492279278257
 11
2631.197316834192
 21
171.53550620858255
  0
LINE
  8
_e-0_
  6
CONTINUOUS
 62
    7
 10
2620.8298424207369
 20
162.44116525518905
 11
2632.5279188691889
 21
166.69891688059579
  0
LINE
  8
_e-0_
  6
CONTINUOUS
 62
    7
 10
2619.394865425299
 20
156.59798747961361
 11
2632.8880000931144
 21
161.5090868656435
  0
LINE
  8
ADD_LINE
  6
DOT
 62
    9
 10
2339.561356655227
 20
120
 11
2339.561356655227
 21
220
  0
LINE
  8
ADD_LINE
  6
DOT
 62
    9
 10
2486.2246783741707
 20
220
 11
2486.2246783741707
 21
120
  0
LINE
  8
ADD_LINE
  6
DOT
 62
    9
 10
2632.8880000931144
 20
120
 11
2632.8880000931144
 21
220
  0
LINE
  8
ADD_LINE
  6
DOT
 62
    9
 10
2220
 20
220
 11
2220
 21
120
  0
LINE
  8
ADD_LINE
  6
DOT
 62
    9
 10
2710
 20
220
 11
2710
 21
120
  0
TEXT
  8
_e-0_
 62
    7
 10
2642.8586825750176
 20
180.56247057449553
 40
35
 41
0.5714285714285714
 50
0
  1
ワンド
  0
TEXT
  8
_e-0_
 62
    7
 10
2649.7045100149039
 20
147.0179161190498
 40
30
 41
0.6666666666666666
 50
0
  1
株式
  0
TEXT
  8
_e-0_
 62
    7
 10
2649.0199272709156
 20
118.95002361551377
 40
30
 41
0.6666666666666666
 50
0
  1
会社
  0
TEXT
  8
_f-8_
 62
    7
 10
3043.062787902114
 20
140.8686292234114
 40
35
 41
0.5714285714285714
 50
0
  1
２０２３．０５．０１
  0
LINE
  8
ADD_LINE
  6
DOT
 62
    9
 10
3685.242120426321
 20
2270
 11
3700.242120426321
 21
2270
  0
LINE
  8
ADD_LINE
  6
DOT
 62
    9
 10
3700.242120426321
 20
2270
 11
3700.242120426321
 21
2285
  0
LINE
  8
ADD_LINE
  6
DOT
 62
    9
 10
3700.242120426321
 20
2285
 11
3685.242120426321
 21
2285
  0
LINE
  8
ADD_LINE
  6
DOT
 62
    9
 10
3685.242120426321
 20
2285
 11
3685.242120426321
 21
2270
  0
LINE
  8
_0-d_
  6
CONTINUOUS
 62
    3
 10
4115
 20
2270
 11
4115
 21
1774.9999999999995
  0
LINE
  8
ADD_LINE
  6
DOT
 62
    9
 10
3830.2421204263201
 20
2200
 11
3830.2421204263201
 21
2080
  0
LINE
  8
_0-d_
  6
CONTINUOUS
 62
    7
 10
3800.2421204263214
 20
2200
 11
3800.2421204263214
 21
2080
  0
TEXT
  8
_0-d_
 62
    7
 10
3830.2421204263201
 20
2152.5
 40
35
 41
0.8571428571428571
 50
0
  1
ホワイト
  0
TEXT
  8
_0-d_
 62
    7
 10
3830.3411143313565
 20
2093.0893268157802
 40
35
 41
0.8571428571428571
 50
0
  1
木　　目
  0
TEXT
  8
_0-d_
 62
    7
 10
3715.7122200188969
 20
2152.5
 40
35
 41
0.8571428571428571
 50
0
  1
ＳＷ
  0
TEXT
  8
_0-d_
 62
    7
 10
3720.7036754285846
 20
2093.0893268157802
 40
35
 41
0.8571428571428571
 50
0
  1
ＬＧ
  0
LINE
  8
ADD_LINE
  6
DOT
 62
    9
 10
3750.2421204263214
 20
2200
 11
3750.2421204263214
 21
2080
  0
LINE
  8
_0-d_
  6
CONTINUOUS
 62
    3
 10
3700.2421204263214
 20
2270
 11
3700.2421204263214
 21
1774.9999999999995
  0
LINE
  8
_0-d_
  6
CONTINUOUS
 62
    7
 10
3800.2421204263214
 20
2075
 11
3800.2421204263214
 21
1774.9999999999995
  0
LINE
  8
ADD_LINE
  6
DOT
 62
    9
 10
3830.2421204263201
 20
2075
 11
3830.2421204263201
 21
1774.9999999999995
  0
LINE
  8
ADD_LINE
  6
DOT
 62
    9
 10
3750.2421204263214
 20
2075
 11
3750.2421204263214
 21
1774.9999999999995
  0
TEXT
  8
_0-d_
 62
    7
 10
3715.7122200188969
 20
2027.5
 40
35
 41
0.8571428571428571
 50
0
  1
ＵＷ
  0
TEXT
  8
_0-d_
 62
    7
 10
3720.7036754285846
 20
1968.0893268157802
 40
35
 41
0.8571428571428571
 50
0
  1
ＷＮ
  0
TEXT
  8
_0-d_
 62
    7
 10
3720.7036754285846
 20
1908.0893268157799
 40
35
 41
0.8571428571428571
 50
0
  1
ＢＳ
  0
TEXT
  8
_0-d_
 62
    7
 10
3720.7036754285846
 20
1848.0893268157797
 40
35
 41
0.8571428571428571
 50
0
  1
ＰＭ
  0
TEXT
  8
_0-d_
 62
    7
 10
3720.7036754285846
 20
1788.0893268157797
 40
35
 41
0.8571428571428571
 50
0
  1
ＭＤ
  0
TEXT
  8
_0-d_
 62
    7
 10
3830.3411143313565
 20
1788.0893268157797
 40
35
 41
0.8571428571428571
 50
0
  1
ダークグレイン
  0
TEXT
  8
_0-d_
 62
    7
 10
3830.3411143313565
 20
1848.0893268157797
 40
35
 41
0.8571428571428571
 50
0
  1
ペールグレイン
  0
TEXT
  8
_0-d_
 62
    7
 10
3830.341114331356
 20
1908.0893268157799
 40
35
 41
0.8571428571428571
 50
0
  1
ブラックストーン
  0
TEXT
  8
_0-d_
 62
    7
 10
3830.2421204263201
 20
1967.4999999999998
 40
35
 41
0.8571428571428571
 50
0
  1
ｳｨﾝｻﾞｰﾅｯﾄ（艶有）
  0
TEXT
  8
_0-d_
 62
    7
 10
3830.2421204263201
 20
2027.5
 40
35
 41
0.8571428571428571
 50
0
  1
ｳﾙﾄﾗﾎﾜｲﾄ（艶有）
  0
LINE
  8
_0-d_
  6
CONTINUOUS
 62
    3
 10
4115
 20
2270
 11
3700.2421204263214
 21
2270
  0
LINE
  8
_0-d_
  6
CONTINUOUS
 62
    3
 10
4115
 20
1774.9999999999995
 11
3700.2421204263214
 21
1774.9999999999995
  0
LINE
  8
_0-d_
  6
CONTINUOUS
 62
    7
 10
3700.2421204263214
 20
2140
 11
4115
 21
2140
  0
LINE
  8
_0-d_
  6
CONTINUOUS
 62
    7
 10
4115
 20
2140
 11
3700.2421204263214
 21
2140
  0
LINE
  8
_0-d_
  6
CONTINUOUS
 62
    3
 10
4115
 20
2140
 11
3700.2421204263214
 21
2140
  0
LINE
  8
_0-d_
  6
CONTINUOUS
 62
    3
 10
4115
 20
2080
 11
3700.2421204263214
 21
2080
  0
LINE
  8
ADD_LINE
  6
DOT
 62
    9
 10
3700.2421204263214
 20
2110
 11
4115
 21
2110
  0
LINE
  8
_0-d_
  6
CONTINUOUS
 62
    7
 10
4115
 20
2015
 11
3700.2421204263214
 21
2015
  0
LINE
  8
_0-d_
  6
CONTINUOUS
 62
    3
 10
4115
 20
2015
 11
3700.2421204263214
 21
2015
  0
LINE
  8
_0-d_
  6
CONTINUOUS
 62
    3
 10
4115
 20
1954.9999999999998
 11
3700.2421204263214
 21
1954.9999999999998
  0
LINE
  8
_0-d_
  6
CONTINUOUS
 62
    7
 10
3700.2421204263214
 20
2015
 11
4115
 21
2015
  0
LINE
  8
_0-d_
  6
CONTINUOUS
 62
    7
 10
4115
 20
2080
 11
3700.2421204263214
 21
2080
  0
LINE
  8
_0-d_
  6
CONTINUOUS
 62
    7
 10
4115
 20
2075
 11
3700.2421204263214
 21
2075
  0
LINE
  8
ADD_LINE
  6
DOT
 62
    9
 10
3700.2421204263214
 20
2045
 11
4115
 21
2045
  0
LINE
  8
ADD_LINE
  6
DOT
 62
    9
 10
3700.2421204263214
 20
1984.9999999999998
 11
4115
 21
1984.9999999999998
  0
LINE
  8
_0-d_
  6
CONTINUOUS
 62
    7
 10
4115
 20
1954.9999999999998
 11
3700.2421204263214
 21
1954.9999999999998
  0
LINE
  8
_0-d_
  6
CONTINUOUS
 62
    3
 10
4115
 20
1954.9999999999998
 11
3700.2421204263214
 21
1954.9999999999998
  0
LINE
  8
_0-d_
  6
CONTINUOUS
 62
    3
 10
4115
 20
1894.9999999999995
 11
3700.2421204263214
 21
1894.9999999999995
  0
LINE
  8
_0-d_
  6
CONTINUOUS
 62
    7
 10
3700.2421204263214
 20
1954.9999999999998
 11
4115
 21
1954.9999999999998
  0
LINE
  8
ADD_LINE
  6
DOT
 62
    9
 10
3700.2421204263214
 20
1924.9999999999995
 11
4115
 21
1924.9999999999995
  0
LINE
  8
_0-d_
  6
CONTINUOUS
 62
    7
 10
4115
 20
1894.9999999999995
 11
3700.2421204263214
 21
1894.9999999999995
  0
LINE
  8
_0-d_
  6
CONTINUOUS
 62
    3
 10
4115
 20
1894.9999999999995
 11
3700.2421204263214
 21
1894.9999999999995
  0
LINE
  8
_0-d_
  6
CONTINUOUS
 62
    3
 10
4115
 20
1834.9999999999995
 11
3700.2421204263214
 21
1834.9999999999995
  0
LINE
  8
_0-d_
  6
CONTINUOUS
 62
    7
 10
3700.2421204263214
 20
1894.9999999999995
 11
4115
 21
1894.9999999999995
  0
LINE
  8
ADD_LINE
  6
DOT
 62
    9
 10
3700.2421204263214
 20
1864.9999999999995
 11
4115
 21
1864.9999999999995
  0
LINE
  8
_0-d_
  6
CONTINUOUS
 62
    7
 10
4115
 20
1834.9999999999995
 11
3700.2421204263214
 21
1834.9999999999995
  0
LINE
  8
_0-d_
  6
CONTINUOUS
 62
    3
 10
4115
 20
1834.9999999999995
 11
3700.2421204263214
 21
1834.9999999999995
  0
LINE
  8
_0-d_
  6
CONTINUOUS
 62
    7
 10
3700.2421204263214
 20
1834.9999999999995
 11
4115
 21
1834.9999999999995
  0
LINE
  8
ADD_LINE
  6
DOT
 62
    9
 10
3700.2421204263214
 20
1804.9999999999995
 11
4115
 21
1804.9999999999995
  0
LINE
  8
ADD_LINE
  6
DOT
 62
    9
 10
3700.2421204263214
 20
2170
 11
4115
 21
2170
  0
LINE
  8
_0-d_
  6
CONTINUOUS
 62
    7
 10
4115
 20
2200
 11
3700.2421204263214
 21
2200
  0
LINE
  8
ADD_LINE
  6
DOT
 62
    9
 10
3700.2421204263214
 20
2237.5
 11
4115
 21
2237.5
  0
LINE
  8
_0-d_
  6
CONTINUOUS
 62
    7
 10
4115
 20
2205
 11
3700.2421204263214
 21
2205
  0
LINE
  8
ADD_LINE
  6
DOT
 62
    9
 10
3907.6210602131605
 20
2270
 11
3907.6210602131605
 21
2205
  0
TEXT
  8
_0-d_
 62
    7
 10
3860.6210602131609
 20
2220
 40
35
 41
0.8571428571428571
 50
0
  1
扉　色
  0
LINE
  8
_0-9_
  6
CONTINUOUS
 62
    4
 10
1810
 20
1174.9999999999998
 11
1810
 21
675
  0
TEXT
  8
_0-9_
 62
    7
 10
1810
 20
891.89999999999986
 40
35
 41
0.6285714285714286
 50
90
  1
４９９
  0
LINE
  8
_0-9_
  6
CONTINUOUS
 62
    4
 10
2625.0030000000006
 20
1175
 11
2625.0030000000006
 21
675
  0
TEXT
  8
_0-9_
 62
    7
 10
2625.0030000000006
 20
891.89999999999998
 40
35
 41
0.6285714285714286
 50
90
  1
４９９
  0
LINE
  8
_0-3_
  6
CONTINUOUS
 62
    5
 10
950
 20
1180
 11
950
 21
580
  0
LINE
  8
_0-3_
  6
CONTINUOUS
 62
    5
 10
1650
 20
1180
 11
1650
 21
580
  0
LINE
  8
_0-3_
  6
DASHED1
 62
    9
 10
1638
 20
1119.9999999999998
 11
961.99999999999989
 21
1119.9999999999998
  0
LINE
  8
_0-3_
  6
DASHED1
 62
    9
 10
1638
 20
686.99999999999989
 11
961.99999999999989
 21
686.99999999999989
  0
LINE
  8
_0-3_
  6
CONTINUOUS
 62
    4
 10
1650
 20
670
 11
950
 21
670
  0
LINE
  8
_0-3_
  6
CONTINUOUS
 62
    5
 10
1650
 20
580
 11
950
 21
580
  0
LINE
  8
_0-3_
  6
DASHED1
 62
    2
 10
1638
 20
1180
 11
1638
 21
580
  0
LINE
  8
_0-3_
  6
DASHED1
 62
    2
 10
961.99999999999989
 20
1180
 11
961.99999999999989
 21
580
  0
TEXT
  8
_f-8_
 62
    7
 10
1610.9900990099009
 20
137.77227722772267
 40
45
 41
0.6666666666666666
 50
0
  1
ＫＴＤ５－８０－７０Ｇ
  0
ENDSEC
  0
EOF
