  0
SECTION
  2
HEADER
  9
$ACADVER
  1
AC1009
  9
$INSBASE
 10
0
 20
0
 30
0
  9
$EXTMIN
 10
0
 20
0
  9
$EXTMAX
 10
4200
 20
2970
  9
$LIMMIN
 10
0
 20
0
  9
$LIMMAX
 10
4200
 20
2970
  9
$LTSCALE
 40
10
  0
ENDSEC
  0
SECTION
  2
TABLES
  0
TABLE
  2
LTYPE
 70
     9
  0
LTYPE
  2
CONTINUOUS
 70
    64
  3
実線
 72
    65
 73
     0
 40
0.0
  0
LTYPE
  2
DASHED1
 70
    64
  3
--  --  --  --  --  --  --  --  
 72
    65
 73
     2
 40
2.5
 49
1.25
 49
-1.25
  0
LTYPE
  2
DASHED2
 70
    64
  3
----    ----    ----    ----    
 72
    65
 73
     2
 40
5.0
 49
2.5
 49
-2.5
  0
LTYPE
  2
DASHED3
 70
    64
  3
------  ------  ------  ------  
 72
    65
 73
     2
 40
5.0
 49
3.75
 49
-1.25
  0
LTYPE
  2
CENTER1
 70
    64
  3
----- - ----- - ----- - ----- - 
 72
    65
 73
     4
 40
10.0
 49
6.25
 49
-1.25
 49
1.25
 49
-1.25
  0
LTYPE
  2
CENTER2
 70
    64
  3
----------  --  ----------  --  
 72
    65
 73
     4
 40
20.0
 49
12.5
 49
-2.5
 49
2.5
 49
-2.5
  0
LTYPE
  2
PHANTOM1
 70
    64
  3
--- - - --- - - --- - - --- - - 
 72
    65
 73
     6
 40
10.0
 49
3.25
 49
-1.25
 49
1.25
 49
-1.25
 49
1.25
 49
-1.25
  0
LTYPE
  2
PHANTOM2
 70
    64
  3
--------  -  -  --------  -  -  
 72
    65
 73
     6
 40
20.0
 49
10.0
 49
-2.5
 49
1.25
 49
-2.5
 49
1.25
 49
-2.5
  0
LTYPE
  2
DOT
 70
    64
  3
-   -   -   -   -   -   -   -   
 72
    65
 73
     2
 40
2.5
 49
0.625
 49
-1.875
  0
LTYPE
  2
DUMMY
 70
    64
  3
ダミー
 72
    65
 73
     0
 40
0.0
  0
LTYPE
  2
RAND1
 70
    64
  3
ランダム線1
 72
    65
 73
     4
 40
10.0
 49
1.0
 49
-2.0
 49
3.0
 49
-4.0
  0
LTYPE
  2
RAND2
 70
    64
  3
ランダム線2
 72
    65
 73
     4
 40
14.0
 49
2.0
 49
-3.0
 49
4.0
 49
-5.0
  0
LTYPE
  2
RAND3
 70
    64
  3
ランダム線3
 72
    65
 73
     4
 40
18.0
 49
3.0
 49
-4.0
 49
5.0
 49
-6.0
  0
LTYPE
  2
RAND4
 70
    64
  3
ランダム線4
 72
    65
 73
     4
 40
22.0
 49
4.0
 49
-5.0
 49
6.0
 49
-7.0
  0
LTYPE
  2
RAND5
 70
    64
  3
ランダム線5
 72
    65
 73
     4
 40
26.0
 49
5.0
 49
-6.0
 49
7.0
 49
-8.0
  0
LTYPE
  2
LONG1
 70
    64
  3
----------  --  ----------  --  
 72
    65
 73
     4
 40
40.0
 49
32.5
 49
-2.5
 49
2.5
 49
-2.5
  0
LTYPE
  2
LONG2
 70
    64
  3
--------  -  -  --------  -  -  
 72
    65
 73
     6
 40
40.0
 49
30.0
 49
-2.5
 49
1.25
 49
-2.5
 49
1.25
 49
-2.5
  0
LTYPE
  2
LONG3
 70
    64
  3
+++++++++++++++..+++++++++++++++
 72
    65
 73
     2
 40
40.0
 49
37.5
 49
-2.5
  0
LTYPE
  2
LONG4
 70
    64
  3
+++++++++++++++..+++++++++++++++
 72
    65
 73
     2
 40
80.0
 49
75.0
 49
-5.0
  0
LTYPE
  2
LONG5
 70
    64
  3
----------  --  ----------  --  
 72
    65
 73
     4
 40
60.0
 49
37.5
 49
-7.5
 49
7.5
 49
-7.5
  0
LTYPE
  2
dashed
 70
   64
  3
-------   -------------   ------
 72
   65
 73
    2
 40
7.5
 49
6
 49
-1.5
  0
LTYPE
  2
dashed_spaced
 70
   64
  3
----        --------        ----
 72
   65
 73
    2
 40
12
 49
6
 49
-6
  0
LTYPE
  2
long_dashed_dotted
 70
   64
  3
------------- --- --------------
 72
   65
 73
    4
 40
15.25
 49
12
 49
-1.5
 49
0.25
 49
-1.5
  0
LTYPE
  2
long_dashed_double-dotted
 70
   64
  3
----------- --- --- ------------
 72
   65
 73
    6
 40
17
 49
12
 49
-1.5
 49
0.25
 49
-1.5
 49
0.25
 49
-1.5
  0
LTYPE
  2
long_dashed_triplicate-dotted
 70
   64
  3
--------- --- --- --- ----------
 72
   65
 73
    8
 40
18.75
 49
12
 49
-1.5
 49
0.25
 49
-1.5
 49
0.25
 49
-1.5
 49
0.25
 49
-1.5
  0
LTYPE
  2
dotted
 70
   64
  3
   -       -       -       -    
 72
   65
 73
    2
 40
1.75
 49
0.25
 49
-1.5
  0
LTYPE
  2
chain
 70
   64
  3
-------------- -- --------------
 72
   65
 73
    4
 40
18.5
 49
12
 49
-1.5
 49
3.5
 49
-1.5
  0
LTYPE
  2
chain_double_dash
 70
   64
  3
------------ -- -- -------------
 72
   65
 73
    6
 40
23.5
 49
12
 49
-1.5
 49
3.5
 49
-1.5
 49
3.5
 49
-1.5
  0
LTYPE
  2
dashed_dotted
 70
   64
  3
-----------     -     ----------
 72
   65
 73
    4
 40
9.25
 49
6
 49
-1.5
 49
0.25
 49
-1.5
  0
LTYPE
  2
double-dashed_dotted
 70
   64
  3
------   -----------   -   -----
 72
   65
 73
    6
 40
16.75
 49
6
 49
-1.5
 49
6
 49
-1.5
 49
0.25
 49
-1.5
  0
LTYPE
  2
dashed_double-dotted
 70
   64
  3
---------    -    -    ---------
 72
   65
 73
    6
 40
11
 49
6
 49
-1.5
 49
0.25
 49
-1.5
 49
0.25
 49
-1.5
  0
LTYPE
  2
double-dashed_double-dotted
 70
   64
  3
-----   ---------   -   -   ----
 72
   65
 73
    8
 40
18.5
 49
6
 49
-1.5
 49
6
 49
-1.5
 49
0.25
 49
-1.5
 49
0.25
 49
-1.5
  0
LTYPE
  2
dashed_triplicate-dotted
 70
   64
  3
-------    -    -    -    ------
 72
   65
 73
    8
 40
12.75
 49
6
 49
-1.5
 49
0.25
 49
-1.5
 49
0.25
 49
-1.5
 49
0.25
 49
-1.5
  0
LTYPE
  2
double-dashed_triplicate-dotted
 70
   64
  3
-----  ---------  -  -  -  -----
 72
   65
 73
   10
 40
20.25
 49
6
 49
-1.5
 49
6
 49
-1.5
 49
0.25
 49
-1.5
 49
0.25
 49
-1.5
 49
0.25
 49
-1.5
  0
LTYPE
  2
undefined
 70
   64
  3
--------------------------------
 72
   65
 73
    0
 40
0
  0
LTYPE
  2
_
 70
   64
  3
                                
 72
   65
 73
    0
 40
0
  0
LTYPE
  2
__18
 70
   64
  3
                                
 72
   65
 73
    0
 40
0
  0
LTYPE
  2
__19
 70
   64
  3
                                
 72
   65
 73
    0
 40
0
  0
LTYPE
  2
__20
 70
   64
  3
                                
 72
   65
 73
    0
 40
0
  0
LTYPE
  2
__21
 70
   64
  3
                                
 72
   65
 73
    0
 40
0
  0
LTYPE
  2
__22
 70
   64
  3
                                
 72
   65
 73
    0
 40
0
  0
LTYPE
  2
__23
 70
   64
  3
                                
 72
   65
 73
    0
 40
0
  0
LTYPE
  2
__24
 70
   64
  3
                                
 72
   65
 73
    0
 40
0
  0
LTYPE
  2
__25
 70
   64
  3
                                
 72
   65
 73
    0
 40
0
  0
LTYPE
  2
__26
 70
   64
  3
                                
 72
   65
 73
    0
 40
0
  0
LTYPE
  2
__27
 70
   64
  3
                                
 72
   65
 73
    0
 40
0
  0
LTYPE
  2
__28
 70
   64
  3
                                
 72
   65
 73
    0
 40
0
  0
LTYPE
  2
__29
 70
   64
  3
                                
 72
   65
 73
    0
 40
0
  0
LTYPE
  2
__30
 70
   64
  3
                                
 72
   65
 73
    0
 40
0
  0
LTYPE
  2
__31
 70
   64
  3
                                
 72
   65
 73
    0
 40
0
  0
LTYPE
  2
__32
 70
   64
  3
                                
 72
   65
 73
    0
 40
0
  0
ENDTAB
  0
TABLE
  2
STYLE
  5
3
100
AcDbSymbolTable
 70
     1
  0
STYLE
  5
10
100
AcDbSymbolTableRecord
100
AcDbTextStyleTableRecord
  2
STANDARD
 70
     0
 40
0.0
 41
1.0
 50
0.0
 71
     0
 42
0.2
  3
txt
  4
bigfont.shx
  0
STYLE
  5
26
100
AcDbSymbolTableRecord
100
AcDbTextStyleTableRecord
  2
TATEGAKI
 70
    68
 40
0.0
 41
1.0
 50
0.0
 71
     0
 42
1.0
  3
txt
  4
bigfont.shx
  0
ENDTAB
  0
TABLE
  2
LAYER
 70
   15
  0
LAYER
  2
_0-0_
 70
   64
 62
    7
  6
CONTINUOUS
  0
LAYER
  2
_0-2_
 70
   64
 62
    7
  6
CONTINUOUS
  0
LAYER
  2
_0-3_
 70
   64
 62
    7
  6
CONTINUOUS
  0
LAYER
  2
_0-4_
 70
   64
 62
    7
  6
CONTINUOUS
  0
LAYER
  2
_0-5_
 70
   64
 62
    7
  6
CONTINUOUS
  0
LAYER
  2
_0-8_
 70
   64
 62
    7
  6
CONTINUOUS
  0
LAYER
  2
_0-9_
 70
   64
 62
    7
  6
CONTINUOUS
  0
LAYER
  2
_0-d_
 70
   64
 62
    7
  6
CONTINUOUS
  0
LAYER
  2
_e-0_
 70
   64
 62
    7
  6
CONTINUOUS
  0
LAYER
  2
_f-7_
 70
   64
 62
    7
  6
CONTINUOUS
  0
LAYER
  2
_f-8_
 70
   64
 62
    7
  6
CONTINUOUS
  0
LAYER
  2
_f-9_
 70
   64
 62
    7
  6
CONTINUOUS
  0
LAYER
  2
_f-d_固定文字
 70
   64
 62
    7
  6
CONTINUOUS
  0
LAYER
  2
_f-f_ADD_LINE
 70
   64
 62
    7
  6
CONTINUOUS
  0
LAYER
  2
ADD_LINE
 70
   64
 62
    7
  6
CONTINUOUS
  0
ENDTAB
  0
ENDSEC
  0
SECTION
  2
BLOCKS
  0
ENDSEC
  0
SECTION
  2
ENTITIES
  0
LINE
  8
ADD_LINE
  6
DOT
 62
    9
 10
630
 20
160
 11
2210
 21
160
  0
LINE
  8
ADD_LINE
  6
DOT
 62
    9
 10
149.98500000000007
 20
100
 11
149.98500000000007
 21
65
  0
LINE
  8
ADD_LINE
  6
DOT
 62
    9
 10
179.98500000000007
 20
100
 11
179.98500000000007
 21
65.000000646005844
  0
LINE
  8
ADD_LINE
  6
DOT
 62
    9
 10
150.01499999999992
 20
65
 11
120.02999999999985
 21
65
  0
LINE
  8
ADD_LINE
  6
DOT
 62
    9
 10
74.98500000000007
 20
55
 11
4144.9850000000005
 21
55
  0
LINE
  8
ADD_LINE
  6
DOT
 62
    9
 10
4130
 20
100
 11
4130
 21
65.00000323002979
  0
LINE
  8
ADD_LINE
  6
DOT
 62
    9
 10
4100
 20
100
 11
4100
 21
65.00000323002979
  0
LINE
  8
ADD_LINE
  6
DOT
 62
    9
 10
4070
 20
100
 11
4070
 21
65.00000323002979
  0
LINE
  8
ADD_LINE
  6
DOT
 62
    9
 10
4040
 20
100
 11
4040
 21
65.00000323002979
  0
LINE
  8
ADD_LINE
  6
DOT
 62
    9
 10
4010
 20
100
 11
4010
 21
65.00000323002979
  0
LINE
  8
ADD_LINE
  6
DOT
 62
    9
 10
3980
 20
100
 11
3980
 21
65
  0
LINE
  8
ADD_LINE
  6
DOT
 62
    9
 10
74.98500000000007
 20
2875
 11
74.98500000000007
 21
55
  0
LINE
  8
ADD_LINE
  6
DOT
 62
    9
 10
120.02999999999985
 20
65
 11
120.02999999999985
 21
2860
  0
LINE
  8
ADD_LINE
  6
DOT
 62
    9
 10
4144.9850000000005
 20
2875
 11
74.98500000000007
 21
2875
  0
LINE
  8
ADD_LINE
  6
DOT
 62
    9
 10
4144.9850000000005
 20
55
 11
4144.9850000000005
 21
2875
  0
LINE
  8
_f-9_
  6
CONTINUOUS
 62
    7
 10
630
 20
120
 11
630
 21
220
  0
LINE
  8
ADD_LINE
  6
DOT
 62
    9
 10
170
 20
120
 11
170
 21
220
  0
LINE
  8
ADD_LINE
  6
DOT
 62
    9
 10
610
 20
120
 11
610
 21
220
  0
LINE
  8
_f-9_
  6
CONTINUOUS
 62
    7
 10
170
 20
120
 11
610
 21
120
  0
LINE
  8
_f-9_
  6
CONTINUOUS
 62
    7
 10
170
 20
220
 11
610
 21
220
  0
LINE
  8
_f-9_
  6
CONTINUOUS
 62
    7
 10
1420
 20
120
 11
1420
 21
220
  0
LINE
  8
_f-9_
  6
CONTINUOUS
 62
    7
 10
2210
 20
120
 11
2210
 21
220
  0
LINE
  8
_f-9_
  6
CONTINUOUS
 62
    7
 10
2220
 20
120
 11
2220
 21
220
  0
LINE
  8
_f-9_
  6
CONTINUOUS
 62
    7
 10
630
 20
120
 11
2210
 21
120
  0
LINE
  8
_f-9_
  6
CONTINUOUS
 62
    7
 10
630
 20
220
 11
2210
 21
220
  0
LINE
  8
_f-9_
  6
CONTINUOUS
 62
    7
 10
2710
 20
120
 11
2710
 21
220
  0
LINE
  8
_f-9_
  6
CONTINUOUS
 62
    7
 10
2720
 20
120
 11
2720
 21
220
  0
LINE
  8
_f-9_
  6
CONTINUOUS
 62
    7
 10
2220
 20
120
 11
2710
 21
120
  0
LINE
  8
_f-9_
  6
CONTINUOUS
 62
    7
 10
2220
 20
220
 11
2710
 21
220
  0
LINE
  8
_f-9_
  6
CONTINUOUS
 62
    7
 10
3020
 20
120
 11
3020
 21
220
  0
LINE
  8
_f-9_
  6
CONTINUOUS
 62
    7
 10
3320
 20
120
 11
3320
 21
220
  0
LINE
  8
_f-9_
  6
CONTINUOUS
 62
    7
 10
3700
 20
120
 11
3700
 21
220
  0
LINE
  8
_f-9_
  6
CONTINUOUS
 62
    7
 10
2720
 20
120
 11
4110
 21
120
  0
LINE
  8
_f-9_
  6
CONTINUOUS
 62
    7
 10
4110
 20
120
 11
4110
 21
220
  0
LINE
  8
_f-9_
  6
CONTINUOUS
 62
    7
 10
2720
 20
220
 11
4110
 21
220
  0
LINE
  8
_0-0_
  6
CONTINUOUS
 62
    7
 10
4130
 20
2860
 11
4130
 21
100
  0
LINE
  8
_0-0_
  6
CONTINUOUS
 62
    7
 10
150
 20
2860
 11
4130
 21
2860
  0
LINE
  8
_0-0_
  6
CONTINUOUS
 62
    7
 10
150
 20
100
 11
4130
 21
100
  0
LINE
  8
_0-0_
  6
CONTINUOUS
 62
    7
 10
150
 20
100
 11
150
 21
2860
  0
LINE
  8
ADD_LINE
  6
DOT
 62
    9
 10
630
 20
200
 11
2210
 21
200
  0
LINE
  8
ADD_LINE
  6
DOT
 62
    9
 10
2720
 20
200
 11
4110
 21
200
  0
LINE
  8
ADD_LINE
  6
DOT
 62
    9
 10
2740
 20
120
 11
2740
 21
220
  0
LINE
  8
ADD_LINE
  6
DOT
 62
    9
 10
3040
 20
120
 11
3040
 21
220
  0
LINE
  8
ADD_LINE
  6
DOT
 62
    9
 10
3340
 20
120
 11
3340
 21
220
  0
LINE
  8
ADD_LINE
  6
DOT
 62
    9
 10
3720
 20
120
 11
3720
 21
220
  0
LINE
  8
ADD_LINE
  6
DOT
 62
    9
 10
1445
 20
120
 11
1445
 21
220
  0
LINE
  8
ADD_LINE
  6
DOT
 62
    9
 10
655
 20
120
 11
655
 21
220
  0
LINE
  8
ADD_LINE
  6
DOT
 62
    9
 10
3660
 20
120
 11
3660
 21
220
  0
LINE
  8
ADD_LINE
  6
DOT
 62
    9
 10
2720
 20
160
 11
4110
 21
160
  0
TEXT
  8
_f-8_
 62
    7
 10
3040
 20
187.5
 40
25
 41
0.64
 50
0
  1
ＤＡＴＡ
  0
TEXT
  8
_f-8_
 62
    7
 10
3340
 20
187.5
 40
25
 41
0.64
 50
0
  1
ＣＨＥＣＫＥＤ
  0
TEXT
  8
_f-8_
 62
    7
 10
3720
 20
187.5
 40
25
 41
0.64
 50
0
  1
ＳＨＥＥＴ　ＮＯ．
  0
TEXT
  8
_f-8_
 62
    7
 10
3542
 20
187.5
 40
25
 41
0.64
 50
0
  1
ＤＲＡＷＩＮＧ
  0
LINE
  8
ADD_LINE
  6
DOT
 62
    9
 10
135
 20
65
 11
135
 21
2860
  0
LINE
  8
_f-9_
  6
CONTINUOUS
 62
    7
 10
170
 20
170
 11
610
 21
170
  0
LINE
  8
ADD_LINE
  6
DOT
 62
    9
 10
2910
 20
120
 11
2910
 21
220
  0
LINE
  8
ADD_LINE
  6
DOT
 62
    9
 10
3170
 20
120
 11
3170
 21
220
  0
LINE
  8
ADD_LINE
  6
DOT
 62
    9
 10
3500
 20
220
 11
3500
 21
120
  0
LINE
  8
ADD_LINE
  6
DOT
 62
    9
 10
1025
 20
220
 11
1025
 21
120
  0
TEXT
  8
_f-8_
 62
    7
 10
2740.3739840854213
 20
187.46937299484983
 40
25
 41
0.64
 50
0
  1
ＳＣＡＬＥ
  0
TEXT
  8
_f-8_
 62
    7
 10
1445
 20
187.5
 40
25
 41
0.8
 50
0
  1
図面名称
  0
TEXT
  8
_f-8_
 62
    7
 10
655
 20
187.5
 40
25
 41
0.8
 50
0
  1
名　称
  0
LINE
  8
ADD_LINE
  6
DOT
 62
    9
 10
1815
 20
120
 11
1815
 21
220
  0
LINE
  8
_f-8_
  6
CONTINUOUS
 62
    7
 10
2165
 20
2872
 11
2166.15
 21
2874.0000000000004
  0
LINE
  8
_f-8_
  6
CONTINUOUS
 62
    7
 10
2158.6399999999998
 20
2877
 11
2165
 21
2866
  0
LINE
  8
_f-8_
  6
CONTINUOUS
 62
    7
 10
2165
 20
2866
 11
2171.3499999999999
 21
2877
  0
LINE
  8
_f-8_
  6
CONTINUOUS
 62
    7
 10
2165
 20
2860
 11
2176.5399999999999
 21
2880
  0
LINE
  8
_f-8_
  6
CONTINUOUS
 62
    7
 10
2153.4499999999998
 20
2880
 11
2165
 21
2860
  0
LINE
  8
_f-8_
  6
CONTINUOUS
 62
    7
 10
2176.5399999999999
 20
2880
 11
2153.4499999999998
 21
2880
  0
LINE
  8
_f-8_
  6
CONTINUOUS
 62
    7
 10
2163.8400000000001
 20
2874.0000000000004
 11
2165
 21
2872
  0
LINE
  8
_f-8_
  6
CONTINUOUS
 62
    7
 10
2166.15
 20
2874.0000000000004
 11
2163.8400000000001
 21
2874.0000000000004
  0
LINE
  8
_f-8_
  6
CONTINUOUS
 62
    7
 10
2171.3499999999999
 20
2877
 11
2158.6399999999998
 21
2877
  0
LINE
  8
_f-7_
  6
CONTINUOUS
 62
    7
 10
120
 20
1462.6794919243113
 11
120
 21
1497.3205080756886
  0
LINE
  8
_f-7_
  6
CONTINUOUS
 62
    7
 10
120
 20
1497.3205080756886
 11
150
 21
1480
  0
LINE
  8
_f-7_
  6
CONTINUOUS
 62
    7
 10
150
 20
1480
 11
120
 21
1462.6794919243113
  0
LINE
  8
_f-7_
  6
CONTINUOUS
 62
    7
 10
125
 20
1471.3397459621555
 11
125
 21
1488.6602540378444
  0
LINE
  8
_f-7_
  6
CONTINUOUS
 62
    7
 10
125
 20
1488.6602540378444
 11
140
 21
1480
  0
LINE
  8
_f-7_
  6
CONTINUOUS
 62
    7
 10
140
 20
1480
 11
125
 21
1471.3397459621555
  0
LINE
  8
_f-7_
  6
CONTINUOUS
 62
    7
 10
128.99999999999977
 20
1478.2679491924309
 11
128.99999999999977
 21
1481.732050807569
  0
LINE
  8
_f-7_
  6
CONTINUOUS
 62
    7
 10
128.99999999999977
 20
1481.732050807569
 11
132.00000000000045
 21
1480
  0
LINE
  8
_f-7_
  6
CONTINUOUS
 62
    7
 10
132.00000000000045
 20
1480
 11
128.99999999999977
 21
1478.2679491924309
  0
LINE
  8
_f-7_
  6
CONTINUOUS
 62
    7
 10
4160
 20
1462.6794919243113
 11
4160
 21
1497.3205080756886
  0
LINE
  8
_f-7_
  6
CONTINUOUS
 62
    7
 10
4160
 20
1497.3205080756886
 11
4130
 21
1480
  0
LINE
  8
_f-7_
  6
CONTINUOUS
 62
    7
 10
4130
 20
1480
 11
4160
 21
1462.6794919243113
  0
LINE
  8
_f-7_
  6
CONTINUOUS
 62
    7
 10
4155
 20
1471.3397459621555
 11
4155
 21
1488.6602540378444
  0
LINE
  8
_f-7_
  6
CONTINUOUS
 62
    7
 10
4155
 20
1488.6602540378444
 11
4140
 21
1480
  0
LINE
  8
_f-7_
  6
CONTINUOUS
 62
    7
 10
4140
 20
1480
 11
4155
 21
1471.3397459621555
  0
LINE
  8
_f-7_
  6
CONTINUOUS
 62
    7
 10
4151
 20
1478.2679491924309
 11
4151
 21
1481.732050807569
  0
LINE
  8
_f-7_
  6
CONTINUOUS
 62
    7
 10
4151
 20
1481.732050807569
 11
4148
 21
1480
  0
LINE
  8
_f-7_
  6
CONTINUOUS
 62
    7
 10
4148
 20
1480
 11
4151
 21
1478.2679491924309
  0
LINE
  8
ADD_LINE
  6
DOT
 62
    9
 10
1075
 20
220
 11
1075
 21
120
  0
LINE
  8
ADD_LINE
  6
DOT
 62
    9
 10
1865
 20
120
 11
1865
 21
220
  0
LINE
  8
_0-8_
  6
CONTINUOUS
 62
    4
 10
2588.1400000000007
 20
341.86599999999998
 11
2838.1400000000003
 21
341.86599999999998
  0
LINE
  8
_0-8_
  6
CONTINUOUS
 62
    4
 10
2588.1400000000007
 20
411.86599999999998
 11
2588.1400000000007
 21
341.86599999999998
  0
LINE
  8
_0-8_
  6
CONTINUOUS
 62
    4
 10
2838.1400000000003
 20
411.86599999999998
 11
2588.1400000000007
 21
411.86599999999998
  0
LINE
  8
_0-8_
  6
CONTINUOUS
 62
    4
 10
2838.1400000000003
 20
341.86599999999998
 11
2838.1400000000003
 21
411.86599999999998
  0
LINE
  8
ADD_LINE
  6
DOT
 62
    9
 10
2713.1370000000006
 20
341.86599999999998
 11
2713.1370000000006
 21
411.86599999999998
  0
TEXT
  8
_0-8_
 62
    7
 10
2666.1369999999997
 20
359.36599999999998
 40
35
 41
0.857142857142857
 50
0
  1
断面図
  0
LINE
  8
ADD_LINE
  6
DOT
 62
    9
 10
2588.1370000000006
 20
376.86599999999998
 11
2838.1370000000006
 21
376.86599999999998
  0
POINT
  8
_0-9_
 62
    3
 10
2148.4793623798445
 20
720
  0
LINE
  8
_0-9_
  6
CONTINUOUS
 62
    4
 10
2138.4793623798445
 20
720
 11
2423.0649457060794
 21
720
  0
LINE
  8
ADD_LINE
  6
DOT
 62
    9
 10
2148.4793623798445
 20
720.00000708007814
 11
2148.4793623798445
 21
666.02048909701602
  0
LINE
  8
ADD_LINE
  6
DOT
 62
    9
 10
2228.4793623798445
 20
720.00000708007814
 11
2228.4793623798445
 21
666.02048909701602
  0
LINE
  8
ADD_LINE
  6
DOT
 62
    9
 10
2308.4793623798445
 20
720.00000708007814
 11
2308.4793623798445
 21
666.02048909701602
  0
POINT
  8
_0-9_
 62
    3
 10
2228.4793623798445
 20
720.00000708007814
  0
LINE
  8
_0-9_
  6
CONTINUOUS
 62
    4
 10
2218.4793623798445
 20
720.00000708007814
 11
2423.0649457060794
 21
720.00000708007814
  0
LINE
  8
_0-8_
  6
CONTINUOUS
 62
    4
 10
925.00000000000022
 20
341.86599999999998
 11
1175.0000000000002
 21
341.86599999999998
  0
LINE
  8
_0-8_
  6
CONTINUOUS
 62
    4
 10
1175.0000000000002
 20
411.86599999999998
 11
925.00000000000022
 21
411.86599999999998
  0
LINE
  8
_0-8_
  6
CONTINUOUS
 62
    4
 10
1175.0000000000002
 20
341.86599999999998
 11
1175.0000000000002
 21
411.86599999999998
  0
LINE
  8
_0-8_
  6
CONTINUOUS
 62
    4
 10
925.00000000000022
 20
411.86599999999998
 11
925.00000000000022
 21
341.86599999999998
  0
LINE
  8
ADD_LINE
  6
DOT
 62
    9
 10
1050.0000000000002
 20
341.86599999999998
 11
1050.0000000000002
 21
411.86599999999998
  0
TEXT
  8
_0-8_
 62
    7
 10
1003.0000000000009
 20
359.36599999999998
 40
35
 41
0.857142857142857
 50
0
  1
立面図
  0
LINE
  8
ADD_LINE
  6
DOT
 62
    9
 10
925.00000000000022
 20
376.86599999999998
 11
1175.0000000000002
 21
376.86599999999998
  0
LINE
  8
_0-8_
  6
CONTINUOUS
 62
    4
 10
1175.0000000000002
 20
1878.1200000000001
 11
1175.0000000000002
 21
1948.1200000000001
  0
LINE
  8
_0-8_
  6
CONTINUOUS
 62
    4
 10
925
 20
1878.1200000000001
 11
1175.0000000000002
 21
1878.1200000000001
  0
LINE
  8
_0-8_
  6
CONTINUOUS
 62
    4
 10
1175.0000000000002
 20
1948.1200000000001
 11
925
 21
1948.1200000000001
  0
LINE
  8
_0-8_
  6
CONTINUOUS
 62
    4
 10
925
 20
1948.1200000000001
 11
925
 21
1878.1200000000001
  0
LINE
  8
ADD_LINE
  6
DOT
 62
    9
 10
925
 20
1913.1200000000001
 11
1175.0000000000002
 21
1913.1200000000001
  0
LINE
  8
ADD_LINE
  6
DOT
 62
    9
 10
1050.0000000000002
 20
1878.1200000000001
 11
1050.0000000000002
 21
1948.1200000000001
  0
TEXT
  8
_0-8_
 62
    7
 10
1003.0000000000002
 20
1895.6200000000001
 40
35
 41
0.857142857142857
 50
0
  1
平面図
  0
TEXT
  8
_f-d_固定文字
 62
    7
 10
149.98500000000007
 20
65
 40
20
 41
1
 50
0
  1
%f
  0
LINE
  8
ADD_LINE
  6
DOT
 62
    9
 10
149.98500000000007
 20
65
 11
179.98500000000007
 21
65.000000646005844
  0
LINE
  8
ADD_LINE
  6
DOT
 62
    9
 10
3980
 20
65
 11
4130
 21
65.00000323002979
  0
TEXT
  8
_f-d_固定文字
 62
    7
 10
3980
 20
65
 40
20
 41
1
 50
0
  1
%y
  0
TEXT
  8
_f-d_固定文字
 62
    7
 10
4010
 20
65.00000323002979
 40
20
 41
1
 50
0
  1
．
  0
TEXT
  8
_f-d_固定文字
 62
    7
 10
4040
 20
65.00000323002979
 40
20
 41
1
 50
0
  1
%m
  0
TEXT
  8
_f-d_固定文字
 62
    7
 10
4070
 20
65.00000323002979
 40
20
 41
1
 50
0
  1
．
  0
TEXT
  8
_f-d_固定文字
 62
    7
 10
4100
 20
65.00000323002979
 40
20
 41
1
 50
0
  1
%d
  0
LINE
  8
_0-9_
  6
CONTINUOUS
 62
    9
 10
1049.5
 20
569.83656964596832
 11
1050.5013705124681
 21
569.83656964596832
  0
POINT
  8
_0-9_
 62
    4
 10
1049.5
 20
569.83656964596832
  0
LINE
  8
_0-9_
  6
CONTINUOUS
 62
    4
 10
1049.5
 20
559.83656964596832
 11
1049.5
 21
690.57072182686044
  0
POINT
  8
_0-9_
 62
    4
 10
1050.5013705124681
 20
569.83656964596832
  0
LINE
  8
_0-9_
  6
CONTINUOUS
 62
    4
 10
1050.5013705124681
 20
559.83656964596832
 11
1050.5013705124681
 21
690.57072182686044
  0
LINE
  8
_0-d_
  6
CONTINUOUS
 62
    3
 10
4115
 20
2845
 11
3129.9989999999997
 21
2845
  0
LINE
  8
_0-d_
  6
CONTINUOUS
 62
    7
 10
4115
 20
2285
 11
3129.9989999999997
 21
2285
  0
LINE
  8
_0-d_
  6
CONTINUOUS
 62
    7
 10
4115
 20
2355
 11
3129.9989999999997
 21
2355
  0
LINE
  8
_0-d_
  6
CONTINUOUS
 62
    7
 10
4115
 20
2425
 11
3129.9989999999997
 21
2425
  0
LINE
  8
_0-d_
  6
CONTINUOUS
 62
    7
 10
4115
 20
2495
 11
3129.9989999999997
 21
2495
  0
LINE
  8
_0-d_
  6
CONTINUOUS
 62
    7
 10
4115
 20
2565
 11
3129.9989999999997
 21
2565
  0
LINE
  8
_0-d_
  6
CONTINUOUS
 62
    7
 10
4115
 20
2635
 11
3129.9989999999997
 21
2635
  0
LINE
  8
_0-d_
  6
CONTINUOUS
 62
    7
 10
4115
 20
2705
 11
3129.9989999999997
 21
2705
  0
LINE
  8
_0-d_
  6
CONTINUOUS
 62
    7
 10
4115
 20
2775
 11
3129.9989999999997
 21
2775
  0
LINE
  8
_0-d_
  6
CONTINUOUS
 62
    7
 10
4115
 20
2780
 11
3129.9989999999997
 21
2780
  0
LINE
  8
ADD_LINE
  6
DOT
 62
    9
 10
3129.9989999999997
 20
2812.5
 11
4115
 21
2812.5
  0
LINE
  8
ADD_LINE
  6
DOT
 62
    9
 10
4115
 20
2740
 11
3129.9989999999997
 21
2740
  0
LINE
  8
ADD_LINE
  6
DOT
 62
    9
 10
4115
 20
2670
 11
3129.9989999999997
 21
2670
  0
LINE
  8
ADD_LINE
  6
DOT
 62
    9
 10
4115
 20
2600
 11
3129.9989999999997
 21
2600
  0
LINE
  8
ADD_LINE
  6
DOT
 62
    9
 10
4115
 20
2530
 11
3129.9989999999997
 21
2530
  0
LINE
  8
ADD_LINE
  6
DOT
 62
    9
 10
4115
 20
2460
 11
3129.9989999999997
 21
2460
  0
LINE
  8
ADD_LINE
  6
DOT
 62
    9
 10
4115
 20
2390
 11
3129.9989999999997
 21
2390
  0
LINE
  8
ADD_LINE
  6
DOT
 62
    9
 10
4115
 20
2320
 11
3129.9989999999997
 21
2320
  0
TEXT
  8
_0-d_
 62
    7
 10
3527.4994999999998
 20
2795
 40
35
 41
0.857142857142857
 50
0
  1
仕　　　　様
  0
TEXT
  8
_0-d_
 62
    7
 10
3200.9989999999997
 20
2722.5
 40
35
 41
0.857142857142857
 50
0
  1
ト　ッ　プ
  0
TEXT
  8
_0-d_
 62
    7
 10
3216.9990000000002
 20
2652.5
 40
35
 41
0.857142857142857
 50
0
  1
側　　板
  0
TEXT
  8
_0-d_
 62
    7
 10
3454.9990000000002
 20
2652.5
 40
35
 41
0.7714285714285713
 50
0
  1
低圧メラミン化粧パーティクルボード　１２ｔ
  0
TEXT
  8
_0-d_
 62
    7
 10
3216.9990000000002
 20
2582.5
 40
35
 41
0.857142857142857
 50
0
  1
地　　板
  0
TEXT
  8
_0-d_
 62
    7
 10
3454.9989999999988
 20
2582.5
 40
35
 41
0.857142857142857
 50
0
  1
ステンレス貼り　片面フラッシュ
  0
TEXT
  8
_0-d_
 62
    7
 10
3216.9990000000002
 20
2512.5
 40
35
 41
0.857142857142857
 50
0
  1
背　　板
  0
LINE
  8
ADD_LINE
  6
DOT
 62
    9
 10
3622.4994999999998
 20
2780
 11
3622.4994999999998
 21
2845
  0
TEXT
  8
_0-d_
 62
    7
 10
3454.9989999999988
 20
2512.5
 40
35
 41
0.857142857142857
 50
0
  1
ＭＤＦ　２．５ｔ
  0
TEXT
  8
_0-d_
 62
    7
 10
3264.9989999999997
 20
2442.5
 40
35
 41
0.857142857142857
 50
0
  1
扉
  0
TEXT
  8
_0-d_
 62
    7
 10
3454.9989999999988
 20
2442.5
 40
35
 41
0.7714285714285713
 50
0
  1
両面化粧パーティクルボード　１２ｔ
  0
TEXT
  8
_0-d_
 62
    7
 10
3216.9990000000002
 20
2372.5
 40
35
 41
0.857142857142857
 50
0
  1
丁　　番
  0
LINE
  8
_0-d_
  6
CONTINUOUS
 62
    3
 10
3129.9989999999997
 20
2845
 11
3129.9989999999997
 21
2215
  0
LINE
  8
_0-d_
  6
CONTINUOUS
 62
    3
 10
4115
 20
2215
 11
3129.9989999999997
 21
2215
  0
LINE
  8
_0-d_
  6
CONTINUOUS
 62
    3
 10
4115
 20
2215
 11
4115
 21
2845
  0
LINE
  8
_0-d_
  6
CONTINUOUS
 62
    7
 10
3429.9989999999997
 20
2775
 11
3429.9989999999997
 21
2215
  0
LINE
  8
ADD_LINE
  6
DOT
 62
    9
 10
4115
 20
2250
 11
3129.9989999999997
 21
2250
  0
LINE
  8
ADD_LINE
  6
DOT
 62
    9
 10
3279.9989999999997
 20
2215
 11
3279.9989999999997
 21
2775
  0
LINE
  8
ADD_LINE
  6
DOT
 62
    9
 10
3454.9989999999997
 20
2775
 11
3454.9989999999997
 21
2215
  0
TEXT
  8
_0-d_
 62
    7
 10
3454.9990000000002
 20
2372.5
 40
35
 41
0.857142857142857
 50
0
  1
ワンタッチスライド式丁番
  0
LINE
  8
ADD_LINE
  6
DOT
 62
    9
 10
4115
 20
2215
 11
4115
 21
2200
  0
TEXT
  8
_0-d_
 62
    7
 10
3216.9990000000002
 20
2302.5
 40
35
 41
0.857142857142857
 50
0
  1
把　　手
  0
TEXT
  8
_0-d_
 62
    7
 10
3454.9989999999988
 20
2302.5
 40
35
 41
0.857142857142857
 50
0
  1
アルミ一文字把手
  0
TEXT
  8
_0-d_
 62
    7
 10
3204.9990000000002
 20
2235
 40
35
 41
0.857142857142857
 50
0
  1
そ　の　他
  0
TEXT
  8
_0-d_
 62
    7
 10
3454.9990000000002
 20
2722.5
 40
35
 41
0.857142857142857
 50
0
  1
ステンレスＳＵＳ４３０
  0
LINE
  8
_0-4_
  6
CONTINUOUS
 62
    3
 10
2460.6400000000003
 20
1335.0000000000002
 11
2460.6400000000003
 21
1178.3638323175264
  0
LINE
  8
_0-4_
  6
CONTINUOUS
 62
    3
 10
2448.6399999999998
 20
1335.0000000000002
 11
2448.6399999999998
 21
1178.3638323175264
  0
LINE
  8
ADD_LINE
  6
DOT
 62
    9
 10
2449.4893185782875
 20
1358
 11
2444.3679115660065
 21
1358
  0
LINE
  8
ADD_LINE
  6
DOT
 62
    9
 10
2447.288344914572
 20
1336.6490523231677
 11
2446.3400000000006
 21
1336.600000000003
  0
LINE
  8
ADD_LINE
  6
DOT
 62
    9
 10
2446.3400000000006
 20
1335.6503873382257
 11
2446.3400000000006
 21
1336.600000000003
  0
LINE
  8
ADD_LINE
  6
DOT
 62
    9
 10
2448.1284681165066
 20
1329.0000000000004
 11
2446.0227734742002
 21
1329.0000000000004
  0
LINE
  8
_0-5_
  6
CONTINUOUS
 62
    4
 10
2459.9916550854281
 20
1337.4509476768325
 11
2447.288344914572
 21
1336.6490523231677
  0
ARC
  8
_0-5_
  6
CONTINUOUS
 62
    4
 10
2447.3400000000006
 20
1335.6503873382257
 40
1
 50
92.960936134163759
 51
180
  0
LINE
  8
_0-5_
  6
CONTINUOUS
 62
    4
 10
2446.3400000000006
 20
1335.6503873382257
 11
2446.3400000000006
 21
1329.8000000000004
  0
LINE
  8
_0-5_
  6
CONTINUOUS
 62
    4
 10
2460.6400000000003
 20
1335.0000000000002
 11
2448.2400000000002
 21
1335.0000000000002
  0
ARC
  8
_0-5_
  6
CONTINUOUS
 62
    4
 10
2448.2400000000002
 20
1334.7000000000002
 40
0.2999999999999999
 50
90.000000000000028
 51
180
  0
LINE
  8
_0-5_
  6
CONTINUOUS
 62
    4
 10
2447.94
 20
1334.7000000000002
 11
2447.94
 21
1329.8000000000004
  0
LINE
  8
_0-5_
  6
CONTINUOUS
 62
    4
 10
2447.5766795366798
 20
1363.6486486486489
 11
2446.0940540540545
 21
1359.3243243243246
  0
ARC
  8
_0-5_
  6
CONTINUOUS
 62
    4
 10
2447.0400000000004
 20
1359.0000000000004
 40
1
 50
161.07535558395028
 51
46.451037231780105
  0
ARC
  8
_0-5_
  6
CONTINUOUS
 62
    4
 10
2447.8667690415559
 20
1359.8697430378711
 40
0.2
 50
161.07535558394698
 51
226.45103723177706
  0
LINE
  8
_0-5_
  6
CONTINUOUS
 62
    4
 10
2448.8064092664094
 20
1363.2270270270273
 11
2447.6775798523672
 21
1359.9346079027361
  0
LINE
  8
_0-5_
  6
CONTINUOUS
 62
    4
 10
2460.2400000000002
 20
1363.7000000000002
 11
2449.4685714285724
 21
1363.7000000000002
  0
ARC
  8
_0-5_
  6
CONTINUOUS
 62
    4
 10
2449.4685714285724
 20
1363
 40
0.6999999999999999
 50
90.000000000000028
 51
161.07535558395002
  0
ARC
  8
_0-5_
  6
CONTINUOUS
 62
    4
 10
2449.4685714285724
 20
1363
 40
2
 50
90.000000000000028
 51
161.07535558394951
  0
LINE
  8
_0-5_
  6
CONTINUOUS
 62
    4
 10
2449.4685714285724
 20
1365.0000000000002
 11
2460.2400000000002
 21
1365.0000000000002
  0
ARC
  8
_0-5_
  6
CONTINUOUS
 62
    4
 10
2447.1400000000007
 20
1329.8000000000004
 40
0.8000000000000001
 50
180
 51
359.99999999999994
  0
ARC
  8
_0-5_
  6
CONTINUOUS
 62
    4
 10
2459.9400000000005
 20
1338.449612661775
 40
1
 50
272.96093613416371
 51
0
  0
LINE
  8
_0-5_
  6
CONTINUOUS
 62
    4
 10
2460.9400000000009
 20
1338.449612661775
 11
2460.9400000000009
 21
1363
  0
ARC
  8
_0-5_
  6
CONTINUOUS
 62
    4
 10
2460.6400000000003
 20
1334.7000000000002
 40
0.2999999999999999
 50
0.0000000000000127
 51
90.000000000000014
  0
LINE
  8
_0-5_
  6
CONTINUOUS
 62
    4
 10
2460.9400000000009
 20
1334.7000000000002
 11
2460.9400000000009
 21
1330.5244997998399
  0
ARC
  8
_0-5_
  6
CONTINUOUS
 62
    4
 10
2461.4400000000005
 20
1329.9000000000003
 40
0.8000000000000001
 50
128.68218745349332
 51
231.31781254650658
  0
LINE
  8
_0-5_
  6
CONTINUOUS
 62
    4
 10
2460.9400000000009
 20
1329.2755002001604
 11
2460.9400000000009
 21
1321.9244997998398
  0
LINE
  8
_0-5_
  6
CONTINUOUS
 62
    4
 10
2461.7400000000002
 20
1320.5
 11
2461.4400000000005
 21
1320.5
  0
ARC
  8
_0-5_
  6
CONTINUOUS
 62
    4
 10
2461.4400000000005
 20
1321.3000000000001
 40
0.8000000000000001
 50
128.68218745349332
 51
270
  0
ARC
  8
_0-5_
  6
CONTINUOUS
 62
    4
 10
2461.7400000000002
 20
1321.0000000000002
 40
0.5
 50
270
 51
0
  0
LINE
  8
_0-5_
  6
CONTINUOUS
 62
    4
 10
2462.2400000000006
 20
1321.0000000000002
 11
2462.2400000000006
 21
1363
  0
ARC
  8
_0-5_
  6
CONTINUOUS
 62
    4
 10
2460.2400000000002
 20
1363
 40
0.6999999999999999
 50
0.0000000000000127
 51
90.000000000000014
  0
ARC
  8
_0-5_
  6
CONTINUOUS
 62
    4
 10
2460.2400000000002
 20
1363
 40
2
 50
0.0000000000000127
 51
90.000000000000042
  0
LINE
  8
_0-4_
  6
CONTINUOUS
 62
    3
 10
2460.6400000000003
 20
1335.0000000000002
 11
2448.6399999999998
 21
1335.0000000000002
  0
ARC
  8
_0-5_
  6
CONTINUOUS
 62
    4
 10
1044.5
 20
1363
 40
5
 50
270
 51
0
  0
ARC
  8
_0-5_
  6
CONTINUOUS
 62
    4
 10
1055.5
 20
1363
 40
5
 50
180
 51
270
  0
LINE
  8
_0-4_
  6
CONTINUOUS
 62
    3
 10
1049.5
 20
1365.0000000000002
 11
1049.5
 21
1307
  0
LINE
  8
_0-4_
  6
CONTINUOUS
 62
    3
 10
1050.5
 20
1365.0000000000002
 11
1050.5
 21
1307
  0
POINT
  8
_0-9_
 62
    3
 10
2148.4793623798445
 20
1390
  0
LINE
  8
_0-9_
  6
CONTINUOUS
 62
    4
 10
2138.4793623798445
 20
1390
 11
2423.0649457060794
 21
1390
  0
POINT
  8
_0-9_
 62
    3
 10
2228.4793623798445
 20
860.00000000000011
  0
LINE
  8
_0-9_
  6
CONTINUOUS
 62
    4
 10
2218.4793623798445
 20
860.00000000000011
 11
2423.0649457060794
 21
860.00000000000011
  0
LINE
  8
_0-9_
  6
CONTINUOUS
 62
    4
 10
2218.4793623798445
 20
1390
 11
2423.0649457060794
 21
1390
  0
LINE
  8
_0-4_
  6
CONTINUOUS
 62
    3
 10
2448.6399999999998
 20
865.00000000000011
 11
2460.6400000000003
 21
865.00000000000011
  0
LINE
  8
_0-3_
  6
CONTINUOUS
 62
    2
 10
2463.6399999999998
 20
1370
 11
2463.6399999999998
 21
1310
  0
LINE
  8
_0-3_
  6
CONTINUOUS
 62
    2
 10
2463.6399999999998
 20
1310
 11
2483.6399999999998
 21
1310
  0
LINE
  8
_0-3_
  6
CONTINUOUS
 62
    2
 10
2483.6399999999998
 20
1370
 11
2483.6399999999998
 21
1310
  0
LINE
  8
_0-3_
  6
CONTINUOUS
 62
    4
 10
2463.6399999999998
 20
1310
 11
2463.6399999999998
 21
877
  0
LINE
  8
_0-3_
  6
CONTINUOUS
 62
    5
 10
2463.6399999999998
 20
877
 11
2463.6399999999998
 21
860.00000000000011
  0
LINE
  8
_0-3_
  6
CONTINUOUS
 62
    4
 10
2467.6400000000003
 20
873
 11
2467.6400000000003
 21
860.00000000000011
  0
LINE
  8
_0-2_
  6
CONTINUOUS
 62
    4
 10
2450.6400000000003
 20
1370
 11
2985.6400000000003
 21
1370
  0
LINE
  8
_0-4_
  6
CONTINUOUS
 62
    3
 10
1049.5
 20
1308.9999999999997
 11
1049.5
 21
865.00000000000011
  0
LINE
  8
_0-4_
  6
CONTINUOUS
 62
    3
 10
1050.5
 20
1308.9999999999997
 11
1050.5
 21
865.00000000000011
  0
LINE
  8
_0-3_
  6
CONTINUOUS
 62
    4
 10
2920.6400000000003
 20
873
 11
2920.6400000000003
 21
860.00000000000011
  0
LINE
  8
_0-3_
  6
CONTINUOUS
 62
    4
 10
2974.6399999999998
 20
1325
 11
2985.6400000000003
 21
1325
  0
LINE
  8
_0-3_
  6
CONTINUOUS
 62
    5
 10
2463.6399999999998
 20
877
 11
2970.6400000000003
 21
877
  0
LINE
  8
_0-3_
  6
CONTINUOUS
 62
    5
 10
2463.6399999999998
 20
860.00000000000011
 11
2970.6400000000003
 21
860.00000000000011
  0
LINE
  8
_0-3_
  6
CONTINUOUS
 62
    4
 10
2467.6400000000003
 20
873
 11
2970.6400000000003
 21
873
  0
LINE
  8
_0-3_
  6
CONTINUOUS
 62
    4
 10
2523.6399999999998
 20
873
 11
2523.6399999999998
 21
860.00000000000011
  0
POINT
  8
_0-9_
 62
    3
 10
2985.6400000000003
 20
1543.07077927
  0
LINE
  8
_0-9_
  6
CONTINUOUS
 62
    4
 10
2985.6400000000003
 20
1473.07077927
 11
2985.6400000000003
 21
1418.07077927
  0
LINE
  8
_0-9_
  6
CONTINUOUS
 62
    4
 10
2985.6400000000003
 20
1553.07077927
 11
2985.6400000000003
 21
1418.07077927
  0
LINE
  8
_0-2_
  6
CONTINUOUS
 62
    4
 10
2985.1400000000003
 20
1370
 11
2985.1400000000003
 21
1389.5
  0
LINE
  8
_0-3_
  6
CONTINUOUS
 62
    5
 10
2985.6400000000003
 20
1390
 11
2985.6400000000003
 21
1370
  0
ARC
  8
_0-2_
  6
CONTINUOUS
 62
    5
 10
2447.6400000000003
 20
1387.9999999999997
 40
2
 50
90
 51
180
  0
LINE
  8
_0-2_
  6
CONTINUOUS
 62
    5
 10
2445.6400000000003
 20
1371
 11
2445.6400000000003
 21
1387.9999999999997
  0
ARC
  8
_0-2_
  6
CONTINUOUS
 62
    5
 10
2446.6400000000003
 20
1371
 40
1
 50
180
 51
270
  0
LINE
  8
_0-2_
  6
CONTINUOUS
 62
    4
 10
2446.1400000000003
 20
1371
 11
2446.1400000000003
 21
1387.9999999999997
  0
ARC
  8
_0-2_
  6
CONTINUOUS
 62
    4
 10
2447.6400000000003
 20
1387.9999999999997
 40
1.5000000000000002
 50
90
 51
180
  0
ARC
  8
_0-2_
  6
CONTINUOUS
 62
    4
 10
2446.6400000000003
 20
1371
 40
0.5
 50
180
 51
270
  0
LINE
  8
_0-2_
  6
CONTINUOUS
 62
    4
 10
2455.6400000000003
 20
1370
 11
2455.6400000000003
 21
1370.4999999999997
  0
LINE
  8
_0-2_
  6
CONTINUOUS
 62
    4
 10
2446.6400000000003
 20
1370.4999999999997
 11
2455.6400000000003
 21
1370.4999999999997
  0
LINE
  8
_0-2_
  6
CONTINUOUS
 62
    5
 10
2446.6400000000003
 20
1370
 11
2455.6400000000003
 21
1370
  0
LINE
  8
_0-2_
  6
CONTINUOUS
 62
    5
 10
2447.6400000000003
 20
1390
 11
2985.6400000000003
 21
1390
  0
LINE
  8
_0-2_
  6
CONTINUOUS
 62
    4
 10
2447.6400000000003
 20
1389.5
 11
2985.1400000000003
 21
1389.5
  0
POINT
  8
_0-9_
 62
    3
 10
2985.6400000000003
 20
1543.07077927
  0
POINT
  8
_0-9_
 62
    3
 10
2445.6400000000003
 20
1543.07077927
  0
LINE
  8
_0-9_
  6
CONTINUOUS
 62
    4
 10
2985.6400000000003
 20
1553.07077927
 11
2985.6400000000003
 21
1418.07077927
  0
LINE
  8
_0-9_
  6
CONTINUOUS
 62
    4
 10
2445.6400000000003
 20
1553.07077927
 11
2445.6400000000003
 21
1418.07077927
  0
LINE
  8
_0-9_
  6
CONTINUOUS
 62
    4
 10
2985.6400000000003
 20
1543.07077927
 11
2445.6400000000003
 21
1543.07077927
  0
TEXT
  8
_0-9_
 62
    7
 10
2682.5399999999999
 20
1543.07077927
 40
35
 41
0.6285714285714286
 50
0
  1
５４０
  0
LINE
  8
_0-4_
  6
CONTINUOUS
 62
    3
 10
2448.6399999999998
 20
1107.682845250483
 11
2448.6399999999998
 21
865.00000000000011
  0
LINE
  8
_0-4_
  6
CONTINUOUS
 62
    3
 10
2460.6400000000003
 20
1107.682845250483
 11
2460.6400000000003
 21
865.00000000000011
  0
LINE
  8
_0-4_
  6
CONTINUOUS
 62
    3
 10
2448.6399999999998
 20
1178.3638323175264
 11
2448.6399999999998
 21
1108.0451910212577
  0
LINE
  8
_0-4_
  6
CONTINUOUS
 62
    3
 10
2460.6400000000003
 20
1178.3638323175264
 11
2460.6400000000003
 21
1107.682845250483
  0
LINE
  8
_0-9_
  6
CONTINUOUS
 62
    4
 10
2298.4793623798445
 20
1365.0000000000002
 11
2423.0649457060794
 21
1365.0000000000002
  0
LINE
  8
_0-9_
  6
CONTINUOUS
 62
    4
 10
2308.4793623798445
 20
1365.0000000000002
 11
2308.4793623798445
 21
865.00000000000011
  0
POINT
  8
_0-9_
 62
    9
 10
2308.4793623798445
 20
865.00000000000011
  0
POINT
  8
_0-9_
 62
    9
 10
2308.4793623798445
 20
1365.0000000000002
  0
POINT
  8
_0-9_
 62
    3
 10
2308.4793623798445
 20
1365.0000000000002
  0
POINT
  8
_0-9_
 62
    3
 10
2308.4793623798445
 20
865.00000000000011
  0
LINE
  8
_0-9_
  6
CONTINUOUS
 62
    4
 10
2298.4793623798445
 20
865.00000000000011
 11
2423.0649457060794
 21
865.00000000000011
  0
LINE
  8
_0-9_
  6
CONTINUOUS
 62
    4
 10
2298.4793623798445
 20
860.00000000000011
 11
2423.0649457060794
 21
860.00000000000011
  0
LINE
  8
_0-9_
  6
CONTINUOUS
 62
    4
 10
2228.4793623798445
 20
720.00000708007814
 11
2228.4793623798445
 21
860.00000000000011
  0
TEXT
  8
_0-9_
 62
    7
 10
2228.4793623798445
 20
756.90000354003916
 40
35
 41
0.6285714285714286
 50
90
  1
１４０
  0
LINE
  8
_0-9_
  6
CONTINUOUS
 62
    4
 10
2148.4793623798445
 20
720
 11
2148.4793623798445
 21
1390
  0
TEXT
  8
_0-9_
 62
    7
 10
2148.4793623798445
 20
1021.8999999999999
 40
35
 41
0.6285714285714286
 50
90
  1
６７０
  0
LINE
  8
_0-3_
  6
CONTINUOUS
 62
    5
 10
2985.6400000000003
 20
1370
 11
2985.6400000000003
 21
720
  0
LINE
  8
_0-3_
  6
CONTINUOUS
 62
    4
 10
2974.6399999999998
 20
1370
 11
2974.6399999999998
 21
720
  0
LINE
  8
_0-3_
  6
CONTINUOUS
 62
    4
 10
2970.6400000000003
 20
1370
 11
2970.6400000000003
 21
720
  0
LINE
  8
_0-3_
  6
CONTINUOUS
 62
    7
 10
2522.6400000000007
 20
860.00000000000011
 11
2522.6400000000007
 21
720
  0
LINE
  8
_0-3_
  6
CONTINUOUS
 62
    5
 10
2505.6400000000003
 20
860.00000000000011
 11
2505.6400000000003
 21
720
  0
LINE
  8
_0-3_
  6
CONTINUOUS
 62
    5
 10
2505.6400000000003
 20
720
 11
2985.6400000000003
 21
720
  0
POINT
  8
_0-9_
 62
    3
 10
700
 20
2726.4576112880458
  0
LINE
  8
_0-9_
  6
CONTINUOUS
 62
    4
 10
700
 20
2736.4576112880458
 11
700
 21
2621.1907792671909
  0
LINE
  8
_0-2_
  6
CONTINUOUS
 62
    5
 10
700
 20
2593.1199999999998
 11
700
 21
2053.1199999999998
  0
LINE
  8
_0-9_
  6
CONTINUOUS
 62
    9
 10
701.99999999999988
 20
569.83656964596832
 11
705.50000000000011
 21
569.83656964596832
  0
POINT
  8
_0-9_
 62
    4
 10
705.50000000000011
 20
569.83656964596832
  0
ARC
  8
_0-5_
  6
CONTINUOUS
 62
    4
 10
710.50000000000011
 20
1363
 40
5
 50
180
 51
270
  0
LINE
  8
_0-4_
  6
CONTINUOUS
 62
    3
 10
705.50000000000011
 20
1365.0000000000002
 11
705.50000000000011
 21
1307
  0
LINE
  8
_0-2_
  6
CONTINUOUS
 62
    5
 10
700
 20
1390
 11
700
 21
1370
  0
LINE
  8
_0-4_
  6
CONTINUOUS
 62
    3
 10
705.50000000000011
 20
1308.9999999999997
 11
705.50000000000011
 21
865.00000000000011
  0
POINT
  8
_0-9_
 62
    3
 10
700
 20
1537.9868858327827
  0
LINE
  8
_0-9_
  6
CONTINUOUS
 62
    4
 10
700
 20
1547.9868858327827
 11
700
 21
1418.07077927
  0
LINE
  8
_0-9_
  6
CONTINUOUS
 62
    4
 10
1571.6393343167023
 20
1365.0000000000002
 11
1437.7348211366279
 21
1365.0000000000002
  0
POINT
  8
_0-9_
 62
    3
 10
1400.0000000000002
 20
2726.4576112880458
  0
LINE
  8
_0-9_
  6
CONTINUOUS
 62
    4
 10
1400.0000000000002
 20
2736.4576112880458
 11
1400.0000000000002
 21
2621.1907792671909
  0
POINT
  8
_0-9_
 62
    3
 10
1641.6393343167023
 20
2593.1199999999998
  0
LINE
  8
_0-9_
  6
CONTINUOUS
 62
    4
 10
1651.6393343167023
 20
2593.1199999999998
 11
1437.7348211366279
 21
2593.1199999999998
  0
LINE
  8
_0-9_
  6
CONTINUOUS
 62
    4
 10
1571.6393343167023
 20
2593.1199999999998
 11
1437.7348211366279
 21
2593.1199999999998
  0
POINT
  8
_0-9_
 62
    3
 10
1721.6393343167023
 20
720
  0
LINE
  8
_0-9_
  6
CONTINUOUS
 62
    4
 10
1731.6393343167023
 20
720
 11
1437.7348211366279
 21
720
  0
LINE
  8
ADD_LINE
  6
DOT
 62
    9
 10
1721.6393343167023
 20
720.00000708007814
 11
1721.6393343167023
 21
666.02048909701602
  0
LINE
  8
ADD_LINE
  6
DOT
 62
    9
 10
1641.6393343167023
 20
720.00000708007814
 11
1641.6393343167023
 21
666.02048909701602
  0
LINE
  8
ADD_LINE
  6
DOT
 62
    9
 10
1561.6393343167023
 20
720.00000708007814
 11
1561.6393343167023
 21
666.02048909701602
  0
POINT
  8
_0-9_
 62
    3
 10
1641.6393343167023
 20
719.99998870849606
  0
LINE
  8
_0-9_
  6
CONTINUOUS
 62
    4
 10
1651.6393343167023
 20
719.99998870849606
 11
1437.7348211366279
 21
719.99998870849606
  0
LINE
  8
_0-2_
  6
CONTINUOUS
 62
    5
 10
1400.0000000000002
 20
2593.1199999999998
 11
1400.0000000000002
 21
2053.1199999999998
  0
POINT
  8
_0-9_
 62
    3
 10
1641.6393343167023
 20
2593.1199999999998
  0
POINT
  8
_0-9_
 62
    3
 10
1641.6393343167023
 20
2053.1199999999998
  0
LINE
  8
_0-9_
  6
CONTINUOUS
 62
    4
 10
1651.6393343167023
 20
2593.1199999999998
 11
1437.7348211366279
 21
2593.1199999999998
  0
LINE
  8
_0-9_
  6
CONTINUOUS
 62
    4
 10
1651.6393343167023
 20
2053.1199999999998
 11
1437.7348211366279
 21
2053.1199999999998
  0
LINE
  8
_0-9_
  6
CONTINUOUS
 62
    4
 10
1641.6393343167023
 20
2593.1199999999998
 11
1641.6393343167023
 21
2053.1199999999998
  0
TEXT
  8
_0-9_
 62
    7
 10
1641.6393343167023
 20
2290.0199999999999
 40
35
 41
0.6285714285714286
 50
90
  1
５４０
  0
POINT
  8
_0-9_
 62
    4
 10
1394.5
 20
569.83656964596832
  0
LINE
  8
_0-9_
  6
CONTINUOUS
 62
    4
 10
1394.5
 20
559.83656964596832
 11
1394.5
 21
690.57072182686044
  0
ARC
  8
_0-5_
  6
CONTINUOUS
 62
    4
 10
1389.5
 20
1363
 40
5
 50
270
 51
0
  0
LINE
  8
_0-4_
  6
CONTINUOUS
 62
    3
 10
1394.5
 20
1365.0000000000002
 11
1394.5
 21
1307
  0
LINE
  8
_0-2_
  6
CONTINUOUS
 62
    5
 10
1400.0000000000002
 20
1390
 11
1400.0000000000002
 21
1370
  0
POINT
  8
_0-9_
 62
    3
 10
1721.6393343167023
 20
1390
  0
LINE
  8
_0-9_
  6
CONTINUOUS
 62
    4
 10
1731.6393343167023
 20
1390
 11
1437.7348211366279
 21
1390
  0
LINE
  8
_0-9_
  6
CONTINUOUS
 62
    4
 10
1571.6393343167023
 20
865.00000000000011
 11
1437.7348211366279
 21
865.00000000000011
  0
POINT
  8
_0-9_
 62
    3
 10
1641.6393343167023
 20
860.00000000000011
  0
LINE
  8
_0-9_
  6
CONTINUOUS
 62
    4
 10
1651.6393343167023
 20
860.00000000000011
 11
1437.7348211366279
 21
860.00000000000011
  0
LINE
  8
_0-4_
  6
CONTINUOUS
 62
    3
 10
1394.5
 20
1308.9999999999997
 11
1394.5
 21
865.00000000000011
  0
POINT
  8
_0-9_
 62
    3
 10
1721.6393343167023
 20
1390
  0
LINE
  8
_0-9_
  6
CONTINUOUS
 62
    4
 10
1731.6393343167023
 20
1390
 11
1437.7348211366279
 21
1390
  0
POINT
  8
_0-9_
 62
    3
 10
1400.0000000000002
 20
1537.9868858327827
  0
LINE
  8
_0-9_
  6
CONTINUOUS
 62
    4
 10
1400.0000000000002
 20
1547.9868858327827
 11
1400.0000000000002
 21
1418.07077927
  0
POINT
  8
_0-9_
 62
    9
 10
1561.6393343167023
 20
1365.0000000000002
  0
POINT
  8
_0-9_
 62
    9
 10
1561.6393343167023
 20
865.00000000000011
  0
LINE
  8
_0-9_
  6
CONTINUOUS
 62
    9
 10
1561.6393343167023
 20
1370
 11
1561.6393343167023
 21
1365.0000000000002
  0
POINT
  8
_0-9_
 62
    3
 10
1561.6393343167023
 20
1365.0000000000002
  0
POINT
  8
_0-9_
 62
    3
 10
1561.6393343167023
 20
865.00000000000011
  0
LINE
  8
_0-9_
  6
CONTINUOUS
 62
    4
 10
1651.6393343167023
 20
1390
 11
1437.7348211366279
 21
1390
  0
LINE
  8
_0-9_
  6
CONTINUOUS
 62
    4
 10
1571.6393343167023
 20
860.00000000000011
 11
1437.7348211366279
 21
860.00000000000011
  0
LINE
  8
_0-9_
  6
CONTINUOUS
 62
    4
 10
1641.6393343167023
 20
719.99998870849606
 11
1641.6393343167023
 21
860.00000000000011
  0
TEXT
  8
_0-9_
 62
    7
 10
1641.6393343167023
 20
756.89999435424806
 40
35
 41
0.6285714285714286
 50
90
  1
１４０
  0
LINE
  8
_0-9_
  6
CONTINUOUS
 62
    4
 10
1721.6393343167023
 20
720
 11
1721.6393343167023
 21
1390
  0
TEXT
  8
_0-9_
 62
    7
 10
1721.6393343167023
 20
1021.8999999999999
 40
35
 41
0.6285714285714286
 50
90
  1
６７０
  0
LINE
  8
_0-9_
  6
CONTINUOUS
 62
    4
 10
700
 20
2726.4576112880458
 11
1400.0000000000002
 21
2726.4576112880458
  0
TEXT
  8
_0-9_
 62
    7
 10
1016.9
 20
2726.4576112880458
 40
35
 41
0.6285714285714286
 50
0
  1
７００
  0
LINE
  8
_0-2_
  6
CONTINUOUS
 62
    5
 10
700
 20
2593.1199999999998
 11
1400.0000000000002
 21
2593.1199999999998
  0
LINE
  8
_0-2_
  6
CONTINUOUS
 62
    5
 10
700
 20
2053.1199999999998
 11
1400.0000000000002
 21
2053.1199999999998
  0
LINE
  8
_0-9_
  6
CONTINUOUS
 62
    4
 10
700
 20
1537.9868858327827
 11
1400.0000000000002
 21
1537.9868858327827
  0
TEXT
  8
_0-9_
 62
    7
 10
1016.9
 20
1537.9868858327827
 40
35
 41
0.6285714285714286
 50
0
  1
７００
  0
LINE
  8
_0-9_
  6
CONTINUOUS
 62
    4
 10
705.50000000000011
 20
569.83656964596832
 11
705.50000000000011
 21
690.57072182686044
  0
POINT
  8
_0-9_
 62
    3
 10
705.50000000000011
 20
569.83656964596832
  0
POINT
  8
_0-9_
 62
    3
 10
1049.5
 20
569.83656964596832
  0
LINE
  8
_0-9_
  6
CONTINUOUS
 62
    4
 10
705.50000000000011
 20
559.83656964596832
 11
705.50000000000011
 21
690.57072182686044
  0
LINE
  8
_0-9_
  6
CONTINUOUS
 62
    4
 10
1049.5
 20
559.83656964596832
 11
1049.5
 21
690.57072182686044
  0
LINE
  8
_0-9_
  6
CONTINUOUS
 62
    4
 10
705.50000000000011
 20
569.83656964596832
 11
1049.5
 21
569.83656964596832
  0
TEXT
  8
_0-9_
 62
    7
 10
844.40000000000009
 20
574.83656964596832
 40
35
 41
0.6285714285714286
 50
0
  1
３４４
  0
POINT
  8
_0-9_
 62
    3
 10
1050.5013705124681
 20
569.83656964596832
  0
POINT
  8
_0-9_
 62
    3
 10
1394.5
 20
569.83656964596832
  0
LINE
  8
_0-9_
  6
CONTINUOUS
 62
    4
 10
1050.5013705124681
 20
559.83656964596832
 11
1050.5013705124681
 21
690.57072182686044
  0
LINE
  8
_0-9_
  6
CONTINUOUS
 62
    4
 10
1394.5
 20
559.83656964596832
 11
1394.5
 21
690.57072182686044
  0
LINE
  8
_0-9_
  6
CONTINUOUS
 62
    4
 10
1050.5013705124681
 20
569.83656964596832
 11
1394.5
 21
569.83656964596832
  0
TEXT
  8
_0-9_
 62
    7
 10
1189.4006852562338
 20
574.83656964596832
 40
35
 41
0.6285714285714286
 50
0
  1
３４４
  0
LINE
  8
_0-4_
  6
CONTINUOUS
 62
    3
 10
705.50000000000011
 20
1365.0000000000002
 11
1049.5
 21
1365.0000000000002
  0
LINE
  8
_0-5_
  6
CONTINUOUS
 62
    4
 10
1049.5
 20
1336.600000000003
 11
705.50000000000011
 21
1336.600000000003
  0
LINE
  8
_0-5_
  6
CONTINUOUS
 62
    4
 10
1049.5
 20
1329.0000000000004
 11
705.50000000000011
 21
1329.0000000000004
  0
LINE
  8
_0-5_
  6
CONTINUOUS
 62
    4
 10
1044.5
 20
1358
 11
710.50000000000011
 21
1358
  0
LINE
  8
_0-4_
  6
CONTINUOUS
 62
    3
 10
705.50000000000011
 20
865.00000000000011
 11
1049.5
 21
865.00000000000011
  0
LINE
  8
_0-4_
  6
CONTINUOUS
 62
    3
 10
1050.5
 20
865.00000000000011
 11
1394.5
 21
865.00000000000011
  0
LINE
  8
_0-4_
  6
CONTINUOUS
 62
    3
 10
1050.5
 20
1365.0000000000002
 11
1394.5
 21
1365.0000000000002
  0
LINE
  8
_0-5_
  6
CONTINUOUS
 62
    4
 10
1394.5
 20
1336.600000000003
 11
1050.5
 21
1336.600000000003
  0
LINE
  8
_0-5_
  6
CONTINUOUS
 62
    4
 10
1394.5
 20
1329.0000000000004
 11
1050.5
 21
1329.0000000000004
  0
LINE
  8
_0-5_
  6
CONTINUOUS
 62
    4
 10
1389.5
 20
1358
 11
1055.5
 21
1358
  0
LINE
  8
_0-2_
  6
CONTINUOUS
 62
    5
 10
700
 20
1370
 11
1400.0000000000002
 21
1370
  0
LINE
  8
_0-2_
  6
CONTINUOUS
 62
    5
 10
700
 20
1390
 11
1400.0000000000002
 21
1390
  0
LINE
  8
_0-4_
  6
CENTER1
 62
    4
 10
1049.5
 20
1365.0000000000002
 11
705.50000000000011
 21
1115.0000000000002
  0
LINE
  8
_0-4_
  6
CENTER1
 62
    4
 10
705.50000000000011
 20
1115.0000000000002
 11
1049.5
 21
865.00000000000011
  0
LINE
  8
_0-4_
  6
CENTER1
 62
    4
 10
1050.5
 20
865.00000000000011
 11
1394.5
 21
1115.0000000000002
  0
LINE
  8
_0-4_
  6
CENTER1
 62
    4
 10
1394.5
 20
1115.0000000000002
 11
1050.5
 21
1365.0000000000002
  0
TEXT
  8
_f-8_
 62
    7
 10
3582
 20
145
 40
30
 41
0.7333333333333332
 50
0
  1
Ｔ．Ｋ
  0
LINE
  8
ADD_LINE
  6
DOT
 62
    9
 10
3685.2421204263209
 20
2200
 11
3700.2421204263209
 21
2200
  0
LINE
  8
ADD_LINE
  6
DOT
 62
    9
 10
3700.2421204263209
 20
2200
 11
3700.2421204263209
 21
2215
  0
LINE
  8
ADD_LINE
  6
DOT
 62
    9
 10
3700.2421204263209
 20
2215
 11
3685.2421204263209
 21
2215
  0
LINE
  8
ADD_LINE
  6
DOT
 62
    9
 10
3685.2421204263209
 20
2215
 11
3685.2421204263209
 21
2200
  0
LINE
  8
_0-d_
  6
CONTINUOUS
 62
    3
 10
4115
 20
2200
 11
4115
 21
1704.9999999999995
  0
LINE
  8
ADD_LINE
  6
DOT
 62
    9
 10
3830.24212042632
 20
2130
 11
3830.24212042632
 21
2010
  0
LINE
  8
_0-d_
  6
CONTINUOUS
 62
    7
 10
3800.2421204263214
 20
2130
 11
3800.2421204263214
 21
2010
  0
TEXT
  8
_0-d_
 62
    7
 10
3830.24212042632
 20
2082.5
 40
35
 41
0.857142857142857
 50
0
  1
ホワイト
  0
TEXT
  8
_0-d_
 62
    7
 10
3830.3411143313564
 20
2023.0893268157801
 40
35
 41
0.857142857142857
 50
0
  1
木　　目
  0
TEXT
  8
_0-d_
 62
    7
 10
3715.7122200188969
 20
2082.5
 40
35
 41
0.857142857142857
 50
0
  1
ＳＷ
  0
TEXT
  8
_0-d_
 62
    7
 10
3720.7036754285845
 20
2023.0893268157801
 40
35
 41
0.857142857142857
 50
0
  1
ＬＧ
  0
LINE
  8
ADD_LINE
  6
DOT
 62
    9
 10
3750.2421204263214
 20
2130
 11
3750.2421204263214
 21
2010
  0
LINE
  8
_0-d_
  6
CONTINUOUS
 62
    3
 10
3700.2421204263214
 20
2200
 11
3700.2421204263214
 21
1704.9999999999995
  0
LINE
  8
_0-d_
  6
CONTINUOUS
 62
    7
 10
3800.2421204263214
 20
2005
 11
3800.2421204263214
 21
1704.9999999999995
  0
LINE
  8
ADD_LINE
  6
DOT
 62
    9
 10
3830.24212042632
 20
2005
 11
3830.24212042632
 21
1704.9999999999995
  0
LINE
  8
ADD_LINE
  6
DOT
 62
    9
 10
3750.2421204263214
 20
2005
 11
3750.2421204263214
 21
1704.9999999999995
  0
TEXT
  8
_0-d_
 62
    7
 10
3715.7122200188969
 20
1957.5
 40
35
 41
0.857142857142857
 50
0
  1
ＵＷ
  0
TEXT
  8
_0-d_
 62
    7
 10
3720.7036754285845
 20
1898.0893268157801
 40
35
 41
0.857142857142857
 50
0
  1
ＷＮ
  0
TEXT
  8
_0-d_
 62
    7
 10
3720.7036754285845
 20
1838.0893268157799
 40
35
 41
0.857142857142857
 50
0
  1
ＢＳ
  0
TEXT
  8
_0-d_
 62
    7
 10
3720.7036754285845
 20
1778.0893268157797
 40
35
 41
0.857142857142857
 50
0
  1
ＰＭ
  0
TEXT
  8
_0-d_
 62
    7
 10
3720.7036754285845
 20
1718.0893268157797
 40
35
 41
0.857142857142857
 50
0
  1
ＭＤ
  0
TEXT
  8
_0-d_
 62
    7
 10
3830.3411143313564
 20
1718.0893268157797
 40
35
 41
0.857142857142857
 50
0
  1
ダークグレイン
  0
TEXT
  8
_0-d_
 62
    7
 10
3830.3411143313564
 20
1778.0893268157797
 40
35
 41
0.857142857142857
 50
0
  1
ペールグレイン
  0
TEXT
  8
_0-d_
 62
    7
 10
3830.341114331356
 20
1838.0893268157799
 40
35
 41
0.857142857142857
 50
0
  1
ブラックストーン
  0
TEXT
  8
_0-d_
 62
    7
 10
3830.24212042632
 20
1897.4999999999997
 40
35
 41
0.857142857142857
 50
0
  1
ｳｨﾝｻﾞｰﾅｯﾄ（艶有）
  0
TEXT
  8
_0-d_
 62
    7
 10
3830.24212042632
 20
1957.5
 40
35
 41
0.857142857142857
 50
0
  1
ｳﾙﾄﾗﾎﾜｲﾄ（艶有）
  0
LINE
  8
_0-d_
  6
CONTINUOUS
 62
    3
 10
4115
 20
2200
 11
3700.2421204263214
 21
2200
  0
LINE
  8
_0-d_
  6
CONTINUOUS
 62
    3
 10
4115
 20
1704.9999999999995
 11
3700.2421204263214
 21
1704.9999999999995
  0
LINE
  8
_0-d_
  6
CONTINUOUS
 62
    7
 10
3700.2421204263214
 20
2070
 11
4115
 21
2070
  0
LINE
  8
_0-d_
  6
CONTINUOUS
 62
    7
 10
4115
 20
2070
 11
3700.2421204263214
 21
2070
  0
LINE
  8
_0-d_
  6
CONTINUOUS
 62
    3
 10
4115
 20
2070
 11
3700.2421204263214
 21
2070
  0
LINE
  8
_0-d_
  6
CONTINUOUS
 62
    3
 10
4115
 20
2010
 11
3700.2421204263214
 21
2010
  0
LINE
  8
ADD_LINE
  6
DOT
 62
    9
 10
3700.2421204263214
 20
2040
 11
4115
 21
2040
  0
LINE
  8
_0-d_
  6
CONTINUOUS
 62
    7
 10
4115
 20
1945
 11
3700.2421204263214
 21
1945
  0
LINE
  8
_0-d_
  6
CONTINUOUS
 62
    3
 10
4115
 20
1945
 11
3700.2421204263214
 21
1945
  0
LINE
  8
_0-d_
  6
CONTINUOUS
 62
    3
 10
4115
 20
1884.9999999999997
 11
3700.2421204263214
 21
1884.9999999999997
  0
LINE
  8
_0-d_
  6
CONTINUOUS
 62
    7
 10
3700.2421204263214
 20
1945
 11
4115
 21
1945
  0
LINE
  8
_0-d_
  6
CONTINUOUS
 62
    7
 10
4115
 20
2010
 11
3700.2421204263214
 21
2010
  0
LINE
  8
_0-d_
  6
CONTINUOUS
 62
    7
 10
4115
 20
2005
 11
3700.2421204263214
 21
2005
  0
LINE
  8
ADD_LINE
  6
DOT
 62
    9
 10
3700.2421204263214
 20
1975
 11
4115
 21
1975
  0
LINE
  8
ADD_LINE
  6
DOT
 62
    9
 10
3700.2421204263214
 20
1914.9999999999997
 11
4115
 21
1914.9999999999997
  0
LINE
  8
_0-d_
  6
CONTINUOUS
 62
    7
 10
4115
 20
1884.9999999999997
 11
3700.2421204263214
 21
1884.9999999999997
  0
LINE
  8
_0-d_
  6
CONTINUOUS
 62
    3
 10
4115
 20
1884.9999999999997
 11
3700.2421204263214
 21
1884.9999999999997
  0
LINE
  8
_0-d_
  6
CONTINUOUS
 62
    3
 10
4115
 20
1824.9999999999995
 11
3700.2421204263214
 21
1824.9999999999995
  0
LINE
  8
_0-d_
  6
CONTINUOUS
 62
    7
 10
3700.2421204263214
 20
1884.9999999999997
 11
4115
 21
1884.9999999999997
  0
LINE
  8
ADD_LINE
  6
DOT
 62
    9
 10
3700.2421204263214
 20
1854.9999999999995
 11
4115
 21
1854.9999999999995
  0
LINE
  8
_0-d_
  6
CONTINUOUS
 62
    7
 10
4115
 20
1824.9999999999995
 11
3700.2421204263214
 21
1824.9999999999995
  0
LINE
  8
_0-d_
  6
CONTINUOUS
 62
    3
 10
4115
 20
1824.9999999999995
 11
3700.2421204263214
 21
1824.9999999999995
  0
LINE
  8
_0-d_
  6
CONTINUOUS
 62
    3
 10
4115
 20
1764.9999999999995
 11
3700.2421204263214
 21
1764.9999999999995
  0
LINE
  8
_0-d_
  6
CONTINUOUS
 62
    7
 10
3700.2421204263214
 20
1824.9999999999995
 11
4115
 21
1824.9999999999995
  0
LINE
  8
ADD_LINE
  6
DOT
 62
    9
 10
3700.2421204263214
 20
1794.9999999999995
 11
4115
 21
1794.9999999999995
  0
LINE
  8
_0-d_
  6
CONTINUOUS
 62
    7
 10
4115
 20
1764.9999999999995
 11
3700.2421204263214
 21
1764.9999999999995
  0
LINE
  8
_0-d_
  6
CONTINUOUS
 62
    3
 10
4115
 20
1764.9999999999995
 11
3700.2421204263214
 21
1764.9999999999995
  0
LINE
  8
_0-d_
  6
CONTINUOUS
 62
    7
 10
3700.2421204263214
 20
1764.9999999999995
 11
4115
 21
1764.9999999999995
  0
LINE
  8
ADD_LINE
  6
DOT
 62
    9
 10
3700.2421204263214
 20
1734.9999999999995
 11
4115
 21
1734.9999999999995
  0
LINE
  8
ADD_LINE
  6
DOT
 62
    9
 10
3700.2421204263214
 20
2100
 11
4115
 21
2100
  0
LINE
  8
_0-d_
  6
CONTINUOUS
 62
    7
 10
4115
 20
2130
 11
3700.2421204263214
 21
2130
  0
LINE
  8
ADD_LINE
  6
DOT
 62
    9
 10
3700.2421204263214
 20
2167.5
 11
4115
 21
2167.5
  0
LINE
  8
_0-d_
  6
CONTINUOUS
 62
    7
 10
4115
 20
2135
 11
3700.2421204263214
 21
2135
  0
LINE
  8
ADD_LINE
  6
DOT
 62
    9
 10
3907.6210602131604
 20
2200
 11
3907.6210602131604
 21
2135
  0
TEXT
  8
_0-d_
 62
    7
 10
3860.6210602131609
 20
2150
 40
35
 41
0.857142857142857
 50
0
  1
扉　色
  0
LINE
  8
_0-9_
  6
CONTINUOUS
 62
    4
 10
1561.6393343167023
 20
1365.0000000000002
 11
1561.6393343167023
 21
865.00000000000011
  0
TEXT
  8
_0-9_
 62
    7
 10
1561.6393343167023
 20
1081.9000000000003
 40
35
 41
0.6285714285714286
 50
90
  1
４９９
  0
TEXT
  8
_0-9_
 62
    7
 10
2308.4793623798445
 20
1081.9
 40
35
 41
0.6285714285714286
 50
90
  1
４９９
  0
LINE
  8
_e-0_
  6
CONTINUOUS
 62
    7
 10
2243.7859302690862
 20
199.51965480360598
 11
2272.9339284698526
 21
210.12865853712995
  0
LINE
  8
_e-0_
  6
CONTINUOUS
 62
    7
 10
2237.6336615052869
 20
191.95952323799758
 11
2287.5529504706664
 21
210.12865853712895
  0
LINE
  8
_e-0_
  6
CONTINUOUS
 62
    7
 10
2234.2067375789874
 20
185.39133607135255
 11
2263.8643430051365
 21
196.18582166608263
  0
LINE
  8
_e-0_
  6
CONTINUOUS
 62
    7
 10
2232.2119570371696
 20
179.34440646785787
 11
2253.9586582709303
 21
187.25955841042662
  0
LINE
  8
_e-0_
  6
CONTINUOUS
 62
    7
 10
2231.2024514117433
 20
173.65608760649877
 11
2249.4574587956462
 21
180.3003669205492
  0
LINE
  8
_e-0_
  6
CONTINUOUS
 62
    7
 10
2230.9649088875535
 20
168.248740335938
 11
2249.3748102388385
 21
174.94939644358311
  0
LINE
  8
_e-0_
  6
CONTINUOUS
 62
    7
 10
2231.3837497438626
 20
163.08029707814966
 11
2249.8286640768283
 21
169.79369686893903
  0
LINE
  8
_e-0_
  6
CONTINUOUS
 62
    7
 10
2232.3950068941753
 20
158.12747571767488
 11
2251.269568818267
 21
164.99725444285843
  0
LINE
  8
_e-0_
  6
CONTINUOUS
 62
    7
 10
2233.9675550564961
 20
153.37894757832998
 11
2253.6625167678694
 21
160.54732740628253
  0
LINE
  8
_e-0_
  6
CONTINUOUS
 62
    7
 10
2236.0955302019183
 20
148.83257832814223
 11
2257.099910488102
 21
156.47754754152117
  0
LINE
  8
_e-0_
  6
CONTINUOUS
 62
    7
 10
2238.7970089264299
 20
144.49494730998821
 11
2261.880116002736
 21
152.89651120014326
  0
LINE
  8
_e-0_
  6
CONTINUOUS
 62
    7
 10
2242.1181877425701
 20
140.38286867935909
 11
2268.9468388985251
 21
150.14769912563821
  0
LINE
  8
_e-0_
  6
CONTINUOUS
 62
    7
 10
2246.1455691824353
 20
136.52782678312661
 11
2284.5651405528201
 21
150.51140717521263
  0
LINE
  8
_e-0_
  6
CONTINUOUS
 62
    7
 10
2251.0351047702797
 20
132.98658333410969
 11
2279.1844822576495
 21
143.2321188526356
  0
LINE
  8
_e-0_
  6
CONTINUOUS
 62
    7
 10
2279.5849322183671
 20
201.90764820482513
 11
2302.1719724714803
 21
210.12865853713066
  0
LINE
  8
_e-0_
  6
CONTINUOUS
 62
    7
 10
2260.5624543087296
 20
189.663143601351
 11
2313.0511299164636
 21
208.76745915862059
  0
LINE
  8
_e-0_
  6
CONTINUOUS
 62
    7
 10
2273.069618849473
 20
188.89449034687174
 11
2313.0511299164636
 21
203.44657029624102
  0
LINE
  8
_e-0_
  6
CONTINUOUS
 62
    7
 10
2287.6886408502887
 20
188.89449034687174
 11
2313.0511299164636
 21
198.12568143386158
  0
LINE
  8
_e-0_
  6
CONTINUOUS
 62
    7
 10
2291.8751463425487
 20
185.09736486926669
 11
2313.0511299164636
 21
192.80479257148215
  0
LINE
  8
_e-0_
  6
CONTINUOUS
 62
    7
 10
2291.8751463425487
 20
179.77647600688726
 11
2313.0511299164636
 21
187.48390370910215
  0
LINE
  8
_e-0_
  6
CONTINUOUS
 62
    7
 10
2291.8751463425487
 20
174.45558714450783
 11
2313.0511299164636
 21
182.16301484672271
  0
LINE
  8
_e-0_
  6
CONTINUOUS
 62
    7
 10
2291.8751463425487
 20
169.13469828212839
 11
2313.0511299164636
 21
176.84212598434328
  0
LINE
  8
_e-0_
  6
CONTINUOUS
 62
    7
 10
2291.8008475696451
 20
163.78676687796939
 11
2313.0511299164636
 21
171.52123712196384
  0
LINE
  8
_e-0_
  6
CONTINUOUS
 62
    7
 10
2290.6539909363364
 20
158.04845633809463
 11
2313.0511299164636
 21
166.20034825958413
  0
LINE
  8
_e-0_
  6
CONTINUOUS
 62
    7
 10
2288.3949962857823
 20
151.90536066354695
 11
2313.0511299164636
 21
160.87945939720469
  0
LINE
  8
_e-0_
  6
CONTINUOUS
 62
    7
 10
2284.4003861827632
 20
145.13055262616916
 11
2311.8608666367176
 21
155.12535013005759
  0
LINE
  8
_e-0_
  6
CONTINUOUS
 62
    7
 10
2275.7463468865153
 20
136.65985105378524
 11
2309.0387712913652
 21
148.77730256370853
  0
LINE
  8
_e-0_
  6
CONTINUOUS
 62
    7
 10
2266.9791201478205
 20
128.14795262145821
 11
2304.1703780821812
 21
141.68446348448242
  0
LINE
  8
_e-0_
  6
CONTINUOUS
 62
    7
 10
2282.1376414569663
 20
128.34431431109749
 11
2292.724458387317
 21
132.19760054937069
  0
LINE
  8
_e-0_
  6
CONTINUOUS
 62
    3
 10
2266.4464672734898
 20
197.56612819678281
 11
2262.3244734593249
 21
194.75680664380121
  0
LINE
  8
_e-0_
  6
CONTINUOUS
 62
    3
 10
2282.3868421919432
 20
128.14795262145651
 11
2266.9204010401704
 21
128.14795262145651
  0
ARC
  8
_e-0_
  6
CONTINUOUS
 62
    3
 10
2282.3868421919432
 20
133.14795262145651
 40
5
 50
270
 51
286.20399351045659
  0
LINE
  8
_e-0_
  6
CONTINUOUS
 62
    3
 10
2313.2288608412613
 20
210.12865853712895
 11
2313.2288608412613
 21
159.77346730566921
  0
ARC
  8
_e-0_
  6
CONTINUOUS
 62
    3
 10
2271.9221657766447
 20
169.15823653484835
 40
42.5
 50
286.20399351045648
 51
345.50707147989851
  0
ARC
  8
_e-0_
  6
CONTINUOUS
 62
    3
 10
2308.2288608412613
 20
159.77346730566921
 40
5
 50
345.50707147989879
 51
0.0000000000000159
  0
ARC
  8
_e-0_
  6
CONTINUOUS
 62
    3
 10
2250.0927387377205
 20
170.4956084628958
 40
40
 50
279.71265316664215
 51
332.69093929010892
  0
ARC
  8
_e-0_
  6
CONTINUOUS
 62
    3
 10
2255.9974857549714
 20
135.99729020443191
 40
5
 50
241.9452628118
 51
279.71265316664221
  0
ARC
  8
_e-0_
  6
CONTINUOUS
 62
    3
 10
2263.2643122966178
 20
205.12865853712895
 40
5
 50
90
 51
106.05338143786269
  0
LINE
  8
_e-0_
  6
CONTINUOUS
 62
    3
 10
2288.4334989152221
 20
210.12865853712881
 11
2278.2181989551913
 21
205.24067691222057
  0
LINE
  8
_e-0_
  6
CONTINUOUS
 62
    3
 10
2278.2181989551913
 20
205.24067691222057
 11
2272.2994583375816
 21
201.4444897898403
  0
LINE
  8
_e-0_
  6
CONTINUOUS
 62
    3
 10
2266.4464672734898
 20
197.56612819678252
 11
2272.2994583375816
 21
201.4444897898403
  0
ARC
  8
_e-0_
  6
CONTINUOUS
 62
    3
 10
2263.2643122966178
 20
205.12865853712895
 40
5
 50
90
 51
106.05338143786269
  0
ARC
  8
_e-0_
  6
CONTINUOUS
 62
    3
 10
2263.2643122966178
 20
205.12865853712895
 40
5
 50
90
 51
106.05338143786269
  0
LINE
  8
_e-0_
  6
CONTINUOUS
 62
    3
 10
2288.4334989152221
 20
210.12865853712895
 11
2263.2643122966178
 21
210.12865853712895
  0
ARC
  8
_e-0_
  6
CONTINUOUS
 62
    3
 10
2273.6342932765642
 20
169.09099082020304
 40
42.5
 50
106.05338143786271
 51
241.94526281180051
  0
ARC
  8
_e-0_
  6
CONTINUOUS
 62
    3
 10
2263.2643122966178
 20
205.12865853712895
 40
5
 50
90
 51
106.05338143786269
  0
LINE
  8
_e-0_
  6
CONTINUOUS
 62
    3
 10
2299.1719829458552
 20
210.12865853712895
 11
2313.2288608412613
 21
210.12865853712895
  0
ARC
  8
_e-0_
  6
CONTINUOUS
 62
    3
 10
2299.1719829458552
 20
205.12865853712895
 40
5
 50
90
 51
112.84552721528329
  0
LINE
  8
_e-0_
  6
CONTINUOUS
 62
    3
 10
2292.0528772673465
 20
188.89449034687004
 11
2269.0173546029673
 21
188.89449034687004
  0
ARC
  8
_e-0_
  6
CONTINUOUS
 62
    3
 10
2269.0173546029673
 20
183.89449034687004
 40
5
 50
90
 51
110.93110431809542
  0
ARC
  8
_e-0_
  6
CONTINUOUS
 62
    3
 10
2254.2292662802574
 20
177.70386452217394
 40
0.5
 50
165.368776721252
 51
224.67319701305797
  0
LINE
  8
_e-0_
  6
CONTINUOUS
 62
    3
 10
2253.8737020580624
 20
177.3523334653737
 11
2253.6837582739271
 21
177.54445650133447
  0
ARC
  8
_e-0_
  6
CONTINUOUS
 62
    3
 10
2276.1622566207875
 20
165.2142768803236
 40
25
 50
110.93110431809527
 51
150.17701829297226
  0
ARC
  8
_e-0_
  6
CONTINUOUS
 62
    3
 10
2254.0393224961217
 20
177.89598755813472
 40
0.5
 50
224.67319701305652
 51
330.17701829297561
  0
LINE
  8
_e-0_
  6
CONTINUOUS
 62
    3
 10
2297.2307430642558
 20
209.73643324104926
 11
2283.5233941157548
 21
203.96157353985984
  0
LINE
  8
_e-0_
  6
CONTINUOUS
 62
    3
 10
2283.5233941157548
 20
203.96157353985984
 11
2277.114528385443
 21
200.4613679180602
  0
ARC
  8
_e-0_
  6
CONTINUOUS
 62
    3
 10
2277.9347719955744
 20
171.51524603489747
 40
25
 50
126.05682261028304
 51
165.36877672125814
  0
ARC
  8
_e-0_
  6
CONTINUOUS
 62
    3
 10
2322.0287923520791
 20
111.11536133502738
 40
100
 50
116.6886898974924
 51
126.03335467187628
  0
LINE
  8
_e-0_
  6
CONTINUOUS
 62
    3
 10
2262.3244734593245
 20
194.75680664380149
 11
2254.3560414411385
 21
187.50185893935451
  0
LINE
  8
_e-0_
  6
CONTINUOUS
 62
    3
 10
2254.3560414411385
 20
187.50185893935451
 11
2252.5108960046536
 21
185.36863764275494
  0
ARC
  8
_e-0_
  6
CONTINUOUS
 62
    3
 10
2274.5493829743445
 20
174.5520307550089
 40
25
 50
169.07329675873063
 51
296.32138326661799
  0
LINE
  8
_e-0_
  6
CONTINUOUS
 62
    3
 10
2252.5108960046536
 20
185.36863764275494
 11
2250.0026210661126
 21
179.29085759512361
  0
LINE
  8
_e-0_
  6
CONTINUOUS
 62
    3
 10
2292.0528772673465
 20
188.89449034687004
 11
2292.0528772673465
 21
164.42425885831653
  0
ARC
  8
_e-0_
  6
CONTINUOUS
 62
    3
 10
2277.2840925230507
 20
144.13090983307199
 40
5
 50
311.4163090429962
 51
326.13300916724881
  0
ARC
  8
_e-0_
  6
CONTINUOUS
 62
    3
 10
2252.285941088533
 20
168.73596234419835
 40
40
 50
316.78132524618342
 51
353.81191653224226
  0
ARC
  8
_e-0_
  6
CONTINUOUS
 62
    3
 10
2240.9001979970053
 20
185.376663785662
 40
60
 50
294.69555798319504
 51
311.41630904299643
  0
ARC
  8
_e-0_
  6
CONTINUOUS
 62
    3
 10
2271.9268153318698
 20
202.98067150791609
 40
75
 50
264.68313230529076
 51
266.17253517307824
  0
ARC
  8
_e-0_
  6
CONTINUOUS
 62
    3
 10
2265.0233680716155
 20
128.80121063143832
 40
0.5
 50
174.02086603460466
 51
264.68313230528985
  0
ARC
  8
_e-0_
  6
CONTINUOUS
 62
    3
 10
2267.0124878650103
 20
128.59287809071872
 40
2.5
 50
114.69555798319522
 51
174.02086603461154
  0
LINE
  8
_e-0_
  6
CONTINUOUS
 62
    7
 10
2376.8899919095943
 20
169.43032024062034
 11
2388.2618909747957
 21
173.56935300743344
  0
LINE
  8
_e-0_
  6
CONTINUOUS
 62
    3
 10
2436.2585234464268
 20
162.63312492519389
 11
2436.2585234464268
 21
136.49018622829544
  0
CIRCLE
  8
_e-0_
  6
CONTINUOUS
 62
    3
 10
2365.5167430510387
 20
162.46293449130519
 40
13.33773795583065
  0
CIRCLE
  8
_e-0_
  6
CONTINUOUS
 62
    3
 10
2365.2330256036634
 20
162.17921704393006
 40
25.691707563897665
  0
LINE
  8
_e-0_
  6
CONTINUOUS
 62
    3
 10
2399.4939617252575
 20
188.26250382114977
 11
2399.4939617252575
 21
136.49018622829544
  0
LINE
  8
_e-0_
  6
CONTINUOUS
 62
    3
 10
2399.4939617252575
 20
136.49018622829544
 11
2414.856930753669
 21
136.49018622829544
  0
LINE
  8
_e-0_
  6
CONTINUOUS
 62
    3
 10
2414.856930753669
 20
136.49018622829544
 11
2414.856930753669
 21
172.63312492519389
  0
LINE
  8
_e-0_
  6
CONTINUOUS
 62
    3
 10
2451.1774760289299
 20
136.49018622829544
 11
2436.2585234464268
 21
136.49018622829544
  0
LINE
  8
_e-0_
  6
CONTINUOUS
 62
    3
 10
2426.2585234464268
 20
172.63312492519389
 11
2414.856930753669
 21
172.63312492519389
  0
ARC
  8
_e-0_
  6
CONTINUOUS
 62
    3
 10
2426.2585234464268
 20
162.63312492519389
 40
10
 50
0
 51
90
  0
LINE
  8
_e-0_
  6
CONTINUOUS
 62
    3
 10
2426.1774760289299
 20
188.26250382114977
 11
2399.4939617252575
 21
188.26250382114977
  0
LINE
  8
_e-0_
  6
CONTINUOUS
 62
    3
 10
2451.1774760289299
 20
163.26250382114977
 11
2451.1774760289299
 21
136.49018622829544
  0
ARC
  8
_e-0_
  6
CONTINUOUS
 62
    3
 10
2426.1774760289299
 20
163.26250382114977
 40
25
 50
0
 51
90
  0
ARC
  8
_e-0_
  6
CONTINUOUS
 62
    3
 10
2486.2452606175229
 20
162.17653762406428
 40
13.33773795583065
 50
23.422555400004949
 51
97.191484740792631
  0
LINE
  8
_e-0_
  6
CONTINUOUS
 62
    3
 10
2474.0065761310629
 20
167.47841048365671
 11
2498.4839451039833
 21
167.47841048365671
  0
ARC
  8
_e-0_
  6
CONTINUOUS
 62
    3
 10
2486.2452606175229
 20
162.17653762406428
 40
13.33773795583065
 50
92.530763017635251
 51
156.57744459999506
  0
ARC
  8
_e-0_
  6
CONTINUOUS
 62
    3
 10
2486.2452606175229
 20
162.17653762406428
 40
13.33773795583065
 50
204.21097500392608
 51
316.0067678116265
  0
LINE
  8
_e-0_
  6
CONTINUOUS
 62
    3
 10
2474.0806890359867
 20
156.70676139316753
 11
2511.5200753562385
 21
156.70676139316753
  0
LINE
  8
_e-0_
  6
CONTINUOUS
 62
    3
 10
2495.8407207162626
 20
152.91249966689292
 11
2508.7092412098891
 21
149.78943472664496
  0
ARC
  8
_e-0_
  6
CONTINUOUS
 62
    3
 10
2486.5655867677851
 20
162.8171899245882
 40
25.691707563897665
 50
346.24110979921471
 51
329.53046432565099
  0
ARC
  8
_e-0_
  6
CONTINUOUS
 62
    3
 10
2546.5135590423406
 20
162.14309845353909
 40
11.089756641867943
 50
94.502189492040685
 51
357.22978420280037
  0
LINE
  8
_e-0_
  6
CONTINUOUS
 62
    3
 10
2556.5903561511468
 20
173.19863581905565
 11
2545.6430442891501
 21
173.19863581905565
  0
LINE
  8
_e-0_
  6
CONTINUOUS
 62
    3
 10
2557.5903561511468
 20
172.19863581905599
 11
2557.5903561511468
 21
161.60712439988742
  0
ARC
  8
_e-0_
  6
CONTINUOUS
 62
    3
 10
2556.5903561511468
 20
172.19863581905599
 40
1
 50
0
 51
90
  0
LINE
  8
_e-0_
  6
CONTINUOUS
 62
    3
 10
2548.9703457355517
 20
188.29058742736094
 11
2557.393077545817
 21
188.29058742736094
  0
ARC
  8
_e-0_
  6
CONTINUOUS
 62
    3
 10
2546.9662856612039
 20
162.67716163604518
 40
25.691707563897665
 50
85.526146014136969
 51
347.40557840019874
  0
LINE
  8
_e-0_
  6
CONTINUOUS
 62
    3
 10
2557.393077545817
 20
209.12865853712901
 11
2557.393077545817
 21
188.29058742736094
  0
ARC
  8
_e-0_
  6
CONTINUOUS
 62
    3
 10
2558.3930775458175
 20
209.12865853712901
 40
1
 50
90
 51
180
  0
LINE
  8
_e-0_
  6
CONTINUOUS
 62
    3
 10
2572.0397992563612
 20
209.12865853712901
 11
2572.0397992563612
 21
157.07513043814088
  0
LINE
  8
_e-0_
  6
CONTINUOUS
 62
    3
 10
2571.0397992563616
 20
210.12865853712895
 11
2558.3930775458175
 21
210.12865853712895
  0
ARC
  8
_e-0_
  6
CONTINUOUS
 62
    3
 10
2571.0397992563616
 20
209.12865853712901
 40
1
 50
0
 51
90
  0
CIRCLE
  8
_e-0_
  6
CONTINUOUS
 62
    3
 10
2607.4932845795829
 20
162.61858771142584
 40
13.33773795583065
  0
CIRCLE
  8
_e-0_
  6
CONTINUOUS
 62
    3
 10
2607.2095671322085
 20
162.334870264051
 40
25.691707563897665
  0
ARC
  8
_e-0_
  6
CONTINUOUS
 62
    3
 10
2361.3056445788688
 20
183.56108960512415
 40
5
 50
90
 51
106.05338143786269
  0
ARC
  8
_e-0_
  6
CONTINUOUS
 62
    3
 10
2361.3056445788688
 20
183.56108960512415
 40
5
 50
90
 51
106.05338143786269
  0
ARC
  8
_e-0_
  6
CONTINUOUS
 62
    3
 10
2361.3056445788688
 20
183.56108960512415
 40
5
 50
90
 51
106.05338143786269
  0
ARC
  8
_e-0_
  6
CONTINUOUS
 62
    3
 10
2361.3056445788688
 20
183.56108960512415
 40
5
 50
90
 51
106.05338143786269
  0
LINE
  8
_e-0_
  6
CONTINUOUS
 62
    7
 10
2346.3470804331013
 20
179.59716504486777
 11
2368.504457793455
 21
187.66179087344028
  0
LINE
  8
_e-0_
  6
CONTINUOUS
 62
    7
 10
2361.2415063076141
 20
179.69740385729494
 11
2376.5205845613304
 21
185.25853354867166
  0
LINE
  8
_e-0_
  6
CONTINUOUS
 62
    7
 10
2341.7511550984831
 20
172.60349616177705
 11
2361.2415063076145
 21
179.69740385729494
  0
LINE
  8
_e-0_
  6
CONTINUOUS
 62
    7
 10
2339.9278406436087
 20
166.61897511011602
 11
2357.2356669233163
 21
172.91850869577984
  0
LINE
  8
_e-0_
  6
CONTINUOUS
 62
    7
 10
2339.5613566552269
 20
161.16469698463049
 11
2352.6357267551816
 21
165.92337853279389
  0
LINE
  8
_e-0_
  6
CONTINUOUS
 62
    7
 10
2340.2704529847874
 20
156.10189807943811
 11
2352.3257797311662
 21
160.489678179473
  0
LINE
  8
_e-0_
  6
CONTINUOUS
 62
    7
 10
2341.9204823498939
 20
151.38157079162255
 11
2353.9794571535694
 21
155.77067867592631
  0
LINE
  8
_e-0_
  6
CONTINUOUS
 62
    7
 10
2344.504128974107
 20
147.00105239631881
 11
2357.564943671171
 21
151.75480018131679
  0
LINE
  8
_e-0_
  6
CONTINUOUS
 62
    7
 10
2348.1361647674007
 20
143.00211645248765
 11
2364.9879954656798
 21
149.13568121955449
  0
LINE
  8
_e-0_
  6
CONTINUOUS
 62
    7
 10
2353.1501292054063
 20
139.50616140121155
 11
2375.2534753949121
 21
147.55112149187283
  0
LINE
  8
_e-0_
  6
CONTINUOUS
 62
    7
 10
2360.6217579801264
 20
136.90472301431668
 11
2375.3071030149835
 21
142.24975148693374
  0
LINE
  8
_e-0_
  6
CONTINUOUS
 62
    7
 10
2375.3071030149835
 20
142.24975148693374
 11
2385.0115931457403
 21
145.78189703325932
  0
LINE
  8
_e-0_
  6
CONTINUOUS
 62
    7
 10
2374.4001538198344
 20
147.24053783828736
 11
2389.0630204872036
 21
152.57738485422379
  0
LINE
  8
_e-0_
  6
CONTINUOUS
 62
    7
 10
2374.4883804748506
 20
152.59353857696169
 11
2390.6567834919524
 21
158.47835601080646
  0
LINE
  8
_e-0_
  6
CONTINUOUS
 62
    7
 10
2378.4912308361022
 20
159.37134582305873
 11
2390.8686178519897
 21
163.87634627483464
  0
LINE
  8
_e-0_
  6
CONTINUOUS
 62
    7
 10
2378.6565159204474
 20
164.75239353630797
 11
2390.0320630429459
 21
168.89275408738967
  0
LINE
  8
_e-0_
  6
CONTINUOUS
 62
    7
 10
2365.1397018509305
 20
175.7953421400316
 11
2381.7641004494612
 21
181.84612839247364
  0
LINE
  8
_e-0_
  6
CONTINUOUS
 62
    7
 10
2373.159843452322
 20
173.39354609515908
 11
2385.5507858710998
 21
177.90348031010012
  0
LINE
  8
_e-0_
  6
CONTINUOUS
 62
    7
 10
2399.4939617252575
 20
182.97838129215278
 11
2414.0119690553083
 21
188.26250382114977
  0
LINE
  8
_e-0_
  6
CONTINUOUS
 62
    7
 10
2399.4939617252575
 20
177.65749242977335
 11
2428.3670442872125
 21
188.16643505383524
  0
LINE
  8
_e-0_
  6
CONTINUOUS
 62
    7
 10
2399.4939617252575
 20
172.33660356739392
 11
2436.7743097980664
 21
185.90554058897964
  0
LINE
  8
_e-0_
  6
CONTINUOUS
 62
    7
 10
2399.4939617252575
 20
167.01571470501448
 11
2442.1110032081055
 21
182.52704927725858
  0
LINE
  8
_e-0_
  6
CONTINUOUS
 62
    7
 10
2399.4939617252575
 20
161.69482584263505
 11
2414.856930753669
 21
167.28648927893004
  0
LINE
  8
_e-0_
  6
CONTINUOUS
 62
    7
 10
2428.7090082786239
 20
172.32823318076128
 11
2445.9244086202584
 21
178.5941264760919
  0
LINE
  8
_e-0_
  6
CONTINUOUS
 62
    7
 10
2399.4939617252575
 20
156.37393698025562
 11
2414.856930753669
 21
161.96560041655061
  0
LINE
  8
_e-0_
  6
CONTINUOUS
 62
    7
 10
2403.3398935234458
 20
136.49018622829544
 11
2414.856930753669
 21
140.68204496703231
  0
LINE
  8
_e-0_
  6
CONTINUOUS
 62
    7
 10
2399.4939617252575
 20
140.41127039311675
 11
2414.856930753669
 21
146.00293382941202
  0
LINE
  8
_e-0_
  6
CONTINUOUS
 62
    7
 10
2399.4939617252575
 20
145.73215925549646
 11
2414.856930753669
 21
151.32382269179146
  0
LINE
  8
_e-0_
  6
CONTINUOUS
 62
    7
 10
2399.4939617252575
 20
151.0530481178759
 11
2414.856930753669
 21
156.64471155417118
  0
LINE
  8
_e-0_
  6
CONTINUOUS
 62
    7
 10
2436.2585234464268
 20
159.113365397844
 11
2451.1774760289299
 21
164.5434200643038
  0
LINE
  8
_e-0_
  6
CONTINUOUS
 62
    7
 10
2436.2585234464268
 20
153.79247653546485
 11
2451.1774760289299
 21
159.22253120192465
  0
LINE
  8
_e-0_
  6
CONTINUOUS
 62
    7
 10
2436.105047565391
 20
164.37839360784892
 11
2450.3687179376247
 21
169.56994505472636
  0
LINE
  8
_e-0_
  6
CONTINUOUS
 62
    7
 10
2436.2585234464268
 20
148.47158767308542
 11
2451.1774760289299
 21
153.90164233954521
  0
LINE
  8
_e-0_
  6
CONTINUOUS
 62
    7
 10
2436.2585234464268
 20
143.1506988107057
 11
2451.1774760289299
 21
148.5807534771655
  0
LINE
  8
_e-0_
  6
CONTINUOUS
 62
    7
 10
2436.2585234464268
 20
137.82980994832598
 11
2451.1774760289299
 21
143.25986461478606
  0
LINE
  8
_e-0_
  6
CONTINUOUS
 62
    7
 10
2447.1969595258929
 20
136.49018622829544
 11
2451.1774760289299
 21
137.93897575240634
  0
LINE
  8
_e-0_
  6
CONTINUOUS
 62
    7
 10
2434.0189024056153
 20
168.93998772771169
 11
2448.6296862431445
 21
174.25787814386978
  0
LINE
  8
_e-0_
  6
CONTINUOUS
 62
    7
 10
2469.1883842563338
 20
181.74063227593791
 11
2487.7135419125711
 21
188.48323824789645
  0
LINE
  8
_e-0_
  6
CONTINUOUS
 62
    7
 10
2463.6316388937825
 20
174.39725350219305
 11
2496.6904887083792
 21
186.42969081378254
  0
LINE
  8
_e-0_
  6
CONTINUOUS
 62
    7
 10
2461.4628990865917
 20
168.28700790412767
 11
2502.2794299488264
 21
183.14301020398858
  0
LINE
  8
_e-0_
  6
CONTINUOUS
 62
    7
 10
2461.4992419870632
 20
162.97934677574687
 11
2473.9894671720021
 21
167.52541696234658
  0
LINE
  8
_e-0_
  6
CONTINUOUS
 62
    7
 10
2492.1508316310541
 20
174.13561303910114
 11
2506.2885679576879
 21
179.28132824190015
  0
LINE
  8
_e-0_
  6
CONTINUOUS
 62
    7
 10
2496.6927278595248
 20
170.46783921101109
 11
2509.1784918759253
 21
175.01228566505261
  0
LINE
  8
_e-0_
  6
CONTINUOUS
 62
    7
 10
2463.2093427036916
 20
158.28088367181749
 11
2488.4793399340492
 21
167.47841048365671
  0
LINE
  8
_e-0_
  6
CONTINUOUS
 62
    7
 10
2462.888879459625
 20
152.84335572742151
 11
2511.1140538755621
 21
170.39588375711787
  0
LINE
  8
_e-0_
  6
CONTINUOUS
 62
    7
 10
2465.300291731432
 20
148.400149154524
 11
2476.9283430630939
 21
152.63241372176821
  0
LINE
  8
_e-0_
  6
CONTINUOUS
 62
    7
 10
2488.1225212892718
 20
156.70676139316753
 11
2512.1228430370119
 21
165.44216412215632
  0
LINE
  8
_e-0_
  6
CONTINUOUS
 62
    7
 10
2502.7415432900879
 20
156.70676139316753
 11
2512.1151621126959
 21
160.11847963195407
  0
LINE
  8
_e-0_
  6
CONTINUOUS
 62
    7
 10
2468.7281740890052
 20
144.32690743686691
 11
2482.5550140975401
 21
149.35946563393486
  0
LINE
  8
_e-0_
  6
CONTINUOUS
 62
    7
 10
2473.4508580764295
 20
140.72493497175571
 11
2502.4973614552441
 21
151.29699761115659
  0
LINE
  8
_e-0_
  6
CONTINUOUS
 62
    7
 10
2480.3069495598269
 20
137.89945933273884
 11
2507.3767895083869
 21
147.75207532036432
  0
LINE
  8
_e-0_
  6
CONTINUOUS
 62
    7
 10
2552.6231690921717
 20
137.61596638527407
 11
2558.7418873346696
 21
139.84299769740459
  0
LINE
  8
_e-0_
  6
CONTINUOUS
 62
    7
 10
2539.4012676014826
 20
138.12447666464265
 11
2568.5435873921023
 21
148.73141362589478
  0
LINE
  8
_e-0_
  6
CONTINUOUS
 62
    7
 10
2532.9976800904732
 20
141.11465028049622
 11
2571.5269734698549
 21
155.13816621790056
  0
LINE
  8
_e-0_
  6
CONTINUOUS
 62
    7
 10
2522.081864354775
 20
169.06695144424446
 11
2572.0397992563612
 21
187.25015271383
  0
LINE
  8
_e-0_
  6
CONTINUOUS
 62
    7
 10
2524.5896829795606
 20
175.30061163898437
 11
2572.0397992563612
 21
192.57104157620943
  0
LINE
  8
_e-0_
  6
CONTINUOUS
 62
    7
 10
2557.393077545817
 20
208.52362629350906
 11
2561.8028673926596
 21
210.12865853712895
  0
LINE
  8
_e-0_
  6
CONTINUOUS
 62
    7
 10
2557.393077545817
 20
203.20273743112977
 11
2572.0397992563612
 21
208.53370816334788
  0
LINE
  8
_e-0_
  6
CONTINUOUS
 62
    7
 10
2557.393077545817
 20
197.88184856875005
 11
2572.0397992563612
 21
203.21281930096859
  0
LINE
  8
_e-0_
  6
CONTINUOUS
 62
    7
 10
2557.393077545817
 20
192.56095970637034
 11
2572.0397992563612
 21
197.89193043858915
  0
LINE
  8
_e-0_
  6
CONTINUOUS
 62
    7
 10
2531.3600319802562
 20
183.08570601321093
 11
2545.8030101140193
 21
188.34252014805827
  0
LINE
  8
_e-0_
  6
CONTINUOUS
 62
    7
 10
2548.0525958796984
 20
173.19863581905565
 11
2572.0397992563612
 21
181.92926385145057
  0
LINE
  8
_e-0_
  6
CONTINUOUS
 62
    7
 10
2521.2864022906337
 20
163.45653806802943
 11
2538.3752084417083
 21
169.67635484616607
  0
LINE
  8
_e-0_
  6
CONTINUOUS
 62
    7
 10
2521.6554107736328
 20
158.26995730965364
 11
2535.4846691325356
 21
163.30339571427089
  0
LINE
  8
_e-0_
  6
CONTINUOUS
 62
    7
 10
2522.9940114609526
 20
153.43627925302655
 11
2536.1404517985765
 21
158.22119222247806
  0
LINE
  8
_e-0_
  6
CONTINUOUS
 62
    7
 10
2525.2563435788042
 20
148.93881194156961
 11
2539.0354883761392
 21
153.95401050144357
  0
LINE
  8
_e-0_
  6
CONTINUOUS
 62
    7
 10
2528.5117312327797
 20
144.80278728623488
 11
2545.7561370732082
 21
151.07923771975691
  0
LINE
  8
_e-0_
  6
CONTINUOUS
 62
    7
 10
2554.2054905278623
 20
154.15455087604527
 11
2572.0397992563612
 21
160.64570840193255
  0
LINE
  8
_e-0_
  6
CONTINUOUS
 62
    7
 10
2557.505937791675
 20
160.67670430221767
 11
2572.0397992563612
 21
165.96659726431198
  0
LINE
  8
_e-0_
  6
CONTINUOUS
 62
    7
 10
2557.5903561511468
 20
166.02831893467055
 11
2572.0397992563612
 21
171.28748612669141
  0
LINE
  8
_e-0_
  6
CONTINUOUS
 62
    7
 10
2557.5903561511468
 20
171.34920779704998
 11
2572.0397992563612
 21
176.60837498907085
  0
LINE
  8
_e-0_
  6
CONTINUOUS
 62
    7
 10
2595.1467628188602
 20
185.01862193009401
 11
2601.869376832742
 21
187.46545332760774
  0
LINE
  8
_e-0_
  6
CONTINUOUS
 62
    7
 10
2585.5936460434281
 20
176.22068291698809
 11
2614.8426950414304
 21
186.86646613285404
  0
LINE
  8
_e-0_
  6
CONTINUOUS
 62
    7
 10
2608.5181174973604
 20
136.67650840108905
 11
2622.7000364868072
 21
141.83830477802189
  0
LINE
  8
_e-0_
  6
CONTINUOUS
 62
    7
 10
2598.2444761483161
 20
138.25809761488983
 11
2629.5534764025942
 21
149.65364177207987
  0
LINE
  8
_e-0_
  6
CONTINUOUS
 62
    7
 10
2582.6330921261528
 20
169.82224055178022
 11
2621.2234503919626
 21
183.86798229020314
  0
LINE
  8
_e-0_
  6
CONTINUOUS
 62
    7
 10
2592.2968185805402
 20
141.41421615899105
 11
2632.0809325371146
 21
155.89444943583799
  0
LINE
  8
_e-0_
  6
CONTINUOUS
 62
    7
 10
2588.0695495912832
 20
145.19650493704432
 11
2602.246111940276
 21
150.35635165629656
  0
LINE
  8
_e-0_
  6
CONTINUOUS
 62
    7
 10
2585.0094293819529
 20
149.40360112995108
 11
2597.3909335115822
 21
153.91010008858017
  0
LINE
  8
_e-0_
  6
CONTINUOUS
 62
    7
 10
2582.919829983693
 20
153.96393800982366
 11
2594.8695180063709
 21
158.31326875884542
  0
LINE
  8
_e-0_
  6
CONTINUOUS
 62
    7
 10
2581.7538748691904
 20
158.86045391603374
 11
2594.1774270088017
 21
163.38225709870641
  0
LINE
  8
_e-0_
  6
CONTINUOUS
 62
    7
 10
2581.5798124660104
 20
164.11798924475078
 11
2595.9853391150809
 21
169.36117215394091
  0
LINE
  8
_e-0_
  6
CONTINUOUS
 62
    7
 10
2611.9748325174678
 20
175.18087181340547
 11
2625.6969314853613
 21
180.17530738937352
  0
LINE
  8
_e-0_
  6
CONTINUOUS
 62
    7
 10
2617.2029460570038
 20
171.76286066078091
 11
2628.9430705154381
 21
176.03591651023151
  0
LINE
  8
_e-0_
  6
CONTINUOUS
 62
    7
 10
2619.9310564926913
 20
167.43492279278257
 11
2631.1973168341919
 21
171.53550620858254
  0
LINE
  8
_e-0_
  6
CONTINUOUS
 62
    7
 10
2620.8298424207368
 20
162.44116525518904
 11
2632.5279188691888
 21
166.69891688059578
  0
LINE
  8
_e-0_
  6
CONTINUOUS
 62
    7
 10
2619.394865425299
 20
156.5979874796136
 11
2632.8880000931144
 21
161.50908686564349
  0
LINE
  8
ADD_LINE
  6
DOT
 62
    9
 10
2339.5613566552269
 20
120
 11
2339.5613566552269
 21
220
  0
LINE
  8
ADD_LINE
  6
DOT
 62
    9
 10
2486.2246783741707
 20
220
 11
2486.2246783741707
 21
120
  0
LINE
  8
ADD_LINE
  6
DOT
 62
    9
 10
2632.8880000931144
 20
120
 11
2632.8880000931144
 21
220
  0
LINE
  8
ADD_LINE
  6
DOT
 62
    9
 10
2220
 20
220
 11
2220
 21
120
  0
LINE
  8
ADD_LINE
  6
DOT
 62
    9
 10
2710
 20
220
 11
2710
 21
120
  0
TEXT
  8
_e-0_
 62
    7
 10
2642.8586825750176
 20
180.56247057449553
 40
35
 41
0.5714285714285713
 50
0
  1
ワンド
  0
TEXT
  8
_e-0_
 62
    7
 10
2649.7045100149039
 20
147.0179161190498
 40
30
 41
0.6666666666666666
 50
0
  1
株式
  0
TEXT
  8
_e-0_
 62
    7
 10
2649.0199272709155
 20
118.95002361551377
 40
30
 41
0.6666666666666666
 50
0
  1
会社
  0
TEXT
  8
_f-8_
 62
    7
 10
940.09900990099004
 20
138.8613861386139
 40
45
 41
0.8
 50
0
  1
コンロ台
  0
LINE
  8
_0-3_
  6
DASHED1
 62
    2
 10
712.50000000000056
 20
860.00000000000011
 11
712.50000000000056
 21
720
  0
LINE
  8
_0-3_
  6
DASHED1
 62
    2
 10
1387.5000000000002
 20
860.00000000000011
 11
1387.5000000000002
 21
720
  0
LINE
  8
_0-3_
  6
DASHED1
 62
    2
 10
712.00000000000045
 20
1370
 11
712.00000000000045
 21
860.00000000000011
  0
LINE
  8
_0-3_
  6
CONTINUOUS
 62
    5
 10
700
 20
1370
 11
700
 21
720
  0
LINE
  8
_0-3_
  6
CONTINUOUS
 62
    5
 10
1400.0000000000002
 20
1370
 11
1400.0000000000002
 21
720
  0
LINE
  8
_0-3_
  6
DASHED1
 62
    2
 10
1388.0000000000004
 20
1370
 11
1388.0000000000004
 21
860.00000000000011
  0
LINE
  8
_0-3_
  6
DASHED1
 62
    2
 10
1388.0000000000004
 20
1310
 11
712.00000000000045
 21
1310
  0
LINE
  8
_0-3_
  6
DASHED1
 62
    2
 10
1388.0000000000004
 20
877
 11
712.00000000000045
 21
877
  0
LINE
  8
_0-3_
  6
CONTINUOUS
 62
    4
 10
700
 20
860.00000000000011
 11
1400.0000000000002
 21
860.00000000000011
  0
LINE
  8
_0-3_
  6
CONTINUOUS
 62
    5
 10
700
 20
720
 11
1400.0000000000002
 21
720
  0
TEXT
  8
_f-8_
 62
    7
 10
1600.09900990099
 20
138.8613861386139
 40
45
 41
0.6666666666666666
 50
0
  1
ＫＴＤ５－８５－７０Ｇ
  0
TEXT
  8
_f-8_
 62
    7
 10
2861
 20
142.5
 40
35
 41
0.5714285714285713
 50
0
  1
１／１０
  0
TEXT
  8
_f-8_
 62
    7
 10
3061.7349456257102
 20
138.54000973867869
 40
35
 41
0.5714285714285713
 50
0
  1
２０２３.０５.０１
  0
ENDSEC
  0
EOF
