  0
SECTION
  2
HEADER
  9
$ACADVER
  1
AC1009
  9
$INSBASE
 10
0
 20
0
 30
0
  9
$EXTMIN
 10
0
 20
0
  9
$EXTMAX
 10
4200
 20
2970
  9
$LIMMIN
 10
0
 20
0
  9
$LIMMAX
 10
4200
 20
2970
  9
$LTSCALE
 40
10
  0
ENDSEC
  0
SECTION
  2
TABLES
  0
TABLE
  2
LTYPE
 70
     9
  0
LTYPE
  2
CONTINUOUS
 70
    64
  3
実線
 72
    65
 73
     0
 40
0.0
  0
LTYPE
  2
DASHED1
 70
    64
  3
--  --  --  --  --  --  --  --  
 72
    65
 73
     2
 40
2.5
 49
1.25
 49
-1.25
  0
LTYPE
  2
DASHED2
 70
    64
  3
----    ----    ----    ----    
 72
    65
 73
     2
 40
5.0
 49
2.5
 49
-2.5
  0
LTYPE
  2
DASHED3
 70
    64
  3
------  ------  ------  ------  
 72
    65
 73
     2
 40
5.0
 49
3.75
 49
-1.25
  0
LTYPE
  2
CENTER1
 70
    64
  3
----- - ----- - ----- - ----- - 
 72
    65
 73
     4
 40
10.0
 49
6.25
 49
-1.25
 49
1.25
 49
-1.25
  0
LTYPE
  2
CENTER2
 70
    64
  3
----------  --  ----------  --  
 72
    65
 73
     4
 40
20.0
 49
12.5
 49
-2.5
 49
2.5
 49
-2.5
  0
LTYPE
  2
PHANTOM1
 70
    64
  3
--- - - --- - - --- - - --- - - 
 72
    65
 73
     6
 40
10.0
 49
3.25
 49
-1.25
 49
1.25
 49
-1.25
 49
1.25
 49
-1.25
  0
LTYPE
  2
PHANTOM2
 70
    64
  3
--------  -  -  --------  -  -  
 72
    65
 73
     6
 40
20.0
 49
10.0
 49
-2.5
 49
1.25
 49
-2.5
 49
1.25
 49
-2.5
  0
LTYPE
  2
DOT
 70
    64
  3
-   -   -   -   -   -   -   -   
 72
    65
 73
     2
 40
2.5
 49
0.625
 49
-1.875
  0
LTYPE
  2
DUMMY
 70
    64
  3
ダミー
 72
    65
 73
     0
 40
0.0
  0
LTYPE
  2
RAND1
 70
    64
  3
ランダム線1
 72
    65
 73
     4
 40
10.0
 49
1.0
 49
-2.0
 49
3.0
 49
-4.0
  0
LTYPE
  2
RAND2
 70
    64
  3
ランダム線2
 72
    65
 73
     4
 40
14.0
 49
2.0
 49
-3.0
 49
4.0
 49
-5.0
  0
LTYPE
  2
RAND3
 70
    64
  3
ランダム線3
 72
    65
 73
     4
 40
18.0
 49
3.0
 49
-4.0
 49
5.0
 49
-6.0
  0
LTYPE
  2
RAND4
 70
    64
  3
ランダム線4
 72
    65
 73
     4
 40
22.0
 49
4.0
 49
-5.0
 49
6.0
 49
-7.0
  0
LTYPE
  2
RAND5
 70
    64
  3
ランダム線5
 72
    65
 73
     4
 40
26.0
 49
5.0
 49
-6.0
 49
7.0
 49
-8.0
  0
LTYPE
  2
LONG1
 70
    64
  3
----------  --  ----------  --  
 72
    65
 73
     4
 40
40.0
 49
32.5
 49
-2.5
 49
2.5
 49
-2.5
  0
LTYPE
  2
LONG2
 70
    64
  3
--------  -  -  --------  -  -  
 72
    65
 73
     6
 40
40.0
 49
30.0
 49
-2.5
 49
1.25
 49
-2.5
 49
1.25
 49
-2.5
  0
LTYPE
  2
LONG3
 70
    64
  3
+++++++++++++++..+++++++++++++++
 72
    65
 73
     2
 40
40.0
 49
37.5
 49
-2.5
  0
LTYPE
  2
LONG4
 70
    64
  3
+++++++++++++++..+++++++++++++++
 72
    65
 73
     2
 40
80.0
 49
75.0
 49
-5.0
  0
LTYPE
  2
LONG5
 70
    64
  3
----------  --  ----------  --  
 72
    65
 73
     4
 40
60.0
 49
37.5
 49
-7.5
 49
7.5
 49
-7.5
  0
LTYPE
  2
dashed
 70
   64
  3
-------   -------------   ------
 72
   65
 73
    2
 40
7.5
 49
6
 49
-1.5
  0
LTYPE
  2
dashed_spaced
 70
   64
  3
----        --------        ----
 72
   65
 73
    2
 40
12
 49
6
 49
-6
  0
LTYPE
  2
long_dashed_dotted
 70
   64
  3
------------- --- --------------
 72
   65
 73
    4
 40
15.25
 49
12
 49
-1.5
 49
0.25
 49
-1.5
  0
LTYPE
  2
long_dashed_double-dotted
 70
   64
  3
----------- --- --- ------------
 72
   65
 73
    6
 40
17
 49
12
 49
-1.5
 49
0.25
 49
-1.5
 49
0.25
 49
-1.5
  0
LTYPE
  2
long_dashed_triplicate-dotted
 70
   64
  3
--------- --- --- --- ----------
 72
   65
 73
    8
 40
18.75
 49
12
 49
-1.5
 49
0.25
 49
-1.5
 49
0.25
 49
-1.5
 49
0.25
 49
-1.5
  0
LTYPE
  2
dotted
 70
   64
  3
   -       -       -       -    
 72
   65
 73
    2
 40
1.75
 49
0.25
 49
-1.5
  0
LTYPE
  2
chain
 70
   64
  3
-------------- -- --------------
 72
   65
 73
    4
 40
18.5
 49
12
 49
-1.5
 49
3.5
 49
-1.5
  0
LTYPE
  2
chain_double_dash
 70
   64
  3
------------ -- -- -------------
 72
   65
 73
    6
 40
23.5
 49
12
 49
-1.5
 49
3.5
 49
-1.5
 49
3.5
 49
-1.5
  0
LTYPE
  2
dashed_dotted
 70
   64
  3
-----------     -     ----------
 72
   65
 73
    4
 40
9.25
 49
6
 49
-1.5
 49
0.25
 49
-1.5
  0
LTYPE
  2
double-dashed_dotted
 70
   64
  3
------   -----------   -   -----
 72
   65
 73
    6
 40
16.75
 49
6
 49
-1.5
 49
6
 49
-1.5
 49
0.25
 49
-1.5
  0
LTYPE
  2
dashed_double-dotted
 70
   64
  3
---------    -    -    ---------
 72
   65
 73
    6
 40
11
 49
6
 49
-1.5
 49
0.25
 49
-1.5
 49
0.25
 49
-1.5
  0
LTYPE
  2
double-dashed_double-dotted
 70
   64
  3
-----   ---------   -   -   ----
 72
   65
 73
    8
 40
18.5
 49
6
 49
-1.5
 49
6
 49
-1.5
 49
0.25
 49
-1.5
 49
0.25
 49
-1.5
  0
LTYPE
  2
dashed_triplicate-dotted
 70
   64
  3
-------    -    -    -    ------
 72
   65
 73
    8
 40
12.75
 49
6
 49
-1.5
 49
0.25
 49
-1.5
 49
0.25
 49
-1.5
 49
0.25
 49
-1.5
  0
LTYPE
  2
double-dashed_triplicate-dotted
 70
   64
  3
-----  ---------  -  -  -  -----
 72
   65
 73
   10
 40
20.25
 49
6
 49
-1.5
 49
6
 49
-1.5
 49
0.25
 49
-1.5
 49
0.25
 49
-1.5
 49
0.25
 49
-1.5
  0
LTYPE
  2
undefined
 70
   64
  3
--------------------------------
 72
   65
 73
    0
 40
0
  0
LTYPE
  2
_
 70
   64
  3
                                
 72
   65
 73
    0
 40
0
  0
LTYPE
  2
__18
 70
   64
  3
                                
 72
   65
 73
    0
 40
0
  0
LTYPE
  2
__19
 70
   64
  3
                                
 72
   65
 73
    0
 40
0
  0
LTYPE
  2
__20
 70
   64
  3
                                
 72
   65
 73
    0
 40
0
  0
LTYPE
  2
__21
 70
   64
  3
                                
 72
   65
 73
    0
 40
0
  0
LTYPE
  2
__22
 70
   64
  3
                                
 72
   65
 73
    0
 40
0
  0
LTYPE
  2
__23
 70
   64
  3
                                
 72
   65
 73
    0
 40
0
  0
LTYPE
  2
__24
 70
   64
  3
                                
 72
   65
 73
    0
 40
0
  0
LTYPE
  2
__25
 70
   64
  3
                                
 72
   65
 73
    0
 40
0
  0
LTYPE
  2
__26
 70
   64
  3
                                
 72
   65
 73
    0
 40
0
  0
LTYPE
  2
__27
 70
   64
  3
                                
 72
   65
 73
    0
 40
0
  0
LTYPE
  2
__28
 70
   64
  3
                                
 72
   65
 73
    0
 40
0
  0
LTYPE
  2
__29
 70
   64
  3
                                
 72
   65
 73
    0
 40
0
  0
LTYPE
  2
__30
 70
   64
  3
                                
 72
   65
 73
    0
 40
0
  0
LTYPE
  2
__31
 70
   64
  3
                                
 72
   65
 73
    0
 40
0
  0
LTYPE
  2
__32
 70
   64
  3
                                
 72
   65
 73
    0
 40
0
  0
ENDTAB
  0
TABLE
  2
STYLE
  5
3
100
AcDbSymbolTable
 70
     1
  0
STYLE
  5
10
100
AcDbSymbolTableRecord
100
AcDbTextStyleTableRecord
  2
STANDARD
 70
     0
 40
0.0
 41
1.0
 50
0.0
 71
     0
 42
0.2
  3
txt
  4
bigfont.shx
  0
STYLE
  5
26
100
AcDbSymbolTableRecord
100
AcDbTextStyleTableRecord
  2
TATEGAKI
 70
    68
 40
0.0
 41
1.0
 50
0.0
 71
     0
 42
1.0
  3
txt
  4
bigfont.shx
  0
ENDTAB
  0
TABLE
  2
LAYER
 70
   16
  0
LAYER
  2
_0-0_
 70
   64
 62
    7
  6
CONTINUOUS
  0
LAYER
  2
_0-2_
 70
   64
 62
    7
  6
CONTINUOUS
  0
LAYER
  2
_0-3_
 70
   64
 62
    7
  6
CONTINUOUS
  0
LAYER
  2
_0-4_
 70
   64
 62
    7
  6
CONTINUOUS
  0
LAYER
  2
_0-5_
 70
   64
 62
    7
  6
CONTINUOUS
  0
LAYER
  2
_0-6_
 70
   64
 62
    7
  6
CONTINUOUS
  0
LAYER
  2
_0-8_
 70
   64
 62
    7
  6
CONTINUOUS
  0
LAYER
  2
_0-9_
 70
   64
 62
    7
  6
CONTINUOUS
  0
LAYER
  2
_0-d_
 70
   64
 62
    7
  6
CONTINUOUS
  0
LAYER
  2
_e-0_
 70
   64
 62
    7
  6
CONTINUOUS
  0
LAYER
  2
_f-7_
 70
   64
 62
    7
  6
CONTINUOUS
  0
LAYER
  2
_f-8_
 70
   64
 62
    7
  6
CONTINUOUS
  0
LAYER
  2
_f-9_
 70
   64
 62
    7
  6
CONTINUOUS
  0
LAYER
  2
_f-d_固定文字
 70
   64
 62
    7
  6
CONTINUOUS
  0
LAYER
  2
_f-f_ADD_LINE
 70
   64
 62
    7
  6
CONTINUOUS
  0
LAYER
  2
ADD_LINE
 70
   64
 62
    7
  6
CONTINUOUS
  0
ENDTAB
  0
ENDSEC
  0
SECTION
  2
BLOCKS
  0
ENDSEC
  0
SECTION
  2
ENTITIES
  0
LINE
  8
_0-9_
  6
CONTINUOUS
 62
    4
 10
1390
 20
2660
 11
1216.1773520539472
 21
2660
  0
LINE
  8
ADD_LINE
  6
DOT
 62
    9
 10
149.98500000000007
 20
100
 11
149.98500000000007
 21
65
  0
LINE
  8
ADD_LINE
  6
DOT
 62
    9
 10
179.98500000000007
 20
100
 11
179.98500000000007
 21
65.000000646005844
  0
LINE
  8
ADD_LINE
  6
DOT
 62
    9
 10
150.01499999999992
 20
65
 11
120.02999999999985
 21
65
  0
LINE
  8
ADD_LINE
  6
DOT
 62
    9
 10
74.98500000000007
 20
55
 11
4144.9850000000005
 21
55
  0
LINE
  8
ADD_LINE
  6
DOT
 62
    9
 10
4130
 20
100
 11
4130
 21
65.00000323002979
  0
LINE
  8
ADD_LINE
  6
DOT
 62
    9
 10
4100
 20
100
 11
4100
 21
65.00000323002979
  0
LINE
  8
ADD_LINE
  6
DOT
 62
    9
 10
4070
 20
100
 11
4070
 21
65.00000323002979
  0
LINE
  8
ADD_LINE
  6
DOT
 62
    9
 10
4040
 20
100
 11
4040
 21
65.00000323002979
  0
LINE
  8
ADD_LINE
  6
DOT
 62
    9
 10
4010
 20
100
 11
4010
 21
65.00000323002979
  0
LINE
  8
ADD_LINE
  6
DOT
 62
    9
 10
3980
 20
100
 11
3980
 21
65
  0
LINE
  8
ADD_LINE
  6
DOT
 62
    9
 10
74.98500000000007
 20
2875
 11
74.98500000000007
 21
55
  0
LINE
  8
ADD_LINE
  6
DOT
 62
    9
 10
120.02999999999985
 20
65
 11
120.02999999999985
 21
2860
  0
LINE
  8
ADD_LINE
  6
DOT
 62
    9
 10
4144.9850000000005
 20
2875
 11
74.98500000000007
 21
2875
  0
LINE
  8
ADD_LINE
  6
DOT
 62
    9
 10
4144.9850000000005
 20
55
 11
4144.9850000000005
 21
2875
  0
LINE
  8
_f-9_
  6
CONTINUOUS
 62
    7
 10
630
 20
120
 11
630
 21
220
  0
LINE
  8
ADD_LINE
  6
DOT
 62
    9
 10
170
 20
120
 11
170
 21
220
  0
LINE
  8
ADD_LINE
  6
DOT
 62
    9
 10
610
 20
120
 11
610
 21
220
  0
LINE
  8
_f-9_
  6
CONTINUOUS
 62
    7
 10
170
 20
120
 11
610
 21
120
  0
LINE
  8
_f-9_
  6
CONTINUOUS
 62
    7
 10
170
 20
220
 11
610
 21
220
  0
LINE
  8
_f-9_
  6
CONTINUOUS
 62
    7
 10
1420
 20
120
 11
1420
 21
220
  0
LINE
  8
_f-9_
  6
CONTINUOUS
 62
    7
 10
2210
 20
120
 11
2210
 21
220
  0
LINE
  8
_f-9_
  6
CONTINUOUS
 62
    7
 10
2220
 20
120
 11
2220
 21
220
  0
LINE
  8
_f-9_
  6
CONTINUOUS
 62
    7
 10
630
 20
120
 11
2210
 21
120
  0
LINE
  8
_f-9_
  6
CONTINUOUS
 62
    7
 10
630
 20
220
 11
2210
 21
220
  0
LINE
  8
_f-9_
  6
CONTINUOUS
 62
    7
 10
2710
 20
120
 11
2710
 21
220
  0
LINE
  8
_f-9_
  6
CONTINUOUS
 62
    7
 10
2720
 20
120
 11
2720
 21
220
  0
LINE
  8
_f-9_
  6
CONTINUOUS
 62
    7
 10
2220
 20
120
 11
2710
 21
120
  0
LINE
  8
_f-9_
  6
CONTINUOUS
 62
    7
 10
2220
 20
220
 11
2710
 21
220
  0
LINE
  8
_f-9_
  6
CONTINUOUS
 62
    7
 10
3020
 20
120
 11
3020
 21
220
  0
LINE
  8
_f-9_
  6
CONTINUOUS
 62
    7
 10
3320
 20
120
 11
3320
 21
220
  0
LINE
  8
_f-9_
  6
CONTINUOUS
 62
    7
 10
3700
 20
120
 11
3700
 21
220
  0
LINE
  8
_f-9_
  6
CONTINUOUS
 62
    7
 10
2720
 20
120
 11
4110
 21
120
  0
LINE
  8
_f-9_
  6
CONTINUOUS
 62
    7
 10
4110
 20
120
 11
4110
 21
220
  0
LINE
  8
_f-9_
  6
CONTINUOUS
 62
    7
 10
2720
 20
220
 11
4110
 21
220
  0
LINE
  8
_0-0_
  6
CONTINUOUS
 62
    7
 10
4130
 20
2860
 11
4130
 21
100
  0
LINE
  8
_0-0_
  6
CONTINUOUS
 62
    7
 10
150
 20
2860
 11
4130
 21
2860
  0
LINE
  8
_0-0_
  6
CONTINUOUS
 62
    7
 10
150
 20
100
 11
4130
 21
100
  0
LINE
  8
_0-0_
  6
CONTINUOUS
 62
    7
 10
150
 20
100
 11
150
 21
2860
  0
LINE
  8
ADD_LINE
  6
DOT
 62
    9
 10
630
 20
200
 11
2210
 21
200
  0
LINE
  8
ADD_LINE
  6
DOT
 62
    9
 10
2720
 20
200
 11
4110
 21
200
  0
LINE
  8
ADD_LINE
  6
DOT
 62
    9
 10
2740
 20
120
 11
2740
 21
220
  0
LINE
  8
ADD_LINE
  6
DOT
 62
    9
 10
3040
 20
120
 11
3040
 21
220
  0
LINE
  8
ADD_LINE
  6
DOT
 62
    9
 10
3340
 20
120
 11
3340
 21
220
  0
LINE
  8
ADD_LINE
  6
DOT
 62
    9
 10
3720
 20
120
 11
3720
 21
220
  0
LINE
  8
ADD_LINE
  6
DOT
 62
    9
 10
1445
 20
120
 11
1445
 21
220
  0
LINE
  8
ADD_LINE
  6
DOT
 62
    9
 10
655
 20
120
 11
655
 21
220
  0
LINE
  8
ADD_LINE
  6
DOT
 62
    9
 10
3660
 20
120
 11
3660
 21
220
  0
LINE
  8
ADD_LINE
  6
DOT
 62
    9
 10
2720
 20
160
 11
4110
 21
160
  0
TEXT
  8
_f-8_
 62
    7
 10
3340
 20
187.5
 40
25
 41
0.64
 50
0
  1
ＣＨＥＣＫＥＤ
  0
TEXT
  8
_f-8_
 62
    7
 10
3720
 20
187.5
 40
25
 41
0.64
 50
0
  1
ＳＨＥＥＴ　ＮＯ．
  0
TEXT
  8
_f-8_
 62
    7
 10
3542
 20
187.5
 40
25
 41
0.64
 50
0
  1
ＤＲＡＷＩＮＧ
  0
LINE
  8
ADD_LINE
  6
DOT
 62
    9
 10
135
 20
65
 11
135
 21
2860
  0
LINE
  8
_f-9_
  6
CONTINUOUS
 62
    7
 10
170
 20
170
 11
610
 21
170
  0
LINE
  8
ADD_LINE
  6
DOT
 62
    9
 10
2910
 20
120
 11
2910
 21
220
  0
LINE
  8
ADD_LINE
  6
DOT
 62
    9
 10
3170
 20
120
 11
3170
 21
220
  0
LINE
  8
ADD_LINE
  6
DOT
 62
    9
 10
3500
 20
220
 11
3500
 21
120
  0
LINE
  8
ADD_LINE
  6
DOT
 62
    9
 10
630
 20
160
 11
2210
 21
160
  0
LINE
  8
ADD_LINE
  6
DOT
 62
    9
 10
1025
 20
220
 11
1025
 21
120
  0
TEXT
  8
_f-8_
 62
    7
 10
2861
 20
142.5
 40
35
 41
0.5714285714285713
 50
0
  1
１／１０
  0
TEXT
  8
_f-8_
 62
    7
 10
2740.3739840854213
 20
187.46937299484983
 40
25
 41
0.64
 50
0
  1
ＳＣＡＬＥ
  0
TEXT
  8
_f-8_
 62
    7
 10
1445
 20
187.5
 40
25
 41
0.8
 50
0
  1
図面名称
  0
TEXT
  8
_f-8_
 62
    7
 10
655
 20
187.5
 40
25
 41
0.8
 50
0
  1
名　称
  0
LINE
  8
ADD_LINE
  6
DOT
 62
    9
 10
1815
 20
120
 11
1815
 21
220
  0
LINE
  8
_f-8_
  6
CONTINUOUS
 62
    7
 10
2165
 20
2872
 11
2166.15
 21
2874.0000000000004
  0
LINE
  8
_f-8_
  6
CONTINUOUS
 62
    7
 10
2158.6399999999998
 20
2877
 11
2165
 21
2866
  0
LINE
  8
_f-8_
  6
CONTINUOUS
 62
    7
 10
2165
 20
2866
 11
2171.3499999999999
 21
2877
  0
LINE
  8
_f-8_
  6
CONTINUOUS
 62
    7
 10
2165
 20
2860
 11
2176.5399999999999
 21
2880
  0
LINE
  8
_f-8_
  6
CONTINUOUS
 62
    7
 10
2153.4499999999998
 20
2880
 11
2165
 21
2860
  0
LINE
  8
_f-8_
  6
CONTINUOUS
 62
    7
 10
2176.5399999999999
 20
2880
 11
2153.4499999999998
 21
2880
  0
LINE
  8
_f-8_
  6
CONTINUOUS
 62
    7
 10
2163.8400000000001
 20
2874.0000000000004
 11
2165
 21
2872
  0
LINE
  8
_f-8_
  6
CONTINUOUS
 62
    7
 10
2166.15
 20
2874.0000000000004
 11
2163.8400000000001
 21
2874.0000000000004
  0
LINE
  8
_f-8_
  6
CONTINUOUS
 62
    7
 10
2171.3499999999999
 20
2877
 11
2158.6399999999998
 21
2877
  0
LINE
  8
_f-7_
  6
CONTINUOUS
 62
    7
 10
120
 20
1462.6794919243113
 11
120
 21
1497.3205080756886
  0
LINE
  8
_f-7_
  6
CONTINUOUS
 62
    7
 10
120
 20
1497.3205080756886
 11
150
 21
1480
  0
LINE
  8
_f-7_
  6
CONTINUOUS
 62
    7
 10
150
 20
1480
 11
120
 21
1462.6794919243113
  0
LINE
  8
_f-7_
  6
CONTINUOUS
 62
    7
 10
125
 20
1471.3397459621555
 11
125
 21
1488.6602540378444
  0
LINE
  8
_f-7_
  6
CONTINUOUS
 62
    7
 10
125
 20
1488.6602540378444
 11
140
 21
1480
  0
LINE
  8
_f-7_
  6
CONTINUOUS
 62
    7
 10
140
 20
1480
 11
125
 21
1471.3397459621555
  0
LINE
  8
_f-7_
  6
CONTINUOUS
 62
    7
 10
128.99999999999977
 20
1478.2679491924309
 11
128.99999999999977
 21
1481.732050807569
  0
LINE
  8
_f-7_
  6
CONTINUOUS
 62
    7
 10
128.99999999999977
 20
1481.732050807569
 11
132.00000000000045
 21
1480
  0
LINE
  8
_f-7_
  6
CONTINUOUS
 62
    7
 10
132.00000000000045
 20
1480
 11
128.99999999999977
 21
1478.2679491924309
  0
LINE
  8
_f-7_
  6
CONTINUOUS
 62
    7
 10
4160
 20
1462.6794919243113
 11
4160
 21
1497.3205080756886
  0
LINE
  8
_f-7_
  6
CONTINUOUS
 62
    7
 10
4160
 20
1497.3205080756886
 11
4130
 21
1480
  0
LINE
  8
_f-7_
  6
CONTINUOUS
 62
    7
 10
4130
 20
1480
 11
4160
 21
1462.6794919243113
  0
LINE
  8
_f-7_
  6
CONTINUOUS
 62
    7
 10
4155
 20
1471.3397459621555
 11
4155
 21
1488.6602540378444
  0
LINE
  8
_f-7_
  6
CONTINUOUS
 62
    7
 10
4155
 20
1488.6602540378444
 11
4140
 21
1480
  0
LINE
  8
_f-7_
  6
CONTINUOUS
 62
    7
 10
4140
 20
1480
 11
4155
 21
1471.3397459621555
  0
LINE
  8
_f-7_
  6
CONTINUOUS
 62
    7
 10
4151
 20
1478.2679491924309
 11
4151
 21
1481.732050807569
  0
LINE
  8
_f-7_
  6
CONTINUOUS
 62
    7
 10
4151
 20
1481.732050807569
 11
4148
 21
1480
  0
LINE
  8
_f-7_
  6
CONTINUOUS
 62
    7
 10
4148
 20
1480
 11
4151
 21
1478.2679491924309
  0
LINE
  8
ADD_LINE
  6
DOT
 62
    9
 10
1075
 20
220
 11
1075
 21
120
  0
LINE
  8
ADD_LINE
  6
DOT
 62
    9
 10
1865
 20
120
 11
1865
 21
220
  0
TEXT
  8
_f-d_固定文字
 62
    7
 10
149.98500000000007
 20
65
 40
20
 41
1
 50
0
  1
%f
  0
LINE
  8
ADD_LINE
  6
DOT
 62
    9
 10
149.98500000000007
 20
65
 11
179.98500000000007
 21
65.000000646005844
  0
TEXT
  8
_f-d_固定文字
 62
    7
 10
4050
 20
65.00000323002979
 40
20
 41
1
 50
0
  1
%m
  0
TEXT
  8
_f-d_固定文字
 62
    7
 10
4080
 20
65.00000323002979
 40
20
 41
1
 50
0
  1
．
  0
TEXT
  8
_f-d_固定文字
 62
    7
 10
4110
 20
65.00000323002979
 40
20
 41
1
 50
0
  1
%d
  0
LINE
  8
ADD_LINE
  6
DOT
 62
    9
 10
3980
 20
65
 11
4130
 21
65.00000323002979
  0
TEXT
  8
_f-d_固定文字
 62
    7
 10
3990
 20
65.00000323002979
 40
20
 41
1
 50
0
  1
%y
  0
TEXT
  8
_f-d_固定文字
 62
    7
 10
4020
 20
65.00000323002979
 40
20
 41
1
 50
0
  1
．
  0
TEXT
  8
_f-8_
 62
    7
 10
935
 20
137.5
 40
45
 41
0.8
 50
0
  1
隅調理台
  0
POINT
  8
_0-9_
 62
    3
 10
2891.6674015250046
 20
580
  0
LINE
  8
ADD_LINE
  6
DOT
 62
    9
 10
3051.6674015250046
 20
580.00001837158208
 11
3051.6674015250046
 21
526.02050038851996
  0
LINE
  8
ADD_LINE
  6
DOT
 62
    9
 10
2971.6674015250046
 20
580.00001837158208
 11
2971.6674015250046
 21
526.02050038851996
  0
LINE
  8
ADD_LINE
  6
DOT
 62
    9
 10
2891.6674015250046
 20
580.00001837158208
 11
2891.6674015250046
 21
526.02050038851996
  0
POINT
  8
_0-9_
 62
    3
 10
3924.5527025351175
 20
580
  0
POINT
  8
_0-9_
 62
    3
 10
3924.5527025351175
 20
1469.9999999999997
  0
LINE
  8
_0-9_
  6
CONTINUOUS
 62
    4
 10
3934.5527025351175
 20
580
 11
3801.5440126943508
 21
580
  0
LINE
  8
_0-9_
  6
CONTINUOUS
 62
    4
 10
3934.5527025351175
 20
1469.9999999999997
 11
3801.5440126943508
 21
1469.9999999999997
  0
LINE
  8
_0-9_
  6
CONTINUOUS
 62
    4
 10
3924.5527025351175
 20
580
 11
3924.5527025351175
 21
1469.9999999999997
  0
TEXT
  8
_0-9_
 62
    7
 10
3924.5527025351175
 20
991.89999999999986
 40
35
 41
0.6285714285714286
 50
90
  1
８９０
  0
LINE
  8
_0-8_
  6
CONTINUOUS
 62
    4
 10
3362.5000000000004
 20
261.88599999999996
 11
3612.5
 21
261.88599999999996
  0
LINE
  8
_0-8_
  6
CONTINUOUS
 62
    4
 10
3612.5
 20
261.88599999999996
 11
3612.5
 21
331.88599999999996
  0
LINE
  8
_0-8_
  6
CONTINUOUS
 62
    4
 10
3612.5
 20
331.88599999999996
 11
3362.5000000000004
 21
331.88599999999996
  0
LINE
  8
_0-8_
  6
CONTINUOUS
 62
    4
 10
3362.5000000000004
 20
331.88599999999996
 11
3362.5000000000004
 21
261.88599999999996
  0
LINE
  8
ADD_LINE
  6
DOT
 62
    9
 10
3487.4970000000002
 20
261.88599999999996
 11
3487.4970000000002
 21
331.88599999999996
  0
LINE
  8
ADD_LINE
  6
DOT
 62
    9
 10
3362.4970000000002
 20
296.88599999999996
 11
3612.4970000000002
 21
296.88599999999996
  0
LINE
  8
_0-2_
  6
CONTINUOUS
 62
    7
 10
3746.6200000000003
 20
1469.9999999999997
 11
3010
 21
1469.9999999999997
  0
LINE
  8
_0-3_
  6
CONTINUOUS
 62
    5
 10
3295.0000000000004
 20
580
 11
3760
 21
580
  0
LINE
  8
_0-9_
  6
CONTINUOUS
 62
    4
 10
2881.6674015250046
 20
580
 11
2996.5307068988795
 21
580
  0
POINT
  8
_0-9_
 62
    3
 10
2891.6674015250046
 20
1469.9999999999997
  0
LINE
  8
_0-9_
  6
CONTINUOUS
 62
    4
 10
2881.6674015250046
 20
1469.9999999999997
 11
2996.5307068988795
 21
1469.9999999999997
  0
LINE
  8
_0-8_
  6
CONTINUOUS
 62
    4
 10
847.49999999999954
 20
261.88599999999996
 11
597.5
 21
261.88599999999996
  0
LINE
  8
_0-8_
  6
CONTINUOUS
 62
    4
 10
597.5
 20
261.88599999999996
 11
597.5
 21
331.88599999999996
  0
LINE
  8
_0-8_
  6
CONTINUOUS
 62
    4
 10
597.5
 20
331.88599999999996
 11
847.49999999999954
 21
331.88599999999996
  0
LINE
  8
_0-8_
  6
CONTINUOUS
 62
    4
 10
847.49999999999954
 20
331.88599999999996
 11
847.49999999999954
 21
261.88599999999996
  0
LINE
  8
ADD_LINE
  6
DOT
 62
    9
 10
722.50299999999981
 20
261.88599999999996
 11
722.50299999999981
 21
331.88599999999996
  0
LINE
  8
ADD_LINE
  6
DOT
 62
    9
 10
847.5029999999997
 20
296.88599999999996
 11
597.50299999999981
 21
296.88599999999996
  0
POINT
  8
_0-9_
 62
    3
 10
470
 20
1549.9999999999997
  0
POINT
  8
_0-9_
 62
    3
 10
450.00000708007803
 20
1549.9999999999997
  0
LINE
  8
_0-9_
  6
CONTINUOUS
 62
    4
 10
470
 20
1559.9999999999997
 11
470
 21
1502.2073875056082
  0
LINE
  8
_0-9_
  6
CONTINUOUS
 62
    4
 10
450.00000708007803
 20
1549.9999999999997
 11
406.72867134135174
 21
1549.9999999999997
  0
LINE
  8
_0-9_
  6
CONTINUOUS
 62
    4
 10
470
 20
1549.9999999999997
 11
450.00000708007803
 21
1549.9999999999997
  0
TEXT
  8
_0-9_
 62
    7
 10
404.76911596124836
 20
1549.9999999999997
 40
35
 41
0.6285714285714286
 50
0
  1
２０
  0
ARC
  8
_0-2_
  6
CONTINUOUS
 62
    4
 10
1170
 20
2605
 40
15
 50
0
 51
90
  0
LINE
  8
_0-2_
  6
CONTINUOUS
 62
    5
 10
1200
 20
2660
 11
1200
 21
2110
  0
LINE
  8
_0-2_
  6
CONTINUOUS
 62
    5
 10
1200
 20
2660
 11
450
 21
2660
  0
LINE
  8
_0-2_
  6
CONTINUOUS
 62
    5
 10
1000
 20
1910
 11
1200
 21
2110
  0
LINE
  8
_0-2_
  6
CONTINUOUS
 62
    5
 10
450
 20
2660
 11
450
 21
1910
  0
LINE
  8
_0-2_
  6
CONTINUOUS
 62
    5
 10
1000
 20
1910
 11
450
 21
1910
  0
ARC
  8
_0-2_
  6
CONTINUOUS
 62
    4
 10
505
 20
2605
 40
15
 50
90
 51
180
  0
LINE
  8
_0-2_
  6
CONTINUOUS
 62
    4
 10
1170
 20
2620
 11
505
 21
2620
  0
POINT
  8
_0-9_
 62
    3
 10
330
 20
1910
  0
POINT
  8
_0-9_
 62
    3
 10
330
 20
2660
  0
LINE
  8
_0-9_
  6
CONTINUOUS
 62
    4
 10
320
 20
1910
 11
423.74129404504316
 21
1910
  0
LINE
  8
_0-9_
  6
CONTINUOUS
 62
    4
 10
320
 20
2660
 11
423.74129404504316
 21
2660
  0
LINE
  8
_0-9_
  6
CONTINUOUS
 62
    4
 10
330
 20
1910
 11
330
 21
2660
  0
TEXT
  8
_0-9_
 62
    7
 10
330
 20
2251.9
 40
35
 41
0.6285714285714286
 50
90
  1
７５０
  0
LINE
  8
_0-2_
  6
CONTINUOUS
 62
    4
 10
490
 20
1940
 11
490
 21
2605
  0
ARC
  8
_0-2_
  6
CONTINUOUS
 62
    4
 10
505
 20
1940
 40
15
 50
180
 51
270
  0
LINE
  8
_0-2_
  6
CONTINUOUS
 62
    4
 10
987.57359312880726
 20
1925
 11
505
 21
1925
  0
ARC
  8
_0-2_
  6
CONTINUOUS
 62
    4
 10
987.57359312880726
 20
1940
 40
15
 50
270
 51
315
  0
LINE
  8
_0-2_
  6
CONTINUOUS
 62
    4
 10
1185
 20
2122.4264068711927
 11
1185
 21
2605
  0
LINE
  8
_0-2_
  6
CONTINUOUS
 62
    4
 10
1180.6066017177981
 20
2111.8198051533945
 11
998.18019484660544
 21
1929.3933982822018
  0
ARC
  8
_0-2_
  6
CONTINUOUS
 62
    4
 10
1170
 20
2122.4264068711927
 40
15
 50
315
 51
0
  0
POINT
  8
_0-9_
 62
    3
 10
450
 20
1750
  0
POINT
  8
_0-9_
 62
    3
 10
1000
 20
1750
  0
LINE
  8
_0-9_
  6
CONTINUOUS
 62
    4
 10
1000
 20
1740
 11
1000
 21
1876.2772823890436
  0
LINE
  8
_0-9_
  6
CONTINUOUS
 62
    4
 10
450
 20
1836.5121313760805
 11
450
 21
1740
  0
POINT
  8
_0-9_
 62
    3
 10
1200
 20
2760
  0
LINE
  8
_0-9_
  6
CONTINUOUS
 62
    4
 10
1200
 20
2770
 11
1200
 21
2675.1644127179247
  0
POINT
  8
_0-9_
 62
    3
 10
450
 20
2760
  0
LINE
  8
_0-9_
  6
CONTINUOUS
 62
    4
 10
450
 20
2770
 11
450
 21
2675.1644127179247
  0
LINE
  8
_0-9_
  6
CONTINUOUS
 62
    4
 10
450
 20
2760
 11
1200
 21
2760
  0
TEXT
  8
_0-9_
 62
    7
 10
791.89999999999997
 20
2760
 40
35
 41
0.6285714285714286
 50
0
  1
７５０
  0
POINT
  8
_0-9_
 62
    3
 10
1380
 20
2110
  0
POINT
  8
_0-9_
 62
    3
 10
1380
 20
2660
  0
LINE
  8
_0-9_
  6
CONTINUOUS
 62
    4
 10
1390
 20
2110
 11
1216.1773520539472
 21
2110
  0
LINE
  8
_0-2_
  6
CONTINUOUS
 62
    7
 10
463.37999999999965
 20
1469.9999999999997
 11
1200
 21
1469.9999999999997
  0
LINE
  8
_0-3_
  6
CONTINUOUS
 62
    5
 10
914.99999999999954
 20
580
 11
450
 21
580
  0
LINE
  8
_0-9_
  6
CONTINUOUS
 62
    4
 10
320
 20
580
 11
408.45598730564915
 21
580
  0
LINE
  8
_0-9_
  6
CONTINUOUS
 62
    4
 10
320
 20
1469.9999999999997
 11
408.45598730564915
 21
1469.9999999999997
  0
POINT
  8
_0-9_
 62
    3
 10
330
 20
580
  0
POINT
  8
_0-9_
 62
    3
 10
330
 20
1469.9999999999997
  0
LINE
  8
_0-8_
  6
CONTINUOUS
 62
    4
 10
1980
 20
1626.884202599052
 11
2230
 21
1626.884202599052
  0
LINE
  8
_0-8_
  6
CONTINUOUS
 62
    4
 10
2230
 20
1626.884202599052
 11
2230
 21
1696.884202599052
  0
LINE
  8
_0-8_
  6
CONTINUOUS
 62
    4
 10
2230
 20
1696.884202599052
 11
1980
 21
1696.884202599052
  0
LINE
  8
_0-8_
  6
CONTINUOUS
 62
    4
 10
1980
 20
1696.884202599052
 11
1980
 21
1626.884202599052
  0
LINE
  8
ADD_LINE
  6
DOT
 62
    9
 10
2105
 20
1626.884202599052
 11
2105
 21
1696.884202599052
  0
LINE
  8
ADD_LINE
  6
DOT
 62
    9
 10
1980
 20
1661.884202599052
 11
2230
 21
1661.884202599052
  0
LINE
  8
_0-2_
  6
CONTINUOUS
 62
    5
 10
2635.3300858899101
 20
1469.9999999999997
 11
1574.6699141100896
 21
1469.9999999999997
  0
LINE
  8
_0-8_
  6
CONTINUOUS
 62
    4
 10
1980
 20
261.88599999999996
 11
2230
 21
261.88599999999996
  0
LINE
  8
_0-8_
  6
CONTINUOUS
 62
    4
 10
2230
 20
261.88599999999996
 11
2230
 21
331.88599999999979
  0
LINE
  8
_0-8_
  6
CONTINUOUS
 62
    4
 10
2230
 20
331.88599999999979
 11
1980
 21
331.88599999999979
  0
LINE
  8
_0-8_
  6
CONTINUOUS
 62
    4
 10
1980
 20
331.88599999999979
 11
1980
 21
261.88599999999996
  0
LINE
  8
ADD_LINE
  6
DOT
 62
    9
 10
2105
 20
261.88599999999996
 11
2105
 21
331.88599999999979
  0
LINE
  8
ADD_LINE
  6
DOT
 62
    9
 10
1980
 20
296.88599999999979
 11
2230
 21
296.88599999999979
  0
LINE
  8
_0-3_
  6
CONTINUOUS
 62
    5
 10
2294.5046167860791
 20
580
 11
2635.3300858899101
 21
580
  0
LINE
  8
_0-3_
  6
CONTINUOUS
 62
    5
 10
1915.495383213921
 20
580
 11
1574.6699141100896
 21
580
  0
LINE
  8
_0-3_
  6
CONTINUOUS
 62
    5
 10
2294.5046167860791
 20
580
 11
1915.495383213921
 21
580
  0
ARC
  8
_0-2_
  6
CONTINUOUS
 62
    4
 10
2575.2260094890539
 20
2181.2310601229373
 40
15
 50
315
 51
45
  0
LINE
  8
_0-2_
  6
CONTINUOUS
 62
    5
 10
2635.3300858899101
 20
2198.9087296526013
 11
2246.4213562373097
 21
1810
  0
LINE
  8
_0-2_
  6
CONTINUOUS
 62
    5
 10
2635.3300858899101
 20
2198.9087296526013
 11
2105
 21
2729.2388155425119
  0
LINE
  8
_0-2_
  6
CONTINUOUS
 62
    5
 10
1963.5786437626904
 20
1810
 11
2246.4213562373097
 21
1810
  0
LINE
  8
_0-2_
  6
CONTINUOUS
 62
    5
 10
2105
 20
2729.2388155425119
 11
1574.6699141100896
 21
2198.9087296526013
  0
LINE
  8
_0-2_
  6
CONTINUOUS
 62
    5
 10
1963.5786437626904
 20
1810
 11
1574.6699141100896
 21
2198.9087296526013
  0
ARC
  8
_0-2_
  6
CONTINUOUS
 62
    4
 10
2105
 20
2651.4570696119917
 40
15
 50
45
 51
135
  0
LINE
  8
_0-2_
  6
CONTINUOUS
 62
    4
 10
2585.8326112068521
 20
2191.8376618407355
 11
2115.6066017177981
 21
2662.0636713297899
  0
LINE
  8
_0-2_
  6
CONTINUOUS
 62
    5
 10
2083.7867965644036
 20
2672.6702730475881
 11
1592.3475836397528
 21
2181.2310601229373
  0
ARC
  8
_0-2_
  6
CONTINUOUS
 62
    5
 10
2105
 20
2651.4570696119917
 40
30
 50
45
 51
135
  0
LINE
  8
_0-2_
  6
CONTINUOUS
 62
    5
 10
2617.6524163602471
 20
2181.2310601229373
 11
2126.2132034355963
 21
2672.6702730475881
  0
LINE
  8
_0-2_
  6
CONTINUOUS
 62
    4
 10
1624.1673887931478
 20
2191.8376618407355
 11
2094.3933982822018
 21
2662.0636713297899
  0
ARC
  8
_0-2_
  6
CONTINUOUS
 62
    4
 10
1634.773990510946
 20
2181.2310601229373
 40
15
 50
135
 51
225
  0
LINE
  8
_0-2_
  6
CONTINUOUS
 62
    4
 10
1965.3984489160852
 20
1829.3933982822018
 11
1624.1673887931478
 21
2170.6244584051391
  0
ARC
  8
_0-2_
  6
CONTINUOUS
 62
    4
 10
1976.0050506338836
 20
1840
 40
15
 50
225
 51
270
  0
LINE
  8
_0-2_
  6
CONTINUOUS
 62
    4
 10
2244.6015510839147
 20
1829.3933982822018
 11
2585.8326112068521
 21
2170.6244584051391
  0
LINE
  8
_0-2_
  6
CONTINUOUS
 62
    4
 10
2233.9949493661165
 20
1825
 11
1976.0050506338836
 21
1825
  0
ARC
  8
_0-2_
  6
CONTINUOUS
 62
    4
 10
2233.9949493661169
 20
1840
 40
15
 50
270
 51
315
  0
LINE
  8
_0-9_
  6
CONTINUOUS
 62
    4
 10
1470
 20
580
 11
1241.8479771215152
 21
580
  0
LINE
  8
ADD_LINE
  6
DOT
 62
    9
 10
1300
 20
580.00001837158208
 11
1300
 21
526.02050038851996
  0
LINE
  8
ADD_LINE
  6
DOT
 62
    9
 10
1380
 20
580.00001837158208
 11
1380
 21
526.02050038851996
  0
LINE
  8
ADD_LINE
  6
DOT
 62
    9
 10
1460
 20
580.00001837158208
 11
1460
 21
526.02050038851996
  0
LINE
  8
_0-9_
  6
CONTINUOUS
 62
    4
 10
1390
 20
580
 11
1241.8479771215152
 21
580
  0
POINT
  8
_0-9_
 62
    3
 10
1380
 20
580
  0
POINT
  8
_0-9_
 62
    3
 10
1460
 20
580
  0
LINE
  8
_0-8_
  6
CONTINUOUS
 62
    4
 10
2232.3681203914879
 20
2083.1070830803059
 11
2492.9299757278454
 21
1822.5452277439487
  0
POINT
  8
_0-8_
 62
    3
 10
2232.3681203914879
 20
2083.1070830803059
  0
TEXT
  8
_0-8_
 62
    7
 10
2508.9567015685861
 20
1830.4479150014676
 40
30
 41
1
 50
0
  1
回転棚
  0
LINE
  8
_0-8_
  6
CONTINUOUS
 62
    4
 10
2492.9299757278454
 20
1822.5452277439487
 11
2627.8029222551735
 21
1822.5452277439487
  0
LINE
  8
_0-8_
  6
CONTINUOUS
 62
    4
 10
2105
 20
1782.9988906867313
 11
2111.4704761275629
 21
1758.8507450295046
  0
LINE
  8
_0-8_
  6
CONTINUOUS
 62
    4
 10
2105
 20
1782.9988906867313
 11
2098.529523872437
 21
1758.8507450295046
  0
LINE
  8
_0-8_
  6
CONTINUOUS
 62
    4
 10
2105
 20
1782.9988906867313
 11
2105
 21
1722.9988906867313
  0
TEXT
  8
_0-8_
 62
    7
 10
2058
 20
1644.384202599052
 40
35
 41
0.857142857142857
 50
0
  1
平面図
  0
TEXT
  8
_0-8_
 62
    7
 10
2122.4738573878316
 20
1717.2344281206189
 40
35
 41
0.857142857142857
 50
0
  1
Ｃ
  0
LINE
  8
_0-8_
  6
CONTINUOUS
 62
    4
 10
717.70193080856017
 20
1879.9679480349857
 11
724.17240693612313
 21
1855.8198023777592
  0
LINE
  8
_0-8_
  6
CONTINUOUS
 62
    4
 10
717.70193080856017
 20
1879.9679480349857
 11
711.23145468099687
 21
1855.8198023777592
  0
LINE
  8
_0-8_
  6
CONTINUOUS
 62
    4
 10
717.70193080856017
 20
1879.9679480349857
 11
717.70193080856017
 21
1819.9679480349857
  0
LINE
  8
_0-8_
  6
CONTINUOUS
 62
    4
 10
1236.9590850510298
 20
2394.3065127613463
 11
1261.1072307082563
 21
2400.7769888889097
  0
LINE
  8
_0-8_
  6
CONTINUOUS
 62
    4
 10
1236.9590850510298
 20
2394.3065127613463
 11
1261.1072307082563
 21
2387.8360366337838
  0
LINE
  8
_0-8_
  6
CONTINUOUS
 62
    4
 10
1236.9590850510298
 20
2394.3065127613463
 11
1296.9590850510298
 21
2394.3065127613463
  0
TEXT
  8
_0-8_
 62
    7
 10
733.22957022349419
 20
1811.8422422020189
 40
35
 41
0.857142857142857
 50
0
  1
Ａ
  0
TEXT
  8
_0-8_
 62
    7
 10
1269.2869846970982
 20
2408.8514078852813
 40
35
 41
0.857142857142857
 50
0
  1
Ｂ
  0
TEXT
  8
_0-8_
 62
    7
 10
659.50300000000027
 20
279.38599999999996
 40
35
 41
0.857142857142857
 50
0
  1
Ａ立面図
  0
TEXT
  8
_0-8_
 62
    7
 10
3424.4969999999993
 20
279.38599999999996
 40
35
 41
0.857142857142857
 50
0
  1
Ｂ立面図
  0
TEXT
  8
_0-8_
 62
    7
 10
2042.0000000000006
 20
279.38599999999979
 40
35
 41
0.857142857142857
 50
0
  1
Ｃ立面図
  0
LINE
  8
_0-8_
  6
CONTINUOUS
 62
    4
 10
597.49999999999943
 20
1626.884202599052
 11
847.49999999999954
 21
1626.884202599052
  0
LINE
  8
_0-8_
  6
CONTINUOUS
 62
    4
 10
847.49999999999954
 20
1626.884202599052
 11
847.49999999999954
 21
1696.884202599052
  0
LINE
  8
_0-8_
  6
CONTINUOUS
 62
    4
 10
847.49999999999954
 20
1696.884202599052
 11
597.49999999999943
 21
1696.884202599052
  0
LINE
  8
_0-8_
  6
CONTINUOUS
 62
    4
 10
597.49999999999943
 20
1696.884202599052
 11
597.49999999999943
 21
1626.884202599052
  0
LINE
  8
ADD_LINE
  6
DOT
 62
    9
 10
722.49999999999943
 20
1626.884202599052
 11
722.49999999999943
 21
1696.884202599052
  0
LINE
  8
ADD_LINE
  6
DOT
 62
    9
 10
597.49999999999943
 20
1661.884202599052
 11
847.49999999999954
 21
1661.884202599052
  0
TEXT
  8
_0-8_
 62
    7
 10
675.49999999999954
 20
1644.384202599052
 40
35
 41
0.857142857142857
 50
0
  1
平面図
  0
POINT
  8
_0-9_
 62
    3
 10
3740
 20
1549.9999999999997
  0
POINT
  8
_0-9_
 62
    3
 10
3759.999992919922
 20
1549.9999999999997
  0
LINE
  8
_0-9_
  6
CONTINUOUS
 62
    4
 10
3740
 20
1559.9999999999997
 11
3740
 21
1502.2073875056082
  0
LINE
  8
_0-9_
  6
CONTINUOUS
 62
    4
 10
3759.999992919922
 20
1559.9999999999997
 11
3759.999992919922
 21
1502.2073875056082
  0
LINE
  8
_0-9_
  6
CONTINUOUS
 62
    4
 10
3759.999992919922
 20
1549.9999999999997
 11
3803.2713286586481
 21
1549.9999999999997
  0
POINT
  8
_0-9_
 62
    3
 10
1099.2127829820785
 20
1811.3831047233152
  0
LINE
  8
_0-9_
  6
CONTINUOUS
 62
    4
 10
1106.2838507939441
 20
1804.3120369114494
 11
1021.2973855704749
 21
1889.2985021349186
  0
LINE
  8
_0-9_
  6
CONTINUOUS
 62
    4
 10
1305.6879630885505
 20
2003.7161492060558
 11
1220.7014978650813
 21
2088.702614429525
  0
POINT
  8
_0-9_
 62
    3
 10
1298.6168952766847
 20
2010.7872170179214
  0
LINE
  8
_0-9_
  6
CONTINUOUS
 62
    4
 10
1380
 20
2110
 11
1380
 21
2660
  0
TEXT
  8
_0-9_
 62
    7
 10
1380
 20
2351.9
 40
35
 41
0.6285714285714286
 50
90
  1
５５０
  0
LINE
  8
_0-9_
  6
CONTINUOUS
 62
    4
 10
1099.2127829820785
 20
1811.3831047233152
 11
1298.6168952766847
 21
2010.7872170179214
  0
TEXT
  8
_0-9_
 62
    7
 10
1175.5096046721071
 20
1887.6799264133435
 40
35
 41
0.6285714285714286
 50
45.000000000000042
  1
２８２
  0
LINE
  8
_0-9_
  6
CONTINUOUS
 62
    4
 10
450
 20
1750
 11
1000
 21
1750
  0
TEXT
  8
_0-9_
 62
    7
 10
691.89999999999997
 20
1750
 40
35
 41
0.6285714285714286
 50
0
  1
５５０
  0
LINE
  8
_0-9_
  6
CONTINUOUS
 62
    4
 10
330
 20
580
 11
330
 21
1469.9999999999997
  0
TEXT
  8
_0-9_
 62
    7
 10
330
 20
991.89999999999986
 40
35
 41
0.6285714285714286
 50
90
  1
８９０
  0
LINE
  8
_0-9_
  6
CONTINUOUS
 62
    4
 10
3740
 20
1549.9999999999997
 11
3759.999992919922
 21
1549.9999999999997
  0
TEXT
  8
_0-9_
 62
    7
 10
3761.1308840387519
 20
1549.9999999999997
 40
35
 41
0.6285714285714286
 50
0
  1
２０
  0
LINE
  8
_0-d_
  6
CONTINUOUS
 62
    3
 10
4115
 20
2845
 11
3129.9989999999997
 21
2845
  0
LINE
  8
_0-d_
  6
CONTINUOUS
 62
    7
 10
4115
 20
2285
 11
3129.9989999999997
 21
2285
  0
LINE
  8
_0-d_
  6
CONTINUOUS
 62
    7
 10
4115
 20
2355
 11
3129.9989999999997
 21
2355
  0
LINE
  8
_0-d_
  6
CONTINUOUS
 62
    7
 10
4115
 20
2425
 11
3129.9989999999997
 21
2425
  0
LINE
  8
_0-d_
  6
CONTINUOUS
 62
    7
 10
4115
 20
2495
 11
3129.9989999999997
 21
2495
  0
LINE
  8
_0-d_
  6
CONTINUOUS
 62
    7
 10
4115
 20
2565
 11
3129.9989999999997
 21
2565
  0
LINE
  8
_0-d_
  6
CONTINUOUS
 62
    7
 10
4115
 20
2635
 11
3129.9989999999997
 21
2635
  0
LINE
  8
_0-d_
  6
CONTINUOUS
 62
    7
 10
4115
 20
2705
 11
3129.9989999999997
 21
2705
  0
LINE
  8
_0-d_
  6
CONTINUOUS
 62
    7
 10
4115
 20
2775
 11
3129.9989999999997
 21
2775
  0
LINE
  8
_0-d_
  6
CONTINUOUS
 62
    7
 10
4115
 20
2780
 11
3129.9989999999997
 21
2780
  0
LINE
  8
ADD_LINE
  6
DOT
 62
    9
 10
3129.9989999999997
 20
2812.5
 11
4115
 21
2812.5
  0
LINE
  8
ADD_LINE
  6
DOT
 62
    9
 10
4115
 20
2740
 11
3129.9989999999997
 21
2740
  0
LINE
  8
ADD_LINE
  6
DOT
 62
    9
 10
4115
 20
2670
 11
3129.9989999999997
 21
2670
  0
LINE
  8
ADD_LINE
  6
DOT
 62
    9
 10
4115
 20
2600
 11
3129.9989999999997
 21
2600
  0
LINE
  8
ADD_LINE
  6
DOT
 62
    9
 10
4115
 20
2530
 11
3129.9989999999997
 21
2530
  0
LINE
  8
ADD_LINE
  6
DOT
 62
    9
 10
4115
 20
2460
 11
3129.9989999999997
 21
2460
  0
LINE
  8
ADD_LINE
  6
DOT
 62
    9
 10
4115
 20
2390
 11
3129.9989999999997
 21
2390
  0
LINE
  8
ADD_LINE
  6
DOT
 62
    9
 10
4115
 20
2320
 11
3129.9989999999997
 21
2320
  0
TEXT
  8
_0-d_
 62
    7
 10
3527.4994999999998
 20
2795
 40
35
 41
0.857142857142857
 50
0
  1
仕　　　　様
  0
TEXT
  8
_0-d_
 62
    7
 10
3200.9989999999997
 20
2722.5
 40
35
 41
0.857142857142857
 50
0
  1
ト　ッ　プ
  0
TEXT
  8
_0-d_
 62
    7
 10
3216.9990000000002
 20
2652.5
 40
35
 41
0.857142857142857
 50
0
  1
側　　板
  0
TEXT
  8
_0-d_
 62
    7
 10
3454.9990000000002
 20
2652.5
 40
35
 41
0.7714285714285713
 50
0
  1
低圧メラミン化粧パーティクルボード　１２ｔ
  0
TEXT
  8
_0-d_
 62
    7
 10
3216.9990000000002
 20
2582.5
 40
35
 41
0.857142857142857
 50
0
  1
地　　板
  0
TEXT
  8
_0-d_
 62
    7
 10
3216.9990000000002
 20
2512.5
 40
35
 41
0.857142857142857
 50
0
  1
背　　板
  0
LINE
  8
ADD_LINE
  6
DOT
 62
    9
 10
3622.4994999999998
 20
2780
 11
3622.4994999999998
 21
2845
  0
TEXT
  8
_0-d_
 62
    7
 10
3454.9989999999988
 20
2512.5
 40
35
 41
0.857142857142857
 50
0
  1
ＭＤＦ　２．５ｔ
  0
TEXT
  8
_0-d_
 62
    7
 10
3264.9989999999997
 20
2442.5
 40
35
 41
0.857142857142857
 50
0
  1
扉
  0
TEXT
  8
_0-d_
 62
    7
 10
3454.9989999999988
 20
2442.5
 40
35
 41
0.7714285714285713
 50
0
  1
両面化粧パーティクルボード　１２ｔ
  0
TEXT
  8
_0-d_
 62
    7
 10
3216.9990000000002
 20
2372.5
 40
35
 41
0.857142857142857
 50
0
  1
丁　　番
  0
LINE
  8
_0-d_
  6
CONTINUOUS
 62
    3
 10
3129.9989999999997
 20
2845
 11
3129.9989999999997
 21
2215
  0
LINE
  8
_0-d_
  6
CONTINUOUS
 62
    3
 10
4115
 20
2215
 11
3129.9989999999997
 21
2215
  0
LINE
  8
_0-d_
  6
CONTINUOUS
 62
    3
 10
4115
 20
2215
 11
4115
 21
2845
  0
LINE
  8
_0-d_
  6
CONTINUOUS
 62
    7
 10
3429.9989999999997
 20
2775
 11
3429.9989999999997
 21
2215
  0
LINE
  8
ADD_LINE
  6
DOT
 62
    9
 10
4115
 20
2250
 11
3129.9989999999997
 21
2250
  0
LINE
  8
ADD_LINE
  6
DOT
 62
    9
 10
3279.9989999999997
 20
2215
 11
3279.9989999999997
 21
2775
  0
LINE
  8
ADD_LINE
  6
DOT
 62
    9
 10
3454.9989999999997
 20
2775
 11
3454.9989999999997
 21
2215
  0
TEXT
  8
_0-d_
 62
    7
 10
3454.9990000000002
 20
2372.5
 40
35
 41
0.857142857142857
 50
0
  1
ワンタッチスライド式丁番
  0
TEXT
  8
_0-d_
 62
    7
 10
3216.9990000000002
 20
2302.5
 40
35
 41
0.857142857142857
 50
0
  1
把　　手
  0
TEXT
  8
_0-d_
 62
    7
 10
3454.9989999999988
 20
2302.5
 40
35
 41
0.857142857142857
 50
0
  1
アルミ一文字把手
  0
TEXT
  8
_0-d_
 62
    7
 10
3204.9990000000002
 20
2235
 40
35
 41
0.857142857142857
 50
0
  1
そ　の　他
  0
TEXT
  8
_0-d_
 62
    7
 10
3454.9990000000002
 20
2722.5
 40
35
 41
0.857142857142857
 50
0
  1
ステンレスＳＵＳ４３０
  0
LINE
  8
_0-2_
  6
CONTINUOUS
 62
    5
 10
3210.0000000000004
 20
1401.9999999999995
 11
3760
 21
1401.9999999999995
  0
LINE
  8
_0-2_
  6
CONTINUOUS
 62
    5
 10
3210.0000000000004
 20
1421.9999999999995
 11
3210.0000000000004
 21
1401.9999999999995
  0
ARC
  8
_0-2_
  6
CONTINUOUS
 62
    5
 10
3218
 20
1421.9999999999995
 40
8
 50
90
 51
180
  0
LINE
  8
_0-2_
  6
CONTINUOUS
 62
    5
 10
3730.2700676729664
 20
1429.999999999999
 11
3218
 21
1429.999999999999
  0
LINE
  8
_0-2_
  6
CONTINUOUS
 62
    4
 10
3760
 20
1463.9999999999997
 11
3760
 21
1401.9999999999995
  0
LINE
  8
_0-2_
  6
CONTINUOUS
 62
    5
 10
3730.7219144399346
 20
1430
 11
3725
 21
1430
  0
ARC
  8
_0-2_
  6
CONTINUOUS
 62
    4
 10
3730.7219144399346
 20
1440
 40
10.600000000000003
 50
270
 51
355.71084667117963
  0
LINE
  8
_0-2_
  6
CONTINUOUS
 62
    4
 10
3759.4000000000005
 20
1469.3999999999996
 11
3750.4224684480532
 21
1469.3999999999996
  0
ARC
  8
_0-2_
  6
CONTINUOUS
 62
    4
 10
3750.4224684480532
 20
1461.9999999999995
 40
7.4000000000000021
 50
90.000000000000028
 51
175.71084667117946
  0
LINE
  8
_0-2_
  6
CONTINUOUS
 62
    4
 10
3743.043193554879
 20
1462.5534456169884
 11
3741.2922271247521
 21
1439.2072265486378
  0
ARC
  8
_0-2_
  6
CONTINUOUS
 62
    5
 10
3750.4224684480532
 20
1461.9999999999995
 40
8
 50
90.000000000000028
 51
175.71084667117946
  0
LINE
  8
_0-2_
  6
CONTINUOUS
 62
    5
 10
3742.4448739689455
 20
1462.598319585933
 11
3740.6939075388186
 21
1439.2521005175833
  0
LINE
  8
_0-2_
  6
CONTINUOUS
 62
    5
 10
3750.4224684480532
 20
1470
 11
3760
 21
1470
  0
ARC
  8
_0-2_
  6
CONTINUOUS
 62
    5
 10
3730.7219144399346
 20
1440
 40
10
 50
270
 51
355.71084667117963
  0
LINE
  8
_0-2_
  6
CONTINUOUS
 62
    4
 10
3759.4000000000005
 20
1469.3999999999996
 11
3759.4000000000005
 21
1464.5999999999994
  0
LINE
  8
_0-2_
  6
CONTINUOUS
 62
    4
 10
3759.4000000000005
 20
1468.9999999999997
 11
3758.8000000000006
 21
1468.9999999999997
  0
LINE
  8
_0-2_
  6
CONTINUOUS
 62
    4
 10
3758.8000000000006
 20
1468.9999999999997
 11
3758.8000000000006
 21
1463.9999999999997
  0
LINE
  8
_0-2_
  6
CONTINUOUS
 62
    4
 10
3760
 20
1463.9999999999997
 11
3758.8000000000006
 21
1463.9999999999997
  0
LINE
  8
_0-2_
  6
CONTINUOUS
 62
    5
 10
3760
 20
1470
 11
3760
 21
1463.9999999999997
  0
CIRCLE
  8
_0-2_
  6
DASHED1
 62
    4
 10
3740
 20
1418.5000000000013
 40
2.0000000000000008
  0
CIRCLE
  8
_0-2_
  6
DASHED1
 62
    4
 10
3739.9998237033146
 20
1418.5774415274227
 40
5.0000000000000008
  0
LINE
  8
_0-2_
  6
CONTINUOUS
 62
    5
 10
1000.0000141601553
 20
1401.9999999999995
 11
450.00001416015606
 21
1401.9999999999995
  0
LINE
  8
_0-2_
  6
CONTINUOUS
 62
    5
 10
1000.0000141601553
 20
1421.9999999999995
 11
1000.0000141601553
 21
1401.9999999999995
  0
ARC
  8
_0-2_
  6
CONTINUOUS
 62
    5
 10
992.00001416015584
 20
1421.9999999999995
 40
8
 50
0
 51
90
  0
LINE
  8
_0-2_
  6
CONTINUOUS
 62
    5
 10
479.72994648718952
 20
1429.999999999999
 11
992.00001416015584
 21
1429.999999999999
  0
LINE
  8
_0-2_
  6
CONTINUOUS
 62
    4
 10
450.00001416015606
 20
1463.9999999999997
 11
450.00001416015606
 21
1401.9999999999995
  0
LINE
  8
_0-2_
  6
CONTINUOUS
 62
    5
 10
479.27809972022174
 20
1430
 11
485.00001416015606
 21
1430
  0
ARC
  8
_0-2_
  6
CONTINUOUS
 62
    4
 10
479.27809972022174
 20
1440
 40
10.600000000000004
 50
184.28915332882039
 51
270
  0
LINE
  8
_0-2_
  6
CONTINUOUS
 62
    4
 10
450.60001416015552
 20
1469.3999999999996
 11
459.57754571210273
 21
1469.3999999999996
  0
ARC
  8
_0-2_
  6
CONTINUOUS
 62
    4
 10
459.57754571210273
 20
1461.9999999999995
 40
7.400000000000003
 50
4.2891533288205234
 51
89.999999999999985
  0
LINE
  8
_0-2_
  6
CONTINUOUS
 62
    4
 10
466.95682060527701
 20
1462.5534456169884
 11
468.70778703540395
 21
1439.2072265486378
  0
ARC
  8
_0-2_
  6
CONTINUOUS
 62
    5
 10
459.57754571210273
 20
1461.9999999999995
 40
8.0000000000000017
 50
4.2891533288205234
 51
89.999999999999985
  0
LINE
  8
_0-2_
  6
CONTINUOUS
 62
    5
 10
467.55514019121022
 20
1462.598319585933
 11
469.30610662133716
 21
1439.2521005175833
  0
LINE
  8
_0-2_
  6
CONTINUOUS
 62
    5
 10
459.57754571210273
 20
1470
 11
450.00001416015606
 21
1470
  0
ARC
  8
_0-2_
  6
CONTINUOUS
 62
    5
 10
479.27809972022174
 20
1440
 40
10.000000000000001
 50
184.28915332882039
 51
270
  0
LINE
  8
_0-2_
  6
CONTINUOUS
 62
    4
 10
450.60001416015552
 20
1469.3999999999996
 11
450.60001416015552
 21
1464.5999999999994
  0
LINE
  8
_0-2_
  6
CONTINUOUS
 62
    4
 10
450.60001416015552
 20
1468.9999999999997
 11
451.20001416015554
 21
1468.9999999999997
  0
LINE
  8
_0-2_
  6
CONTINUOUS
 62
    4
 10
451.20001416015554
 20
1468.9999999999997
 11
451.20001416015554
 21
1463.9999999999997
  0
LINE
  8
_0-2_
  6
CONTINUOUS
 62
    4
 10
450.00001416015606
 20
1463.9999999999997
 11
451.20001416015554
 21
1463.9999999999997
  0
LINE
  8
_0-2_
  6
CONTINUOUS
 62
    5
 10
450.00001416015606
 20
1470
 11
450.00001416015606
 21
1463.9999999999997
  0
CIRCLE
  8
_0-2_
  6
DASHED1
 62
    4
 10
470.00001416015606
 20
1418.5000000000013
 40
2.0000000000000008
  0
CIRCLE
  8
_0-2_
  6
DASHED1
 62
    4
 10
470.00019045684155
 20
1418.5774415274227
 40
5.0000000000000008
  0
LINE
  8
_0-2_
  6
CONTINUOUS
 62
    7
 10
992
 20
1429.999999999999
 11
1200
 21
1429.999999999999
  0
LINE
  8
_0-2_
  6
CONTINUOUS
 62
    7
 10
999.99999999999954
 20
1401.9999999999995
 11
1200
 21
1401.9999999999995
  0
LINE
  8
_0-2_
  6
CONTINUOUS
 62
    7
 10
3218
 20
1429.999999999999
 11
3010
 21
1429.999999999999
  0
LINE
  8
_0-2_
  6
CONTINUOUS
 62
    7
 10
3210.0000000000004
 20
1401.9999999999995
 11
3010
 21
1401.9999999999995
  0
LINE
  8
_0-2_
  6
CONTINUOUS
 62
    7
 10
1200
 20
1469.9999999999997
 11
1200
 21
1401.9999999999995
  0
LINE
  8
_0-2_
  6
CONTINUOUS
 62
    7
 10
3010
 20
1469.9999999999997
 11
3010
 21
1401.9999999999995
  0
LINE
  8
_0-2_
  6
CONTINUOUS
 62
    5
 10
2246.4213555847086
 20
1401.9999999999995
 11
2635.3300858899101
 21
1401.9999999999995
  0
LINE
  8
_0-2_
  6
CONTINUOUS
 62
    5
 10
2246.4213555847086
 20
1421.9999999999995
 11
2246.4213555847086
 21
1401.9999999999995
  0
LINE
  8
_0-2_
  6
CONTINUOUS
 62
    5
 10
2252.078209843693
 20
1429.9999999999995
 11
2251.0959074102929
 21
1429.8784620240971
  0
LINE
  8
_0-2_
  6
CONTINUOUS
 62
    5
 10
2251.0959074102929
 20
1429.8784620240971
 11
2250.1434517392626
 21
1429.517540966287
  0
LINE
  8
_0-2_
  6
CONTINUOUS
 62
    5
 10
2250.1434517392626
 20
1429.517540966287
 11
2249.2497827142005
 21
1428.9282032302751
  0
LINE
  8
_0-2_
  6
CONTINUOUS
 62
    5
 10
2249.2497827142005
 20
1428.9282032302751
 11
2248.442054016215
 21
1428.1283555449513
  0
LINE
  8
_0-2_
  6
CONTINUOUS
 62
    5
 10
2248.442054016215
 20
1428.1283555449513
 11
2247.7448080730637
 21
1427.1423008774918
  0
LINE
  8
_0-2_
  6
CONTINUOUS
 62
    5
 10
2247.7448080730637
 20
1427.1423008774918
 11
2247.1792303499059
 21
1425.9999999999995
  0
LINE
  8
_0-2_
  6
CONTINUOUS
 62
    5
 10
2247.1792303499059
 20
1425.9999999999995
 11
2246.7625056396636
 21
1424.7361611466048
  0
LINE
  8
_0-2_
  6
CONTINUOUS
 62
    5
 10
2246.7625056396636
 20
1424.7361611466048
 11
2246.5072959117846
 21
1423.3891854213352
  0
LINE
  8
_0-2_
  6
CONTINUOUS
 62
    5
 10
2246.5072959117846
 20
1423.3891854213352
 11
2246.4213555847081
 21
1421.9999999999995
  0
LINE
  8
_0-2_
  6
CONTINUOUS
 62
    5
 10
1963.5786444152913
 20
1401.9999999999995
 11
1574.6699141100896
 21
1401.9999999999995
  0
LINE
  8
_0-2_
  6
CONTINUOUS
 62
    5
 10
1963.5786444152913
 20
1421.9999999999995
 11
1963.5786444152913
 21
1401.9999999999995
  0
LINE
  8
_0-2_
  6
CONTINUOUS
 62
    5
 10
1963.5786444152918
 20
1421.9999999999995
 11
1963.4927040882153
 21
1423.3891854213352
  0
LINE
  8
_0-2_
  6
CONTINUOUS
 62
    5
 10
1963.4927040882153
 20
1423.3891854213352
 11
1963.2374943603363
 21
1424.7361611466048
  0
LINE
  8
_0-2_
  6
CONTINUOUS
 62
    5
 10
1963.2374943603363
 20
1424.7361611466048
 11
1962.820769650094
 21
1425.9999999999995
  0
LINE
  8
_0-2_
  6
CONTINUOUS
 62
    5
 10
1962.820769650094
 20
1425.9999999999995
 11
1962.2551919269362
 21
1427.1423008774918
  0
LINE
  8
_0-2_
  6
CONTINUOUS
 62
    5
 10
1962.2551919269362
 20
1427.1423008774918
 11
1961.5579459837849
 21
1428.1283555449513
  0
LINE
  8
_0-2_
  6
CONTINUOUS
 62
    5
 10
1961.5579459837849
 20
1428.1283555449513
 11
1960.7502172857994
 21
1428.9282032302751
  0
LINE
  8
_0-2_
  6
CONTINUOUS
 62
    5
 10
1960.7502172857994
 20
1428.9282032302751
 11
1959.8565482607373
 21
1429.517540966287
  0
LINE
  8
_0-2_
  6
CONTINUOUS
 62
    5
 10
1959.8565482607373
 20
1429.517540966287
 11
1958.904092589707
 21
1429.8784620240971
  0
LINE
  8
_0-2_
  6
CONTINUOUS
 62
    5
 10
1958.904092589707
 20
1429.8784620240971
 11
1957.9217901563069
 21
1429.9999999999995
  0
LINE
  8
_0-2_
  6
CONTINUOUS
 62
    5
 10
2246.4213555847086
 20
1401.9999999999995
 11
1963.5786444152913
 21
1401.9999999999995
  0
LINE
  8
_0-2_
  6
CONTINUOUS
 62
    4
 10
1574.6699141100896
 20
1463.9999999999997
 11
1574.6699141100896
 21
1401.9999999999995
  0
LINE
  8
_0-2_
  6
CONTINUOUS
 62
    5
 10
1603.947999670155
 20
1430
 11
1609.6699141100896
 21
1430
  0
LINE
  8
_0-2_
  6
CONTINUOUS
 62
    4
 10
1575.269914110089
 20
1469.3999999999996
 11
1584.2474456620361
 21
1469.3999999999996
  0
ARC
  8
_0-2_
  6
CONTINUOUS
 62
    4
 10
1584.2474456620361
 20
1461.9999999999995
 40
7.400000000000003
 50
4.2891533288205234
 51
89.999999999999985
  0
LINE
  8
_0-2_
  6
CONTINUOUS
 62
    4
 10
1591.6267205552105
 20
1462.5534456169884
 11
1593.3776869853375
 21
1439.2072265486378
  0
ARC
  8
_0-2_
  6
CONTINUOUS
 62
    5
 10
1584.2474456620361
 20
1461.9999999999995
 40
8.0000000000000035
 50
4.2891533288205234
 51
89.999999999999985
  0
LINE
  8
_0-2_
  6
CONTINUOUS
 62
    5
 10
1592.2250401411433
 20
1462.598319585933
 11
1593.9760065712703
 21
1439.2521005175833
  0
LINE
  8
_0-2_
  6
CONTINUOUS
 62
    5
 10
1584.2474456620361
 20
1470
 11
1574.6699141100896
 21
1470
  0
LINE
  8
_0-2_
  6
CONTINUOUS
 62
    4
 10
1575.269914110089
 20
1469.3999999999996
 11
1575.269914110089
 21
1464.5999999999994
  0
LINE
  8
_0-2_
  6
CONTINUOUS
 62
    4
 10
1575.269914110089
 20
1468.9999999999997
 11
1575.8699141100892
 21
1468.9999999999997
  0
LINE
  8
_0-2_
  6
CONTINUOUS
 62
    4
 10
1575.8699141100892
 20
1468.9999999999997
 11
1575.8699141100892
 21
1463.9999999999997
  0
LINE
  8
_0-2_
  6
CONTINUOUS
 62
    4
 10
1574.6699141100896
 20
1463.9999999999997
 11
1575.8699141100892
 21
1463.9999999999997
  0
LINE
  8
_0-2_
  6
CONTINUOUS
 62
    5
 10
1574.6699141100896
 20
1470
 11
1574.6699141100896
 21
1463.9999999999997
  0
CIRCLE
  8
_0-2_
  6
DASHED1
 62
    4
 10
1594.6699141100896
 20
1418.5000000000013
 40
2.0000000000000008
  0
CIRCLE
  8
_0-2_
  6
DASHED1
 62
    4
 10
1594.6700904067752
 20
1418.5774415274227
 40
5.0000000000000008
  0
LINE
  8
_0-2_
  6
CONTINUOUS
 62
    4
 10
2635.3300858899101
 20
1463.9999999999997
 11
2635.3300858899101
 21
1401.9999999999995
  0
LINE
  8
_0-2_
  6
CONTINUOUS
 62
    4
 10
2634.7300858899106
 20
1469.3999999999996
 11
2625.7525543379638
 21
1469.3999999999996
  0
ARC
  8
_0-2_
  6
CONTINUOUS
 62
    4
 10
2625.7525543379638
 20
1461.9999999999995
 40
7.400000000000003
 50
90.000000000000028
 51
175.71084667117946
  0
LINE
  8
_0-2_
  6
CONTINUOUS
 62
    4
 10
2618.3732794447896
 20
1462.5534456169884
 11
2616.6223130146627
 21
1439.2072265486378
  0
ARC
  8
_0-2_
  6
CONTINUOUS
 62
    5
 10
2625.7525543379638
 20
1461.9999999999995
 40
8.0000000000000035
 50
90.000000000000028
 51
175.71084667117946
  0
LINE
  8
_0-2_
  6
CONTINUOUS
 62
    5
 10
2617.7749598588566
 20
1462.598319585933
 11
2616.0239934287296
 21
1439.2521005175833
  0
LINE
  8
_0-2_
  6
CONTINUOUS
 62
    5
 10
2625.7525543379638
 20
1470
 11
2635.3300858899101
 21
1470
  0
ARC
  8
_0-2_
  6
CONTINUOUS
 62
    5
 10
2606.0520003298452
 20
1440
 40
10.000000000000001
 50
270
 51
355.71084667117958
  0
LINE
  8
_0-2_
  6
CONTINUOUS
 62
    4
 10
2634.7300858899106
 20
1469.3999999999996
 11
2634.7300858899106
 21
1464.5999999999994
  0
LINE
  8
_0-2_
  6
CONTINUOUS
 62
    4
 10
2634.7300858899106
 20
1468.9999999999997
 11
2634.1300858899107
 21
1468.9999999999997
  0
LINE
  8
_0-2_
  6
CONTINUOUS
 62
    4
 10
2634.1300858899107
 20
1468.9999999999997
 11
2634.1300858899107
 21
1463.9999999999997
  0
LINE
  8
_0-2_
  6
CONTINUOUS
 62
    4
 10
2635.3300858899101
 20
1463.9999999999997
 11
2634.1300858899107
 21
1463.9999999999997
  0
LINE
  8
_0-2_
  6
CONTINUOUS
 62
    5
 10
2635.3300858899101
 20
1470
 11
2635.3300858899101
 21
1463.9999999999997
  0
CIRCLE
  8
_0-2_
  6
DASHED1
 62
    4
 10
2615.3300858899101
 20
1418.5000000000013
 40
2.0000000000000008
  0
CIRCLE
  8
_0-2_
  6
DASHED1
 62
    4
 10
2615.3299095932247
 20
1418.5774415274227
 40
5.0000000000000008
  0
ARC
  8
_0-2_
  6
CONTINUOUS
 62
    4
 10
2606.0520003298452
 20
1440
 40
10.600000000000004
 50
289.37003824552903
 51
355.71084667117958
  0
ARC
  8
_0-2_
  6
CONTINUOUS
 62
    4
 10
1603.947999670155
 20
1440
 40
10.600000000000004
 50
184.28915332882039
 51
250.62996175447096
  0
ARC
  8
_0-2_
  6
CONTINUOUS
 62
    5
 10
1603.947999670155
 20
1440
 40
10.000000000000001
 50
184.28915332882039
 51
249.13281425489552
  0
ARC
  8
_0-2_
  6
CONTINUOUS
 62
    5
 10
1603.947999670155
 20
1440
 40
10.000000000000001
 50
249.13281425489554
 51
270
  0
LINE
  8
_0-2_
  6
CONTINUOUS
 62
    5
 10
1600.4323205039077
 20
1429.999999999999
 11
1957.9217901563069
 21
1429.999999999999
  0
LINE
  8
_0-2_
  6
CONTINUOUS
 62
    5
 10
2609.5676794960945
 20
1430
 11
2600.3300858899101
 21
1430
  0
LINE
  8
_0-2_
  6
CONTINUOUS
 62
    5
 10
2602.9011357001591
 20
1429.999999999999
 11
1957.9217901563069
 21
1429.999999999999
  0
POINT
  8
_0-9_
 62
    3
 10
2891.6674015250046
 20
1430
  0
LINE
  8
_0-3_
  6
CONTINUOUS
 62
    5
 10
3238
 20
736.99999999999988
 11
3238
 21
719.99999999999988
  0
LINE
  8
_0-3_
  6
DASHED1
 62
    9
 10
3238
 20
736.99999999999988
 11
3735
 21
736.99999999999988
  0
LINE
  8
_0-3_
  6
CONTINUOUS
 62
    5
 10
3278
 20
719.99999999999988
 11
3238
 21
719.99999999999988
  0
LINE
  8
_0-3_
  6
DASHED1
 62
    9
 10
3295.0000000000004
 20
719.99999999999988
 11
3735
 21
719.99999999999988
  0
LINE
  8
_0-3_
  6
CONTINUOUS
 62
    7
 10
3238
 20
719.99999999999988
 11
3012.5
 21
719.99999999999988
  0
LINE
  8
_0-3_
  6
CONTINUOUS
 62
    5
 10
3238
 20
1402.0000000000002
 11
3238
 21
736.99999999999988
  0
LINE
  8
_0-4_
  6
CONTINUOUS
 62
    3
 10
3213.0954544152659
 20
724.99999999999988
 11
3221.5807358037436
 21
724.99999999999988
  0
LINE
  8
_0-4_
  6
CONTINUOUS
 62
    3
 10
3213.0954544152659
 20
1327.0000000000002
 11
3213.0954544152659
 21
724.99999999999988
  0
LINE
  8
_0-4_
  6
CONTINUOUS
 62
    3
 10
3221.5807358037436
 20
1327.0000000000002
 11
3221.5807358037436
 21
724.99999999999988
  0
LINE
  8
_0-4_
  6
CONTINUOUS
 62
    3
 10
3013.6913421348986
 20
1321.0000000000002
 11
3013.6913421348986
 21
724.99999999999988
  0
LINE
  8
_0-4_
  6
CONTINUOUS
 62
    3
 10
3213.0954544152659
 20
724.99999999999988
 11
3013.6913421348986
 21
724.99999999999988
  0
LINE
  8
_0-9_
  6
CONTINUOUS
 62
    4
 10
2881.6674015250046
 20
1430
 11
2996.5307068988795
 21
1430
  0
POINT
  8
_0-9_
 62
    3
 10
2891.6674015250046
 20
1430
  0
LINE
  8
_0-9_
  6
CONTINUOUS
 62
    4
 10
2881.6674015250046
 20
1430
 11
2996.5307068988795
 21
1430
  0
LINE
  8
_0-3_
  6
CONTINUOUS
 62
    5
 10
972
 20
736.99999999999988
 11
972
 21
719.99999999999988
  0
LINE
  8
_0-3_
  6
DASHED1
 62
    9
 10
972
 20
736.99999999999988
 11
475
 21
736.99999999999988
  0
LINE
  8
_0-3_
  6
CONTINUOUS
 62
    5
 10
932
 20
719.99999999999988
 11
972
 21
719.99999999999988
  0
LINE
  8
_0-3_
  6
DASHED1
 62
    9
 10
914.99999999999954
 20
719.99999999999988
 11
475
 21
719.99999999999988
  0
LINE
  8
_0-3_
  6
CONTINUOUS
 62
    5
 10
972
 20
1402.0000000000002
 11
972
 21
736.99999999999988
  0
LINE
  8
_0-4_
  6
CONTINUOUS
 62
    3
 10
996.90454558473379
 20
724.99999999999988
 11
988.41926419625633
 21
724.99999999999988
  0
LINE
  8
_0-4_
  6
CONTINUOUS
 62
    3
 10
996.90454558473379
 20
1327.0000000000002
 11
996.90454558473379
 21
724.99999999999988
  0
LINE
  8
_0-4_
  6
CONTINUOUS
 62
    3
 10
988.41926419625633
 20
1327.0000000000002
 11
988.41926419625633
 21
724.99999999999988
  0
LINE
  8
_0-4_
  6
CONTINUOUS
 62
    3
 10
1196.3086578651013
 20
1321.0000000000002
 11
1196.3086578651013
 21
724.99999999999988
  0
LINE
  8
_0-4_
  6
CONTINUOUS
 62
    3
 10
996.90454558473379
 20
724.99999999999988
 11
1196.3086578651013
 21
724.99999999999988
  0
LINE
  8
_0-4_
  6
CONTINUOUS
 62
    3
 10
2246
 20
1357
 11
2246
 21
724.99999999999988
  0
LINE
  8
_0-4_
  6
CONTINUOUS
 62
    3
 10
1964
 20
1357
 11
1964
 21
724.99999999999988
  0
LINE
  8
_0-4_
  6
CONTINUOUS
 62
    3
 10
1964
 20
724.99999999999988
 11
2246
 21
724.99999999999988
  0
LINE
  8
_0-4_
  6
CENTER2
 62
    4
 10
1964
 20
724.99900000000013
 11
2246
 21
1041
  0
LINE
  8
_0-3_
  6
CONTINUOUS
 62
    5
 10
1943.7796545088451
 20
719.99999999999988
 11
1915.495383213921
 21
719.99999999999988
  0
LINE
  8
_0-3_
  6
CONTINUOUS
 62
    5
 10
1943.7796545088451
 20
1402.0000000000002
 11
1943.7796545088451
 21
719.99999999999988
  0
LINE
  8
_0-3_
  6
CONTINUOUS
 62
    5
 10
2266.220345491155
 20
1402.0000000000002
 11
2266.220345491155
 21
719.99999999999988
  0
LINE
  8
_0-3_
  6
CONTINUOUS
 62
    4
 10
2266.220345491155
 20
719.99999999999988
 11
1943.7796545088451
 21
719.99999999999988
  0
LINE
  8
_0-3_
  6
CONTINUOUS
 62
    3
 10
2246
 20
1362.0000000000002
 11
2246
 21
1402.0000000000002
  0
LINE
  8
_0-3_
  6
CONTINUOUS
 62
    3
 10
1964
 20
1362.0000000000002
 11
1964
 21
1402.0000000000002
  0
LINE
  8
_0-3_
  6
DASHED1
 62
    9
 10
2245.714249456123
 20
1402.0000000000002
 11
2245.714249456123
 21
719.99999999999988
  0
LINE
  8
_0-3_
  6
DASHED1
 62
    9
 10
2245.714249456123
 20
736.99999999999988
 11
1964.2857505438771
 21
736.99999999999988
  0
LINE
  8
_0-3_
  6
DASHED1
 62
    9
 10
1964.2857505438771
 20
1402.0000000000002
 11
1964.2857505438771
 21
719.99999999999988
  0
LINE
  8
ADD_LINE
  6
DOT
 62
    9
 10
2105
 20
790.81431621781075
 11
2105
 21
683.88585379066125
  0
LINE
  8
_0-6_
  6
DASHED1
 62
    6
 10
2145
 20
739.99999999999988
 11
2065
 21
739.99999999999988
  0
LINE
  8
_0-6_
  6
DASHED1
 62
    6
 10
2145
 20
739.99999999999988
 11
2145
 21
736.99999999999988
  0
LINE
  8
_0-6_
  6
DASHED1
 62
    6
 10
2065
 20
739.99999999999988
 11
2065
 21
736.99999999999988
  0
LINE
  8
_0-6_
  6
DASHED1
 62
    6
 10
2305
 20
841.99999999999988
 11
1905
 21
841.99999999999988
  0
LINE
  8
_0-6_
  6
DASHED1
 62
    6
 10
1905
 20
841.99999999999988
 11
1905
 21
836.99999999999988
  0
LINE
  8
_0-6_
  6
DASHED1
 62
    6
 10
2305
 20
841.99999999999988
 11
2305
 21
836.99999999999988
  0
LINE
  8
_0-6_
  6
DASHED1
 62
    6
 10
2305
 20
836.99999999999988
 11
1905
 21
836.99999999999988
  0
LINE
  8
_0-6_
  6
DASHED1
 62
    6
 10
2295
 20
836.99999999999988
 11
2275
 21
816.99999999999988
  0
LINE
  8
_0-6_
  6
DASHED1
 62
    6
 10
1915
 20
836.99999999999988
 11
1935
 21
816.99999999999988
  0
LINE
  8
_0-6_
  6
DASHED1
 62
    6
 10
2275
 20
816.99999999999988
 11
1935
 21
816.99999999999988
  0
LINE
  8
_0-6_
  6
DASHED1
 62
    6
 10
2305
 20
1092
 11
1905
 21
1092
  0
LINE
  8
_0-6_
  6
DASHED1
 62
    6
 10
1905
 20
1092
 11
1905
 21
1087
  0
LINE
  8
_0-6_
  6
DASHED1
 62
    6
 10
2305
 20
1092
 11
2305
 21
1087
  0
LINE
  8
_0-6_
  6
DASHED1
 62
    6
 10
2305
 20
1087
 11
1905
 21
1087
  0
LINE
  8
_0-6_
  6
DASHED1
 62
    6
 10
2295
 20
1087
 11
2275
 21
1067
  0
LINE
  8
_0-6_
  6
DASHED1
 62
    6
 10
1915
 20
1087
 11
1935
 21
1067
  0
LINE
  8
_0-6_
  6
DASHED1
 62
    6
 10
2275
 20
1067
 11
1935
 21
1067
  0
LINE
  8
_0-6_
  6
DASHED1
 62
    6
 10
2092.5
 20
739.99999999999988
 11
2092.5
 21
816.99999999999988
  0
LINE
  8
_0-6_
  6
DASHED1
 62
    6
 10
2117.5
 20
739.99999999999988
 11
2117.5
 21
816.99999999999988
  0
LINE
  8
_0-6_
  6
DASHED1
 62
    6
 10
2092.5
 20
841.99999999999988
 11
2092.5
 21
1067
  0
LINE
  8
_0-6_
  6
DASHED1
 62
    6
 10
2092.5
 20
1092
 11
2092.5
 21
1402.0000000000002
  0
LINE
  8
_0-6_
  6
DASHED1
 62
    6
 10
2117.5
 20
841.99999999999988
 11
2117.5
 21
1067
  0
LINE
  8
_0-6_
  6
DASHED1
 62
    6
 10
2117.5
 20
1092
 11
2117.5
 21
1402.0000000000002
  0
LINE
  8
_0-9_
  6
CONTINUOUS
 62
    4
 10
1470
 20
1430
 11
1241.8479771215152
 21
1430
  0
LINE
  8
_0-9_
  6
CONTINUOUS
 62
    4
 10
1390
 20
719.99999999999988
 11
1241.8479771215152
 21
719.99999999999988
  0
LINE
  8
_0-9_
  6
CONTINUOUS
 62
    4
 10
1390
 20
1430
 11
1241.8479771215152
 21
1430
  0
LINE
  8
_0-9_
  6
CONTINUOUS
 62
    4
 10
1310
 20
724.99999999999988
 11
1241.8479771215152
 21
724.99999999999988
  0
POINT
  8
_0-9_
 62
    3
 10
1300
 20
724.99999999999988
  0
POINT
  8
_0-9_
 62
    3
 10
1380
 20
719.99999999999988
  0
POINT
  8
_0-9_
 62
    3
 10
1460
 20
1430
  0
POINT
  8
_0-8_
 62
    3
 10
2282.8697653408294
 20
827.53820439389164
  0
LINE
  8
_0-4_
  6
CONTINUOUS
 62
    3
 10
988.41926419625633
 20
1367.0000000000002
 11
996.90454558473379
 21
1367.0000000000002
  0
LINE
  8
_0-5_
  6
CONTINUOUS
 62
    4
 10
988.70210690920612
 20
1397
 11
988.45653130085611
 21
1396.9696155060246
  0
LINE
  8
_0-5_
  6
CONTINUOUS
 62
    4
 10
988.45653130085611
 20
1396.9696155060246
 11
988.21841738309854
 21
1396.8793852415717
  0
LINE
  8
_0-5_
  6
CONTINUOUS
 62
    4
 10
988.21841738309854
 20
1396.8793852415717
 11
987.99500012683301
 21
1396.7320508075686
  0
LINE
  8
_0-5_
  6
CONTINUOUS
 62
    4
 10
987.99500012683301
 20
1396.7320508075686
 11
987.79306795233651
 21
1396.5320888862379
  0
LINE
  8
_0-5_
  6
CONTINUOUS
 62
    4
 10
987.79306795233651
 20
1396.5320888862379
 11
987.6187564665488
 21
1396.2855752193731
  0
LINE
  8
_0-5_
  6
CONTINUOUS
 62
    4
 10
987.6187564665488
 20
1396.2855752193731
 11
987.47736203575936
 21
1396
  0
LINE
  8
_0-5_
  6
CONTINUOUS
 62
    4
 10
987.47736203575936
 20
1396
 11
987.37318085819879
 21
1395.6840402866514
  0
LINE
  8
_0-5_
  6
CONTINUOUS
 62
    4
 10
987.37318085819879
 20
1395.6840402866514
 11
987.30937842622915
 21
1395.3472963553338
  0
LINE
  8
_0-5_
  6
CONTINUOUS
 62
    4
 10
987.30937842622915
 20
1395.3472963553338
 11
987.28789334445991
 21
1395
  0
LINE
  8
_0-5_
  6
CONTINUOUS
 62
    4
 10
988.70210690920612
 20
1395.6999999999998
 11
988.61615544628375
 21
1395.6893654271084
  0
LINE
  8
_0-5_
  6
CONTINUOUS
 62
    4
 10
988.61615544628375
 20
1395.6893654271084
 11
988.53281557506852
 21
1395.65778483455
  0
LINE
  8
_0-5_
  6
CONTINUOUS
 62
    4
 10
988.53281557506852
 20
1395.65778483455
 11
988.45461953537551
 21
1395.606217782649
  0
LINE
  8
_0-5_
  6
CONTINUOUS
 62
    4
 10
988.45461953537551
 20
1395.606217782649
 11
988.38394327430182
 21
1395.5362311101835
  0
LINE
  8
_0-5_
  6
CONTINUOUS
 62
    4
 10
988.38394327430182
 20
1395.5362311101835
 11
988.3229342542761
 21
1395.4499513267805
  0
LINE
  8
_0-5_
  6
CONTINUOUS
 62
    4
 10
988.3229342542761
 20
1395.4499513267805
 11
988.27344620349981
 21
1395.3499999999999
  0
LINE
  8
_0-5_
  6
CONTINUOUS
 62
    4
 10
988.27344620349981
 20
1395.3499999999999
 11
988.23698279135351
 21
1395.2394141003283
  0
LINE
  8
_0-5_
  6
CONTINUOUS
 62
    4
 10
988.23698279135351
 20
1395.2394141003283
 11
988.214651940164
 21
1395.1215537243665
  0
LINE
  8
_0-5_
  6
CONTINUOUS
 62
    4
 10
988.214651940164
 20
1395.1215537243665
 11
988.2071321615449
 21
1395
  0
LINE
  8
_0-5_
  6
CONTINUOUS
 62
    4
 10
987.28789334445968
 20
1353
 11
987.28789334445968
 21
1395
  0
LINE
  8
_0-5_
  6
CONTINUOUS
 62
    4
 10
987.28789334445968
 20
1353
 11
987.293264614902
 21
1352.9131759111664
  0
LINE
  8
_0-5_
  6
CONTINUOUS
 62
    4
 10
987.293264614902
 20
1352.9131759111664
 11
987.3092152228944
 21
1352.8289899283372
  0
LINE
  8
_0-5_
  6
CONTINUOUS
 62
    4
 10
987.3092152228944
 20
1352.8289899283372
 11
987.33526051728449
 21
1352.75
  0
LINE
  8
_0-5_
  6
CONTINUOUS
 62
    4
 10
987.33526051728449
 20
1352.75
 11
987.37060912498191
 21
1352.6786061951568
  0
LINE
  8
_0-5_
  6
CONTINUOUS
 62
    4
 10
987.37060912498191
 20
1352.6786061951568
 11
987.41418699642872
 21
1352.6169777784407
  0
LINE
  8
_0-5_
  6
CONTINUOUS
 62
    4
 10
987.41418699642872
 20
1352.6169777784407
 11
987.46467004005307
 21
1352.5669872981077
  0
LINE
  8
_0-5_
  6
CONTINUOUS
 62
    4
 10
987.46467004005307
 20
1352.5669872981077
 11
987.52052435411928
 21
1352.5301536896067
  0
LINE
  8
_0-5_
  6
CONTINUOUS
 62
    4
 10
987.52052435411928
 20
1352.5301536896067
 11
987.58005283355873
 21
1352.5075961234938
  0
LINE
  8
_0-5_
  6
CONTINUOUS
 62
    4
 10
987.58005283355873
 20
1352.5075961234938
 11
987.64144673564624
 21
1352.5
  0
LINE
  8
_0-5_
  6
CONTINUOUS
 62
    4
 10
987.85357877035812
 20
1352.5000000000002
 11
987.95180901369803
 21
1352.5121537975903
  0
LINE
  8
_0-5_
  6
CONTINUOUS
 62
    4
 10
987.95180901369803
 20
1352.5121537975903
 11
988.04705458080115
 21
1352.5482459033714
  0
LINE
  8
_0-5_
  6
CONTINUOUS
 62
    4
 10
988.04705458080115
 20
1352.5482459033714
 11
988.13642148330745
 21
1352.6071796769726
  0
LINE
  8
_0-5_
  6
CONTINUOUS
 62
    4
 10
988.13642148330745
 20
1352.6071796769726
 11
988.21719435310592
 21
1352.687164445505
  0
LINE
  8
_0-5_
  6
CONTINUOUS
 62
    4
 10
988.21719435310592
 20
1352.687164445505
 11
988.28691894742109
 21
1352.7857699122509
  0
LINE
  8
_0-5_
  6
CONTINUOUS
 62
    4
 10
988.28691894742109
 20
1352.7857699122509
 11
988.34347671973682
 21
1352.9
  0
LINE
  8
_0-5_
  6
CONTINUOUS
 62
    4
 10
988.34347671973682
 20
1352.9
 11
988.38514919076101
 21
1353.0263838853395
  0
LINE
  8
_0-5_
  6
CONTINUOUS
 62
    4
 10
988.38514919076101
 20
1353.0263838853395
 11
988.41067016354895
 21
1353.1610814578666
  0
LINE
  8
_0-5_
  6
CONTINUOUS
 62
    4
 10
988.41067016354895
 20
1353.1610814578666
 11
988.41926419625656
 21
1353.3000000000001
  0
LINE
  8
_0-5_
  6
CONTINUOUS
 62
    4
 10
988.41926419625656
 20
1353.3000000000001
 11
988.41067016354895
 21
1353.4389185421337
  0
LINE
  8
_0-5_
  6
CONTINUOUS
 62
    4
 10
988.41067016354895
 20
1353.4389185421337
 11
988.38514919076101
 21
1353.5736161146608
  0
LINE
  8
_0-5_
  6
CONTINUOUS
 62
    4
 10
988.38514919076101
 20
1353.5736161146608
 11
988.34347671973682
 21
1353.7000000000002
  0
LINE
  8
_0-5_
  6
CONTINUOUS
 62
    4
 10
988.34347671973682
 20
1353.7000000000002
 11
988.28691894742109
 21
1353.8142300877493
  0
LINE
  8
_0-5_
  6
CONTINUOUS
 62
    4
 10
988.28691894742109
 20
1353.8142300877493
 11
988.21719435310592
 21
1353.9128355544953
  0
LINE
  8
_0-5_
  6
CONTINUOUS
 62
    4
 10
988.21719435310592
 20
1353.9128355544953
 11
988.20713216154467
 21
1353.92449979984
  0
LINE
  8
_0-5_
  6
CONTINUOUS
 62
    4
 10
987.64144673564624
 20
1352.5
 11
987.85357877035812
 21
1352.5
  0
LINE
  8
_0-5_
  6
CONTINUOUS
 62
    4
 10
988.20713216154422
 20
1361.2755002001604
 11
988.20713216154422
 21
1353.9244997998398
  0
LINE
  8
_0-5_
  6
CONTINUOUS
 62
    4
 10
988.20713216154467
 20
1361.2755002001604
 11
988.27844185023241
 21
1361.371811844197
  0
LINE
  8
_0-5_
  6
CONTINUOUS
 62
    4
 10
988.27844185023241
 20
1361.371811844197
 11
988.33684228922948
 21
1361.4841722180717
  0
LINE
  8
_0-5_
  6
CONTINUOUS
 62
    4
 10
988.33684228922948
 20
1361.4841722180717
 11
988.38055901074858
 21
1361.6091673086807
  0
LINE
  8
_0-5_
  6
CONTINUOUS
 62
    4
 10
988.38055901074858
 20
1361.6091673086807
 11
988.40826370432841
 21
1361.7429992034474
  0
LINE
  8
_0-5_
  6
CONTINUOUS
 62
    4
 10
988.40826370432841
 20
1361.7429992034474
 11
988.41911457687342
 21
1361.881601487971
  0
LINE
  8
_0-5_
  6
CONTINUOUS
 62
    4
 10
988.41911457687342
 20
1361.881601487971
 11
988.41278193011248
 21
1362.0207628019727
  0
LINE
  8
_0-5_
  6
CONTINUOUS
 62
    4
 10
988.41278193011248
 20
1362.0207628019727
 11
988.3894581783129
 21
1362.1562547993453
  0
LINE
  8
_0-5_
  6
CONTINUOUS
 62
    4
 10
988.3894581783129
 20
1362.1562547993453
 11
988.34985200187088
 21
1362.283960624311
  0
LINE
  8
_0-5_
  6
CONTINUOUS
 62
    4
 10
988.34985200187088
 20
1362.283960624311
 11
988.29516681441555
 21
1362.4000000000003
  0
LINE
  8
_0-5_
  6
CONTINUOUS
 62
    4
 10
988.29516681441555
 20
1362.4000000000003
 11
988.22706419769565
 21
1362.5008471287019
  0
LINE
  8
_0-5_
  6
CONTINUOUS
 62
    4
 10
988.22706419769565
 20
1362.5008471287019
 11
988.20713216154467
 21
1362.5244997998402
  0
LINE
  8
_0-5_
  6
CONTINUOUS
 62
    4
 10
988.20713216154422
 20
1366.7000000000002
 11
988.20713216154422
 21
1362.5244997998399
  0
LINE
  8
_0-5_
  6
CONTINUOUS
 62
    4
 10
988.41926419625633
 20
1367.0000000000002
 11
988.38242785500369
 21
1366.9954423259039
  0
LINE
  8
_0-5_
  6
CONTINUOUS
 62
    4
 10
988.38242785500369
 20
1366.9954423259039
 11
988.34671076734002
 21
1366.9819077862359
  0
LINE
  8
_0-5_
  6
CONTINUOUS
 62
    4
 10
988.34671076734002
 20
1366.9819077862359
 11
988.31319817890039
 21
1366.9598076211354
  0
LINE
  8
_0-5_
  6
CONTINUOUS
 62
    4
 10
988.31319817890039
 20
1366.9598076211354
 11
988.28290835272582
 21
1366.9298133329359
  0
LINE
  8
_0-5_
  6
CONTINUOUS
 62
    4
 10
988.28290835272582
 20
1366.9298133329359
 11
988.25676162985769
 21
1366.8928362829065
  0
LINE
  8
_0-5_
  6
CONTINUOUS
 62
    4
 10
988.25676162985769
 20
1366.8928362829065
 11
988.23555246523937
 21
1366.8500000000003
  0
LINE
  8
_0-5_
  6
CONTINUOUS
 62
    4
 10
988.23555246523937
 20
1366.8500000000003
 11
988.21992528860528
 21
1366.8026060429979
  0
LINE
  8
_0-5_
  6
CONTINUOUS
 62
    4
 10
988.21992528860528
 20
1366.8026060429979
 11
988.21035492380974
 21
1366.7520944533002
  0
LINE
  8
_0-5_
  6
CONTINUOUS
 62
    4
 10
988.21035492380974
 20
1366.7520944533002
 11
988.20713216154445
 21
1366.7000000000002
  0
LINE
  8
_0-5_
  6
CONTINUOUS
 62
    4
 10
988.20713216154422
 20
1370.449612661775
 11
988.20713216154422
 21
1395
  0
LINE
  8
_0-5_
  6
CONTINUOUS
 62
    4
 10
988.2071321615449
 20
1370.449612661775
 11
988.21787470242929
 21
1370.275964484108
  0
LINE
  8
_0-5_
  6
CONTINUOUS
 62
    4
 10
988.21787470242929
 20
1370.275964484108
 11
988.24977591841434
 21
1370.1075925184495
  0
LINE
  8
_0-5_
  6
CONTINUOUS
 62
    4
 10
988.24977591841434
 20
1370.1075925184495
 11
988.30186650719451
 21
1369.949612661775
  0
LINE
  8
_0-5_
  6
CONTINUOUS
 62
    4
 10
988.30186650719451
 20
1369.949612661775
 11
988.37256372258934
 21
1369.8068250520884
  0
LINE
  8
_0-5_
  6
CONTINUOUS
 62
    4
 10
988.37256372258934
 20
1369.8068250520884
 11
988.4597194654832
 21
1369.683568218656
  0
LINE
  8
_0-5_
  6
CONTINUOUS
 62
    4
 10
988.4597194654832
 20
1369.683568218656
 11
988.56068555273122
 21
1369.5835872579905
  0
LINE
  8
_0-5_
  6
CONTINUOUS
 62
    4
 10
988.56068555273122
 20
1369.5835872579905
 11
988.6723941808641
 21
1369.509920040989
  0
LINE
  8
_0-5_
  6
CONTINUOUS
 62
    4
 10
988.6723941808641
 20
1369.509920040989
 11
988.791451139743
 21
1369.4648049087627
  0
LINE
  8
_0-5_
  6
CONTINUOUS
 62
    4
 10
988.791451139743
 20
1369.4648049087627
 11
988.87771328266762
 21
1369.450947676833
  0
LINE
  8
_0-5_
  6
CONTINUOUS
 62
    4
 10
997.39952033239478
 20
1361.8000000000004
 11
997.40811436510239
 21
1361.6610814578668
  0
LINE
  8
_0-5_
  6
CONTINUOUS
 62
    4
 10
997.40811436510239
 20
1361.6610814578668
 11
997.43363533789033
 21
1361.5263838853397
  0
LINE
  8
_0-5_
  6
CONTINUOUS
 62
    4
 10
997.43363533789033
 20
1361.5263838853397
 11
997.47530780891474
 21
1361.4000000000005
  0
LINE
  8
_0-5_
  6
CONTINUOUS
 62
    4
 10
997.47530780891474
 20
1361.4000000000005
 11
997.53186558123024
 21
1361.2857699122512
  0
LINE
  8
_0-5_
  6
CONTINUOUS
 62
    4
 10
997.53186558123024
 20
1361.2857699122512
 11
997.60159017554542
 21
1361.1871644455052
  0
LINE
  8
_0-5_
  6
CONTINUOUS
 62
    4
 10
997.60159017554542
 20
1361.1871644455052
 11
997.68236304534411
 21
1361.1071796769729
  0
LINE
  8
_0-5_
  6
CONTINUOUS
 62
    4
 10
997.68236304534411
 20
1361.1071796769729
 11
997.77172994785041
 21
1361.0482459033714
  0
LINE
  8
_0-5_
  6
CONTINUOUS
 62
    4
 10
997.77172994785041
 20
1361.0482459033714
 11
997.86697551495331
 21
1361.0121537975905
  0
LINE
  8
_0-5_
  6
CONTINUOUS
 62
    4
 10
997.86697551495331
 20
1361.0121537975905
 11
997.96520575829345
 21
1361.0000000000004
  0
LINE
  8
_0-5_
  6
CONTINUOUS
 62
    4
 10
997.96520575829345
 20
1361.0000000000004
 11
998.06343600163336
 21
1361.0121537975905
  0
LINE
  8
_0-5_
  6
CONTINUOUS
 62
    4
 10
998.06343600163336
 20
1361.0121537975905
 11
998.15868156873648
 21
1361.0482459033714
  0
LINE
  8
_0-5_
  6
CONTINUOUS
 62
    4
 10
998.15868156873648
 20
1361.0482459033714
 11
998.24804847124255
 21
1361.1071796769729
  0
LINE
  8
_0-5_
  6
CONTINUOUS
 62
    4
 10
998.24804847124255
 20
1361.1071796769729
 11
998.32882134104102
 21
1361.1871644455052
  0
LINE
  8
_0-5_
  6
CONTINUOUS
 62
    4
 10
998.32882134104102
 20
1361.1871644455052
 11
998.39854593535619
 21
1361.2857699122512
  0
LINE
  8
_0-5_
  6
CONTINUOUS
 62
    4
 10
998.39854593535619
 20
1361.2857699122512
 11
998.45510370767215
 21
1361.4000000000005
  0
LINE
  8
_0-5_
  6
CONTINUOUS
 62
    4
 10
998.45510370767215
 20
1361.4000000000005
 11
998.4967761786961
 21
1361.5263838853397
  0
LINE
  8
_0-5_
  6
CONTINUOUS
 62
    4
 10
998.4967761786961
 20
1361.5263838853397
 11
998.52229715148405
 21
1361.6610814578668
  0
LINE
  8
_0-5_
  6
CONTINUOUS
 62
    4
 10
998.52229715148405
 20
1361.6610814578668
 11
998.53089118419165
 21
1361.8000000000004
  0
LINE
  8
_0-5_
  6
CONTINUOUS
 62
    4
 10
996.31865710790998
 20
1397.0000000000002
 11
988.70210690920612
 21
1397.0000000000002
  0
LINE
  8
_0-5_
  6
CONTINUOUS
 62
    4
 10
997.65642669618318
 20
1395.6486486486485
 11
997.55645682693693
 21
1395.9673177975398
  0
LINE
  8
_0-5_
  6
CONTINUOUS
 62
    4
 10
997.55645682693693
 20
1395.9673177975398
 11
997.41887703958445
 21
1396.2565954846395
  0
LINE
  8
_0-5_
  6
CONTINUOUS
 62
    4
 10
997.41887703958445
 20
1396.2565954846395
 11
997.24786762634676
 21
1396.5076921538061
  0
LINE
  8
_0-5_
  6
CONTINUOUS
 62
    4
 10
997.24786762634676
 20
1396.5076921538061
 11
997.04862462170922
 21
1396.7129783598084
  0
LINE
  8
_0-5_
  6
CONTINUOUS
 62
    4
 10
997.04862462170922
 20
1396.7129783598084
 11
996.82720192354622
 21
1396.8662165851569
  0
LINE
  8
_0-5_
  6
CONTINUOUS
 62
    4
 10
996.82720192354622
 20
1396.8662165851569
 11
996.59032734849643
 21
1396.9627507639165
  0
LINE
  8
_0-5_
  6
CONTINUOUS
 62
    4
 10
996.59032734849643
 20
1396.9627507639165
 11
996.34519821065805
 21
1396.9996477539143
  0
LINE
  8
_0-5_
  6
CONTINUOUS
 62
    4
 10
996.34519821065805
 20
1396.9996477539143
 11
996.31865710790998
 21
1397
  0
LINE
  8
_0-5_
  6
CONTINUOUS
 62
    4
 10
996.78687646380558
 20
1395.2270270270269
 11
996.75188700956914
 21
1395.338561229139
  0
LINE
  8
_0-5_
  6
CONTINUOUS
 62
    4
 10
996.75188700956914
 20
1395.338561229139
 11
996.70373408399609
 21
1395.4398084196238
  0
LINE
  8
_0-5_
  6
CONTINUOUS
 62
    4
 10
996.70373408399609
 20
1395.4398084196238
 11
996.64388078936281
 21
1395.5276922538319
  0
LINE
  8
_0-5_
  6
CONTINUOUS
 62
    4
 10
996.64388078936281
 20
1395.5276922538319
 11
996.57414573773962
 21
1395.5995424259326
  0
LINE
  8
_0-5_
  6
CONTINUOUS
 62
    4
 10
996.57414573773962
 20
1395.5995424259326
 11
996.49664779338263
 21
1395.6531758048049
  0
LINE
  8
_0-5_
  6
CONTINUOUS
 62
    4
 10
996.49664779338263
 20
1395.6531758048049
 11
996.41374169211508
 21
1395.6869627673704
  0
LINE
  8
_0-5_
  6
CONTINUOUS
 62
    4
 10
996.41374169211508
 20
1395.6869627673704
 11
996.32794649387165
 21
1395.69987671387
  0
LINE
  8
_0-5_
  6
CONTINUOUS
 62
    4
 10
996.32794649387165
 20
1395.69987671387
 11
996.31865710790998
 21
1395.6999999999998
  0
LINE
  8
_0-5_
  6
CONTINUOUS
 62
    4
 10
988.70210690920612
 20
1395.7000000000002
 11
996.31865710790998
 21
1395.7000000000002
  0
LINE
  8
_0-5_
  6
CONTINUOUS
 62
    4
 10
996.78687646380649
 20
1395.2270270270273
 11
997.58507939861783
 21
1391.9346079027359
  0
LINE
  8
_0-5_
  6
CONTINUOUS
 62
    4
 10
997.54873810591425
 20
1391.7247858648925
 11
997.56505681217868
 21
1391.7509159129701
  0
LINE
  8
_0-5_
  6
CONTINUOUS
 62
    4
 10
997.56505681217868
 20
1391.7509159129701
 11
997.57791914940025
 21
1391.7806564631082
  0
LINE
  8
_0-5_
  6
CONTINUOUS
 62
    4
 10
997.57791914940025
 20
1391.7806564631082
 11
997.58693430197172
 21
1391.8131038637407
  0
LINE
  8
_0-5_
  6
CONTINUOUS
 62
    4
 10
997.58693430197172
 20
1391.8131038637407
 11
997.59182834904368
 21
1391.8472722170181
  0
LINE
  8
_0-5_
  6
CONTINUOUS
 62
    4
 10
997.59182834904368
 20
1391.8472722170181
 11
997.59245258747296
 21
1391.8821233348166
  0
LINE
  8
_0-5_
  6
CONTINUOUS
 62
    4
 10
997.59245258747296
 20
1391.8821233348166
 11
997.58878805008998
 21
1391.9165982835568
  0
LINE
  8
_0-5_
  6
CONTINUOUS
 62
    4
 10
997.58878805008998
 20
1391.9165982835568
 11
997.58507939861829
 21
1391.9346079027359
  0
LINE
  8
_0-5_
  6
CONTINUOUS
 62
    4
 10
998.70480123066727
 20
1391.3243243243246
 11
998.73446243929265
 21
1391.1551353194004
  0
LINE
  8
_0-5_
  6
CONTINUOUS
 62
    4
 10
998.73446243929265
 20
1391.1551353194004
 11
998.74289868110554
 21
1390.9812326062983
  0
LINE
  8
_0-5_
  6
CONTINUOUS
 62
    4
 10
998.74289868110554
 20
1390.9812326062983
 11
998.72985362516715
 21
1390.8079001309574
  0
LINE
  8
_0-5_
  6
CONTINUOUS
 62
    4
 10
998.72985362516715
 20
1390.8079001309574
 11
998.69572363890119
 21
1390.6404045129302
  0
LINE
  8
_0-5_
  6
CONTINUOUS
 62
    4
 10
998.69572363890119
 20
1390.6404045129302
 11
998.64154574466988
 21
1390.483835021813
  0
LINE
  8
_0-5_
  6
CONTINUOUS
 62
    4
 10
998.64154574466988
 20
1390.483835021813
 11
998.56896611037382
 21
1390.3429489423663
  0
LINE
  8
_0-5_
  6
CONTINUOUS
 62
    4
 10
998.56896611037382
 20
1390.3429489423663
 11
998.48019003147442
 21
1390.2220270268219
  0
LINE
  8
_0-5_
  6
CONTINUOUS
 62
    4
 10
998.48019003147442
 20
1390.2220270268219
 11
998.37791492420592
 21
1390.1247434263941
  0
LINE
  8
_0-5_
  6
CONTINUOUS
 62
    4
 10
998.37791492420592
 20
1390.1247434263941
 11
998.26524836594876
 21
1390.0540540540541
  0
LINE
  8
_0-5_
  6
CONTINUOUS
 62
    4
 10
998.26524836594876
 20
1390.0540540540541
 11
998.14561367306396
 21
1390.0121067706099
  0
LINE
  8
_0-5_
  6
CONTINUOUS
 62
    4
 10
998.14561367306396
 20
1390.0121067706099
 11
998.0226458851564
 21
1390.000176123043
  0
LINE
  8
_0-5_
  6
CONTINUOUS
 62
    4
 10
998.0226458851564
 20
1390.000176123043
 11
997.90008131623721
 21
1390.0186246180419
  0
LINE
  8
_0-5_
  6
CONTINUOUS
 62
    4
 10
997.90008131623721
 20
1390.0186246180419
 11
997.7816440287122
 21
1390.0668917074217
  0
LINE
  8
_0-5_
  6
CONTINUOUS
 62
    4
 10
997.7816440287122
 20
1390.0668917074217
 11
997.67093267963082
 21
1390.143510820096
  0
LINE
  8
_0-5_
  6
CONTINUOUS
 62
    4
 10
997.67093267963082
 20
1390.143510820096
 11
997.57131117731205
 21
1390.2461539230971
  0
LINE
  8
_0-5_
  6
CONTINUOUS
 62
    4
 10
997.57131117731205
 20
1390.2461539230971
 11
997.4858064706932
 21
1390.3717022576804
  0
LINE
  8
_0-5_
  6
CONTINUOUS
 62
    4
 10
997.4858064706932
 20
1390.3717022576804
 11
997.41701657701696
 21
1390.5163411012301
  0
LINE
  8
_0-5_
  6
CONTINUOUS
 62
    4
 10
997.41701657701696
 20
1390.5163411012301
 11
997.36703164239361
 21
1390.6756756756758
  0
LINE
  8
_0-5_
  6
CONTINUOUS
 62
    4
 10
997.36703164239361
 20
1390.6756756756758
 11
997.33737043376822
 21
1390.8448646806
  0
LINE
  8
_0-5_
  6
CONTINUOUS
 62
    4
 10
997.33737043376822
 20
1390.8448646806
 11
997.32893419195534
 21
1391.018767393702
  0
LINE
  8
_0-5_
  6
CONTINUOUS
 62
    4
 10
997.32893419195534
 20
1391.018767393702
 11
997.34197924789373
 21
1391.1920998690429
  0
LINE
  8
_0-5_
  6
CONTINUOUS
 62
    4
 10
997.34197924789373
 20
1391.1920998690429
 11
997.37610923415968
 21
1391.3595954870702
  0
LINE
  8
_0-5_
  6
CONTINUOUS
 62
    4
 10
997.37610923415968
 20
1391.3595954870702
 11
997.430287128391
 21
1391.5161649781873
  0
LINE
  8
_0-5_
  6
CONTINUOUS
 62
    4
 10
997.430287128391
 20
1391.5161649781873
 11
997.50286676268706
 21
1391.6570510576341
  0
LINE
  8
_0-5_
  6
CONTINUOUS
 62
    4
 10
997.50286676268706
 20
1391.6570510576341
 11
997.54873810591357
 21
1391.7247858648925
  0
LINE
  8
_0-5_
  6
CONTINUOUS
 62
    4
 10
997.65642669618341
 20
1395.6486486486487
 11
998.70480123066727
 21
1391.3243243243243
  0
LINE
  8
_0-5_
  6
CONTINUOUS
 62
    4
 10
997.39952033239524
 20
1366.7000000000002
 11
997.39952033239524
 21
1361.8000000000004
  0
LINE
  8
_0-5_
  6
CONTINUOUS
 62
    4
 10
997.39952033239478
 20
1366.7000000000002
 11
997.39629757012949
 21
1366.7520944533002
  0
LINE
  8
_0-5_
  6
CONTINUOUS
 62
    4
 10
997.39629757012949
 20
1366.7520944533002
 11
997.38672720533395
 21
1366.8026060429979
  0
LINE
  8
_0-5_
  6
CONTINUOUS
 62
    4
 10
997.38672720533395
 20
1366.8026060429979
 11
997.37110002869985
 21
1366.8500000000003
  0
LINE
  8
_0-5_
  6
CONTINUOUS
 62
    4
 10
997.37110002869985
 20
1366.8500000000003
 11
997.34989086408154
 21
1366.8928362829065
  0
LINE
  8
_0-5_
  6
CONTINUOUS
 62
    4
 10
997.34989086408154
 20
1366.8928362829065
 11
997.32374414121341
 21
1366.9298133329359
  0
LINE
  8
_0-5_
  6
CONTINUOUS
 62
    4
 10
997.32374414121341
 20
1366.9298133329359
 11
997.29345431503884
 21
1366.9598076211354
  0
LINE
  8
_0-5_
  6
CONTINUOUS
 62
    4
 10
997.29345431503884
 20
1366.9598076211354
 11
997.2599417265992
 21
1366.9819077862359
  0
LINE
  8
_0-5_
  6
CONTINUOUS
 62
    4
 10
997.2599417265992
 20
1366.9819077862359
 11
997.22422463893553
 21
1366.9954423259039
  0
LINE
  8
_0-5_
  6
CONTINUOUS
 62
    4
 10
997.22422463893553
 20
1366.9954423259039
 11
997.1873882976829
 21
1367.0000000000002
  0
LINE
  8
_0-5_
  6
CONTINUOUS
 62
    4
 10
988.41926419625633
 20
1367.0000000000002
 11
997.1873882976829
 21
1367.0000000000002
  0
LINE
  8
_0-5_
  6
CONTINUOUS
 62
    4
 10
998.53089118419165
 20
1367.6503873382257
 11
998.53089118419165
 21
1361.8000000000004
  0
LINE
  8
_0-5_
  6
CONTINUOUS
 62
    4
 10
998.53089118419211
 20
1367.6503873382257
 11
998.52014864330749
 21
1367.8240355158927
  0
LINE
  8
_0-5_
  6
CONTINUOUS
 62
    4
 10
998.52014864330749
 20
1367.8240355158927
 11
998.48824742732267
 21
1367.9924074815514
  0
LINE
  8
_0-5_
  6
CONTINUOUS
 62
    4
 10
998.48824742732267
 20
1367.9924074815514
 11
998.43615683854227
 21
1368.1503873382257
  0
LINE
  8
_0-5_
  6
CONTINUOUS
 62
    4
 10
998.43615683854227
 20
1368.1503873382257
 11
998.36545962314767
 21
1368.2931749479123
  0
LINE
  8
_0-5_
  6
CONTINUOUS
 62
    4
 10
998.36545962314767
 20
1368.2931749479123
 11
998.27830388025358
 21
1368.4164317813447
  0
LINE
  8
_0-5_
  6
CONTINUOUS
 62
    4
 10
998.27830388025358
 20
1368.4164317813447
 11
998.17733779300533
 21
1368.5164127420102
  0
LINE
  8
_0-5_
  6
CONTINUOUS
 62
    4
 10
998.17733779300533
 20
1368.5164127420102
 11
998.06562916487268
 21
1368.5900799590117
  0
LINE
  8
_0-5_
  6
CONTINUOUS
 62
    4
 10
998.06562916487268
 20
1368.5900799590117
 11
997.94657220599401
 21
1368.635195091238
  0
LINE
  8
_0-5_
  6
CONTINUOUS
 62
    4
 10
997.94657220599401
 20
1368.635195091238
 11
997.86031006306916
 21
1368.6490523231677
  0
LINE
  8
_0-5_
  6
CONTINUOUS
 62
    4
 10
988.87771328266762
 20
1369.4509476768325
 11
997.86031006306939
 21
1368.6490523231677
  0
LINE
  8
ADD_LINE
  6
DOT
 62
    9
 10
997.26625324895212
 20
1361.0000000000002
 11
998.755204212134
 21
1361.0000000000002
  0
LINE
  8
ADD_LINE
  6
DOT
 62
    9
 10
998.53089118419165
 20
1367.6503873382257
 11
998.53089118419165
 21
1368.600000000003
  0
LINE
  8
ADD_LINE
  6
DOT
 62
    9
 10
997.86031006306939
 20
1368.6490523231677
 11
998.53089118419165
 21
1368.600000000003
  0
LINE
  8
ADD_LINE
  6
DOT
 62
    9
 10
996.30398665763141
 20
1390
 11
999.92536829130858
 21
1390
  0
LINE
  8
_0-5_
  6
CONTINUOUS
 62
    4
 10
1187.6112444419122
 20
1370.449612661775
 11
1187.6219869827968
 21
1370.275964484108
  0
LINE
  8
_0-5_
  6
CONTINUOUS
 62
    4
 10
1187.6219869827968
 20
1370.275964484108
 11
1187.6538881987817
 21
1370.1075925184495
  0
LINE
  8
_0-5_
  6
CONTINUOUS
 62
    4
 10
1187.6538881987817
 20
1370.1075925184495
 11
1187.7059787875621
 21
1369.949612661775
  0
LINE
  8
_0-5_
  6
CONTINUOUS
 62
    4
 10
1187.7059787875621
 20
1369.949612661775
 11
1187.7766760029567
 21
1369.8068250520884
  0
LINE
  8
_0-5_
  6
CONTINUOUS
 62
    4
 10
1187.7766760029567
 20
1369.8068250520884
 11
1187.8638317458505
 21
1369.683568218656
  0
LINE
  8
_0-5_
  6
CONTINUOUS
 62
    4
 10
1187.8638317458505
 20
1369.683568218656
 11
1187.9647978330988
 21
1369.5835872579905
  0
LINE
  8
_0-5_
  6
CONTINUOUS
 62
    4
 10
1187.9647978330988
 20
1369.5835872579905
 11
1188.0765064612314
 21
1369.509920040989
  0
LINE
  8
_0-5_
  6
CONTINUOUS
 62
    4
 10
1188.0765064612314
 20
1369.509920040989
 11
1188.1955634201103
 21
1369.4648049087627
  0
LINE
  8
_0-5_
  6
CONTINUOUS
 62
    4
 10
1188.1955634201103
 20
1369.4648049087627
 11
1188.2818255630352
 21
1369.450947676833
  0
LINE
  8
_0-5_
  6
CONTINUOUS
 62
    4
 10
1195.7227693882773
 20
1397.0000000000002
 11
1188.1062191895737
 21
1397.0000000000002
  0
LINE
  8
_0-5_
  6
CONTINUOUS
 62
    4
 10
1197.060538976551
 20
1395.6486486486487
 11
1198.1089135110346
 21
1391.3243243243243
  0
LINE
  8
_0-5_
  6
CONTINUOUS
 62
    4
 10
1197.935003464559
 20
1367.6503873382257
 11
1197.935003464559
 21
1361.8000000000004
  0
LINE
  8
_0-5_
  6
CONTINUOUS
 62
    4
 10
1197.9350034645594
 20
1367.6503873382257
 11
1197.9242609236748
 21
1367.8240355158927
  0
LINE
  8
_0-5_
  6
CONTINUOUS
 62
    4
 10
1197.9242609236748
 20
1367.8240355158927
 11
1197.89235970769
 21
1367.9924074815514
  0
LINE
  8
_0-5_
  6
CONTINUOUS
 62
    4
 10
1197.89235970769
 20
1367.9924074815514
 11
1197.8402691189096
 21
1368.1503873382257
  0
LINE
  8
_0-5_
  6
CONTINUOUS
 62
    4
 10
1197.8402691189096
 20
1368.1503873382257
 11
1197.769571903515
 21
1368.2931749479123
  0
LINE
  8
_0-5_
  6
CONTINUOUS
 62
    4
 10
1197.769571903515
 20
1368.2931749479123
 11
1197.6824161606211
 21
1368.4164317813447
  0
LINE
  8
_0-5_
  6
CONTINUOUS
 62
    4
 10
1197.6824161606211
 20
1368.4164317813447
 11
1197.5814500733729
 21
1368.5164127420102
  0
LINE
  8
_0-5_
  6
CONTINUOUS
 62
    4
 10
1197.5814500733729
 20
1368.5164127420102
 11
1197.4697414452402
 21
1368.5900799590117
  0
LINE
  8
_0-5_
  6
CONTINUOUS
 62
    4
 10
1197.4697414452402
 20
1368.5900799590117
 11
1197.3506844863613
 21
1368.635195091238
  0
LINE
  8
_0-5_
  6
CONTINUOUS
 62
    4
 10
1197.3506844863613
 20
1368.635195091238
 11
1197.2644223434365
 21
1368.6490523231677
  0
LINE
  8
_0-5_
  6
CONTINUOUS
 62
    4
 10
1188.2818255630352
 20
1369.4509476768325
 11
1197.2644223434369
 21
1368.6490523231677
  0
LINE
  8
ADD_LINE
  6
DOT
 62
    9
 10
1196.6703655293197
 20
1361.0000000000002
 11
1198.1593164925013
 21
1361.0000000000002
  0
LINE
  8
ADD_LINE
  6
DOT
 62
    9
 10
1197.935003464559
 20
1367.6503873382257
 11
1197.935003464559
 21
1368.600000000003
  0
LINE
  8
ADD_LINE
  6
DOT
 62
    9
 10
1197.2644223434369
 20
1368.6490523231677
 11
1197.935003464559
 21
1368.600000000003
  0
LINE
  8
ADD_LINE
  6
DOT
 62
    9
 10
1195.7080989379987
 20
1390
 11
1199.3294805716759
 21
1390
  0
LINE
  8
_0-5_
  6
CONTINUOUS
 62
    4
 10
1197.3693180386608
 20
1361.0000000000004
 11
1197.4675482820007
 21
1361.0121537975905
  0
LINE
  8
_0-5_
  6
CONTINUOUS
 62
    4
 10
1197.4675482820007
 20
1361.0121537975905
 11
1197.5627938491038
 21
1361.0482459033714
  0
LINE
  8
_0-5_
  6
CONTINUOUS
 62
    4
 10
1197.5627938491038
 20
1361.0482459033714
 11
1197.6521607516101
 21
1361.1071796769729
  0
LINE
  8
_0-5_
  6
CONTINUOUS
 62
    4
 10
1197.6521607516101
 20
1361.1071796769729
 11
1197.7329336214086
 21
1361.1871644455052
  0
LINE
  8
_0-5_
  6
CONTINUOUS
 62
    4
 10
1197.7329336214086
 20
1361.1871644455052
 11
1197.8026582157237
 21
1361.2857699122512
  0
LINE
  8
_0-5_
  6
CONTINUOUS
 62
    4
 10
1197.8026582157237
 20
1361.2857699122512
 11
1197.8592159880395
 21
1361.4000000000005
  0
LINE
  8
_0-5_
  6
CONTINUOUS
 62
    4
 10
1197.8592159880395
 20
1361.4000000000005
 11
1197.9008884590637
 21
1361.5263838853397
  0
LINE
  8
_0-5_
  6
CONTINUOUS
 62
    4
 10
1197.9008884590637
 20
1361.5263838853397
 11
1197.9264094318516
 21
1361.6610814578668
  0
LINE
  8
_0-5_
  6
CONTINUOUS
 62
    4
 10
1197.9264094318516
 20
1361.6610814578668
 11
1197.9350034645592
 21
1361.8000000000004
  0
LINE
  8
_0-5_
  6
CONTINUOUS
 62
    4
 10
997.96520575829345
 20
1361.0000000000002
 11
1197.3693180386608
 21
1361.0000000000002
  0
LINE
  8
_0-5_
  6
CONTINUOUS
 62
    4
 10
998.53089118419165
 20
1368.600000000003
 11
1197.1367100833908
 21
1368.600000000003
  0
LINE
  8
_0-5_
  6
CONTINUOUS
 62
    4
 10
1197.0605389765507
 20
1395.6486486486485
 11
1196.9605691073043
 21
1395.9673177975398
  0
LINE
  8
_0-5_
  6
CONTINUOUS
 62
    4
 10
1196.9605691073043
 20
1395.9673177975398
 11
1196.822989319952
 21
1396.2565954846395
  0
LINE
  8
_0-5_
  6
CONTINUOUS
 62
    4
 10
1196.822989319952
 20
1396.2565954846395
 11
1196.6519799067141
 21
1396.5076921538061
  0
LINE
  8
_0-5_
  6
CONTINUOUS
 62
    4
 10
1196.6519799067141
 20
1396.5076921538061
 11
1196.4527369020765
 21
1396.7129783598084
  0
LINE
  8
_0-5_
  6
CONTINUOUS
 62
    4
 10
1196.4527369020765
 20
1396.7129783598084
 11
1196.2313142039135
 21
1396.8662165851569
  0
LINE
  8
_0-5_
  6
CONTINUOUS
 62
    4
 10
1196.2313142039135
 20
1396.8662165851569
 11
1195.9944396288638
 21
1396.9627507639165
  0
LINE
  8
_0-5_
  6
CONTINUOUS
 62
    4
 10
1195.9944396288638
 20
1396.9627507639165
 11
1195.7493104910254
 21
1396.9996477539143
  0
LINE
  8
_0-5_
  6
CONTINUOUS
 62
    4
 10
1195.7493104910254
 20
1396.9996477539143
 11
1195.7227693882773
 21
1397
  0
LINE
  8
_0-5_
  6
CONTINUOUS
 62
    4
 10
996.31865710790998
 20
1397.0000000000002
 11
1195.7227693882773
 21
1397.0000000000002
  0
LINE
  8
_0-5_
  6
CONTINUOUS
 62
    4
 10
1198.1089135110348
 20
1391.3243243243246
 11
1198.1385747196602
 21
1391.1551353194004
  0
LINE
  8
_0-5_
  6
CONTINUOUS
 62
    4
 10
1198.1385747196602
 20
1391.1551353194004
 11
1198.1470109614729
 21
1390.9812326062983
  0
LINE
  8
_0-5_
  6
CONTINUOUS
 62
    4
 10
1198.1470109614729
 20
1390.9812326062983
 11
1198.1339659055347
 21
1390.8079001309574
  0
LINE
  8
_0-5_
  6
CONTINUOUS
 62
    4
 10
1198.1339659055347
 20
1390.8079001309574
 11
1198.0998359192687
 21
1390.6404045129302
  0
LINE
  8
_0-5_
  6
CONTINUOUS
 62
    4
 10
1198.0998359192687
 20
1390.6404045129302
 11
1198.0456580250374
 21
1390.483835021813
  0
LINE
  8
_0-5_
  6
CONTINUOUS
 62
    4
 10
1198.0456580250374
 20
1390.483835021813
 11
1197.9730783907414
 21
1390.3429489423663
  0
LINE
  8
_0-5_
  6
CONTINUOUS
 62
    4
 10
1197.9730783907414
 20
1390.3429489423663
 11
1197.884302311842
 21
1390.2220270268219
  0
LINE
  8
_0-5_
  6
CONTINUOUS
 62
    4
 10
1197.884302311842
 20
1390.2220270268219
 11
1197.7820272045732
 21
1390.1247434263941
  0
LINE
  8
_0-5_
  6
CONTINUOUS
 62
    4
 10
1197.7820272045732
 20
1390.1247434263941
 11
1197.6693606463163
 21
1390.0540540540541
  0
LINE
  8
_0-5_
  6
CONTINUOUS
 62
    4
 10
1197.6693606463163
 20
1390.0540540540541
 11
1197.5497259534315
 21
1390.0121067706099
  0
LINE
  8
_0-5_
  6
CONTINUOUS
 62
    4
 10
1197.5497259534315
 20
1390.0121067706099
 11
1197.440028716898
 21
1390.0000000000002
  0
LINE
  8
_0-5_
  6
CONTINUOUS
 62
    4
 10
998.03591643653044
 20
1390
 11
1197.440028716898
 21
1390
  0
LINE
  8
_0-5_
  6
CONTINUOUS
 62
    4
 10
1187.6112444419115
 20
1370.449612661775
 11
1187.6112444419115
 21
1390
  0
LINE
  8
_0-4_
  6
CONTINUOUS
 62
    3
 10
988.41926419625633
 20
1367.0000000000002
 11
988.41926419625633
 21
1327.0000000000002
  0
LINE
  8
_0-4_
  6
CONTINUOUS
 62
    3
 10
996.90454558473379
 20
1367.0000000000002
 11
996.90454558473379
 21
1327.0000000000002
  0
LINE
  8
_0-4_
  6
CONTINUOUS
 62
    3
 10
1196.3086578651013
 20
1321.0000000000002
 11
1196.3086578651013
 21
1361.0000000000002
  0
ARC
  8
_0-5_
  6
CONTINUOUS
 62
    4
 10
2243
 20
1393
 40
3.0000000000000004
 50
270
 51
0
  0
ARC
  8
_0-5_
  6
CONTINUOUS
 62
    4
 10
1967
 20
1393
 40
3.0000000000000004
 50
180
 51
270
  0
LINE
  8
_0-5_
  6
CONTINUOUS
 62
    4
 10
1967
 20
1390
 11
2243
 21
1390
  0
LINE
  8
_0-5_
  6
CONTINUOUS
 62
    4
 10
2246
 20
1361.0000000000002
 11
1964
 21
1361.0000000000002
  0
LINE
  8
_0-5_
  6
CONTINUOUS
 62
    4
 10
2246
 20
1368.600000000003
 11
1964
 21
1368.600000000003
  0
LINE
  8
_0-4_
  6
CONTINUOUS
 62
    3
 10
2246
 20
1397
 11
1964
 21
1397
  0
LINE
  8
_0-4_
  6
CONTINUOUS
 62
    3
 10
1964
 20
1357
 11
1964
 21
1397
  0
LINE
  8
_0-4_
  6
CONTINUOUS
 62
    3
 10
2246
 20
1357
 11
2246
 21
1397
  0
LINE
  8
_0-4_
  6
CONTINUOUS
 62
    3
 10
3221.5807358037436
 20
1367.0000000000002
 11
3213.0954544152659
 21
1367.0000000000002
  0
LINE
  8
_0-5_
  6
CONTINUOUS
 62
    4
 10
3222.71210665554
 20
1395
 11
3222.6906215737708
 21
1395.3472963553338
  0
LINE
  8
_0-5_
  6
CONTINUOUS
 62
    4
 10
3222.6906215737708
 20
1395.3472963553338
 11
3222.6268191418012
 21
1395.6840402866512
  0
LINE
  8
_0-5_
  6
CONTINUOUS
 62
    4
 10
3222.6268191418012
 20
1395.6840402866512
 11
3222.5226379642399
 21
1396
  0
LINE
  8
_0-5_
  6
CONTINUOUS
 62
    4
 10
3222.5226379642399
 20
1396
 11
3222.3812435334511
 21
1396.2855752193731
  0
LINE
  8
_0-5_
  6
CONTINUOUS
 62
    4
 10
3222.3812435334511
 20
1396.2855752193731
 11
3222.2069320476634
 21
1396.5320888862379
  0
LINE
  8
_0-5_
  6
CONTINUOUS
 62
    4
 10
3222.2069320476634
 20
1396.5320888862379
 11
3222.0049998731665
 21
1396.7320508075686
  0
LINE
  8
_0-5_
  6
CONTINUOUS
 62
    4
 10
3222.0049998731665
 20
1396.7320508075686
 11
3221.7815826169016
 21
1396.8793852415717
  0
LINE
  8
_0-5_
  6
CONTINUOUS
 62
    4
 10
3221.7815826169016
 20
1396.8793852415717
 11
3221.5434686991438
 21
1396.9696155060246
  0
LINE
  8
_0-5_
  6
CONTINUOUS
 62
    4
 10
3221.5434686991438
 20
1396.9696155060246
 11
3221.2978930907938
 21
1397
  0
LINE
  8
_0-5_
  6
CONTINUOUS
 62
    4
 10
3221.792867838455
 20
1395
 11
3221.7853480598359
 21
1395.1215537243665
  0
LINE
  8
_0-5_
  6
CONTINUOUS
 62
    4
 10
3221.7853480598359
 20
1395.1215537243665
 11
3221.7630172086464
 21
1395.2394141003283
  0
LINE
  8
_0-5_
  6
CONTINUOUS
 62
    4
 10
3221.7630172086464
 20
1395.2394141003283
 11
3221.7265537965004
 21
1395.3499999999999
  0
LINE
  8
_0-5_
  6
CONTINUOUS
 62
    4
 10
3221.7265537965004
 20
1395.3499999999999
 11
3221.6770657457245
 21
1395.4499513267805
  0
LINE
  8
_0-5_
  6
CONTINUOUS
 62
    4
 10
3221.6770657457245
 20
1395.4499513267805
 11
3221.6160567256983
 21
1395.5362311101835
  0
LINE
  8
_0-5_
  6
CONTINUOUS
 62
    4
 10
3221.6160567256983
 20
1395.5362311101835
 11
3221.5453804646244
 21
1395.606217782649
  0
LINE
  8
_0-5_
  6
CONTINUOUS
 62
    4
 10
3221.5453804646244
 20
1395.606217782649
 11
3221.4671844249314
 21
1395.65778483455
  0
LINE
  8
_0-5_
  6
CONTINUOUS
 62
    4
 10
3221.4671844249314
 20
1395.65778483455
 11
3221.3838445537162
 21
1395.6893654271084
  0
LINE
  8
_0-5_
  6
CONTINUOUS
 62
    4
 10
3221.3838445537162
 20
1395.6893654271084
 11
3221.2978930907938
 21
1395.6999999999998
  0
LINE
  8
_0-5_
  6
CONTINUOUS
 62
    4
 10
3222.71210665554
 20
1353
 11
3222.71210665554
 21
1395
  0
LINE
  8
_0-5_
  6
CONTINUOUS
 62
    4
 10
3222.3585532643537
 20
1352.5
 11
3222.4199471664414
 21
1352.5075961234938
  0
LINE
  8
_0-5_
  6
CONTINUOUS
 62
    4
 10
3222.4199471664414
 20
1352.5075961234938
 11
3222.4794756458804
 21
1352.5301536896067
  0
LINE
  8
_0-5_
  6
CONTINUOUS
 62
    4
 10
3222.4794756458804
 20
1352.5301536896067
 11
3222.5353299599469
 21
1352.5669872981077
  0
LINE
  8
_0-5_
  6
CONTINUOUS
 62
    4
 10
3222.5353299599469
 20
1352.5669872981077
 11
3222.5858130035712
 21
1352.6169777784407
  0
LINE
  8
_0-5_
  6
CONTINUOUS
 62
    4
 10
3222.5858130035712
 20
1352.6169777784407
 11
3222.629390875018
 21
1352.6786061951568
  0
LINE
  8
_0-5_
  6
CONTINUOUS
 62
    4
 10
3222.629390875018
 20
1352.6786061951568
 11
3222.6647394827155
 21
1352.75
  0
LINE
  8
_0-5_
  6
CONTINUOUS
 62
    4
 10
3222.6647394827155
 20
1352.75
 11
3222.6907847771058
 21
1352.8289899283372
  0
LINE
  8
_0-5_
  6
CONTINUOUS
 62
    4
 10
3222.6907847771058
 20
1352.8289899283372
 11
3222.7067353850979
 21
1352.9131759111664
  0
LINE
  8
_0-5_
  6
CONTINUOUS
 62
    4
 10
3222.7067353850979
 20
1352.9131759111664
 11
3222.71210665554
 21
1353
  0
LINE
  8
_0-5_
  6
CONTINUOUS
 62
    4
 10
3221.7928678384541
 20
1353.92449979984
 11
3221.7215581497666
 21
1353.8281881558034
  0
LINE
  8
_0-5_
  6
CONTINUOUS
 62
    4
 10
3221.7215581497666
 20
1353.8281881558034
 11
3221.66315771077
 21
1353.7158277819289
  0
LINE
  8
_0-5_
  6
CONTINUOUS
 62
    4
 10
3221.66315771077
 20
1353.7158277819289
 11
3221.6194409892514
 21
1353.5908326913199
  0
LINE
  8
_0-5_
  6
CONTINUOUS
 62
    4
 10
3221.6194409892514
 20
1353.5908326913199
 11
3221.5917362956715
 21
1353.457000796553
  0
LINE
  8
_0-5_
  6
CONTINUOUS
 62
    4
 10
3221.5917362956715
 20
1353.457000796553
 11
3221.5808854231263
 21
1353.3183985120294
  0
LINE
  8
_0-5_
  6
CONTINUOUS
 62
    4
 10
3221.5808854231263
 20
1353.3183985120294
 11
3221.587218069887
 21
1353.1792371980277
  0
LINE
  8
_0-5_
  6
CONTINUOUS
 62
    4
 10
3221.587218069887
 20
1353.1792371980277
 11
3221.6105418216866
 21
1353.0437452006551
  0
LINE
  8
_0-5_
  6
CONTINUOUS
 62
    4
 10
3221.6105418216866
 20
1353.0437452006551
 11
3221.6501479981288
 21
1352.9160393756892
  0
LINE
  8
_0-5_
  6
CONTINUOUS
 62
    4
 10
3221.6501479981288
 20
1352.9160393756892
 11
3221.7048331855839
 21
1352.8000000000001
  0
LINE
  8
_0-5_
  6
CONTINUOUS
 62
    4
 10
3221.7048331855839
 20
1352.8000000000001
 11
3221.7729358023043
 21
1352.6991528712985
  0
LINE
  8
_0-5_
  6
CONTINUOUS
 62
    4
 10
3221.7729358023043
 20
1352.6991528712985
 11
3221.8523865847409
 21
1352.6165621785592
  0
LINE
  8
_0-5_
  6
CONTINUOUS
 62
    4
 10
3221.8523865847409
 20
1352.6165621785592
 11
3221.9407714610733
 21
1352.554737398188
  0
LINE
  8
_0-5_
  6
CONTINUOUS
 62
    4
 10
3221.9407714610733
 20
1352.554737398188
 11
3222.0354049015613
 21
1352.5155570448519
  0
LINE
  8
_0-5_
  6
CONTINUOUS
 62
    4
 10
3222.0354049015613
 20
1352.5155570448519
 11
3222.1334115169997
 21
1352.5002115937606
  0
LINE
  8
_0-5_
  6
CONTINUOUS
 62
    4
 10
3222.1334115169997
 20
1352.5002115937606
 11
3222.1464212296414
 21
1352.5000000000002
  0
LINE
  8
_0-5_
  6
CONTINUOUS
 62
    4
 10
3222.3585532643537
 20
1352.5
 11
3222.1464212296414
 21
1352.5
  0
LINE
  8
_0-5_
  6
CONTINUOUS
 62
    4
 10
3221.7928678384555
 20
1361.2755002001604
 11
3221.7928678384555
 21
1353.9244997998398
  0
LINE
  8
_0-5_
  6
CONTINUOUS
 62
    4
 10
3221.7928678384541
 20
1362.5244997998402
 11
3221.7215581497666
 21
1362.4281881558035
  0
LINE
  8
_0-5_
  6
CONTINUOUS
 62
    4
 10
3221.7215581497666
 20
1362.4281881558035
 11
3221.66315771077
 21
1362.3158277819291
  0
LINE
  8
_0-5_
  6
CONTINUOUS
 62
    4
 10
3221.66315771077
 20
1362.3158277819291
 11
3221.6194409892514
 21
1362.1908326913198
  0
LINE
  8
_0-5_
  6
CONTINUOUS
 62
    4
 10
3221.6194409892514
 20
1362.1908326913198
 11
3221.5917362956715
 21
1362.0570007965532
  0
LINE
  8
_0-5_
  6
CONTINUOUS
 62
    4
 10
3221.5917362956715
 20
1362.0570007965532
 11
3221.5808854231263
 21
1361.9183985120296
  0
LINE
  8
_0-5_
  6
CONTINUOUS
 62
    4
 10
3221.5808854231263
 20
1361.9183985120296
 11
3221.587218069887
 21
1361.7792371980276
  0
LINE
  8
_0-5_
  6
CONTINUOUS
 62
    4
 10
3221.587218069887
 20
1361.7792371980276
 11
3221.6105418216866
 21
1361.6437452006553
  0
LINE
  8
_0-5_
  6
CONTINUOUS
 62
    4
 10
3221.6105418216866
 20
1361.6437452006553
 11
3221.6501479981288
 21
1361.5160393756896
  0
LINE
  8
_0-5_
  6
CONTINUOUS
 62
    4
 10
3221.6501479981288
 20
1361.5160393756896
 11
3221.7048331855839
 21
1361.4000000000005
  0
LINE
  8
_0-5_
  6
CONTINUOUS
 62
    4
 10
3221.7048331855839
 20
1361.4000000000005
 11
3221.7729358023043
 21
1361.2991528712987
  0
LINE
  8
_0-5_
  6
CONTINUOUS
 62
    4
 10
3221.7729358023043
 20
1361.2991528712987
 11
3221.7928678384541
 21
1361.2755002001604
  0
LINE
  8
_0-5_
  6
CONTINUOUS
 62
    4
 10
3221.7928678384555
 20
1366.7000000000002
 11
3221.7928678384555
 21
1362.5244997998399
  0
LINE
  8
_0-5_
  6
CONTINUOUS
 62
    4
 10
3221.7928678384555
 20
1366.7000000000002
 11
3221.78964507619
 21
1366.7520944533002
  0
LINE
  8
_0-5_
  6
CONTINUOUS
 62
    4
 10
3221.78964507619
 20
1366.7520944533002
 11
3221.7800747113951
 21
1366.8026060429979
  0
LINE
  8
_0-5_
  6
CONTINUOUS
 62
    4
 10
3221.7800747113951
 20
1366.8026060429979
 11
3221.7644475347606
 21
1366.8500000000003
  0
LINE
  8
_0-5_
  6
CONTINUOUS
 62
    4
 10
3221.7644475347606
 20
1366.8500000000003
 11
3221.7432383701416
 21
1366.8928362829065
  0
LINE
  8
_0-5_
  6
CONTINUOUS
 62
    4
 10
3221.7432383701416
 20
1366.8928362829065
 11
3221.7170916472741
 21
1366.9298133329359
  0
LINE
  8
_0-5_
  6
CONTINUOUS
 62
    4
 10
3221.7170916472741
 20
1366.9298133329359
 11
3221.6868018210998
 21
1366.9598076211354
  0
LINE
  8
_0-5_
  6
CONTINUOUS
 62
    4
 10
3221.6868018210998
 20
1366.9598076211354
 11
3221.6532892326595
 21
1366.9819077862359
  0
LINE
  8
_0-5_
  6
CONTINUOUS
 62
    4
 10
3221.6532892326595
 20
1366.9819077862359
 11
3221.6175721449963
 21
1366.9954423259039
  0
LINE
  8
_0-5_
  6
CONTINUOUS
 62
    4
 10
3221.6175721449963
 20
1366.9954423259039
 11
3221.5807358037436
 21
1367.0000000000002
  0
LINE
  8
_0-5_
  6
CONTINUOUS
 62
    4
 10
3221.7928678384555
 20
1370.449612661775
 11
3221.7928678384555
 21
1395
  0
LINE
  8
_0-5_
  6
CONTINUOUS
 62
    4
 10
3221.1222867173328
 20
1369.450947676833
 11
3221.2443556910729
 21
1369.475089453394
  0
LINE
  8
_0-5_
  6
CONTINUOUS
 62
    4
 10
3221.2443556910729
 20
1369.475089453394
 11
3221.361605847082
 21
1369.5288416245093
  0
LINE
  8
_0-5_
  6
CONTINUOUS
 62
    4
 10
3221.361605847082
 20
1369.5288416245093
 11
3221.4704745987005
 21
1369.6105709576593
  0
LINE
  8
_0-5_
  6
CONTINUOUS
 62
    4
 10
3221.4704745987005
 20
1369.6105709576593
 11
3221.5676540240015
 21
1369.717794148413
  0
LINE
  8
_0-5_
  6
CONTINUOUS
 62
    4
 10
3221.5676540240015
 20
1369.717794148413
 11
3221.6501913753209
 21
1369.8472532743771
  0
LINE
  8
_0-5_
  6
CONTINUOUS
 62
    4
 10
3221.6501913753209
 20
1369.8472532743771
 11
3221.7155787970068
 21
1369.9950147855192
  0
LINE
  8
_0-5_
  6
CONTINUOUS
 62
    4
 10
3221.7155787970068
 20
1369.9950147855192
 11
3221.7618295253373
 21
1370.1565890230936
  0
LINE
  8
_0-5_
  6
CONTINUOUS
 62
    4
 10
3221.7618295253373
 20
1370.1565890230936
 11
3221.787538255337
 21
1370.327066635652
  0
LINE
  8
_0-5_
  6
CONTINUOUS
 62
    4
 10
3221.787538255337
 20
1370.327066635652
 11
3221.7928678384555
 21
1370.449612661775
  0
LINE
  8
_0-5_
  6
CONTINUOUS
 62
    4
 10
3211.4691088158078
 20
1361.8000000000004
 11
3211.4777028485154
 21
1361.6610814578668
  0
LINE
  8
_0-5_
  6
CONTINUOUS
 62
    4
 10
3211.4777028485154
 20
1361.6610814578668
 11
3211.5032238213034
 21
1361.5263838853397
  0
LINE
  8
_0-5_
  6
CONTINUOUS
 62
    4
 10
3211.5032238213034
 20
1361.5263838853397
 11
3211.5448962923278
 21
1361.4000000000005
  0
LINE
  8
_0-5_
  6
CONTINUOUS
 62
    4
 10
3211.5448962923278
 20
1361.4000000000005
 11
3211.6014540646438
 21
1361.2857699122512
  0
LINE
  8
_0-5_
  6
CONTINUOUS
 62
    4
 10
3211.6014540646438
 20
1361.2857699122512
 11
3211.6711786589585
 21
1361.1871644455052
  0
LINE
  8
_0-5_
  6
CONTINUOUS
 62
    4
 10
3211.6711786589585
 20
1361.1871644455052
 11
3211.7519515287576
 21
1361.1071796769729
  0
LINE
  8
_0-5_
  6
CONTINUOUS
 62
    4
 10
3211.7519515287576
 20
1361.1071796769729
 11
3211.8413184312635
 21
1361.0482459033714
  0
LINE
  8
_0-5_
  6
CONTINUOUS
 62
    4
 10
3211.8413184312635
 20
1361.0482459033714
 11
3211.9365639983661
 21
1361.0121537975905
  0
LINE
  8
_0-5_
  6
CONTINUOUS
 62
    4
 10
3211.9365639983661
 20
1361.0121537975905
 11
3212.0347942417065
 21
1361.0000000000004
  0
LINE
  8
_0-5_
  6
CONTINUOUS
 62
    4
 10
3212.0347942417065
 20
1361.0000000000004
 11
3212.1330244850464
 21
1361.0121537975905
  0
LINE
  8
_0-5_
  6
CONTINUOUS
 62
    4
 10
3212.1330244850464
 20
1361.0121537975905
 11
3212.22827005215
 21
1361.0482459033714
  0
LINE
  8
_0-5_
  6
CONTINUOUS
 62
    4
 10
3212.22827005215
 20
1361.0482459033714
 11
3212.3176369546558
 21
1361.1071796769729
  0
LINE
  8
_0-5_
  6
CONTINUOUS
 62
    4
 10
3212.3176369546558
 20
1361.1071796769729
 11
3212.3984098244541
 21
1361.1871644455052
  0
LINE
  8
_0-5_
  6
CONTINUOUS
 62
    4
 10
3212.3984098244541
 20
1361.1871644455052
 11
3212.4681344187692
 21
1361.2857699122512
  0
LINE
  8
_0-5_
  6
CONTINUOUS
 62
    4
 10
3212.4681344187692
 20
1361.2857699122512
 11
3212.5246921910857
 21
1361.4000000000005
  0
LINE
  8
_0-5_
  6
CONTINUOUS
 62
    4
 10
3212.5246921910857
 20
1361.4000000000005
 11
3212.5663646621096
 21
1361.5263838853397
  0
LINE
  8
_0-5_
  6
CONTINUOUS
 62
    4
 10
3212.5663646621096
 20
1361.5263838853397
 11
3212.5918856348976
 21
1361.6610814578668
  0
LINE
  8
_0-5_
  6
CONTINUOUS
 62
    4
 10
3212.5918856348976
 20
1361.6610814578668
 11
3212.6004796676052
 21
1361.8000000000004
  0
LINE
  8
_0-5_
  6
CONTINUOUS
 62
    4
 10
3213.6813428920904
 20
1397.0000000000002
 11
3221.2978930907938
 21
1397.0000000000002
  0
LINE
  8
_0-5_
  6
CONTINUOUS
 62
    4
 10
3213.6813428920904
 20
1397
 11
3213.4357672837404
 21
1396.9696155060246
  0
LINE
  8
_0-5_
  6
CONTINUOUS
 62
    4
 10
3213.4357672837404
 20
1396.9696155060246
 11
3213.1976533659826
 21
1396.8793852415717
  0
LINE
  8
_0-5_
  6
CONTINUOUS
 62
    4
 10
3213.1976533659826
 20
1396.8793852415717
 11
3212.9742361097173
 21
1396.7320508075686
  0
LINE
  8
_0-5_
  6
CONTINUOUS
 62
    4
 10
3212.9742361097173
 20
1396.7320508075686
 11
3212.7723039352208
 21
1396.5320888862379
  0
LINE
  8
_0-5_
  6
CONTINUOUS
 62
    4
 10
3212.7723039352208
 20
1396.5320888862379
 11
3212.5979924494331
 21
1396.2855752193731
  0
LINE
  8
_0-5_
  6
CONTINUOUS
 62
    4
 10
3212.5979924494331
 20
1396.2855752193731
 11
3212.4565980186439
 21
1396
  0
LINE
  8
_0-5_
  6
CONTINUOUS
 62
    4
 10
3212.4565980186439
 20
1396
 11
3212.3524168410831
 21
1395.6840402866512
  0
LINE
  8
_0-5_
  6
CONTINUOUS
 62
    4
 10
3212.3524168410831
 20
1395.6840402866512
 11
3212.3435733038172
 21
1395.6486486486485
  0
LINE
  8
_0-5_
  6
CONTINUOUS
 62
    4
 10
3213.6813428920904
 20
1395.6999999999998
 11
3213.5953914291676
 21
1395.6893654271084
  0
LINE
  8
_0-5_
  6
CONTINUOUS
 62
    4
 10
3213.5953914291676
 20
1395.6893654271084
 11
3213.5120515579528
 21
1395.65778483455
  0
LINE
  8
_0-5_
  6
CONTINUOUS
 62
    4
 10
3213.5120515579528
 20
1395.65778483455
 11
3213.4338555182598
 21
1395.606217782649
  0
LINE
  8
_0-5_
  6
CONTINUOUS
 62
    4
 10
3213.4338555182598
 20
1395.606217782649
 11
3213.3631792571859
 21
1395.5362311101835
  0
LINE
  8
_0-5_
  6
CONTINUOUS
 62
    4
 10
3213.3631792571859
 20
1395.5362311101835
 11
3213.3021702371606
 21
1395.4499513267805
  0
LINE
  8
_0-5_
  6
CONTINUOUS
 62
    4
 10
3213.3021702371606
 20
1395.4499513267805
 11
3213.2526821863839
 21
1395.3499999999999
  0
LINE
  8
_0-5_
  6
CONTINUOUS
 62
    4
 10
3213.2526821863839
 20
1395.3499999999999
 11
3213.2162187742378
 21
1395.2394141003283
  0
LINE
  8
_0-5_
  6
CONTINUOUS
 62
    4
 10
3213.2162187742378
 20
1395.2394141003283
 11
3213.2131235361948
 21
1395.2270270270269
  0
LINE
  8
_0-5_
  6
CONTINUOUS
 62
    4
 10
3221.2978930907938
 20
1395.7000000000002
 11
3213.6813428920904
 21
1395.7000000000002
  0
LINE
  8
_0-5_
  6
CONTINUOUS
 62
    4
 10
3213.2131235361935
 20
1395.2270270270273
 11
3212.4149206013821
 21
1391.9346079027359
  0
LINE
  8
_0-5_
  6
CONTINUOUS
 62
    4
 10
3212.4149206013821
 20
1391.9346079027359
 11
3212.408988359657
 21
1391.9007701017512
  0
LINE
  8
_0-5_
  6
CONTINUOUS
 62
    4
 10
3212.408988359657
 20
1391.9007701017512
 11
3212.4073011112941
 21
1391.8659895591306
  0
LINE
  8
_0-5_
  6
CONTINUOUS
 62
    4
 10
3212.4073011112941
 20
1391.8659895591306
 11
3212.4099101224819
 21
1391.8313230640626
  0
LINE
  8
_0-5_
  6
CONTINUOUS
 62
    4
 10
3212.4099101224819
 20
1391.8313230640626
 11
3212.4167361197351
 21
1391.7978239404569
  0
LINE
  8
_0-5_
  6
CONTINUOUS
 62
    4
 10
3212.4167361197351
 20
1391.7978239404569
 11
3212.4275716985812
 21
1391.7665100422336
  0
LINE
  8
_0-5_
  6
CONTINUOUS
 62
    4
 10
3212.4275716985812
 20
1391.7665100422336
 11
3212.4420876254407
 21
1391.7383328263442
  0
LINE
  8
_0-5_
  6
CONTINUOUS
 62
    4
 10
3212.4420876254407
 20
1391.7383328263442
 11
3212.4512618940852
 21
1391.7247858648925
  0
LINE
  8
_0-5_
  6
CONTINUOUS
 62
    4
 10
3212.4512618940866
 20
1391.7247858648925
 11
3212.5328554254083
 21
1391.5941356245052
  0
LINE
  8
_0-5_
  6
CONTINUOUS
 62
    4
 10
3212.5328554254083
 20
1391.5941356245052
 11
3212.5971671115171
 21
1391.4454328738145
  0
LINE
  8
_0-5_
  6
CONTINUOUS
 62
    4
 10
3212.5971671115171
 20
1391.4454328738145
 11
3212.6422428743744
 21
1391.2831958706528
  0
LINE
  8
_0-5_
  6
CONTINUOUS
 62
    4
 10
3212.6422428743744
 20
1391.2831958706528
 11
3212.6667131097347
 21
1391.1123541042652
  0
LINE
  8
_0-5_
  6
CONTINUOUS
 62
    4
 10
3212.6667131097347
 20
1391.1123541042652
 11
3212.6698343018797
 21
1390.9380985152733
  0
LINE
  8
_0-5_
  6
CONTINUOUS
 62
    4
 10
3212.6698343018797
 20
1390.9380985152733
 11
3212.6515116149653
 21
1390.7657237715716
  0
LINE
  8
_0-5_
  6
CONTINUOUS
 62
    4
 10
3212.6515116149653
 20
1390.7657237715716
 11
3212.6123017745612
 21
1390.6004673925208
  0
LINE
  8
_0-5_
  6
CONTINUOUS
 62
    4
 10
3212.6123017745612
 20
1390.6004673925208
 11
3212.5533961518276
 21
1390.447350609575
  0
LINE
  8
_0-5_
  6
CONTINUOUS
 62
    4
 10
3212.5533961518276
 20
1390.447350609575
 11
3212.4765845643037
 21
1390.3110257987036
  0
LINE
  8
_0-5_
  6
CONTINUOUS
 62
    4
 10
3212.4765845643037
 20
1390.3110257987036
 11
3212.3842008932069
 21
1390.1956351203007
  0
LINE
  8
_0-5_
  6
CONTINUOUS
 62
    4
 10
3212.3842008932069
 20
1390.1956351203007
 11
3212.279052169636
 21
1390.1046846617391
  0
LINE
  8
_0-5_
  6
CONTINUOUS
 62
    4
 10
3212.279052169636
 20
1390.1046846617391
 11
3212.1643332843486
 21
1390.0409379066791
  0
LINE
  8
_0-5_
  6
CONTINUOUS
 62
    4
 10
3212.1643332843486
 20
1390.0409379066791
 11
3212.0435299126233
 21
1390.006331768016
  0
LINE
  8
_0-5_
  6
CONTINUOUS
 62
    4
 10
3212.0435299126233
 20
1390.006331768016
 11
3211.9203126037809
 21
1390.0019177357612
  0
LINE
  8
_0-5_
  6
CONTINUOUS
 62
    4
 10
3211.9203126037809
 20
1390.0019177357612
 11
3211.7984252533997
 21
1390.0278299280512
  0
LINE
  8
_0-5_
  6
CONTINUOUS
 62
    4
 10
3211.7984252533997
 20
1390.0278299280512
 11
3211.6815713469422
 21
1390.0832810160359
  0
LINE
  8
_0-5_
  6
CONTINUOUS
 62
    4
 10
3211.6815713469422
 20
1390.0832810160359
 11
3211.5733014312263
 21
1390.1665861464657
  0
LINE
  8
_0-5_
  6
CONTINUOUS
 62
    4
 10
3211.5733014312263
 20
1390.1665861464657
 11
3211.4769052328533
 21
1390.2752141351079
  0
LINE
  8
_0-5_
  6
CONTINUOUS
 62
    4
 10
3211.4769052328533
 20
1390.2752141351079
 11
3211.3953117015316
 21
1390.4058643754951
  0
LINE
  8
_0-5_
  6
CONTINUOUS
 62
    4
 10
3211.3953117015316
 20
1390.4058643754951
 11
3211.3310000154228
 21
1390.5545671261859
  0
LINE
  8
_0-5_
  6
CONTINUOUS
 62
    4
 10
3211.3310000154228
 20
1390.5545671261859
 11
3211.2859242525655
 21
1390.7168041293475
  0
LINE
  8
_0-5_
  6
CONTINUOUS
 62
    4
 10
3211.2859242525655
 20
1390.7168041293475
 11
3211.2614540172053
 21
1390.8876458957352
  0
LINE
  8
_0-5_
  6
CONTINUOUS
 62
    4
 10
3211.2614540172053
 20
1390.8876458957352
 11
3211.2583328250602
 21
1391.061901484727
  0
LINE
  8
_0-5_
  6
CONTINUOUS
 62
    4
 10
3211.2583328250602
 20
1391.061901484727
 11
3211.2766555119746
 21
1391.2342762284288
  0
LINE
  8
_0-5_
  6
CONTINUOUS
 62
    4
 10
3211.2766555119746
 20
1391.2342762284288
 11
3211.2951987693331
 21
1391.3243243243246
  0
LINE
  8
_0-5_
  6
CONTINUOUS
 62
    4
 10
3212.3435733038168
 20
1395.6486486486487
 11
3211.2951987693327
 21
1391.3243243243243
  0
LINE
  8
_0-5_
  6
CONTINUOUS
 62
    4
 10
3212.6004796676043
 20
1366.7000000000002
 11
3212.6004796676043
 21
1361.8000000000004
  0
LINE
  8
_0-5_
  6
CONTINUOUS
 62
    4
 10
3212.8126117023166
 20
1367.0000000000002
 11
3212.775775361064
 21
1366.9954423259039
  0
LINE
  8
_0-5_
  6
CONTINUOUS
 62
    4
 10
3212.775775361064
 20
1366.9954423259039
 11
3212.7400582734003
 21
1366.9819077862359
  0
LINE
  8
_0-5_
  6
CONTINUOUS
 62
    4
 10
3212.7400582734003
 20
1366.9819077862359
 11
3212.7065456849604
 21
1366.9598076211354
  0
LINE
  8
_0-5_
  6
CONTINUOUS
 62
    4
 10
3212.7065456849604
 20
1366.9598076211354
 11
3212.6762558587861
 21
1366.9298133329359
  0
LINE
  8
_0-5_
  6
CONTINUOUS
 62
    4
 10
3212.6762558587861
 20
1366.9298133329359
 11
3212.6501091359182
 21
1366.8928362829065
  0
LINE
  8
_0-5_
  6
CONTINUOUS
 62
    4
 10
3212.6501091359182
 20
1366.8928362829065
 11
3212.6288999712996
 21
1366.8500000000003
  0
LINE
  8
_0-5_
  6
CONTINUOUS
 62
    4
 10
3212.6288999712996
 20
1366.8500000000003
 11
3212.6132727946655
 21
1366.8026060429979
  0
LINE
  8
_0-5_
  6
CONTINUOUS
 62
    4
 10
3212.6132727946655
 20
1366.8026060429979
 11
3212.6037024298702
 21
1366.7520944533002
  0
LINE
  8
_0-5_
  6
CONTINUOUS
 62
    4
 10
3212.6037024298702
 20
1366.7520944533002
 11
3212.6004796676043
 21
1366.7000000000002
  0
LINE
  8
_0-5_
  6
CONTINUOUS
 62
    4
 10
3221.5807358037436
 20
1367.0000000000002
 11
3212.8126117023166
 21
1367.0000000000002
  0
LINE
  8
_0-5_
  6
CONTINUOUS
 62
    4
 10
3211.4691088158083
 20
1367.6503873382257
 11
3211.4691088158083
 21
1361.8000000000004
  0
LINE
  8
_0-5_
  6
CONTINUOUS
 62
    4
 10
3212.1396899369306
 20
1368.6490523231677
 11
3212.0176209631904
 21
1368.6249105466067
  0
LINE
  8
_0-5_
  6
CONTINUOUS
 62
    4
 10
3212.0176209631904
 20
1368.6249105466067
 11
3211.9003708071813
 21
1368.5711583754914
  0
LINE
  8
_0-5_
  6
CONTINUOUS
 62
    4
 10
3211.9003708071813
 20
1368.5711583754914
 11
3211.7915020555628
 21
1368.4894290423414
  0
LINE
  8
_0-5_
  6
CONTINUOUS
 62
    4
 10
3211.7915020555628
 20
1368.4894290423414
 11
3211.6943226302619
 21
1368.3822058515877
  0
LINE
  8
_0-5_
  6
CONTINUOUS
 62
    4
 10
3211.6943226302619
 20
1368.3822058515877
 11
3211.611785278942
 21
1368.2527467256231
  0
LINE
  8
_0-5_
  6
CONTINUOUS
 62
    4
 10
3211.611785278942
 20
1368.2527467256231
 11
3211.5463978572561
 21
1368.1049852144815
  0
LINE
  8
_0-5_
  6
CONTINUOUS
 62
    4
 10
3211.5463978572561
 20
1368.1049852144815
 11
3211.500147128926
 21
1367.9434109769072
  0
LINE
  8
_0-5_
  6
CONTINUOUS
 62
    4
 10
3211.500147128926
 20
1367.9434109769072
 11
3211.4744383989263
 21
1367.7729333643487
  0
LINE
  8
_0-5_
  6
CONTINUOUS
 62
    4
 10
3211.4744383989263
 20
1367.7729333643487
 11
3211.4691088158078
 21
1367.6503873382257
  0
LINE
  8
_0-5_
  6
CONTINUOUS
 62
    4
 10
3221.1222867173323
 20
1369.4509476768325
 11
3212.1396899369306
 21
1368.6490523231677
  0
LINE
  8
ADD_LINE
  6
DOT
 62
    9
 10
3212.7337467510478
 20
1361.0000000000002
 11
3211.2447957878657
 21
1361.0000000000002
  0
LINE
  8
ADD_LINE
  6
DOT
 62
    9
 10
3211.4691088158083
 20
1367.6503873382257
 11
3211.4691088158083
 21
1368.600000000003
  0
LINE
  8
ADD_LINE
  6
DOT
 62
    9
 10
3212.1396899369306
 20
1368.6490523231677
 11
3211.4691088158083
 21
1368.600000000003
  0
LINE
  8
ADD_LINE
  6
DOT
 62
    9
 10
3213.6960133423685
 20
1390
 11
3210.0746317086914
 21
1390
  0
LINE
  8
_0-5_
  6
CONTINUOUS
 62
    4
 10
3021.7181744369654
 20
1369.450947676833
 11
3021.8402434107056
 21
1369.475089453394
  0
LINE
  8
_0-5_
  6
CONTINUOUS
 62
    4
 10
3021.8402434107056
 20
1369.475089453394
 11
3021.9574935667146
 21
1369.5288416245093
  0
LINE
  8
_0-5_
  6
CONTINUOUS
 62
    4
 10
3021.9574935667146
 20
1369.5288416245093
 11
3022.0663623183331
 21
1369.6105709576593
  0
LINE
  8
_0-5_
  6
CONTINUOUS
 62
    4
 10
3022.0663623183331
 20
1369.6105709576593
 11
3022.1635417436341
 21
1369.717794148413
  0
LINE
  8
_0-5_
  6
CONTINUOUS
 62
    4
 10
3022.1635417436341
 20
1369.717794148413
 11
3022.2460790949535
 21
1369.8472532743771
  0
LINE
  8
_0-5_
  6
CONTINUOUS
 62
    4
 10
3022.2460790949535
 20
1369.8472532743771
 11
3022.3114665166394
 21
1369.9950147855192
  0
LINE
  8
_0-5_
  6
CONTINUOUS
 62
    4
 10
3022.3114665166394
 20
1369.9950147855192
 11
3022.3577172449699
 21
1370.1565890230936
  0
LINE
  8
_0-5_
  6
CONTINUOUS
 62
    4
 10
3022.3577172449699
 20
1370.1565890230936
 11
3022.3834259749696
 21
1370.327066635652
  0
LINE
  8
_0-5_
  6
CONTINUOUS
 62
    4
 10
3022.3834259749696
 20
1370.327066635652
 11
3022.3887555580881
 21
1370.449612661775
  0
LINE
  8
_0-5_
  6
CONTINUOUS
 62
    4
 10
3014.277230611723
 20
1397.0000000000002
 11
3021.893780810426
 21
1397.0000000000002
  0
LINE
  8
_0-5_
  6
CONTINUOUS
 62
    4
 10
3012.9394610234485
 20
1395.6486486486487
 11
3011.8910864889653
 21
1391.3243243243243
  0
LINE
  8
_0-5_
  6
CONTINUOUS
 62
    4
 10
3012.0649965354409
 20
1367.6503873382257
 11
3012.0649965354409
 21
1361.8000000000004
  0
LINE
  8
_0-5_
  6
CONTINUOUS
 62
    4
 10
3012.7355776565632
 20
1368.6490523231677
 11
3012.613508682823
 21
1368.6249105466067
  0
LINE
  8
_0-5_
  6
CONTINUOUS
 62
    4
 10
3012.613508682823
 20
1368.6249105466067
 11
3012.496258526814
 21
1368.5711583754914
  0
LINE
  8
_0-5_
  6
CONTINUOUS
 62
    4
 10
3012.496258526814
 20
1368.5711583754914
 11
3012.3873897751955
 21
1368.4894290423414
  0
LINE
  8
_0-5_
  6
CONTINUOUS
 62
    4
 10
3012.3873897751955
 20
1368.4894290423414
 11
3012.2902103498945
 21
1368.3822058515877
  0
LINE
  8
_0-5_
  6
CONTINUOUS
 62
    4
 10
3012.2902103498945
 20
1368.3822058515877
 11
3012.2076729985747
 21
1368.2527467256231
  0
LINE
  8
_0-5_
  6
CONTINUOUS
 62
    4
 10
3012.2076729985747
 20
1368.2527467256231
 11
3012.1422855768887
 21
1368.1049852144815
  0
LINE
  8
_0-5_
  6
CONTINUOUS
 62
    4
 10
3012.1422855768887
 20
1368.1049852144815
 11
3012.0960348485587
 21
1367.9434109769072
  0
LINE
  8
_0-5_
  6
CONTINUOUS
 62
    4
 10
3012.0960348485587
 20
1367.9434109769072
 11
3012.070326118559
 21
1367.7729333643487
  0
LINE
  8
_0-5_
  6
CONTINUOUS
 62
    4
 10
3012.070326118559
 20
1367.7729333643487
 11
3012.0649965354405
 21
1367.6503873382257
  0
LINE
  8
_0-5_
  6
CONTINUOUS
 62
    4
 10
3021.7181744369645
 20
1369.4509476768325
 11
3012.7355776565627
 21
1368.6490523231677
  0
LINE
  8
ADD_LINE
  6
DOT
 62
    9
 10
3013.3296344706805
 20
1361.0000000000002
 11
3011.8406835074983
 21
1361.0000000000002
  0
LINE
  8
ADD_LINE
  6
DOT
 62
    9
 10
3012.0649965354409
 20
1367.6503873382257
 11
3012.0649965354409
 21
1368.600000000003
  0
LINE
  8
ADD_LINE
  6
DOT
 62
    9
 10
3012.7355776565627
 20
1368.6490523231677
 11
3012.0649965354409
 21
1368.600000000003
  0
LINE
  8
ADD_LINE
  6
DOT
 62
    9
 10
3014.2919010620012
 20
1390
 11
3010.670519428324
 21
1390
  0
LINE
  8
_0-5_
  6
CONTINUOUS
 62
    4
 10
3012.0649965354405
 20
1361.8000000000004
 11
3012.0735905681481
 21
1361.6610814578668
  0
LINE
  8
_0-5_
  6
CONTINUOUS
 62
    4
 10
3012.0735905681481
 20
1361.6610814578668
 11
3012.099111540936
 21
1361.5263838853397
  0
LINE
  8
_0-5_
  6
CONTINUOUS
 62
    4
 10
3012.099111540936
 20
1361.5263838853397
 11
3012.1407840119604
 21
1361.4000000000005
  0
LINE
  8
_0-5_
  6
CONTINUOUS
 62
    4
 10
3012.1407840119604
 20
1361.4000000000005
 11
3012.1973417842764
 21
1361.2857699122512
  0
LINE
  8
_0-5_
  6
CONTINUOUS
 62
    4
 10
3012.1973417842764
 20
1361.2857699122512
 11
3012.2670663785911
 21
1361.1871644455052
  0
LINE
  8
_0-5_
  6
CONTINUOUS
 62
    4
 10
3012.2670663785911
 20
1361.1871644455052
 11
3012.3478392483903
 21
1361.1071796769729
  0
LINE
  8
_0-5_
  6
CONTINUOUS
 62
    4
 10
3012.3478392483903
 20
1361.1071796769729
 11
3012.4372061508961
 21
1361.0482459033714
  0
LINE
  8
_0-5_
  6
CONTINUOUS
 62
    4
 10
3012.4372061508961
 20
1361.0482459033714
 11
3012.5324517179988
 21
1361.0121537975905
  0
LINE
  8
_0-5_
  6
CONTINUOUS
 62
    4
 10
3012.5324517179988
 20
1361.0121537975905
 11
3012.6306819613391
 21
1361.0000000000004
  0
LINE
  8
_0-5_
  6
CONTINUOUS
 62
    4
 10
3212.0347942417065
 20
1361.0000000000002
 11
3012.6306819613391
 21
1361.0000000000002
  0
LINE
  8
_0-5_
  6
CONTINUOUS
 62
    4
 10
3211.4691088158083
 20
1368.600000000003
 11
3012.8632899166091
 21
1368.600000000003
  0
LINE
  8
_0-5_
  6
CONTINUOUS
 62
    4
 10
3014.277230611723
 20
1397
 11
3014.031655003373
 21
1396.9696155060246
  0
LINE
  8
_0-5_
  6
CONTINUOUS
 62
    4
 10
3014.031655003373
 20
1396.9696155060246
 11
3013.7935410856152
 21
1396.8793852415717
  0
LINE
  8
_0-5_
  6
CONTINUOUS
 62
    4
 10
3013.7935410856152
 20
1396.8793852415717
 11
3013.5701238293499
 21
1396.7320508075686
  0
LINE
  8
_0-5_
  6
CONTINUOUS
 62
    4
 10
3013.5701238293499
 20
1396.7320508075686
 11
3013.3681916548534
 21
1396.5320888862379
  0
LINE
  8
_0-5_
  6
CONTINUOUS
 62
    4
 10
3013.3681916548534
 20
1396.5320888862379
 11
3013.1938801690657
 21
1396.2855752193731
  0
LINE
  8
_0-5_
  6
CONTINUOUS
 62
    4
 10
3013.1938801690657
 20
1396.2855752193731
 11
3013.0524857382765
 21
1396
  0
LINE
  8
_0-5_
  6
CONTINUOUS
 62
    4
 10
3013.0524857382765
 20
1396
 11
3012.9483045607157
 21
1395.6840402866512
  0
LINE
  8
_0-5_
  6
CONTINUOUS
 62
    4
 10
3012.9483045607157
 20
1395.6840402866512
 11
3012.9394610234498
 21
1395.6486486486485
  0
LINE
  8
_0-5_
  6
CONTINUOUS
 62
    4
 10
3213.6813428920904
 20
1397.0000000000002
 11
3014.277230611723
 21
1397.0000000000002
  0
LINE
  8
_0-5_
  6
CONTINUOUS
 62
    4
 10
3012.5599712831017
 20
1390.0000000000002
 11
3012.4371834789271
 21
1390.0151922469879
  0
LINE
  8
_0-5_
  6
CONTINUOUS
 62
    4
 10
3012.4371834789271
 20
1390.0151922469879
 11
3012.3181265200482
 21
1390.0603073792144
  0
LINE
  8
_0-5_
  6
CONTINUOUS
 62
    4
 10
3012.3181265200482
 20
1390.0603073792144
 11
3012.2064178919154
 21
1390.1339745962154
  0
LINE
  8
_0-5_
  6
CONTINUOUS
 62
    4
 10
3012.2064178919154
 20
1390.1339745962154
 11
3012.1054518046676
 21
1390.2339555568812
  0
LINE
  8
_0-5_
  6
CONTINUOUS
 62
    4
 10
3012.1054518046676
 20
1390.2339555568812
 11
3012.018296061773
 21
1390.3572123903136
  0
LINE
  8
_0-5_
  6
CONTINUOUS
 62
    4
 10
3012.018296061773
 20
1390.3572123903136
 11
3011.9475988463782
 21
1390.5
  0
LINE
  8
_0-5_
  6
CONTINUOUS
 62
    4
 10
3011.9475988463782
 20
1390.5
 11
3011.895508257598
 21
1390.6579798566745
  0
LINE
  8
_0-5_
  6
CONTINUOUS
 62
    4
 10
3011.895508257598
 20
1390.6579798566745
 11
3011.8636070416132
 21
1390.8263518223334
  0
LINE
  8
_0-5_
  6
CONTINUOUS
 62
    4
 10
3011.8636070416132
 20
1390.8263518223334
 11
3011.8528645007286
 21
1391.0000000000002
  0
LINE
  8
_0-5_
  6
CONTINUOUS
 62
    4
 10
3011.8528645007286
 20
1391.0000000000002
 11
3011.8636070416132
 21
1391.173648177667
  0
LINE
  8
_0-5_
  6
CONTINUOUS
 62
    4
 10
3011.8636070416132
 20
1391.173648177667
 11
3011.8910864889649
 21
1391.3243243243246
  0
LINE
  8
_0-5_
  6
CONTINUOUS
 62
    4
 10
3211.96408356347
 20
1390
 11
3012.5599712831017
 21
1390
  0
LINE
  8
_0-5_
  6
CONTINUOUS
 62
    4
 10
3022.3887555580881
 20
1370.449612661775
 11
3022.3887555580881
 21
1390
  0
LINE
  8
_0-4_
  6
CONTINUOUS
 62
    3
 10
3013.6913421348986
 20
1321.0000000000002
 11
3013.6913421348986
 21
1361.0000000000002
  0
LINE
  8
_0-4_
  6
CONTINUOUS
 62
    3
 10
3213.0954544152659
 20
1327.0000000000002
 11
3213.0954544152659
 21
1367.0000000000002
  0
LINE
  8
_0-4_
  6
CONTINUOUS
 62
    3
 10
3221.5807358037436
 20
1327.0000000000002
 11
3221.5807358037436
 21
1367.0000000000002
  0
LINE
  8
_0-4_
  6
CENTER2
 62
    4
 10
1964
 20
1397
 11
2246
 21
1041
  0
LINE
  8
_0-9_
  6
CONTINUOUS
 62
    4
 10
1310
 20
1397.0000000000002
 11
1241.8479771215152
 21
1397.0000000000002
  0
POINT
  8
_0-9_
 62
    3
 10
1300
 20
1397.0000000000002
  0
POINT
  8
_0-9_
 62
    3
 10
1300
 20
1397.0000000000002
  0
POINT
  8
_0-9_
 62
    3
 10
1300
 20
724.99999999999988
  0
POINT
  8
_0-9_
 62
    3
 10
1380
 20
719.99999999999988
  0
LINE
  8
_0-9_
  6
CONTINUOUS
 62
    4
 10
1300
 20
1397.0000000000002
 11
1300
 21
724.99999999999988
  0
TEXT
  8
_0-9_
 62
    7
 10
1300
 20
1027.8999999999998
 40
35
 41
0.6285714285714286
 50
90
  1
６７２
  0
LINE
  8
_0-3_
  6
CONTINUOUS
 62
    5
 10
450
 20
1401.9999999999995
 11
450
 21
580
  0
LINE
  8
_0-3_
  6
DASHED1
 62
    9
 10
475
 20
1401.9999999999995
 11
475
 21
580
  0
LINE
  8
_0-3_
  6
CONTINUOUS
 62
    5
 10
1574.6699141100896
 20
1401.9999999999995
 11
1574.6699141100896
 21
580
  0
LINE
  8
_0-3_
  6
CONTINUOUS
 62
    5
 10
2635.3300858899101
 20
1401.9999999999995
 11
2635.3300858899101
 21
580
  0
LINE
  8
_0-3_
  6
CONTINUOUS
 62
    5
 10
3760
 20
1401.9999999999995
 11
3760
 21
580
  0
LINE
  8
_0-3_
  6
DASHED1
 62
    9
 10
3735
 20
1401.9999999999995
 11
3735
 21
580
  0
LINE
  8
_0-9_
  6
CONTINUOUS
 62
    4
 10
1380
 20
580
 11
1380
 21
719.99999999999988
  0
TEXT
  8
_0-9_
 62
    7
 10
1380
 20
616.89999999999986
 40
35
 41
0.6285714285714286
 50
90
  1
１４０
  0
LINE
  8
_0-9_
  6
CONTINUOUS
 62
    4
 10
1460
 20
580
 11
1460
 21
1430
  0
TEXT
  8
_0-9_
 62
    7
 10
1460
 20
971.89999999999997
 40
35
 41
0.6285714285714286
 50
90
  1
８５０
  0
LINE
  8
_0-9_
  6
CONTINUOUS
 62
    4
 10
2891.6674015250046
 20
1430
 11
2891.6674015250046
 21
1469.9999999999997
  0
TEXT
  8
_0-9_
 62
    7
 10
2891.6674015250046
 20
1427.9499999999998
 40
35
 41
0.6285714285714286
 50
90
  1
４０
  0
LINE
  8
_0-9_
  6
CONTINUOUS
 62
    4
 10
2891.6674015250046
 20
580
 11
2891.6674015250046
 21
1430
  0
TEXT
  8
_0-9_
 62
    7
 10
2891.6674015250046
 20
971.89999999999997
 40
35
 41
0.6285714285714286
 50
90
  1
８５０
  0
TEXT
  8
_0-8_
 62
    7
 10
2430.464099515229
 20
612.84238262423571
 40
30
 41
1
 50
0
  1
回転棚
  0
LINE
  8
_0-8_
  6
CONTINUOUS
 62
    4
 10
2282.8697653408294
 20
827.53820439389164
 11
2411.3870744488781
 21
604.9396953667167
  0
LINE
  8
_0-8_
  6
CONTINUOUS
 62
    4
 10
2411.3870744488781
 20
604.9396953667167
 11
2549.3103202018164
 21
604.9396953667167
  0
ARC
  8
_0-2_
  6
CONTINUOUS
 62
    5
 10
500
 20
2610
 40
30
 50
90
 51
180
  0
LINE
  8
_0-2_
  6
CONTINUOUS
 62
    5
 10
470
 20
2610
 11
470
 21
1910
  0
LINE
  8
_0-2_
  6
CONTINUOUS
 62
    5
 10
1200
 20
2640
 11
500
 21
2640
  0
CIRCLE
  8
_0-6_
  6
DASHED1
 62
    6
 10
2105
 20
2060
 40
12.5
  0
CIRCLE
  8
_0-6_
  6
DASHED1
 62
    6
 10
2105
 20
2060
 40
200
  0
CIRCLE
  8
_0-6_
  6
DASHED1
 62
    6
 10
2105
 20
2060
 40
20
  0
LINE
  8
_0-6_
  6
DASHED1
 62
    6
 10
2133.2842712474616
 20
2031.715728752538
 11
2076.7157287525383
 21
2088.2842712474616
  0
LINE
  8
_0-6_
  6
DASHED1
 62
    6
 10
2076.7157287525383
 20
2031.715728752538
 11
2133.2842712474616
 21
2088.2842712474616
  0
TEXT
  8
_f-8_
 62
    7
 10
3040
 20
187.5
 40
25
 41
0.64
 50
0
  1
ＤＡＴＡ
  0
LINE
  8
_0-3_
  6
CONTINUOUS
 62
    5
 10
1915.495383213921
 20
719.99999999999988
 11
1915.495383213921
 21
580
  0
LINE
  8
_0-3_
  6
CONTINUOUS
 62
    5
 10
2294.5046167860791
 20
719.99999999999988
 11
2294.5046167860791
 21
580
  0
LINE
  8
_0-3_
  6
CONTINUOUS
 62
    5
 10
2266.220345491155
 20
719.99999999999988
 11
2294.5046167860791
 21
719.99999999999988
  0
LINE
  8
_0-3_
  6
CONTINUOUS
 62
    5
 10
912.99999999999954
 20
580
 11
930
 21
580
  0
LINE
  8
_0-3_
  6
CONTINUOUS
 62
    7
 10
912.99999999999954
 20
719.99999999999988
 11
930
 21
719.99999999999988
  0
LINE
  8
_0-3_
  6
CONTINUOUS
 62
    7
 10
912.99999999999954
 20
719.99999999999988
 11
912.99999999999954
 21
580
  0
LINE
  8
_0-3_
  6
CONTINUOUS
 62
    5
 10
930
 20
719.99999999999988
 11
930
 21
580
  0
LINE
  8
_0-3_
  6
CONTINUOUS
 62
    7
 10
930
 20
580
 11
1199.5
 21
580
  0
LINE
  8
_0-3_
  6
CONTINUOUS
 62
    7
 10
1199.5
 20
1401.9999999999995
 11
1199.5
 21
580
  0
LINE
  8
_0-3_
  6
CONTINUOUS
 62
    7
 10
972
 20
719.99999999999988
 11
1199.5
 21
719.99999999999988
  0
LINE
  8
_0-3_
  6
CONTINUOUS
 62
    5
 10
3297.0000000000004
 20
580
 11
3280
 21
580
  0
LINE
  8
_0-3_
  6
CONTINUOUS
 62
    7
 10
3297.0000000000004
 20
719.99999999999988
 11
3280
 21
719.99999999999988
  0
LINE
  8
_0-3_
  6
CONTINUOUS
 62
    5
 10
3280
 20
719.99999999999988
 11
3280
 21
580
  0
LINE
  8
_0-3_
  6
CONTINUOUS
 62
    7
 10
3297.0000000000004
 20
719.99999999999988
 11
3297.0000000000004
 21
580
  0
LINE
  8
_0-3_
  6
CONTINUOUS
 62
    7
 10
3280
 20
580
 11
3010.5
 21
580
  0
LINE
  8
_0-3_
  6
CONTINUOUS
 62
    7
 10
3010.5
 20
1401.9999999999995
 11
3010.5
 21
580
  0
TEXT
  8
_0-d_
 62
    7
 10
3454.9989999999988
 20
2582.5
 40
35
 41
0.857142857142857
 50
0
  1
片面フラッシュ２０．５ｔ
  0
TEXT
  8
_f-8_
 62
    7
 10
3582
 20
145
 40
30
 41
0.7333333333333332
 50
0
  1
Ｔ．Ｋ
  0
LINE
  8
ADD_LINE
  6
DOT
 62
    9
 10
3685.2421204263209
 20
2200
 11
3700.2421204263209
 21
2200
  0
LINE
  8
ADD_LINE
  6
DOT
 62
    9
 10
3700.2421204263209
 20
2200
 11
3700.2421204263209
 21
2215
  0
LINE
  8
ADD_LINE
  6
DOT
 62
    9
 10
3700.2421204263209
 20
2215
 11
3685.2421204263209
 21
2215
  0
LINE
  8
ADD_LINE
  6
DOT
 62
    9
 10
3685.2421204263209
 20
2215
 11
3685.2421204263209
 21
2200
  0
LINE
  8
_0-d_
  6
CONTINUOUS
 62
    3
 10
4115
 20
2200
 11
4115
 21
1704.9999999999995
  0
LINE
  8
ADD_LINE
  6
DOT
 62
    9
 10
3830.24212042632
 20
2130
 11
3830.24212042632
 21
2010
  0
LINE
  8
_0-d_
  6
CONTINUOUS
 62
    7
 10
3800.2421204263214
 20
2130
 11
3800.2421204263214
 21
2010
  0
TEXT
  8
_0-d_
 62
    7
 10
3860.6210602131609
 20
2150
 40
35
 41
0.857142857142857
 50
0
  1
扉　色
  0
TEXT
  8
_0-d_
 62
    7
 10
3715.7122200188969
 20
2082.5
 40
35
 41
0.857142857142857
 50
0
  1
ＳＷ
  0
TEXT
  8
_0-d_
 62
    7
 10
3830.24212042632
 20
2082.5
 40
35
 41
0.857142857142857
 50
0
  1
ホワイト
  0
TEXT
  8
_0-d_
 62
    7
 10
3720.7036754285845
 20
2023.0893268157801
 40
35
 41
0.857142857142857
 50
0
  1
ＬＧ
  0
LINE
  8
ADD_LINE
  6
DOT
 62
    9
 10
3750.2421204263214
 20
2130
 11
3750.2421204263214
 21
2010
  0
LINE
  8
_0-d_
  6
CONTINUOUS
 62
    3
 10
3700.2421204263214
 20
2200
 11
3700.2421204263214
 21
1704.9999999999995
  0
LINE
  8
_0-d_
  6
CONTINUOUS
 62
    7
 10
3800.2421204263214
 20
2005
 11
3800.2421204263214
 21
1704.9999999999995
  0
LINE
  8
ADD_LINE
  6
DOT
 62
    9
 10
3830.24212042632
 20
2005
 11
3830.24212042632
 21
1704.9999999999995
  0
LINE
  8
ADD_LINE
  6
DOT
 62
    9
 10
3750.2421204263214
 20
2005
 11
3750.2421204263214
 21
1704.9999999999995
  0
TEXT
  8
_0-d_
 62
    7
 10
3830.3411143313564
 20
2023.0893268157801
 40
35
 41
0.857142857142857
 50
0
  1
木　　目
  0
TEXT
  8
_0-d_
 62
    7
 10
3715.7122200188969
 20
1957.5
 40
35
 41
0.857142857142857
 50
0
  1
ＵＷ
  0
TEXT
  8
_0-d_
 62
    7
 10
3830.24212042632
 20
1957.5
 40
35
 41
0.857142857142857
 50
0
  1
ｳﾙﾄﾗﾎﾜｲﾄ（艶有）
  0
TEXT
  8
_0-d_
 62
    7
 10
3720.7036754285845
 20
1898.0893268157801
 40
35
 41
0.857142857142857
 50
0
  1
ＷＮ
  0
TEXT
  8
_0-d_
 62
    7
 10
3830.24212042632
 20
1897.4999999999997
 40
35
 41
0.857142857142857
 50
0
  1
ｳｨﾝｻﾞｰﾅｯﾄ（艶有）
  0
TEXT
  8
_0-d_
 62
    7
 10
3720.7036754285845
 20
1838.0893268157799
 40
35
 41
0.857142857142857
 50
0
  1
ＢＳ
  0
TEXT
  8
_0-d_
 62
    7
 10
3830.341114331356
 20
1838.0893268157799
 40
35
 41
0.857142857142857
 50
0
  1
ブラックストーン
  0
TEXT
  8
_0-d_
 62
    7
 10
3720.7036754285845
 20
1778.0893268157797
 40
35
 41
0.857142857142857
 50
0
  1
ＰＭ
  0
TEXT
  8
_0-d_
 62
    7
 10
3830.3411143313564
 20
1778.0893268157797
 40
35
 41
0.857142857142857
 50
0
  1
ペールグレイン
  0
TEXT
  8
_0-d_
 62
    7
 10
3720.7036754285845
 20
1718.0893268157797
 40
35
 41
0.857142857142857
 50
0
  1
ＭＤ
  0
LINE
  8
_0-d_
  6
CONTINUOUS
 62
    3
 10
4115
 20
2200
 11
3700.2421204263214
 21
2200
  0
LINE
  8
_0-d_
  6
CONTINUOUS
 62
    3
 10
4115
 20
1704.9999999999995
 11
3700.2421204263214
 21
1704.9999999999995
  0
LINE
  8
_0-d_
  6
CONTINUOUS
 62
    7
 10
3700.2421204263214
 20
2070
 11
4115
 21
2070
  0
LINE
  8
_0-d_
  6
CONTINUOUS
 62
    7
 10
4115
 20
2070
 11
3700.2421204263214
 21
2070
  0
LINE
  8
_0-d_
  6
CONTINUOUS
 62
    3
 10
4115
 20
2070
 11
3700.2421204263214
 21
2070
  0
LINE
  8
_0-d_
  6
CONTINUOUS
 62
    3
 10
4115
 20
2010
 11
3700.2421204263214
 21
2010
  0
LINE
  8
ADD_LINE
  6
DOT
 62
    9
 10
3700.2421204263214
 20
2040
 11
4115
 21
2040
  0
LINE
  8
_0-d_
  6
CONTINUOUS
 62
    7
 10
4115
 20
1945
 11
3700.2421204263214
 21
1945
  0
LINE
  8
_0-d_
  6
CONTINUOUS
 62
    3
 10
4115
 20
1945
 11
3700.2421204263214
 21
1945
  0
LINE
  8
_0-d_
  6
CONTINUOUS
 62
    3
 10
4115
 20
1884.9999999999997
 11
3700.2421204263214
 21
1884.9999999999997
  0
LINE
  8
_0-d_
  6
CONTINUOUS
 62
    7
 10
3700.2421204263214
 20
1945
 11
4115
 21
1945
  0
LINE
  8
_0-d_
  6
CONTINUOUS
 62
    7
 10
4115
 20
2010
 11
3700.2421204263214
 21
2010
  0
LINE
  8
_0-d_
  6
CONTINUOUS
 62
    7
 10
4115
 20
2005
 11
3700.2421204263214
 21
2005
  0
LINE
  8
ADD_LINE
  6
DOT
 62
    9
 10
3700.2421204263214
 20
1975
 11
4115
 21
1975
  0
LINE
  8
ADD_LINE
  6
DOT
 62
    9
 10
3700.2421204263214
 20
1914.9999999999997
 11
4115
 21
1914.9999999999997
  0
LINE
  8
_0-d_
  6
CONTINUOUS
 62
    7
 10
4115
 20
1884.9999999999997
 11
3700.2421204263214
 21
1884.9999999999997
  0
LINE
  8
_0-d_
  6
CONTINUOUS
 62
    3
 10
4115
 20
1884.9999999999997
 11
3700.2421204263214
 21
1884.9999999999997
  0
LINE
  8
_0-d_
  6
CONTINUOUS
 62
    3
 10
4115
 20
1824.9999999999995
 11
3700.2421204263214
 21
1824.9999999999995
  0
LINE
  8
_0-d_
  6
CONTINUOUS
 62
    7
 10
3700.2421204263214
 20
1884.9999999999997
 11
4115
 21
1884.9999999999997
  0
LINE
  8
ADD_LINE
  6
DOT
 62
    9
 10
3700.2421204263214
 20
1854.9999999999995
 11
4115
 21
1854.9999999999995
  0
LINE
  8
_0-d_
  6
CONTINUOUS
 62
    7
 10
4115
 20
1824.9999999999995
 11
3700.2421204263214
 21
1824.9999999999995
  0
LINE
  8
_0-d_
  6
CONTINUOUS
 62
    3
 10
4115
 20
1824.9999999999995
 11
3700.2421204263214
 21
1824.9999999999995
  0
LINE
  8
_0-d_
  6
CONTINUOUS
 62
    3
 10
4115
 20
1764.9999999999995
 11
3700.2421204263214
 21
1764.9999999999995
  0
LINE
  8
_0-d_
  6
CONTINUOUS
 62
    7
 10
3700.2421204263214
 20
1824.9999999999995
 11
4115
 21
1824.9999999999995
  0
LINE
  8
ADD_LINE
  6
DOT
 62
    9
 10
3700.2421204263214
 20
1794.9999999999995
 11
4115
 21
1794.9999999999995
  0
LINE
  8
_0-d_
  6
CONTINUOUS
 62
    7
 10
4115
 20
1764.9999999999995
 11
3700.2421204263214
 21
1764.9999999999995
  0
LINE
  8
_0-d_
  6
CONTINUOUS
 62
    3
 10
4115
 20
1764.9999999999995
 11
3700.2421204263214
 21
1764.9999999999995
  0
LINE
  8
_0-d_
  6
CONTINUOUS
 62
    7
 10
3700.2421204263214
 20
1764.9999999999995
 11
4115
 21
1764.9999999999995
  0
LINE
  8
ADD_LINE
  6
DOT
 62
    9
 10
3700.2421204263214
 20
1734.9999999999995
 11
4115
 21
1734.9999999999995
  0
LINE
  8
ADD_LINE
  6
DOT
 62
    9
 10
3700.2421204263214
 20
2100
 11
4115
 21
2100
  0
LINE
  8
_0-d_
  6
CONTINUOUS
 62
    7
 10
4115
 20
2130
 11
3700.2421204263214
 21
2130
  0
LINE
  8
ADD_LINE
  6
DOT
 62
    9
 10
3700.2421204263214
 20
2167.5
 11
4115
 21
2167.5
  0
LINE
  8
_0-d_
  6
CONTINUOUS
 62
    7
 10
4115
 20
2135
 11
3700.2421204263214
 21
2135
  0
LINE
  8
ADD_LINE
  6
DOT
 62
    9
 10
3907.6210602131604
 20
2200
 11
3907.6210602131604
 21
2135
  0
TEXT
  8
_0-d_
 62
    7
 10
3830.3411143313564
 20
1718.0893268157797
 40
35
 41
0.857142857142857
 50
0
  1
ダークグレイン
  0
LINE
  8
_e-0_
  6
CONTINUOUS
 62
    7
 10
2243.7859302690862
 20
199.51965480360598
 11
2272.9339284698526
 21
210.12865853712995
  0
LINE
  8
_e-0_
  6
CONTINUOUS
 62
    7
 10
2237.6336615052869
 20
191.95952323799758
 11
2287.5529504706664
 21
210.12865853712895
  0
LINE
  8
_e-0_
  6
CONTINUOUS
 62
    7
 10
2234.2067375789874
 20
185.39133607135255
 11
2263.8643430051365
 21
196.18582166608263
  0
LINE
  8
_e-0_
  6
CONTINUOUS
 62
    7
 10
2232.2119570371696
 20
179.34440646785787
 11
2253.9586582709303
 21
187.25955841042662
  0
LINE
  8
_e-0_
  6
CONTINUOUS
 62
    7
 10
2231.2024514117433
 20
173.65608760649877
 11
2249.4574587956462
 21
180.3003669205492
  0
LINE
  8
_e-0_
  6
CONTINUOUS
 62
    7
 10
2230.9649088875535
 20
168.248740335938
 11
2249.3748102388385
 21
174.94939644358311
  0
LINE
  8
_e-0_
  6
CONTINUOUS
 62
    7
 10
2231.3837497438626
 20
163.08029707814966
 11
2249.8286640768283
 21
169.79369686893903
  0
LINE
  8
_e-0_
  6
CONTINUOUS
 62
    7
 10
2232.3950068941753
 20
158.12747571767488
 11
2251.269568818267
 21
164.99725444285843
  0
LINE
  8
_e-0_
  6
CONTINUOUS
 62
    7
 10
2233.9675550564961
 20
153.37894757832998
 11
2253.6625167678694
 21
160.54732740628253
  0
LINE
  8
_e-0_
  6
CONTINUOUS
 62
    7
 10
2236.0955302019183
 20
148.83257832814223
 11
2257.099910488102
 21
156.47754754152117
  0
LINE
  8
_e-0_
  6
CONTINUOUS
 62
    7
 10
2238.7970089264299
 20
144.49494730998821
 11
2261.880116002736
 21
152.89651120014326
  0
LINE
  8
_e-0_
  6
CONTINUOUS
 62
    7
 10
2242.1181877425701
 20
140.38286867935909
 11
2268.9468388985251
 21
150.14769912563821
  0
LINE
  8
_e-0_
  6
CONTINUOUS
 62
    7
 10
2246.1455691824353
 20
136.52782678312661
 11
2284.5651405528201
 21
150.51140717521263
  0
LINE
  8
_e-0_
  6
CONTINUOUS
 62
    7
 10
2251.0351047702797
 20
132.98658333410969
 11
2279.1844822576495
 21
143.2321188526356
  0
LINE
  8
_e-0_
  6
CONTINUOUS
 62
    7
 10
2279.5849322183671
 20
201.90764820482513
 11
2302.1719724714803
 21
210.12865853713066
  0
LINE
  8
_e-0_
  6
CONTINUOUS
 62
    7
 10
2260.5624543087296
 20
189.663143601351
 11
2313.0511299164636
 21
208.76745915862059
  0
LINE
  8
_e-0_
  6
CONTINUOUS
 62
    7
 10
2273.069618849473
 20
188.89449034687174
 11
2313.0511299164636
 21
203.44657029624102
  0
LINE
  8
_e-0_
  6
CONTINUOUS
 62
    7
 10
2287.6886408502887
 20
188.89449034687174
 11
2313.0511299164636
 21
198.12568143386158
  0
LINE
  8
_e-0_
  6
CONTINUOUS
 62
    7
 10
2291.8751463425487
 20
185.09736486926669
 11
2313.0511299164636
 21
192.80479257148215
  0
LINE
  8
_e-0_
  6
CONTINUOUS
 62
    7
 10
2291.8751463425487
 20
179.77647600688726
 11
2313.0511299164636
 21
187.48390370910215
  0
LINE
  8
_e-0_
  6
CONTINUOUS
 62
    7
 10
2291.8751463425487
 20
174.45558714450783
 11
2313.0511299164636
 21
182.16301484672271
  0
LINE
  8
_e-0_
  6
CONTINUOUS
 62
    7
 10
2291.8751463425487
 20
169.13469828212839
 11
2313.0511299164636
 21
176.84212598434328
  0
LINE
  8
_e-0_
  6
CONTINUOUS
 62
    7
 10
2291.8008475696451
 20
163.78676687796939
 11
2313.0511299164636
 21
171.52123712196384
  0
LINE
  8
_e-0_
  6
CONTINUOUS
 62
    7
 10
2290.6539909363364
 20
158.04845633809463
 11
2313.0511299164636
 21
166.20034825958413
  0
LINE
  8
_e-0_
  6
CONTINUOUS
 62
    7
 10
2288.3949962857823
 20
151.90536066354695
 11
2313.0511299164636
 21
160.87945939720469
  0
LINE
  8
_e-0_
  6
CONTINUOUS
 62
    7
 10
2284.4003861827632
 20
145.13055262616916
 11
2311.8608666367176
 21
155.12535013005759
  0
LINE
  8
_e-0_
  6
CONTINUOUS
 62
    7
 10
2275.7463468865153
 20
136.65985105378524
 11
2309.0387712913652
 21
148.77730256370853
  0
LINE
  8
_e-0_
  6
CONTINUOUS
 62
    7
 10
2266.9791201478205
 20
128.14795262145821
 11
2304.1703780821812
 21
141.68446348448242
  0
LINE
  8
_e-0_
  6
CONTINUOUS
 62
    7
 10
2282.1376414569663
 20
128.34431431109749
 11
2292.724458387317
 21
132.19760054937069
  0
LINE
  8
_e-0_
  6
CONTINUOUS
 62
    3
 10
2266.4464672734898
 20
197.56612819678281
 11
2262.3244734593249
 21
194.75680664380121
  0
LINE
  8
_e-0_
  6
CONTINUOUS
 62
    3
 10
2282.3868421919432
 20
128.14795262145651
 11
2266.9204010401704
 21
128.14795262145651
  0
ARC
  8
_e-0_
  6
CONTINUOUS
 62
    3
 10
2282.3868421919432
 20
133.14795262145651
 40
5
 50
270
 51
286.20399351045659
  0
LINE
  8
_e-0_
  6
CONTINUOUS
 62
    3
 10
2313.2288608412613
 20
210.12865853712895
 11
2313.2288608412613
 21
159.77346730566921
  0
ARC
  8
_e-0_
  6
CONTINUOUS
 62
    3
 10
2271.9221657766447
 20
169.15823653484835
 40
42.5
 50
286.20399351045648
 51
345.50707147989851
  0
ARC
  8
_e-0_
  6
CONTINUOUS
 62
    3
 10
2308.2288608412613
 20
159.77346730566921
 40
5
 50
345.50707147989879
 51
0.0000000000000159
  0
ARC
  8
_e-0_
  6
CONTINUOUS
 62
    3
 10
2250.0927387377205
 20
170.4956084628958
 40
40
 50
279.71265316664215
 51
332.69093929010892
  0
ARC
  8
_e-0_
  6
CONTINUOUS
 62
    3
 10
2255.9974857549714
 20
135.99729020443191
 40
5
 50
241.9452628118
 51
279.71265316664221
  0
ARC
  8
_e-0_
  6
CONTINUOUS
 62
    3
 10
2263.2643122966178
 20
205.12865853712895
 40
5
 50
90
 51
106.05338143786269
  0
LINE
  8
_e-0_
  6
CONTINUOUS
 62
    3
 10
2288.4334989152221
 20
210.12865853712881
 11
2278.2181989551913
 21
205.24067691222057
  0
LINE
  8
_e-0_
  6
CONTINUOUS
 62
    3
 10
2278.2181989551913
 20
205.24067691222057
 11
2272.2994583375816
 21
201.4444897898403
  0
LINE
  8
_e-0_
  6
CONTINUOUS
 62
    3
 10
2266.4464672734898
 20
197.56612819678252
 11
2272.2994583375816
 21
201.4444897898403
  0
ARC
  8
_e-0_
  6
CONTINUOUS
 62
    3
 10
2263.2643122966178
 20
205.12865853712895
 40
5
 50
90
 51
106.05338143786269
  0
ARC
  8
_e-0_
  6
CONTINUOUS
 62
    3
 10
2263.2643122966178
 20
205.12865853712895
 40
5
 50
90
 51
106.05338143786269
  0
LINE
  8
_e-0_
  6
CONTINUOUS
 62
    3
 10
2288.4334989152221
 20
210.12865853712895
 11
2263.2643122966178
 21
210.12865853712895
  0
ARC
  8
_e-0_
  6
CONTINUOUS
 62
    3
 10
2273.6342932765642
 20
169.09099082020304
 40
42.5
 50
106.05338143786271
 51
241.94526281180051
  0
ARC
  8
_e-0_
  6
CONTINUOUS
 62
    3
 10
2263.2643122966178
 20
205.12865853712895
 40
5
 50
90
 51
106.05338143786269
  0
LINE
  8
_e-0_
  6
CONTINUOUS
 62
    3
 10
2299.1719829458552
 20
210.12865853712895
 11
2313.2288608412613
 21
210.12865853712895
  0
ARC
  8
_e-0_
  6
CONTINUOUS
 62
    3
 10
2299.1719829458552
 20
205.12865853712895
 40
5
 50
90
 51
112.84552721528329
  0
LINE
  8
_e-0_
  6
CONTINUOUS
 62
    3
 10
2292.0528772673465
 20
188.89449034687004
 11
2269.0173546029673
 21
188.89449034687004
  0
ARC
  8
_e-0_
  6
CONTINUOUS
 62
    3
 10
2269.0173546029673
 20
183.89449034687004
 40
5
 50
90
 51
110.93110431809542
  0
ARC
  8
_e-0_
  6
CONTINUOUS
 62
    3
 10
2254.2292662802574
 20
177.70386452217394
 40
0.5
 50
165.368776721252
 51
224.67319701305797
  0
LINE
  8
_e-0_
  6
CONTINUOUS
 62
    3
 10
2253.8737020580624
 20
177.3523334653737
 11
2253.6837582739271
 21
177.54445650133447
  0
ARC
  8
_e-0_
  6
CONTINUOUS
 62
    3
 10
2276.1622566207875
 20
165.2142768803236
 40
25
 50
110.93110431809527
 51
150.17701829297226
  0
ARC
  8
_e-0_
  6
CONTINUOUS
 62
    3
 10
2254.0393224961217
 20
177.89598755813472
 40
0.5
 50
224.67319701305652
 51
330.17701829297561
  0
LINE
  8
_e-0_
  6
CONTINUOUS
 62
    3
 10
2297.2307430642558
 20
209.73643324104926
 11
2283.5233941157548
 21
203.96157353985984
  0
LINE
  8
_e-0_
  6
CONTINUOUS
 62
    3
 10
2283.5233941157548
 20
203.96157353985984
 11
2277.114528385443
 21
200.4613679180602
  0
ARC
  8
_e-0_
  6
CONTINUOUS
 62
    3
 10
2277.9347719955744
 20
171.51524603489747
 40
25
 50
126.05682261028304
 51
165.36877672125814
  0
ARC
  8
_e-0_
  6
CONTINUOUS
 62
    3
 10
2322.0287923520791
 20
111.11536133502738
 40
100
 50
116.6886898974924
 51
126.03335467187628
  0
LINE
  8
_e-0_
  6
CONTINUOUS
 62
    3
 10
2262.3244734593245
 20
194.75680664380149
 11
2254.3560414411385
 21
187.50185893935451
  0
LINE
  8
_e-0_
  6
CONTINUOUS
 62
    3
 10
2254.3560414411385
 20
187.50185893935451
 11
2252.5108960046536
 21
185.36863764275494
  0
ARC
  8
_e-0_
  6
CONTINUOUS
 62
    3
 10
2274.5493829743445
 20
174.5520307550089
 40
25
 50
169.07329675873063
 51
296.32138326661799
  0
LINE
  8
_e-0_
  6
CONTINUOUS
 62
    3
 10
2252.5108960046536
 20
185.36863764275494
 11
2250.0026210661126
 21
179.29085759512361
  0
LINE
  8
_e-0_
  6
CONTINUOUS
 62
    3
 10
2292.0528772673465
 20
188.89449034687004
 11
2292.0528772673465
 21
164.42425885831653
  0
ARC
  8
_e-0_
  6
CONTINUOUS
 62
    3
 10
2277.2840925230507
 20
144.13090983307199
 40
5
 50
311.4163090429962
 51
326.13300916724881
  0
ARC
  8
_e-0_
  6
CONTINUOUS
 62
    3
 10
2252.285941088533
 20
168.73596234419835
 40
40
 50
316.78132524618342
 51
353.81191653224226
  0
ARC
  8
_e-0_
  6
CONTINUOUS
 62
    3
 10
2240.9001979970053
 20
185.376663785662
 40
60
 50
294.69555798319504
 51
311.41630904299643
  0
ARC
  8
_e-0_
  6
CONTINUOUS
 62
    3
 10
2271.9268153318698
 20
202.98067150791609
 40
75
 50
264.68313230529076
 51
266.17253517307824
  0
ARC
  8
_e-0_
  6
CONTINUOUS
 62
    3
 10
2265.0233680716155
 20
128.80121063143832
 40
0.5
 50
174.02086603460466
 51
264.68313230528985
  0
ARC
  8
_e-0_
  6
CONTINUOUS
 62
    3
 10
2267.0124878650103
 20
128.59287809071872
 40
2.5
 50
114.69555798319522
 51
174.02086603461154
  0
LINE
  8
_e-0_
  6
CONTINUOUS
 62
    7
 10
2376.8899919095943
 20
169.43032024062034
 11
2388.2618909747957
 21
173.56935300743344
  0
LINE
  8
_e-0_
  6
CONTINUOUS
 62
    3
 10
2436.2585234464268
 20
162.63312492519389
 11
2436.2585234464268
 21
136.49018622829544
  0
CIRCLE
  8
_e-0_
  6
CONTINUOUS
 62
    3
 10
2365.5167430510387
 20
162.46293449130519
 40
13.33773795583065
  0
CIRCLE
  8
_e-0_
  6
CONTINUOUS
 62
    3
 10
2365.2330256036634
 20
162.17921704393006
 40
25.691707563897665
  0
LINE
  8
_e-0_
  6
CONTINUOUS
 62
    3
 10
2399.4939617252575
 20
188.26250382114977
 11
2399.4939617252575
 21
136.49018622829544
  0
LINE
  8
_e-0_
  6
CONTINUOUS
 62
    3
 10
2399.4939617252575
 20
136.49018622829544
 11
2414.856930753669
 21
136.49018622829544
  0
LINE
  8
_e-0_
  6
CONTINUOUS
 62
    3
 10
2414.856930753669
 20
136.49018622829544
 11
2414.856930753669
 21
172.63312492519389
  0
LINE
  8
_e-0_
  6
CONTINUOUS
 62
    3
 10
2451.1774760289299
 20
136.49018622829544
 11
2436.2585234464268
 21
136.49018622829544
  0
LINE
  8
_e-0_
  6
CONTINUOUS
 62
    3
 10
2426.2585234464268
 20
172.63312492519389
 11
2414.856930753669
 21
172.63312492519389
  0
ARC
  8
_e-0_
  6
CONTINUOUS
 62
    3
 10
2426.2585234464268
 20
162.63312492519389
 40
10
 50
0
 51
90
  0
LINE
  8
_e-0_
  6
CONTINUOUS
 62
    3
 10
2426.1774760289299
 20
188.26250382114977
 11
2399.4939617252575
 21
188.26250382114977
  0
LINE
  8
_e-0_
  6
CONTINUOUS
 62
    3
 10
2451.1774760289299
 20
163.26250382114977
 11
2451.1774760289299
 21
136.49018622829544
  0
ARC
  8
_e-0_
  6
CONTINUOUS
 62
    3
 10
2426.1774760289299
 20
163.26250382114977
 40
25
 50
0
 51
90
  0
ARC
  8
_e-0_
  6
CONTINUOUS
 62
    3
 10
2486.2452606175229
 20
162.17653762406428
 40
13.33773795583065
 50
23.422555400004949
 51
97.191484740792631
  0
LINE
  8
_e-0_
  6
CONTINUOUS
 62
    3
 10
2474.0065761310629
 20
167.47841048365671
 11
2498.4839451039833
 21
167.47841048365671
  0
ARC
  8
_e-0_
  6
CONTINUOUS
 62
    3
 10
2486.2452606175229
 20
162.17653762406428
 40
13.33773795583065
 50
92.530763017635251
 51
156.57744459999506
  0
ARC
  8
_e-0_
  6
CONTINUOUS
 62
    3
 10
2486.2452606175229
 20
162.17653762406428
 40
13.33773795583065
 50
204.21097500392608
 51
316.0067678116265
  0
LINE
  8
_e-0_
  6
CONTINUOUS
 62
    3
 10
2474.0806890359867
 20
156.70676139316753
 11
2511.5200753562385
 21
156.70676139316753
  0
LINE
  8
_e-0_
  6
CONTINUOUS
 62
    3
 10
2495.8407207162626
 20
152.91249966689292
 11
2508.7092412098891
 21
149.78943472664496
  0
ARC
  8
_e-0_
  6
CONTINUOUS
 62
    3
 10
2486.5655867677851
 20
162.8171899245882
 40
25.691707563897665
 50
346.24110979921471
 51
329.53046432565099
  0
ARC
  8
_e-0_
  6
CONTINUOUS
 62
    3
 10
2546.5135590423406
 20
162.14309845353909
 40
11.089756641867943
 50
94.502189492040685
 51
357.22978420280037
  0
LINE
  8
_e-0_
  6
CONTINUOUS
 62
    3
 10
2556.5903561511468
 20
173.19863581905565
 11
2545.6430442891501
 21
173.19863581905565
  0
LINE
  8
_e-0_
  6
CONTINUOUS
 62
    3
 10
2557.5903561511468
 20
172.19863581905599
 11
2557.5903561511468
 21
161.60712439988742
  0
ARC
  8
_e-0_
  6
CONTINUOUS
 62
    3
 10
2556.5903561511468
 20
172.19863581905599
 40
1
 50
0
 51
90
  0
LINE
  8
_e-0_
  6
CONTINUOUS
 62
    3
 10
2548.9703457355517
 20
188.29058742736094
 11
2557.393077545817
 21
188.29058742736094
  0
ARC
  8
_e-0_
  6
CONTINUOUS
 62
    3
 10
2546.9662856612039
 20
162.67716163604518
 40
25.691707563897665
 50
85.526146014136969
 51
347.40557840019874
  0
LINE
  8
_e-0_
  6
CONTINUOUS
 62
    3
 10
2557.393077545817
 20
209.12865853712901
 11
2557.393077545817
 21
188.29058742736094
  0
ARC
  8
_e-0_
  6
CONTINUOUS
 62
    3
 10
2558.3930775458175
 20
209.12865853712901
 40
1
 50
90
 51
180
  0
LINE
  8
_e-0_
  6
CONTINUOUS
 62
    3
 10
2572.0397992563612
 20
209.12865853712901
 11
2572.0397992563612
 21
157.07513043814088
  0
LINE
  8
_e-0_
  6
CONTINUOUS
 62
    3
 10
2571.0397992563616
 20
210.12865853712895
 11
2558.3930775458175
 21
210.12865853712895
  0
ARC
  8
_e-0_
  6
CONTINUOUS
 62
    3
 10
2571.0397992563616
 20
209.12865853712901
 40
1
 50
0
 51
90
  0
CIRCLE
  8
_e-0_
  6
CONTINUOUS
 62
    3
 10
2607.4932845795829
 20
162.61858771142584
 40
13.33773795583065
  0
CIRCLE
  8
_e-0_
  6
CONTINUOUS
 62
    3
 10
2607.2095671322085
 20
162.334870264051
 40
25.691707563897665
  0
ARC
  8
_e-0_
  6
CONTINUOUS
 62
    3
 10
2361.3056445788688
 20
183.56108960512415
 40
5
 50
90
 51
106.05338143786269
  0
ARC
  8
_e-0_
  6
CONTINUOUS
 62
    3
 10
2361.3056445788688
 20
183.56108960512415
 40
5
 50
90
 51
106.05338143786269
  0
ARC
  8
_e-0_
  6
CONTINUOUS
 62
    3
 10
2361.3056445788688
 20
183.56108960512415
 40
5
 50
90
 51
106.05338143786269
  0
ARC
  8
_e-0_
  6
CONTINUOUS
 62
    3
 10
2361.3056445788688
 20
183.56108960512415
 40
5
 50
90
 51
106.05338143786269
  0
LINE
  8
_e-0_
  6
CONTINUOUS
 62
    7
 10
2346.3470804331013
 20
179.59716504486777
 11
2368.504457793455
 21
187.66179087344028
  0
LINE
  8
_e-0_
  6
CONTINUOUS
 62
    7
 10
2361.2415063076141
 20
179.69740385729494
 11
2376.5205845613304
 21
185.25853354867166
  0
LINE
  8
_e-0_
  6
CONTINUOUS
 62
    7
 10
2341.7511550984831
 20
172.60349616177705
 11
2361.2415063076145
 21
179.69740385729494
  0
LINE
  8
_e-0_
  6
CONTINUOUS
 62
    7
 10
2339.9278406436087
 20
166.61897511011602
 11
2357.2356669233163
 21
172.91850869577984
  0
LINE
  8
_e-0_
  6
CONTINUOUS
 62
    7
 10
2339.5613566552269
 20
161.16469698463049
 11
2352.6357267551816
 21
165.92337853279389
  0
LINE
  8
_e-0_
  6
CONTINUOUS
 62
    7
 10
2340.2704529847874
 20
156.10189807943811
 11
2352.3257797311662
 21
160.489678179473
  0
LINE
  8
_e-0_
  6
CONTINUOUS
 62
    7
 10
2341.9204823498939
 20
151.38157079162255
 11
2353.9794571535694
 21
155.77067867592631
  0
LINE
  8
_e-0_
  6
CONTINUOUS
 62
    7
 10
2344.504128974107
 20
147.00105239631881
 11
2357.564943671171
 21
151.75480018131679
  0
LINE
  8
_e-0_
  6
CONTINUOUS
 62
    7
 10
2348.1361647674007
 20
143.00211645248765
 11
2364.9879954656798
 21
149.13568121955449
  0
LINE
  8
_e-0_
  6
CONTINUOUS
 62
    7
 10
2353.1501292054063
 20
139.50616140121155
 11
2375.2534753949121
 21
147.55112149187283
  0
LINE
  8
_e-0_
  6
CONTINUOUS
 62
    7
 10
2360.6217579801264
 20
136.90472301431668
 11
2375.3071030149835
 21
142.24975148693374
  0
LINE
  8
_e-0_
  6
CONTINUOUS
 62
    7
 10
2375.3071030149835
 20
142.24975148693374
 11
2385.0115931457403
 21
145.78189703325932
  0
LINE
  8
_e-0_
  6
CONTINUOUS
 62
    7
 10
2374.4001538198344
 20
147.24053783828736
 11
2389.0630204872036
 21
152.57738485422379
  0
LINE
  8
_e-0_
  6
CONTINUOUS
 62
    7
 10
2374.4883804748506
 20
152.59353857696169
 11
2390.6567834919524
 21
158.47835601080646
  0
LINE
  8
_e-0_
  6
CONTINUOUS
 62
    7
 10
2378.4912308361022
 20
159.37134582305873
 11
2390.8686178519897
 21
163.87634627483464
  0
LINE
  8
_e-0_
  6
CONTINUOUS
 62
    7
 10
2378.6565159204474
 20
164.75239353630797
 11
2390.0320630429459
 21
168.89275408738967
  0
LINE
  8
_e-0_
  6
CONTINUOUS
 62
    7
 10
2365.1397018509305
 20
175.7953421400316
 11
2381.7641004494612
 21
181.84612839247364
  0
LINE
  8
_e-0_
  6
CONTINUOUS
 62
    7
 10
2373.159843452322
 20
173.39354609515908
 11
2385.5507858710998
 21
177.90348031010012
  0
LINE
  8
_e-0_
  6
CONTINUOUS
 62
    7
 10
2399.4939617252575
 20
182.97838129215278
 11
2414.0119690553083
 21
188.26250382114977
  0
LINE
  8
_e-0_
  6
CONTINUOUS
 62
    7
 10
2399.4939617252575
 20
177.65749242977335
 11
2428.3670442872125
 21
188.16643505383524
  0
LINE
  8
_e-0_
  6
CONTINUOUS
 62
    7
 10
2399.4939617252575
 20
172.33660356739392
 11
2436.7743097980664
 21
185.90554058897964
  0
LINE
  8
_e-0_
  6
CONTINUOUS
 62
    7
 10
2399.4939617252575
 20
167.01571470501448
 11
2442.1110032081055
 21
182.52704927725858
  0
LINE
  8
_e-0_
  6
CONTINUOUS
 62
    7
 10
2399.4939617252575
 20
161.69482584263505
 11
2414.856930753669
 21
167.28648927893004
  0
LINE
  8
_e-0_
  6
CONTINUOUS
 62
    7
 10
2428.7090082786239
 20
172.32823318076128
 11
2445.9244086202584
 21
178.5941264760919
  0
LINE
  8
_e-0_
  6
CONTINUOUS
 62
    7
 10
2399.4939617252575
 20
156.37393698025562
 11
2414.856930753669
 21
161.96560041655061
  0
LINE
  8
_e-0_
  6
CONTINUOUS
 62
    7
 10
2403.3398935234458
 20
136.49018622829544
 11
2414.856930753669
 21
140.68204496703231
  0
LINE
  8
_e-0_
  6
CONTINUOUS
 62
    7
 10
2399.4939617252575
 20
140.41127039311675
 11
2414.856930753669
 21
146.00293382941202
  0
LINE
  8
_e-0_
  6
CONTINUOUS
 62
    7
 10
2399.4939617252575
 20
145.73215925549646
 11
2414.856930753669
 21
151.32382269179146
  0
LINE
  8
_e-0_
  6
CONTINUOUS
 62
    7
 10
2399.4939617252575
 20
151.0530481178759
 11
2414.856930753669
 21
156.64471155417118
  0
LINE
  8
_e-0_
  6
CONTINUOUS
 62
    7
 10
2436.2585234464268
 20
159.113365397844
 11
2451.1774760289299
 21
164.5434200643038
  0
LINE
  8
_e-0_
  6
CONTINUOUS
 62
    7
 10
2436.2585234464268
 20
153.79247653546485
 11
2451.1774760289299
 21
159.22253120192465
  0
LINE
  8
_e-0_
  6
CONTINUOUS
 62
    7
 10
2436.105047565391
 20
164.37839360784892
 11
2450.3687179376247
 21
169.56994505472636
  0
LINE
  8
_e-0_
  6
CONTINUOUS
 62
    7
 10
2436.2585234464268
 20
148.47158767308542
 11
2451.1774760289299
 21
153.90164233954521
  0
LINE
  8
_e-0_
  6
CONTINUOUS
 62
    7
 10
2436.2585234464268
 20
143.1506988107057
 11
2451.1774760289299
 21
148.5807534771655
  0
LINE
  8
_e-0_
  6
CONTINUOUS
 62
    7
 10
2436.2585234464268
 20
137.82980994832598
 11
2451.1774760289299
 21
143.25986461478606
  0
LINE
  8
_e-0_
  6
CONTINUOUS
 62
    7
 10
2447.1969595258929
 20
136.49018622829544
 11
2451.1774760289299
 21
137.93897575240634
  0
LINE
  8
_e-0_
  6
CONTINUOUS
 62
    7
 10
2434.0189024056153
 20
168.93998772771169
 11
2448.6296862431445
 21
174.25787814386978
  0
LINE
  8
_e-0_
  6
CONTINUOUS
 62
    7
 10
2469.1883842563338
 20
181.74063227593791
 11
2487.7135419125711
 21
188.48323824789645
  0
LINE
  8
_e-0_
  6
CONTINUOUS
 62
    7
 10
2463.6316388937825
 20
174.39725350219305
 11
2496.6904887083792
 21
186.42969081378254
  0
LINE
  8
_e-0_
  6
CONTINUOUS
 62
    7
 10
2461.4628990865917
 20
168.28700790412767
 11
2502.2794299488264
 21
183.14301020398858
  0
LINE
  8
_e-0_
  6
CONTINUOUS
 62
    7
 10
2461.4992419870632
 20
162.97934677574687
 11
2473.9894671720021
 21
167.52541696234658
  0
LINE
  8
_e-0_
  6
CONTINUOUS
 62
    7
 10
2492.1508316310541
 20
174.13561303910114
 11
2506.2885679576879
 21
179.28132824190015
  0
LINE
  8
_e-0_
  6
CONTINUOUS
 62
    7
 10
2496.6927278595248
 20
170.46783921101109
 11
2509.1784918759253
 21
175.01228566505261
  0
LINE
  8
_e-0_
  6
CONTINUOUS
 62
    7
 10
2463.2093427036916
 20
158.28088367181749
 11
2488.4793399340492
 21
167.47841048365671
  0
LINE
  8
_e-0_
  6
CONTINUOUS
 62
    7
 10
2462.888879459625
 20
152.84335572742151
 11
2511.1140538755621
 21
170.39588375711787
  0
LINE
  8
_e-0_
  6
CONTINUOUS
 62
    7
 10
2465.300291731432
 20
148.400149154524
 11
2476.9283430630939
 21
152.63241372176821
  0
LINE
  8
_e-0_
  6
CONTINUOUS
 62
    7
 10
2488.1225212892718
 20
156.70676139316753
 11
2512.1228430370119
 21
165.44216412215632
  0
LINE
  8
_e-0_
  6
CONTINUOUS
 62
    7
 10
2502.7415432900879
 20
156.70676139316753
 11
2512.1151621126959
 21
160.11847963195407
  0
LINE
  8
_e-0_
  6
CONTINUOUS
 62
    7
 10
2468.7281740890052
 20
144.32690743686691
 11
2482.5550140975401
 21
149.35946563393486
  0
LINE
  8
_e-0_
  6
CONTINUOUS
 62
    7
 10
2473.4508580764295
 20
140.72493497175571
 11
2502.4973614552441
 21
151.29699761115659
  0
LINE
  8
_e-0_
  6
CONTINUOUS
 62
    7
 10
2480.3069495598269
 20
137.89945933273884
 11
2507.3767895083869
 21
147.75207532036432
  0
LINE
  8
_e-0_
  6
CONTINUOUS
 62
    7
 10
2552.6231690921717
 20
137.61596638527407
 11
2558.7418873346696
 21
139.84299769740459
  0
LINE
  8
_e-0_
  6
CONTINUOUS
 62
    7
 10
2539.4012676014826
 20
138.12447666464265
 11
2568.5435873921023
 21
148.73141362589478
  0
LINE
  8
_e-0_
  6
CONTINUOUS
 62
    7
 10
2532.9976800904732
 20
141.11465028049622
 11
2571.5269734698549
 21
155.13816621790056
  0
LINE
  8
_e-0_
  6
CONTINUOUS
 62
    7
 10
2522.081864354775
 20
169.06695144424446
 11
2572.0397992563612
 21
187.25015271383
  0
LINE
  8
_e-0_
  6
CONTINUOUS
 62
    7
 10
2524.5896829795606
 20
175.30061163898437
 11
2572.0397992563612
 21
192.57104157620943
  0
LINE
  8
_e-0_
  6
CONTINUOUS
 62
    7
 10
2557.393077545817
 20
208.52362629350906
 11
2561.8028673926596
 21
210.12865853712895
  0
LINE
  8
_e-0_
  6
CONTINUOUS
 62
    7
 10
2557.393077545817
 20
203.20273743112977
 11
2572.0397992563612
 21
208.53370816334788
  0
LINE
  8
_e-0_
  6
CONTINUOUS
 62
    7
 10
2557.393077545817
 20
197.88184856875005
 11
2572.0397992563612
 21
203.21281930096859
  0
LINE
  8
_e-0_
  6
CONTINUOUS
 62
    7
 10
2557.393077545817
 20
192.56095970637034
 11
2572.0397992563612
 21
197.89193043858915
  0
LINE
  8
_e-0_
  6
CONTINUOUS
 62
    7
 10
2531.3600319802562
 20
183.08570601321093
 11
2545.8030101140193
 21
188.34252014805827
  0
LINE
  8
_e-0_
  6
CONTINUOUS
 62
    7
 10
2548.0525958796984
 20
173.19863581905565
 11
2572.0397992563612
 21
181.92926385145057
  0
LINE
  8
_e-0_
  6
CONTINUOUS
 62
    7
 10
2521.2864022906337
 20
163.45653806802943
 11
2538.3752084417083
 21
169.67635484616607
  0
LINE
  8
_e-0_
  6
CONTINUOUS
 62
    7
 10
2521.6554107736328
 20
158.26995730965364
 11
2535.4846691325356
 21
163.30339571427089
  0
LINE
  8
_e-0_
  6
CONTINUOUS
 62
    7
 10
2522.9940114609526
 20
153.43627925302655
 11
2536.1404517985765
 21
158.22119222247806
  0
LINE
  8
_e-0_
  6
CONTINUOUS
 62
    7
 10
2525.2563435788042
 20
148.93881194156961
 11
2539.0354883761392
 21
153.95401050144357
  0
LINE
  8
_e-0_
  6
CONTINUOUS
 62
    7
 10
2528.5117312327797
 20
144.80278728623488
 11
2545.7561370732082
 21
151.07923771975691
  0
LINE
  8
_e-0_
  6
CONTINUOUS
 62
    7
 10
2554.2054905278623
 20
154.15455087604527
 11
2572.0397992563612
 21
160.64570840193255
  0
LINE
  8
_e-0_
  6
CONTINUOUS
 62
    7
 10
2557.505937791675
 20
160.67670430221767
 11
2572.0397992563612
 21
165.96659726431198
  0
LINE
  8
_e-0_
  6
CONTINUOUS
 62
    7
 10
2557.5903561511468
 20
166.02831893467055
 11
2572.0397992563612
 21
171.28748612669141
  0
LINE
  8
_e-0_
  6
CONTINUOUS
 62
    7
 10
2557.5903561511468
 20
171.34920779704998
 11
2572.0397992563612
 21
176.60837498907085
  0
LINE
  8
_e-0_
  6
CONTINUOUS
 62
    7
 10
2595.1467628188602
 20
185.01862193009401
 11
2601.869376832742
 21
187.46545332760774
  0
LINE
  8
_e-0_
  6
CONTINUOUS
 62
    7
 10
2585.5936460434281
 20
176.22068291698809
 11
2614.8426950414304
 21
186.86646613285404
  0
LINE
  8
_e-0_
  6
CONTINUOUS
 62
    7
 10
2608.5181174973604
 20
136.67650840108905
 11
2622.7000364868072
 21
141.83830477802189
  0
LINE
  8
_e-0_
  6
CONTINUOUS
 62
    7
 10
2598.2444761483161
 20
138.25809761488983
 11
2629.5534764025942
 21
149.65364177207987
  0
LINE
  8
_e-0_
  6
CONTINUOUS
 62
    7
 10
2582.6330921261528
 20
169.82224055178022
 11
2621.2234503919626
 21
183.86798229020314
  0
LINE
  8
_e-0_
  6
CONTINUOUS
 62
    7
 10
2592.2968185805402
 20
141.41421615899105
 11
2632.0809325371146
 21
155.89444943583799
  0
LINE
  8
_e-0_
  6
CONTINUOUS
 62
    7
 10
2588.0695495912832
 20
145.19650493704432
 11
2602.246111940276
 21
150.35635165629656
  0
LINE
  8
_e-0_
  6
CONTINUOUS
 62
    7
 10
2585.0094293819529
 20
149.40360112995108
 11
2597.3909335115822
 21
153.91010008858017
  0
LINE
  8
_e-0_
  6
CONTINUOUS
 62
    7
 10
2582.919829983693
 20
153.96393800982366
 11
2594.8695180063709
 21
158.31326875884542
  0
LINE
  8
_e-0_
  6
CONTINUOUS
 62
    7
 10
2581.7538748691904
 20
158.86045391603374
 11
2594.1774270088017
 21
163.38225709870641
  0
LINE
  8
_e-0_
  6
CONTINUOUS
 62
    7
 10
2581.5798124660104
 20
164.11798924475078
 11
2595.9853391150809
 21
169.36117215394091
  0
LINE
  8
_e-0_
  6
CONTINUOUS
 62
    7
 10
2611.9748325174678
 20
175.18087181340547
 11
2625.6969314853613
 21
180.17530738937352
  0
LINE
  8
_e-0_
  6
CONTINUOUS
 62
    7
 10
2617.2029460570038
 20
171.76286066078091
 11
2628.9430705154381
 21
176.03591651023151
  0
LINE
  8
_e-0_
  6
CONTINUOUS
 62
    7
 10
2619.9310564926913
 20
167.43492279278257
 11
2631.1973168341919
 21
171.53550620858254
  0
LINE
  8
_e-0_
  6
CONTINUOUS
 62
    7
 10
2620.8298424207368
 20
162.44116525518904
 11
2632.5279188691888
 21
166.69891688059578
  0
LINE
  8
_e-0_
  6
CONTINUOUS
 62
    7
 10
2619.394865425299
 20
156.5979874796136
 11
2632.8880000931144
 21
161.50908686564349
  0
LINE
  8
ADD_LINE
  6
DOT
 62
    9
 10
2339.5613566552269
 20
120
 11
2339.5613566552269
 21
220
  0
LINE
  8
ADD_LINE
  6
DOT
 62
    9
 10
2486.2246783741707
 20
220
 11
2486.2246783741707
 21
120
  0
LINE
  8
ADD_LINE
  6
DOT
 62
    9
 10
2632.8880000931144
 20
120
 11
2632.8880000931144
 21
220
  0
LINE
  8
ADD_LINE
  6
DOT
 62
    9
 10
2220
 20
220
 11
2220
 21
120
  0
LINE
  8
ADD_LINE
  6
DOT
 62
    9
 10
2710
 20
220
 11
2710
 21
120
  0
TEXT
  8
_e-0_
 62
    7
 10
2642.8586825750176
 20
180.56247057449553
 40
35
 41
0.5714285714285713
 50
0
  1
ワンド
  0
TEXT
  8
_e-0_
 62
    7
 10
2649.7045100149039
 20
147.0179161190498
 40
30
 41
0.6666666666666666
 50
0
  1
株式
  0
TEXT
  8
_e-0_
 62
    7
 10
2649.0199272709155
 20
118.95002361551377
 40
30
 41
0.6666666666666666
 50
0
  1
会社
  0
TEXT
  8
_f-8_
 62
    7
 10
1598.4278526213277
 20
136.32251257912685
 40
45
 41
0.6666666666666666
 50
0
  1
ＫＴＤ５－８５－７５Ｃ
  0
TEXT
  8
_f-8_
 62
    7
 10
3064.9504950495047
 20
139.18276253854884
 40
35
 41
0.5714285714285713
 50
0
  1
２０２３.０５.０１
  0
LINE
  8
_0-9_
  6
CONTINUOUS
 62
    4
 10
450.00000708007803
 20
1559.9999999999997
 11
450.00000708007803
 21
1502.2073875056082
  0
LINE
  8
ADD_LINE
  6
DOT
 62
    9
 10
345.44554455445535
 20
1549.9999999999997
 11
292.15460656624628
 21
1549.9999999999997
  0
LINE
  8
ADD_LINE
  6
DOT
 62
    9
 10
345.44554455445535
 20
1750
 11
292.15460656624628
 21
1750
  0
LINE
  8
ADD_LINE
  6
DOT
 62
    9
 10
345.44554455445535
 20
1830
 11
292.15460656624628
 21
1830
  0
LINE
  8
ADD_LINE
  6
DOT
 62
    9
 10
3877.4257425742575
 20
1549.9999999999997
 11
3934.5527025351175
 21
1549.9999999999997
  0
LINE
  8
ADD_LINE
  6
DOT
 62
    9
 10
330
 20
2798.4653465346536
 11
330
 21
2752.7227722772277
  0
LINE
  8
ADD_LINE
  6
DOT
 62
    9
 10
1322.3762376237623
 20
2760
 11
1270.09900990099
 21
2760
  0
LINE
  8
ADD_LINE
  6
DOT
 62
    9
 10
1380
 20
2716.782178217822
 11
1380
 21
2760
  0
LINE
  8
ADD_LINE
  6
DOT
 62
    9
 10
324.74043902827105
 20
392.08277206296656
 11
379.21995701133312
 21
392.08277206296656
  0
LINE
  8
ADD_LINE
  6
DOT
 62
    9
 10
324.74043902827105
 20
472.08277206296656
 11
379.21995701133312
 21
472.08277206296656
  0
ENDSEC
  0
EOF
