  0
SECTION
  2
HEADER
  9
$ACADVER
  1
AC1009
  9
$INSBASE
 10
0
 20
0
 30
0
  9
$EXTMIN
 10
0
 20
0
  9
$EXTMAX
 10
840
 20
594
  9
$LIMMIN
 10
0
 20
0
  9
$LIMMAX
 10
840
 20
594
  9
$LTSCALE
 40
2
  0
ENDSEC
  0
SECTION
  2
TABLES
  0
TABLE
  2
LTYPE
 70
     9
  0
LTYPE
  2
CONTINUOUS
 70
    64
  3
実線
 72
    65
 73
     0
 40
0.0
  0
LTYPE
  2
DASHED1
 70
    64
  3
--  --  --  --  --  --  --  --  
 72
    65
 73
     2
 40
2.5
 49
1.25
 49
-1.25
  0
LTYPE
  2
DASHED2
 70
    64
  3
----    ----    ----    ----    
 72
    65
 73
     2
 40
5.0
 49
2.5
 49
-2.5
  0
LTYPE
  2
DASHED3
 70
    64
  3
------  ------  ------  ------  
 72
    65
 73
     2
 40
5.0
 49
3.75
 49
-1.25
  0
LTYPE
  2
CENTER1
 70
    64
  3
----- - ----- - ----- - ----- - 
 72
    65
 73
     4
 40
10.0
 49
6.25
 49
-1.25
 49
1.25
 49
-1.25
  0
LTYPE
  2
CENTER2
 70
    64
  3
----------  --  ----------  --  
 72
    65
 73
     4
 40
20.0
 49
12.5
 49
-2.5
 49
2.5
 49
-2.5
  0
LTYPE
  2
PHANTOM1
 70
    64
  3
--- - - --- - - --- - - --- - - 
 72
    65
 73
     6
 40
10.0
 49
3.25
 49
-1.25
 49
1.25
 49
-1.25
 49
1.25
 49
-1.25
  0
LTYPE
  2
PHANTOM2
 70
    64
  3
--------  -  -  --------  -  -  
 72
    65
 73
     6
 40
20.0
 49
10.0
 49
-2.5
 49
1.25
 49
-2.5
 49
1.25
 49
-2.5
  0
LTYPE
  2
DOT
 70
    64
  3
-   -   -   -   -   -   -   -   
 72
    65
 73
     2
 40
2.5
 49
0.625
 49
-1.875
  0
LTYPE
  2
DUMMY
 70
    64
  3
ダミー
 72
    65
 73
     0
 40
0.0
  0
LTYPE
  2
RAND1
 70
    64
  3
ランダム線1
 72
    65
 73
     4
 40
10.0
 49
1.0
 49
-2.0
 49
3.0
 49
-4.0
  0
LTYPE
  2
RAND2
 70
    64
  3
ランダム線2
 72
    65
 73
     4
 40
14.0
 49
2.0
 49
-3.0
 49
4.0
 49
-5.0
  0
LTYPE
  2
RAND3
 70
    64
  3
ランダム線3
 72
    65
 73
     4
 40
18.0
 49
3.0
 49
-4.0
 49
5.0
 49
-6.0
  0
LTYPE
  2
RAND4
 70
    64
  3
ランダム線4
 72
    65
 73
     4
 40
22.0
 49
4.0
 49
-5.0
 49
6.0
 49
-7.0
  0
LTYPE
  2
RAND5
 70
    64
  3
ランダム線5
 72
    65
 73
     4
 40
26.0
 49
5.0
 49
-6.0
 49
7.0
 49
-8.0
  0
LTYPE
  2
LONG1
 70
    64
  3
----------  --  ----------  --  
 72
    65
 73
     4
 40
40.0
 49
32.5
 49
-2.5
 49
2.5
 49
-2.5
  0
LTYPE
  2
LONG2
 70
    64
  3
--------  -  -  --------  -  -  
 72
    65
 73
     6
 40
40.0
 49
30.0
 49
-2.5
 49
1.25
 49
-2.5
 49
1.25
 49
-2.5
  0
LTYPE
  2
LONG3
 70
    64
  3
+++++++++++++++..+++++++++++++++
 72
    65
 73
     2
 40
40.0
 49
37.5
 49
-2.5
  0
LTYPE
  2
LONG4
 70
    64
  3
+++++++++++++++..+++++++++++++++
 72
    65
 73
     2
 40
80.0
 49
75.0
 49
-5.0
  0
LTYPE
  2
LONG5
 70
    64
  3
----------  --  ----------  --  
 72
    65
 73
     4
 40
60.0
 49
37.5
 49
-7.5
 49
7.5
 49
-7.5
  0
LTYPE
  2
dashed
 70
   64
  3
-------   -------------   ------
 72
   65
 73
    2
 40
7.5
 49
6
 49
-1.5
  0
LTYPE
  2
dashed_spaced
 70
   64
  3
----        --------        ----
 72
   65
 73
    2
 40
12
 49
6
 49
-6
  0
LTYPE
  2
long_dashed_dotted
 70
   64
  3
------------- --- --------------
 72
   65
 73
    4
 40
15.25
 49
12
 49
-1.5
 49
0.25
 49
-1.5
  0
LTYPE
  2
long_dashed_double-dotted
 70
   64
  3
----------- --- --- ------------
 72
   65
 73
    6
 40
17
 49
12
 49
-1.5
 49
0.25
 49
-1.5
 49
0.25
 49
-1.5
  0
LTYPE
  2
long_dashed_triplicate-dotted
 70
   64
  3
--------- --- --- --- ----------
 72
   65
 73
    8
 40
18.75
 49
12
 49
-1.5
 49
0.25
 49
-1.5
 49
0.25
 49
-1.5
 49
0.25
 49
-1.5
  0
LTYPE
  2
dotted
 70
   64
  3
   -       -       -       -    
 72
   65
 73
    2
 40
1.75
 49
0.25
 49
-1.5
  0
LTYPE
  2
chain
 70
   64
  3
-------------- -- --------------
 72
   65
 73
    4
 40
18.5
 49
12
 49
-1.5
 49
3.5
 49
-1.5
  0
LTYPE
  2
chain_double_dash
 70
   64
  3
------------ -- -- -------------
 72
   65
 73
    6
 40
23.5
 49
12
 49
-1.5
 49
3.5
 49
-1.5
 49
3.5
 49
-1.5
  0
LTYPE
  2
dashed_dotted
 70
   64
  3
-----------     -     ----------
 72
   65
 73
    4
 40
9.25
 49
6
 49
-1.5
 49
0.25
 49
-1.5
  0
LTYPE
  2
double-dashed_dotted
 70
   64
  3
------   -----------   -   -----
 72
   65
 73
    6
 40
16.75
 49
6
 49
-1.5
 49
6
 49
-1.5
 49
0.25
 49
-1.5
  0
LTYPE
  2
dashed_double-dotted
 70
   64
  3
---------    -    -    ---------
 72
   65
 73
    6
 40
11
 49
6
 49
-1.5
 49
0.25
 49
-1.5
 49
0.25
 49
-1.5
  0
LTYPE
  2
double-dashed_double-dotted
 70
   64
  3
-----   ---------   -   -   ----
 72
   65
 73
    8
 40
18.5
 49
6
 49
-1.5
 49
6
 49
-1.5
 49
0.25
 49
-1.5
 49
0.25
 49
-1.5
  0
LTYPE
  2
dashed_triplicate-dotted
 70
   64
  3
-------    -    -    -    ------
 72
   65
 73
    8
 40
12.75
 49
6
 49
-1.5
 49
0.25
 49
-1.5
 49
0.25
 49
-1.5
 49
0.25
 49
-1.5
  0
LTYPE
  2
double-dashed_triplicate-dotted
 70
   64
  3
-----  ---------  -  -  -  -----
 72
   65
 73
   10
 40
20.25
 49
6
 49
-1.5
 49
6
 49
-1.5
 49
0.25
 49
-1.5
 49
0.25
 49
-1.5
 49
0.25
 49
-1.5
  0
LTYPE
  2
undefined
 70
   64
  3
--------------------------------
 72
   65
 73
    0
 40
0
  0
LTYPE
  2
_
 70
   64
  3
                                
 72
   65
 73
    0
 40
0
  0
LTYPE
  2
__18
 70
   64
  3
                                
 72
   65
 73
    0
 40
0
  0
LTYPE
  2
__19
 70
   64
  3
                                
 72
   65
 73
    0
 40
0
  0
LTYPE
  2
__20
 70
   64
  3
                                
 72
   65
 73
    0
 40
0
  0
LTYPE
  2
__21
 70
   64
  3
                                
 72
   65
 73
    0
 40
0
  0
LTYPE
  2
__22
 70
   64
  3
                                
 72
   65
 73
    0
 40
0
  0
LTYPE
  2
__23
 70
   64
  3
                                
 72
   65
 73
    0
 40
0
  0
LTYPE
  2
__24
 70
   64
  3
                                
 72
   65
 73
    0
 40
0
  0
LTYPE
  2
__25
 70
   64
  3
                                
 72
   65
 73
    0
 40
0
  0
LTYPE
  2
__26
 70
   64
  3
                                
 72
   65
 73
    0
 40
0
  0
LTYPE
  2
__27
 70
   64
  3
                                
 72
   65
 73
    0
 40
0
  0
LTYPE
  2
__28
 70
   64
  3
                                
 72
   65
 73
    0
 40
0
  0
LTYPE
  2
__29
 70
   64
  3
                                
 72
   65
 73
    0
 40
0
  0
LTYPE
  2
__30
 70
   64
  3
                                
 72
   65
 73
    0
 40
0
  0
LTYPE
  2
__31
 70
   64
  3
                                
 72
   65
 73
    0
 40
0
  0
LTYPE
  2
__32
 70
   64
  3
                                
 72
   65
 73
    0
 40
0
  0
ENDTAB
  0
TABLE
  2
STYLE
  5
3
100
AcDbSymbolTable
 70
     1
  0
STYLE
  5
10
100
AcDbSymbolTableRecord
100
AcDbTextStyleTableRecord
  2
STANDARD
 70
     0
 40
0.0
 41
1.0
 50
0.0
 71
     0
 42
0.2
  3
txt
  4
bigfont.shx
  0
STYLE
  5
26
100
AcDbSymbolTableRecord
100
AcDbTextStyleTableRecord
  2
TATEGAKI
 70
    68
 40
0.0
 41
1.0
 50
0.0
 71
     0
 42
1.0
  3
txt
  4
bigfont.shx
  0
ENDTAB
  0
TABLE
  2
LAYER
 70
    4
  0
LAYER
  2
_0-1__0-0_0
 70
   64
 62
    7
  6
CONTINUOUS
  0
LAYER
  2
_0-2__0-2_
 70
   64
 62
    7
  6
CONTINUOUS
  0
LAYER
  2
_0-3__0-7_
 70
   64
 62
    7
  6
CONTINUOUS
  0
LAYER
  2
ADD_LINE
 70
   64
 62
    7
  6
CONTINUOUS
  0
ENDTAB
  0
ENDSEC
  0
SECTION
  2
BLOCKS
  0
ENDSEC
  0
SECTION
  2
ENTITIES
  0
LINE
  8
_0-1__0-0_0
  6
CONTINUOUS
 62
  250
 10
570.10159999999996
 20
551.3925999999999
 11
570.10159999999996
 21
379.39260000000001
  0
ARC
  8
_0-1__0-0_0
  6
PHANTOM2
 62
  250
 10
579.08040000000005
 20
299.42599999999998
 40
5
 50
270.00000000000005
 51
0.0000000000000763
  0
ARC
  8
_0-1__0-0_0
  6
PHANTOM2
 62
  250
 10
579.08040000000005
 20
299.42599999999998
 40
5
 50
270.00000000000005
 51
0.0000000000000763
  0
TEXT
  8
_0-2__0-2_
 62
  250
 10
465.01699999999999
 20
45.782800000000008
 40
5.92666666676
 41
1
 50
0
  1
製図
  0
LINE
  8
_0-1__0-0_0
  6
PHANTOM2
 62
  250
 10
511.08039999999999
 20
294.42599999999998
 11
511.08039999999999
 21
149.42599999999998
  0
LINE
  8
_0-1__0-0_0
  6
PHANTOM2
 62
  250
 10
511.08039999999999
 20
294.42599999999998
 11
579.08040000000005
 21
294.42599999999998
  0
LINE
  8
_0-1__0-0_0
  6
PHANTOM2
 62
  250
 10
584.08040000000005
 20
309.42599999999998
 11
584.08040000000005
 21
134.42599999999998
  0
LINE
  8
_0-1__0-0_0
  6
PHANTOM2
 62
  250
 10
587.08040000000005
 20
309.42599999999998
 11
587.08040000000005
 21
134.42599999999998
  0
LINE
  8
_0-1__0-0_0
  6
PHANTOM2
 62
  250
 10
590.08040000000005
 20
309.42599999999998
 11
590.08040000000005
 21
134.42599999999998
  0
LINE
  8
_0-1__0-0_0
  6
PHANTOM2
 62
  250
 10
590.08040000000005
 20
309.42599999999998
 11
584.08040000000005
 21
309.42599999999998
  0
LINE
  8
_0-1__0-0_0
  6
PHANTOM2
 62
  250
 10
511.08039999999999
 20
149.42599999999998
 11
579.08040000000005
 21
149.42599999999998
  0
LINE
  8
_0-1__0-0_0
  6
PHANTOM2
 62
  250
 10
590.08040000000005
 20
134.42599999999998
 11
584.08040000000005
 21
134.42599999999998
  0
LINE
  8
_0-1__0-0_0
  6
CONTINUOUS
 62
  250
 10
507.27039999999999
 20
221.92599999999998
 11
592.47260000000005
 21
221.92599999999998
  0
LINE
  8
_0-2__0-2_
  6
CONTINUOUS
 62
  250
 10
35.999999999999943
 20
13
 11
804
 21
13
  0
LINE
  8
_0-2__0-2_
  6
CONTINUOUS
 62
  250
 10
804
 20
13
 11
804
 21
581
  0
LINE
  8
_0-2__0-2_
  6
CONTINUOUS
 62
  250
 10
804
 20
581
 11
35.999999999999943
 21
581
  0
LINE
  8
_0-2__0-2_
  6
CONTINUOUS
 62
  250
 10
35.999999999999943
 20
581
 11
35.999999999999943
 21
13
  0
LINE
  8
_0-2__0-2_
  6
CONTINUOUS
 62
  250
 10
458
 20
43
 11
530
 21
43
  0
LINE
  8
_0-2__0-2_
  6
CONTINUOUS
 62
  250
 10
594
 20
73
 11
594
 21
33
  0
LINE
  8
_0-2__0-2_
  6
CONTINUOUS
 62
  250
 10
468
 20
73
 11
468
 21
52.999999999999971
  0
LINE
  8
_0-2__0-2_
  6
CONTINUOUS
 62
  250
 10
458
 20
73
 11
804
 21
73
  0
LINE
  8
_0-2__0-2_
  6
CONTINUOUS
 62
  250
 10
458
 20
33
 11
804
 21
33
  0
LINE
  8
_0-2__0-2_
  6
CONTINUOUS
 62
  250
 10
539.16259999999999
 20
52.999999999999971
 11
539.16259999999999
 21
33
  0
LINE
  8
_0-2__0-2_
  6
DASHED1
 62
  250
 10
468
 20
62.999999999999971
 11
574
 21
62.999999999999971
  0
LINE
  8
_0-2__0-2_
  6
CONTINUOUS
 62
  250
 10
458
 20
52.999999999999971
 11
634
 21
52.999999999999971
  0
LINE
  8
_0-2__0-2_
  6
CONTINUOUS
 62
  250
 10
458
 20
73
 11
458
 21
13
  0
LINE
  8
_0-2__0-2_
  6
CONTINUOUS
 62
  250
 10
482
 20
52.999999999999971
 11
482
 21
33
  0
LINE
  8
_0-2__0-2_
  6
DASHED1
 62
  250
 10
609.63919999999995
 20
33
 11
609.63919999999995
 21
13
  0
LINE
  8
_0-2__0-2_
  6
CONTINUOUS
 62
  250
 10
530
 20
52.999999999999971
 11
530
 21
33
  0
LINE
  8
_0-2__0-2_
  6
CONTINUOUS
 62
  250
 10
584.44159999999999
 20
33
 11
584.44159999999999
 21
13
  0
LINE
  8
_0-2__0-2_
  6
CONTINUOUS
 62
  250
 10
574
 20
33
 11
574
 21
13
  0
LINE
  8
_0-2__0-2_
  6
CONTINUOUS
 62
  250
 10
574
 20
73
 11
574
 21
33
  0
LINE
  8
_0-2__0-2_
  6
CONTINUOUS
 62
  250
 10
644
 20
73
 11
644
 21
13
  0
LINE
  8
_0-2__0-2_
  6
CONTINUOUS
 62
  250
 10
634
 20
73
 11
634
 21
13
  0
LINE
  8
_0-2__0-2_
  6
CONTINUOUS
 62
  250
 10
541.40999999999996
 20
43
 11
555.71100000000001
 21
43
  0
LINE
  8
_0-2__0-2_
  6
CONTINUOUS
 62
  250
 10
555.71100000000001
 20
43
 11
569.40599999999994
 21
43
  0
LINE
  8
_0-2__0-2_
  6
CONTINUOUS
 62
  250
 10
557.39340000000004
 20
45.812800000000038
 11
557.39340000000004
 21
40.187199999999961
  0
LINE
  8
_0-2__0-2_
  6
CONTINUOUS
 62
  250
 10
568.96019999999998
 20
48.632400000000018
 11
568.96019999999998
 21
36.75
  0
LINE
  8
_0-2__0-2_
  6
CONTINUOUS
 62
  250
 10
548.56040000000007
 20
50.419999999999987
 11
548.56040000000007
 21
35.579999999999984
  0
LINE
  8
_0-2__0-2_
  6
CONTINUOUS
 62
  250
 10
557.39340000000004
 20
45.812800000000038
 11
568.96019999999998
 21
48.632400000000018
  0
LINE
  8
_0-2__0-2_
  6
CONTINUOUS
 62
  250
 10
557.39340000000004
 20
40.187199999999961
 11
568.96019999999998
 21
36.75
  0
LINE
  8
_0-3__0-7_
  6
CONTINUOUS
 62
  250
 10
285.45580000000001
 20
374.05899999999996
 11
290.83000000000004
 21
377.17419999999998
  0
LINE
  8
_0-3__0-7_
  6
CONTINUOUS
 62
  250
 10
290.83000000000004
 20
377.17419999999998
 11
287.73339999999996
 21
371.7894
  0
LINE
  8
_0-3__0-7_
  6
CONTINUOUS
 62
  250
 10
290.83000000000004
 20
377.17419999999998
 11
286.59460000000001
 21
372.92420000000004
  0
LINE
  8
_0-3__0-7_
  6
CONTINUOUS
 62
  250
 10
290.83000000000004
 20
377.17419999999998
 11
272.01959999999996
 21
358.29860000000002
  0
LINE
  8
_0-3__0-7_
  6
CONTINUOUS
 62
  250
 10
272.01959999999996
 20
358.29860000000002
 11
260.91480000000001
 21
347.19380000000001
  0
LINE
  8
_0-3__0-7_
  6
CONTINUOUS
 62
  250
 10
527.18200000000001
 20
566.17219999999997
 11
527.18200000000001
 21
575.2246
  0
LINE
  8
_0-3__0-7_
  6
CONTINUOUS
 62
  250
 10
527.18200000000001
 20
575.2246
 11
551.793
 21
575.2246
  0
LINE
  8
_0-3__0-7_
  6
CONTINUOUS
 62
  250
 10
551.793
 20
575.2246
 11
551.793
 21
566.17219999999997
  0
LINE
  8
_0-3__0-7_
  6
CONTINUOUS
 62
  250
 10
551.793
 20
566.17219999999997
 11
527.18200000000001
 21
566.17219999999997
  0
LINE
  8
_0-3__0-7_
  6
CONTINUOUS
 62
  250
 10
308.83000000000004
 20
326.31819999999999
 11
302.83000000000004
 21
327.92599999999998
  0
LINE
  8
_0-3__0-7_
  6
CONTINUOUS
 62
  250
 10
302.83000000000004
 20
327.92599999999998
 11
308.83000000000004
 21
329.53359999999997
  0
LINE
  8
_0-3__0-7_
  6
CONTINUOUS
 62
  250
 10
302.83000000000004
 20
327.92599999999998
 11
308.83000000000004
 21
327.92599999999998
  0
LINE
  8
_0-3__0-7_
  6
CONTINUOUS
 62
  250
 10
446.82999999999998
 20
329.53359999999997
 11
452.82999999999998
 21
327.92599999999998
  0
LINE
  8
_0-3__0-7_
  6
CONTINUOUS
 62
  250
 10
452.82999999999998
 20
327.92599999999998
 11
446.82999999999998
 21
326.31819999999999
  0
LINE
  8
_0-3__0-7_
  6
CONTINUOUS
 62
  250
 10
452.82999999999998
 20
327.92599999999998
 11
446.82999999999998
 21
327.92599999999998
  0
LINE
  8
_0-3__0-7_
  6
CONTINUOUS
 62
  250
 10
302.83000000000004
 20
298.92599999999998
 11
302.83000000000004
 21
329.92599999999998
  0
LINE
  8
_0-3__0-7_
  6
CONTINUOUS
 62
  250
 10
452.82999999999998
 20
298.92599999999998
 11
452.82999999999998
 21
329.92599999999998
  0
LINE
  8
_0-3__0-7_
  6
CONTINUOUS
 62
  250
 10
302.83000000000004
 20
327.92599999999998
 11
452.82999999999998
 21
327.92599999999998
  0
LINE
  8
_0-3__0-7_
  6
CONTINUOUS
 62
  250
 10
426.82999999999998
 20
361.78199999999998
 11
432.82999999999998
 21
360.17419999999998
  0
LINE
  8
_0-3__0-7_
  6
CONTINUOUS
 62
  250
 10
432.82999999999998
 20
360.17419999999998
 11
426.82999999999998
 21
358.56659999999999
  0
LINE
  8
_0-3__0-7_
  6
CONTINUOUS
 62
  250
 10
432.82999999999998
 20
360.17419999999998
 11
426.82999999999998
 21
360.17419999999998
  0
LINE
  8
_0-3__0-7_
  6
CONTINUOUS
 62
  250
 10
328.82999999999998
 20
358.56659999999999
 11
322.82999999999998
 21
360.17419999999998
  0
LINE
  8
_0-3__0-7_
  6
CONTINUOUS
 62
  250
 10
322.82999999999998
 20
360.17419999999998
 11
328.82999999999998
 21
361.78199999999998
  0
LINE
  8
_0-3__0-7_
  6
CONTINUOUS
 62
  250
 10
322.82999999999998
 20
360.17419999999998
 11
328.82999999999998
 21
360.17419999999998
  0
LINE
  8
_0-3__0-7_
  6
CONTINUOUS
 62
  250
 10
432.82999999999998
 20
374.67419999999998
 11
432.82999999999998
 21
358.17419999999998
  0
LINE
  8
_0-3__0-7_
  6
CONTINUOUS
 62
  250
 10
322.82999999999998
 20
374.67419999999998
 11
322.82999999999998
 21
358.17419999999998
  0
LINE
  8
_0-3__0-7_
  6
CONTINUOUS
 62
  250
 10
432.82999999999998
 20
360.17419999999998
 11
322.82999999999998
 21
360.17419999999998
  0
LINE
  8
_0-3__0-7_
  6
CONTINUOUS
 62
  250
 10
270.63060000000001
 20
513.17419999999992
 11
272.2382
 21
519.17420000000004
  0
LINE
  8
_0-3__0-7_
  6
CONTINUOUS
 62
  250
 10
272.2382
 20
519.17420000000004
 11
273.846
 21
513.17419999999992
  0
LINE
  8
_0-3__0-7_
  6
CONTINUOUS
 62
  250
 10
272.2382
 20
519.17420000000004
 11
272.2382
 21
513.17419999999992
  0
LINE
  8
_0-3__0-7_
  6
CONTINUOUS
 62
  250
 10
273.846
 20
415.17419999999998
 11
272.2382
 21
409.17419999999998
  0
LINE
  8
_0-3__0-7_
  6
CONTINUOUS
 62
  250
 10
272.2382
 20
409.17419999999998
 11
270.63060000000001
 21
415.17419999999998
  0
LINE
  8
_0-3__0-7_
  6
CONTINUOUS
 62
  250
 10
272.2382
 20
409.17419999999998
 11
272.2382
 21
415.17419999999998
  0
LINE
  8
_0-3__0-7_
  6
CONTINUOUS
 62
  250
 10
288.33000000000004
 20
519.17420000000004
 11
270.2382
 21
519.17420000000004
  0
LINE
  8
_0-3__0-7_
  6
CONTINUOUS
 62
  250
 10
288.33000000000004
 20
409.17419999999998
 11
270.2382
 21
409.17419999999998
  0
LINE
  8
_0-3__0-7_
  6
CONTINUOUS
 62
  250
 10
272.2382
 20
519.17420000000004
 11
272.2382
 21
409.17419999999998
  0
LINE
  8
_0-3__0-7_
  6
CONTINUOUS
 62
  250
 10
426.82999999999998
 20
563.78199999999992
 11
432.82999999999998
 21
562.17420000000004
  0
LINE
  8
_0-3__0-7_
  6
CONTINUOUS
 62
  250
 10
432.82999999999998
 20
562.17420000000004
 11
426.82999999999998
 21
560.56659999999999
  0
LINE
  8
_0-3__0-7_
  6
CONTINUOUS
 62
  250
 10
432.82999999999998
 20
562.17420000000004
 11
426.82999999999998
 21
562.17420000000004
  0
LINE
  8
_0-3__0-7_
  6
CONTINUOUS
 62
  250
 10
328.82999999999998
 20
560.56659999999999
 11
322.82999999999998
 21
562.17420000000004
  0
LINE
  8
_0-3__0-7_
  6
CONTINUOUS
 62
  250
 10
322.82999999999998
 20
562.17420000000004
 11
328.82999999999998
 21
563.78199999999992
  0
LINE
  8
_0-3__0-7_
  6
CONTINUOUS
 62
  250
 10
322.82999999999998
 20
562.17420000000004
 11
328.82999999999998
 21
562.17420000000004
  0
LINE
  8
_0-3__0-7_
  6
CONTINUOUS
 62
  250
 10
432.82999999999998
 20
553.67419999999992
 11
432.82999999999998
 21
564.17419999999992
  0
LINE
  8
_0-3__0-7_
  6
CONTINUOUS
 62
  250
 10
322.82999999999998
 20
553.67419999999992
 11
322.82999999999998
 21
564.17419999999992
  0
LINE
  8
_0-3__0-7_
  6
CONTINUOUS
 62
  250
 10
432.82999999999998
 20
562.17420000000004
 11
322.82999999999998
 21
562.17420000000004
  0
LINE
  8
_0-3__0-7_
  6
CONTINUOUS
 62
  250
 10
493.43759999999997
 20
558.17419999999992
 11
491.82999999999998
 21
552.17420000000004
  0
LINE
  8
_0-3__0-7_
  6
CONTINUOUS
 62
  250
 10
491.82999999999998
 20
552.17420000000004
 11
490.22220000000004
 21
558.17419999999992
  0
LINE
  8
_0-3__0-7_
  6
CONTINUOUS
 62
  250
 10
491.82999999999998
 20
552.17420000000004
 11
491.82999999999998
 21
558.17419999999992
  0
LINE
  8
_0-3__0-7_
  6
CONTINUOUS
 62
  250
 10
491.82999999999998
 20
545.17419999999992
 11
491.82999999999998
 21
543.67419999999992
  0
LINE
  8
_0-3__0-7_
  6
CONTINUOUS
 62
  250
 10
465.82999999999998
 20
552.17420000000004
 11
493.82999999999998
 21
552.17420000000004
  0
LINE
  8
_0-3__0-7_
  6
CONTINUOUS
 62
  250
 10
439.82999999999998
 20
546.67420000000004
 11
493.82999999999998
 21
546.67420000000004
  0
LINE
  8
_0-3__0-7_
  6
CONTINUOUS
 62
  250
 10
491.82999999999998
 20
552.17420000000004
 11
491.82999999999998
 21
573.81179999999994
  0
LINE
  8
_0-3__0-7_
  6
CONTINUOUS
 62
  250
 10
491.82999999999998
 20
552.17420000000004
 11
491.82999999999998
 21
546.67420000000004
  0
LINE
  8
_0-3__0-7_
  6
CONTINUOUS
 62
  250
 10
491.82999999999998
 20
546.67420000000004
 11
491.82999999999998
 21
534.67420000000004
  0
LINE
  8
_0-3__0-7_
  6
CONTINUOUS
 62
  250
 10
455.82999999999998
 20
560.56659999999999
 11
449.82999999999998
 21
562.17420000000004
  0
LINE
  8
_0-3__0-7_
  6
CONTINUOUS
 62
  250
 10
449.82999999999998
 20
562.17420000000004
 11
455.82999999999998
 21
563.78199999999992
  0
LINE
  8
_0-3__0-7_
  6
CONTINUOUS
 62
  250
 10
449.82999999999998
 20
562.17420000000004
 11
455.82999999999998
 21
562.17420000000004
  0
LINE
  8
_0-3__0-7_
  6
CONTINUOUS
 62
  250
 10
426.82999999999998
 20
563.78199999999992
 11
432.82999999999998
 21
562.17420000000004
  0
LINE
  8
_0-3__0-7_
  6
CONTINUOUS
 62
  250
 10
432.82999999999998
 20
562.17420000000004
 11
426.82999999999998
 21
560.56659999999999
  0
LINE
  8
_0-3__0-7_
  6
CONTINUOUS
 62
  250
 10
432.82999999999998
 20
562.17420000000004
 11
426.82999999999998
 21
562.17420000000004
  0
LINE
  8
_0-3__0-7_
  6
CONTINUOUS
 62
  250
 10
449.82999999999998
 20
552.92420000000004
 11
449.82999999999998
 21
564.17419999999992
  0
LINE
  8
_0-3__0-7_
  6
CONTINUOUS
 62
  250
 10
432.82999999999998
 20
553.67419999999992
 11
432.82999999999998
 21
564.17419999999992
  0
LINE
  8
_0-3__0-7_
  6
CONTINUOUS
 62
  250
 10
449.82999999999998
 20
562.17420000000004
 11
461.82999999999998
 21
562.17420000000004
  0
LINE
  8
_0-3__0-7_
  6
CONTINUOUS
 62
  250
 10
449.82999999999998
 20
562.17420000000004
 11
432.82999999999998
 21
562.17420000000004
  0
LINE
  8
_0-3__0-7_
  6
CONTINUOUS
 62
  250
 10
432.82999999999998
 20
562.17420000000004
 11
420.82999999999998
 21
562.17420000000004
  0
LINE
  8
_0-3__0-7_
  6
CONTINUOUS
 62
  250
 10
251.83000000000004
 20
380.17419999999998
 11
251.83000000000004
 21
378.67419999999998
  0
LINE
  8
_0-3__0-7_
  6
CONTINUOUS
 62
  250
 10
253.43760000000003
 20
389.67419999999998
 11
251.83000000000004
 21
383.67419999999998
  0
LINE
  8
_0-3__0-7_
  6
CONTINUOUS
 62
  250
 10
251.83000000000004
 20
383.67419999999998
 11
250.22219999999998
 21
389.67419999999998
  0
LINE
  8
_0-3__0-7_
  6
CONTINUOUS
 62
  250
 10
251.83000000000004
 20
383.67419999999998
 11
251.83000000000004
 21
389.67419999999998
  0
LINE
  8
_0-3__0-7_
  6
CONTINUOUS
 62
  250
 10
315.82999999999998
 20
381.67420000000004
 11
249.83000000000001
 21
381.67420000000004
  0
LINE
  8
_0-3__0-7_
  6
CONTINUOUS
 62
  250
 10
297.58000000000004
 20
383.67419999999998
 11
249.83000000000001
 21
383.67419999999998
  0
LINE
  8
_0-3__0-7_
  6
CONTINUOUS
 62
  250
 10
251.83000000000004
 20
381.67420000000004
 11
251.83000000000004
 21
369.67419999999998
  0
LINE
  8
_0-3__0-7_
  6
CONTINUOUS
 62
  250
 10
251.83000000000004
 20
381.67420000000004
 11
251.83000000000004
 21
383.67419999999998
  0
LINE
  8
_0-3__0-7_
  6
CONTINUOUS
 62
  250
 10
251.83000000000004
 20
383.67419999999998
 11
251.83000000000004
 21
398.29140000000001
  0
LINE
  8
_0-3__0-7_
  6
CONTINUOUS
 62
  250
 10
223.8436
 20
326.31819999999999
 11
217.84360000000003
 21
327.92599999999998
  0
LINE
  8
_0-3__0-7_
  6
CONTINUOUS
 62
  250
 10
217.84360000000003
 20
327.92599999999998
 11
223.8436
 21
329.53359999999997
  0
LINE
  8
_0-3__0-7_
  6
CONTINUOUS
 62
  250
 10
217.84360000000003
 20
327.92599999999998
 11
223.8436
 21
327.92599999999998
  0
LINE
  8
_0-3__0-7_
  6
CONTINUOUS
 62
  250
 10
214.34359999999998
 20
327.92599999999998
 11
212.84359999999998
 21
327.92599999999998
  0
LINE
  8
_0-3__0-7_
  6
CONTINUOUS
 62
  250
 10
217.84360000000003
 20
311.92599999999998
 11
217.84360000000003
 21
329.92599999999998
  0
LINE
  8
_0-3__0-7_
  6
CONTINUOUS
 62
  250
 10
215.8436
 20
311.92599999999998
 11
215.8436
 21
329.92599999999998
  0
LINE
  8
_0-3__0-7_
  6
CONTINUOUS
 62
  250
 10
217.84360000000003
 20
327.92599999999998
 11
234.53659999999999
 21
327.92599999999998
  0
LINE
  8
_0-3__0-7_
  6
CONTINUOUS
 62
  250
 10
217.84360000000003
 20
327.92599999999998
 11
215.8436
 21
327.92599999999998
  0
LINE
  8
_0-3__0-7_
  6
CONTINUOUS
 62
  250
 10
215.8436
 20
327.92599999999998
 11
203.8436
 21
327.92599999999998
  0
LINE
  8
_0-3__0-7_
  6
CONTINUOUS
 62
  250
 10
217.34359999999998
 20
327.92599999999998
 11
218.8436
 21
327.92599999999998
  0
LINE
  8
_0-3__0-7_
  6
CONTINUOUS
 62
  250
 10
200.8436
 20
329.53359999999997
 11
206.84359999999998
 21
327.92599999999998
  0
LINE
  8
_0-3__0-7_
  6
CONTINUOUS
 62
  250
 10
206.84359999999998
 20
327.92599999999998
 11
200.8436
 21
326.31819999999999
  0
LINE
  8
_0-3__0-7_
  6
CONTINUOUS
 62
  250
 10
206.84359999999998
 20
327.92599999999998
 11
200.8436
 21
327.92599999999998
  0
LINE
  8
_0-3__0-7_
  6
CONTINUOUS
 62
  250
 10
215.8436
 20
311.92599999999998
 11
215.8436
 21
329.92599999999998
  0
LINE
  8
_0-3__0-7_
  6
CONTINUOUS
 62
  250
 10
206.84359999999998
 20
299.72599999999999
 11
206.84359999999998
 21
329.92599999999998
  0
LINE
  8
_0-3__0-7_
  6
CONTINUOUS
 62
  250
 10
215.8436
 20
327.92599999999998
 11
227.84359999999998
 21
327.92599999999998
  0
LINE
  8
_0-3__0-7_
  6
CONTINUOUS
 62
  250
 10
215.8436
 20
327.92599999999998
 11
206.84359999999998
 21
327.92599999999998
  0
LINE
  8
_0-3__0-7_
  6
CONTINUOUS
 62
  250
 10
206.84359999999998
 20
327.92599999999998
 11
188.7612
 21
327.92599999999998
  0
LINE
  8
_0-3__0-7_
  6
CONTINUOUS
 62
  250
 10
51.451199999999971
 20
117.42599999999995
 11
49.843599999999923
 21
111.42599999999998
  0
LINE
  8
_0-3__0-7_
  6
CONTINUOUS
 62
  250
 10
49.843599999999923
 20
111.42599999999998
 11
48.235799999999983
 21
117.42599999999995
  0
LINE
  8
_0-3__0-7_
  6
CONTINUOUS
 62
  250
 10
49.843599999999923
 20
111.42599999999998
 11
49.843599999999923
 21
117.42599999999995
  0
LINE
  8
_0-3__0-7_
  6
CONTINUOUS
 62
  250
 10
48.235799999999983
 20
183.906
 11
49.843599999999923
 21
189.906
  0
LINE
  8
_0-3__0-7_
  6
CONTINUOUS
 62
  250
 10
49.843599999999923
 20
189.906
 11
51.451199999999971
 21
183.906
  0
LINE
  8
_0-3__0-7_
  6
CONTINUOUS
 62
  250
 10
49.843599999999923
 20
189.906
 11
49.843599999999923
 21
183.906
  0
LINE
  8
_0-3__0-7_
  6
CONTINUOUS
 62
  250
 10
63.843599999999923
 20
111.42599999999998
 11
47.84359999999998
 21
111.42599999999998
  0
LINE
  8
_0-3__0-7_
  6
CONTINUOUS
 62
  250
 10
76.84359999999998
 20
189.906
 11
47.84359999999998
 21
189.906
  0
LINE
  8
_0-3__0-7_
  6
CONTINUOUS
 62
  250
 10
49.843599999999923
 20
111.42599999999998
 11
49.843599999999923
 21
189.906
  0
LINE
  8
_0-3__0-7_
  6
CONTINUOUS
 62
  250
 10
84.843599999999923
 20
93.235199999999991
 11
78.843599999999923
 21
94.843000000000017
  0
LINE
  8
_0-3__0-7_
  6
CONTINUOUS
 62
  250
 10
78.843599999999923
 20
94.843000000000017
 11
84.843599999999923
 21
96.450600000000008
  0
LINE
  8
_0-3__0-7_
  6
CONTINUOUS
 62
  250
 10
78.843599999999923
 20
94.843000000000017
 11
84.843599999999923
 21
94.843000000000017
  0
LINE
  8
_0-3__0-7_
  6
CONTINUOUS
 62
  250
 10
59.843600000000037
 20
96.450600000000008
 11
65.843600000000037
 21
94.843000000000017
  0
LINE
  8
_0-3__0-7_
  6
CONTINUOUS
 62
  250
 10
65.843600000000037
 20
94.843000000000017
 11
59.843600000000037
 21
93.235199999999991
  0
LINE
  8
_0-3__0-7_
  6
CONTINUOUS
 62
  250
 10
65.843600000000037
 20
94.843000000000017
 11
59.843600000000037
 21
94.843000000000017
  0
LINE
  8
_0-3__0-7_
  6
CONTINUOUS
 62
  250
 10
78.843599999999923
 20
109.42599999999998
 11
78.843599999999923
 21
92.842999999999989
  0
LINE
  8
_0-3__0-7_
  6
CONTINUOUS
 62
  250
 10
65.843600000000037
 20
109.42599999999998
 11
65.843600000000037
 21
92.842999999999989
  0
LINE
  8
_0-3__0-7_
  6
CONTINUOUS
 62
  250
 10
78.843599999999923
 20
94.843000000000017
 11
90.84359999999998
 21
94.843000000000017
  0
LINE
  8
_0-3__0-7_
  6
CONTINUOUS
 62
  250
 10
78.843599999999923
 20
94.843000000000017
 11
65.843600000000037
 21
94.843000000000017
  0
LINE
  8
_0-3__0-7_
  6
CONTINUOUS
 62
  250
 10
65.843600000000037
 20
94.843000000000017
 11
53.843600000000037
 21
94.843000000000017
  0
LINE
  8
_0-3__0-7_
  6
CONTINUOUS
 62
  250
 10
235.84360000000003
 20
87.033600000000006
 11
241.8436
 21
85.426000000000016
  0
LINE
  8
_0-3__0-7_
  6
CONTINUOUS
 62
  250
 10
241.8436
 20
85.426000000000016
 11
235.84360000000003
 21
83.818200000000018
  0
LINE
  8
_0-3__0-7_
  6
CONTINUOUS
 62
  250
 10
241.8436
 20
85.426000000000016
 11
235.84360000000003
 21
85.426000000000016
  0
LINE
  8
_0-3__0-7_
  6
CONTINUOUS
 62
  250
 10
71.843600000000037
 20
83.818200000000018
 11
65.843600000000037
 21
85.426000000000016
  0
LINE
  8
_0-3__0-7_
  6
CONTINUOUS
 62
  250
 10
65.843600000000037
 20
85.426000000000016
 11
71.843600000000037
 21
87.033600000000006
  0
LINE
  8
_0-3__0-7_
  6
CONTINUOUS
 62
  250
 10
65.843600000000037
 20
85.426000000000016
 11
71.843600000000037
 21
85.426000000000016
  0
LINE
  8
_0-3__0-7_
  6
CONTINUOUS
 62
  250
 10
241.8436
 20
109.42599999999998
 11
241.8436
 21
83.425999999999987
  0
LINE
  8
_0-3__0-7_
  6
CONTINUOUS
 62
  250
 10
65.843600000000037
 20
109.42599999999998
 11
65.843600000000037
 21
83.425999999999987
  0
LINE
  8
_0-3__0-7_
  6
CONTINUOUS
 62
  250
 10
241.8436
 20
85.426000000000016
 11
65.843600000000037
 21
85.426000000000016
  0
LINE
  8
_0-3__0-7_
  6
CONTINUOUS
 62
  250
 10
247.84360000000003
 20
93.235199999999991
 11
241.8436
 21
94.843000000000017
  0
LINE
  8
_0-3__0-7_
  6
CONTINUOUS
 62
  250
 10
241.8436
 20
94.843000000000017
 11
247.84360000000003
 21
96.450600000000008
  0
LINE
  8
_0-3__0-7_
  6
CONTINUOUS
 62
  250
 10
241.8436
 20
94.843000000000017
 11
247.84360000000003
 21
94.843000000000017
  0
LINE
  8
_0-3__0-7_
  6
CONTINUOUS
 62
  250
 10
211.8436
 20
96.450600000000008
 11
217.84360000000003
 21
94.843000000000017
  0
LINE
  8
_0-3__0-7_
  6
CONTINUOUS
 62
  250
 10
217.84360000000003
 20
94.843000000000017
 11
211.8436
 21
93.235199999999991
  0
LINE
  8
_0-3__0-7_
  6
CONTINUOUS
 62
  250
 10
217.84360000000003
 20
94.843000000000017
 11
211.8436
 21
94.843000000000017
  0
LINE
  8
_0-3__0-7_
  6
CONTINUOUS
 62
  250
 10
241.8436
 20
109.42599999999998
 11
241.8436
 21
92.842999999999989
  0
LINE
  8
_0-3__0-7_
  6
CONTINUOUS
 62
  250
 10
217.84360000000003
 20
111.82600000000002
 11
217.84360000000003
 21
92.842999999999989
  0
LINE
  8
_0-3__0-7_
  6
CONTINUOUS
 62
  250
 10
241.8436
 20
94.843000000000017
 11
253.84360000000003
 21
94.843000000000017
  0
LINE
  8
_0-3__0-7_
  6
CONTINUOUS
 62
  250
 10
241.8436
 20
94.843000000000017
 11
217.84360000000003
 21
94.843000000000017
  0
LINE
  8
_0-3__0-7_
  6
CONTINUOUS
 62
  250
 10
217.84360000000003
 20
94.843000000000017
 11
205.84360000000003
 21
94.843000000000017
  0
LINE
  8
_0-3__0-7_
  6
CONTINUOUS
 62
  250
 10
211.8436
 20
96.450600000000008
 11
217.84360000000003
 21
94.843000000000017
  0
LINE
  8
_0-3__0-7_
  6
CONTINUOUS
 62
  250
 10
217.84360000000003
 20
94.843000000000017
 11
211.8436
 21
93.235199999999991
  0
LINE
  8
_0-3__0-7_
  6
CONTINUOUS
 62
  250
 10
217.84360000000003
 20
94.843000000000017
 11
211.8436
 21
94.843000000000017
  0
LINE
  8
_0-3__0-7_
  6
CONTINUOUS
 62
  250
 10
84.843599999999923
 20
93.235199999999991
 11
78.843599999999923
 21
94.843000000000017
  0
LINE
  8
_0-3__0-7_
  6
CONTINUOUS
 62
  250
 10
78.843599999999923
 20
94.843000000000017
 11
84.843599999999923
 21
96.450600000000008
  0
LINE
  8
_0-3__0-7_
  6
CONTINUOUS
 62
  250
 10
78.843599999999923
 20
94.843000000000017
 11
84.843599999999923
 21
94.843000000000017
  0
LINE
  8
_0-3__0-7_
  6
CONTINUOUS
 62
  250
 10
217.84360000000003
 20
111.82600000000002
 11
217.84360000000003
 21
92.842999999999989
  0
LINE
  8
_0-3__0-7_
  6
CONTINUOUS
 62
  250
 10
78.843599999999923
 20
109.42599999999998
 11
78.843599999999923
 21
92.842999999999989
  0
LINE
  8
_0-3__0-7_
  6
CONTINUOUS
 62
  250
 10
217.84360000000003
 20
94.843000000000017
 11
78.843599999999923
 21
94.843000000000017
  0
LINE
  8
_0-3__0-7_
  6
CONTINUOUS
 62
  250
 10
301.33000000000004
 20
81.81819999999999
 11
295.33000000000004
 21
83.425999999999987
  0
LINE
  8
_0-3__0-7_
  6
CONTINUOUS
 62
  250
 10
295.33000000000004
 20
83.425999999999987
 11
301.33000000000004
 21
85.033600000000006
  0
LINE
  8
_0-3__0-7_
  6
CONTINUOUS
 62
  250
 10
295.33000000000004
 20
83.425999999999987
 11
301.33000000000004
 21
83.425999999999987
  0
LINE
  8
_0-3__0-7_
  6
CONTINUOUS
 62
  250
 10
283.83000000000004
 20
85.033600000000006
 11
289.83000000000004
 21
83.425999999999987
  0
LINE
  8
_0-3__0-7_
  6
CONTINUOUS
 62
  250
 10
289.83000000000004
 20
83.425999999999987
 11
283.83000000000004
 21
81.81819999999999
  0
LINE
  8
_0-3__0-7_
  6
CONTINUOUS
 62
  250
 10
289.83000000000004
 20
83.425999999999987
 11
283.83000000000004
 21
83.425999999999987
  0
LINE
  8
_0-3__0-7_
  6
CONTINUOUS
 62
  250
 10
295.33000000000004
 20
160.42599999999998
 11
295.33000000000004
 21
81.425999999999987
  0
LINE
  8
_0-3__0-7_
  6
CONTINUOUS
 62
  250
 10
289.83000000000004
 20
109.42599999999998
 11
289.83000000000004
 21
81.425999999999987
  0
LINE
  8
_0-3__0-7_
  6
CONTINUOUS
 62
  250
 10
295.33000000000004
 20
83.425999999999987
 11
307.33000000000004
 21
83.425999999999987
  0
LINE
  8
_0-3__0-7_
  6
CONTINUOUS
 62
  250
 10
295.33000000000004
 20
83.425999999999987
 11
289.83000000000004
 21
83.425999999999987
  0
LINE
  8
_0-3__0-7_
  6
CONTINUOUS
 62
  250
 10
289.83000000000004
 20
83.425999999999987
 11
268.19240000000002
 21
83.425999999999987
  0
LINE
  8
_0-3__0-7_
  6
CONTINUOUS
 62
  250
 10
426.82999999999998
 20
95.033600000000006
 11
432.82999999999998
 21
93.425999999999987
  0
LINE
  8
_0-3__0-7_
  6
CONTINUOUS
 62
  250
 10
432.82999999999998
 20
93.425999999999987
 11
426.82999999999998
 21
91.81819999999999
  0
LINE
  8
_0-3__0-7_
  6
CONTINUOUS
 62
  250
 10
432.82999999999998
 20
93.425999999999987
 11
426.82999999999998
 21
93.425999999999987
  0
LINE
  8
_0-3__0-7_
  6
CONTINUOUS
 62
  250
 10
328.82999999999998
 20
91.81819999999999
 11
322.82999999999998
 21
93.425999999999987
  0
LINE
  8
_0-3__0-7_
  6
CONTINUOUS
 62
  250
 10
322.82999999999998
 20
93.425999999999987
 11
328.82999999999998
 21
95.033600000000006
  0
LINE
  8
_0-3__0-7_
  6
CONTINUOUS
 62
  250
 10
322.82999999999998
 20
93.425999999999987
 11
328.82999999999998
 21
93.425999999999987
  0
LINE
  8
_0-3__0-7_
  6
CONTINUOUS
 62
  250
 10
432.82999999999998
 20
132.92599999999998
 11
432.82999999999998
 21
91.425999999999987
  0
LINE
  8
_0-3__0-7_
  6
CONTINUOUS
 62
  250
 10
322.82999999999998
 20
132.92599999999998
 11
322.82999999999998
 21
91.425999999999987
  0
LINE
  8
_0-3__0-7_
  6
CONTINUOUS
 62
  250
 10
432.82999999999998
 20
93.425999999999987
 11
322.82999999999998
 21
93.425999999999987
  0
LINE
  8
_0-3__0-7_
  6
CONTINUOUS
 62
  250
 10
454.32999999999998
 20
85.033600000000006
 11
460.32999999999998
 21
83.425999999999987
  0
LINE
  8
_0-3__0-7_
  6
CONTINUOUS
 62
  250
 10
460.32999999999998
 20
83.425999999999987
 11
454.32999999999998
 21
81.81819999999999
  0
LINE
  8
_0-3__0-7_
  6
CONTINUOUS
 62
  250
 10
460.32999999999998
 20
83.425999999999987
 11
454.32999999999998
 21
83.425999999999987
  0
LINE
  8
_0-3__0-7_
  6
CONTINUOUS
 62
  250
 10
301.33000000000004
 20
81.81819999999999
 11
295.33000000000004
 21
83.425999999999987
  0
LINE
  8
_0-3__0-7_
  6
CONTINUOUS
 62
  250
 10
295.33000000000004
 20
83.425999999999987
 11
301.33000000000004
 21
85.033600000000006
  0
LINE
  8
_0-3__0-7_
  6
CONTINUOUS
 62
  250
 10
295.33000000000004
 20
83.425999999999987
 11
301.33000000000004
 21
83.425999999999987
  0
LINE
  8
_0-3__0-7_
  6
CONTINUOUS
 62
  250
 10
460.32999999999998
 20
160.42599999999998
 11
460.32999999999998
 21
81.425999999999987
  0
LINE
  8
_0-3__0-7_
  6
CONTINUOUS
 62
  250
 10
295.33000000000004
 20
160.42599999999998
 11
295.33000000000004
 21
81.425999999999987
  0
LINE
  8
_0-3__0-7_
  6
CONTINUOUS
 62
  250
 10
460.32999999999998
 20
83.425999999999987
 11
295.33000000000004
 21
83.425999999999987
  0
LINE
  8
_0-3__0-7_
  6
CONTINUOUS
 62
  250
 10
471.82999999999998
 20
81.81819999999999
 11
465.82999999999998
 21
83.425999999999987
  0
LINE
  8
_0-3__0-7_
  6
CONTINUOUS
 62
  250
 10
465.82999999999998
 20
83.425999999999987
 11
471.82999999999998
 21
85.033600000000006
  0
LINE
  8
_0-3__0-7_
  6
CONTINUOUS
 62
  250
 10
465.82999999999998
 20
83.425999999999987
 11
471.82999999999998
 21
83.425999999999987
  0
LINE
  8
_0-3__0-7_
  6
CONTINUOUS
 62
  250
 10
454.32999999999998
 20
85.033600000000006
 11
460.32999999999998
 21
83.425999999999987
  0
LINE
  8
_0-3__0-7_
  6
CONTINUOUS
 62
  250
 10
460.32999999999998
 20
83.425999999999987
 11
454.32999999999998
 21
81.81819999999999
  0
LINE
  8
_0-3__0-7_
  6
CONTINUOUS
 62
  250
 10
460.32999999999998
 20
83.425999999999987
 11
454.32999999999998
 21
83.425999999999987
  0
LINE
  8
_0-3__0-7_
  6
CONTINUOUS
 62
  250
 10
465.82999999999998
 20
109.42599999999998
 11
465.82999999999998
 21
81.425999999999987
  0
LINE
  8
_0-3__0-7_
  6
CONTINUOUS
 62
  250
 10
460.32999999999998
 20
160.42599999999998
 11
460.32999999999998
 21
81.425999999999987
  0
LINE
  8
_0-3__0-7_
  6
CONTINUOUS
 62
  250
 10
465.82999999999998
 20
83.425999999999987
 11
485.4676
 21
83.425999999999987
  0
LINE
  8
_0-3__0-7_
  6
CONTINUOUS
 62
  250
 10
465.82999999999998
 20
83.425999999999987
 11
460.32999999999998
 21
83.425999999999987
  0
LINE
  8
_0-3__0-7_
  6
CONTINUOUS
 62
  250
 10
460.32999999999998
 20
83.425999999999987
 11
448.32999999999998
 21
83.425999999999987
  0
LINE
  8
_0-3__0-7_
  6
CONTINUOUS
 62
  250
 10
471.82999999999998
 20
91.81819999999999
 11
465.82999999999998
 21
93.425999999999987
  0
LINE
  8
_0-3__0-7_
  6
CONTINUOUS
 62
  250
 10
465.82999999999998
 20
93.425999999999987
 11
471.82999999999998
 21
95.033600000000006
  0
LINE
  8
_0-3__0-7_
  6
CONTINUOUS
 62
  250
 10
465.82999999999998
 20
93.425999999999987
 11
471.82999999999998
 21
93.425999999999987
  0
LINE
  8
_0-3__0-7_
  6
CONTINUOUS
 62
  250
 10
426.82999999999998
 20
95.033600000000006
 11
432.82999999999998
 21
93.425999999999987
  0
LINE
  8
_0-3__0-7_
  6
CONTINUOUS
 62
  250
 10
432.82999999999998
 20
93.425999999999987
 11
426.82999999999998
 21
91.81819999999999
  0
LINE
  8
_0-3__0-7_
  6
CONTINUOUS
 62
  250
 10
432.82999999999998
 20
93.425999999999987
 11
426.82999999999998
 21
93.425999999999987
  0
LINE
  8
_0-3__0-7_
  6
CONTINUOUS
 62
  250
 10
465.82999999999998
 20
109.42599999999998
 11
465.82999999999998
 21
91.425999999999987
  0
LINE
  8
_0-3__0-7_
  6
CONTINUOUS
 62
  250
 10
432.82999999999998
 20
132.92599999999998
 11
432.82999999999998
 21
91.425999999999987
  0
LINE
  8
_0-3__0-7_
  6
CONTINUOUS
 62
  250
 10
465.82999999999998
 20
93.425999999999987
 11
477.82999999999998
 21
93.425999999999987
  0
LINE
  8
_0-3__0-7_
  6
CONTINUOUS
 62
  250
 10
465.82999999999998
 20
93.425999999999987
 11
432.82999999999998
 21
93.425999999999987
  0
LINE
  8
_0-3__0-7_
  6
CONTINUOUS
 62
  250
 10
432.82999999999998
 20
93.425999999999987
 11
420.82999999999998
 21
93.425999999999987
  0
LINE
  8
_0-3__0-7_
  6
CONTINUOUS
 62
  250
 10
328.82999999999998
 20
91.81819999999999
 11
322.82999999999998
 21
93.425999999999987
  0
LINE
  8
_0-3__0-7_
  6
CONTINUOUS
 62
  250
 10
322.82999999999998
 20
93.425999999999987
 11
328.82999999999998
 21
95.033600000000006
  0
LINE
  8
_0-3__0-7_
  6
CONTINUOUS
 62
  250
 10
322.82999999999998
 20
93.425999999999987
 11
328.82999999999998
 21
93.425999999999987
  0
LINE
  8
_0-3__0-7_
  6
CONTINUOUS
 62
  250
 10
283.83000000000004
 20
95.033600000000006
 11
289.83000000000004
 21
93.425999999999987
  0
LINE
  8
_0-3__0-7_
  6
CONTINUOUS
 62
  250
 10
289.83000000000004
 20
93.425999999999987
 11
283.83000000000004
 21
91.81819999999999
  0
LINE
  8
_0-3__0-7_
  6
CONTINUOUS
 62
  250
 10
289.83000000000004
 20
93.425999999999987
 11
283.83000000000004
 21
93.425999999999987
  0
LINE
  8
_0-3__0-7_
  6
CONTINUOUS
 62
  250
 10
322.82999999999998
 20
132.92599999999998
 11
322.82999999999998
 21
91.425999999999987
  0
LINE
  8
_0-3__0-7_
  6
CONTINUOUS
 62
  250
 10
289.83000000000004
 20
109.42599999999998
 11
289.83000000000004
 21
91.425999999999987
  0
LINE
  8
_0-3__0-7_
  6
CONTINUOUS
 62
  250
 10
322.82999999999998
 20
93.425999999999987
 11
334.82999999999998
 21
93.425999999999987
  0
LINE
  8
_0-3__0-7_
  6
CONTINUOUS
 62
  250
 10
322.82999999999998
 20
93.425999999999987
 11
289.83000000000004
 21
93.425999999999987
  0
LINE
  8
_0-3__0-7_
  6
CONTINUOUS
 62
  250
 10
289.83000000000004
 20
93.425999999999987
 11
277.83000000000004
 21
93.425999999999987
  0
LINE
  8
_0-3__0-7_
  6
CONTINUOUS
 62
  250
 10
261.43759999999997
 20
315.92599999999998
 11
259.83000000000004
 21
309.92599999999998
  0
LINE
  8
_0-3__0-7_
  6
CONTINUOUS
 62
  250
 10
259.83000000000004
 20
309.92599999999998
 11
258.22219999999998
 21
315.92599999999998
  0
LINE
  8
_0-3__0-7_
  6
CONTINUOUS
 62
  250
 10
259.83000000000004
 20
309.92599999999998
 11
259.83000000000004
 21
315.92599999999998
  0
LINE
  8
_0-3__0-7_
  6
CONTINUOUS
 62
  250
 10
258.22219999999998
 20
105.42599999999998
 11
259.83000000000004
 21
111.42599999999998
  0
LINE
  8
_0-3__0-7_
  6
CONTINUOUS
 62
  250
 10
259.83000000000004
 20
111.42599999999998
 11
261.43759999999997
 21
105.42599999999998
  0
LINE
  8
_0-3__0-7_
  6
CONTINUOUS
 62
  250
 10
259.83000000000004
 20
111.42599999999998
 11
259.83000000000004
 21
105.42599999999998
  0
LINE
  8
_0-3__0-7_
  6
CONTINUOUS
 62
  250
 10
289.83000000000004
 20
309.92599999999998
 11
257.83000000000004
 21
309.92599999999998
  0
LINE
  8
_0-3__0-7_
  6
CONTINUOUS
 62
  250
 10
287.83000000000004
 20
111.42599999999998
 11
257.83000000000004
 21
111.42599999999998
  0
LINE
  8
_0-3__0-7_
  6
CONTINUOUS
 62
  250
 10
259.83000000000004
 20
309.92599999999998
 11
259.83000000000004
 21
321.92599999999998
  0
LINE
  8
_0-3__0-7_
  6
CONTINUOUS
 62
  250
 10
259.83000000000004
 20
309.92599999999998
 11
259.83000000000004
 21
111.42599999999998
  0
LINE
  8
_0-3__0-7_
  6
CONTINUOUS
 62
  250
 10
259.83000000000004
 20
111.42599999999998
 11
259.83000000000004
 21
99.425999999999959
  0
LINE
  8
_0-3__0-7_
  6
CONTINUOUS
 62
  250
 10
268.22219999999998
 20
105.42599999999998
 11
269.83000000000004
 21
111.42599999999998
  0
LINE
  8
_0-3__0-7_
  6
CONTINUOUS
 62
  250
 10
269.83000000000004
 20
111.42599999999998
 11
271.43760000000003
 21
105.42599999999998
  0
LINE
  8
_0-3__0-7_
  6
CONTINUOUS
 62
  250
 10
269.83000000000004
 20
111.42599999999998
 11
269.83000000000004
 21
105.42599999999998
  0
LINE
  8
_0-3__0-7_
  6
CONTINUOUS
 62
  250
 10
271.43760000000003
 20
152.92599999999998
 11
269.83000000000004
 21
146.92599999999998
  0
LINE
  8
_0-3__0-7_
  6
CONTINUOUS
 62
  250
 10
269.83000000000004
 20
146.92599999999998
 11
268.22219999999998
 21
152.92599999999998
  0
LINE
  8
_0-3__0-7_
  6
CONTINUOUS
 62
  250
 10
269.83000000000004
 20
146.92599999999998
 11
269.83000000000004
 21
152.92599999999998
  0
LINE
  8
_0-3__0-7_
  6
CONTINUOUS
 62
  250
 10
287.83000000000004
 20
111.42599999999998
 11
267.83000000000004
 21
111.42599999999998
  0
LINE
  8
_0-3__0-7_
  6
CONTINUOUS
 62
  250
 10
300.82999999999998
 20
146.92599999999998
 11
267.83000000000004
 21
146.92599999999998
  0
LINE
  8
_0-3__0-7_
  6
CONTINUOUS
 62
  250
 10
269.83000000000004
 20
111.42599999999998
 11
269.83000000000004
 21
99.425999999999959
  0
LINE
  8
_0-3__0-7_
  6
CONTINUOUS
 62
  250
 10
269.83000000000004
 20
111.42599999999998
 11
269.83000000000004
 21
146.92599999999998
  0
LINE
  8
_0-3__0-7_
  6
CONTINUOUS
 62
  250
 10
269.83000000000004
 20
146.92599999999998
 11
269.83000000000004
 21
158.92599999999998
  0
LINE
  8
_0-3__0-7_
  6
CONTINUOUS
 62
  250
 10
477.43760000000003
 20
145.42599999999998
 11
475.82999999999998
 21
139.42599999999998
  0
LINE
  8
_0-3__0-7_
  6
CONTINUOUS
 62
  250
 10
475.82999999999998
 20
139.42599999999998
 11
474.22219999999998
 21
145.42599999999998
  0
LINE
  8
_0-3__0-7_
  6
CONTINUOUS
 62
  250
 10
475.82999999999998
 20
139.42599999999998
 11
475.82999999999998
 21
145.42599999999998
  0
LINE
  8
_0-3__0-7_
  6
CONTINUOUS
 62
  250
 10
474.22219999999998
 20
105.42599999999998
 11
475.82999999999998
 21
111.42599999999998
  0
LINE
  8
_0-3__0-7_
  6
CONTINUOUS
 62
  250
 10
475.82999999999998
 20
111.42599999999998
 11
477.43760000000003
 21
105.42599999999998
  0
LINE
  8
_0-3__0-7_
  6
CONTINUOUS
 62
  250
 10
475.82999999999998
 20
111.42599999999998
 11
475.82999999999998
 21
105.42599999999998
  0
LINE
  8
_0-3__0-7_
  6
CONTINUOUS
 62
  250
 10
439.32999999999998
 20
139.42599999999998
 11
477.82999999999998
 21
139.42599999999998
  0
LINE
  8
_0-3__0-7_
  6
CONTINUOUS
 62
  250
 10
467.82999999999998
 20
111.42599999999998
 11
477.82999999999998
 21
111.42599999999998
  0
LINE
  8
_0-3__0-7_
  6
CONTINUOUS
 62
  250
 10
475.82999999999998
 20
139.42599999999998
 11
475.82999999999998
 21
151.42599999999998
  0
LINE
  8
_0-3__0-7_
  6
CONTINUOUS
 62
  250
 10
475.82999999999998
 20
139.42599999999998
 11
475.82999999999998
 21
111.42599999999998
  0
LINE
  8
_0-3__0-7_
  6
CONTINUOUS
 62
  250
 10
475.82999999999998
 20
111.42599999999998
 11
475.82999999999998
 21
99.425999999999959
  0
LINE
  8
_0-3__0-7_
  6
CONTINUOUS
 62
  250
 10
487.43759999999997
 20
117.42599999999995
 11
485.82999999999998
 21
111.42599999999998
  0
LINE
  8
_0-3__0-7_
  6
CONTINUOUS
 62
  250
 10
485.82999999999998
 20
111.42599999999998
 11
484.22219999999998
 21
117.42599999999995
  0
LINE
  8
_0-3__0-7_
  6
CONTINUOUS
 62
  250
 10
485.82999999999998
 20
111.42599999999998
 11
485.82999999999998
 21
117.42599999999995
  0
LINE
  8
_0-3__0-7_
  6
CONTINUOUS
 62
  250
 10
484.22219999999998
 20
160.92599999999998
 11
485.82999999999998
 21
166.92599999999998
  0
LINE
  8
_0-3__0-7_
  6
CONTINUOUS
 62
  250
 10
485.82999999999998
 20
166.92599999999998
 11
487.43759999999997
 21
160.92599999999998
  0
LINE
  8
_0-3__0-7_
  6
CONTINUOUS
 62
  250
 10
485.82999999999998
 20
166.92599999999998
 11
485.82999999999998
 21
160.92599999999998
  0
LINE
  8
_0-3__0-7_
  6
CONTINUOUS
 62
  250
 10
467.82999999999998
 20
111.42599999999998
 11
487.82999999999998
 21
111.42599999999998
  0
LINE
  8
_0-3__0-7_
  6
CONTINUOUS
 62
  250
 10
466.82999999999998
 20
166.92599999999998
 11
487.82999999999998
 21
166.92599999999998
  0
LINE
  8
_0-3__0-7_
  6
CONTINUOUS
 62
  250
 10
485.82999999999998
 20
111.42599999999998
 11
485.82999999999998
 21
166.92599999999998
  0
LINE
  8
_0-3__0-7_
  6
CONTINUOUS
 62
  250
 10
500.97839999999996
 20
215.92599999999998
 11
502.58620000000001
 21
221.92599999999998
  0
LINE
  8
_0-3__0-7_
  6
CONTINUOUS
 62
  250
 10
502.58620000000001
 20
221.92599999999998
 11
504.19380000000001
 21
215.92599999999998
  0
LINE
  8
_0-3__0-7_
  6
CONTINUOUS
 62
  250
 10
502.58620000000001
 20
221.92599999999998
 11
502.58620000000001
 21
215.92599999999998
  0
LINE
  8
_0-3__0-7_
  6
CONTINUOUS
 62
  250
 10
504.19380000000001
 20
117.42599999999995
 11
502.58620000000001
 21
111.42599999999998
  0
LINE
  8
_0-3__0-7_
  6
CONTINUOUS
 62
  250
 10
502.58620000000001
 20
111.42599999999998
 11
500.97839999999996
 21
117.42599999999995
  0
LINE
  8
_0-3__0-7_
  6
CONTINUOUS
 62
  250
 10
502.58620000000001
 20
111.42599999999998
 11
502.58620000000001
 21
117.42599999999995
  0
LINE
  8
_0-3__0-7_
  6
CONTINUOUS
 62
  250
 10
505.27039999999999
 20
221.92599999999998
 11
500.58620000000001
 21
221.92599999999998
  0
LINE
  8
_0-3__0-7_
  6
CONTINUOUS
 62
  250
 10
604.83159999999998
 20
111.42599999999998
 11
500.58620000000001
 21
111.42599999999998
  0
LINE
  8
_0-3__0-7_
  6
CONTINUOUS
 62
  250
 10
502.58620000000001
 20
221.92599999999998
 11
502.58620000000001
 21
111.42599999999998
  0
LINE
  8
_0-3__0-7_
  6
CONTINUOUS
 62
  250
 10
477.43760000000003
 20
145.42599999999998
 11
475.82999999999998
 21
139.42599999999998
  0
LINE
  8
_0-3__0-7_
  6
CONTINUOUS
 62
  250
 10
475.82999999999998
 20
139.42599999999998
 11
474.22219999999998
 21
145.42599999999998
  0
LINE
  8
_0-3__0-7_
  6
CONTINUOUS
 62
  250
 10
475.82999999999998
 20
139.42599999999998
 11
475.82999999999998
 21
145.42599999999998
  0
LINE
  8
_0-3__0-7_
  6
CONTINUOUS
 62
  250
 10
474.22219999999998
 20
298.42599999999998
 11
475.82999999999998
 21
304.42599999999998
  0
LINE
  8
_0-3__0-7_
  6
CONTINUOUS
 62
  250
 10
475.82999999999998
 20
304.42599999999998
 11
477.43760000000003
 21
298.42599999999998
  0
LINE
  8
_0-3__0-7_
  6
CONTINUOUS
 62
  250
 10
475.82999999999998
 20
304.42599999999998
 11
475.82999999999998
 21
298.42599999999998
  0
LINE
  8
_0-3__0-7_
  6
CONTINUOUS
 62
  250
 10
439.32999999999998
 20
139.42599999999998
 11
477.82999999999998
 21
139.42599999999998
  0
LINE
  8
_0-3__0-7_
  6
CONTINUOUS
 62
  250
 10
439.32999999999998
 20
304.42599999999998
 11
477.82999999999998
 21
304.42599999999998
  0
LINE
  8
_0-3__0-7_
  6
CONTINUOUS
 62
  250
 10
475.82999999999998
 20
139.42599999999998
 11
475.82999999999998
 21
304.42599999999998
  0
LINE
  8
_0-3__0-7_
  6
CONTINUOUS
 62
  250
 10
487.43759999999997
 20
172.92600000000001
 11
485.82999999999998
 21
166.92599999999998
  0
LINE
  8
_0-3__0-7_
  6
CONTINUOUS
 62
  250
 10
485.82999999999998
 20
166.92599999999998
 11
484.22219999999998
 21
172.92600000000001
  0
LINE
  8
_0-3__0-7_
  6
CONTINUOUS
 62
  250
 10
485.82999999999998
 20
166.92599999999998
 11
485.82999999999998
 21
172.92600000000001
  0
LINE
  8
_0-3__0-7_
  6
CONTINUOUS
 62
  250
 10
484.22219999999998
 20
270.92599999999998
 11
485.82999999999998
 21
276.92599999999998
  0
LINE
  8
_0-3__0-7_
  6
CONTINUOUS
 62
  250
 10
485.82999999999998
 20
276.92599999999998
 11
487.43759999999997
 21
270.92599999999998
  0
LINE
  8
_0-3__0-7_
  6
CONTINUOUS
 62
  250
 10
485.82999999999998
 20
276.92599999999998
 11
485.82999999999998
 21
270.92599999999998
  0
LINE
  8
_0-3__0-7_
  6
CONTINUOUS
 62
  250
 10
466.82999999999998
 20
166.92599999999998
 11
487.82999999999998
 21
166.92599999999998
  0
LINE
  8
_0-3__0-7_
  6
CONTINUOUS
 62
  250
 10
466.82999999999998
 20
276.92599999999998
 11
487.82999999999998
 21
276.92599999999998
  0
LINE
  8
_0-3__0-7_
  6
CONTINUOUS
 62
  250
 10
485.82999999999998
 20
166.92599999999998
 11
485.82999999999998
 21
276.92599999999998
  0
LINE
  8
_0-3__0-7_
  6
CONTINUOUS
 62
  250
 10
271.43760000000003
 20
152.92599999999998
 11
269.83000000000004
 21
146.92599999999998
  0
LINE
  8
_0-3__0-7_
  6
CONTINUOUS
 62
  250
 10
269.83000000000004
 20
146.92599999999998
 11
268.22219999999998
 21
152.92599999999998
  0
LINE
  8
_0-3__0-7_
  6
CONTINUOUS
 62
  250
 10
269.83000000000004
 20
146.92599999999998
 11
269.83000000000004
 21
152.92599999999998
  0
LINE
  8
_0-3__0-7_
  6
CONTINUOUS
 62
  250
 10
268.22219999999998
 20
290.92599999999998
 11
269.83000000000004
 21
296.92599999999998
  0
LINE
  8
_0-3__0-7_
  6
CONTINUOUS
 62
  250
 10
269.83000000000004
 20
296.92599999999998
 11
271.43760000000003
 21
290.92599999999998
  0
LINE
  8
_0-3__0-7_
  6
CONTINUOUS
 62
  250
 10
269.83000000000004
 20
296.92599999999998
 11
269.83000000000004
 21
290.92599999999998
  0
LINE
  8
_0-3__0-7_
  6
CONTINUOUS
 62
  250
 10
300.82999999999998
 20
146.92599999999998
 11
267.83000000000004
 21
146.92599999999998
  0
LINE
  8
_0-3__0-7_
  6
CONTINUOUS
 62
  250
 10
300.82999999999998
 20
296.92599999999998
 11
267.83000000000004
 21
296.92599999999998
  0
LINE
  8
_0-3__0-7_
  6
CONTINUOUS
 62
  250
 10
269.83000000000004
 20
146.92599999999998
 11
269.83000000000004
 21
296.92599999999998
  0
LINE
  8
_0-3__0-7_
  6
CONTINUOUS
 62
  250
 10
471.82999999999998
 20
335.82139999999998
 11
465.82999999999998
 21
337.42899999999997
  0
LINE
  8
_0-3__0-7_
  6
CONTINUOUS
 62
  250
 10
465.82999999999998
 20
337.42899999999997
 11
471.82999999999998
 21
339.03679999999997
  0
LINE
  8
_0-3__0-7_
  6
CONTINUOUS
 62
  250
 10
465.82999999999998
 20
337.42899999999997
 11
471.82999999999998
 21
337.42899999999997
  0
LINE
  8
_0-3__0-7_
  6
CONTINUOUS
 62
  250
 10
283.83000000000004
 20
339.03679999999997
 11
289.83000000000004
 21
337.42899999999997
  0
LINE
  8
_0-3__0-7_
  6
CONTINUOUS
 62
  250
 10
289.83000000000004
 20
337.42899999999997
 11
283.83000000000004
 21
335.82139999999998
  0
LINE
  8
_0-3__0-7_
  6
CONTINUOUS
 62
  250
 10
289.83000000000004
 20
337.42899999999997
 11
283.83000000000004
 21
337.42899999999997
  0
LINE
  8
_0-3__0-7_
  6
CONTINUOUS
 62
  250
 10
465.82999999999998
 20
309.92599999999998
 11
465.82999999999998
 21
339.42899999999997
  0
LINE
  8
_0-3__0-7_
  6
CONTINUOUS
 62
  250
 10
289.83000000000004
 20
309.92599999999998
 11
289.83000000000004
 21
339.42899999999997
  0
LINE
  8
_0-3__0-7_
  6
CONTINUOUS
 62
  250
 10
465.82999999999998
 20
337.42899999999997
 11
477.82999999999998
 21
337.42899999999997
  0
LINE
  8
_0-3__0-7_
  6
CONTINUOUS
 62
  250
 10
465.82999999999998
 20
337.42899999999997
 11
289.83000000000004
 21
337.42899999999997
  0
LINE
  8
_0-3__0-7_
  6
CONTINUOUS
 62
  250
 10
289.83000000000004
 20
337.42899999999997
 11
277.83000000000004
 21
337.42899999999997
  0
LINE
  8
_0-3__0-7_
  6
CONTINUOUS
 62
  250
 10
308.83000000000004
 20
326.31819999999999
 11
302.83000000000004
 21
327.92599999999998
  0
LINE
  8
_0-3__0-7_
  6
CONTINUOUS
 62
  250
 10
302.83000000000004
 20
327.92599999999998
 11
308.83000000000004
 21
329.53359999999997
  0
LINE
  8
_0-3__0-7_
  6
CONTINUOUS
 62
  250
 10
302.83000000000004
 20
327.92599999999998
 11
308.83000000000004
 21
327.92599999999998
  0
LINE
  8
_0-3__0-7_
  6
CONTINUOUS
 62
  250
 10
283.83000000000004
 20
329.53359999999997
 11
289.83000000000004
 21
327.92599999999998
  0
LINE
  8
_0-3__0-7_
  6
CONTINUOUS
 62
  250
 10
289.83000000000004
 20
327.92599999999998
 11
283.83000000000004
 21
326.31819999999999
  0
LINE
  8
_0-3__0-7_
  6
CONTINUOUS
 62
  250
 10
289.83000000000004
 20
327.92599999999998
 11
283.83000000000004
 21
327.92599999999998
  0
LINE
  8
_0-3__0-7_
  6
CONTINUOUS
 62
  250
 10
302.83000000000004
 20
298.92599999999998
 11
302.83000000000004
 21
329.92599999999998
  0
LINE
  8
_0-3__0-7_
  6
CONTINUOUS
 62
  250
 10
289.83000000000004
 20
309.92599999999998
 11
289.83000000000004
 21
329.92599999999998
  0
LINE
  8
_0-3__0-7_
  6
CONTINUOUS
 62
  250
 10
302.83000000000004
 20
327.92599999999998
 11
314.83000000000004
 21
327.92599999999998
  0
LINE
  8
_0-3__0-7_
  6
CONTINUOUS
 62
  250
 10
302.83000000000004
 20
327.92599999999998
 11
289.83000000000004
 21
327.92599999999998
  0
LINE
  8
_0-3__0-7_
  6
CONTINUOUS
 62
  250
 10
289.83000000000004
 20
327.92599999999998
 11
277.83000000000004
 21
327.92599999999998
  0
LINE
  8
_0-3__0-7_
  6
CONTINUOUS
 62
  250
 10
299.83000000000004
 20
361.78199999999998
 11
305.82999999999998
 21
360.17419999999998
  0
LINE
  8
_0-3__0-7_
  6
CONTINUOUS
 62
  250
 10
305.82999999999998
 20
360.17419999999998
 11
299.83000000000004
 21
358.56659999999999
  0
LINE
  8
_0-3__0-7_
  6
CONTINUOUS
 62
  250
 10
305.82999999999998
 20
360.17419999999998
 11
299.83000000000004
 21
360.17419999999998
  0
LINE
  8
_0-3__0-7_
  6
CONTINUOUS
 62
  250
 10
328.82999999999998
 20
358.56659999999999
 11
322.82999999999998
 21
360.17419999999998
  0
LINE
  8
_0-3__0-7_
  6
CONTINUOUS
 62
  250
 10
322.82999999999998
 20
360.17419999999998
 11
328.82999999999998
 21
361.78199999999998
  0
LINE
  8
_0-3__0-7_
  6
CONTINUOUS
 62
  250
 10
322.82999999999998
 20
360.17419999999998
 11
328.82999999999998
 21
360.17419999999998
  0
LINE
  8
_0-3__0-7_
  6
CONTINUOUS
 62
  250
 10
305.82999999999998
 20
375.42419999999998
 11
305.82999999999998
 21
358.17419999999998
  0
LINE
  8
_0-3__0-7_
  6
CONTINUOUS
 62
  250
 10
322.82999999999998
 20
374.67419999999998
 11
322.82999999999998
 21
358.17419999999998
  0
LINE
  8
_0-3__0-7_
  6
CONTINUOUS
 62
  250
 10
305.82999999999998
 20
360.17419999999998
 11
293.83000000000004
 21
360.17419999999998
  0
LINE
  8
_0-3__0-7_
  6
CONTINUOUS
 62
  250
 10
305.82999999999998
 20
360.17419999999998
 11
322.82999999999998
 21
360.17419999999998
  0
LINE
  8
_0-3__0-7_
  6
CONTINUOUS
 62
  250
 10
322.82999999999998
 20
360.17419999999998
 11
334.82999999999998
 21
360.17419999999998
  0
LINE
  8
_0-3__0-7_
  6
CONTINUOUS
 62
  250
 10
471.82999999999998
 20
358.56659999999999
 11
465.82999999999998
 21
360.17419999999998
  0
LINE
  8
_0-3__0-7_
  6
CONTINUOUS
 62
  250
 10
465.82999999999998
 20
360.17419999999998
 11
471.82999999999998
 21
361.78199999999998
  0
LINE
  8
_0-3__0-7_
  6
CONTINUOUS
 62
  250
 10
465.82999999999998
 20
360.17419999999998
 11
471.82999999999998
 21
360.17419999999998
  0
LINE
  8
_0-3__0-7_
  6
CONTINUOUS
 62
  250
 10
458.82999999999998
 20
360.17419999999998
 11
457.32999999999998
 21
360.17419999999998
  0
LINE
  8
_0-3__0-7_
  6
CONTINUOUS
 62
  250
 10
465.82999999999998
 20
376.17419999999998
 11
465.82999999999998
 21
358.17419999999998
  0
LINE
  8
_0-3__0-7_
  6
CONTINUOUS
 62
  250
 10
460.32999999999998
 20
402.17419999999998
 11
460.32999999999998
 21
358.17419999999998
  0
LINE
  8
_0-3__0-7_
  6
CONTINUOUS
 62
  250
 10
465.82999999999998
 20
360.17419999999998
 11
487.4676
 21
360.17419999999998
  0
LINE
  8
_0-3__0-7_
  6
CONTINUOUS
 62
  250
 10
465.82999999999998
 20
360.17419999999998
 11
460.32999999999998
 21
360.17419999999998
  0
LINE
  8
_0-3__0-7_
  6
CONTINUOUS
 62
  250
 10
460.32999999999998
 20
360.17419999999998
 11
448.32999999999998
 21
360.17419999999998
  0
LINE
  8
_0-3__0-7_
  6
CONTINUOUS
 62
  250
 10
461.82999999999998
 20
360.17419999999998
 11
463.32999999999998
 21
360.17419999999998
  0
LINE
  8
_0-3__0-7_
  6
CONTINUOUS
 62
  250
 10
452.32999999999998
 20
361.78199999999998
 11
458.32999999999998
 21
360.17419999999998
  0
LINE
  8
_0-3__0-7_
  6
CONTINUOUS
 62
  250
 10
458.32999999999998
 20
360.17419999999998
 11
452.32999999999998
 21
358.56659999999999
  0
LINE
  8
_0-3__0-7_
  6
CONTINUOUS
 62
  250
 10
458.32999999999998
 20
360.17419999999998
 11
452.32999999999998
 21
360.17419999999998
  0
LINE
  8
_0-3__0-7_
  6
CONTINUOUS
 62
  250
 10
460.32999999999998
 20
402.17419999999998
 11
460.32999999999998
 21
358.17419999999998
  0
LINE
  8
_0-3__0-7_
  6
CONTINUOUS
 62
  250
 10
458.32999999999998
 20
383.92419999999998
 11
458.32999999999998
 21
358.17419999999998
  0
LINE
  8
_0-3__0-7_
  6
CONTINUOUS
 62
  250
 10
460.32999999999998
 20
360.17419999999998
 11
472.32999999999998
 21
360.17419999999998
  0
LINE
  8
_0-3__0-7_
  6
CONTINUOUS
 62
  250
 10
460.32999999999998
 20
360.17419999999998
 11
458.32999999999998
 21
360.17419999999998
  0
LINE
  8
_0-3__0-7_
  6
CONTINUOUS
 62
  250
 10
458.32999999999998
 20
360.17419999999998
 11
442.57019999999999
 21
360.17419999999998
  0
LINE
  8
_0-3__0-7_
  6
CONTINUOUS
 62
  250
 10
487.43759999999997
 20
315.92599999999998
 11
485.82999999999998
 21
309.92599999999998
  0
LINE
  8
_0-3__0-7_
  6
CONTINUOUS
 62
  250
 10
485.82999999999998
 20
309.92599999999998
 11
484.22219999999998
 21
315.92599999999998
  0
LINE
  8
_0-3__0-7_
  6
CONTINUOUS
 62
  250
 10
485.82999999999998
 20
309.92599999999998
 11
485.82999999999998
 21
315.92599999999998
  0
LINE
  8
_0-3__0-7_
  6
CONTINUOUS
 62
  250
 10
484.22219999999998
 20
270.92599999999998
 11
485.82999999999998
 21
276.92599999999998
  0
LINE
  8
_0-3__0-7_
  6
CONTINUOUS
 62
  250
 10
485.82999999999998
 20
276.92599999999998
 11
487.43759999999997
 21
270.92599999999998
  0
LINE
  8
_0-3__0-7_
  6
CONTINUOUS
 62
  250
 10
485.82999999999998
 20
276.92599999999998
 11
485.82999999999998
 21
270.92599999999998
  0
LINE
  8
_0-3__0-7_
  6
CONTINUOUS
 62
  250
 10
465.82999999999998
 20
309.92599999999998
 11
487.82999999999998
 21
309.92599999999998
  0
LINE
  8
_0-3__0-7_
  6
CONTINUOUS
 62
  250
 10
466.82999999999998
 20
276.92599999999998
 11
487.82999999999998
 21
276.92599999999998
  0
LINE
  8
_0-3__0-7_
  6
CONTINUOUS
 62
  250
 10
485.82999999999998
 20
309.92599999999998
 11
485.82999999999998
 21
321.92599999999998
  0
LINE
  8
_0-3__0-7_
  6
CONTINUOUS
 62
  250
 10
485.82999999999998
 20
309.92599999999998
 11
485.82999999999998
 21
276.92599999999998
  0
LINE
  8
_0-3__0-7_
  6
CONTINUOUS
 62
  250
 10
485.82999999999998
 20
276.92599999999998
 11
485.82999999999998
 21
264.92599999999998
  0
LINE
  8
_0-3__0-7_
  6
CONTINUOUS
 62
  250
 10
471.82999999999998
 20
326.31819999999999
 11
465.82999999999998
 21
327.92599999999998
  0
LINE
  8
_0-3__0-7_
  6
CONTINUOUS
 62
  250
 10
465.82999999999998
 20
327.92599999999998
 11
471.82999999999998
 21
329.53359999999997
  0
LINE
  8
_0-3__0-7_
  6
CONTINUOUS
 62
  250
 10
465.82999999999998
 20
327.92599999999998
 11
471.82999999999998
 21
327.92599999999998
  0
LINE
  8
_0-3__0-7_
  6
CONTINUOUS
 62
  250
 10
446.82999999999998
 20
329.53359999999997
 11
452.82999999999998
 21
327.92599999999998
  0
LINE
  8
_0-3__0-7_
  6
CONTINUOUS
 62
  250
 10
452.82999999999998
 20
327.92599999999998
 11
446.82999999999998
 21
326.31819999999999
  0
LINE
  8
_0-3__0-7_
  6
CONTINUOUS
 62
  250
 10
452.82999999999998
 20
327.92599999999998
 11
446.82999999999998
 21
327.92599999999998
  0
LINE
  8
_0-3__0-7_
  6
CONTINUOUS
 62
  250
 10
465.82999999999998
 20
309.92599999999998
 11
465.82999999999998
 21
329.92599999999998
  0
LINE
  8
_0-3__0-7_
  6
CONTINUOUS
 62
  250
 10
452.82999999999998
 20
298.92599999999998
 11
452.82999999999998
 21
329.92599999999998
  0
LINE
  8
_0-3__0-7_
  6
CONTINUOUS
 62
  250
 10
465.82999999999998
 20
327.92599999999998
 11
477.82999999999998
 21
327.92599999999998
  0
LINE
  8
_0-3__0-7_
  6
CONTINUOUS
 62
  250
 10
465.82999999999998
 20
327.92599999999998
 11
452.82999999999998
 21
327.92599999999998
  0
LINE
  8
_0-3__0-7_
  6
CONTINUOUS
 62
  250
 10
452.82999999999998
 20
327.92599999999998
 11
440.82999999999998
 21
327.92599999999998
  0
LINE
  8
_0-3__0-7_
  6
CONTINUOUS
 62
  250
 10
500.97839999999996
 20
303.92599999999998
 11
502.58620000000001
 21
309.92599999999998
  0
LINE
  8
_0-3__0-7_
  6
CONTINUOUS
 62
  250
 10
502.58620000000001
 20
309.92599999999998
 11
504.19380000000001
 21
303.92599999999998
  0
LINE
  8
_0-3__0-7_
  6
CONTINUOUS
 62
  250
 10
502.58620000000001
 20
309.92599999999998
 11
502.58620000000001
 21
303.92599999999998
  0
LINE
  8
_0-3__0-7_
  6
CONTINUOUS
 62
  250
 10
504.19380000000001
 20
227.92599999999998
 11
502.58620000000001
 21
221.92599999999998
  0
LINE
  8
_0-3__0-7_
  6
CONTINUOUS
 62
  250
 10
502.58620000000001
 20
221.92599999999998
 11
500.97839999999996
 21
227.92599999999998
  0
LINE
  8
_0-3__0-7_
  6
CONTINUOUS
 62
  250
 10
502.58620000000001
 20
221.92599999999998
 11
502.58620000000001
 21
227.92599999999998
  0
LINE
  8
_0-3__0-7_
  6
CONTINUOUS
 62
  250
 10
628.83159999999998
 20
309.92599999999998
 11
500.58620000000001
 21
309.92599999999998
  0
LINE
  8
_0-3__0-7_
  6
CONTINUOUS
 62
  250
 10
505.27039999999999
 20
221.92599999999998
 11
500.58620000000001
 21
221.92599999999998
  0
LINE
  8
_0-3__0-7_
  6
CONTINUOUS
 62
  250
 10
502.58620000000001
 20
309.92599999999998
 11
502.58620000000001
 21
221.92599999999998
  0
LINE
  8
_0-3__0-7_
  6
CONTINUOUS
 62
  250
 10
553.7092
 20
396.39260000000001
 11
552.10159999999996
 21
390.39260000000001
  0
LINE
  8
_0-3__0-7_
  6
CONTINUOUS
 62
  250
 10
552.10159999999996
 20
390.39260000000001
 11
550.49379999999996
 21
396.39260000000001
  0
LINE
  8
_0-3__0-7_
  6
CONTINUOUS
 62
  250
 10
552.10159999999996
 20
390.39260000000001
 11
552.10159999999996
 21
396.39260000000001
  0
LINE
  8
_0-3__0-7_
  6
CONTINUOUS
 62
  250
 10
550.49379999999996
 20
371.39260000000001
 11
552.10159999999996
 21
377.39260000000001
  0
LINE
  8
_0-3__0-7_
  6
CONTINUOUS
 62
  250
 10
552.10159999999996
 20
377.39260000000001
 11
553.7092
 21
371.39260000000001
  0
LINE
  8
_0-3__0-7_
  6
CONTINUOUS
 62
  250
 10
552.10159999999996
 20
377.39260000000001
 11
552.10159999999996
 21
371.39260000000001
  0
LINE
  8
_0-3__0-7_
  6
CONTINUOUS
 62
  250
 10
581.10159999999996
 20
390.39260000000001
 11
550.10159999999996
 21
390.39260000000001
  0
LINE
  8
_0-3__0-7_
  6
CONTINUOUS
 62
  250
 10
570.10159999999996
 20
377.39260000000001
 11
550.10159999999996
 21
377.39260000000001
  0
LINE
  8
_0-3__0-7_
  6
CONTINUOUS
 62
  250
 10
552.10159999999996
 20
390.39260000000001
 11
552.10159999999996
 21
402.39260000000001
  0
LINE
  8
_0-3__0-7_
  6
CONTINUOUS
 62
  250
 10
552.10159999999996
 20
390.39260000000001
 11
552.10159999999996
 21
377.39260000000001
  0
LINE
  8
_0-3__0-7_
  6
CONTINUOUS
 62
  250
 10
552.10159999999996
 20
377.39260000000001
 11
552.10159999999996
 21
365.39260000000001
  0
LINE
  8
_0-3__0-7_
  6
CONTINUOUS
 62
  250
 10
550.49379999999996
 20
521.89260000000001
 11
552.10159999999996
 21
527.8925999999999
  0
LINE
  8
_0-3__0-7_
  6
CONTINUOUS
 62
  250
 10
552.10159999999996
 20
527.8925999999999
 11
553.7092
 21
521.89260000000001
  0
LINE
  8
_0-3__0-7_
  6
CONTINUOUS
 62
  250
 10
552.10159999999996
 20
527.8925999999999
 11
552.10159999999996
 21
521.89260000000001
  0
LINE
  8
_0-3__0-7_
  6
CONTINUOUS
 62
  250
 10
553.7092
 20
396.39260000000001
 11
552.10159999999996
 21
390.39260000000001
  0
LINE
  8
_0-3__0-7_
  6
CONTINUOUS
 62
  250
 10
552.10159999999996
 20
390.39260000000001
 11
550.49379999999996
 21
396.39260000000001
  0
LINE
  8
_0-3__0-7_
  6
CONTINUOUS
 62
  250
 10
552.10159999999996
 20
390.39260000000001
 11
552.10159999999996
 21
396.39260000000001
  0
LINE
  8
_0-3__0-7_
  6
CONTINUOUS
 62
  250
 10
581.10159999999996
 20
527.8925999999999
 11
550.10159999999996
 21
527.8925999999999
  0
LINE
  8
_0-3__0-7_
  6
CONTINUOUS
 62
  250
 10
581.10159999999996
 20
390.39260000000001
 11
550.10159999999996
 21
390.39260000000001
  0
LINE
  8
_0-3__0-7_
  6
CONTINUOUS
 62
  250
 10
552.10159999999996
 20
527.8925999999999
 11
552.10159999999996
 21
390.39260000000001
  0
LINE
  8
_0-3__0-7_
  6
CONTINUOUS
 62
  250
 10
244.64639999999999
 20
406.17419999999998
 11
243.03879999999998
 21
400.17419999999998
  0
LINE
  8
_0-3__0-7_
  6
CONTINUOUS
 62
  250
 10
243.03879999999998
 20
400.17419999999998
 11
241.43100000000001
 21
406.17419999999998
  0
LINE
  8
_0-3__0-7_
  6
CONTINUOUS
 62
  250
 10
243.03879999999998
 20
400.17419999999998
 11
243.03879999999998
 21
406.17419999999998
  0
LINE
  8
_0-3__0-7_
  6
CONTINUOUS
 62
  250
 10
241.43100000000001
 20
375.67419999999998
 11
243.03879999999998
 21
381.67420000000004
  0
LINE
  8
_0-3__0-7_
  6
CONTINUOUS
 62
  250
 10
243.03879999999998
 20
381.67420000000004
 11
244.64639999999999
 21
375.67419999999998
  0
LINE
  8
_0-3__0-7_
  6
CONTINUOUS
 62
  250
 10
243.03879999999998
 20
381.67420000000004
 11
243.03879999999998
 21
375.67419999999998
  0
LINE
  8
_0-3__0-7_
  6
CONTINUOUS
 62
  250
 10
287.83000000000004
 20
400.17419999999998
 11
241.0388
 21
400.17419999999998
  0
LINE
  8
_0-3__0-7_
  6
CONTINUOUS
 62
  250
 10
315.82999999999998
 20
381.67420000000004
 11
241.0388
 21
381.67420000000004
  0
LINE
  8
_0-3__0-7_
  6
CONTINUOUS
 62
  250
 10
243.03879999999998
 20
400.17419999999998
 11
243.03879999999998
 21
412.17419999999998
  0
LINE
  8
_0-3__0-7_
  6
CONTINUOUS
 62
  250
 10
243.03879999999998
 20
400.17419999999998
 11
243.03879999999998
 21
381.67420000000004
  0
LINE
  8
_0-3__0-7_
  6
CONTINUOUS
 62
  250
 10
243.03879999999998
 20
381.67420000000004
 11
243.03879999999998
 21
369.67419999999998
  0
LINE
  8
_0-3__0-7_
  6
CONTINUOUS
 62
  250
 10
250.22219999999998
 20
370.17419999999998
 11
251.83000000000004
 21
376.17419999999998
  0
LINE
  8
_0-3__0-7_
  6
CONTINUOUS
 62
  250
 10
251.83000000000004
 20
376.17419999999998
 11
253.43760000000003
 21
370.17419999999998
  0
LINE
  8
_0-3__0-7_
  6
CONTINUOUS
 62
  250
 10
251.83000000000004
 20
376.17419999999998
 11
251.83000000000004
 21
370.17419999999998
  0
LINE
  8
_0-3__0-7_
  6
CONTINUOUS
 62
  250
 10
251.83000000000004
 20
383.17420000000004
 11
251.83000000000004
 21
384.67419999999998
  0
LINE
  8
_0-3__0-7_
  6
CONTINUOUS
 62
  250
 10
289.83000000000004
 20
376.17419999999998
 11
249.83000000000001
 21
376.17419999999998
  0
LINE
  8
_0-3__0-7_
  6
CONTINUOUS
 62
  250
 10
315.82999999999998
 20
381.67420000000004
 11
249.83000000000001
 21
381.67420000000004
  0
LINE
  8
_0-3__0-7_
  6
CONTINUOUS
 62
  250
 10
251.83000000000004
 20
376.17419999999998
 11
251.83000000000004
 21
356.53660000000002
  0
LINE
  8
_0-3__0-7_
  6
CONTINUOUS
 62
  250
 10
251.83000000000004
 20
376.17419999999998
 11
251.83000000000004
 21
381.67420000000004
  0
LINE
  8
_0-3__0-7_
  6
CONTINUOUS
 62
  250
 10
251.83000000000004
 20
381.67420000000004
 11
251.83000000000004
 21
393.67419999999998
  0
LINE
  8
_0-3__0-7_
  6
CONTINUOUS
 62
  250
 10
287.52640000000002
 20
314.18619999999998
 11
290.83000000000004
 21
308.92599999999998
  0
LINE
  8
_0-3__0-7_
  6
CONTINUOUS
 62
  250
 10
290.83000000000004
 20
308.92599999999998
 11
285.33879999999999
 21
311.82979999999997
  0
LINE
  8
_0-3__0-7_
  6
CONTINUOUS
 62
  250
 10
290.83000000000004
 20
308.92599999999998
 11
286.43260000000003
 21
313.00799999999998
  0
LINE
  8
_0-3__0-7_
  6
CONTINUOUS
 62
  250
 10
290.83000000000004
 20
308.92599999999998
 11
264.53020000000003
 21
333.33979999999996
  0
LINE
  8
_0-3__0-7_
  6
CONTINUOUS
 62
  250
 10
264.53020000000003
 20
333.33979999999996
 11
253.0284
 21
344.0326
  0
LINE
  8
_0-3__0-7_
  6
CONTINUOUS
 62
  250
 10
268.22219999999998
 20
290.92599999999998
 11
269.83000000000004
 21
296.92599999999998
  0
LINE
  8
_0-3__0-7_
  6
CONTINUOUS
 62
  250
 10
269.83000000000004
 20
296.92599999999998
 11
271.43760000000003
 21
290.92599999999998
  0
LINE
  8
_0-3__0-7_
  6
CONTINUOUS
 62
  250
 10
269.83000000000004
 20
296.92599999999998
 11
269.83000000000004
 21
290.92599999999998
  0
LINE
  8
_0-3__0-7_
  6
CONTINUOUS
 62
  250
 10
271.43760000000003
 20
315.92599999999998
 11
269.83000000000004
 21
309.92599999999998
  0
LINE
  8
_0-3__0-7_
  6
CONTINUOUS
 62
  250
 10
269.83000000000004
 20
309.92599999999998
 11
268.22219999999998
 21
315.92599999999998
  0
LINE
  8
_0-3__0-7_
  6
CONTINUOUS
 62
  250
 10
269.83000000000004
 20
309.92599999999998
 11
269.83000000000004
 21
315.92599999999998
  0
LINE
  8
_0-3__0-7_
  6
CONTINUOUS
 62
  250
 10
300.82999999999998
 20
296.92599999999998
 11
267.83000000000004
 21
296.92599999999998
  0
LINE
  8
_0-3__0-7_
  6
CONTINUOUS
 62
  250
 10
289.83000000000004
 20
309.92599999999998
 11
267.83000000000004
 21
309.92599999999998
  0
LINE
  8
_0-3__0-7_
  6
CONTINUOUS
 62
  250
 10
269.83000000000004
 20
296.92599999999998
 11
269.83000000000004
 21
284.92599999999998
  0
LINE
  8
_0-3__0-7_
  6
CONTINUOUS
 62
  250
 10
269.83000000000004
 20
296.92599999999998
 11
269.83000000000004
 21
309.92599999999998
  0
LINE
  8
_0-3__0-7_
  6
CONTINUOUS
 62
  250
 10
269.83000000000004
 20
309.92599999999998
 11
269.83000000000004
 21
321.92599999999998
  0
LINE
  8
_0-3__0-7_
  6
CONTINUOUS
 62
  250
 10
490.22220000000004
 20
386.17419999999998
 11
491.82999999999998
 21
392.17419999999998
  0
LINE
  8
_0-3__0-7_
  6
CONTINUOUS
 62
  250
 10
491.82999999999998
 20
392.17419999999998
 11
493.43759999999997
 21
386.17419999999998
  0
LINE
  8
_0-3__0-7_
  6
CONTINUOUS
 62
  250
 10
491.82999999999998
 20
392.17419999999998
 11
491.82999999999998
 21
386.17419999999998
  0
LINE
  8
_0-3__0-7_
  6
CONTINUOUS
 62
  250
 10
493.43759999999997
 20
415.17419999999998
 11
491.82999999999998
 21
409.17419999999998
  0
LINE
  8
_0-3__0-7_
  6
CONTINUOUS
 62
  250
 10
491.82999999999998
 20
409.17419999999998
 11
490.22220000000004
 21
415.17419999999998
  0
LINE
  8
_0-3__0-7_
  6
CONTINUOUS
 62
  250
 10
491.82999999999998
 20
409.17419999999998
 11
491.82999999999998
 21
415.17419999999998
  0
LINE
  8
_0-3__0-7_
  6
CONTINUOUS
 62
  250
 10
466.57999999999998
 20
392.17419999999998
 11
493.82999999999998
 21
392.17419999999998
  0
LINE
  8
_0-3__0-7_
  6
CONTINUOUS
 62
  250
 10
467.32999999999998
 20
409.17419999999998
 11
493.82999999999998
 21
409.17419999999998
  0
LINE
  8
_0-3__0-7_
  6
CONTINUOUS
 62
  250
 10
491.82999999999998
 20
392.17419999999998
 11
491.82999999999998
 21
380.17419999999998
  0
LINE
  8
_0-3__0-7_
  6
CONTINUOUS
 62
  250
 10
491.82999999999998
 20
392.17419999999998
 11
491.82999999999998
 21
409.17419999999998
  0
LINE
  8
_0-3__0-7_
  6
CONTINUOUS
 62
  250
 10
491.82999999999998
 20
409.17419999999998
 11
491.82999999999998
 21
421.17419999999998
  0
LINE
  8
_0-3__0-7_
  6
CONTINUOUS
 62
  250
 10
491.82999999999998
 20
548.17419999999992
 11
491.82999999999998
 21
549.67420000000004
  0
LINE
  8
_0-3__0-7_
  6
CONTINUOUS
 62
  250
 10
490.22220000000004
 20
538.67419999999992
 11
491.82999999999998
 21
544.67420000000004
  0
LINE
  8
_0-3__0-7_
  6
CONTINUOUS
 62
  250
 10
491.82999999999998
 20
544.67420000000004
 11
493.43759999999997
 21
538.67419999999992
  0
LINE
  8
_0-3__0-7_
  6
CONTINUOUS
 62
  250
 10
491.82999999999998
 20
544.67420000000004
 11
491.82999999999998
 21
538.67419999999992
  0
LINE
  8
_0-3__0-7_
  6
CONTINUOUS
 62
  250
 10
439.82999999999998
 20
546.67420000000004
 11
493.82999999999998
 21
546.67420000000004
  0
LINE
  8
_0-3__0-7_
  6
CONTINUOUS
 62
  250
 10
458.07999999999998
 20
544.67420000000004
 11
493.82999999999998
 21
544.67420000000004
  0
LINE
  8
_0-3__0-7_
  6
CONTINUOUS
 62
  250
 10
491.82999999999998
 20
546.67420000000004
 11
491.82999999999998
 21
558.67419999999992
  0
LINE
  8
_0-3__0-7_
  6
CONTINUOUS
 62
  250
 10
491.82999999999998
 20
546.67420000000004
 11
491.82999999999998
 21
544.67420000000004
  0
LINE
  8
_0-3__0-7_
  6
CONTINUOUS
 62
  250
 10
491.82999999999998
 20
544.67420000000004
 11
491.82999999999998
 21
529.61379999999996
  0
LINE
  8
_0-3__0-7_
  6
CONTINUOUS
 62
  250
 10
493.43759999999997
 20
415.17419999999998
 11
491.82999999999998
 21
409.17419999999998
  0
LINE
  8
_0-3__0-7_
  6
CONTINUOUS
 62
  250
 10
491.82999999999998
 20
409.17419999999998
 11
490.22220000000004
 21
415.17419999999998
  0
LINE
  8
_0-3__0-7_
  6
CONTINUOUS
 62
  250
 10
491.82999999999998
 20
409.17419999999998
 11
491.82999999999998
 21
415.17419999999998
  0
LINE
  8
_0-3__0-7_
  6
CONTINUOUS
 62
  250
 10
490.22220000000004
 20
513.17419999999992
 11
491.82999999999998
 21
519.17420000000004
  0
LINE
  8
_0-3__0-7_
  6
CONTINUOUS
 62
  250
 10
491.82999999999998
 20
519.17420000000004
 11
493.43759999999997
 21
513.17419999999992
  0
LINE
  8
_0-3__0-7_
  6
CONTINUOUS
 62
  250
 10
491.82999999999998
 20
519.17420000000004
 11
491.82999999999998
 21
513.17419999999992
  0
LINE
  8
_0-3__0-7_
  6
CONTINUOUS
 62
  250
 10
467.32999999999998
 20
409.17419999999998
 11
493.82999999999998
 21
409.17419999999998
  0
LINE
  8
_0-3__0-7_
  6
CONTINUOUS
 62
  250
 10
467.32999999999998
 20
519.17420000000004
 11
493.82999999999998
 21
519.17420000000004
  0
LINE
  8
_0-3__0-7_
  6
CONTINUOUS
 62
  250
 10
491.82999999999998
 20
409.17419999999998
 11
491.82999999999998
 21
519.17420000000004
  0
LINE
  8
_0-3__0-7_
  6
CONTINUOUS
 62
  250
 10
553.76639999999997
 20
559.39260000000001
 11
552.15859999999997
 21
553.39260000000001
  0
LINE
  8
_0-3__0-7_
  6
CONTINUOUS
 62
  250
 10
552.15859999999997
 20
553.39260000000001
 11
550.55099999999993
 21
559.39260000000001
  0
LINE
  8
_0-3__0-7_
  6
CONTINUOUS
 62
  250
 10
552.15859999999997
 20
553.39260000000001
 11
552.15859999999997
 21
559.39260000000001
  0
LINE
  8
_0-3__0-7_
  6
CONTINUOUS
 62
  250
 10
550.55099999999993
 20
521.89260000000001
 11
552.15859999999997
 21
527.8925999999999
  0
LINE
  8
_0-3__0-7_
  6
CONTINUOUS
 62
  250
 10
552.15859999999997
 20
527.8925999999999
 11
553.76639999999997
 21
521.89260000000001
  0
LINE
  8
_0-3__0-7_
  6
CONTINUOUS
 62
  250
 10
552.15859999999997
 20
527.8925999999999
 11
552.15859999999997
 21
521.89260000000001
  0
LINE
  8
_0-3__0-7_
  6
CONTINUOUS
 62
  250
 10
570.10159999999996
 20
553.39260000000001
 11
550.15859999999997
 21
553.39260000000001
  0
LINE
  8
_0-3__0-7_
  6
CONTINUOUS
 62
  250
 10
581.10159999999996
 20
527.8925999999999
 11
550.15859999999997
 21
527.8925999999999
  0
LINE
  8
_0-3__0-7_
  6
CONTINUOUS
 62
  250
 10
552.15859999999997
 20
553.39260000000001
 11
552.15859999999997
 21
565.39260000000001
  0
LINE
  8
_0-3__0-7_
  6
CONTINUOUS
 62
  250
 10
552.15859999999997
 20
553.39260000000001
 11
552.15859999999997
 21
527.8925999999999
  0
LINE
  8
_0-3__0-7_
  6
CONTINUOUS
 62
  250
 10
552.15859999999997
 20
527.8925999999999
 11
552.15859999999997
 21
515.8925999999999
  0
LINE
  8
_0-3__0-7_
  6
CONTINUOUS
 62
  250
 10
589.10159999999996
 20
565.78480000000001
 11
583.10159999999996
 21
567.39260000000001
  0
LINE
  8
_0-3__0-7_
  6
CONTINUOUS
 62
  250
 10
583.10159999999996
 20
567.39260000000001
 11
589.10159999999996
 21
569.00019999999994
  0
LINE
  8
_0-3__0-7_
  6
CONTINUOUS
 62
  250
 10
583.10159999999996
 20
567.39260000000001
 11
589.10159999999996
 21
567.39260000000001
  0
LINE
  8
_0-3__0-7_
  6
CONTINUOUS
 62
  250
 10
564.10159999999996
 20
569.00019999999994
 11
570.10159999999996
 21
567.39260000000001
  0
LINE
  8
_0-3__0-7_
  6
CONTINUOUS
 62
  250
 10
570.10159999999996
 20
567.39260000000001
 11
564.10159999999996
 21
565.78480000000001
  0
LINE
  8
_0-3__0-7_
  6
CONTINUOUS
 62
  250
 10
570.10159999999996
 20
567.39260000000001
 11
564.10159999999996
 21
567.39260000000001
  0
LINE
  8
_0-3__0-7_
  6
CONTINUOUS
 62
  250
 10
583.10159999999996
 20
531.39260000000001
 11
583.10159999999996
 21
569.39260000000001
  0
LINE
  8
_0-3__0-7_
  6
CONTINUOUS
 62
  250
 10
570.10159999999996
 20
553.39260000000001
 11
570.10159999999996
 21
569.39260000000001
  0
LINE
  8
_0-3__0-7_
  6
CONTINUOUS
 62
  250
 10
583.10159999999996
 20
567.39260000000001
 11
595.10159999999996
 21
567.39260000000001
  0
LINE
  8
_0-3__0-7_
  6
CONTINUOUS
 62
  250
 10
583.10159999999996
 20
567.39260000000001
 11
570.10159999999996
 21
567.39260000000001
  0
LINE
  8
_0-3__0-7_
  6
CONTINUOUS
 62
  250
 10
570.10159999999996
 20
567.39260000000001
 11
558.10159999999996
 21
567.39260000000001
  0
LINE
  8
_0-3__0-7_
  6
CONTINUOUS
 62
  250
 10
752.10159999999996
 20
565.78480000000001
 11
746.10159999999996
 21
567.39260000000001
  0
LINE
  8
_0-3__0-7_
  6
CONTINUOUS
 62
  250
 10
746.10159999999996
 20
567.39260000000001
 11
752.10159999999996
 21
569.00019999999994
  0
LINE
  8
_0-3__0-7_
  6
CONTINUOUS
 62
  250
 10
746.10159999999996
 20
567.39260000000001
 11
752.10159999999996
 21
567.39260000000001
  0
LINE
  8
_0-3__0-7_
  6
CONTINUOUS
 62
  250
 10
727.10159999999996
 20
569.00019999999994
 11
733.10159999999996
 21
567.39260000000001
  0
LINE
  8
_0-3__0-7_
  6
CONTINUOUS
 62
  250
 10
733.10159999999996
 20
567.39260000000001
 11
727.10159999999996
 21
565.78480000000001
  0
LINE
  8
_0-3__0-7_
  6
CONTINUOUS
 62
  250
 10
733.10159999999996
 20
567.39260000000001
 11
727.10159999999996
 21
567.39260000000001
  0
LINE
  8
_0-3__0-7_
  6
CONTINUOUS
 62
  250
 10
746.10159999999996
 20
553.39260000000001
 11
746.10159999999996
 21
569.39260000000001
  0
LINE
  8
_0-3__0-7_
  6
CONTINUOUS
 62
  250
 10
733.10159999999996
 20
531.39260000000001
 11
733.10159999999996
 21
569.39260000000001
  0
LINE
  8
_0-3__0-7_
  6
CONTINUOUS
 62
  250
 10
746.10159999999996
 20
567.39260000000001
 11
758.10159999999996
 21
567.39260000000001
  0
LINE
  8
_0-3__0-7_
  6
CONTINUOUS
 62
  250
 10
746.10159999999996
 20
567.39260000000001
 11
733.10159999999996
 21
567.39260000000001
  0
LINE
  8
_0-3__0-7_
  6
CONTINUOUS
 62
  250
 10
733.10159999999996
 20
567.39260000000001
 11
721.10159999999996
 21
567.39260000000001
  0
LINE
  8
_0-3__0-7_
  6
CONTINUOUS
 62
  250
 10
727.10159999999996
 20
569.00019999999994
 11
733.10159999999996
 21
567.39260000000001
  0
LINE
  8
_0-3__0-7_
  6
CONTINUOUS
 62
  250
 10
733.10159999999996
 20
567.39260000000001
 11
727.10159999999996
 21
565.78480000000001
  0
LINE
  8
_0-3__0-7_
  6
CONTINUOUS
 62
  250
 10
733.10159999999996
 20
567.39260000000001
 11
727.10159999999996
 21
567.39260000000001
  0
LINE
  8
_0-3__0-7_
  6
CONTINUOUS
 62
  250
 10
589.10159999999996
 20
565.78480000000001
 11
583.10159999999996
 21
567.39260000000001
  0
LINE
  8
_0-3__0-7_
  6
CONTINUOUS
 62
  250
 10
583.10159999999996
 20
567.39260000000001
 11
589.10159999999996
 21
569.00019999999994
  0
LINE
  8
_0-3__0-7_
  6
CONTINUOUS
 62
  250
 10
583.10159999999996
 20
567.39260000000001
 11
589.10159999999996
 21
567.39260000000001
  0
LINE
  8
_0-3__0-7_
  6
CONTINUOUS
 62
  250
 10
733.10159999999996
 20
531.39260000000001
 11
733.10159999999996
 21
569.39260000000001
  0
LINE
  8
_0-3__0-7_
  6
CONTINUOUS
 62
  250
 10
583.10159999999996
 20
531.39260000000001
 11
583.10159999999996
 21
569.39260000000001
  0
LINE
  8
_0-3__0-7_
  6
CONTINUOUS
 62
  250
 10
733.10159999999996
 20
567.39260000000001
 11
583.10159999999996
 21
567.39260000000001
  0
LINE
  8
_0-1__0-0_0
  6
CONTINUOUS
 62
  250
 10
452.82999999999998
 20
189.8374
 11
302.83000000000004
 21
189.8374
  0
LINE
  8
_0-1__0-0_0
  6
CONTINUOUS
 62
  250
 10
291.82999999999998
 20
112.626
 11
291.82999999999998
 21
111.42599999999998
  0
LINE
  8
_0-1__0-0_0
  6
CONTINUOUS
 62
  250
 10
291.82999999999998
 20
111.42599999999998
 11
289.83000000000004
 21
111.42599999999998
  0
LINE
  8
_0-1__0-0_0
  6
CONTINUOUS
 62
  250
 10
289.83000000000004
 20
111.42599999999998
 11
289.83000000000004
 21
112.626
  0
LINE
  8
_0-1__0-0_0
  6
CONTINUOUS
 62
  250
 10
289.83000000000004
 20
112.626
 11
291.82999999999998
 21
112.626
  0
LINE
  8
_0-1__0-0_0
  6
CONTINUOUS
 62
  250
 10
465.82999999999998
 20
112.626
 11
465.82999999999998
 21
111.42599999999998
  0
LINE
  8
_0-1__0-0_0
  6
CONTINUOUS
 62
  250
 10
465.82999999999998
 20
111.42599999999998
 11
463.82999999999998
 21
111.42599999999998
  0
LINE
  8
_0-1__0-0_0
  6
CONTINUOUS
 62
  250
 10
463.82999999999998
 20
111.42599999999998
 11
463.82999999999998
 21
112.626
  0
LINE
  8
_0-1__0-0_0
  6
CONTINUOUS
 62
  250
 10
463.82999999999998
 20
112.626
 11
465.82999999999998
 21
112.626
  0
LINE
  8
_0-1__0-0_0
  6
CONTINUOUS
 62
  250
 10
463.82999999999998
 20
112.626
 11
291.82999999999998
 21
112.626
  0
LINE
  8
_0-1__0-0_0
  6
CONTINUOUS
 62
  250
 10
463.82999999999998
 20
111.42599999999998
 11
291.82999999999998
 21
111.42599999999998
  0
LINE
  8
_0-1__0-0_0
  6
CONTINUOUS
 62
  250
 10
291.82999999999998
 20
113.82599999999996
 11
291.82999999999998
 21
112.626
  0
LINE
  8
_0-1__0-0_0
  6
CONTINUOUS
 62
  250
 10
289.83000000000004
 20
112.626
 11
289.83000000000004
 21
113.82599999999996
  0
LINE
  8
_0-1__0-0_0
  6
CONTINUOUS
 62
  250
 10
289.83000000000004
 20
113.82599999999996
 11
291.82999999999998
 21
113.82599999999996
  0
LINE
  8
_0-1__0-0_0
  6
CONTINUOUS
 62
  250
 10
463.82999999999998
 20
112.626
 11
463.82999999999998
 21
113.82599999999996
  0
LINE
  8
_0-1__0-0_0
  6
CONTINUOUS
 62
  250
 10
463.82999999999998
 20
113.82599999999996
 11
291.82999999999998
 21
113.82599999999996
  0
LINE
  8
_0-1__0-0_0
  6
CONTINUOUS
 62
  250
 10
465.82999999999998
 20
113.82599999999996
 11
465.82999999999998
 21
112.626
  0
LINE
  8
_0-1__0-0_0
  6
CONTINUOUS
 62
  250
 10
463.82999999999998
 20
113.82599999999996
 11
465.82999999999998
 21
113.82599999999996
  0
LINE
  8
_0-1__0-0_0
  6
CONTINUOUS
 62
  250
 10
465.82999999999998
 20
307.92599999999998
 11
463.82999999999998
 21
309.92599999999998
  0
LINE
  8
_0-1__0-0_0
  6
CONTINUOUS
 62
  250
 10
463.82999999999998
 20
309.92599999999998
 11
291.82999999999998
 21
309.92599999999998
  0
LINE
  8
_0-1__0-0_0
  6
CONTINUOUS
 62
  250
 10
302.83000000000004
 20
146.92599999999998
 11
302.83000000000004
 21
296.92599999999998
  0
LINE
  8
_0-1__0-0_0
  6
CONTINUOUS
 62
  250
 10
452.82999999999998
 20
146.92599999999998
 11
302.83000000000004
 21
146.92599999999998
  0
LINE
  8
_0-1__0-0_0
  6
CONTINUOUS
 62
  250
 10
291.82999999999998
 20
309.92599999999998
 11
289.83000000000004
 21
307.92599999999998
  0
LINE
  8
_0-1__0-0_0
  6
CONTINUOUS
 62
  250
 10
302.83000000000004
 20
296.92599999999998
 11
452.82999999999998
 21
296.92599999999998
  0
LINE
  8
_0-1__0-0_0
  6
CONTINUOUS
 62
  250
 10
452.82999999999998
 20
296.92599999999998
 11
452.82999999999998
 21
146.92599999999998
  0
LINE
  8
_0-1__0-0_0
  6
CONTINUOUS
 62
  250
 10
465.82999999999998
 20
307.92599999999998
 11
465.82999999999998
 21
113.82599999999996
  0
LINE
  8
_0-1__0-0_0
  6
CONTINUOUS
 62
  250
 10
289.83000000000004
 20
307.92599999999998
 11
289.83000000000004
 21
113.82599999999996
  0
LINE
  8
_0-1__0-0_0
  6
CONTINUOUS
 62
  250
 10
453.62999999999999
 20
401.37419999999997
 11
302.02999999999997
 21
401.37419999999997
  0
LINE
  8
_0-1__0-0_0
  6
CONTINUOUS
 62
  250
 10
453.62999999999999
 20
402.17419999999998
 11
302.02999999999997
 21
402.17419999999998
  0
LINE
  8
_0-1__0-0_0
  6
CONTINUOUS
 62
  250
 10
302.02999999999997
 20
402.17419999999998
 11
302.02999999999997
 21
401.37419999999997
  0
LINE
  8
_0-1__0-0_0
  6
CONTINUOUS
 62
  250
 10
453.62999999999999
 20
401.37419999999997
 11
453.62999999999999
 21
402.17419999999998
  0
LINE
  8
_0-1__0-0_0
  6
CONTINUOUS
 62
  250
 10
453.62999999999999
 20
539.17420000000004
 11
302.02999999999997
 21
539.17420000000004
  0
LINE
  8
_0-1__0-0_0
  6
CONTINUOUS
 62
  250
 10
453.62999999999999
 20
539.17420000000004
 11
453.62999999999999
 21
411.17419999999998
  0
LINE
  8
_0-1__0-0_0
  6
CONTINUOUS
 62
  250
 10
302.02999999999997
 20
539.17420000000004
 11
302.02999999999997
 21
411.17419999999998
  0
LINE
  8
_0-1__0-0_0
  6
CONTINUOUS
 62
  250
 10
453.62999999999999
 20
411.17419999999998
 11
453.62999999999999
 21
402.17419999999998
  0
LINE
  8
_0-1__0-0_0
  6
CONTINUOUS
 62
  250
 10
302.02999999999997
 20
411.17419999999998
 11
302.02999999999997
 21
402.17419999999998
  0
LINE
  8
_0-1__0-0_0
  6
CONTINUOUS
 62
  250
 10
465.82999999999998
 20
402.17419999999998
 11
453.62999999999999
 21
402.17419999999998
  0
LINE
  8
_0-1__0-0_0
  6
CONTINUOUS
 62
  250
 10
465.82999999999998
 20
401.37419999999997
 11
465.82999999999998
 21
402.17419999999998
  0
LINE
  8
_0-1__0-0_0
  6
CONTINUOUS
 62
  250
 10
302.02999999999997
 20
402.17419999999998
 11
289.83000000000004
 21
402.17419999999998
  0
LINE
  8
_0-1__0-0_0
  6
CONTINUOUS
 62
  250
 10
289.83000000000004
 20
401.37419999999997
 11
289.83000000000004
 21
402.17419999999998
  0
LINE
  8
_0-1__0-0_0
  6
CONTINUOUS
 62
  250
 10
453.62999999999999
 20
552.17420000000004
 11
302.02999999999997
 21
552.17420000000004
  0
LINE
  8
_0-1__0-0_0
  6
CONTINUOUS
 62
  250
 10
302.02999999999997
 20
539.17420000000004
 11
302.02999999999997
 21
552.17420000000004
  0
LINE
  8
_0-1__0-0_0
  6
CONTINUOUS
 62
  250
 10
453.62999999999999
 20
552.17420000000004
 11
453.62999999999999
 21
539.17420000000004
  0
LINE
  8
_0-1__0-0_0
  6
CONTINUOUS
 62
  250
 10
453.62999999999999
 20
539.17420000000004
 11
465.82999999999998
 21
539.17420000000004
  0
LINE
  8
_0-1__0-0_0
  6
CONTINUOUS
 62
  250
 10
465.82999999999998
 20
539.17420000000004
 11
465.82999999999998
 21
402.17419999999998
  0
LINE
  8
_0-1__0-0_0
  6
CONTINUOUS
 62
  250
 10
289.83000000000004
 20
539.17420000000004
 11
302.02999999999997
 21
539.17420000000004
  0
LINE
  8
_0-1__0-0_0
  6
CONTINUOUS
 62
  250
 10
289.83000000000004
 20
539.17420000000004
 11
289.83000000000004
 21
402.17419999999998
  0
LINE
  8
_0-1__0-0_0
  6
CONTINUOUS
 62
  250
 10
289.83000000000004
 20
550.17420000000004
 11
289.83000000000004
 21
539.17420000000004
  0
LINE
  8
_0-1__0-0_0
  6
CONTINUOUS
 62
  250
 10
465.82999999999998
 20
550.17420000000004
 11
465.82999999999998
 21
539.17420000000004
  0
LINE
  8
_0-1__0-0_0
  6
CONTINUOUS
 62
  250
 10
463.82999999999998
 20
552.17420000000004
 11
453.62999999999999
 21
552.17420000000004
  0
LINE
  8
_0-1__0-0_0
  6
CONTINUOUS
 62
  250
 10
302.02999999999997
 20
552.17420000000004
 11
291.82999999999998
 21
552.17420000000004
  0
LINE
  8
_0-1__0-0_0
  6
CONTINUOUS
 62
  250
 10
291.82999999999998
 20
552.17420000000004
 11
289.83000000000004
 21
550.17420000000004
  0
LINE
  8
_0-1__0-0_0
  6
CONTINUOUS
 62
  250
 10
465.82999999999998
 20
550.17420000000004
 11
463.82999999999998
 21
552.17420000000004
  0
LINE
  8
_0-1__0-0_0
  6
CONTINUOUS
 62
  250
 10
291.82999999999998
 20
401.37419999999997
 11
291.82999999999998
 21
400.17419999999998
  0
LINE
  8
_0-1__0-0_0
  6
CONTINUOUS
 62
  250
 10
289.83000000000004
 20
400.17419999999998
 11
289.83000000000004
 21
401.37419999999997
  0
LINE
  8
_0-1__0-0_0
  6
CONTINUOUS
 62
  250
 10
289.83000000000004
 20
401.37419999999997
 11
291.82999999999998
 21
401.37419999999997
  0
LINE
  8
_0-1__0-0_0
  6
CONTINUOUS
 62
  250
 10
291.82999999999998
 20
400.17419999999998
 11
289.83000000000004
 21
400.17419999999998
  0
LINE
  8
_0-1__0-0_0
  6
CONTINUOUS
 62
  250
 10
463.82999999999998
 20
400.17419999999998
 11
463.82999999999998
 21
401.37419999999997
  0
LINE
  8
_0-1__0-0_0
  6
CONTINUOUS
 62
  250
 10
463.82999999999998
 20
401.37419999999997
 11
291.82999999999998
 21
401.37419999999997
  0
LINE
  8
_0-1__0-0_0
  6
CONTINUOUS
 62
  250
 10
463.82999999999998
 20
400.17419999999998
 11
291.82999999999998
 21
400.17419999999998
  0
LINE
  8
_0-1__0-0_0
  6
CONTINUOUS
 62
  250
 10
465.82999999999998
 20
401.37419999999997
 11
465.82999999999998
 21
400.17419999999998
  0
LINE
  8
_0-1__0-0_0
  6
CONTINUOUS
 62
  250
 10
463.82999999999998
 20
401.37419999999997
 11
465.82999999999998
 21
401.37419999999997
  0
LINE
  8
_0-1__0-0_0
  6
CONTINUOUS
 62
  250
 10
465.82999999999998
 20
400.17419999999998
 11
463.82999999999998
 21
400.17419999999998
  0
LINE
  8
_0-1__0-0_0
  6
CONTINUOUS
 62
  250
 10
463.82999999999998
 20
376.17419999999998
 11
291.82999999999998
 21
376.17419999999998
  0
LINE
  8
_0-1__0-0_0
  6
CONTINUOUS
 62
  250
 10
289.83000000000004
 20
378.17420000000004
 11
291.82999999999998
 21
376.17419999999998
  0
LINE
  8
_0-1__0-0_0
  6
CONTINUOUS
 62
  250
 10
289.83000000000004
 20
400.17419999999998
 11
289.83000000000004
 21
378.17420000000004
  0
LINE
  8
_0-1__0-0_0
  6
CONTINUOUS
 62
  250
 10
465.82999999999998
 20
400.17419999999998
 11
465.82999999999998
 21
378.17420000000004
  0
LINE
  8
_0-1__0-0_0
  6
CONTINUOUS
 62
  250
 10
78.843599999999923
 20
113.42599999999998
 11
215.8436
 21
113.42599999999998
  0
LINE
  8
_0-1__0-0_0
  6
CONTINUOUS
 62
  250
 10
215.8436
 20
113.42599999999998
 11
215.8436
 21
297.72599999999999
  0
LINE
  8
_0-1__0-0_0
  6
CONTINUOUS
 62
  250
 10
216.64359999999999
 20
297.72599999999999
 11
215.8436
 21
297.72599999999999
  0
LINE
  8
_0-1__0-0_0
  6
CONTINUOUS
 62
  250
 10
216.64359999999999
 20
297.72599999999999
 11
216.64359999999999
 21
112.626
  0
LINE
  8
_0-1__0-0_0
  6
CONTINUOUS
 62
  250
 10
78.843599999999923
 20
113.42599999999998
 11
78.843599999999923
 21
112.626
  0
LINE
  8
_0-1__0-0_0
  6
CONTINUOUS
 62
  250
 10
216.64359999999999
 20
112.626
 11
78.843599999999923
 21
112.626
  0
LINE
  8
_0-1__0-0_0
  6
CONTINUOUS
 62
  250
 10
65.843600000000037
 20
112.626
 11
65.843600000000037
 21
113.42599999999998
  0
LINE
  8
_0-1__0-0_0
  6
CONTINUOUS
 62
  250
 10
78.843599999999923
 20
113.42599999999998
 11
65.843600000000037
 21
113.42599999999998
  0
LINE
  8
_0-1__0-0_0
  6
CONTINUOUS
 62
  250
 10
206.84359999999998
 20
297.72599999999999
 11
215.8436
 21
297.72599999999999
  0
LINE
  8
_0-1__0-0_0
  6
CONTINUOUS
 62
  250
 10
78.843599999999923
 20
113.42599999999998
 11
78.843599999999923
 21
189.906
  0
LINE
  8
_0-1__0-0_0
  6
CONTINUOUS
 62
  250
 10
215.8436
 20
309.92599999999998
 11
215.8436
 21
297.72599999999999
  0
LINE
  8
_0-1__0-0_0
  6
CONTINUOUS
 62
  250
 10
215.8436
 20
309.92599999999998
 11
216.64359999999999
 21
309.92599999999998
  0
LINE
  8
_0-1__0-0_0
  6
CONTINUOUS
 62
  250
 10
65.843600000000037
 20
111.42599999999998
 11
65.843600000000037
 21
112.626
  0
LINE
  8
_0-1__0-0_0
  6
CONTINUOUS
 62
  250
 10
65.843600000000037
 20
112.626
 11
67.84359999999998
 21
112.626
  0
LINE
  8
_0-1__0-0_0
  6
CONTINUOUS
 62
  250
 10
67.84359999999998
 20
112.626
 11
67.84359999999998
 21
111.42599999999998
  0
LINE
  8
_0-1__0-0_0
  6
CONTINUOUS
 62
  250
 10
67.84359999999998
 20
111.42599999999998
 11
65.843600000000037
 21
111.42599999999998
  0
LINE
  8
_0-1__0-0_0
  6
CONTINUOUS
 62
  250
 10
239.84359999999998
 20
111.42599999999998
 11
239.84359999999998
 21
112.626
  0
LINE
  8
_0-1__0-0_0
  6
CONTINUOUS
 62
  250
 10
239.84359999999998
 20
111.42599999999998
 11
67.84359999999998
 21
111.42599999999998
  0
LINE
  8
_0-1__0-0_0
  6
CONTINUOUS
 62
  250
 10
67.84359999999998
 20
112.626
 11
239.84359999999998
 21
112.626
  0
LINE
  8
_0-1__0-0_0
  6
CONTINUOUS
 62
  250
 10
241.8436
 20
112.626
 11
241.8436
 21
111.42599999999998
  0
LINE
  8
_0-1__0-0_0
  6
CONTINUOUS
 62
  250
 10
241.8436
 20
111.42599999999998
 11
239.84359999999998
 21
111.42599999999998
  0
LINE
  8
_0-1__0-0_0
  6
CONTINUOUS
 62
  250
 10
239.84359999999998
 20
112.626
 11
241.8436
 21
112.626
  0
LINE
  8
_0-1__0-0_0
  6
CONTINUOUS
 62
  250
 10
216.64359999999999
 20
112.626
 11
216.64359999999999
 21
307.92599999999998
  0
LINE
  8
_0-1__0-0_0
  6
CONTINUOUS
 62
  250
 10
217.84360000000003
 20
307.92599999999998
 11
216.64359999999999
 21
307.92599999999998
  0
LINE
  8
_0-1__0-0_0
  6
CONTINUOUS
 62
  250
 10
217.84360000000003
 20
307.92599999999998
 11
217.84360000000003
 21
113.82599999999996
  0
LINE
  8
_0-1__0-0_0
  6
CONTINUOUS
 62
  250
 10
217.84360000000003
 20
113.82599999999996
 11
239.84359999999998
 21
113.82599999999996
  0
LINE
  8
_0-1__0-0_0
  6
CONTINUOUS
 62
  250
 10
239.84359999999998
 20
112.626
 11
239.84359999999998
 21
113.82599999999996
  0
LINE
  8
_0-1__0-0_0
  6
CONTINUOUS
 62
  250
 10
239.84359999999998
 20
112.626
 11
216.64359999999999
 21
112.626
  0
LINE
  8
_0-1__0-0_0
  6
CONTINUOUS
 62
  250
 10
216.64359999999999
 20
309.92599999999998
 11
217.84360000000003
 21
309.92599999999998
  0
LINE
  8
_0-1__0-0_0
  6
CONTINUOUS
 62
  250
 10
217.84360000000003
 20
309.92599999999998
 11
217.84360000000003
 21
307.92599999999998
  0
LINE
  8
_0-1__0-0_0
  6
CONTINUOUS
 62
  250
 10
216.64359999999999
 20
307.92599999999998
 11
216.64359999999999
 21
309.92599999999998
  0
LINE
  8
_0-1__0-0_0
  6
CONTINUOUS
 62
  250
 10
241.8436
 20
113.82599999999996
 11
241.8436
 21
112.626
  0
LINE
  8
_0-1__0-0_0
  6
CONTINUOUS
 62
  250
 10
239.84359999999998
 20
113.82599999999996
 11
241.8436
 21
113.82599999999996
  0
LINE
  8
_0-1__0-0_0
  6
CONTINUOUS
 62
  250
 10
632.83159999999998
 20
113.42599999999998
 11
632.83159999999998
 21
297.72599999999999
  0
LINE
  8
_0-1__0-0_0
  6
CONTINUOUS
 62
  250
 10
769.83159999999998
 20
113.42599999999998
 11
632.83159999999998
 21
113.42599999999998
  0
LINE
  8
_0-1__0-0_0
  6
CONTINUOUS
 62
  250
 10
769.83159999999998
 20
113.42599999999998
 11
769.83159999999998
 21
112.626
  0
LINE
  8
_0-1__0-0_0
  6
CONTINUOUS
 62
  250
 10
632.03160000000002
 20
297.72599999999999
 11
632.03160000000002
 21
112.626
  0
LINE
  8
_0-1__0-0_0
  6
CONTINUOUS
 62
  250
 10
632.03160000000002
 20
297.72599999999999
 11
632.83159999999998
 21
297.72599999999999
  0
LINE
  8
_0-1__0-0_0
  6
CONTINUOUS
 62
  250
 10
632.03160000000002
 20
112.626
 11
769.83159999999998
 21
112.626
  0
LINE
  8
_0-1__0-0_0
  6
CONTINUOUS
 62
  250
 10
782.83159999999998
 20
112.626
 11
782.83159999999998
 21
113.42599999999998
  0
LINE
  8
_0-1__0-0_0
  6
CONTINUOUS
 62
  250
 10
782.83159999999998
 20
113.42599999999998
 11
769.83159999999998
 21
113.42599999999998
  0
LINE
  8
_0-1__0-0_0
  6
CONTINUOUS
 62
  250
 10
641.83159999999998
 20
297.72599999999999
 11
632.83159999999998
 21
297.72599999999999
  0
LINE
  8
_0-1__0-0_0
  6
CONTINUOUS
 62
  250
 10
769.83159999999998
 20
113.42599999999998
 11
769.83159999999998
 21
189.906
  0
LINE
  8
_0-1__0-0_0
  6
CONTINUOUS
 62
  250
 10
632.03160000000002
 20
309.92599999999998
 11
632.83159999999998
 21
309.92599999999998
  0
LINE
  8
_0-1__0-0_0
  6
CONTINUOUS
 62
  250
 10
632.83159999999998
 20
297.72599999999999
 11
632.83159999999998
 21
309.92599999999998
  0
LINE
  8
_0-1__0-0_0
  6
CONTINUOUS
 62
  250
 10
780.83159999999998
 20
111.42599999999998
 11
780.83159999999998
 21
112.626
  0
LINE
  8
_0-1__0-0_0
  6
CONTINUOUS
 62
  250
 10
780.83159999999998
 20
112.626
 11
782.83159999999998
 21
112.626
  0
LINE
  8
_0-1__0-0_0
  6
CONTINUOUS
 62
  250
 10
782.83159999999998
 20
112.626
 11
782.83159999999998
 21
111.42599999999998
  0
LINE
  8
_0-1__0-0_0
  6
CONTINUOUS
 62
  250
 10
782.83159999999998
 20
111.42599999999998
 11
780.83159999999998
 21
111.42599999999998
  0
LINE
  8
_0-1__0-0_0
  6
CONTINUOUS
 62
  250
 10
608.83159999999998
 20
112.626
 11
608.83159999999998
 21
111.42599999999998
  0
LINE
  8
_0-1__0-0_0
  6
CONTINUOUS
 62
  250
 10
780.83159999999998
 20
112.626
 11
608.83159999999998
 21
112.626
  0
LINE
  8
_0-1__0-0_0
  6
CONTINUOUS
 62
  250
 10
608.83159999999998
 20
111.42599999999998
 11
780.83159999999998
 21
111.42599999999998
  0
LINE
  8
_0-1__0-0_0
  6
CONTINUOUS
 62
  250
 10
606.83159999999998
 20
111.42599999999998
 11
606.83159999999998
 21
112.626
  0
LINE
  8
_0-1__0-0_0
  6
CONTINUOUS
 62
  250
 10
606.83159999999998
 20
112.626
 11
608.83159999999998
 21
112.626
  0
LINE
  8
_0-1__0-0_0
  6
CONTINUOUS
 62
  250
 10
608.83159999999998
 20
111.42599999999998
 11
606.83159999999998
 21
111.42599999999998
  0
LINE
  8
_0-1__0-0_0
  6
CONTINUOUS
 62
  250
 10
632.03160000000002
 20
307.92599999999998
 11
630.83159999999998
 21
307.92599999999998
  0
LINE
  8
_0-1__0-0_0
  6
CONTINUOUS
 62
  250
 10
632.03160000000002
 20
112.626
 11
632.03160000000002
 21
307.92599999999998
  0
LINE
  8
_0-1__0-0_0
  6
CONTINUOUS
 62
  250
 10
608.83159999999998
 20
112.626
 11
632.03160000000002
 21
112.626
  0
LINE
  8
_0-1__0-0_0
  6
CONTINUOUS
 62
  250
 10
608.83159999999998
 20
113.82599999999996
 11
608.83159999999998
 21
112.626
  0
LINE
  8
_0-1__0-0_0
  6
CONTINUOUS
 62
  250
 10
630.83159999999998
 20
113.82599999999996
 11
608.83159999999998
 21
113.82599999999996
  0
LINE
  8
_0-1__0-0_0
  6
CONTINUOUS
 62
  250
 10
630.83159999999998
 20
307.92599999999998
 11
630.83159999999998
 21
113.82599999999996
  0
LINE
  8
_0-1__0-0_0
  6
CONTINUOUS
 62
  250
 10
630.83159999999998
 20
309.92599999999998
 11
632.03160000000002
 21
309.92599999999998
  0
LINE
  8
_0-1__0-0_0
  6
CONTINUOUS
 62
  250
 10
632.03160000000002
 20
309.92599999999998
 11
632.03160000000002
 21
307.92599999999998
  0
LINE
  8
_0-1__0-0_0
  6
CONTINUOUS
 62
  250
 10
630.83159999999998
 20
307.92599999999998
 11
630.83159999999998
 21
309.92599999999998
  0
LINE
  8
_0-1__0-0_0
  6
CONTINUOUS
 62
  250
 10
606.83159999999998
 20
112.626
 11
606.83159999999998
 21
113.82599999999996
  0
LINE
  8
_0-1__0-0_0
  6
CONTINUOUS
 62
  250
 10
606.83159999999998
 20
113.82599999999996
 11
608.83159999999998
 21
113.82599999999996
  0
LINE
  8
_0-1__0-0_0
  6
CONTINUOUS
 62
  250
 10
733.10159999999996
 20
391.19259999999997
 11
583.10159999999996
 21
391.19259999999997
  0
LINE
  8
_0-1__0-0_0
  6
CONTINUOUS
 62
  250
 10
733.10159999999996
 20
390.39260000000001
 11
583.10159999999996
 21
390.39260000000001
  0
LINE
  8
_0-1__0-0_0
  6
CONTINUOUS
 62
  250
 10
733.10159999999996
 20
527.8925999999999
 11
733.10159999999996
 21
390.39260000000001
  0
LINE
  8
_0-1__0-0_0
  6
CONTINUOUS
 62
  250
 10
583.10159999999996
 20
527.8925999999999
 11
733.10159999999996
 21
527.8925999999999
  0
LINE
  8
_0-1__0-0_0
  6
CONTINUOUS
 62
  250
 10
583.10159999999996
 20
390.39260000000001
 11
583.10159999999996
 21
527.8925999999999
  0
LINE
  8
_0-1__0-0_0
  6
CONTINUOUS
 62
  250
 10
572.10159999999996
 20
553.39260000000001
 11
570.10159999999996
 21
551.3925999999999
  0
LINE
  8
_0-1__0-0_0
  6
CONTINUOUS
 62
  250
 10
744.10160000000007
 20
553.39260000000001
 11
572.10159999999996
 21
553.39260000000001
  0
LINE
  8
_0-1__0-0_0
  6
CONTINUOUS
 62
  250
 10
746.10159999999996
 20
551.3925999999999
 11
744.10160000000007
 21
553.39260000000001
  0
LINE
  8
_0-1__0-0_0
  6
CONTINUOUS
 62
  250
 10
746.10159999999996
 20
551.3925999999999
 11
746.10159999999996
 21
379.39260000000001
  0
LINE
  8
_0-1__0-0_0
  6
CONTINUOUS
 62
  250
 10
744.10160000000007
 20
377.39260000000001
 11
572.10159999999996
 21
377.39260000000001
  0
LINE
  8
_0-1__0-0_0
  6
CONTINUOUS
 62
  250
 10
570.10159999999996
 20
379.39260000000001
 11
572.10159999999996
 21
377.39260000000001
  0
LINE
  8
_0-1__0-0_0
  6
CONTINUOUS
 62
  250
 10
744.10160000000007
 20
377.39260000000001
 11
746.10159999999996
 21
379.39260000000001
  0
LINE
  8
_0-1__0-0_0
  6
CONTINUOUS
 62
  250
 10
289.83000000000004
 20
111.42599999999998
 11
289.83000000000004
 21
108.92599999999998
  0
LINE
  8
_0-1__0-0_0
  6
CONTINUOUS
 62
  250
 10
465.82999999999998
 20
111.42599999999998
 11
465.82999999999998
 21
108.92599999999998
  0
LINE
  8
_0-1__0-0_0
  6
PHANTOM2
 62
  250
 10
465.82999999999998
 20
108.92599999999998
 11
289.83000000000004
 21
108.92599999999998
  0
LINE
  8
_0-1__0-0_0
  6
CONTINUOUS
 62
  250
 10
241.8436
 20
111.42599999999998
 11
241.8436
 21
108.92599999999998
  0
LINE
  8
_0-1__0-0_0
  6
CONTINUOUS
 62
  250
 10
65.843600000000037
 20
111.42599999999998
 11
65.843600000000037
 21
108.92599999999998
  0
LINE
  8
_0-1__0-0_0
  6
PHANTOM2
 62
  250
 10
241.8436
 20
108.92599999999998
 11
65.843600000000037
 21
108.92599999999998
  0
LINE
  8
_0-1__0-0_0
  6
CONTINUOUS
 62
  250
 10
606.83159999999998
 20
111.42599999999998
 11
606.83159999999998
 21
108.92599999999998
  0
LINE
  8
_0-1__0-0_0
  6
CONTINUOUS
 62
  250
 10
782.83159999999998
 20
111.42599999999998
 11
782.83159999999998
 21
108.92599999999998
  0
LINE
  8
_0-1__0-0_0
  6
PHANTOM2
 62
  250
 10
606.83159999999998
 20
108.92599999999998
 11
782.83159999999998
 21
108.92599999999998
  0
LINE
  8
_0-1__0-0_0
  6
CONTINUOUS
 62
  250
 10
595.923
 20
221.87459999999998
 11
620.11959999999999
 21
221.87459999999998
  0
LINE
  8
_0-1__0-0_0
  6
CONTINUOUS
 62
  250
 10
620.11959999999999
 20
221.87459999999998
 11
627.5602
 21
222.0712
  0
LINE
  8
_0-1__0-0_0
  6
CONTINUOUS
 62
  250
 10
621.51980000000003
 20
223.5198
 11
627.5602
 21
222.0712
  0
LINE
  8
_0-1__0-0_0
  6
CONTINUOUS
 62
  250
 10
627.5602
 20
222.0712
 11
621.60480000000006
 21
220.30559999999999
  0
LINE
  8
_0-1__0-0_0
  6
CONTINUOUS
 62
  250
 10
627.5602
 20
222.0712
 11
621.56220000000007
 21
221.91259999999999
  0
LINE
  8
_0-3__0-7_
  6
CENTER2
 62
  250
 10
295.33000000000004
 20
281.42599999999998
 11
295.33000000000004
 21
272.42599999999998
  0
LINE
  8
_0-3__0-7_
  6
CENTER2
 62
  250
 10
290.83000000000004
 20
276.92599999999998
 11
299.83000000000004
 21
276.92599999999998
  0
LINE
  8
_0-3__0-7_
  6
CENTER2
 62
  250
 10
322.82999999999998
 20
308.92599999999998
 11
322.82999999999998
 21
299.92599999999998
  0
LINE
  8
_0-3__0-7_
  6
CENTER2
 62
  250
 10
318.32999999999998
 20
304.42599999999998
 11
327.32999999999998
 21
304.42599999999998
  0
LINE
  8
_0-3__0-7_
  6
CENTER2
 62
  250
 10
432.82999999999998
 20
308.92599999999998
 11
432.82999999999998
 21
299.92599999999998
  0
LINE
  8
_0-3__0-7_
  6
CENTER2
 62
  250
 10
428.32999999999998
 20
304.42599999999998
 11
437.32999999999998
 21
304.42599999999998
  0
LINE
  8
_0-3__0-7_
  6
CENTER2
 62
  250
 10
460.32999999999998
 20
281.42599999999998
 11
460.32999999999998
 21
272.42599999999998
  0
LINE
  8
_0-3__0-7_
  6
CENTER2
 62
  250
 10
455.82999999999998
 20
276.92599999999998
 11
464.82999999999998
 21
276.92599999999998
  0
LINE
  8
_0-3__0-7_
  6
CENTER2
 62
  250
 10
460.32999999999998
 20
171.42599999999998
 11
460.32999999999998
 21
162.42599999999998
  0
LINE
  8
_0-3__0-7_
  6
CENTER2
 62
  250
 10
455.82999999999998
 20
166.92599999999998
 11
464.82999999999998
 21
166.92599999999998
  0
LINE
  8
_0-3__0-7_
  6
CENTER2
 62
  250
 10
432.82999999999998
 20
143.92599999999998
 11
432.82999999999998
 21
134.92599999999995
  0
LINE
  8
_0-3__0-7_
  6
CENTER2
 62
  250
 10
428.32999999999998
 20
139.42599999999998
 11
437.32999999999998
 21
139.42599999999998
  0
LINE
  8
_0-3__0-7_
  6
CENTER2
 62
  250
 10
322.82999999999998
 20
143.92599999999998
 11
322.82999999999998
 21
134.92599999999995
  0
LINE
  8
_0-3__0-7_
  6
CENTER2
 62
  250
 10
318.32999999999998
 20
139.42599999999998
 11
327.32999999999998
 21
139.42599999999998
  0
LINE
  8
_0-3__0-7_
  6
CENTER2
 62
  250
 10
295.33000000000004
 20
171.42599999999998
 11
295.33000000000004
 21
162.42599999999998
  0
LINE
  8
_0-3__0-7_
  6
CENTER2
 62
  250
 10
299.83000000000004
 20
166.92599999999998
 11
290.83000000000004
 21
166.92599999999998
  0
LINE
  8
_0-3__0-7_
  6
CENTER2
 62
  250
 10
377.82999999999998
 20
321.80560000000002
 11
377.82999999999998
 21
103.2098
  0
LINE
  8
_0-1__0-0_0
  6
CENTER2
 62
  250
 10
295.33000000000004
 20
404.17420000000004
 11
295.33000000000004
 21
414.17419999999998
  0
LINE
  8
_0-1__0-0_0
  6
CENTER2
 62
  250
 10
300.32999999999998
 20
409.17419999999998
 11
290.33000000000004
 21
409.17419999999998
  0
LINE
  8
_0-1__0-0_0
  6
CONTINUOUS
 62
  250
 10
463.82999999999998
 20
376.17419999999998
 11
465.82999999999998
 21
378.17420000000004
  0
LINE
  8
_0-1__0-0_0
  6
CENTER2
 62
  250
 10
305.82999999999998
 20
377.42419999999998
 11
305.82999999999998
 21
389.92419999999998
  0
LINE
  8
_0-1__0-0_0
  6
CENTER2
 62
  250
 10
299.57999999999998
 20
383.67419999999998
 11
312.07999999999998
 21
383.67419999999998
  0
LINE
  8
_0-1__0-0_0
  6
CENTER2
 62
  250
 10
322.82999999999998
 20
386.67419999999998
 11
322.82999999999998
 21
376.67420000000004
  0
LINE
  8
_0-1__0-0_0
  6
CENTER2
 62
  250
 10
317.83000000000004
 20
381.67420000000004
 11
327.82999999999998
 21
381.67420000000004
  0
LINE
  8
_0-1__0-0_0
  6
CENTER2
 62
  250
 10
432.82999999999998
 20
376.67420000000004
 11
432.82999999999998
 21
386.67419999999998
  0
LINE
  8
_0-1__0-0_0
  6
CENTER2
 62
  250
 10
427.82999999999998
 20
381.67420000000004
 11
437.82999999999998
 21
381.67420000000004
  0
LINE
  8
_0-1__0-0_0
  6
CENTER2
 62
  250
 10
458.32999999999998
 20
385.92419999999998
 11
458.32999999999998
 21
398.42419999999998
  0
LINE
  8
_0-1__0-0_0
  6
CENTER2
 62
  250
 10
452.07999999999998
 20
392.17419999999998
 11
464.57999999999998
 21
392.17419999999998
  0
LINE
  8
_0-1__0-0_0
  6
CENTER2
 62
  250
 10
460.32999999999998
 20
404.17420000000004
 11
460.32999999999998
 21
414.17419999999998
  0
LINE
  8
_0-1__0-0_0
  6
CENTER2
 62
  250
 10
455.32999999999998
 20
409.17419999999998
 11
465.32999999999998
 21
409.17419999999998
  0
LINE
  8
_0-1__0-0_0
  6
CENTER2
 62
  250
 10
295.33000000000004
 20
514.17420000000004
 11
295.33000000000004
 21
524.17420000000004
  0
LINE
  8
_0-1__0-0_0
  6
CENTER2
 62
  250
 10
300.32999999999998
 20
519.17420000000004
 11
290.33000000000004
 21
519.17420000000004
  0
LINE
  8
_0-1__0-0_0
  6
CENTER2
 62
  250
 10
322.82999999999998
 20
541.67420000000004
 11
322.82999999999998
 21
551.67420000000004
  0
LINE
  8
_0-1__0-0_0
  6
CENTER2
 62
  250
 10
317.83000000000004
 20
546.67420000000004
 11
327.82999999999998
 21
546.67420000000004
  0
LINE
  8
_0-1__0-0_0
  6
CENTER2
 62
  250
 10
432.82999999999998
 20
551.67420000000004
 11
432.82999999999998
 21
541.67420000000004
  0
LINE
  8
_0-1__0-0_0
  6
CENTER2
 62
  250
 10
427.82999999999998
 20
546.67420000000004
 11
437.82999999999998
 21
546.67420000000004
  0
LINE
  8
_0-1__0-0_0
  6
CENTER2
 62
  250
 10
449.82999999999998
 20
550.92420000000004
 11
449.82999999999998
 21
544.67420000000004
  0
LINE
  8
_0-1__0-0_0
  6
CENTER2
 62
  250
 10
449.82999999999998
 20
550.92420000000004
 11
449.82999999999998
 21
538.42420000000004
  0
LINE
  8
_0-1__0-0_0
  6
CENTER2
 62
  250
 10
443.57999999999998
 20
544.67420000000004
 11
456.07999999999998
 21
544.67420000000004
  0
LINE
  8
_0-1__0-0_0
  6
CENTER2
 62
  250
 10
460.32999999999998
 20
524.17420000000004
 11
460.32999999999998
 21
514.17420000000004
  0
LINE
  8
_0-1__0-0_0
  6
CENTER2
 62
  250
 10
465.32999999999998
 20
519.17420000000004
 11
455.32999999999998
 21
519.17420000000004
  0
LINE
  8
_0-1__0-0_0
  6
CENTER2
 62
  250
 10
586.10159999999996
 20
539.64260000000001
 11
586.10159999999996
 21
552.1425999999999
  0
LINE
  8
_0-1__0-0_0
  6
CENTER2
 62
  250
 10
579.85159999999996
 20
545.8925999999999
 11
592.35159999999996
 21
545.8925999999999
  0
LINE
  8
_0-1__0-0_0
  6
CENTER2
 62
  250
 10
603.10159999999996
 20
542.8925999999999
 11
603.10159999999996
 21
552.8925999999999
  0
LINE
  8
_0-1__0-0_0
  6
CENTER2
 62
  250
 10
598.10159999999996
 20
547.89260000000001
 11
608.10159999999996
 21
547.89260000000001
  0
LINE
  8
_0-1__0-0_0
  6
CENTER2
 62
  250
 10
575.60159999999996
 20
525.39260000000001
 11
575.60159999999996
 21
515.3925999999999
  0
LINE
  8
_0-1__0-0_0
  6
CENTER2
 62
  250
 10
580.60159999999996
 20
520.3925999999999
 11
570.60159999999996
 21
520.3925999999999
  0
LINE
  8
_0-1__0-0_0
  6
CENTER2
 62
  250
 10
713.10159999999996
 20
552.8925999999999
 11
713.10159999999996
 21
542.8925999999999
  0
LINE
  8
_0-1__0-0_0
  6
CENTER2
 62
  250
 10
708.10159999999996
 20
547.89260000000001
 11
718.10159999999996
 21
547.89260000000001
  0
LINE
  8
_0-1__0-0_0
  6
CENTER2
 62
  250
 10
738.60159999999996
 20
543.64260000000001
 11
738.60159999999996
 21
531.14260000000001
  0
LINE
  8
_0-1__0-0_0
  6
CENTER2
 62
  250
 10
744.85159999999996
 20
537.39260000000001
 11
732.35159999999996
 21
537.39260000000001
  0
LINE
  8
_0-1__0-0_0
  6
CENTER2
 62
  250
 10
740.60159999999996
 20
525.39260000000001
 11
740.60159999999996
 21
515.3925999999999
  0
LINE
  8
_0-1__0-0_0
  6
CENTER2
 62
  250
 10
735.60159999999996
 20
520.3925999999999
 11
745.60159999999996
 21
520.3925999999999
  0
LINE
  8
_0-1__0-0_0
  6
CENTER2
 62
  250
 10
740.60159999999996
 20
415.39260000000001
 11
740.60159999999996
 21
405.39260000000001
  0
LINE
  8
_0-1__0-0_0
  6
CENTER2
 62
  250
 10
735.60159999999996
 20
410.39260000000001
 11
745.60159999999996
 21
410.39260000000001
  0
LINE
  8
_0-1__0-0_0
  6
CENTER2
 62
  250
 10
730.10159999999996
 20
378.64260000000001
 11
730.10159999999996
 21
391.14260000000001
  0
LINE
  8
_0-1__0-0_0
  6
CENTER2
 62
  250
 10
723.85159999999996
 20
384.89260000000001
 11
736.35159999999996
 21
384.89260000000001
  0
LINE
  8
_0-1__0-0_0
  6
CENTER2
 62
  250
 10
713.10159999999996
 20
377.89260000000001
 11
713.10159999999996
 21
387.89260000000001
  0
LINE
  8
_0-1__0-0_0
  6
CENTER2
 62
  250
 10
708.10159999999996
 20
382.89260000000001
 11
718.10159999999996
 21
382.89260000000001
  0
LINE
  8
_0-1__0-0_0
  6
CENTER2
 62
  250
 10
575.60159999999996
 20
415.39260000000001
 11
575.60159999999996
 21
405.39260000000001
  0
LINE
  8
_0-1__0-0_0
  6
CENTER2
 62
  250
 10
580.60159999999996
 20
410.39260000000001
 11
570.60159999999996
 21
410.39260000000001
  0
LINE
  8
_0-1__0-0_0
  6
CENTER2
 62
  250
 10
603.10159999999996
 20
387.89260000000001
 11
603.10159999999996
 21
377.89260000000001
  0
LINE
  8
_0-1__0-0_0
  6
CENTER2
 62
  250
 10
608.10159999999996
 20
382.89260000000001
 11
598.10159999999996
 21
382.89260000000001
  0
LINE
  8
_0-1__0-0_0
  6
CENTER2
 62
  250
 10
733.10159999999996
 20
527.8925999999999
 11
583.10159999999996
 21
390.39260000000001
  0
LINE
  8
_0-1__0-0_0
  6
CENTER2
 62
  250
 10
658.10159999999996
 20
561.03060000000004
 11
658.10159999999996
 21
371.60680000000002
  0
LINE
  8
_0-1__0-0_0
  6
CENTER2
 62
  250
 10
583.10159999999996
 20
527.8925999999999
 11
733.10159999999996
 21
390.39260000000001
  0
LINE
  8
_0-1__0-0_0
  6
CENTER2
 62
  250
 10
377.82999999999998
 20
562.88859999999999
 11
377.82999999999998
 21
369.54779999999999
  0
LINE
  8
_0-1__0-0_0
  6
CENTER2
 62
  250
 10
452.82999999999998
 20
296.92599999999998
 11
302.83000000000004
 21
146.92599999999998
  0
LINE
  8
_0-1__0-0_0
  6
CENTER2
 62
  250
 10
302.83000000000004
 20
296.92599999999998
 11
452.82999999999998
 21
146.92599999999998
  0
LINE
  8
_0-3__0-7_
  6
CONTINUOUS
 62
  250
 10
188.57579999999998
 20
544.55719999999996
 11
242.33719999999999
 21
544.55719999999996
  0
LINE
  8
_0-3__0-7_
  6
CONTINUOUS
 62
  250
 10
139.019
 20
436.4334
 11
237.5318
 21
436.4334
  0
LINE
  8
_0-3__0-7_
  6
CONTINUOUS
 62
  250
 10
138.11799999999999
 20
412.70619999999996
 11
223.41560000000001
 21
412.70619999999996
  0
LINE
  8
_0-3__0-7_
  6
CONTINUOUS
 62
  250
 10
533.269
 20
338.86099999999998
 11
647.7672
 21
338.86099999999998
  0
LINE
  8
_0-3__0-7_
  6
CONTINUOUS
 62
  250
 10
761.50679999999999
 20
439.33119999999996
 11
802.07400000000006
 21
439.33119999999996
  0
LINE
  8
_0-3__0-7_
  6
CONTINUOUS
 62
  250
 10
697.05439999999998
 20
360.85059999999998
 11
771.74340000000006
 21
360.85059999999998
  0
LINE
  8
_0-3__0-7_
  6
CONTINUOUS
 62
  250
 10
717.90660000000002
 20
308.90960000000001
 11
759.23199999999997
 21
308.90960000000001
  0
LINE
  8
_0-3__0-7_
  6
CONTINUOUS
 62
  250
 10
761.50679999999999
 20
439.33119999999996
 11
738.75900000000001
 21
458.66679999999996
  0
LINE
  8
_0-3__0-7_
  6
CONTINUOUS
 62
  250
 10
697.05439999999998
 20
360.85059999999998
 11
673.54819999999995
 21
383.21960000000001
  0
LINE
  8
_0-3__0-7_
  6
CONTINUOUS
 62
  250
 10
717.90660000000002
 20
308.90960000000001
 11
697.4334
 21
285.40339999999997
  0
LINE
  8
_0-3__0-7_
  6
CONTINUOUS
 62
  250
 10
709.63819999999998
 20
203.64839999999998
 11
750.93219999999996
 21
203.64839999999998
  0
LINE
  8
_0-3__0-7_
  6
CONTINUOUS
 62
  250
 10
709.63819999999998
 20
203.64839999999998
 11
685.22879999999997
 21
181.8084
  0
LINE
  8
_0-3__0-7_
  6
CONTINUOUS
 62
  250
 10
533.269
 20
338.86099999999998
 11
549.23379999999997
 21
283.85059999999998
  0
LINE
  8
_0-3__0-7_
  6
CONTINUOUS
 62
  250
 10
242.33719999999999
 20
544.55719999999996
 11
294.06740000000002
 21
520.18939999999997
  0
LINE
  8
_0-3__0-7_
  6
CONTINUOUS
 62
  250
 10
237.5318
 20
436.4334
 11
292.93360000000001
 21
410.42719999999997
  0
LINE
  8
_0-3__0-7_
  6
CONTINUOUS
 62
  250
 10
223.41560000000001
 20
412.70619999999996
 11
236.46500000000003
 21
394.7794
  0
LINE
  8
_0-3__0-7_
  6
CONTINUOUS
 62
  250
 10
381.80860000000001
 20
161.15799999999995
 11
409.04939999999999
 21
161.15799999999995
  0
LINE
  8
_0-3__0-7_
  6
CONTINUOUS
 62
  250
 10
409.04939999999999
 20
161.15799999999995
 11
430.9898
 21
141.43620000000004
  0
LINE
  8
_0-1__0-0_0
  6
DASHED3
 62
  250
 10
574.85619999999994
 20
553.39260000000001
 11
570.10159999999996
 21
548.63779999999997
  0
LINE
  8
_0-1__0-0_0
  6
DASHED3
 62
  250
 10
584.85619999999994
 20
553.39260000000001
 11
570.10159999999996
 21
538.63779999999997
  0
LINE
  8
_0-1__0-0_0
  6
DASHED3
 62
  250
 10
614.85619999999994
 20
553.39260000000001
 11
589.35619999999994
 21
527.8925999999999
  0
LINE
  8
_0-1__0-0_0
  6
DASHED3
 62
  250
 10
604.85619999999994
 20
553.39260000000001
 11
570.10159999999996
 21
518.63779999999997
  0
LINE
  8
_0-1__0-0_0
  6
DASHED3
 62
  250
 10
583.10159999999996
 20
521.63779999999997
 11
570.10159999999996
 21
508.63779999999997
  0
LINE
  8
_0-1__0-0_0
  6
DASHED3
 62
  250
 10
624.85619999999994
 20
553.39260000000001
 11
599.35619999999994
 21
527.8925999999999
  0
LINE
  8
_0-1__0-0_0
  6
DASHED3
 62
  250
 10
634.85619999999994
 20
553.39260000000001
 11
609.35619999999994
 21
527.8925999999999
  0
LINE
  8
_0-1__0-0_0
  6
DASHED3
 62
  250
 10
644.85619999999994
 20
553.39260000000001
 11
619.35619999999994
 21
527.8925999999999
  0
LINE
  8
_0-1__0-0_0
  6
DASHED3
 62
  250
 10
654.85619999999994
 20
553.39260000000001
 11
629.35619999999994
 21
527.8925999999999
  0
LINE
  8
_0-1__0-0_0
  6
DASHED3
 62
  250
 10
664.85619999999994
 20
553.39260000000001
 11
639.35619999999994
 21
527.8925999999999
  0
LINE
  8
_0-1__0-0_0
  6
DASHED3
 62
  250
 10
674.85619999999994
 20
553.39260000000001
 11
649.35619999999994
 21
527.8925999999999
  0
LINE
  8
_0-1__0-0_0
  6
DASHED3
 62
  250
 10
684.85619999999994
 20
553.39260000000001
 11
659.35619999999994
 21
527.8925999999999
  0
LINE
  8
_0-1__0-0_0
  6
DASHED3
 62
  250
 10
694.85619999999994
 20
553.39260000000001
 11
669.35619999999994
 21
527.8925999999999
  0
LINE
  8
_0-1__0-0_0
  6
DASHED3
 62
  250
 10
704.85619999999994
 20
553.39260000000001
 11
679.35619999999994
 21
527.8925999999999
  0
LINE
  8
_0-1__0-0_0
  6
DASHED3
 62
  250
 10
714.85619999999994
 20
553.39260000000001
 11
689.35619999999994
 21
527.8925999999999
  0
LINE
  8
_0-1__0-0_0
  6
DASHED3
 62
  250
 10
724.85619999999994
 20
553.39260000000001
 11
699.35619999999994
 21
527.8925999999999
  0
LINE
  8
_0-1__0-0_0
  6
DASHED3
 62
  250
 10
734.85619999999994
 20
553.39260000000001
 11
709.35619999999994
 21
527.8925999999999
  0
LINE
  8
_0-1__0-0_0
  6
DASHED3
 62
  250
 10
744.47900000000004
 20
553.01520000000004
 11
719.35619999999994
 21
527.8925999999999
  0
LINE
  8
_0-1__0-0_0
  6
DASHED3
 62
  250
 10
746.10159999999996
 20
534.63779999999997
 11
733.10159999999996
 21
521.63779999999997
  0
LINE
  8
_0-1__0-0_0
  6
DASHED3
 62
  250
 10
746.10159999999996
 20
514.63779999999997
 11
733.10159999999996
 21
501.63779999999997
  0
LINE
  8
_0-1__0-0_0
  6
DASHED3
 62
  250
 10
746.10159999999996
 20
544.63779999999997
 11
741.37760000000002
 21
539.91380000000003
  0
LINE
  8
_0-1__0-0_0
  6
DASHED3
 62
  250
 10
736.08039999999994
 20
534.61660000000006
 11
729.35619999999994
 21
527.8925999999999
  0
LINE
  8
_0-1__0-0_0
  6
DASHED3
 62
  250
 10
746.10159999999996
 20
524.63779999999997
 11
742.88159999999993
 21
521.41779999999994
  0
LINE
  8
_0-1__0-0_0
  6
DASHED3
 62
  250
 10
739.57619999999997
 20
518.11239999999997
 11
733.10159999999996
 21
511.63779999999997
  0
LINE
  8
_0-1__0-0_0
  6
DASHED3
 62
  250
 10
594.85619999999994
 20
553.39260000000001
 11
589.30520000000001
 21
547.84159999999997
  0
LINE
  8
_0-1__0-0_0
  6
DASHED3
 62
  250
 10
584.1526
 20
542.68880000000001
 11
570.10159999999996
 21
528.63779999999997
  0
LINE
  8
_0-1__0-0_0
  6
DASHED3
 62
  250
 10
746.10159999999996
 20
504.63779999999997
 11
733.10159999999996
 21
491.63779999999997
  0
LINE
  8
_0-1__0-0_0
  6
DASHED3
 62
  250
 10
746.10159999999996
 20
494.63779999999997
 11
733.10159999999996
 21
481.63779999999997
  0
LINE
  8
_0-1__0-0_0
  6
DASHED3
 62
  250
 10
746.10159999999996
 20
484.63779999999997
 11
733.10159999999996
 21
471.63779999999997
  0
LINE
  8
_0-1__0-0_0
  6
DASHED3
 62
  250
 10
746.10159999999996
 20
474.63779999999997
 11
733.10159999999996
 21
461.63779999999997
  0
LINE
  8
_0-1__0-0_0
  6
DASHED3
 62
  250
 10
746.10159999999996
 20
464.63779999999997
 11
733.10159999999996
 21
451.63779999999997
  0
LINE
  8
_0-1__0-0_0
  6
DASHED3
 62
  250
 10
746.10159999999996
 20
454.63779999999997
 11
733.10159999999996
 21
441.63779999999997
  0
LINE
  8
_0-1__0-0_0
  6
DASHED3
 62
  250
 10
746.10159999999996
 20
444.63779999999997
 11
733.10159999999996
 21
431.63779999999997
  0
LINE
  8
_0-1__0-0_0
  6
DASHED3
 62
  250
 10
746.10159999999996
 20
434.63779999999997
 11
733.10159999999996
 21
421.63779999999997
  0
LINE
  8
_0-1__0-0_0
  6
DASHED3
 62
  250
 10
746.10159999999996
 20
424.63779999999997
 11
733.10159999999996
 21
411.63779999999997
  0
LINE
  8
_0-1__0-0_0
  6
DASHED3
 62
  250
 10
746.10159999999996
 20
404.63779999999997
 11
733.10159999999996
 21
391.63779999999997
  0
LINE
  8
_0-1__0-0_0
  6
DASHED3
 62
  250
 10
583.10159999999996
 20
511.63779999999997
 11
570.10159999999996
 21
498.63779999999997
  0
LINE
  8
_0-1__0-0_0
  6
DASHED3
 62
  250
 10
583.10159999999996
 20
501.63779999999997
 11
570.10159999999996
 21
488.63779999999997
  0
LINE
  8
_0-1__0-0_0
  6
DASHED3
 62
  250
 10
583.10159999999996
 20
491.63779999999997
 11
570.10159999999996
 21
478.63779999999997
  0
LINE
  8
_0-1__0-0_0
  6
DASHED3
 62
  250
 10
583.10159999999996
 20
481.63779999999997
 11
570.10159999999996
 21
468.63779999999997
  0
LINE
  8
_0-1__0-0_0
  6
DASHED3
 62
  250
 10
583.10159999999996
 20
471.63779999999997
 11
570.10159999999996
 21
458.63779999999997
  0
LINE
  8
_0-1__0-0_0
  6
DASHED3
 62
  250
 10
583.10159999999996
 20
461.63779999999997
 11
570.10159999999996
 21
448.63779999999997
  0
LINE
  8
_0-1__0-0_0
  6
DASHED3
 62
  250
 10
583.10159999999996
 20
451.63779999999997
 11
570.10159999999996
 21
438.63779999999997
  0
LINE
  8
_0-1__0-0_0
  6
DASHED3
 62
  250
 10
583.10159999999996
 20
441.63779999999997
 11
570.10159999999996
 21
428.63779999999997
  0
LINE
  8
_0-1__0-0_0
  6
DASHED3
 62
  250
 10
583.10159999999996
 20
431.63779999999997
 11
570.10159999999996
 21
418.63780000000002
  0
LINE
  8
_0-1__0-0_0
  6
DASHED3
 62
  250
 10
583.10159999999996
 20
421.63779999999997
 11
570.10159999999996
 21
408.63779999999997
  0
LINE
  8
_0-1__0-0_0
  6
DASHED3
 62
  250
 10
583.10159999999996
 20
411.63779999999997
 11
570.10159999999996
 21
398.63780000000002
  0
LINE
  8
_0-1__0-0_0
  6
DASHED3
 62
  250
 10
583.10159999999996
 20
401.63779999999997
 11
570.10159999999996
 21
388.63780000000002
  0
LINE
  8
_0-1__0-0_0
  6
DASHED3
 62
  250
 10
583.10159999999996
 20
391.63779999999997
 11
570.47900000000004
 21
379.01519999999999
  0
LINE
  8
_0-1__0-0_0
  6
DASHED3
 62
  250
 10
591.85619999999994
 20
390.39260000000001
 11
578.85619999999994
 21
377.39260000000001
  0
LINE
  8
_0-1__0-0_0
  6
DASHED3
 62
  250
 10
601.85619999999994
 20
390.39260000000001
 11
588.85619999999994
 21
377.39260000000001
  0
LINE
  8
_0-1__0-0_0
  6
DASHED3
 62
  250
 10
621.85619999999994
 20
390.39260000000001
 11
608.85619999999994
 21
377.39260000000001
  0
LINE
  8
_0-1__0-0_0
  6
DASHED3
 62
  250
 10
631.85619999999994
 20
390.39260000000001
 11
618.85620000000005
 21
377.39260000000001
  0
LINE
  8
_0-1__0-0_0
  6
DASHED3
 62
  250
 10
641.85619999999994
 20
390.39260000000001
 11
628.85619999999994
 21
377.39260000000001
  0
LINE
  8
_0-1__0-0_0
  6
DASHED3
 62
  250
 10
651.85619999999994
 20
390.39260000000001
 11
638.85620000000005
 21
377.39260000000001
  0
LINE
  8
_0-1__0-0_0
  6
DASHED3
 62
  250
 10
661.85619999999994
 20
390.39260000000001
 11
648.85620000000005
 21
377.39260000000001
  0
LINE
  8
_0-1__0-0_0
  6
DASHED3
 62
  250
 10
671.85619999999994
 20
390.39260000000001
 11
658.85619999999994
 21
377.39260000000001
  0
LINE
  8
_0-1__0-0_0
  6
DASHED3
 62
  250
 10
681.85619999999994
 20
390.39260000000001
 11
668.85620000000005
 21
377.39260000000001
  0
LINE
  8
_0-1__0-0_0
  6
DASHED3
 62
  250
 10
691.85619999999994
 20
390.39260000000001
 11
678.85620000000005
 21
377.39260000000001
  0
LINE
  8
_0-1__0-0_0
  6
DASHED3
 62
  250
 10
701.85619999999994
 20
390.39260000000001
 11
688.85619999999994
 21
377.39260000000001
  0
LINE
  8
_0-1__0-0_0
  6
DASHED3
 62
  250
 10
711.85619999999994
 20
390.39260000000001
 11
698.85620000000005
 21
377.39260000000001
  0
LINE
  8
_0-1__0-0_0
  6
DASHED3
 62
  250
 10
721.85619999999994
 20
390.39260000000001
 11
715.38159999999993
 21
383.91779999999999
  0
LINE
  8
_0-1__0-0_0
  6
DASHED3
 62
  250
 10
712.07619999999997
 20
380.61239999999997
 11
708.85620000000005
 21
377.39260000000001
  0
LINE
  8
_0-1__0-0_0
  6
DASHED3
 62
  250
 10
731.85619999999994
 20
390.39260000000001
 11
730.10619999999994
 21
388.64260000000001
  0
LINE
  8
_0-1__0-0_0
  6
DASHED3
 62
  250
 10
726.35159999999996
 20
384.88780000000002
 11
718.85619999999994
 21
377.39260000000001
  0
LINE
  8
_0-1__0-0_0
  6
DASHED3
 62
  250
 10
746.10159999999996
 20
394.63779999999997
 11
728.85620000000005
 21
377.39260000000001
  0
LINE
  8
_0-1__0-0_0
  6
DASHED3
 62
  250
 10
746.10159999999996
 20
384.63779999999997
 11
738.85620000000005
 21
377.39260000000001
  0
LINE
  8
_0-1__0-0_0
  6
DASHED3
 62
  250
 10
746.10159999999996
 20
414.63779999999997
 11
742.88159999999993
 21
411.41779999999999
  0
LINE
  8
_0-1__0-0_0
  6
DASHED3
 62
  250
 10
739.57619999999997
 20
408.11239999999997
 11
733.10159999999996
 21
401.63779999999997
  0
LINE
  8
_0-1__0-0_0
  6
DASHED3
 62
  250
 10
611.85619999999994
 20
390.39260000000001
 11
605.38160000000004
 21
383.91779999999999
  0
LINE
  8
_0-1__0-0_0
  6
DASHED3
 62
  250
 10
602.07619999999997
 20
380.61239999999997
 11
598.85619999999994
 21
377.39260000000001
  0
ARC
  8
_0-1__0-0_0
  6
PHANTOM2
 62
  250
 10
579.08040000000005
 20
144.42599999999998
 40
5
 50
0
 51
90.000000000000028
  0
CIRCLE
  8
_0-1__0-0_0
  6
CONTINUOUS
 62
  250
 10
295.33000000000004
 20
276.92599999999998
 40
2
  0
CIRCLE
  8
_0-2__0-2_
  6
CONTINUOUS
 62
  250
 10
548.56040000000007
 20
43
 40
6.0309999999999996
  0
CIRCLE
  8
_0-2__0-2_
  6
CONTINUOUS
 62
  250
 10
548.56040000000007
 20
43
 40
2.8128000000000001
  0
CIRCLE
  8
_0-3__0-7_
  6
CONTINUOUS
 62
  250
 10
491.82999999999998
 20
546.67420000000004
 40
0.7500000000000001
  0
CIRCLE
  8
_0-3__0-7_
  6
CONTINUOUS
 62
  250
 10
491.82999999999998
 20
546.67420000000004
 40
0.7500000000000001
  0
CIRCLE
  8
_0-3__0-7_
  6
CONTINUOUS
 62
  250
 10
251.83000000000004
 20
381.67420000000004
 40
0.7500000000000001
  0
CIRCLE
  8
_0-3__0-7_
  6
CONTINUOUS
 62
  250
 10
251.83000000000004
 20
381.67420000000004
 40
0.7500000000000001
  0
CIRCLE
  8
_0-3__0-7_
  6
CONTINUOUS
 62
  250
 10
215.8436
 20
327.92599999999998
 40
0.7500000000000001
  0
CIRCLE
  8
_0-3__0-7_
  6
CONTINUOUS
 62
  250
 10
215.8436
 20
327.92599999999998
 40
0.7500000000000001
  0
ARC
  8
_0-3__0-7_
  6
CONTINUOUS
 62
  250
 10
198.22720000000003
 20
332.15919999999999
 40
9.4659999999999993
 50
153.43500000000003
 51
206.56500000000002
  0
ARC
  8
_0-3__0-7_
  6
CONTINUOUS
 62
  250
 10
185.52719999999996
 20
332.15919999999999
 40
9.4659999999999993
 50
333.43500000000011
 51
26.565000000000107
  0
CIRCLE
  8
_0-3__0-7_
  6
CONTINUOUS
 62
  250
 10
215.8436
 20
327.92599999999998
 40
0.7500000000000001
  0
CIRCLE
  8
_0-3__0-7_
  6
CONTINUOUS
 62
  250
 10
215.8436
 20
327.92599999999998
 40
0.7500000000000001
  0
CIRCLE
  8
_0-3__0-7_
  6
CONTINUOUS
 62
  250
 10
460.32999999999998
 20
360.17419999999998
 40
0.7500000000000001
  0
CIRCLE
  8
_0-3__0-7_
  6
CONTINUOUS
 62
  250
 10
460.32999999999998
 20
360.17419999999998
 40
0.7500000000000001
  0
CIRCLE
  8
_0-3__0-7_
  6
CONTINUOUS
 62
  250
 10
460.32999999999998
 20
360.17419999999998
 40
0.7500000000000001
  0
CIRCLE
  8
_0-3__0-7_
  6
CONTINUOUS
 62
  250
 10
460.32999999999998
 20
360.17419999999998
 40
0.7500000000000001
  0
CIRCLE
  8
_0-3__0-7_
  6
CONTINUOUS
 62
  250
 10
251.83000000000004
 20
381.67420000000004
 40
0.7500000000000001
  0
CIRCLE
  8
_0-3__0-7_
  6
CONTINUOUS
 62
  250
 10
251.83000000000004
 20
381.67420000000004
 40
0.7500000000000001
  0
CIRCLE
  8
_0-3__0-7_
  6
CONTINUOUS
 62
  250
 10
491.82999999999998
 20
546.67420000000004
 40
0.7500000000000001
  0
CIRCLE
  8
_0-3__0-7_
  6
CONTINUOUS
 62
  250
 10
491.82999999999998
 20
546.67420000000004
 40
0.7500000000000001
  0
CIRCLE
  8
_0-1__0-0_0
  6
CONTINUOUS
 62
  250
 10
432.82999999999998
 20
139.42599999999998
 40
2
  0
CIRCLE
  8
_0-1__0-0_0
  6
CONTINUOUS
 62
  250
 10
432.82999999999998
 20
304.42599999999998
 40
2
  0
CIRCLE
  8
_0-1__0-0_0
  6
CONTINUOUS
 62
  250
 10
460.32999999999998
 20
166.92599999999998
 40
2
  0
CIRCLE
  8
_0-1__0-0_0
  6
CONTINUOUS
 62
  250
 10
460.32999999999998
 20
276.92599999999998
 40
2
  0
CIRCLE
  8
_0-1__0-0_0
  6
CONTINUOUS
 62
  250
 10
295.33000000000004
 20
166.92599999999998
 40
2
  0
CIRCLE
  8
_0-1__0-0_0
  6
CONTINUOUS
 62
  250
 10
322.82999999999998
 20
304.42599999999998
 40
2
  0
CIRCLE
  8
_0-1__0-0_0
  6
CONTINUOUS
 62
  250
 10
322.82999999999998
 20
139.42599999999998
 40
2
  0
CIRCLE
  8
_0-1__0-0_0
  6
CONTINUOUS
 62
  250
 10
449.82999999999998
 20
544.67420000000004
 40
3.75
  0
CIRCLE
  8
_0-1__0-0_0
  6
CONTINUOUS
 62
  250
 10
432.82999999999998
 20
546.67420000000004
 40
2.5
  0
CIRCLE
  8
_0-1__0-0_0
  6
CONTINUOUS
 62
  250
 10
322.82999999999998
 20
546.67420000000004
 40
2.5
  0
CIRCLE
  8
_0-1__0-0_0
  6
CONTINUOUS
 62
  250
 10
460.32999999999998
 20
409.17419999999998
 40
2.5
  0
CIRCLE
  8
_0-1__0-0_0
  6
CONTINUOUS
 62
  250
 10
460.32999999999998
 20
519.17420000000004
 40
2.5
  0
CIRCLE
  8
_0-1__0-0_0
  6
CONTINUOUS
 62
  250
 10
295.33000000000004
 20
519.17420000000004
 40
2.5
  0
CIRCLE
  8
_0-1__0-0_0
  6
CONTINUOUS
 62
  250
 10
295.33000000000004
 20
409.17419999999998
 40
2.5
  0
ARC
  8
_0-1__0-0_0
  6
CONTINUOUS
 62
  250
 10
206.84359999999998
 20
167.8374
 40
129.88839999999999
 50
90.000000000000028
 51
170.21800000000001
  0
ARC
  8
_0-1__0-0_0
  6
CONTINUOUS
 62
  250
 10
641.83159999999998
 20
167.8374
 40
129.88839999999999
 50
9.7820000000000018
 51
90.000000000000014
  0
CIRCLE
  8
_0-1__0-0_0
  6
CONTINUOUS
 62
  250
 10
586.10159999999996
 20
545.8925999999999
 40
3.75
  0
CIRCLE
  8
_0-1__0-0_0
  6
CONTINUOUS
 62
  250
 10
603.10159999999996
 20
547.89260000000001
 40
2.5
  0
CIRCLE
  8
_0-1__0-0_0
  6
CONTINUOUS
 62
  250
 10
575.60159999999996
 20
520.3925999999999
 40
2.5
  0
CIRCLE
  8
_0-1__0-0_0
  6
CONTINUOUS
 62
  250
 10
575.60159999999996
 20
410.39260000000001
 40
2.5
  0
CIRCLE
  8
_0-1__0-0_0
  6
CONTINUOUS
 62
  250
 10
603.10159999999996
 20
382.89260000000001
 40
2.5
  0
CIRCLE
  8
_0-1__0-0_0
  6
CONTINUOUS
 62
  250
 10
738.60159999999996
 20
537.39260000000001
 40
3.75
  0
CIRCLE
  8
_0-1__0-0_0
  6
CONTINUOUS
 62
  250
 10
713.10159999999996
 20
382.89260000000001
 40
2.5
  0
CIRCLE
  8
_0-1__0-0_0
  6
CONTINUOUS
 62
  250
 10
740.60159999999996
 20
410.39260000000001
 40
2.5
  0
CIRCLE
  8
_0-1__0-0_0
  6
CONTINUOUS
 62
  250
 10
740.60159999999996
 20
520.3925999999999
 40
2.5
  0
CIRCLE
  8
_0-1__0-0_0
  6
CONTINUOUS
 62
  250
 10
713.10159999999996
 20
547.89260000000001
 40
2.5
  0
CIRCLE
  8
_0-1__0-0_0
  6
CONTINUOUS
 62
  250
 10
730.10159999999996
 20
384.89260000000001
 40
3.75
  0
CIRCLE
  8
_0-1__0-0_0
  6
CONTINUOUS
 62
  250
 10
432.82999999999998
 20
139.42599999999998
 40
2.2907999999999999
  0
CIRCLE
  8
_0-1__0-0_0
  6
CONTINUOUS
 62
  250
 10
322.82999999999998
 20
139.42599999999998
 40
2.2907999999999999
  0
CIRCLE
  8
_0-1__0-0_0
  6
CONTINUOUS
 62
  250
 10
295.33000000000004
 20
166.92599999999998
 40
2.2907999999999999
  0
CIRCLE
  8
_0-1__0-0_0
  6
CONTINUOUS
 62
  250
 10
295.33000000000004
 20
276.92599999999998
 40
2.2907999999999999
  0
CIRCLE
  8
_0-1__0-0_0
  6
CONTINUOUS
 62
  250
 10
322.82999999999998
 20
304.42599999999998
 40
2.2907999999999999
  0
CIRCLE
  8
_0-1__0-0_0
  6
CONTINUOUS
 62
  250
 10
432.82999999999998
 20
304.42599999999998
 40
2.2907999999999999
  0
CIRCLE
  8
_0-1__0-0_0
  6
CONTINUOUS
 62
  250
 10
460.32999999999998
 20
276.92599999999998
 40
2.2907999999999999
  0
CIRCLE
  8
_0-1__0-0_0
  6
CONTINUOUS
 62
  250
 10
460.32999999999998
 20
166.92599999999998
 40
2.2907999999999999
  0
CIRCLE
  8
_0-1__0-0_0
  6
CONTINUOUS
 62
  250
 10
432.82999999999998
 20
381.67420000000004
 40
2.5
  0
CIRCLE
  8
_0-1__0-0_0
  6
CONTINUOUS
 62
  250
 10
458.32999999999998
 20
392.17419999999998
 40
3.75
  0
CIRCLE
  8
_0-1__0-0_0
  6
CONTINUOUS
 62
  250
 10
322.82999999999998
 20
381.67420000000004
 40
2.5
  0
CIRCLE
  8
_0-1__0-0_0
  6
CONTINUOUS
 62
  250
 10
305.82999999999998
 20
383.67419999999998
 40
3.75
  0
TEXT
  8
_0-2__0-2_
 62
  250
 10
460.98699999999996
 20
56.657200000000017
 40
5.92666666676
 41
1
 50
0
  1
事
  0
TEXT
  8
_0-2__0-2_
 62
  250
 10
460.91320000000001
 20
64.928599999999988
 40
5.92666666676
 41
1
 50
0
  1
記
  0
TEXT
  8
_0-2__0-2_
 62
  250
 10
576.44380000000001
 20
26.001600000000053
 40
5.92666666676
 41
1
 50
0
  1
尺
  0
TEXT
  8
_0-2__0-2_
 62
  250
 10
576.44380000000001
 20
16.001599999999996
 40
5.92666666676
 41
1
 50
0
  1
度
  0
TEXT
  8
_0-2__0-2_
 62
  250
 10
579.64639999999997
 20
60.349200000000024
 40
5.92666666676
 41
1
 50
0
  1
公差
  0
TEXT
  8
_0-2__0-2_
 62
  250
 10
577.15480000000002
 20
41.219600000000014
 40
4.4449999999999993
 41
1
 50
0
  1
概略重量
  0
TEXT
  8
_0-2__0-2_
 62
  250
 10
636.54439999999999
 20
45.725799999999992
 40
5.92666666676
 41
1
 50
0
  1
種
  0
TEXT
  8
_0-2__0-2_
 62
  250
 10
636.86279999999999
 20
25.096400000000016
 40
5.92666666676
 41
1
 50
0
  1
品
  0
TEXT
  8
_0-2__0-2_
 62
  250
 10
636.54999999999995
 20
15.096400000000016
 40
5.92666666676
 41
1
 50
0
  1
名
  0
TEXT
  8
_0-2__0-2_
 62
  250
 10
636.57539999999994
 20
56.06940000000003
 40
5.92666666676
 41
1
 50
0
  1
機
  0
TEXT
  8
_0-2__0-2_
 62
  250
 10
465.01699999999999
 20
35.474800000000072
 40
5.92666666676
 41
1
 50
0
  1
改訂
  0
TEXT
  8
_0-2__0-2_
 62
  250
 10
532.41719999999997
 20
35.705400000000054
 40
5.92666666676
 41
1
 50
0
  1
置
  0
TEXT
  8
_0-2__0-2_
 62
  250
 10
532.32339999999999
 20
45.425200000000018
 40
5.92666666676
 41
1
 50
0
  1
配
  0
TEXT
  8
_0-3__0-7_
 62
  250
 10
260.80879999999996
 20
347.30000000000001
 40
8.8899999999999987
 41
1
 50
44.999999999999907
  1
4-
  0
TEXT
  8
_0-3__0-7_
 62
  250
 10
266.79560000000003
 20
353.28679999999997
 40
8.8899999999999987
 41
1
 50
45
  1
C
  0
TEXT
  8
_0-3__0-7_
 62
  250
 10
274.37059999999996
 20
360.86180000000001
 40
8.8899999999999987
 41
1
 50
45.000000000000198
  1
2
  0
TEXT
  8
_0-3__0-7_
 62
  250
 10
527.44659999999998
 20
566.41079999999999
 40
9.7999999999999989
 41
1
 50
0
  1
底面図
  0
TEXT
  8
_0-3__0-7_
 62
  250
 10
368.93399999999996
 20
328.07600000000002
 40
8.8899999999999987
 41
1
 50
0
  1
150
  0
TEXT
  8
_0-3__0-7_
 62
  250
 10
368.93399999999996
 20
360.32439999999996
 40
8.8899999999999987
 41
1
 50
0
  1
110
  0
TEXT
  8
_0-3__0-7_
 62
  250
 10
272.08820000000002
 20
455.27840000000003
 40
8.8899999999999987
 41
1
 50
90
  1
110
  0
TEXT
  8
_0-3__0-7_
 62
  250
 10
368.93399999999996
 20
562.32439999999996
 40
8.8899999999999987
 41
1
 50
0
  1
110
  0
TEXT
  8
_0-3__0-7_
 62
  250
 10
491.6798
 20
558.53660000000002
 40
8.8899999999999987
 41
1
 50
90
  1
5.5
  0
TEXT
  8
_0-3__0-7_
 62
  250
 10
434.55079999999998
 20
562.32439999999996
 40
8.8899999999999987
 41
1
 50
0
  1
17
  0
TEXT
  8
_0-3__0-7_
 62
  250
 10
189.77339999999998
 20
544.30259999999998
 40
9.7999999999999989
 41
1
 50
0
  1
取付用孔　8-φ5
  0
TEXT
  8
_0-3__0-7_
 62
  250
 10
139.70420000000001
 20
436.15560000000004
 40
9.7999999999999989
 41
1
 50
0
  1
ｹｰｼﾝｸﾞ固定ﾋﾞｽ逃げ孔　3-φ7.5
  0
TEXT
  8
_0-3__0-7_
 62
  250
 10
139.87
 20
411.42200000000002
 40
9.7999999999999989
 41
1
 50
0
  1
孔芯から18.5を厳守のこと
  0
TEXT
  8
_0-3__0-7_
 62
  250
 10
251.67979999999997
 20
388.96639999999996
 40
8.8899999999999987
 41
1
 50
90
  1
2
  0
TEXT
  8
_0-3__0-7_
 62
  250
 10
225.21140000000002
 20
328.07600000000002
 40
8.8899999999999987
 41
1
 50
0
  1
2
  0
TEXT
  8
_0-3__0-7_
 62
  250
 10
189.76060000000001
 20
328.07600000000002
 40
8.8899999999999987
 41
1
 50
0
  1
9
  0
TEXT
  8
_0-3__0-7_
 62
  250
 10
49.69339999999994
 20
138.79500000000001
 40
8.8899999999999987
 41
1
 50
90
  1
78.48
  0
TEXT
  8
_0-3__0-7_
 62
  250
 10
65.56439999999992
 20
94.992999999999966
 40
8.8899999999999987
 41
1
 50
0
  1
13
  0
TEXT
  8
_0-3__0-7_
 62
  250
 10
144.94760000000007
 20
85.575999999999993
 40
8.8899999999999987
 41
1
 50
0
  1
176
  0
TEXT
  8
_0-3__0-7_
 62
  250
 10
223.0644
 20
94.992999999999966
 40
8.8899999999999987
 41
1
 50
0
  1
24
  0
TEXT
  8
_0-3__0-7_
 62
  250
 10
139.44760000000007
 20
94.992999999999966
 40
8.8899999999999987
 41
1
 50
0
  1
139
  0
TEXT
  8
_0-3__0-7_
 62
  250
 10
268.19240000000002
 20
83.576000000000021
 40
8.8899999999999987
 41
1
 50
0
  1
5.5
  0
TEXT
  8
_0-3__0-7_
 62
  250
 10
364.70080000000001
 20
93.575999999999964
 40
8.8899999999999987
 41
1
 50
0
  1
2-
  0
TEXT
  8
_0-3__0-7_
 62
  250
 10
373.16739999999998
 20
93.575999999999964
 40
8.8899999999999987
 41
1
 50
0
  1
110
  0
TEXT
  8
_0-3__0-7_
 62
  250
 10
364.70080000000001
 20
83.576000000000021
 40
8.8899999999999987
 41
1
 50
0
  1
2-
  0
TEXT
  8
_0-3__0-7_
 62
  250
 10
373.16739999999998
 20
83.576000000000021
 40
8.8899999999999987
 41
1
 50
0
  1
165
  0
TEXT
  8
_0-3__0-7_
 62
  250
 10
470.19240000000002
 20
83.576000000000021
 40
8.8899999999999987
 41
1
 50
0
  1
5.5
  0
TEXT
  8
_0-3__0-7_
 62
  250
 10
442.55079999999998
 20
93.575999999999964
 40
8.8899999999999987
 41
1
 50
0
  1
33
  0
TEXT
  8
_0-3__0-7_
 62
  250
 10
299.55079999999998
 20
93.575999999999964
 40
8.8899999999999987
 41
1
 50
0
  1
33
  0
TEXT
  8
_0-3__0-7_
 62
  250
 10
259.6798
 20
198.805
 40
8.8899999999999987
 41
1
 50
90
  1
198.5
  0
TEXT
  8
_0-3__0-7_
 62
  250
 10
269.6798
 20
119.42160000000004
 40
8.8899999999999987
 41
1
 50
90
  1
35.5
  0
TEXT
  8
_0-3__0-7_
 62
  250
 10
382.61619999999999
 20
160.0628
 40
9.7999999999999989
 41
1
 50
0
  1
8-M4T,P
  0
TEXT
  8
_0-3__0-7_
 62
  250
 10
367.66160000000002
 20
218.87380000000001
 40
9.7999999999999989
 41
1
 50
0
  1
OPEN
  0
TEXT
  8
_0-3__0-7_
 62
  250
 10
475.6798
 20
118.64680000000004
 40
8.8899999999999987
 41
1
 50
90
  1
28
  0
TEXT
  8
_0-3__0-7_
 62
  250
 10
485.6798
 20
129.42160000000004
 40
8.8899999999999987
 41
1
 50
90
  1
55.5
  0
TEXT
  8
_0-3__0-7_
 62
  250
 10
502.43600000000003
 20
154.80500000000003
 40
8.8899999999999987
 41
1
 50
90
  1
110.5
  0
TEXT
  8
_0-3__0-7_
 62
  250
 10
475.6798
 20
208.79680000000001
 40
8.8899999999999987
 41
1
 50
90
  1
2-
  0
TEXT
  8
_0-3__0-7_
 62
  250
 10
475.6798
 20
217.26340000000001
 40
8.8899999999999987
 41
1
 50
90
  1
165
  0
TEXT
  8
_0-3__0-7_
 62
  250
 10
485.6798
 20
208.79680000000001
 40
8.8899999999999987
 41
1
 50
90
  1
2-
  0
TEXT
  8
_0-3__0-7_
 62
  250
 10
485.6798
 20
217.26340000000001
 40
8.8899999999999987
 41
1
 50
90
  1
110
  0
TEXT
  8
_0-3__0-7_
 62
  250
 10
269.6798
 20
213.03
 40
8.8899999999999987
 41
1
 50
90
  1
150
  0
TEXT
  8
_0-3__0-7_
 62
  250
 10
368.93399999999996
 20
337.57920000000001
 40
8.8899999999999987
 41
1
 50
0
  1
176
  0
TEXT
  8
_0-3__0-7_
 62
  250
 10
289.55079999999998
 20
328.07600000000002
 40
8.8899999999999987
 41
1
 50
0
  1
13
  0
TEXT
  8
_0-3__0-7_
 62
  250
 10
307.55079999999998
 20
360.32439999999996
 40
8.8899999999999987
 41
1
 50
0
  1
17
  0
TEXT
  8
_0-3__0-7_
 62
  250
 10
472.19240000000002
 20
360.32439999999996
 40
8.8899999999999987
 41
1
 50
0
  1
5.5
  0
TEXT
  8
_0-3__0-7_
 62
  250
 10
442.57019999999999
 20
360.32439999999996
 40
8.8899999999999987
 41
1
 50
0
  1
2
  0
TEXT
  8
_0-3__0-7_
 62
  250
 10
485.6798
 20
286.64679999999998
 40
8.8899999999999987
 41
1
 50
90
  1
33
  0
TEXT
  8
_0-3__0-7_
 62
  250
 10
452.55079999999998
 20
328.07600000000002
 40
8.8899999999999987
 41
1
 50
0
  1
13
  0
TEXT
  8
_0-3__0-7_
 62
  250
 10
502.43600000000003
 20
259.14679999999998
 40
8.8899999999999987
 41
1
 50
89.999999999998905
  1
88
  0
TEXT
  8
_0-3__0-7_
 62
  250
 10
535.31060000000002
 20
338.06220000000001
 40
9.7999999999999989
 41
1
 50
0
  1
風圧式ﾀﾞﾝﾊﾟｰ(ﾚﾝｼﾞﾌｰﾄﾞ本体に付属)
  0
TEXT
  8
_0-3__0-7_
 62
  250
 10
699.37259999999992
 20
361.20339999999998
 40
9.7999999999999989
 41
1
 50
0
  1
底面ｳﾚﾀﾝｼｰﾄ貼　ｔ2.5
  0
TEXT
  8
_0-3__0-7_
 62
  250
 10
719.66939999999999
 20
309.5412
 40
9.7999999999999989
 41
1
 50
0
  1
鋼板　ｔ0.6
  0
TEXT
  8
_0-3__0-7_
 62
  250
 10
710.93999999999994
 20
203.84239999999999
 40
9.7999999999999989
 41
1
 50
0
  1
鋼板　ｔ0.6
  0
TEXT
  8
_0-3__0-7_
 62
  250
 10
551.95140000000003
 20
377.1132
 40
8.8899999999999987
 41
1
 50
90
  1
13
  0
TEXT
  8
_0-3__0-7_
 62
  250
 10
551.95140000000003
 20
447.27159999999997
 40
8.8899999999999987
 41
1
 50
90
  1
137.5
  0
TEXT
  8
_0-3__0-7_
 62
  250
 10
647.89120000000002
 20
455.69280000000003
 40
9.7999999999999989
 41
1
 50
0
  1
OPEN
  0
TEXT
  8
_0-3__0-7_
 62
  250
 10
762.60180000000013
 20
438.7296
 40
9.7999999999999989
 41
1
 50
0
  1
鋼板　ｔ1.2
  0
TEXT
  8
_0-3__0-7_
 62
  250
 10
242.88859999999996
 20
381.16999999999995
 40
8.8899999999999987
 41
1
 50
90
  1
18.5
  0
TEXT
  8
_0-3__0-7_
 62
  250
 10
251.67979999999997
 20
356.53660000000002
 40
8.8899999999999987
 41
1
 50
90
  1
5.5
  0
TEXT
  8
_0-3__0-7_
 62
  250
 10
253.13059999999998
 20
344.14259999999995
 40
8.8899999999999987
 41
1
 50
-42.912677216787315
  1
2-
  0
TEXT
  8
_0-3__0-7_
 62
  250
 10
259.33139999999997
 20
338.37779999999997
 40
8.8899999999999987
 41
1
 50
-42.912677216787606
  1
C
  0
TEXT
  8
_0-3__0-7_
 62
  250
 10
267.17740000000003
 20
331.08359999999998
 40
8.8899999999999987
 41
1
 50
-42.912677216787706
  1
2
  0
TEXT
  8
_0-3__0-7_
 62
  250
 10
269.6798
 20
296.64679999999998
 40
8.8899999999999987
 41
1
 50
90
  1
13
  0
TEXT
  8
_0-3__0-7_
 62
  250
 10
491.6798
 20
393.89499999999998
 40
8.8899999999999987
 41
1
 50
90
  1
17
  0
TEXT
  8
_0-3__0-7_
 62
  250
 10
491.6798
 20
529.61380000000008
 40
8.8899999999999987
 41
1
 50
90
  1
2
  0
TEXT
  8
_0-3__0-7_
 62
  250
 10
491.6798
 20
455.27840000000003
 40
8.8899999999999987
 41
1
 50
90
  1
110
  0
TEXT
  8
_0-3__0-7_
 62
  250
 10
552.0086
 20
530.88819999999998
 40
8.8899999999999987
 41
1
 50
90
  1
25.5
  0
TEXT
  8
_0-3__0-7_
 62
  250
 10
569.82240000000001
 20
567.54259999999999
 40
8.8899999999999987
 41
1
 50
0
  1
13
  0
TEXT
  8
_0-3__0-7_
 62
  250
 10
732.82240000000001
 20
567.54259999999999
 40
8.8899999999999987
 41
1
 50
0
  1
13
  0
TEXT
  8
_0-3__0-7_
 62
  250
 10
649.2056
 20
567.54259999999999
 40
8.8899999999999987
 41
1
 50
0
  1
150
  0
TEXT
  8
_0-3__0-7_
 62
  250
 10
483.94759999999996
 20
44.557999999999992
 40
8.8899999999999987
 41
1
 50
0
  1
2014.02.27
  0
TEXT
  8
_0-3__0-7_
 62
  250
 10
609.6923999999999
 20
39.090599999999994
 40
8.8899999999999987
 41
1
 50
0
  1
--
  0
TEXT
  8
_0-3__0-7_
 62
  250
 10
700.92219999999997
 20
44.377799999999979
 40
13.334999999999999
 41
1
 50
0
  1
LCD-150
  0
TEXT
  8
_0-3__0-7_
 62
  250
 10
702.01240000000007
 20
16.911000000000001
 40
13.334999999999999
 41
1
 50
0
  1
L型ﾀﾞｸﾄ
  0
TEXT
  8
_0-3__0-7_
 62
  250
 10
609.6923999999999
 20
60.347399999999993
 40
8.8899999999999987
 41
1
 50
0
  1
--
  0
TEXT
  8
_0-3__0-7_
 62
  250
 10
592.57900000000006
 20
18.960199999999929
 40
8.8899999999999987
 41
1
 50
0
  1
1/2
  0
TEXT
  8
_0-3__0-7_
 62
  250
 10
469.84280000000001
 20
63.281200000000012
 40
8.8899999999999987
 41
1
 50
0
  1
JWWver20160607
  0
TEXT
  8
_0-3__0-7_
 62
  250
 10
483.67840000000001
 20
33.49939999999998
 40
8.8899999999999987
 41
1
 50
0
  1
2016.06.07
  0
ENDSEC
  0
EOF
