  0
SECTION
  2
HEADER
  9
$ACADVER
  1
AC1009
  9
$INSBASE
 10
0
 20
0
 30
0
  9
$EXTMIN
 10
0
 20
0
  9
$EXTMAX
 10
4200
 20
2970
  9
$LIMMIN
 10
0
 20
0
  9
$LIMMAX
 10
4200
 20
2970
  9
$LTSCALE
 40
10
  0
ENDSEC
  0
SECTION
  2
TABLES
  0
TABLE
  2
LTYPE
 70
     9
  0
LTYPE
  2
CONTINUOUS
 70
    64
  3
実線
 72
    65
 73
     0
 40
0.0
  0
LTYPE
  2
DASHED1
 70
    64
  3
--  --  --  --  --  --  --  --  
 72
    65
 73
     2
 40
2.5
 49
1.25
 49
-1.25
  0
LTYPE
  2
DASHED2
 70
    64
  3
----    ----    ----    ----    
 72
    65
 73
     2
 40
5.0
 49
2.5
 49
-2.5
  0
LTYPE
  2
DASHED3
 70
    64
  3
------  ------  ------  ------  
 72
    65
 73
     2
 40
5.0
 49
3.75
 49
-1.25
  0
LTYPE
  2
CENTER1
 70
    64
  3
----- - ----- - ----- - ----- - 
 72
    65
 73
     4
 40
10.0
 49
6.25
 49
-1.25
 49
1.25
 49
-1.25
  0
LTYPE
  2
CENTER2
 70
    64
  3
----------  --  ----------  --  
 72
    65
 73
     4
 40
20.0
 49
12.5
 49
-2.5
 49
2.5
 49
-2.5
  0
LTYPE
  2
PHANTOM1
 70
    64
  3
--- - - --- - - --- - - --- - - 
 72
    65
 73
     6
 40
10.0
 49
3.25
 49
-1.25
 49
1.25
 49
-1.25
 49
1.25
 49
-1.25
  0
LTYPE
  2
PHANTOM2
 70
    64
  3
--------  -  -  --------  -  -  
 72
    65
 73
     6
 40
20.0
 49
10.0
 49
-2.5
 49
1.25
 49
-2.5
 49
1.25
 49
-2.5
  0
LTYPE
  2
DOT
 70
    64
  3
-   -   -   -   -   -   -   -   
 72
    65
 73
     2
 40
2.5
 49
0.625
 49
-1.875
  0
LTYPE
  2
DUMMY
 70
    64
  3
ダミー
 72
    65
 73
     0
 40
0.0
  0
LTYPE
  2
RAND1
 70
    64
  3
ランダム線1
 72
    65
 73
     4
 40
10.0
 49
1.0
 49
-2.0
 49
3.0
 49
-4.0
  0
LTYPE
  2
RAND2
 70
    64
  3
ランダム線2
 72
    65
 73
     4
 40
14.0
 49
2.0
 49
-3.0
 49
4.0
 49
-5.0
  0
LTYPE
  2
RAND3
 70
    64
  3
ランダム線3
 72
    65
 73
     4
 40
18.0
 49
3.0
 49
-4.0
 49
5.0
 49
-6.0
  0
LTYPE
  2
RAND4
 70
    64
  3
ランダム線4
 72
    65
 73
     4
 40
22.0
 49
4.0
 49
-5.0
 49
6.0
 49
-7.0
  0
LTYPE
  2
RAND5
 70
    64
  3
ランダム線5
 72
    65
 73
     4
 40
26.0
 49
5.0
 49
-6.0
 49
7.0
 49
-8.0
  0
LTYPE
  2
LONG1
 70
    64
  3
----------  --  ----------  --  
 72
    65
 73
     4
 40
40.0
 49
32.5
 49
-2.5
 49
2.5
 49
-2.5
  0
LTYPE
  2
LONG2
 70
    64
  3
--------  -  -  --------  -  -  
 72
    65
 73
     6
 40
40.0
 49
30.0
 49
-2.5
 49
1.25
 49
-2.5
 49
1.25
 49
-2.5
  0
LTYPE
  2
LONG3
 70
    64
  3
+++++++++++++++..+++++++++++++++
 72
    65
 73
     2
 40
40.0
 49
37.5
 49
-2.5
  0
LTYPE
  2
LONG4
 70
    64
  3
+++++++++++++++..+++++++++++++++
 72
    65
 73
     2
 40
80.0
 49
75.0
 49
-5.0
  0
LTYPE
  2
LONG5
 70
    64
  3
----------  --  ----------  --  
 72
    65
 73
     4
 40
60.0
 49
37.5
 49
-7.5
 49
7.5
 49
-7.5
  0
LTYPE
  2
dashed
 70
   64
  3
-------   -------------   ------
 72
   65
 73
    2
 40
7.5
 49
6
 49
-1.5
  0
LTYPE
  2
dashed_spaced
 70
   64
  3
----        --------        ----
 72
   65
 73
    2
 40
12
 49
6
 49
-6
  0
LTYPE
  2
long_dashed_dotted
 70
   64
  3
------------- --- --------------
 72
   65
 73
    4
 40
15.25
 49
12
 49
-1.5
 49
0.25
 49
-1.5
  0
LTYPE
  2
long_dashed_double-dotted
 70
   64
  3
----------- --- --- ------------
 72
   65
 73
    6
 40
17
 49
12
 49
-1.5
 49
0.25
 49
-1.5
 49
0.25
 49
-1.5
  0
LTYPE
  2
long_dashed_triplicate-dotted
 70
   64
  3
--------- --- --- --- ----------
 72
   65
 73
    8
 40
18.75
 49
12
 49
-1.5
 49
0.25
 49
-1.5
 49
0.25
 49
-1.5
 49
0.25
 49
-1.5
  0
LTYPE
  2
dotted
 70
   64
  3
   -       -       -       -    
 72
   65
 73
    2
 40
1.75
 49
0.25
 49
-1.5
  0
LTYPE
  2
chain
 70
   64
  3
-------------- -- --------------
 72
   65
 73
    4
 40
18.5
 49
12
 49
-1.5
 49
3.5
 49
-1.5
  0
LTYPE
  2
chain_double_dash
 70
   64
  3
------------ -- -- -------------
 72
   65
 73
    6
 40
23.5
 49
12
 49
-1.5
 49
3.5
 49
-1.5
 49
3.5
 49
-1.5
  0
LTYPE
  2
dashed_dotted
 70
   64
  3
-----------     -     ----------
 72
   65
 73
    4
 40
9.25
 49
6
 49
-1.5
 49
0.25
 49
-1.5
  0
LTYPE
  2
double-dashed_dotted
 70
   64
  3
------   -----------   -   -----
 72
   65
 73
    6
 40
16.75
 49
6
 49
-1.5
 49
6
 49
-1.5
 49
0.25
 49
-1.5
  0
LTYPE
  2
dashed_double-dotted
 70
   64
  3
---------    -    -    ---------
 72
   65
 73
    6
 40
11
 49
6
 49
-1.5
 49
0.25
 49
-1.5
 49
0.25
 49
-1.5
  0
LTYPE
  2
double-dashed_double-dotted
 70
   64
  3
-----   ---------   -   -   ----
 72
   65
 73
    8
 40
18.5
 49
6
 49
-1.5
 49
6
 49
-1.5
 49
0.25
 49
-1.5
 49
0.25
 49
-1.5
  0
LTYPE
  2
dashed_triplicate-dotted
 70
   64
  3
-------    -    -    -    ------
 72
   65
 73
    8
 40
12.75
 49
6
 49
-1.5
 49
0.25
 49
-1.5
 49
0.25
 49
-1.5
 49
0.25
 49
-1.5
  0
LTYPE
  2
double-dashed_triplicate-dotted
 70
   64
  3
-----  ---------  -  -  -  -----
 72
   65
 73
   10
 40
20.25
 49
6
 49
-1.5
 49
6
 49
-1.5
 49
0.25
 49
-1.5
 49
0.25
 49
-1.5
 49
0.25
 49
-1.5
  0
LTYPE
  2
undefined
 70
   64
  3
--------------------------------
 72
   65
 73
    0
 40
0
  0
LTYPE
  2
_
 70
   64
  3
                                
 72
   65
 73
    0
 40
0
  0
LTYPE
  2
__18
 70
   64
  3
                                
 72
   65
 73
    0
 40
0
  0
LTYPE
  2
__19
 70
   64
  3
                                
 72
   65
 73
    0
 40
0
  0
LTYPE
  2
__20
 70
   64
  3
                                
 72
   65
 73
    0
 40
0
  0
LTYPE
  2
__21
 70
   64
  3
                                
 72
   65
 73
    0
 40
0
  0
LTYPE
  2
__22
 70
   64
  3
                                
 72
   65
 73
    0
 40
0
  0
LTYPE
  2
__23
 70
   64
  3
                                
 72
   65
 73
    0
 40
0
  0
LTYPE
  2
__24
 70
   64
  3
                                
 72
   65
 73
    0
 40
0
  0
LTYPE
  2
__25
 70
   64
  3
                                
 72
   65
 73
    0
 40
0
  0
LTYPE
  2
__26
 70
   64
  3
                                
 72
   65
 73
    0
 40
0
  0
LTYPE
  2
__27
 70
   64
  3
                                
 72
   65
 73
    0
 40
0
  0
LTYPE
  2
__28
 70
   64
  3
                                
 72
   65
 73
    0
 40
0
  0
LTYPE
  2
__29
 70
   64
  3
                                
 72
   65
 73
    0
 40
0
  0
LTYPE
  2
__30
 70
   64
  3
                                
 72
   65
 73
    0
 40
0
  0
LTYPE
  2
__31
 70
   64
  3
                                
 72
   65
 73
    0
 40
0
  0
LTYPE
  2
__32
 70
   64
  3
                                
 72
   65
 73
    0
 40
0
  0
ENDTAB
  0
TABLE
  2
STYLE
  5
3
100
AcDbSymbolTable
 70
     1
  0
STYLE
  5
10
100
AcDbSymbolTableRecord
100
AcDbTextStyleTableRecord
  2
STANDARD
 70
     0
 40
0.0
 41
1.0
 50
0.0
 71
     0
 42
0.2
  3
txt
  4
bigfont.shx
  0
STYLE
  5
26
100
AcDbSymbolTableRecord
100
AcDbTextStyleTableRecord
  2
TATEGAKI
 70
    68
 40
0.0
 41
1.0
 50
0.0
 71
     0
 42
1.0
  3
txt
  4
bigfont.shx
  0
ENDTAB
  0
TABLE
  2
LAYER
 70
   14
  0
LAYER
  2
_1-2_
 70
   64
 62
    7
  6
CONTINUOUS
  0
LAYER
  2
_1-3_
 70
   64
 62
    7
  6
CONTINUOUS
  0
LAYER
  2
_1-4_
 70
   64
 62
    7
  6
CONTINUOUS
  0
LAYER
  2
_1-5_
 70
   64
 62
    7
  6
CONTINUOUS
  0
LAYER
  2
_1-9_
 70
   64
 62
    7
  6
CONTINUOUS
  0
LAYER
  2
_3-0_
 70
   64
 62
    7
  6
CONTINUOUS
  0
LAYER
  2
_3-1_
 70
   64
 62
    7
  6
CONTINUOUS
  0
LAYER
  2
_e-0_
 70
   64
 62
    7
  6
CONTINUOUS
  0
LAYER
  2
_f-7_
 70
   64
 62
    7
  6
CONTINUOUS
  0
LAYER
  2
_f-8_
 70
   64
 62
    7
  6
CONTINUOUS
  0
LAYER
  2
_f-9_
 70
   64
 62
    7
  6
CONTINUOUS
  0
LAYER
  2
_f-d_固定文字
 70
   64
 62
    7
  6
CONTINUOUS
  0
LAYER
  2
_f-f_図面枠
 70
   64
 62
    7
  6
CONTINUOUS
  0
LAYER
  2
ADD_LINE
 70
   64
 62
    7
  6
CONTINUOUS
  0
ENDTAB
  0
ENDSEC
  0
SECTION
  2
BLOCKS
  0
ENDSEC
  0
SECTION
  2
ENTITIES
  0
LINE
  8
_f-9_
  6
CONTINUOUS
 62
    7
 10
630
 20
120
 11
630
 21
220
  0
LINE
  8
_f-9_
  6
CONTINUOUS
 62
    7
 10
170
 20
120
 11
610
 21
120
  0
LINE
  8
_f-9_
  6
CONTINUOUS
 62
    7
 10
170
 20
220
 11
610
 21
220
  0
LINE
  8
_f-9_
  6
CONTINUOUS
 62
    7
 10
1420
 20
120
 11
1420
 21
220
  0
LINE
  8
_f-9_
  6
CONTINUOUS
 62
    7
 10
2210
 20
120
 11
2210
 21
220
  0
LINE
  8
_f-9_
  6
CONTINUOUS
 62
    7
 10
2220
 20
120
 11
2220
 21
220
  0
LINE
  8
_f-9_
  6
CONTINUOUS
 62
    7
 10
630
 20
120
 11
2210
 21
120
  0
LINE
  8
_f-9_
  6
CONTINUOUS
 62
    7
 10
630
 20
220
 11
2210
 21
220
  0
LINE
  8
_f-9_
  6
CONTINUOUS
 62
    7
 10
2710
 20
120
 11
2710
 21
220
  0
LINE
  8
_f-9_
  6
CONTINUOUS
 62
    7
 10
2720
 20
120
 11
2720
 21
220
  0
LINE
  8
_f-9_
  6
CONTINUOUS
 62
    7
 10
2220
 20
120
 11
2710
 21
120
  0
LINE
  8
_f-9_
  6
CONTINUOUS
 62
    7
 10
2220
 20
220
 11
2710
 21
220
  0
LINE
  8
_f-9_
  6
CONTINUOUS
 62
    7
 10
3020
 20
120
 11
3020
 21
220
  0
LINE
  8
_f-9_
  6
CONTINUOUS
 62
    7
 10
3320
 20
120
 11
3320
 21
220
  0
LINE
  8
_f-9_
  6
CONTINUOUS
 62
    7
 10
3700
 20
120
 11
3700
 21
220
  0
LINE
  8
_f-9_
  6
CONTINUOUS
 62
    7
 10
2720
 20
120
 11
4110
 21
120
  0
LINE
  8
_f-9_
  6
CONTINUOUS
 62
    7
 10
4110
 20
120
 11
4110
 21
220
  0
LINE
  8
_f-9_
  6
CONTINUOUS
 62
    7
 10
2720
 20
220
 11
4110
 21
220
  0
LINE
  8
_f-f_図面枠
  6
CONTINUOUS
 62
  230
 10
4130
 20
2860
 11
4130
 21
100
  0
LINE
  8
_f-f_図面枠
  6
CONTINUOUS
 62
  230
 10
150
 20
2860
 11
4130
 21
2860
  0
LINE
  8
_f-f_図面枠
  6
CONTINUOUS
 62
  230
 10
150
 20
100
 11
4130
 21
100
  0
LINE
  8
_f-f_図面枠
  6
CONTINUOUS
 62
  230
 10
150
 20
100
 11
150
 21
2860
  0
TEXT
  8
_f-8_
 62
    7
 10
3340
 20
187.5
 40
25
 41
0.64
 50
0
  1
ＣＨＥＣＫＥＤ
  0
TEXT
  8
_f-8_
 62
    7
 10
3720
 20
187.5
 40
25
 41
0.64
 50
0
  1
ＳＨＥＥＴ　ＮＯ．
  0
TEXT
  8
_f-8_
 62
    7
 10
3542
 20
187.5
 40
25
 41
0.64
 50
0
  1
ＤＲＡＷＩＮＧ
  0
LINE
  8
_f-9_
  6
CONTINUOUS
 62
    7
 10
170
 20
170
 11
610
 21
170
  0
TEXT
  8
_f-8_
 62
    7
 10
2740.3739840854214
 20
187.46937299484983
 40
25
 41
0.64
 50
0
  1
ＳＣＡＬＥ
  0
TEXT
  8
_f-8_
 62
    7
 10
1445
 20
187.5
 40
25
 41
0.8
 50
0
  1
図面名称
  0
TEXT
  8
_f-8_
 62
    7
 10
655
 20
187.5
 40
25
 41
0.8
 50
0
  1
名　称
  0
LINE
  8
_f-8_
  6
CONTINUOUS
 62
    7
 10
2165
 20
2872
 11
2166.1500000000001
 21
2874.0000000000005
  0
LINE
  8
_f-8_
  6
CONTINUOUS
 62
    7
 10
2158.6399999999999
 20
2877
 11
2165
 21
2866
  0
LINE
  8
_f-8_
  6
CONTINUOUS
 62
    7
 10
2165
 20
2866
 11
2171.3499999999999
 21
2877
  0
LINE
  8
_f-8_
  6
CONTINUOUS
 62
    7
 10
2165
 20
2860
 11
2176.54
 21
2880
  0
LINE
  8
_f-8_
  6
CONTINUOUS
 62
    7
 10
2153.4499999999998
 20
2880
 11
2165
 21
2860
  0
LINE
  8
_f-8_
  6
CONTINUOUS
 62
    7
 10
2176.54
 20
2880
 11
2153.4499999999998
 21
2880
  0
LINE
  8
_f-8_
  6
CONTINUOUS
 62
    7
 10
2163.8400000000001
 20
2874.0000000000005
 11
2165
 21
2872
  0
LINE
  8
_f-8_
  6
CONTINUOUS
 62
    7
 10
2166.1500000000001
 20
2874.0000000000005
 11
2163.8400000000001
 21
2874.0000000000005
  0
LINE
  8
_f-8_
  6
CONTINUOUS
 62
    7
 10
2171.3499999999999
 20
2877
 11
2158.6399999999999
 21
2877
  0
LINE
  8
_f-7_
  6
CONTINUOUS
 62
    7
 10
4160
 20
1462.6794919243114
 11
4160
 21
1497.3205080756886
  0
LINE
  8
_f-7_
  6
CONTINUOUS
 62
    7
 10
4160
 20
1497.3205080756886
 11
4130
 21
1480
  0
LINE
  8
_f-7_
  6
CONTINUOUS
 62
    7
 10
4130
 20
1480
 11
4160
 21
1462.6794919243114
  0
LINE
  8
_f-7_
  6
CONTINUOUS
 62
    7
 10
4155
 20
1471.3397459621556
 11
4155
 21
1488.6602540378444
  0
LINE
  8
_f-7_
  6
CONTINUOUS
 62
    7
 10
4155
 20
1488.6602540378444
 11
4140
 21
1480
  0
LINE
  8
_f-7_
  6
CONTINUOUS
 62
    7
 10
4140
 20
1480
 11
4155
 21
1471.3397459621556
  0
LINE
  8
_f-7_
  6
CONTINUOUS
 62
    7
 10
4151
 20
1478.2679491924309
 11
4151
 21
1481.7320508075691
  0
LINE
  8
_f-7_
  6
CONTINUOUS
 62
    7
 10
4151
 20
1481.7320508075691
 11
4148
 21
1480
  0
LINE
  8
_f-7_
  6
CONTINUOUS
 62
    7
 10
4148
 20
1480
 11
4151
 21
1478.2679491924309
  0
TEXT
  8
_f-d_固定文字
 62
    7
 10
149.98500000000007
 20
65
 40
20
 41
1
 50
0
  1
%f
  0
TEXT
  8
_f-d_固定文字
 62
    7
 10
3990
 20
65.00000323002979
 40
20
 41
1
 50
0
  1
%y
  0
TEXT
  8
_f-d_固定文字
 62
    7
 10
4020
 20
65.00000323002979
 40
20
 41
1
 50
0
  1
．
  0
TEXT
  8
_f-d_固定文字
 62
    7
 10
4050
 20
65.00000323002979
 40
20
 41
1
 50
0
  1
%m
  0
TEXT
  8
_f-d_固定文字
 62
    7
 10
4080
 20
65.00000323002979
 40
20
 41
1
 50
0
  1
．
  0
TEXT
  8
_f-d_固定文字
 62
    7
 10
4110
 20
65.00000323002979
 40
20
 41
1
 50
0
  1
%d
  0
TEXT
  8
_f-8_
 62
    7
 10
709.2799771151706
 20
137.5
 40
45
 41
0.8
 50
0
  1
薄型玄関収納　フロアユニット
  0
TEXT
  8
_f-8_
 62
    7
 10
2861
 20
142.5
 40
35
 41
0.5714285714285714
 50
0
  1
１／５
  0
TEXT
  8
_3-0_
 62
    7
 10
3109.9020215905748
 20
2626.2754053738954
 40
35
 41
0.8571428571428571
 50
0
  1
扉
  0
TEXT
  8
_3-0_
 62
    7
 10
3061.902021590573
 20
2556.2754053738954
 40
35
 41
0.8571428571428571
 50
0
  1
側　　板
  0
TEXT
  8
_3-0_
 62
    7
 10
3045.9020215905766
 20
2696.2754053738954
 40
35
 41
0.8571428571428571
 50
0
  1
カウンター
  0
TEXT
  8
_3-0_
 62
    7
 10
3061.902021590573
 20
2416.2754053738954
 40
35
 41
0.8571428571428571
 50
0
  1
背　　板
  0
TEXT
  8
_3-0_
 62
    7
 10
3439.0223739308753
 20
2768.7754053738954
 40
35
 41
0.8571428571428571
 50
0
  1
仕　　　様
  0
TEXT
  8
_3-0_
 62
    7
 10
3058.4020215905739
 20
2486.2754053738954
 40
35
 41
0.7142857142857143
 50
0
  1
地　　　板
  0
LINE
  8
_3-0_
  6
CONTINUOUS
 62
    3
 10
4096.7327439098572
 20
2818.7754053738954
 11
2994.9020215905748
 21
2818.7754053738954
  0
LINE
  8
_3-0_
  6
CONTINUOUS
 62
    7
 10
4096.7327439098572
 20
2748.7754053738954
 11
2994.9020215905748
 21
2748.7754053738954
  0
LINE
  8
_3-0_
  6
CONTINUOUS
 62
    7
 10
4096.7327439098572
 20
2753.7754053738954
 11
2994.9020215905748
 21
2753.7754053738954
  0
LINE
  8
_3-0_
  6
CONTINUOUS
 62
    7
 10
4096.7327439098572
 20
2608.7754053738954
 11
2994.9020215905748
 21
2608.7754053738954
  0
LINE
  8
_3-0_
  6
CONTINUOUS
 62
    7
 10
2994.9020215905748
 20
2678.7754053738954
 11
4096.7327439098572
 21
2678.7754053738954
  0
LINE
  8
_3-0_
  6
CONTINUOUS
 62
    7
 10
2994.9020215905748
 20
2538.7754053738954
 11
4096.7327439098572
 21
2538.7754053738954
  0
LINE
  8
_3-0_
  6
CONTINUOUS
 62
    7
 10
4096.7327439098572
 20
2258.7754053738954
 11
2994.9020215905748
 21
2258.7754053738954
  0
LINE
  8
_3-0_
  6
CONTINUOUS
 62
    7
 10
4096.7327439098572
 20
2328.7754053738954
 11
2994.9020215905748
 21
2328.7754053738954
  0
LINE
  8
_3-0_
  6
CONTINUOUS
 62
    7
 10
4096.7327439098572
 20
2398.7754053738954
 11
2994.9020215905748
 21
2398.7754053738954
  0
LINE
  8
_3-0_
  6
CONTINUOUS
 62
    7
 10
4096.7327439098572
 20
2258.7754053738954
 11
2994.9020215905748
 21
2258.7754053738954
  0
LINE
  8
_3-0_
  6
CONTINUOUS
 62
    7
 10
4096.7327439098572
 20
2188.7754053738954
 11
2994.9020215905748
 21
2188.7754053738954
  0
LINE
  8
_3-0_
  6
CONTINUOUS
 62
    7
 10
4096.7327439098572
 20
2468.7754053738954
 11
2994.9020215905748
 21
2468.7754053738954
  0
TEXT
  8
_3-0_
 62
    7
 10
3061.902021590573
 20
2346.2754053738954
 40
35
 41
0.8571428571428571
 50
0
  1
棚　　板
  0
TEXT
  8
_3-0_
 62
    7
 10
3061.902021590573
 20
2276.2754053738954
 40
35
 41
0.8571428571428571
 50
0
  1
丁　　番
  0
TEXT
  8
_3-0_
 62
    7
 10
3061.9020215905757
 20
2206.2754053738954
 40
35
 41
0.8571428571428571
 50
0
  1
把　　手
  0
LINE
  8
_3-0_
  6
CONTINUOUS
 62
    3
 10
2994.9020215905748
 20
2818.7754053738954
 11
2994.9020215905748
 21
2188.7754053738954
  0
LINE
  8
_3-0_
  6
CONTINUOUS
 62
    7
 10
3254.9020215905748
 20
2748.7754053738954
 11
3254.9020215905748
 21
2188.7754053738954
  0
LINE
  8
_3-0_
  6
CONTINUOUS
 62
    3
 10
4096.7327439098572
 20
2818.7754053738954
 11
4096.7327439098572
 21
2188.7754053738954
  0
LINE
  8
_1-2_
  6
CONTINUOUS
 62
    4
 10
2754.2451504302744
 20
2440.9980162151551
 11
2754.2451504302744
 21
640.9980162151553
  0
LINE
  8
_1-2_
  6
DASHED1
 62
    9
 10
2754.2451504302744
 20
2440.9980162151551
 11
2754.2451504302744
 21
2462.9980162151551
  0
LINE
  8
_1-2_
  6
CONTINUOUS
 62
    5
 10
2759.2451504302744
 20
640.9980162151553
 11
2379.245150430274
 21
640.9980162151553
  0
LINE
  8
_1-2_
  6
CONTINUOUS
 62
    4
 10
2379.245150430274
 20
2440.9980162151551
 11
2379.245150430274
 21
640.9980162151553
  0
POINT
  8
_1-9_
 62
    3
 10
2759.2451504302744
 20
2680.9980162151555
  0
LINE
  8
_1-4_
  6
CONTINUOUS
 62
    4
 10
2753.8938418479493
 20
2188.9652128300386
 11
2628.1740088171728
 21
1777.7541677659335
  0
CIRCLE
  8
_1-4_
  6
CONTINUOUS
 62
    4
 10
2585.7798870239694
 20
1803.2638240829046
 40
4
  0
CIRCLE
  8
_1-4_
  6
CONTINUOUS
 62
    4
 10
2524.5764384127115
 20
1821.9755082963375
 40
4
  0
LINE
  8
_1-4_
  6
CONTINUOUS
 62
    4
 10
2753.8938418479493
 20
2188.9652128300386
 11
2708.2045498519028
 21
2202.9338312073537
  0
LINE
  8
_1-4_
  6
CONTINUOUS
 62
    4
 10
2751.554868210168
 20
2181.314774782335
 11
2705.8655762141211
 21
2195.2833931596497
  0
CIRCLE
  8
_1-4_
  6
CONTINUOUS
 62
    4
 10
2708.503067028556
 20
2081.5423215949995
 40
4
  0
CIRCLE
  8
_1-4_
  6
CONTINUOUS
 62
    4
 10
2738.9097243197202
 20
2180.9980162151551
 40
4
  0
CIRCLE
  8
_1-4_
  6
CONTINUOUS
 62
    4
 10
2651.198098986998
 20
1894.1065656950921
 40
4
  0
LINE
  8
_1-4_
  6
CONTINUOUS
 62
    4
 10
2743.9044301624635
 20
2183.6537484201162
 11
2622.8625444072509
 21
1787.7435794514195
  0
LINE
  8
_1-4_
  6
CONTINUOUS
 62
    4
 10
2492.1934162280763
 20
1844.5558324718147
 11
2684.8487092617006
 21
2193.4749834760146
  0
LINE
  8
_1-4_
  6
CONTINUOUS
 62
    4
 10
2499.1967802078375
 20
1840.6889339308441
 11
2691.8520713288535
 21
2189.608085519787
  0
ARC
  8
_1-4_
  6
CONTINUOUS
 62
    4
 10
2509.7018246364332
 20
1834.8885844991496
 40
12.000000000000002
 50
151.09476799999999
 51
253.00000000000003
  0
ARC
  8
_1-4_
  6
CONTINUOUS
 62
    4
 10
2702.3571157574488
 20
2183.807736088093
 40
20
 50
73
 51
151.09476799999999
  0
ARC
  8
_1-4_
  6
CONTINUOUS
 62
    4
 10
2702.3571157574488
 20
2183.807736088093
 40
12.000000000000002
 50
73
 51
151.09476799999999
  0
ARC
  8
_1-4_
  6
CONTINUOUS
 62
    4
 10
2509.7018246364332
 20
1834.8885844991496
 40
20
 50
151.09496500000003
 51
253.00000000000003
  0
LINE
  8
_1-4_
  6
CONTINUOUS
 62
    4
 10
2628.1740088171728
 20
1777.7541677659335
 11
2484.7282954227176
 21
1821.6099234743438
  0
LINE
  8
_1-4_
  6
CONTINUOUS
 62
    4
 10
2487.0672690604993
 20
1829.260361522048
 11
2484.7282954227176
 21
1821.6099234743438
  0
LINE
  8
_1-4_
  6
CONTINUOUS
 62
    4
 10
2630.5129824549549
 20
1785.4046058136378
 11
2506.19336417976
 21
1823.4129274275936
  0
LINE
  8
_1-4_
  6
CONTINUOUS
 62
    4
 10
2490.8924957347899
 20
1828.0908723641835
 11
2487.0672690604993
 21
1829.260361522048
  0
LINE
  8
_1-4_
  6
__20
 62
    4
 10
2516.1461467863642
 20
1824.552823444815
 11
2536.8775069830635
 21
1818.2146942196539
  0
LINE
  8
_1-4_
  6
__20
 62
    4
 10
2573.6737363141974
 20
1806.9650457892449
 11
2596.3176042160967
 21
1800.042120624737
  0
LINE
  8
_1-4_
  6
__20
 62
    4
 10
2637.6496953469109
 20
1898.248728372653
 11
2666.8980295814135
 21
1889.306615215608
  0
LINE
  8
_1-4_
  6
__20
 62
    4
 10
2694.9546633884675
 20
2085.6844842725604
 11
2724.2029976229701
 21
2076.7423711155157
  0
LINE
  8
_1-4_
  6
__20
 62
    4
 10
2725.3613206796326
 20
2185.1401788927164
 11
2754.6096549141348
 21
2176.1980657356712
  0
LINE
  8
_1-4_
  6
__20
 62
    4
 10
2742.8848597203205
 20
2194.0000982490369
 11
2735.2143722677242
 21
2168.9110642796636
  0
LINE
  8
_1-4_
  6
__20
 62
    4
 10
2711.7136843364237
 20
2092.0437776233898
 11
2704.0431968838275
 21
2066.9547436540161
  0
LINE
  8
_1-4_
  6
__20
 62
    4
 10
2654.847538155972
 20
1906.0433433569265
 11
2647.1770507033757
 21
1880.9543093875527
  0
LINE
  8
_1-4_
  6
__20
 62
    4
 10
2590.1092161262563
 20
1817.4244215133979
 11
2582.4387286736601
 21
1792.3353875440243
  0
LINE
  8
_1-4_
  6
__20
 62
    4
 10
2528.9057675149979
 20
1836.1361057268305
 11
2521.2352800624017
 21
1811.0470717574572
  0
LINE
  8
_1-4_
  6
CONTINUOUS
 62
    4
 10
2753.8938418479493
 20
1649.0677628833973
 11
2628.1740088171728
 21
1237.8567178192923
  0
CIRCLE
  8
_1-4_
  6
CONTINUOUS
 62
    4
 10
2585.7798870239694
 20
1263.3663741362634
 40
4
  0
CIRCLE
  8
_1-4_
  6
CONTINUOUS
 62
    4
 10
2524.5764384127115
 20
1282.078058349696
 40
4
  0
LINE
  8
_1-4_
  6
CONTINUOUS
 62
    4
 10
2753.8938418479493
 20
1649.0677628833973
 11
2708.2045498519028
 21
1663.0363812607127
  0
LINE
  8
_1-4_
  6
CONTINUOUS
 62
    4
 10
2751.554868210168
 20
1641.4173248356931
 11
2705.8655762141211
 21
1655.3859432130084
  0
CIRCLE
  8
_1-4_
  6
CONTINUOUS
 62
    4
 10
2708.503067028556
 20
1541.644871648358
 40
4
  0
CIRCLE
  8
_1-4_
  6
CONTINUOUS
 62
    4
 10
2738.9097243197202
 20
1641.1005662685138
 40
4
  0
CIRCLE
  8
_1-4_
  6
CONTINUOUS
 62
    4
 10
2651.198098986998
 20
1354.2091157484506
 40
4
  0
LINE
  8
_1-4_
  6
CONTINUOUS
 62
    4
 10
2743.9044301624635
 20
1643.756298473475
 11
2622.8625444072509
 21
1247.8461295047782
  0
LINE
  8
_1-4_
  6
CONTINUOUS
 62
    4
 10
2492.1934162280763
 20
1304.6583825251732
 11
2684.8487092617006
 21
1653.5775335293729
  0
LINE
  8
_1-4_
  6
CONTINUOUS
 62
    4
 10
2499.1967802078375
 20
1300.7914839842024
 11
2691.8520713288535
 21
1649.7106355731455
  0
ARC
  8
_1-4_
  6
CONTINUOUS
 62
    4
 10
2509.7018246364332
 20
1294.9911345525086
 40
12.000000000000002
 50
151.09476799999999
 51
253.00000000000003
  0
ARC
  8
_1-4_
  6
CONTINUOUS
 62
    4
 10
2702.3571157574488
 20
1643.9102861414517
 40
20
 50
73
 51
151.09476799999999
  0
ARC
  8
_1-4_
  6
CONTINUOUS
 62
    4
 10
2702.3571157574488
 20
1643.9102861414517
 40
12.000000000000002
 50
73
 51
151.09476799999999
  0
ARC
  8
_1-4_
  6
CONTINUOUS
 62
    4
 10
2509.7018246364332
 20
1294.9911345525086
 40
20
 50
151.09496500000003
 51
253.00000000000003
  0
LINE
  8
_1-4_
  6
CONTINUOUS
 62
    4
 10
2628.1740088171728
 20
1237.8567178192923
 11
2484.7282954227176
 21
1281.7124735277025
  0
LINE
  8
_1-4_
  6
CONTINUOUS
 62
    4
 10
2487.0672690604993
 20
1289.362911575407
 11
2484.7282954227176
 21
1281.7124735277025
  0
LINE
  8
_1-4_
  6
CONTINUOUS
 62
    4
 10
2630.5129824549549
 20
1245.5071558669963
 11
2506.19336417976
 21
1283.5154774809521
  0
LINE
  8
_1-4_
  6
CONTINUOUS
 62
    4
 10
2490.8924957347899
 20
1288.1934224175425
 11
2487.0672690604993
 21
1289.362911575407
  0
LINE
  8
_1-4_
  6
__20
 62
    4
 10
2516.1461467863642
 20
1284.6553734981737
 11
2536.8775069830635
 21
1278.3172442730124
  0
LINE
  8
_1-4_
  6
__20
 62
    4
 10
2573.6737363141974
 20
1267.0675958426032
 11
2596.3176042160967
 21
1260.1446706780957
  0
LINE
  8
_1-4_
  6
__20
 62
    4
 10
2637.6496953469109
 20
1358.3512784260117
 11
2666.8980295814135
 21
1349.4091652689665
  0
LINE
  8
_1-4_
  6
__20
 62
    4
 10
2694.9546633884675
 20
1545.7870343259192
 11
2724.2029976229701
 21
1536.8449211688742
  0
LINE
  8
_1-4_
  6
__20
 62
    4
 10
2725.3613206796326
 20
1645.242728946075
 11
2754.6096549141348
 21
1636.3006157890297
  0
LINE
  8
_1-4_
  6
__20
 62
    4
 10
2742.8848597203205
 20
1654.1026483023959
 11
2735.2143722677242
 21
1629.0136143330221
  0
LINE
  8
_1-4_
  6
__20
 62
    4
 10
2711.7136843364237
 20
1552.1463276767483
 11
2704.0431968838275
 21
1527.0572937073748
  0
LINE
  8
_1-4_
  6
__20
 62
    4
 10
2654.847538155972
 20
1366.145893410285
 11
2647.1770507033757
 21
1341.0568594409115
  0
LINE
  8
_1-4_
  6
__20
 62
    4
 10
2590.1092161262563
 20
1277.5269715667566
 11
2582.4387286736601
 21
1252.4379375973831
  0
LINE
  8
_1-4_
  6
__20
 62
    4
 10
2528.9057675149979
 20
1296.2386557801894
 11
2521.2352800624017
 21
1271.1496218108159
  0
LINE
  8
_1-4_
  6
CONTINUOUS
 62
    4
 10
2753.8938418479493
 20
1108.9652128300386
 11
2628.1740088171728
 21
697.75416776593363
  0
CIRCLE
  8
_1-4_
  6
CONTINUOUS
 62
    4
 10
2585.7798870239694
 20
723.26382408290488
 40
4
  0
CIRCLE
  8
_1-4_
  6
CONTINUOUS
 62
    4
 10
2524.5764384127115
 20
741.97550829633747
 40
4
  0
LINE
  8
_1-4_
  6
CONTINUOUS
 62
    4
 10
2753.8938418479493
 20
1108.9652128300386
 11
2708.2045498519028
 21
1122.9338312073539
  0
LINE
  8
_1-4_
  6
CONTINUOUS
 62
    4
 10
2751.554868210168
 20
1101.3147747823346
 11
2705.8655762141211
 21
1115.2833931596499
  0
CIRCLE
  8
_1-4_
  6
CONTINUOUS
 62
    4
 10
2708.503067028556
 20
1001.5423215949994
 40
4
  0
CIRCLE
  8
_1-4_
  6
CONTINUOUS
 62
    4
 10
2738.9097243197202
 20
1100.9980162151553
 40
4
  0
CIRCLE
  8
_1-4_
  6
CONTINUOUS
 62
    4
 10
2651.198098986998
 20
814.10656569509217
 40
4
  0
LINE
  8
_1-4_
  6
CONTINUOUS
 62
    4
 10
2743.9044301624635
 20
1103.6537484201167
 11
2622.8625444072509
 21
707.74357945141969
  0
LINE
  8
_1-4_
  6
CONTINUOUS
 62
    4
 10
2492.1934162280763
 20
764.55583247181471
 11
2684.8487092617006
 21
1113.4749834760144
  0
LINE
  8
_1-4_
  6
CONTINUOUS
 62
    4
 10
2499.1967802078375
 20
760.68893393084397
 11
2691.8520713288535
 21
1109.608085519787
  0
ARC
  8
_1-4_
  6
CONTINUOUS
 62
    4
 10
2509.7018246364332
 20
754.88858449914983
 40
12.000000000000002
 50
151.09476799999999
 51
253.00000000000003
  0
ARC
  8
_1-4_
  6
CONTINUOUS
 62
    4
 10
2702.3571157574488
 20
1103.8077360880932
 40
20
 50
73
 51
151.09476799999999
  0
ARC
  8
_1-4_
  6
CONTINUOUS
 62
    4
 10
2702.3571157574488
 20
1103.8077360880932
 40
12.000000000000002
 50
73
 51
151.09476799999999
  0
ARC
  8
_1-4_
  6
CONTINUOUS
 62
    4
 10
2509.7018246364332
 20
754.88858449914983
 40
20
 50
151.09496500000003
 51
253.00000000000003
  0
LINE
  8
_1-4_
  6
CONTINUOUS
 62
    4
 10
2628.1740088171728
 20
697.75416776593363
 11
2484.7282954227176
 21
741.60992347434399
  0
LINE
  8
_1-4_
  6
CONTINUOUS
 62
    4
 10
2487.0672690604993
 20
749.26036152204813
 11
2484.7282954227176
 21
741.60992347434399
  0
LINE
  8
_1-4_
  6
CONTINUOUS
 62
    4
 10
2630.5129824549549
 20
705.40460581363777
 11
2506.19336417976
 21
743.41292742759356
  0
LINE
  8
_1-4_
  6
CONTINUOUS
 62
    4
 10
2490.8924957347899
 20
748.09087236418361
 11
2487.0672690604993
 21
749.26036152204813
  0
LINE
  8
_1-4_
  6
__20
 62
    4
 10
2516.1461467863642
 20
744.55282344481498
 11
2536.8775069830635
 21
738.21469421965401
  0
LINE
  8
_1-4_
  6
__20
 62
    4
 10
2573.6737363141974
 20
726.96504578924464
 11
2596.3176042160967
 21
720.04212062473709
  0
LINE
  8
_1-4_
  6
__20
 62
    4
 10
2637.6496953469109
 20
818.24872837265298
 11
2666.8980295814135
 21
809.30661521560796
  0
LINE
  8
_1-4_
  6
__20
 62
    4
 10
2694.9546633884675
 20
1005.6844842725606
 11
2724.2029976229701
 21
996.74237111551543
  0
LINE
  8
_1-4_
  6
__20
 62
    4
 10
2725.3613206796326
 20
1105.1401788927162
 11
2754.6096549141348
 21
1096.1980657356712
  0
LINE
  8
_1-4_
  6
__20
 62
    4
 10
2742.8848597203205
 20
1114.0000982490371
 11
2735.2143722677242
 21
1088.9110642796636
  0
LINE
  8
_1-4_
  6
__20
 62
    4
 10
2711.7136843364237
 20
1012.0437776233898
 11
2704.0431968838275
 21
986.95474365401606
  0
LINE
  8
_1-4_
  6
__20
 62
    4
 10
2654.847538155972
 20
826.04334335692658
 11
2647.1770507033757
 21
800.95430938755283
  0
LINE
  8
_1-4_
  6
__20
 62
    4
 10
2590.1092161262563
 20
737.42442151339799
 11
2582.4387286736601
 21
712.33538754402446
  0
LINE
  8
_1-4_
  6
__20
 62
    4
 10
2528.9057675149979
 20
756.13610572683069
 11
2521.2352800624017
 21
731.04707175745716
  0
LINE
  8
_1-9_
  6
CONTINUOUS
 62
    4
 10
2889.2451504302744
 20
640.9980162151553
 11
2779.2451504302744
 21
640.9980162151553
  0
POINT
  8
_1-9_
 62
    3
 10
2959.2451504302744
 20
640.9980162151553
  0
LINE
  8
_1-9_
  6
CONTINUOUS
 62
    4
 10
2969.245150430274
 20
640.9980162151553
 11
2779.2451504302744
 21
640.9980162151553
  0
POINT
  8
_1-9_
 62
    3
 10
2759.2451504302744
 20
520.9980162151553
  0
POINT
  8
_1-9_
 62
    3
 10
2379.245150430274
 20
520.9980162151553
  0
LINE
  8
_1-9_
  6
CONTINUOUS
 62
    4
 10
2759.2451504302744
 20
510.99801621515525
 11
2759.2451504302744
 21
620.9980162151553
  0
LINE
  8
_1-9_
  6
CONTINUOUS
 62
    4
 10
2379.245150430274
 20
510.99801621515525
 11
2379.245150430274
 21
620.9980162151553
  0
LINE
  8
_1-9_
  6
CONTINUOUS
 62
    4
 10
2759.2451504302744
 20
520.9980162151553
 11
2379.245150430274
 21
520.9980162151553
  0
TEXT
  8
_1-9_
 62
    7
 10
2536.145150430274
 20
520.9980162151553
 40
35
 41
0.6285714285714286
 50
0
  1
１９０
  0
LINE
  8
_3-1_
  6
CONTINUOUS
 62
    4
 10
7561.8957878747906
 20
392.29898709259726
 11
7561.8957878747906
 21
322.29898709259703
  0
LINE
  8
_3-1_
  6
CONTINUOUS
 62
    4
 10
7561.8957878747906
 20
322.29898709259703
 11
7811.8957878747906
 21
322.29898709259703
  0
LINE
  8
_3-1_
  6
CONTINUOUS
 62
    4
 10
7811.8957878747906
 20
322.29898709259703
 11
7811.8957878747906
 21
392.29898709259726
  0
LINE
  8
_3-1_
  6
CONTINUOUS
 62
    4
 10
7811.8957878747906
 20
392.29898709259726
 11
7561.8957878747906
 21
392.29898709259726
  0
TEXT
  8
_3-1_
 62
    7
 10
7629.0286590230735
 20
343.58806981479756
 40
30
 41
1
 50
0
  1
断面図
  0
LINE
  8
_3-1_
  6
CONTINUOUS
 62
    4
 10
2710.9690207574713
 20
378.1408733580123
 11
2710.9690207574713
 21
308.1408733580123
  0
LINE
  8
_3-1_
  6
CONTINUOUS
 62
    4
 10
2710.9690207574713
 20
308.1408733580123
 11
2439.1366874877726
 21
308.1408733580123
  0
LINE
  8
_3-1_
  6
CONTINUOUS
 62
    4
 10
2439.1366874877726
 20
378.1408733580123
 11
2710.9690207574713
 21
378.1408733580123
  0
LINE
  8
_3-1_
  6
CONTINUOUS
 62
    4
 10
2439.1366874877726
 20
378.1408733580123
 11
2439.1366874877726
 21
308.1408733580123
  0
TEXT
  8
_3-1_
 62
    7
 10
2525.0528541226217
 20
328.1408733580123
 40
30
 41
1
 50
0
  1
断面図
  0
TEXT
  8
_3-0_
 62
    7
 10
3279.9020215905775
 20
2346.2754053738954
 40
35
 41
0.8571428571428571
 50
0
  1
コーティング網棚　３段
  0
LINE
  8
_1-2_
  6
CONTINUOUS
 62
    4
 10
2754.2451504302744
 20
760.9980162151553
 11
2724.2451504302744
 21
760.9980162151553
  0
LINE
  8
_1-2_
  6
CONTINUOUS
 62
    4
 10
2724.2451504302744
 20
760.9980162151553
 11
2724.2451504302744
 21
670.9980162151553
  0
LINE
  8
_1-2_
  6
CONTINUOUS
 62
    4
 10
2754.2451504302744
 20
760.9980162151553
 11
2724.2451504302744
 21
670.9980162151553
  0
LINE
  8
_1-2_
  6
CONTINUOUS
 62
    5
 10
2759.2451504302744
 20
2488.9980162151551
 11
2759.2451504302744
 21
640.9980162151553
  0
LINE
  8
_1-2_
  6
CONTINUOUS
 62
    4
 10
2754.2451504302744
 20
2410.9980162151551
 11
2379.245150430274
 21
2410.9980162151551
  0
LINE
  8
_1-2_
  6
CONTINUOUS
 62
    5
 10
2759.2451504302744
 20
2488.9980162151551
 11
2339.245150430274
 21
2488.9980162151551
  0
LINE
  8
_1-2_
  6
CONTINUOUS
 62
    5
 10
2339.245150430274
 20
2488.9980162151551
 11
2339.245150430274
 21
2440.9980162151551
  0
LINE
  8
_1-2_
  6
CONTINUOUS
 62
    5
 10
2759.2451504302744
 20
2464.9980162151551
 11
2622.245150430274
 21
2464.9980162151551
  0
LINE
  8
_1-2_
  6
CONTINUOUS
 62
    5
 10
2622.245150430274
 20
2464.9980162151551
 11
2339.245150430274
 21
2464.9980162151551
  0
LINE
  8
_1-2_
  6
CONTINUOUS
 62
    5
 10
2476.2451504302744
 20
2440.9980162151551
 11
2339.245150430274
 21
2440.9980162151551
  0
LINE
  8
_1-2_
  6
CONTINUOUS
 62
    5
 10
2759.2451504302744
 20
2440.9980162151551
 11
2622.245150430274
 21
2440.9980162151551
  0
LINE
  8
_1-2_
  6
CONTINUOUS
 62
    4
 10
2379.245150430274
 20
2440.9980162151551
 11
2754.2451504302744
 21
2440.9980162151551
  0
LINE
  8
_1-2_
  6
CONTINUOUS
 62
    4
 10
2724.2451504302744
 20
2410.9980162151551
 11
2724.2451504302744
 21
2320.9980162151551
  0
LINE
  8
_1-2_
  6
CONTINUOUS
 62
    4
 10
2754.2451504302744
 20
2320.9980162151551
 11
2724.2451504302744
 21
2320.9980162151551
  0
LINE
  8
_1-2_
  6
CONTINUOUS
 62
    4
 10
2754.2451504302744
 20
2410.9980162151551
 11
2724.2451504302744
 21
2320.9980162151551
  0
LINE
  8
_1-3_
  6
CONTINUOUS
 62
    3
 10
2371.245150430274
 20
662.9980162151553
 11
2347.245150430274
 21
662.9980162151553
  0
LINE
  8
_1-3_
  6
CONTINUOUS
 62
    3
 10
2347.245150430274
 20
2434.9980162151551
 11
2347.245150430274
 21
662.9980162151553
  0
LINE
  8
_1-3_
  6
CONTINUOUS
 62
    3
 10
2371.245150430274
 20
2434.9980162151551
 11
2371.245150430274
 21
662.9980162151553
  0
LINE
  8
_1-3_
  6
CONTINUOUS
 62
    3
 10
2347.245150430274
 20
2434.9980162151551
 11
2371.245150430274
 21
2434.9980162151551
  0
POINT
  8
_1-9_
 62
    3
 10
2959.2451504302744
 20
670.9980162151553
  0
LINE
  8
_1-9_
  6
CONTINUOUS
 62
    4
 10
2969.245150430274
 20
670.9980162151553
 11
2779.2451504302744
 21
670.9980162151553
  0
LINE
  8
_1-2_
  6
CONTINUOUS
 62
    5
 10
2754.2451504302744
 20
670.9980162151553
 11
2379.245150430274
 21
670.9980162151553
  0
POINT
  8
_1-9_
 62
    3
 10
2169.245150430274
 20
2434.9980162151551
  0
LINE
  8
_1-9_
  6
CONTINUOUS
 62
    4
 10
2159.245150430274
 20
2434.9980162151551
 11
2269.245150430274
 21
2434.9980162151551
  0
POINT
  8
_1-9_
 62
    3
 10
2169.245150430274
 20
668.99801621515508
  0
LINE
  8
_1-9_
  6
CONTINUOUS
 62
    4
 10
2159.245150430274
 20
668.99801621515508
 11
2269.245150430274
 21
668.99801621515508
  0
LINE
  8
_1-3_
  6
CONTINUOUS
 62
    4
 10
2169.245150430274
 20
2434.9980162151551
 11
2169.245150430274
 21
668.99801621515508
  0
TEXT
  8
_1-9_
 62
    7
 10
2169.2451504302735
 20
1518.8980162151552
 40
35
 41
0.6285714285714286
 50
90
  1
８８３
  0
POINT
  8
_1-9_
 62
    3
 10
2169.245150430274
 20
2440.9980162151551
  0
POINT
  8
_1-9_
 62
    3
 10
2169.245150430274
 20
2488.9980162151551
  0
LINE
  8
_1-9_
  6
CONTINUOUS
 62
    4
 10
2159.245150430274
 20
2440.9980162151551
 11
2269.245150430274
 21
2440.9980162151551
  0
LINE
  8
_1-9_
  6
CONTINUOUS
 62
    4
 10
2159.245150430274
 20
2488.9980162151551
 11
2269.245150430274
 21
2488.9980162151551
  0
LINE
  8
_1-9_
  6
CONTINUOUS
 62
    4
 10
2169.245150430274
 20
2440.9980162151551
 11
2169.245150430274
 21
2488.9980162151551
  0
TEXT
  8
_1-9_
 62
    7
 10
2169.245150430274
 20
2492.0916356466296
 40
35
 41
0.6285714285714286
 50
90
  1
２４
  0
LINE
  8
_1-9_
  6
CONTINUOUS
 62
    4
 10
2169.245150430274
 20
2488.9980162151551
 11
2169.245150430274
 21
2533.2374699711522
  0
POINT
  8
_1-9_
 62
    3
 10
2959.2451504302744
 20
640.9980162151553
  0
POINT
  8
_1-9_
 62
    3
 10
2959.2451504302744
 20
670.9980162151553
  0
LINE
  8
_1-9_
  6
CONTINUOUS
 62
    4
 10
2969.2451504302744
 20
640.9980162151553
 11
2779.2451504302744
 21
640.9980162151553
  0
LINE
  8
_1-9_
  6
CONTINUOUS
 62
    4
 10
2969.2451504302744
 20
670.9980162151553
 11
2779.2451504302744
 21
670.9980162151553
  0
LINE
  8
_1-9_
  6
CONTINUOUS
 62
    4
 10
2959.2451504302744
 20
640.9980162151553
 11
2959.2451504302744
 21
670.9980162151553
  0
TEXT
  8
_1-9_
 62
    7
 10
2959.2451504302744
 20
592.74565306252373
 40
35
 41
0.6285714285714286
 50
90
  1
１５
  0
LINE
  8
_1-9_
  6
CONTINUOUS
 62
    4
 10
2959.2451504302744
 20
640.9980162151553
 11
2959.2451504302744
 21
591.82999232735722
  0
POINT
  8
_1-9_
 62
    3
 10
2959.2451504302744
 20
670.9980162151553
  0
POINT
  8
_1-9_
 62
    3
 10
2959.2451504302744
 20
2440.9980162151551
  0
LINE
  8
_1-9_
  6
CONTINUOUS
 62
    4
 10
2969.2451504302744
 20
670.9980162151553
 11
2779.2451504302744
 21
670.9980162151553
  0
LINE
  8
_1-9_
  6
CONTINUOUS
 62
    4
 10
2969.2451504302744
 20
2440.9980162151551
 11
2779.2451504302744
 21
2440.9980162151551
  0
LINE
  8
_1-9_
  6
CONTINUOUS
 62
    4
 10
2959.2451504302744
 20
670.9980162151553
 11
2959.2451504302744
 21
2440.9980162151551
  0
TEXT
  8
_1-9_
 62
    7
 10
2959.2451504302744
 20
1522.8980162151552
 40
35
 41
0.6285714285714286
 50
90
  1
８８５
  0
POINT
  8
_1-9_
 62
    3
 10
2759.2451504302744
 20
2688.9980162151551
  0
POINT
  8
_1-9_
 62
    3
 10
2339.245150430274
 20
2688.9980162151551
  0
LINE
  8
_1-9_
  6
CONTINUOUS
 62
    4
 10
2759.2451504302744
 20
2698.9980162151551
 11
2759.2451504302744
 21
2508.9980162151551
  0
LINE
  8
_1-9_
  6
CONTINUOUS
 62
    4
 10
2339.245150430274
 20
2698.9980162151551
 11
2339.245150430274
 21
2508.9980162151551
  0
LINE
  8
_1-9_
  6
CONTINUOUS
 62
    4
 10
2759.2451504302744
 20
2688.9980162151551
 11
2339.245150430274
 21
2688.9980162151551
  0
TEXT
  8
_1-9_
 62
    7
 10
2516.145150430274
 20
2688.9980162151551
 40
35
 41
0.6285714285714286
 50
0
  1
２１０
  0
TEXT
  8
_3-1_
 62
    7
 10
3279.9020215905748
 20
2696.2754053738954
 40
35
 41
0.8571428571428571
 50
0
  1
メラミン化粧パ－ティクルボ－ド　２４ｔ
  0
TEXT
  8
_3-0_
 62
    7
 10
3279.9020215905739
 20
2626.2754053738954
 40
35
 41
0.8571428571428571
 50
0
  1
両面化粧パーティクルボード　１２ｔ
  0
TEXT
  8
_3-1_
 62
    7
 10
3279.9020215905748
 20
2556.2754053738954
 40
35
 41
0.8571428571428571
 50
0
  1
メラミン化粧パ－ティクルボ－ド　１２ｔ
  0
TEXT
  8
_3-0_
 62
    7
 10
3279.9020215905748
 20
2416.2754053738954
 40
35
 41
0.8571428571428571
 50
0
  1
カラーＭＤＦ　２．５ｔ
  0
TEXT
  8
_3-0_
 62
    7
 10
3279.9020215905748
 20
2206.2754053738954
 40
35
 41
0.8571428571428571
 50
0
  1
アルミ一文字把手
  0
LINE
  8
_3-0_
  6
CONTINUOUS
 62
    3
 10
2994.9020215905748
 20
2188.7754053738954
 11
4096.7327439098572
 21
2188.7754053738954
  0
LINE
  8
_1-2_
  6
CONTINUOUS
 62
    5
 10
1052.4210123669584
 20
2488.9980162151551
 11
1052.4210123669584
 21
640.9980162151553
  0
LINE
  8
_1-2_
  6
DASHED1
 62
    2
 10
1076.4210123669584
 20
2440.9980162151551
 11
1076.4210123669584
 21
640.99801621515508
  0
POINT
  8
_1-9_
 62
    3
 10
809.06060606060635
 20
640.99801621515508
  0
LINE
  8
_1-9_
  6
CONTINUOUS
 62
    4
 10
799.06060606060635
 20
640.99801621515508
 11
989.06060606060623
 21
640.99801621515508
  0
POINT
  8
_1-9_
 62
    3
 10
889.06060606060623
 20
2440.9980162151551
  0
LINE
  8
_1-9_
  6
CONTINUOUS
 62
    4
 10
879.06060606060623
 20
2440.9980162151551
 11
989.06060606060623
 21
2440.9980162151551
  0
POINT
  8
_1-9_
 62
    3
 10
889.06060606060623
 20
640.99801621515508
  0
LINE
  8
_1-9_
  6
CONTINUOUS
 62
    4
 10
879.06060606060623
 20
640.99801621515508
 11
989.06060606060623
 21
640.99801621515508
  0
LINE
  8
_1-3_
  6
CONTINUOUS
 62
    4
 10
889.06060606060623
 20
2440.9980162151551
 11
889.06060606060623
 21
640.99801621515508
  0
TEXT
  8
_1-9_
 62
    7
 10
889.06060606060623
 20
1507.8980162151552
 40
35
 41
0.6285714285714286
 50
90
  1
９００
  0
POINT
  8
_1-9_
 62
    3
 10
809.06060606060635
 20
2488.9980162151551
  0
LINE
  8
_1-9_
  6
CONTINUOUS
 62
    4
 10
799.06060606060635
 20
2488.9980162151551
 11
989.06060606060623
 21
2488.9980162151551
  0
LINE
  8
_1-9_
  6
CONTINUOUS
 62
    4
 10
879.06060606060623
 20
2488.9980162151551
 11
989.06060606060623
 21
2488.9980162151551
  0
POINT
  8
_1-9_
 62
    3
 10
809.06060606060635
 20
640.99801621515508
  0
POINT
  8
_1-9_
 62
    3
 10
809.06060606060635
 20
2488.9980162151551
  0
LINE
  8
_1-9_
  6
CONTINUOUS
 62
    4
 10
799.06060606060635
 20
640.99801621515508
 11
989.06060606060623
 21
640.99801621515508
  0
LINE
  8
_1-9_
  6
CONTINUOUS
 62
    4
 10
799.06060606060635
 20
2488.9980162151551
 11
989.06060606060623
 21
2488.9980162151551
  0
LINE
  8
_1-9_
  6
CONTINUOUS
 62
    4
 10
809.06060606060635
 20
640.99801621515508
 11
809.06060606060635
 21
2488.9980162151551
  0
TEXT
  8
_1-9_
 62
    7
 10
809.06060606060635
 20
1531.8980162151552
 40
35
 41
0.6285714285714286
 50
90
  1
９２４
  0
LINE
  8
_1-3_
  6
CONTINUOUS
 62
    3
 10
1057.4210123669584
 20
2434.9980162151551
 11
1057.4210123669584
 21
662.9980162151553
  0
POINT
  8
_1-9_
 62
    3
 10
1052.4210123669584
 20
440.99801621515525
  0
LINE
  8
_1-9_
  6
CONTINUOUS
 62
    4
 10
1052.4210123669584
 20
430.99801621515525
 11
1052.4210123669584
 21
620.9980162151553
  0
POINT
  8
_1-9_
 62
    3
 10
1052.4210123669584
 20
440.99801621515525
  0
LINE
  8
_1-9_
  6
CONTINUOUS
 62
    4
 10
1052.4210123669584
 20
430.99801621515525
 11
1052.4210123669584
 21
620.9980162151553
  0
POINT
  8
_1-9_
 62
    3
 10
1052.4210123669584
 20
440.99801621515525
  0
LINE
  8
_1-9_
  6
CONTINUOUS
 62
    4
 10
1052.4210123669584
 20
430.99801621515525
 11
1052.4210123669584
 21
620.9980162151553
  0
POINT
  8
_1-9_
 62
    3
 10
1052.4210123669584
 20
440.99801621515525
  0
LINE
  8
_1-9_
  6
CONTINUOUS
 62
    4
 10
1052.4210123669584
 20
430.99801621515525
 11
1052.4210123669584
 21
620.9980162151553
  0
POINT
  8
_1-9_
 62
    3
 10
1052.4210123669584
 20
440.99801621515525
  0
LINE
  8
_1-9_
  6
CONTINUOUS
 62
    4
 10
1052.4210123669584
 20
430.99801621515525
 11
1052.4210123669584
 21
620.9980162151553
  0
POINT
  8
_1-9_
 62
    3
 10
1652.4210123669582
 20
440.99801621515525
  0
LINE
  8
_1-9_
  6
CONTINUOUS
 62
    4
 10
1652.4210123669582
 20
430.99801621515525
 11
1652.4210123669582
 21
620.9980162151553
  0
POINT
  8
_1-9_
 62
    3
 10
1652.4210123669582
 20
440.99801621515525
  0
LINE
  8
_1-9_
  6
CONTINUOUS
 62
    4
 10
1652.4210123669582
 20
430.99801621515525
 11
1652.4210123669582
 21
620.9980162151553
  0
LINE
  8
_1-2_
  6
CONTINUOUS
 62
    5
 10
1652.4210123669582
 20
2488.9980162151551
 11
1652.4210123669582
 21
640.9980162151553
  0
LINE
  8
_1-2_
  6
DASHED1
 62
    2
 10
1628.4210123669584
 20
2440.9980162151551
 11
1628.4210123669584
 21
640.99801621515508
  0
POINT
  8
_1-9_
 62
    3
 10
1652.4210123669582
 20
440.99801621515525
  0
LINE
  8
_1-9_
  6
CONTINUOUS
 62
    4
 10
1652.4210123669582
 20
430.99801621515525
 11
1652.4210123669582
 21
620.9980162151553
  0
POINT
  8
_1-9_
 62
    3
 10
1652.4210123669582
 20
440.99801621515525
  0
LINE
  8
_1-9_
  6
CONTINUOUS
 62
    4
 10
1652.4210123669582
 20
430.99801621515525
 11
1652.4210123669582
 21
620.9980162151553
  0
LINE
  8
_1-2_
  6
CONTINUOUS
 62
    5
 10
1052.4210123669584
 20
2488.9980162151551
 11
1652.4210123669582
 21
2488.9980162151551
  0
LINE
  8
_1-2_
  6
CONTINUOUS
 62
    5
 10
1052.4210123669584
 20
2440.9980162151551
 11
1652.4210123669582
 21
2440.9980162151551
  0
LINE
  8
_1-2_
  6
DASHED1
 62
    2
 10
1076.4210123669584
 20
2410.9980162151551
 11
1628.4210123669584
 21
2410.9980162151551
  0
LINE
  8
_1-2_
  6
DASHED1
 62
    5
 10
1076.4210123669584
 20
670.9980162151553
 11
1628.4210123669584
 21
670.9980162151553
  0
LINE
  8
_1-2_
  6
CONTINUOUS
 62
    5
 10
1052.4210123669584
 20
640.9980162151553
 11
1652.4210123669582
 21
640.9980162151553
  0
LINE
  8
_1-3_
  6
CONTINUOUS
 62
    3
 10
1587.4210123669582
 20
2434.9980162151551
 11
1587.4210123669582
 21
662.9980162151553
  0
ARC
  8
_1-5_
  6
CONTINUOUS
 62
    4
 10
1647.421012366957
 20
2428.9980162151542
 40
6.0000000000000009
 50
90
 51
180
  0
LINE
  8
_1-5_
  6
CONTINUOUS
 62
    4
 10
1587.4210123669582
 20
2434.9980162151551
 11
1647.421012366957
 21
2434.9980162151537
  0
ARC
  8
_1-5_
  6
CONTINUOUS
 62
    4
 10
1647.421012366957
 20
668.951449273756
 40
6.0000000000000009
 50
180
 51
270
  0
LINE
  8
_1-5_
  6
CONTINUOUS
 62
    4
 10
1587.421009957538
 20
662.9980162151553
 11
1647.421012366957
 21
662.95144927375634
  0
LINE
  8
_1-5_
  6
CONTINUOUS
 62
    4
 10
1647.421012366957
 20
662.95144927375634
 11
1647.421012366957
 21
663.10079059238194
  0
LINE
  8
_1-5_
  6
CONTINUOUS
 62
    4
 10
1587.4210123669582
 20
2434.9980162151551
 11
1587.4210123669582
 21
662.9980162151553
  0
LINE
  8
_1-5_
  6
CONTINUOUS
 62
    4
 10
1647.421012366957
 20
662.9980162151553
 11
1647.421012366957
 21
2434.9980162151537
  0
LINE
  8
_1-5_
  6
CONTINUOUS
 62
    4
 10
1598.6210123669628
 20
2434.9980162151551
 11
1598.6210123669628
 21
662.9980162151553
  0
LINE
  8
_1-5_
  6
CONTINUOUS
 62
    4
 10
1641.4210123669568
 20
668.951449273756
 11
1641.4210123669568
 21
2428.9980162151542
  0
LINE
  8
_1-3_
  6
CONTINUOUS
 62
    3
 10
1057.4210123669584
 20
662.9980162151553
 11
1587.4210123669582
 21
662.9980162151553
  0
LINE
  8
_1-3_
  6
CONTINUOUS
 62
    3
 10
1057.4210123669584
 20
2434.9980162151551
 11
1587.4210123669582
 21
2434.9980162151551
  0
LINE
  8
_1-3_
  6
CENTER2
 62
    4
 10
1647.421012366957
 20
2434.9980162151537
 11
1057.4210123669584
 21
1548.9980162151551
  0
LINE
  8
_1-3_
  6
CENTER2
 62
    4
 10
1057.4210123669584
 20
1548.9980162151551
 11
1647.421012366957
 21
663.10079059238194
  0
POINT
  8
_1-9_
 62
    3
 10
1052.4210123669584
 20
440.99801621515525
  0
POINT
  8
_1-9_
 62
    3
 10
1652.4210123669582
 20
440.99801621515525
  0
LINE
  8
_1-9_
  6
CONTINUOUS
 62
    4
 10
1052.4210123669584
 20
430.99801621515525
 11
1052.4210123669584
 21
620.9980162151553
  0
LINE
  8
_1-9_
  6
CONTINUOUS
 62
    4
 10
1652.4210123669582
 20
430.99801621515525
 11
1652.4210123669582
 21
620.9980162151553
  0
LINE
  8
_1-9_
  6
CONTINUOUS
 62
    4
 10
1052.4210123669584
 20
440.99801621515525
 11
1652.4210123669582
 21
440.99801621515525
  0
TEXT
  8
_1-9_
 62
    7
 10
1319.3210123669583
 20
440.99801621515525
 40
35
 41
0.6285714285714286
 50
0
  1
３００
  0
TEXT
  8
_3-1_
 62
    7
 10
1300.1581834821775
 20
328.9667061620305
 40
30
 41
1
 50
0
  1
立面図
  0
LINE
  8
_3-1_
  6
CONTINUOUS
 62
    4
 10
1219.2601180604354
 20
378.1408733580123
 11
1219.2601180604354
 21
308.1408733580123
  0
LINE
  8
_3-1_
  6
CONTINUOUS
 62
    4
 10
1219.2601180604354
 20
308.1408733580123
 11
1469.2601180604356
 21
308.1408733580123
  0
LINE
  8
_3-1_
  6
CONTINUOUS
 62
    4
 10
1469.2601180604356
 20
308.1408733580123
 11
1469.2601180604356
 21
378.1408733580123
  0
LINE
  8
_3-1_
  6
CONTINUOUS
 62
    4
 10
1469.2601180604356
 20
378.1408733580123
 11
1219.2601180604354
 21
378.1408733580123
  0
LINE
  8
_1-9_
  6
CONTINUOUS
 62
    4
 10
1057.4210123669584
 20
510.99801621515525
 11
1057.4210123669584
 21
620.9980162151553
  0
LINE
  8
_1-9_
  6
CONTINUOUS
 62
    4
 10
1647.421012366957
 20
510.99801621515525
 11
1647.421012366957
 21
620.9980162151553
  0
LINE
  8
_1-9_
  6
CONTINUOUS
 62
    4
 10
1057.4210123669584
 20
510.99801621515525
 11
1057.4210123669584
 21
620.9980162151553
  0
LINE
  8
_1-9_
  6
CONTINUOUS
 62
    4
 10
1647.4116989842219
 20
510.99801621515525
 11
1647.4116989842219
 21
620.9980162151553
  0
LINE
  8
_1-9_
  6
CONTINUOUS
 62
    4
 10
1057.4210123669584
 20
520.9980162151553
 11
1647.4116989842219
 21
520.9980162151553
  0
TEXT
  8
_1-9_
 62
    7
 10
1319.3163556755899
 20
520.9980162151553
 40
35
 41
0.6285714285714286
 50
0
  1
２９５
  0
TEXT
  8
_3-1_
 62
    7
 10
3279.9020215905748
 20
2486.2754053738954
 40
35
 41
0.8571428571428571
 50
0
  1
片面化粧パ－ティクルボ－ド　１５ｔ
  0
TEXT
  8
_3-0_
 62
    7
 10
3279.9020215905739
 20
2276.2754053738954
 40
35
 41
0.8571428571428571
 50
0
  1
ワンタッチスライド式丁番
  0
LINE
  8
_1-2_
  6
CONTINUOUS
 62
    5
 10
2624.2451504302744
 20
2464.9980162151551
 11
2624.2451504302744
 21
2440.9980162151551
  0
LINE
  8
_1-2_
  6
CONTINUOUS
 62
    5
 10
2474.245150430274
 20
2464.9980162151551
 11
2474.245150430274
 21
2440.9980162151551
  0
TEXT
  8
_f-8_
 62
    7
 10
3040
 20
187.5
 40
25
 41
0.64
 50
0
  1
ＤＡＴＡ
  0
TEXT
  8
_f-8_
 62
    7
 10
1603.9468085106384
 20
138.48623471249596
 40
45
 41
0.6666666666666666
 50
0
  1
ＳＨＯ－３０ＴＦ（左）
  0
TEXT
  8
_f-8_
 62
    7
 10
3043
 20
142.5
 40
35
 41
0.5714285714285714
 50
0
  1
２０２３．０５．０１
  0
TEXT
  8
_f-8_
 62
    7
 10
3582.236992075234
 20
145
 40
30
 41
0.7333333333333333
 50
0
  1
Ｔ．Ｋ
  0
POINT
  8
_1-9_
 62
    3
 10
1057.4210123669584
 20
520.9980162151553
  0
POINT
  8
_1-9_
 62
    3
 10
1057.4210123669584
 20
520.9980162151553
  0
POINT
  8
_1-9_
 62
    3
 10
1647.4116989842219
 20
520.9980162151553
  0
LINE
  8
_e-0_
  6
CONTINUOUS
 62
    7
 10
2243.7859302690863
 20
199.51965480360599
 11
2272.9339284698526
 21
210.12865853712981
  0
LINE
  8
_e-0_
  6
CONTINUOUS
 62
    7
 10
2237.6336615052869
 20
191.95952323799759
 11
2287.5529504706665
 21
210.12865853712896
  0
LINE
  8
_e-0_
  6
CONTINUOUS
 62
    7
 10
2234.2067375789875
 20
185.39133607135255
 11
2263.8643430051366
 21
196.18582166608263
  0
LINE
  8
_e-0_
  6
CONTINUOUS
 62
    7
 10
2232.2119570371697
 20
179.34440646785788
 11
2253.9586582709303
 21
187.25955841042662
  0
LINE
  8
_e-0_
  6
CONTINUOUS
 62
    7
 10
2231.2024514117434
 20
173.65608760649877
 11
2249.4574587956463
 21
180.30036692054921
  0
LINE
  8
_e-0_
  6
CONTINUOUS
 62
    7
 10
2230.9649088875535
 20
168.24874033593801
 11
2249.3748102388386
 21
174.94939644358311
  0
LINE
  8
_e-0_
  6
CONTINUOUS
 62
    7
 10
2231.3837497438626
 20
163.08029707814967
 11
2249.8286640768283
 21
169.79369686893904
  0
LINE
  8
_e-0_
  6
CONTINUOUS
 62
    7
 10
2232.3950068941754
 20
158.12747571767488
 11
2251.2695688182671
 21
164.99725444285843
  0
LINE
  8
_e-0_
  6
CONTINUOUS
 62
    7
 10
2233.9675550564962
 20
153.37894757832998
 11
2253.6625167678699
 21
160.54732740628253
  0
LINE
  8
_e-0_
  6
CONTINUOUS
 62
    7
 10
2236.0955302019183
 20
148.83257832814223
 11
2257.0999104881021
 21
156.47754754152118
  0
LINE
  8
_e-0_
  6
CONTINUOUS
 62
    7
 10
2238.79700892643
 20
144.49494730998822
 11
2261.880116002736
 21
152.89651120014327
  0
LINE
  8
_e-0_
  6
CONTINUOUS
 62
    7
 10
2242.1181877425702
 20
140.38286867935909
 11
2268.9468388985251
 21
150.14769912563821
  0
LINE
  8
_e-0_
  6
CONTINUOUS
 62
    7
 10
2246.1455691824353
 20
136.52782678312661
 11
2284.5651405528206
 21
150.51140717521264
  0
LINE
  8
_e-0_
  6
CONTINUOUS
 62
    7
 10
2251.0351047702798
 20
132.9865833341097
 11
2279.1844822576495
 21
143.23211885263561
  0
LINE
  8
_e-0_
  6
CONTINUOUS
 62
    7
 10
2279.5849322183672
 20
201.90764820482514
 11
2302.1719724714803
 21
210.12865853713066
  0
LINE
  8
_e-0_
  6
CONTINUOUS
 62
    7
 10
2260.5624543087297
 20
189.66314360135101
 11
2313.0511299164637
 21
208.76745915862045
  0
LINE
  8
_e-0_
  6
CONTINUOUS
 62
    7
 10
2273.0696188494735
 20
188.89449034687175
 11
2313.0511299164637
 21
203.44657029624102
  0
LINE
  8
_e-0_
  6
CONTINUOUS
 62
    7
 10
2287.6886408502887
 20
188.89449034687175
 11
2313.0511299164637
 21
198.12568143386159
  0
LINE
  8
_e-0_
  6
CONTINUOUS
 62
    7
 10
2291.8751463425488
 20
185.0973648692667
 11
2313.0511299164637
 21
192.80479257148215
  0
LINE
  8
_e-0_
  6
CONTINUOUS
 62
    7
 10
2291.8751463425488
 20
179.77647600688726
 11
2313.0511299164637
 21
187.48390370910215
  0
LINE
  8
_e-0_
  6
CONTINUOUS
 62
    7
 10
2291.8751463425488
 20
174.45558714450783
 11
2313.0511299164637
 21
182.16301484672272
  0
LINE
  8
_e-0_
  6
CONTINUOUS
 62
    7
 10
2291.8751463425488
 20
169.1346982821284
 11
2313.0511299164637
 21
176.84212598434328
  0
LINE
  8
_e-0_
  6
CONTINUOUS
 62
    7
 10
2291.8008475696452
 20
163.7867668779694
 11
2313.0511299164637
 21
171.52123712196385
  0
LINE
  8
_e-0_
  6
CONTINUOUS
 62
    7
 10
2290.6539909363364
 20
158.04845633809464
 11
2313.0511299164637
 21
166.20034825958413
  0
LINE
  8
_e-0_
  6
CONTINUOUS
 62
    7
 10
2288.3949962857823
 20
151.90536066354696
 11
2313.0511299164637
 21
160.8794593972047
  0
LINE
  8
_e-0_
  6
CONTINUOUS
 62
    7
 10
2284.4003861827632
 20
145.13055262616916
 11
2311.8608666367177
 21
155.1253501300576
  0
LINE
  8
_e-0_
  6
CONTINUOUS
 62
    7
 10
2275.7463468865153
 20
136.65985105378525
 11
2309.0387712913653
 21
148.77730256370853
  0
LINE
  8
_e-0_
  6
CONTINUOUS
 62
    7
 10
2266.9791201478206
 20
128.14795262145822
 11
2304.1703780821813
 21
141.68446348448242
  0
LINE
  8
_e-0_
  6
CONTINUOUS
 62
    7
 10
2282.1376414569663
 20
128.34431431109749
 11
2292.7244583873176
 21
132.19760054937069
  0
LINE
  8
_e-0_
  6
CONTINUOUS
 62
    3
 10
2266.4464672734898
 20
197.5661281967827
 11
2266.4464672734898
 21
197.5661281967827
  0
LINE
  8
_e-0_
  6
CONTINUOUS
 62
    3
 10
2266.4464672734898
 20
197.5661281967827
 11
2262.324473459325
 21
194.75680664380121
  0
LINE
  8
_e-0_
  6
CONTINUOUS
 62
    3
 10
2282.3868421919433
 20
128.14795262145651
 11
2266.9204010401704
 21
128.14795262145651
  0
ARC
  8
_e-0_
  6
CONTINUOUS
 62
    3
 10
2282.3868421919433
 20
133.14795262145651
 40
5
 50
270
 51
286.2039935104566
  0
LINE
  8
_e-0_
  6
CONTINUOUS
 62
    3
 10
2313.2288608412614
 20
210.12865853712896
 11
2313.2288608412614
 21
159.77346730566921
  0
ARC
  8
_e-0_
  6
CONTINUOUS
 62
    3
 10
2271.9221657766448
 20
169.15823653484836
 40
42.5
 50
286.20399351045648
 51
345.50707147989851
  0
ARC
  8
_e-0_
  6
CONTINUOUS
 62
    3
 10
2308.2288608412614
 20
159.77346730566921
 40
5
 50
345.5070714798988
 51
0
  0
ARC
  8
_e-0_
  6
CONTINUOUS
 62
    3
 10
2250.0927387377205
 20
170.4956084628958
 40
40
 50
279.71265316664216
 51
332.69093929010893
  0
ARC
  8
_e-0_
  6
CONTINUOUS
 62
    3
 10
2255.9974857549714
 20
135.99729020443192
 40
5
 50
241.94526281180003
 51
279.71265316664227
  0
ARC
  8
_e-0_
  6
CONTINUOUS
 62
    3
 10
2263.2643122966178
 20
205.12865853712896
 40
5
 50
90
 51
106.0533814378627
  0
LINE
  8
_e-0_
  6
CONTINUOUS
 62
    3
 10
2288.4334989152221
 20
210.12865853712884
 11
2288.4334989152221
 21
210.12865853712884
  0
LINE
  8
_e-0_
  6
CONTINUOUS
 62
    3
 10
2288.4334989152221
 20
210.12865853712884
 11
2278.2181989551914
 21
205.24067691222058
  0
LINE
  8
_e-0_
  6
CONTINUOUS
 62
    3
 10
2278.2181989551914
 20
205.24067691222058
 11
2272.2994583375817
 21
201.44448978984022
  0
LINE
  8
_e-0_
  6
CONTINUOUS
 62
    3
 10
2266.4464672734898
 20
197.56612819678253
 11
2272.2994583375817
 21
201.4444897898403
  0
ARC
  8
_e-0_
  6
CONTINUOUS
 62
    3
 10
2263.2643122966178
 20
205.12865853712896
 40
5
 50
90
 51
106.0533814378627
  0
ARC
  8
_e-0_
  6
CONTINUOUS
 62
    3
 10
2263.2643122966178
 20
205.12865853712896
 40
5
 50
90
 51
106.0533814378627
  0
LINE
  8
_e-0_
  6
CONTINUOUS
 62
    3
 10
2288.4334989152221
 20
210.12865853712896
 11
2263.2643122966178
 21
210.12865853712896
  0
ARC
  8
_e-0_
  6
CONTINUOUS
 62
    3
 10
2273.6342932765642
 20
169.09099082020305
 40
42.5
 50
106.0533814378627
 51
241.94526281180052
  0
ARC
  8
_e-0_
  6
CONTINUOUS
 62
    3
 10
2263.2643122966178
 20
205.12865853712896
 40
5
 50
90
 51
106.0533814378627
  0
LINE
  8
_e-0_
  6
CONTINUOUS
 62
    3
 10
2299.1719829458552
 20
210.12865853712896
 11
2313.2288608412614
 21
210.12865853712896
  0
ARC
  8
_e-0_
  6
CONTINUOUS
 62
    3
 10
2299.1719829458552
 20
205.12865853712896
 40
5
 50
90
 51
112.8455272152833
  0
LINE
  8
_e-0_
  6
CONTINUOUS
 62
    3
 10
2292.0528772673465
 20
188.89449034687004
 11
2269.0173546029673
 21
188.89449034687004
  0
ARC
  8
_e-0_
  6
CONTINUOUS
 62
    3
 10
2269.0173546029673
 20
183.89449034687004
 40
5
 50
90
 51
110.93110431809542
  0
ARC
  8
_e-0_
  6
CONTINUOUS
 62
    3
 10
2254.2292662802574
 20
177.70386452217394
 40
0.5
 50
165.368776721252
 51
224.67319701305797
  0
LINE
  8
_e-0_
  6
CONTINUOUS
 62
    3
 10
2253.8737020580625
 20
177.3523334653737
 11
2253.6837582739272
 21
177.54445650133448
  0
ARC
  8
_e-0_
  6
CONTINUOUS
 62
    3
 10
2276.1622566207875
 20
165.21427688032361
 40
25
 50
110.93110431809528
 51
150.17701829297229
  0
ARC
  8
_e-0_
  6
CONTINUOUS
 62
    3
 10
2254.0393224961217
 20
177.89598755813472
 40
0.5
 50
224.67319701305652
 51
330.17701829297562
  0
LINE
  8
_e-0_
  6
CONTINUOUS
 62
    3
 10
2297.2307430642559
 20
209.73643324104927
 11
2283.5233941157549
 21
203.96157353985984
  0
LINE
  8
_e-0_
  6
CONTINUOUS
 62
    3
 10
2283.5233941157549
 20
203.96157353985984
 11
2277.114528385443
 21
200.4613679180602
  0
ARC
  8
_e-0_
  6
CONTINUOUS
 62
    3
 10
2277.9347719955745
 20
171.51524603489747
 40
25
 50
126.05682261028305
 51
165.36877672125814
  0
ARC
  8
_e-0_
  6
CONTINUOUS
 62
    3
 10
2322.0287923520791
 20
111.11536133502739
 40
100
 50
116.68868989749241
 51
126.03335467187628
  0
LINE
  8
_e-0_
  6
CONTINUOUS
 62
    3
 10
2262.3244734593245
 20
194.7568066438013
 11
2262.3244734593245
 21
194.7568066438013
  0
LINE
  8
_e-0_
  6
CONTINUOUS
 62
    3
 10
2262.3244734593245
 20
194.7568066438013
 11
2254.3560414411386
 21
187.50185893935441
  0
LINE
  8
_e-0_
  6
CONTINUOUS
 62
    3
 10
2254.3560414411386
 20
187.50185893935441
 11
2252.5108960046537
 21
185.36863764275498
  0
ARC
  8
_e-0_
  6
CONTINUOUS
 62
    3
 10
2274.5493829743446
 20
174.5520307550089
 40
25
 50
169.07329675873063
 51
296.321383266618
  0
LINE
  8
_e-0_
  6
CONTINUOUS
 62
    3
 10
2252.5108960046541
 20
185.36863764275483
 11
2252.5108960046541
 21
185.36863764275483
  0
LINE
  8
_e-0_
  6
CONTINUOUS
 62
    3
 10
2252.5108960046541
 20
185.36863764275483
 11
2250.0026210661131
 21
179.29085759512347
  0
LINE
  8
_e-0_
  6
CONTINUOUS
 62
    3
 10
2292.0528772673465
 20
188.89449034687004
 11
2292.0528772673465
 21
164.42425885831653
  0
ARC
  8
_e-0_
  6
CONTINUOUS
 62
    3
 10
2277.2840925230507
 20
144.130909833072
 40
5
 50
311.4163090429962
 51
326.13300916724882
  0
ARC
  8
_e-0_
  6
CONTINUOUS
 62
    3
 10
2252.285941088533
 20
168.73596234419836
 40
40
 50
316.78132524618343
 51
353.81191653224226
  0
ARC
  8
_e-0_
  6
CONTINUOUS
 62
    3
 10
2240.9001979970053
 20
185.376663785662
 40
60
 50
294.69555798319504
 51
311.41630904299643
  0
ARC
  8
_e-0_
  6
CONTINUOUS
 62
    3
 10
2271.9268153318699
 20
202.9806715079161
 40
75
 50
264.68313230529077
 51
266.17253517307824
  0
ARC
  8
_e-0_
  6
CONTINUOUS
 62
    3
 10
2265.0233680716156
 20
128.80121063143832
 40
0.5
 50
174.02086603460467
 51
264.68313230528986
  0
ARC
  8
_e-0_
  6
CONTINUOUS
 62
    3
 10
2267.0124878650104
 20
128.59287809071873
 40
2.5
 50
114.69555798319523
 51
174.02086603461154
  0
LINE
  8
_e-0_
  6
CONTINUOUS
 62
    7
 10
2376.8899919095943
 20
169.43032024062035
 11
2388.2618909747962
 21
173.56935300743345
  0
LINE
  8
_e-0_
  6
CONTINUOUS
 62
    3
 10
2436.2585234464268
 20
162.6331249251939
 11
2436.2585234464268
 21
136.49018622829544
  0
CIRCLE
  8
_e-0_
  6
CONTINUOUS
 62
    3
 10
2365.5167430510387
 20
162.46293449130519
 40
13.337737955830651
  0
CIRCLE
  8
_e-0_
  6
CONTINUOUS
 62
    3
 10
2365.2330256036635
 20
162.17921704393007
 40
25.691707563897666
  0
LINE
  8
_e-0_
  6
CONTINUOUS
 62
    3
 10
2399.4939617252576
 20
188.26250382114978
 11
2399.4939617252576
 21
136.49018622829544
  0
LINE
  8
_e-0_
  6
CONTINUOUS
 62
    3
 10
2399.4939617252576
 20
136.49018622829544
 11
2414.8569307536691
 21
136.49018622829544
  0
LINE
  8
_e-0_
  6
CONTINUOUS
 62
    3
 10
2414.8569307536691
 20
136.49018622829544
 11
2414.8569307536691
 21
172.6331249251939
  0
LINE
  8
_e-0_
  6
CONTINUOUS
 62
    3
 10
2451.1774760289304
 20
136.49018622829544
 11
2436.2585234464268
 21
136.49018622829544
  0
LINE
  8
_e-0_
  6
CONTINUOUS
 62
    3
 10
2426.2585234464268
 20
172.6331249251939
 11
2414.8569307536691
 21
172.6331249251939
  0
ARC
  8
_e-0_
  6
CONTINUOUS
 62
    3
 10
2426.2585234464268
 20
162.6331249251939
 40
10
 50
0
 51
90
  0
LINE
  8
_e-0_
  6
CONTINUOUS
 62
    3
 10
2426.17747602893
 20
188.26250382114978
 11
2399.4939617252576
 21
188.26250382114978
  0
LINE
  8
_e-0_
  6
CONTINUOUS
 62
    3
 10
2451.1774760289304
 20
163.26250382114978
 11
2451.1774760289304
 21
136.49018622829544
  0
ARC
  8
_e-0_
  6
CONTINUOUS
 62
    3
 10
2426.17747602893
 20
163.26250382114978
 40
25
 50
0
 51
90
  0
ARC
  8
_e-0_
  6
CONTINUOUS
 62
    3
 10
2486.2452606175234
 20
162.17653762406428
 40
13.337737955830651
 50
23.422555400004953
 51
97.191484740792632
  0
LINE
  8
_e-0_
  6
CONTINUOUS
 62
    3
 10
2474.006576131063
 20
167.47841048365672
 11
2498.4839451039834
 21
167.47841048365672
  0
ARC
  8
_e-0_
  6
CONTINUOUS
 62
    3
 10
2486.2452606175234
 20
162.17653762406428
 40
13.337737955830651
 50
92.530763017635266
 51
156.57744459999506
  0
ARC
  8
_e-0_
  6
CONTINUOUS
 62
    3
 10
2486.2452606175234
 20
162.17653762406428
 40
13.337737955830651
 50
204.21097500392608
 51
316.0067678116265
  0
LINE
  8
_e-0_
  6
CONTINUOUS
 62
    3
 10
2474.0806890359868
 20
156.70676139316754
 11
2511.5200753562385
 21
156.70676139316754
  0
LINE
  8
_e-0_
  6
CONTINUOUS
 62
    3
 10
2495.8407207162627
 20
152.91249966689293
 11
2508.7092412098891
 21
149.78943472664497
  0
ARC
  8
_e-0_
  6
CONTINUOUS
 62
    3
 10
2486.5655867677851
 20
162.81718992458821
 40
25.691707563897666
 50
346.24110979921471
 51
329.53046432565105
  0
ARC
  8
_e-0_
  6
CONTINUOUS
 62
    3
 10
2546.5135590423406
 20
162.1430984535391
 40
11.089756641867943
 50
94.502189492040685
 51
357.22978420280037
  0
LINE
  8
_e-0_
  6
CONTINUOUS
 62
    3
 10
2556.5903561511468
 20
173.19863581905565
 11
2545.6430442891501
 21
173.19863581905565
  0
LINE
  8
_e-0_
  6
CONTINUOUS
 62
    3
 10
2557.5903561511468
 20
172.19863581905599
 11
2557.5903561511468
 21
161.60712439988743
  0
ARC
  8
_e-0_
  6
CONTINUOUS
 62
    3
 10
2556.5903561511468
 20
172.19863581905599
 40
1
 50
0
 51
90
  0
LINE
  8
_e-0_
  6
CONTINUOUS
 62
    3
 10
2548.9703457355517
 20
188.29058742736095
 11
2557.3930775458175
 21
188.29058742736095
  0
ARC
  8
_e-0_
  6
CONTINUOUS
 62
    3
 10
2546.966285661204
 20
162.67716163604518
 40
25.691707563897666
 50
85.52614601413697
 51
347.40557840019875
  0
LINE
  8
_e-0_
  6
CONTINUOUS
 62
    3
 10
2557.3930775458175
 20
209.12865853712901
 11
2557.3930775458175
 21
188.29058742736095
  0
ARC
  8
_e-0_
  6
CONTINUOUS
 62
    3
 10
2558.3930775458175
 20
209.12865853712901
 40
1
 50
90
 51
180
  0
LINE
  8
_e-0_
  6
CONTINUOUS
 62
    3
 10
2572.0397992563612
 20
209.12865853712901
 11
2572.0397992563612
 21
157.07513043814089
  0
LINE
  8
_e-0_
  6
CONTINUOUS
 62
    3
 10
2571.0397992563617
 20
210.12865853712896
 11
2558.3930775458175
 21
210.12865853712896
  0
ARC
  8
_e-0_
  6
CONTINUOUS
 62
    3
 10
2571.0397992563617
 20
209.12865853712901
 40
1
 50
0
 51
90
  0
CIRCLE
  8
_e-0_
  6
CONTINUOUS
 62
    3
 10
2607.4932845795829
 20
162.61858771142585
 40
13.337737955830651
  0
CIRCLE
  8
_e-0_
  6
CONTINUOUS
 62
    3
 10
2607.2095671322086
 20
162.33487026405101
 40
25.691707563897666
  0
ARC
  8
_e-0_
  6
CONTINUOUS
 62
    3
 10
2361.3056445788689
 20
183.56108960512415
 40
5
 50
90
 51
106.0533814378627
  0
ARC
  8
_e-0_
  6
CONTINUOUS
 62
    3
 10
2361.3056445788689
 20
183.56108960512415
 40
5
 50
90
 51
106.0533814378627
  0
ARC
  8
_e-0_
  6
CONTINUOUS
 62
    3
 10
2361.3056445788689
 20
183.56108960512415
 40
5
 50
90
 51
106.0533814378627
  0
ARC
  8
_e-0_
  6
CONTINUOUS
 62
    3
 10
2361.3056445788689
 20
183.56108960512415
 40
5
 50
90
 51
106.0533814378627
  0
LINE
  8
_e-0_
  6
CONTINUOUS
 62
    7
 10
2346.3470804331014
 20
179.59716504486778
 11
2368.5044577934555
 21
187.66179087344028
  0
LINE
  8
_e-0_
  6
CONTINUOUS
 62
    7
 10
2361.2415063076146
 20
179.69740385729494
 11
2376.5205845613305
 21
185.25853354867166
  0
LINE
  8
_e-0_
  6
CONTINUOUS
 62
    7
 10
2341.7511550984832
 20
172.60349616177706
 11
2361.2415063076146
 21
179.69740385729494
  0
LINE
  8
_e-0_
  6
CONTINUOUS
 62
    7
 10
2339.9278406436088
 20
166.61897511011603
 11
2357.2356669233163
 21
172.91850869577985
  0
LINE
  8
_e-0_
  6
CONTINUOUS
 62
    7
 10
2339.561356655227
 20
161.1646969846305
 11
2352.6357267551816
 21
165.92337853279389
  0
LINE
  8
_e-0_
  6
CONTINUOUS
 62
    7
 10
2340.2704529847874
 20
156.10189807943812
 11
2352.3257797311662
 21
160.489678179473
  0
LINE
  8
_e-0_
  6
CONTINUOUS
 62
    7
 10
2341.920482349894
 20
151.38157079162255
 11
2353.9794571535695
 21
155.77067867592632
  0
LINE
  8
_e-0_
  6
CONTINUOUS
 62
    7
 10
2344.5041289741071
 20
147.00105239631881
 11
2357.564943671171
 21
151.7548001813168
  0
LINE
  8
_e-0_
  6
CONTINUOUS
 62
    7
 10
2348.1361647674012
 20
143.00211645248766
 11
2364.9879954656799
 21
149.1356812195545
  0
LINE
  8
_e-0_
  6
CONTINUOUS
 62
    7
 10
2353.1501292054063
 20
139.50616140121156
 11
2375.2534753949121
 21
147.55112149187283
  0
LINE
  8
_e-0_
  6
CONTINUOUS
 62
    7
 10
2360.6217579801264
 20
136.90472301431669
 11
2375.3071030149836
 21
142.24975148693375
  0
LINE
  8
_e-0_
  6
CONTINUOUS
 62
    7
 10
2375.3071030149836
 20
142.24975148693375
 11
2385.0115931457403
 21
145.78189703325933
  0
LINE
  8
_e-0_
  6
CONTINUOUS
 62
    7
 10
2374.4001538198345
 20
147.24053783828737
 11
2389.0630204872041
 21
152.57738485422379
  0
LINE
  8
_e-0_
  6
CONTINUOUS
 62
    7
 10
2374.4883804748506
 20
152.59353857696169
 11
2390.6567834919524
 21
158.47835601080646
  0
LINE
  8
_e-0_
  6
CONTINUOUS
 62
    7
 10
2378.4912308361027
 20
159.37134582305873
 11
2390.8686178519897
 21
163.87634627483465
  0
LINE
  8
_e-0_
  6
CONTINUOUS
 62
    7
 10
2378.6565159204479
 20
164.75239353630798
 11
2390.032063042946
 21
168.89275408738968
  0
LINE
  8
_e-0_
  6
CONTINUOUS
 62
    7
 10
2365.1397018509306
 20
175.79534214003161
 11
2381.7641004494612
 21
181.84612839247364
  0
LINE
  8
_e-0_
  6
CONTINUOUS
 62
    7
 10
2373.1598434523221
 20
173.39354609515908
 11
2385.5507858710998
 21
177.90348031010012
  0
LINE
  8
_e-0_
  6
CONTINUOUS
 62
    7
 10
2399.4939617252576
 20
182.97838129215279
 11
2414.0119690553088
 21
188.26250382114978
  0
LINE
  8
_e-0_
  6
CONTINUOUS
 62
    7
 10
2399.4939617252576
 20
177.65749242977336
 11
2428.3670442872126
 21
188.16643505383524
  0
LINE
  8
_e-0_
  6
CONTINUOUS
 62
    7
 10
2399.4939617252576
 20
172.33660356739392
 11
2436.7743097980665
 21
185.90554058897965
  0
LINE
  8
_e-0_
  6
CONTINUOUS
 62
    7
 10
2399.4939617252576
 20
167.01571470501449
 11
2442.1110032081056
 21
182.52704927725858
  0
LINE
  8
_e-0_
  6
CONTINUOUS
 62
    7
 10
2399.4939617252576
 20
161.69482584263505
 11
2414.8569307536691
 21
167.28648927893005
  0
LINE
  8
_e-0_
  6
CONTINUOUS
 62
    7
 10
2428.709008278624
 20
172.32823318076129
 11
2445.9244086202584
 21
178.5941264760919
  0
LINE
  8
_e-0_
  6
CONTINUOUS
 62
    7
 10
2399.4939617252576
 20
156.37393698025562
 11
2414.8569307536691
 21
161.96560041655061
  0
LINE
  8
_e-0_
  6
CONTINUOUS
 62
    7
 10
2403.3398935234459
 20
136.49018622829544
 11
2414.8569307536691
 21
140.68204496703231
  0
LINE
  8
_e-0_
  6
CONTINUOUS
 62
    7
 10
2399.4939617252576
 20
140.41127039311675
 11
2414.8569307536691
 21
146.00293382941203
  0
LINE
  8
_e-0_
  6
CONTINUOUS
 62
    7
 10
2399.4939617252576
 20
145.73215925549647
 11
2414.8569307536691
 21
151.32382269179146
  0
LINE
  8
_e-0_
  6
CONTINUOUS
 62
    7
 10
2399.4939617252576
 20
151.0530481178759
 11
2414.8569307536691
 21
156.64471155417118
  0
LINE
  8
_e-0_
  6
CONTINUOUS
 62
    7
 10
2436.2585234464268
 20
159.11336539784401
 11
2451.1774760289304
 21
164.5434200643038
  0
LINE
  8
_e-0_
  6
CONTINUOUS
 62
    7
 10
2436.2585234464268
 20
153.79247653546486
 11
2451.1774760289304
 21
159.22253120192465
  0
LINE
  8
_e-0_
  6
CONTINUOUS
 62
    7
 10
2436.105047565391
 20
164.37839360784892
 11
2450.3687179376248
 21
169.56994505472636
  0
LINE
  8
_e-0_
  6
CONTINUOUS
 62
    7
 10
2436.2585234464268
 20
148.47158767308542
 11
2451.1774760289304
 21
153.90164233954522
  0
LINE
  8
_e-0_
  6
CONTINUOUS
 62
    7
 10
2436.2585234464268
 20
143.15069881070571
 11
2451.1774760289304
 21
148.5807534771655
  0
LINE
  8
_e-0_
  6
CONTINUOUS
 62
    7
 10
2436.2585234464268
 20
137.82980994832599
 11
2451.1774760289304
 21
143.25986461478607
  0
LINE
  8
_e-0_
  6
CONTINUOUS
 62
    7
 10
2447.1969595258929
 20
136.49018622829544
 11
2451.1774760289304
 21
137.93897575240635
  0
LINE
  8
_e-0_
  6
CONTINUOUS
 62
    7
 10
2434.0189024056153
 20
168.9399877277117
 11
2448.6296862431445
 21
174.25787814386979
  0
LINE
  8
_e-0_
  6
CONTINUOUS
 62
    7
 10
2469.1883842563338
 20
181.74063227593791
 11
2487.7135419125711
 21
188.48323824789645
  0
LINE
  8
_e-0_
  6
CONTINUOUS
 62
    7
 10
2463.6316388937826
 20
174.39725350219305
 11
2496.6904887083792
 21
186.42969081378254
  0
LINE
  8
_e-0_
  6
CONTINUOUS
 62
    7
 10
2461.4628990865917
 20
168.28700790412768
 11
2502.2794299488264
 21
183.14301020398858
  0
LINE
  8
_e-0_
  6
CONTINUOUS
 62
    7
 10
2461.4992419870632
 20
162.97934677574688
 11
2473.9894671720022
 21
167.52541696234658
  0
LINE
  8
_e-0_
  6
CONTINUOUS
 62
    7
 10
2492.1508316310542
 20
174.13561303910114
 11
2506.2885679576884
 21
179.28132824190016
  0
LINE
  8
_e-0_
  6
CONTINUOUS
 62
    7
 10
2496.6927278595249
 20
170.4678392110111
 11
2509.1784918759254
 21
175.01228566505262
  0
LINE
  8
_e-0_
  6
CONTINUOUS
 62
    7
 10
2463.2093427036916
 20
158.28088367181749
 11
2488.4793399340492
 21
167.47841048365672
  0
LINE
  8
_e-0_
  6
CONTINUOUS
 62
    7
 10
2462.8888794596255
 20
152.84335572742151
 11
2511.1140538755621
 21
170.39588375711787
  0
LINE
  8
_e-0_
  6
CONTINUOUS
 62
    7
 10
2465.300291731432
 20
148.400149154524
 11
2476.9283430630944
 21
152.63241372176822
  0
LINE
  8
_e-0_
  6
CONTINUOUS
 62
    7
 10
2488.1225212892723
 20
156.70676139316754
 11
2512.122843037012
 21
165.44216412215633
  0
LINE
  8
_e-0_
  6
CONTINUOUS
 62
    7
 10
2502.741543290088
 20
156.70676139316754
 11
2512.115162112696
 21
160.11847963195407
  0
LINE
  8
_e-0_
  6
CONTINUOUS
 62
    7
 10
2468.7281740890053
 20
144.32690743686692
 11
2482.5550140975402
 21
149.35946563393486
  0
LINE
  8
_e-0_
  6
CONTINUOUS
 62
    7
 10
2473.4508580764295
 20
140.72493497175572
 11
2502.4973614552446
 21
151.2969976111566
  0
LINE
  8
_e-0_
  6
CONTINUOUS
 62
    7
 10
2480.306949559827
 20
137.89945933273884
 11
2507.376789508387
 21
147.75207532036433
  0
LINE
  8
_e-0_
  6
CONTINUOUS
 62
    7
 10
2552.6231690921718
 20
137.61596638527408
 11
2558.7418873346696
 21
139.8429976974046
  0
LINE
  8
_e-0_
  6
CONTINUOUS
 62
    7
 10
2539.4012676014827
 20
138.12447666464266
 11
2568.5435873921024
 21
148.73141362589479
  0
LINE
  8
_e-0_
  6
CONTINUOUS
 62
    7
 10
2532.9976800904733
 20
141.11465028049622
 11
2571.526973469855
 21
155.13816621790056
  0
LINE
  8
_e-0_
  6
CONTINUOUS
 62
    7
 10
2522.081864354775
 20
169.06695144424447
 11
2572.0397992563612
 21
187.25015271383
  0
LINE
  8
_e-0_
  6
CONTINUOUS
 62
    7
 10
2524.5896829795606
 20
175.30061163898438
 11
2572.0397992563612
 21
192.57104157620944
  0
LINE
  8
_e-0_
  6
CONTINUOUS
 62
    7
 10
2557.3930775458175
 20
208.52362629350921
 11
2561.8028673926597
 21
210.12865853712896
  0
LINE
  8
_e-0_
  6
CONTINUOUS
 62
    7
 10
2557.3930775458175
 20
203.20273743112978
 11
2572.0397992563612
 21
208.53370816334802
  0
LINE
  8
_e-0_
  6
CONTINUOUS
 62
    7
 10
2557.3930775458175
 20
197.88184856875006
 11
2572.0397992563612
 21
203.21281930096859
  0
LINE
  8
_e-0_
  6
CONTINUOUS
 62
    7
 10
2557.3930775458175
 20
192.56095970637034
 11
2572.0397992563612
 21
197.89193043858916
  0
LINE
  8
_e-0_
  6
CONTINUOUS
 62
    7
 10
2531.3600319802563
 20
183.08570601321094
 11
2545.8030101140193
 21
188.34252014805827
  0
LINE
  8
_e-0_
  6
CONTINUOUS
 62
    7
 10
2548.0525958796984
 20
173.19863581905565
 11
2572.0397992563612
 21
181.92926385145057
  0
LINE
  8
_e-0_
  6
CONTINUOUS
 62
    7
 10
2521.2864022906338
 20
163.45653806802943
 11
2538.3752084417083
 21
169.67635484616608
  0
LINE
  8
_e-0_
  6
CONTINUOUS
 62
    7
 10
2521.6554107736333
 20
158.26995730965365
 11
2535.4846691325356
 21
163.30339571427089
  0
LINE
  8
_e-0_
  6
CONTINUOUS
 62
    7
 10
2522.9940114609526
 20
153.43627925302656
 11
2536.1404517985766
 21
158.22119222247807
  0
LINE
  8
_e-0_
  6
CONTINUOUS
 62
    7
 10
2525.2563435788043
 20
148.93881194156961
 11
2539.0354883761397
 21
153.95401050144358
  0
LINE
  8
_e-0_
  6
CONTINUOUS
 62
    7
 10
2528.5117312327798
 20
144.80278728623489
 11
2545.7561370732087
 21
151.07923771975692
  0
LINE
  8
_e-0_
  6
CONTINUOUS
 62
    7
 10
2554.2054905278624
 20
154.15455087604528
 11
2572.0397992563612
 21
160.64570840193255
  0
LINE
  8
_e-0_
  6
CONTINUOUS
 62
    7
 10
2557.505937791675
 20
160.67670430221767
 11
2572.0397992563612
 21
165.96659726431199
  0
LINE
  8
_e-0_
  6
CONTINUOUS
 62
    7
 10
2557.5903561511468
 20
166.02831893467055
 11
2572.0397992563612
 21
171.28748612669142
  0
LINE
  8
_e-0_
  6
CONTINUOUS
 62
    7
 10
2557.5903561511468
 20
171.34920779704998
 11
2572.0397992563612
 21
176.60837498907085
  0
LINE
  8
_e-0_
  6
CONTINUOUS
 62
    7
 10
2595.1467628188602
 20
185.01862193009401
 11
2601.8693768327421
 21
187.46545332760775
  0
LINE
  8
_e-0_
  6
CONTINUOUS
 62
    7
 10
2585.5936460434282
 20
176.2206829169881
 11
2614.8426950414305
 21
186.86646613285404
  0
LINE
  8
_e-0_
  6
CONTINUOUS
 62
    7
 10
2608.5181174973609
 20
136.67650840108905
 11
2622.7000364868072
 21
141.83830477802189
  0
LINE
  8
_e-0_
  6
CONTINUOUS
 62
    7
 10
2598.2444761483162
 20
138.25809761488983
 11
2629.5534764025952
 21
149.65364177207988
  0
LINE
  8
_e-0_
  6
CONTINUOUS
 62
    7
 10
2582.6330921261529
 20
169.82224055178023
 11
2621.2234503919626
 21
183.86798229020314
  0
LINE
  8
_e-0_
  6
CONTINUOUS
 62
    7
 10
2592.2968185805403
 20
141.41421615899105
 11
2632.0809325371147
 21
155.894449435838
  0
LINE
  8
_e-0_
  6
CONTINUOUS
 62
    7
 10
2588.0695495912832
 20
145.19650493704432
 11
2602.246111940276
 21
150.35635165629657
  0
LINE
  8
_e-0_
  6
CONTINUOUS
 62
    7
 10
2585.0094293819529
 20
149.40360112995108
 11
2597.3909335115823
 21
153.91010008858018
  0
LINE
  8
_e-0_
  6
CONTINUOUS
 62
    7
 10
2582.919829983693
 20
153.96393800982366
 11
2594.869518006371
 21
158.31326875884542
  0
LINE
  8
_e-0_
  6
CONTINUOUS
 62
    7
 10
2581.7538748691904
 20
158.86045391603375
 11
2594.1774270088017
 21
163.38225709870642
  0
LINE
  8
_e-0_
  6
CONTINUOUS
 62
    7
 10
2581.5798124660105
 20
164.11798924475079
 11
2595.9853391150814
 21
169.36117215394091
  0
LINE
  8
_e-0_
  6
CONTINUOUS
 62
    7
 10
2611.9748325174678
 20
175.18087181340547
 11
2625.6969314853623
 21
180.17530738937353
  0
LINE
  8
_e-0_
  6
CONTINUOUS
 62
    7
 10
2617.2029460570038
 20
171.76286066078092
 11
2628.9430705154382
 21
176.03591651023152
  0
LINE
  8
_e-0_
  6
CONTINUOUS
 62
    7
 10
2619.9310564926914
 20
167.43492279278257
 11
2631.197316834192
 21
171.53550620858255
  0
LINE
  8
_e-0_
  6
CONTINUOUS
 62
    7
 10
2620.8298424207369
 20
162.44116525518905
 11
2632.5279188691889
 21
166.69891688059579
  0
LINE
  8
_e-0_
  6
CONTINUOUS
 62
    7
 10
2619.394865425299
 20
156.59798747961361
 11
2632.8880000931144
 21
161.5090868656435
  0
LINE
  8
ADD_LINE
  6
DOT
 62
    9
 10
2339.561356655227
 20
120
 11
2339.561356655227
 21
220
  0
LINE
  8
ADD_LINE
  6
DOT
 62
    9
 10
2486.2246783741707
 20
220
 11
2486.2246783741707
 21
120
  0
LINE
  8
ADD_LINE
  6
DOT
 62
    9
 10
2632.8880000931144
 20
120
 11
2632.8880000931144
 21
220
  0
LINE
  8
ADD_LINE
  6
DOT
 62
    9
 10
2220
 20
220
 11
2220
 21
120
  0
LINE
  8
ADD_LINE
  6
DOT
 62
    9
 10
2710
 20
220
 11
2710
 21
120
  0
TEXT
  8
_e-0_
 62
    7
 10
2642.8586825750176
 20
180.56247057449553
 40
35
 41
0.5714285714285714
 50
0
  1
ワンド
  0
TEXT
  8
_e-0_
 62
    7
 10
2649.7045100149039
 20
147.0179161190498
 40
30
 41
0.6666666666666666
 50
0
  1
株式
  0
TEXT
  8
_e-0_
 62
    7
 10
2649.0199272709156
 20
118.95002361551377
 40
30
 41
0.6666666666666666
 50
0
  1
会社
  0
TEXT
  8
_3-0_
 62
    7
 10
3842.3538041230177
 20
2123.7754053738954
 40
35
 41
0.8571428571428571
 50
0
  1
扉　色
  0
TEXT
  8
_3-0_
 62
    7
 10
3697.4449639287536
 20
2056.2754053738954
 40
35
 41
0.8571428571428571
 50
0
  1
ＳＷ
  0
TEXT
  8
_3-0_
 62
    7
 10
3811.9748643361777
 20
2056.2754053738954
 40
35
 41
0.8571428571428571
 50
0
  1
ホワイト
  0
TEXT
  8
_3-0_
 62
    7
 10
3702.4364193384413
 20
1996.864732189676
 40
35
 41
0.8571428571428571
 50
0
  1
ＬＧ
  0
TEXT
  8
_3-0_
 62
    7
 10
3812.0738582412127
 20
1996.864732189676
 40
35
 41
0.8571428571428571
 50
0
  1
木　　目
  0
TEXT
  8
_3-0_
 62
    7
 10
3697.4449639287536
 20
1931.2754053738956
 40
35
 41
0.8571428571428571
 50
0
  1
ＵＷ
  0
TEXT
  8
_3-0_
 62
    7
 10
3811.9748643361772
 20
1931.2754053738956
 40
35
 41
0.8571428571428571
 50
0
  1
ｳﾙﾄﾗﾎﾜｲﾄ（艶有）
  0
TEXT
  8
_3-0_
 62
    7
 10
3702.4364193384413
 20
1871.864732189676
 40
35
 41
0.8571428571428571
 50
0
  1
ＷＮ
  0
TEXT
  8
_3-0_
 62
    7
 10
3811.9748643361777
 20
1871.2754053738956
 40
35
 41
0.8571428571428571
 50
0
  1
ｳｨﾝｻﾞｰﾅｯﾄ（艶有）
  0
LINE
  8
ADD_LINE
  6
DOT
 62
    9
 10
3666.9748643361777
 20
2173.7754053738954
 11
3681.9748643361777
 21
2173.7754053738954
  0
LINE
  8
ADD_LINE
  6
DOT
 62
    9
 10
3681.9748643361777
 20
2173.7754053738954
 11
3681.9748643361777
 21
2188.7754053738954
  0
LINE
  8
ADD_LINE
  6
DOT
 62
    9
 10
3681.9748643361777
 20
2188.7754053738954
 11
3666.9748643361777
 21
2188.7754053738954
  0
LINE
  8
ADD_LINE
  6
DOT
 62
    9
 10
3666.9748643361777
 20
2188.7754053738954
 11
3666.9748643361777
 21
2173.7754053738954
  0
LINE
  8
_3-0_
  6
CONTINUOUS
 62
    3
 10
4096.7327439098572
 20
2173.7754053738954
 11
4096.7327439098572
 21
1678.775405373895
  0
LINE
  8
ADD_LINE
  6
DOT
 62
    9
 10
3811.9748643361777
 20
2103.7754053738954
 11
3811.9748643361777
 21
1983.7754053738956
  0
LINE
  8
_3-0_
  6
CONTINUOUS
 62
    7
 10
3781.9748643361777
 20
2103.7754053738954
 11
3781.9748643361777
 21
1983.7754053738956
  0
TEXT
  8
_3-0_
 62
    7
 10
3702.4364193384413
 20
1811.864732189676
 40
35
 41
0.8571428571428571
 50
0
  1
ＢＳ
  0
TEXT
  8
_3-0_
 62
    7
 10
3812.0738582412127
 20
1811.864732189676
 40
35
 41
0.8571428571428571
 50
0
  1
ブラックストーン
  0
LINE
  8
ADD_LINE
  6
DOT
 62
    9
 10
3731.9748643361777
 20
2103.7754053738954
 11
3731.9748643361777
 21
1983.7754053738956
  0
LINE
  8
_3-0_
  6
CONTINUOUS
 62
    3
 10
3681.9748643361777
 20
2173.7754053738954
 11
3681.9748643361777
 21
1678.775405373895
  0
LINE
  8
_3-0_
  6
CONTINUOUS
 62
    7
 10
3781.9748643361777
 20
1978.7754053738956
 11
3781.9748643361777
 21
1678.775405373895
  0
LINE
  8
ADD_LINE
  6
DOT
 62
    9
 10
3811.9748643361777
 20
1978.7754053738956
 11
3811.9748643361777
 21
1678.775405373895
  0
LINE
  8
ADD_LINE
  6
DOT
 62
    9
 10
3731.9748643361777
 20
1978.7754053738956
 11
3731.9748643361777
 21
1678.775405373895
  0
TEXT
  8
_3-0_
 62
    7
 10
3702.4364193384413
 20
1751.8647321896754
 40
35
 41
0.8571428571428571
 50
0
  1
ＰＭ
  0
TEXT
  8
_3-0_
 62
    7
 10
3812.0738582412141
 20
1751.8647321896754
 40
35
 41
0.8571428571428571
 50
0
  1
ペールグレイン
  0
TEXT
  8
_3-0_
 62
    7
 10
3702.4364193384413
 20
1691.8647321896754
 40
35
 41
0.8571428571428571
 50
0
  1
ＭＤ
  0
TEXT
  8
_3-0_
 62
    7
 10
3812.0738582412141
 20
1691.8647321896754
 40
35
 41
0.8571428571428571
 50
0
  1
ダークグレイン
  0
LINE
  8
_3-0_
  6
CONTINUOUS
 62
    3
 10
4096.7327439098572
 20
2173.7754053738954
 11
3681.9748643361777
 21
2173.7754053738954
  0
LINE
  8
_3-0_
  6
CONTINUOUS
 62
    3
 10
4096.7327439098572
 20
1678.775405373895
 11
3681.9748643361777
 21
1678.775405373895
  0
LINE
  8
_3-0_
  6
CONTINUOUS
 62
    7
 10
3681.9748643361777
 20
2043.7754053738956
 11
4096.7327439098572
 21
2043.7754053738956
  0
LINE
  8
_3-0_
  6
CONTINUOUS
 62
    7
 10
4096.7327439098572
 20
2043.7754053738956
 11
3681.9748643361777
 21
2043.7754053738956
  0
LINE
  8
_3-0_
  6
CONTINUOUS
 62
    3
 10
4096.7327439098572
 20
2043.7754053738956
 11
3681.9748643361777
 21
2043.7754053738956
  0
LINE
  8
_3-0_
  6
CONTINUOUS
 62
    3
 10
4096.7327439098572
 20
1983.7754053738956
 11
3681.9748643361777
 21
1983.7754053738956
  0
LINE
  8
ADD_LINE
  6
DOT
 62
    9
 10
3681.9748643361777
 20
2013.7754053738956
 11
4096.7327439098572
 21
2013.7754053738956
  0
LINE
  8
_3-0_
  6
CONTINUOUS
 62
    7
 10
4096.7327439098572
 20
1918.7754053738956
 11
3681.9748643361777
 21
1918.7754053738956
  0
LINE
  8
_3-0_
  6
CONTINUOUS
 62
    3
 10
4096.7327439098572
 20
1918.7754053738956
 11
3681.9748643361777
 21
1918.7754053738956
  0
LINE
  8
_3-0_
  6
CONTINUOUS
 62
    3
 10
4096.7327439098572
 20
1858.7754053738956
 11
3681.9748643361777
 21
1858.7754053738956
  0
LINE
  8
_3-0_
  6
CONTINUOUS
 62
    7
 10
3681.9748643361777
 20
1918.7754053738956
 11
4096.7327439098572
 21
1918.7754053738956
  0
LINE
  8
_3-0_
  6
CONTINUOUS
 62
    7
 10
4096.7327439098572
 20
1983.7754053738956
 11
3681.9748643361777
 21
1983.7754053738956
  0
LINE
  8
_3-0_
  6
CONTINUOUS
 62
    7
 10
4096.7327439098572
 20
1978.7754053738956
 11
3681.9748643361777
 21
1978.7754053738956
  0
LINE
  8
ADD_LINE
  6
DOT
 62
    9
 10
3681.9748643361777
 20
1948.7754053738956
 11
4096.7327439098572
 21
1948.7754053738956
  0
LINE
  8
ADD_LINE
  6
DOT
 62
    9
 10
3681.9748643361777
 20
1888.7754053738956
 11
4096.7327439098572
 21
1888.7754053738956
  0
LINE
  8
_3-0_
  6
CONTINUOUS
 62
    7
 10
4096.7327439098572
 20
1858.7754053738956
 11
3681.9748643361777
 21
1858.7754053738956
  0
LINE
  8
_3-0_
  6
CONTINUOUS
 62
    3
 10
4096.7327439098572
 20
1858.7754053738956
 11
3681.9748643361777
 21
1858.7754053738956
  0
LINE
  8
_3-0_
  6
CONTINUOUS
 62
    3
 10
4096.7327439098572
 20
1798.775405373895
 11
3681.9748643361777
 21
1798.775405373895
  0
LINE
  8
_3-0_
  6
CONTINUOUS
 62
    7
 10
3681.9748643361777
 20
1858.7754053738956
 11
4096.7327439098572
 21
1858.7754053738956
  0
LINE
  8
ADD_LINE
  6
DOT
 62
    9
 10
3681.9748643361777
 20
1828.775405373895
 11
4096.7327439098572
 21
1828.775405373895
  0
LINE
  8
_3-0_
  6
CONTINUOUS
 62
    7
 10
4096.7327439098572
 20
1798.775405373895
 11
3681.9748643361777
 21
1798.775405373895
  0
LINE
  8
_3-0_
  6
CONTINUOUS
 62
    3
 10
4096.7327439098572
 20
1798.775405373895
 11
3681.9748643361777
 21
1798.775405373895
  0
LINE
  8
_3-0_
  6
CONTINUOUS
 62
    3
 10
4096.7327439098572
 20
1738.775405373895
 11
3681.9748643361777
 21
1738.775405373895
  0
LINE
  8
_3-0_
  6
CONTINUOUS
 62
    7
 10
3681.9748643361777
 20
1798.775405373895
 11
4096.7327439098572
 21
1798.775405373895
  0
LINE
  8
ADD_LINE
  6
DOT
 62
    9
 10
3681.9748643361777
 20
1768.775405373895
 11
4096.7327439098572
 21
1768.775405373895
  0
LINE
  8
_3-0_
  6
CONTINUOUS
 62
    7
 10
4096.7327439098572
 20
1738.775405373895
 11
3681.9748643361777
 21
1738.775405373895
  0
LINE
  8
_3-0_
  6
CONTINUOUS
 62
    3
 10
4096.7327439098572
 20
1738.775405373895
 11
3681.9748643361777
 21
1738.775405373895
  0
LINE
  8
_3-0_
  6
CONTINUOUS
 62
    7
 10
3681.9748643361777
 20
1738.775405373895
 11
4096.7327439098572
 21
1738.775405373895
  0
LINE
  8
ADD_LINE
  6
DOT
 62
    9
 10
3681.9748643361777
 20
1708.775405373895
 11
4096.7327439098572
 21
1708.775405373895
  0
LINE
  8
ADD_LINE
  6
DOT
 62
    9
 10
3681.9748643361777
 20
2073.7754053738954
 11
4096.7327439098572
 21
2073.7754053738954
  0
LINE
  8
_3-0_
  6
CONTINUOUS
 62
    7
 10
4096.7327439098572
 20
2103.7754053738954
 11
3681.9748643361777
 21
2103.7754053738954
  0
LINE
  8
ADD_LINE
  6
DOT
 62
    9
 10
3681.9748643361777
 20
2141.2754053738954
 11
4096.7327439098572
 21
2141.2754053738954
  0
LINE
  8
_3-0_
  6
CONTINUOUS
 62
    7
 10
4096.7327439098572
 20
2108.7754053738954
 11
3681.9748643361777
 21
2108.7754053738954
  0
LINE
  8
ADD_LINE
  6
DOT
 62
    9
 10
3889.3538041230177
 20
2173.7754053738954
 11
3889.3538041230177
 21
2108.7754053738954
  0
ENDSEC
  0
EOF
