  0
SECTION
  2
HEADER
  9
$ACADVER
  1
AC1009
  9
$INSBASE
 10
0
 20
0
 30
0
  9
$EXTMIN
 10
0
 20
0
  9
$EXTMAX
 10
420
 20
297
  9
$LIMMIN
 10
0
 20
0
  9
$LIMMAX
 10
420
 20
297
  9
$LTSCALE
 40
1
  0
ENDSEC
  0
SECTION
  2
TABLES
  0
TABLE
  2
LTYPE
 70
     9
  0
LTYPE
  2
CONTINUOUS
 70
    64
  3
実線
 72
    65
 73
     0
 40
0.0
  0
LTYPE
  2
DASHED1
 70
    64
  3
--  --  --  --  --  --  --  --  
 72
    65
 73
     2
 40
2.5
 49
1.25
 49
-1.25
  0
LTYPE
  2
DASHED2
 70
    64
  3
----    ----    ----    ----    
 72
    65
 73
     2
 40
5.0
 49
2.5
 49
-2.5
  0
LTYPE
  2
DASHED3
 70
    64
  3
------  ------  ------  ------  
 72
    65
 73
     2
 40
5.0
 49
3.75
 49
-1.25
  0
LTYPE
  2
CENTER1
 70
    64
  3
----- - ----- - ----- - ----- - 
 72
    65
 73
     4
 40
10.0
 49
6.25
 49
-1.25
 49
1.25
 49
-1.25
  0
LTYPE
  2
CENTER2
 70
    64
  3
----------  --  ----------  --  
 72
    65
 73
     4
 40
20.0
 49
12.5
 49
-2.5
 49
2.5
 49
-2.5
  0
LTYPE
  2
PHANTOM1
 70
    64
  3
--- - - --- - - --- - - --- - - 
 72
    65
 73
     6
 40
10.0
 49
3.25
 49
-1.25
 49
1.25
 49
-1.25
 49
1.25
 49
-1.25
  0
LTYPE
  2
PHANTOM2
 70
    64
  3
--------  -  -  --------  -  -  
 72
    65
 73
     6
 40
20.0
 49
10.0
 49
-2.5
 49
1.25
 49
-2.5
 49
1.25
 49
-2.5
  0
LTYPE
  2
DOT
 70
    64
  3
-   -   -   -   -   -   -   -   
 72
    65
 73
     2
 40
2.5
 49
0.625
 49
-1.875
  0
LTYPE
  2
DUMMY
 70
    64
  3
ダミー
 72
    65
 73
     0
 40
0.0
  0
LTYPE
  2
RAND1
 70
    64
  3
ランダム線1
 72
    65
 73
     4
 40
10.0
 49
1.0
 49
-2.0
 49
3.0
 49
-4.0
  0
LTYPE
  2
RAND2
 70
    64
  3
ランダム線2
 72
    65
 73
     4
 40
14.0
 49
2.0
 49
-3.0
 49
4.0
 49
-5.0
  0
LTYPE
  2
RAND3
 70
    64
  3
ランダム線3
 72
    65
 73
     4
 40
18.0
 49
3.0
 49
-4.0
 49
5.0
 49
-6.0
  0
LTYPE
  2
RAND4
 70
    64
  3
ランダム線4
 72
    65
 73
     4
 40
22.0
 49
4.0
 49
-5.0
 49
6.0
 49
-7.0
  0
LTYPE
  2
RAND5
 70
    64
  3
ランダム線5
 72
    65
 73
     4
 40
26.0
 49
5.0
 49
-6.0
 49
7.0
 49
-8.0
  0
LTYPE
  2
LONG1
 70
    64
  3
----------  --  ----------  --  
 72
    65
 73
     4
 40
40.0
 49
32.5
 49
-2.5
 49
2.5
 49
-2.5
  0
LTYPE
  2
LONG2
 70
    64
  3
--------  -  -  --------  -  -  
 72
    65
 73
     6
 40
40.0
 49
30.0
 49
-2.5
 49
1.25
 49
-2.5
 49
1.25
 49
-2.5
  0
LTYPE
  2
LONG3
 70
    64
  3
+++++++++++++++..+++++++++++++++
 72
    65
 73
     2
 40
40.0
 49
37.5
 49
-2.5
  0
LTYPE
  2
LONG4
 70
    64
  3
+++++++++++++++..+++++++++++++++
 72
    65
 73
     2
 40
80.0
 49
75.0
 49
-5.0
  0
LTYPE
  2
LONG5
 70
    64
  3
----------  --  ----------  --  
 72
    65
 73
     4
 40
60.0
 49
37.5
 49
-7.5
 49
7.5
 49
-7.5
  0
LTYPE
  2
dashed
 70
   64
  3
-------   -------------   ------
 72
   65
 73
    2
 40
7.5
 49
6
 49
-1.5
  0
LTYPE
  2
dashed_spaced
 70
   64
  3
----        --------        ----
 72
   65
 73
    2
 40
12
 49
6
 49
-6
  0
LTYPE
  2
long_dashed_dotted
 70
   64
  3
------------- --- --------------
 72
   65
 73
    4
 40
15.25
 49
12
 49
-1.5
 49
0.25
 49
-1.5
  0
LTYPE
  2
long_dashed_double-dotted
 70
   64
  3
----------- --- --- ------------
 72
   65
 73
    6
 40
17
 49
12
 49
-1.5
 49
0.25
 49
-1.5
 49
0.25
 49
-1.5
  0
LTYPE
  2
long_dashed_triplicate-dotted
 70
   64
  3
--------- --- --- --- ----------
 72
   65
 73
    8
 40
18.75
 49
12
 49
-1.5
 49
0.25
 49
-1.5
 49
0.25
 49
-1.5
 49
0.25
 49
-1.5
  0
LTYPE
  2
dotted
 70
   64
  3
   -       -       -       -    
 72
   65
 73
    2
 40
1.75
 49
0.25
 49
-1.5
  0
LTYPE
  2
chain
 70
   64
  3
-------------- -- --------------
 72
   65
 73
    4
 40
18.5
 49
12
 49
-1.5
 49
3.5
 49
-1.5
  0
LTYPE
  2
chain_double_dash
 70
   64
  3
------------ -- -- -------------
 72
   65
 73
    6
 40
23.5
 49
12
 49
-1.5
 49
3.5
 49
-1.5
 49
3.5
 49
-1.5
  0
LTYPE
  2
dashed_dotted
 70
   64
  3
-----------     -     ----------
 72
   65
 73
    4
 40
9.25
 49
6
 49
-1.5
 49
0.25
 49
-1.5
  0
LTYPE
  2
double-dashed_dotted
 70
   64
  3
------   -----------   -   -----
 72
   65
 73
    6
 40
16.75
 49
6
 49
-1.5
 49
6
 49
-1.5
 49
0.25
 49
-1.5
  0
LTYPE
  2
dashed_double-dotted
 70
   64
  3
---------    -    -    ---------
 72
   65
 73
    6
 40
11
 49
6
 49
-1.5
 49
0.25
 49
-1.5
 49
0.25
 49
-1.5
  0
LTYPE
  2
double-dashed_double-dotted
 70
   64
  3
-----   ---------   -   -   ----
 72
   65
 73
    8
 40
18.5
 49
6
 49
-1.5
 49
6
 49
-1.5
 49
0.25
 49
-1.5
 49
0.25
 49
-1.5
  0
LTYPE
  2
dashed_triplicate-dotted
 70
   64
  3
-------    -    -    -    ------
 72
   65
 73
    8
 40
12.75
 49
6
 49
-1.5
 49
0.25
 49
-1.5
 49
0.25
 49
-1.5
 49
0.25
 49
-1.5
  0
LTYPE
  2
double-dashed_triplicate-dotted
 70
   64
  3
-----  ---------  -  -  -  -----
 72
   65
 73
   10
 40
20.25
 49
6
 49
-1.5
 49
6
 49
-1.5
 49
0.25
 49
-1.5
 49
0.25
 49
-1.5
 49
0.25
 49
-1.5
  0
LTYPE
  2
undefined
 70
   64
  3
--------------------------------
 72
   65
 73
    0
 40
0
  0
LTYPE
  2
_
 70
   64
  3
                                
 72
   65
 73
    0
 40
0
  0
LTYPE
  2
__18
 70
   64
  3
                                
 72
   65
 73
    0
 40
0
  0
LTYPE
  2
__19
 70
   64
  3
                                
 72
   65
 73
    0
 40
0
  0
LTYPE
  2
__20
 70
   64
  3
                                
 72
   65
 73
    0
 40
0
  0
LTYPE
  2
__21
 70
   64
  3
                                
 72
   65
 73
    0
 40
0
  0
LTYPE
  2
__22
 70
   64
  3
                                
 72
   65
 73
    0
 40
0
  0
LTYPE
  2
__23
 70
   64
  3
                                
 72
   65
 73
    0
 40
0
  0
LTYPE
  2
__24
 70
   64
  3
                                
 72
   65
 73
    0
 40
0
  0
LTYPE
  2
__25
 70
   64
  3
                                
 72
   65
 73
    0
 40
0
  0
LTYPE
  2
__26
 70
   64
  3
                                
 72
   65
 73
    0
 40
0
  0
LTYPE
  2
__27
 70
   64
  3
                                
 72
   65
 73
    0
 40
0
  0
LTYPE
  2
__28
 70
   64
  3
                                
 72
   65
 73
    0
 40
0
  0
LTYPE
  2
__29
 70
   64
  3
                                
 72
   65
 73
    0
 40
0
  0
LTYPE
  2
__30
 70
   64
  3
                                
 72
   65
 73
    0
 40
0
  0
LTYPE
  2
__31
 70
   64
  3
                                
 72
   65
 73
    0
 40
0
  0
LTYPE
  2
__32
 70
   64
  3
                                
 72
   65
 73
    0
 40
0
  0
ENDTAB
  0
TABLE
  2
STYLE
  5
3
100
AcDbSymbolTable
 70
     1
  0
STYLE
  5
10
100
AcDbSymbolTableRecord
100
AcDbTextStyleTableRecord
  2
STANDARD
 70
     0
 40
0.0
 41
1.0
 50
0.0
 71
     0
 42
0.2
  3
txt
  4
bigfont.shx
  0
STYLE
  5
26
100
AcDbSymbolTableRecord
100
AcDbTextStyleTableRecord
  2
TATEGAKI
 70
    68
 40
0.0
 41
1.0
 50
0.0
 71
     0
 42
1.0
  3
txt
  4
bigfont.shx
  0
ENDTAB
  0
TABLE
  2
LAYER
 70
    4
  0
LAYER
  2
_0-0_
 70
   64
 62
    7
  6
CONTINUOUS
  0
LAYER
  2
_e-0_
 70
   64
 62
    7
  6
CONTINUOUS
  0
LAYER
  2
_f-0_
 70
   64
 62
    7
  6
CONTINUOUS
  0
LAYER
  2
ADD_LINE
 70
   64
 62
    7
  6
CONTINUOUS
  0
ENDTAB
  0
ENDSEC
  0
SECTION
  2
BLOCKS
  0
BLOCK
  2
-000-33-108X-2__35
 70
   64
 10
0
 20
0
 30
0
  0
ENDBLK
  0
BLOCK
  2
-001-33-108X-2__36
 70
   64
 10
0
 20
0
 30
0
  0
ENDBLK
  0
BLOCK
  2
-002-33-108X-2__37
 70
   64
 10
0
 20
0
 30
0
  0
ENDBLK
  0
BLOCK
  2
-003-33-108X-1__38
 70
   64
 10
0
 20
0
 30
0
  0
ENDBLK
  0
BLOCK
  2
-004-33-108AX__39
 70
   64
 10
0
 20
0
 30
0
  0
INSERT
  2
-000-33-108X-2__35
  8
_0-0_
 10
168.91600509140341
 20
31.783929234556684
 41
1
 42
1
 50
0
  0
INSERT
  2
-001-33-108X-2__36
  8
_0-0_
 10
132.41600509140341
 20
525.98791307951501
 41
1
 42
1
 50
0
  0
INSERT
  2
-002-33-108X-2__37
  8
_0-0_
 10
126.65486205156721
 20
31.783929234556684
 41
1
 42
1
 50
0
  0
INSERT
  2
-003-33-108X-1__38
  8
_0-0_
 10
143.78318357148535
 20
194.6808934947878
 41
1
 42
1
 50
0
  0
ENDBLK
  0
BLOCK
  2
-005-33-108X-1__40
 70
   64
 10
0
 20
0
 30
0
  0
ENDBLK
  0
BLOCK
  2
-006-33-108X-2__41
 70
   64
 10
0
 20
0
 30
0
  0
ENDBLK
  0
BLOCK
  2
-007-33-108AX__42
 70
   64
 10
0
 20
0
 30
0
  0
INSERT
  2
-005-33-108X-1__40
  8
_0-0_
 10
151.7876835714853
 20
194.6808934947878
 41
1
 42
1
 50
0
  0
INSERT
  2
-006-33-108X-2__41
  8
_0-0_
 10
168.91600509140341
 20
31.783929234556684
 41
1
 42
1
 50
0
  0
ENDBLK
  0
BLOCK
  2
-008-87-63
 70
   64
 10
0
 20
0
 30
0
  0
ENDBLK
  0
ENDSEC
  0
SECTION
  2
ENTITIES
  0
LINE
  8
_f-0_
  6
CONTINUOUS
 62
    7
 10
63.516368914522616
 20
24.607477417767214
 11
221.51636891452262
 21
24.607477417767214
  0
LINE
  8
ADD_LINE
  6
DOT
 62
    9
 10
15.514868914522566
 20
12.607477417767257
 11
15.514868914522566
 21
9.1074774177672566
  0
LINE
  8
ADD_LINE
  6
DOT
 62
    9
 10
18.514868914522566
 20
12.607477417767257
 11
18.514868914522566
 21
9.1074774823678126
  0
LINE
  8
ADD_LINE
  6
DOT
 62
    9
 10
8.014868914522566
 20
8.1074774177672566
 11
415.01486891452259
 21
8.1074774177672566
  0
LINE
  8
ADD_LINE
  6
DOT
 62
    9
 10
8.014868914522566
 20
290.10747741776726
 11
8.014868914522566
 21
8.1074774177672566
  0
LINE
  8
ADD_LINE
  6
DOT
 62
    9
 10
415.01486891452259
 20
290.10747741776726
 11
8.014868914522566
 21
290.10747741776726
  0
LINE
  8
ADD_LINE
  6
DOT
 62
    9
 10
415.01486891452259
 20
8.1074774177672566
 11
415.01486891452259
 21
290.10747741776726
  0
LINE
  8
_f-0_
  6
CONTINUOUS
 62
    7
 10
63.516368914522616
 20
14.607477417767257
 11
63.516368914522616
 21
24.607477417767214
  0
LINE
  8
ADD_LINE
  6
DOT
 62
    9
 10
17.516368914522616
 20
14.607477417767257
 11
17.516368914522616
 21
24.607477417767214
  0
LINE
  8
ADD_LINE
  6
DOT
 62
    9
 10
61.516368914522616
 20
14.607477417767257
 11
61.516368914522616
 21
24.607477417767214
  0
LINE
  8
_f-0_
  6
CONTINUOUS
 62
    7
 10
17.516368914522616
 20
14.607477417767257
 11
61.516368914522616
 21
14.607477417767257
  0
LINE
  8
_f-0_
  6
CONTINUOUS
 62
    7
 10
17.516368914522616
 20
24.607477417767214
 11
61.516368914522616
 21
24.607477417767214
  0
LINE
  8
_f-0_
  6
CONTINUOUS
 62
    7
 10
142.51636891452262
 20
14.607477417767257
 11
142.51636891452262
 21
24.607477417767214
  0
LINE
  8
_f-0_
  6
CONTINUOUS
 62
    7
 10
221.51636891452262
 20
14.607477417767257
 11
221.51636891452262
 21
24.607477417767214
  0
LINE
  8
_f-0_
  6
CONTINUOUS
 62
    7
 10
222.51636891452262
 20
14.607477417767257
 11
222.51636891452262
 21
24.607477417767214
  0
LINE
  8
_f-0_
  6
CONTINUOUS
 62
    7
 10
63.516368914522616
 20
14.607477417767257
 11
221.51636891452262
 21
14.607477417767257
  0
LINE
  8
_f-0_
  6
CONTINUOUS
 62
    7
 10
271.51636891452262
 20
14.607477417767257
 11
271.51636891452262
 21
24.607477417767214
  0
LINE
  8
_f-0_
  6
CONTINUOUS
 62
    7
 10
272.51636891452262
 20
14.607477417767257
 11
272.51636891452262
 21
24.607477417767214
  0
LINE
  8
_f-0_
  6
CONTINUOUS
 62
    7
 10
222.51636891452262
 20
14.607477417767257
 11
271.51636891452262
 21
14.607477417767257
  0
LINE
  8
_f-0_
  6
CONTINUOUS
 62
    7
 10
222.51636891452262
 20
24.607477417767214
 11
271.51636891452262
 21
24.607477417767214
  0
LINE
  8
_f-0_
  6
CONTINUOUS
 62
    7
 10
302.51636891452262
 20
14.607477417767257
 11
302.51636891452262
 21
24.607477417767214
  0
LINE
  8
_f-0_
  6
CONTINUOUS
 62
    7
 10
332.51636891452267
 20
14.607477417767257
 11
332.51636891452267
 21
24.607477417767214
  0
LINE
  8
_f-0_
  6
CONTINUOUS
 62
    7
 10
370.51636891452262
 20
14.607477417767257
 11
370.51636891452262
 21
24.607477417767214
  0
LINE
  8
_f-0_
  6
CONTINUOUS
 62
    7
 10
272.51636891452262
 20
14.607477417767257
 11
411.51636891452262
 21
14.607477417767257
  0
LINE
  8
_f-0_
  6
CONTINUOUS
 62
    7
 10
411.51636891452262
 20
14.607477417767257
 11
411.51636891452262
 21
24.607477417767214
  0
LINE
  8
_f-0_
  6
CONTINUOUS
 62
    7
 10
272.51636891452262
 20
24.607477417767214
 11
411.51636891452262
 21
24.607477417767214
  0
LINE
  8
_f-0_
  6
CONTINUOUS
 62
  230
 10
413.51636891452262
 20
288.6074774177672
 11
413.51636891452262
 21
12.607477417767257
  0
LINE
  8
_f-0_
  6
CONTINUOUS
 62
  230
 10
15.516368914522616
 20
288.6074774177672
 11
413.51636891452262
 21
288.6074774177672
  0
LINE
  8
_f-0_
  6
CONTINUOUS
 62
  230
 10
15.516368914522616
 20
12.607477417767257
 11
413.51636891452262
 21
12.607477417767257
  0
LINE
  8
_f-0_
  6
CONTINUOUS
 62
  230
 10
15.516368914522616
 20
12.607477417767257
 11
15.516368914522616
 21
288.6074774177672
  0
LINE
  8
ADD_LINE
  6
DOT
 62
    9
 10
63.516368914522616
 20
22.607477417767242
 11
221.51636891452262
 21
22.607477417767242
  0
LINE
  8
ADD_LINE
  6
DOT
 62
    9
 10
272.51636891452262
 20
22.607477417767242
 11
411.51636891452262
 21
22.607477417767242
  0
LINE
  8
ADD_LINE
  6
DOT
 62
    9
 10
274.51636891452262
 20
14.607477417767257
 11
274.51636891452262
 21
24.607477417767214
  0
LINE
  8
ADD_LINE
  6
DOT
 62
    9
 10
304.51636891452262
 20
14.607477417767257
 11
304.51636891452262
 21
24.607477417767214
  0
LINE
  8
ADD_LINE
  6
DOT
 62
    9
 10
334.51636891452262
 20
14.607477417767257
 11
334.51636891452262
 21
24.607477417767214
  0
LINE
  8
ADD_LINE
  6
DOT
 62
    9
 10
372.51636891452262
 20
14.607477417767257
 11
372.51636891452262
 21
24.607477417767214
  0
LINE
  8
ADD_LINE
  6
DOT
 62
    9
 10
145.01636891452262
 20
14.607477417767257
 11
145.01636891452262
 21
24.607477417767214
  0
LINE
  8
ADD_LINE
  6
DOT
 62
    9
 10
66.016368914522616
 20
14.607477417767257
 11
66.016368914522616
 21
24.607477417767214
  0
LINE
  8
ADD_LINE
  6
DOT
 62
    9
 10
366.51636891452262
 20
14.607477417767257
 11
366.51636891452262
 21
24.607477417767214
  0
LINE
  8
ADD_LINE
  6
DOT
 62
    9
 10
272.51636891452262
 20
18.607477417767257
 11
411.51636891452262
 21
18.607477417767257
  0
TEXT
  8
_f-0_
 62
    7
 10
334.51636891452262
 20
21.357477417767242
 40
2.5
 41
0.64
 50
0
  1
ＣＨＥＣＫＥＤ
  0
TEXT
  8
_f-0_
 62
    7
 10
372.51636891452267
 20
21.357477417767242
 40
2.5
 41
0.64
 50
0
  1
ＳＨＥＥＴ　ＮＯ．
  0
TEXT
  8
_f-0_
 62
    7
 10
354.7163689145226
 20
21.357477417767242
 40
2.5
 41
0.64
 50
0
  1
ＤＲＡＷＩＮＧ
  0
LINE
  8
ADD_LINE
  6
DOT
 62
    9
 10
14.016368914522559
 20
9.1074774177672566
 11
14.016368914522559
 21
288.6074774177672
  0
LINE
  8
_f-0_
  6
CONTINUOUS
 62
    7
 10
17.516368914522616
 20
19.607477417767257
 11
61.516368914522616
 21
19.607477417767257
  0
LINE
  8
ADD_LINE
  6
DOT
 62
    9
 10
291.51636891452262
 20
14.607477417767257
 11
291.51636891452262
 21
24.607477417767214
  0
LINE
  8
ADD_LINE
  6
DOT
 62
    9
 10
317.51636891452267
 20
14.607477417767257
 11
317.51636891452267
 21
24.607477417767214
  0
LINE
  8
ADD_LINE
  6
DOT
 62
    9
 10
350.51636891452262
 20
24.607477417767214
 11
350.51636891452262
 21
14.607477417767257
  0
LINE
  8
ADD_LINE
  6
DOT
 62
    9
 10
63.516368914522616
 20
18.607477417767257
 11
221.51636891452262
 21
18.607477417767257
  0
LINE
  8
ADD_LINE
  6
DOT
 62
    9
 10
103.01636891452262
 20
24.607477417767214
 11
103.01636891452262
 21
14.607477417767257
  0
TEXT
  8
_f-0_
 62
    7
 10
274.55376732306468
 20
21.354414717252212
 40
2.5
 41
0.64
 50
0
  1
ＳＣＡＬＥ
  0
TEXT
  8
_f-0_
 62
    7
 10
145.01636891452262
 20
21.357477417767242
 40
2.5
 41
0.8
 50
0
  1
図面名称
  0
TEXT
  8
_f-0_
 62
    7
 10
66.016368914522616
 20
21.357477417767242
 40
2.5
 41
0.8
 50
0
  1
名　称
  0
LINE
  8
ADD_LINE
  6
DOT
 62
    9
 10
182.01636891452262
 20
14.607477417767257
 11
182.01636891452262
 21
24.607477417767214
  0
LINE
  8
_f-0_
  6
CONTINUOUS
 62
    7
 10
217.01636891452262
 20
289.80747741776725
 11
217.13136891452262
 21
290.00747741776729
  0
LINE
  8
_f-0_
  6
CONTINUOUS
 62
    7
 10
216.38036891452262
 20
290.30747741776725
 11
217.01636891452262
 21
289.20747741776722
  0
LINE
  8
_f-0_
  6
CONTINUOUS
 62
    7
 10
217.01636891452262
 20
289.20747741776722
 11
217.65136891452261
 21
290.30747741776725
  0
LINE
  8
_f-0_
  6
CONTINUOUS
 62
    7
 10
217.01636891452262
 20
288.6074774177672
 11
218.17036891452261
 21
290.6074774177672
  0
LINE
  8
_f-0_
  6
CONTINUOUS
 62
    7
 10
215.86136891452261
 20
290.6074774177672
 11
217.01636891452262
 21
288.6074774177672
  0
LINE
  8
_f-0_
  6
CONTINUOUS
 62
    7
 10
218.17036891452261
 20
290.6074774177672
 11
215.86136891452261
 21
290.6074774177672
  0
LINE
  8
_f-0_
  6
CONTINUOUS
 62
    7
 10
216.90036891452263
 20
290.00747741776729
 11
217.01636891452262
 21
289.80747741776725
  0
LINE
  8
_f-0_
  6
CONTINUOUS
 62
    7
 10
217.13136891452262
 20
290.00747741776729
 11
216.90036891452263
 21
290.00747741776729
  0
LINE
  8
_f-0_
  6
CONTINUOUS
 62
    7
 10
217.65136891452261
 20
290.30747741776725
 11
216.38036891452262
 21
290.30747741776725
  0
LINE
  8
_f-0_
  6
CONTINUOUS
 62
    7
 10
12.516368914522616
 20
148.87542661019836
 11
12.516368914522616
 21
152.33952822533612
  0
LINE
  8
_f-0_
  6
CONTINUOUS
 62
    7
 10
12.516368914522616
 20
152.33952822533612
 11
15.516368914522616
 21
150.60747741776726
  0
LINE
  8
_f-0_
  6
CONTINUOUS
 62
    7
 10
15.516368914522616
 20
150.60747741776726
 11
12.516368914522616
 21
148.87542661019836
  0
LINE
  8
_f-0_
  6
CONTINUOUS
 62
    7
 10
13.016368914522616
 20
149.74145201398278
 11
13.016368914522616
 21
151.47350282155168
  0
LINE
  8
_f-0_
  6
CONTINUOUS
 62
    7
 10
13.016368914522616
 20
151.47350282155168
 11
14.516368914522616
 21
150.60747741776726
  0
LINE
  8
_f-0_
  6
CONTINUOUS
 62
    7
 10
14.516368914522616
 20
150.60747741776726
 11
13.016368914522616
 21
149.74145201398278
  0
LINE
  8
_f-0_
  6
CONTINUOUS
 62
    7
 10
13.416368914522536
 20
150.43427233701033
 11
13.416368914522536
 21
150.78068249852413
  0
LINE
  8
_f-0_
  6
CONTINUOUS
 62
    7
 10
13.416368914522536
 20
150.78068249852413
 11
13.716368914522661
 21
150.60747741776726
  0
LINE
  8
_f-0_
  6
CONTINUOUS
 62
    7
 10
13.716368914522661
 20
150.60747741776726
 11
13.416368914522536
 21
150.43427233701033
  0
LINE
  8
ADD_LINE
  6
DOT
 62
    9
 10
108.01636891452262
 20
24.607477417767214
 11
108.01636891452262
 21
14.607477417767257
  0
LINE
  8
ADD_LINE
  6
DOT
 62
    9
 10
187.01636891452262
 20
14.607477417767257
 11
187.01636891452262
 21
24.607477417767214
  0
TEXT
  8
_f-0_
 62
    7
 10
15.514868914522594
 20
9.1074774177672566
 40
2
 41
1
 50
0
  1
%f
  0
LINE
  8
ADD_LINE
  6
DOT
 62
    9
 10
13.016368914522616
 20
9.1074774177672566
 11
18.514868914522566
 21
9.1074774823678126
  0
TEXT
  8
_f-0_
 62
    7
 10
399.51636891452262
 20
9.1074777407702072
 40
2
 41
1
 50
0
  1
%y
  0
TEXT
  8
_f-0_
 62
    7
 10
402.51636891452267
 20
9.1074777407702072
 40
2
 41
1
 50
0
  1
．
  0
TEXT
  8
_f-0_
 62
    7
 10
405.51636891452262
 20
9.1074777407702072
 40
2
 41
1
 50
0
  1
%m
  0
TEXT
  8
_f-0_
 62
    7
 10
408.51636891452262
 20
9.1074777407702072
 40
2
 41
1
 50
0
  1
．
  0
TEXT
  8
_f-0_
 62
    7
 10
411.51636891452267
 20
9.1074777407702072
 40
2
 41
1
 50
0
  1
%d
  0
LINE
  8
ADD_LINE
  6
DOT
 62
    9
 10
413.51636891452262
 20
12.607477417767257
 11
413.51636891452262
 21
9.1074777407702072
  0
LINE
  8
ADD_LINE
  6
DOT
 62
    9
 10
410.51636891452262
 20
12.607477417767257
 11
410.51636891452262
 21
9.1074777407702072
  0
LINE
  8
ADD_LINE
  6
DOT
 62
    9
 10
407.51636891452267
 20
12.607477417767257
 11
407.51636891452267
 21
9.1074777407702072
  0
LINE
  8
ADD_LINE
  6
DOT
 62
    9
 10
404.51636891452267
 20
12.607477417767257
 11
404.51636891452267
 21
9.1074777407702072
  0
LINE
  8
ADD_LINE
  6
DOT
 62
    9
 10
401.51636891452262
 20
12.607477417767257
 11
401.51636891452262
 21
9.1074777407702072
  0
LINE
  8
ADD_LINE
  6
DOT
 62
    9
 10
398.51636891452262
 20
12.607477417767257
 11
398.51636891452262
 21
9.1074774177672566
  0
LINE
  8
ADD_LINE
  6
DOT
 62
    9
 10
398.51636891452262
 20
9.1074774177672566
 11
413.51636891452262
 21
9.1074777407702072
  0
LINE
  8
ADD_LINE
  6
DOT
 62
    9
 10
13.016368914522616
 20
9.1074774177672566
 11
13.016368914522616
 21
288.6074774177672
  0
INSERT
  2
-004-33-108AX__39
  8
_f-0_
 10
1901.6599019556372
 20
2383.4099562044612
 41
2
 42
2
 50
0
  0
INSERT
  2
-007-33-108AX__42
  8
_f-0_
 10
1797.5235836179434
 20
2383.4099562044617
 41
2
 42
2
 50
0
  0
INSERT
  2
-008-87-63
  8
_f-0_
 10
1762.1673592743095
 20
2313.6243239605778
 41
2
 42
2
 50
0
  0
TEXT
  8
_f-0_
 62
    7
 10
304.51636891452262
 20
21.357477417767242
 40
2.5
 41
0.64
 50
0
  1
ＤＡＴＡ
  0
TEXT
  8
_f-0_
 62
    7
 10
285.11592608196781
 20
17.023001900390852
 40
3.5
 41
0.5714285714285714
 50
0
  1
１／１
  0
LINE
  8
_0-0_
  6
CONTINUOUS
 62
    7
 10
196.15017403862487
 20
135.64312405189622
 11
219.15017403862487
 21
135.64312405189622
  0
ARC
  8
_0-0_
  6
CONTINUOUS
 62
    7
 10
173.15017403862487
 20
137.14312405189622
 40
1.5
 50
221.81000000000006
 51
270.00000000000006
  0
ARC
  8
_0-0_
  6
CONTINUOUS
 62
    7
 10
173.15017403862487
 20
137.14312405189622
 40
1.5
 50
221.81000000000006
 51
270.00000000000006
  0
POINT
  8
_0-0_
 62
    7
 10
237.9326740386249
 20
136.14312405189622
  0
POINT
  8
_0-0_
 62
    7
 10
237.9326740386249
 20
136.14312405189622
  0
LINE
  8
_0-0_
  6
CONTINUOUS
 62
    7
 10
196.15017403862487
 20
135.64312405189622
 11
173.15017403862487
 21
135.64312405189622
  0
LINE
  8
_0-0_
  6
CONTINUOUS
 62
    7
 10
196.15017403862487
 20
135.64312405189622
 11
219.15017403862487
 21
135.64312405189622
  0
LINE
  8
_0-0_
  6
CONTINUOUS
 62
    7
 10
237.9326740386249
 20
145.14312405189622
 11
237.9326740386249
 21
136.14312405189622
  0
LINE
  8
_0-0_
  6
CONTINUOUS
 62
    7
 10
237.9326740386249
 20
157.60712405189622
 11
237.9326740386249
 21
145.14312405189622
  0
LINE
  8
_0-0_
  6
CONTINUOUS
 62
    7
 10
224.90017403862487
 20
136.14312405189622
 11
239.4326740386249
 21
136.14312405189622
  0
LINE
  8
_0-0_
  6
CONTINUOUS
 62
    7
 10
237.9326740386249
 20
145.14312405189622
 11
237.9326740386249
 21
151.49312405189622
  0
LINE
  8
_0-0_
  6
CONTINUOUS
 62
    7
 10
237.9326740386249
 20
136.14312405189622
 11
237.9326740386249
 21
129.7931240518962
  0
LINE
  8
_0-0_
  6
CONTINUOUS
 62
    7
 10
237.9326740386249
 20
136.14312405189622
 11
237.9326740386249
 21
145.14312405189622
  0
LINE
  8
_0-0_
  6
CONTINUOUS
 62
    7
 10
184.15017403862487
 20
130.5705240518962
 11
208.15017403862487
 21
130.5705240518962
  0
LINE
  8
_0-0_
  6
CONTINUOUS
 62
    7
 10
166.29347403862488
 20
130.5705240518962
 11
184.15017403862487
 21
130.5705240518962
  0
LINE
  8
_0-0_
  6
CONTINUOUS
 62
    7
 10
184.15017403862487
 20
128.28702405189622
 11
184.15017403862487
 21
132.0705240518962
  0
LINE
  8
_0-0_
  6
CONTINUOUS
 62
    7
 10
208.15017403862487
 20
128.28702405189622
 11
208.15017403862487
 21
132.0705240518962
  0
LINE
  8
_0-0_
  6
CONTINUOUS
 62
    7
 10
184.15017403862487
 20
130.5705240518962
 11
177.80017403862487
 21
130.5705240518962
  0
LINE
  8
_0-0_
  6
CONTINUOUS
 62
    7
 10
208.15017403862487
 20
130.5705240518962
 11
214.50017403862489
 21
130.5705240518962
  0
LINE
  8
_0-0_
  6
CONTINUOUS
 62
    7
 10
208.15017403862487
 20
130.5705240518962
 11
184.15017403862487
 21
130.5705240518962
  0
LINE
  8
_0-0_
  6
CONTINUOUS
 62
    7
 10
217.65017403862487
 20
113.47342405189622
 11
174.65017403862487
 21
113.47342405189622
  0
LINE
  8
_0-0_
  6
CONTINUOUS
 62
    7
 10
174.65017403862487
 20
113.47342405189622
 11
158.36287403862488
 21
113.47342405189622
  0
LINE
  8
_0-0_
  6
CONTINUOUS
 62
    7
 10
217.65017403862487
 20
115.78702405189621
 11
217.65017403862487
 21
111.97342405189622
  0
LINE
  8
_0-0_
  6
CONTINUOUS
 62
    7
 10
174.65017403862487
 20
115.78702405189621
 11
174.65017403862487
 21
111.97342405189622
  0
LINE
  8
_0-0_
  6
CONTINUOUS
 62
    7
 10
217.65017403862487
 20
113.47342405189622
 11
224.00017403862489
 21
113.47342405189622
  0
LINE
  8
_0-0_
  6
CONTINUOUS
 62
    7
 10
174.65017403862487
 20
113.47342405189622
 11
168.30017403862487
 21
113.47342405189622
  0
LINE
  8
_0-0_
  6
CONTINUOUS
 62
    7
 10
174.65017403862487
 20
113.47342405189622
 11
217.65017403862487
 21
113.47342405189622
  0
LINE
  8
_0-0_
  6
CONTINUOUS
 62
    7
 10
193.15017403862487
 20
84.137224051896212
 11
186.06017403862489
 21
72.815424051896215
  0
LINE
  8
_0-0_
  6
CONTINUOUS
 62
    7
 10
192.39917403862489
 20
82.283624051896211
 11
191.81047403862487
 21
82.652224051896212
  0
LINE
  8
_0-0_
  6
CONTINUOUS
 62
    7
 10
192.39917403862489
 20
82.283624051896211
 11
193.15017403862487
 21
84.137224051896212
  0
LINE
  8
_0-0_
  6
CONTINUOUS
 62
    7
 10
191.81047403862487
 20
82.652224051896212
 11
193.15017403862487
 21
84.137224051896212
  0
LINE
  8
_0-0_
  6
CONTINUOUS
 62
    7
 10
186.06017403862489
 20
72.815424051896215
 11
170.01187403862488
 21
72.815424051896215
  0
LINE
  8
_0-0_
  6
CONTINUOUS
 62
    7
 10
246.09507403862489
 20
145.14312405189622
 11
246.09507403862489
 21
70.643124051896208
  0
LINE
  8
_0-0_
  6
CONTINUOUS
 62
    7
 10
197.65017403862487
 20
145.14312405189622
 11
247.59507403862489
 21
145.14312405189622
  0
LINE
  8
_0-0_
  6
CONTINUOUS
 62
    7
 10
200.10887403862489
 20
70.643124051896208
 11
247.59507403862489
 21
70.643124051896208
  0
LINE
  8
_0-0_
  6
CONTINUOUS
 62
    7
 10
246.09507403862489
 20
70.643124051896208
 11
246.09507403862489
 21
145.14312405189622
  0
LINE
  8
_0-0_
  6
CONTINUOUS
 62
    7
 10
168.90017403862487
 20
162.76552405189622
 11
223.40017403862487
 21
162.76552405189622
  0
LINE
  8
_0-0_
  6
CONTINUOUS
 62
    7
 10
168.90017403862487
 20
139.52482405189622
 11
168.90017403862487
 21
164.26552405189622
  0
LINE
  8
_0-0_
  6
CONTINUOUS
 62
    7
 10
223.40017403862487
 20
139.52482405189622
 11
223.40017403862487
 21
164.26552405189622
  0
LINE
  8
_0-0_
  6
CONTINUOUS
 62
    7
 10
223.40017403862487
 20
162.76552405189622
 11
168.90017403862487
 21
162.76552405189622
  0
LINE
  8
_0-0_
  6
CENTER1
 62
    7
 10
196.15017403862487
 20
180.42232405189623
 11
196.15017403862487
 21
257.09942405189622
  0
LINE
  8
_0-0_
  6
CENTER1
 62
    7
 10
154.02307403862488
 20
217.6903240518962
 11
236.63597403862488
 21
217.6903240518962
  0
LINE
  8
_0-0_
  6
CONTINUOUS
 62
    7
 10
193.15017403862487
 20
71.184424051896215
 11
193.15017403862487
 21
107.78702405189621
  0
LINE
  8
_0-0_
  6
CONTINUOUS
 62
    7
 10
193.69147403862488
 20
70.643124051896208
 11
193.69147403862488
 21
107.78702405189621
  0
LINE
  8
_0-0_
  6
CONTINUOUS
 62
    7
 10
193.69147403862488
 20
70.643124051896208
 11
193.15017403862487
 21
71.184424051896215
  0
LINE
  8
_0-0_
  6
CONTINUOUS
 62
    7
 10
168.90017403862487
 20
136.14312405189622
 11
168.90017403862487
 21
138.02482405189622
  0
LINE
  8
_0-0_
  6
CONTINUOUS
 62
    7
 10
174.65017403862487
 20
117.28702405189621
 11
174.65017403862487
 21
120.28702405189621
  0
LINE
  8
_0-0_
  6
CONTINUOUS
 62
    7
 10
184.15017403862487
 20
126.78702405189621
 11
174.65017403862487
 21
120.28702405189621
  0
LINE
  8
_0-0_
  6
CONTINUOUS
 62
    7
 10
175.65017403862487
 20
116.78702405189621
 11
175.65017403862487
 21
117.28702405189621
  0
LINE
  8
_0-0_
  6
CONTINUOUS
 62
    7
 10
181.43977403862488
 20
116.51122405189622
 11
185.82087403862488
 21
112.33882405189621
  0
LINE
  8
_0-0_
  6
CONTINUOUS
 62
    7
 10
193.15017403862487
 20
126.78702405189621
 11
193.15017403862487
 21
135.64312405189622
  0
LINE
  8
_0-0_
  6
CONTINUOUS
 62
    7
 10
193.69147403862488
 20
126.78702405189621
 11
193.69147403862488
 21
135.64312405189622
  0
LINE
  8
_0-0_
  6
CONTINUOUS
 62
    7
 10
191.54707403862488
 20
111.19482405189622
 11
192.27727403862488
 21
108.25172405189622
  0
LINE
  8
_0-0_
  6
CONTINUOUS
 62
    7
 10
188.48677403862487
 20
110.44832405189621
 11
186.45947403862488
 21
107.94012405189622
  0
LINE
  8
_0-0_
  6
CONTINUOUS
 62
    7
 10
192.08517403862487
 20
107.86892405189622
 11
192.04457403862489
 21
107.72762405189621
  0
LINE
  8
_0-0_
  6
CONTINUOUS
 62
    7
 10
192.04457403862489
 20
107.72762405189621
 11
192.02747403862489
 21
107.66832405189621
  0
LINE
  8
_0-0_
  6
CONTINUOUS
 62
    7
 10
192.02747403862489
 20
107.66832405189621
 11
192.00697403862489
 21
107.59742405189621
  0
LINE
  8
_0-0_
  6
CONTINUOUS
 62
    7
 10
192.00697403862489
 20
107.59742405189621
 11
191.98357403862488
 21
107.51662405189622
  0
LINE
  8
_0-0_
  6
CONTINUOUS
 62
    7
 10
191.98357403862488
 20
107.51662405189622
 11
191.95747403862487
 21
107.42762405189622
  0
LINE
  8
_0-0_
  6
CONTINUOUS
 62
    7
 10
191.95747403862487
 20
107.42762405189622
 11
191.92927403862487
 21
107.33212405189622
  0
LINE
  8
_0-0_
  6
CONTINUOUS
 62
    7
 10
191.92927403862487
 20
107.33212405189622
 11
191.89927403862487
 21
107.23162405189622
  0
LINE
  8
_0-0_
  6
CONTINUOUS
 62
    7
 10
191.89927403862487
 20
107.23162405189622
 11
191.86797403862488
 21
107.12792405189622
  0
LINE
  8
_0-0_
  6
CONTINUOUS
 62
    7
 10
191.86797403862488
 20
107.12792405189622
 11
191.83567403862489
 21
107.02272405189622
  0
LINE
  8
_0-0_
  6
CONTINUOUS
 62
    7
 10
191.83567403862489
 20
107.02272405189622
 11
191.80277403862488
 21
106.91742405189622
  0
LINE
  8
_0-0_
  6
CONTINUOUS
 62
    7
 10
191.80277403862488
 20
106.91742405189622
 11
191.76937403862487
 21
106.81212405189622
  0
LINE
  8
_0-0_
  6
CONTINUOUS
 62
    7
 10
191.76937403862487
 20
106.81212405189622
 11
191.73537403862488
 21
106.70712405189622
  0
LINE
  8
_0-0_
  6
CONTINUOUS
 62
    7
 10
191.73537403862488
 20
106.70712405189622
 11
191.70097403862488
 21
106.60212405189621
  0
LINE
  8
_0-0_
  6
CONTINUOUS
 62
    7
 10
191.70097403862488
 20
106.60212405189621
 11
191.66597403862488
 21
106.49732405189621
  0
LINE
  8
_0-0_
  6
CONTINUOUS
 62
    7
 10
191.66597403862488
 20
106.49732405189621
 11
191.63037403862489
 21
106.39272405189621
  0
LINE
  8
_0-0_
  6
CONTINUOUS
 62
    7
 10
191.63037403862489
 20
106.39272405189621
 11
191.59437403862489
 21
106.28822405189621
  0
LINE
  8
_0-0_
  6
CONTINUOUS
 62
    7
 10
191.59437403862489
 20
106.28822405189621
 11
191.55777403862487
 21
106.18382405189621
  0
LINE
  8
_0-0_
  6
CONTINUOUS
 62
    7
 10
191.55777403862487
 20
106.18382405189621
 11
191.52067403862489
 21
106.07972405189622
  0
LINE
  8
_0-0_
  6
CONTINUOUS
 62
    7
 10
191.52067403862489
 20
106.07972405189622
 11
191.48307403862486
 21
105.97572405189621
  0
LINE
  8
_0-0_
  6
CONTINUOUS
 62
    7
 10
191.48307403862486
 20
105.97572405189621
 11
191.44487403862487
 21
105.87182405189621
  0
LINE
  8
_0-0_
  6
CONTINUOUS
 62
    7
 10
191.44487403862487
 20
105.87182405189621
 11
191.40627403862487
 21
105.76822405189621
  0
LINE
  8
_0-0_
  6
CONTINUOUS
 62
    7
 10
191.40627403862487
 20
105.76822405189621
 11
191.36707403862488
 21
105.66472405189621
  0
LINE
  8
_0-0_
  6
CONTINUOUS
 62
    7
 10
191.36707403862488
 20
105.66472405189621
 11
191.32737403862487
 21
105.56142405189621
  0
LINE
  8
_0-0_
  6
CONTINUOUS
 62
    7
 10
191.32737403862487
 20
105.56142405189621
 11
191.28717403862487
 21
105.45832405189621
  0
LINE
  8
_0-0_
  6
CONTINUOUS
 62
    7
 10
191.28717403862487
 20
105.45832405189621
 11
191.24637403862488
 21
105.35542405189622
  0
LINE
  8
_0-0_
  6
CONTINUOUS
 62
    7
 10
191.24637403862488
 20
105.35542405189622
 11
191.20517403862488
 21
105.25272405189622
  0
LINE
  8
_0-0_
  6
CONTINUOUS
 62
    7
 10
191.20517403862488
 20
105.25272405189622
 11
191.16337403862488
 21
105.15022405189622
  0
LINE
  8
_0-0_
  6
CONTINUOUS
 62
    7
 10
191.16337403862488
 20
105.15022405189622
 11
191.12107403862487
 21
105.04792405189622
  0
LINE
  8
_0-0_
  6
CONTINUOUS
 62
    7
 10
191.12107403862487
 20
105.04792405189622
 11
191.07827403862487
 21
104.94582405189621
  0
LINE
  8
_0-0_
  6
CONTINUOUS
 62
    7
 10
191.07827403862487
 20
104.94582405189621
 11
191.03497403862488
 21
104.84392405189621
  0
LINE
  8
_0-0_
  6
CONTINUOUS
 62
    7
 10
191.03497403862488
 20
104.84392405189621
 11
190.99107403862487
 21
104.74222405189622
  0
LINE
  8
_0-0_
  6
CONTINUOUS
 62
    7
 10
190.99107403862487
 20
104.74222405189622
 11
190.94677403862488
 21
104.64082405189622
  0
LINE
  8
_0-0_
  6
CONTINUOUS
 62
    7
 10
190.94677403862488
 20
104.64082405189622
 11
190.90197403862487
 21
104.53952405189622
  0
LINE
  8
_0-0_
  6
CONTINUOUS
 62
    7
 10
190.90197403862487
 20
104.53952405189622
 11
190.85657403862487
 21
104.43852405189621
  0
LINE
  8
_0-0_
  6
CONTINUOUS
 62
    7
 10
190.85657403862487
 20
104.43852405189621
 11
190.81067403862488
 21
104.33782405189621
  0
LINE
  8
_0-0_
  6
CONTINUOUS
 62
    7
 10
190.81067403862488
 20
104.33782405189621
 11
190.76437403862488
 21
104.23722405189622
  0
LINE
  8
_0-0_
  6
CONTINUOUS
 62
    7
 10
190.76437403862488
 20
104.23722405189622
 11
190.71747403862489
 21
104.13692405189622
  0
LINE
  8
_0-0_
  6
CONTINUOUS
 62
    7
 10
190.71747403862489
 20
104.13692405189622
 11
190.67007403862488
 21
104.03692405189622
  0
LINE
  8
_0-0_
  6
CONTINUOUS
 62
    7
 10
190.67007403862488
 20
104.03692405189622
 11
190.62217403862488
 21
103.93712405189622
  0
LINE
  8
_0-0_
  6
CONTINUOUS
 62
    7
 10
190.62217403862488
 20
103.93712405189622
 11
190.57377403862489
 21
103.83752405189621
  0
LINE
  8
_0-0_
  6
CONTINUOUS
 62
    7
 10
190.57377403862489
 20
103.83752405189621
 11
190.52487403862489
 21
103.73832405189621
  0
LINE
  8
_0-0_
  6
CONTINUOUS
 62
    7
 10
190.52487403862489
 20
103.73832405189621
 11
190.47557403862487
 21
103.63922405189621
  0
LINE
  8
_0-0_
  6
CONTINUOUS
 62
    7
 10
190.47557403862487
 20
103.63922405189621
 11
190.42567403862489
 21
103.54052405189621
  0
LINE
  8
_0-0_
  6
CONTINUOUS
 62
    7
 10
190.42567403862489
 20
103.54052405189621
 11
190.37527403862487
 21
103.44202405189621
  0
LINE
  8
_0-0_
  6
CONTINUOUS
 62
    7
 10
190.37527403862487
 20
103.44202405189621
 11
190.32437403862488
 21
103.34382405189622
  0
LINE
  8
_0-0_
  6
CONTINUOUS
 62
    7
 10
190.32437403862488
 20
103.34382405189622
 11
190.27297403862488
 21
103.24582405189622
  0
LINE
  8
_0-0_
  6
CONTINUOUS
 62
    7
 10
190.27297403862488
 20
103.24582405189622
 11
190.22107403862486
 21
103.14822405189622
  0
LINE
  8
_0-0_
  6
CONTINUOUS
 62
    7
 10
190.22107403862486
 20
103.14822405189622
 11
190.16877403862489
 21
103.05082405189621
  0
LINE
  8
_0-0_
  6
CONTINUOUS
 62
    7
 10
190.16877403862489
 20
103.05082405189621
 11
190.1158740386249
 21
102.95372405189622
  0
LINE
  8
_0-0_
  6
CONTINUOUS
 62
    7
 10
190.1158740386249
 20
102.95372405189622
 11
190.06247403862488
 21
102.85692405189621
  0
LINE
  8
_0-0_
  6
CONTINUOUS
 62
    7
 10
190.06247403862488
 20
102.85692405189621
 11
190.00867403862489
 21
102.76042405189621
  0
LINE
  8
_0-0_
  6
CONTINUOUS
 62
    7
 10
190.00867403862489
 20
102.76042405189621
 11
189.95427403862487
 21
102.66422405189621
  0
LINE
  8
_0-0_
  6
CONTINUOUS
 62
    7
 10
189.95427403862487
 20
102.66422405189621
 11
189.89947403862487
 21
102.56842405189622
  0
LINE
  8
_0-0_
  6
CONTINUOUS
 62
    7
 10
189.89947403862487
 20
102.56842405189622
 11
189.84417403862489
 21
102.47282405189621
  0
LINE
  8
_0-0_
  6
CONTINUOUS
 62
    7
 10
189.84417403862489
 20
102.47282405189621
 11
189.78837403862488
 21
102.37752405189622
  0
LINE
  8
_0-0_
  6
CONTINUOUS
 62
    7
 10
189.78837403862488
 20
102.37752405189622
 11
189.73207403862489
 21
102.28262405189622
  0
LINE
  8
_0-0_
  6
CONTINUOUS
 62
    7
 10
189.73207403862489
 20
102.28262405189622
 11
189.67527403862488
 21
102.18802405189622
  0
LINE
  8
_0-0_
  6
CONTINUOUS
 62
    7
 10
189.67527403862488
 20
102.18802405189622
 11
189.61797403862488
 21
102.09372405189622
  0
LINE
  8
_0-0_
  6
CONTINUOUS
 62
    7
 10
189.61797403862488
 20
102.09372405189622
 11
189.56027403862487
 21
101.99972405189621
  0
LINE
  8
_0-0_
  6
CONTINUOUS
 62
    7
 10
189.56027403862487
 20
101.99972405189621
 11
189.50197403862489
 21
101.90592405189622
  0
LINE
  8
_0-0_
  6
CONTINUOUS
 62
    7
 10
189.50197403862489
 20
101.90592405189622
 11
189.44307403862487
 21
101.81242405189622
  0
LINE
  8
_0-0_
  6
CONTINUOUS
 62
    7
 10
189.44307403862487
 20
101.81242405189622
 11
189.38367403862489
 21
101.71922405189622
  0
LINE
  8
_0-0_
  6
CONTINUOUS
 62
    7
 10
189.38367403862489
 20
101.71922405189622
 11
189.32367403862489
 21
101.62612405189621
  0
LINE
  8
_0-0_
  6
CONTINUOUS
 62
    7
 10
189.32367403862489
 20
101.62612405189621
 11
189.26307403862489
 21
101.53322405189621
  0
LINE
  8
_0-0_
  6
CONTINUOUS
 62
    7
 10
189.26307403862489
 20
101.53322405189621
 11
189.20177403862488
 21
101.44042405189622
  0
LINE
  8
_0-0_
  6
CONTINUOUS
 62
    7
 10
189.20177403862488
 20
101.44042405189622
 11
189.13987403862487
 21
101.34772405189621
  0
LINE
  8
_0-0_
  6
CONTINUOUS
 62
    7
 10
189.13987403862487
 20
101.34772405189621
 11
189.0773740386249
 21
101.25512405189622
  0
LINE
  8
_0-0_
  6
CONTINUOUS
 62
    7
 10
189.0773740386249
 20
101.25512405189622
 11
189.01427403862488
 21
101.16282405189621
  0
LINE
  8
_0-0_
  6
CONTINUOUS
 62
    7
 10
189.01427403862488
 20
101.16282405189621
 11
188.95057403862489
 21
101.07062405189622
  0
LINE
  8
_0-0_
  6
CONTINUOUS
 62
    7
 10
188.95057403862489
 20
101.07062405189622
 11
188.88627403862489
 21
100.97862405189622
  0
LINE
  8
_0-0_
  6
CONTINUOUS
 62
    7
 10
188.88627403862489
 20
100.97862405189622
 11
188.82137403862487
 21
100.88692405189622
  0
LINE
  8
_0-0_
  6
CONTINUOUS
 62
    7
 10
188.82137403862487
 20
100.88692405189622
 11
188.75607403862489
 21
100.79552405189621
  0
LINE
  8
_0-0_
  6
CONTINUOUS
 62
    7
 10
188.75607403862489
 20
100.79552405189621
 11
188.69017403862489
 21
100.70452405189621
  0
LINE
  8
_0-0_
  6
CONTINUOUS
 62
    7
 10
188.69017403862489
 20
100.70452405189621
 11
188.62397403862488
 21
100.61392405189622
  0
LINE
  8
_0-0_
  6
CONTINUOUS
 62
    7
 10
188.62397403862488
 20
100.61392405189622
 11
188.55847403862487
 21
100.52512405189621
  0
LINE
  8
_0-0_
  6
CONTINUOUS
 62
    7
 10
188.55847403862487
 20
100.52512405189621
 11
188.49467403862488
 21
100.43942405189621
  0
LINE
  8
_0-0_
  6
CONTINUOUS
 62
    7
 10
188.49467403862488
 20
100.43942405189621
 11
188.43387403862488
 21
100.35812405189621
  0
LINE
  8
_0-0_
  6
CONTINUOUS
 62
    7
 10
188.43387403862488
 20
100.35812405189621
 11
188.37697403862489
 21
100.28252405189622
  0
LINE
  8
_0-0_
  6
CONTINUOUS
 62
    7
 10
188.37697403862489
 20
100.28252405189622
 11
188.32527403862488
 21
100.21412405189622
  0
LINE
  8
_0-0_
  6
CONTINUOUS
 62
    7
 10
188.32527403862488
 20
100.21412405189622
 11
188.27977403862488
 21
100.15412405189622
  0
LINE
  8
_0-0_
  6
CONTINUOUS
 62
    7
 10
188.27977403862488
 20
100.15412405189622
 11
188.1509740386249
 21
99.984724051896208
  0
LINE
  8
_0-0_
  6
CONTINUOUS
 62
    7
 10
192.39247403862487
 20
107.78702405189621
 11
191.90607403862487
 21
106.69982405189621
  0
LINE
  8
_0-0_
  6
CONTINUOUS
 62
    7
 10
191.90607403862487
 20
106.69982405189621
 11
191.70237403862487
 21
106.24482405189622
  0
LINE
  8
_0-0_
  6
CONTINUOUS
 62
    7
 10
191.70237403862487
 20
106.24482405189622
 11
191.46237403862489
 21
105.71062405189622
  0
LINE
  8
_0-0_
  6
CONTINUOUS
 62
    7
 10
191.46237403862489
 20
105.71062405189622
 11
191.19547403862487
 21
105.11962405189621
  0
LINE
  8
_0-0_
  6
CONTINUOUS
 62
    7
 10
191.19547403862487
 20
105.11962405189621
 11
190.91077403862488
 21
104.49452405189621
  0
LINE
  8
_0-0_
  6
CONTINUOUS
 62
    7
 10
190.91077403862488
 20
104.49452405189621
 11
190.61777403862487
 21
103.85782405189622
  0
LINE
  8
_0-0_
  6
CONTINUOUS
 62
    7
 10
190.61777403862487
 20
103.85782405189622
 11
190.32557403862489
 21
103.23222405189621
  0
LINE
  8
_0-0_
  6
CONTINUOUS
 62
    7
 10
190.32557403862489
 20
103.23222405189621
 11
190.04367403862489
 21
102.64032405189621
  0
LINE
  8
_0-0_
  6
CONTINUOUS
 62
    7
 10
190.04367403862489
 20
102.64032405189621
 11
189.78127403862487
 21
102.10462405189621
  0
LINE
  8
_0-0_
  6
CONTINUOUS
 62
    7
 10
189.78127403862487
 20
102.10462405189621
 11
189.54597403862488
 21
101.64292405189622
  0
LINE
  8
_0-0_
  6
CONTINUOUS
 62
    7
 10
189.54597403862488
 20
101.64292405189622
 11
189.33787403862488
 21
101.25312405189621
  0
LINE
  8
_0-0_
  6
CONTINUOUS
 62
    7
 10
189.33787403862488
 20
101.25312405189621
 11
189.15567403862488
 21
100.92812405189622
  0
LINE
  8
_0-0_
  6
CONTINUOUS
 62
    7
 10
189.15567403862488
 20
100.92812405189622
 11
188.99777403862487
 21
100.66112405189621
  0
LINE
  8
_0-0_
  6
CONTINUOUS
 62
    7
 10
188.99777403862487
 20
100.66112405189621
 11
188.86267403862487
 21
100.44512405189622
  0
LINE
  8
_0-0_
  6
CONTINUOUS
 62
    7
 10
188.86267403862487
 20
100.44512405189622
 11
188.74887403862488
 21
100.27312405189622
  0
LINE
  8
_0-0_
  6
CONTINUOUS
 62
    7
 10
188.74887403862488
 20
100.27312405189622
 11
188.65487403862488
 21
100.13812405189621
  0
LINE
  8
_0-0_
  6
CONTINUOUS
 62
    7
 10
188.65487403862488
 20
100.13812405189621
 11
188.40017403862487
 21
99.787024051896211
  0
LINE
  8
_0-0_
  6
CONTINUOUS
 62
    7
 10
184.09597403862489
 20
102.16832405189622
 11
184.13747403862487
 21
102.30862405189622
  0
LINE
  8
_0-0_
  6
CONTINUOUS
 62
    7
 10
184.13747403862487
 20
102.30862405189622
 11
184.15487403862488
 21
102.36752405189621
  0
LINE
  8
_0-0_
  6
CONTINUOUS
 62
    7
 10
184.15487403862488
 20
102.36752405189621
 11
184.17577403862487
 21
102.43782405189621
  0
LINE
  8
_0-0_
  6
CONTINUOUS
 62
    7
 10
184.17577403862487
 20
102.43782405189621
 11
184.19987403862487
 21
102.51802405189622
  0
LINE
  8
_0-0_
  6
CONTINUOUS
 62
    7
 10
184.19987403862487
 20
102.51802405189622
 11
184.22657403862488
 21
102.60642405189621
  0
LINE
  8
_0-0_
  6
CONTINUOUS
 62
    7
 10
184.22657403862488
 20
102.60642405189621
 11
184.25557403862487
 21
102.70122405189622
  0
LINE
  8
_0-0_
  6
CONTINUOUS
 62
    7
 10
184.25557403862487
 20
102.70122405189622
 11
184.28657403862488
 21
102.80092405189622
  0
LINE
  8
_0-0_
  6
CONTINUOUS
 62
    7
 10
184.28657403862488
 20
102.80092405189622
 11
184.31907403862488
 21
102.90372405189622
  0
LINE
  8
_0-0_
  6
CONTINUOUS
 62
    7
 10
184.31907403862488
 20
102.90372405189622
 11
184.35267403862488
 21
103.00802405189621
  0
LINE
  8
_0-0_
  6
CONTINUOUS
 62
    7
 10
184.35267403862488
 20
103.00802405189621
 11
184.38707403862489
 21
103.11242405189621
  0
LINE
  8
_0-0_
  6
CONTINUOUS
 62
    7
 10
184.38707403862489
 20
103.11242405189621
 11
184.42227403862489
 21
103.21662405189622
  0
LINE
  8
_0-0_
  6
CONTINUOUS
 62
    7
 10
184.42227403862489
 20
103.21662405189622
 11
184.45817403862489
 21
103.32072405189622
  0
LINE
  8
_0-0_
  6
CONTINUOUS
 62
    7
 10
184.45817403862489
 20
103.32072405189622
 11
184.49477403862488
 21
103.42452405189621
  0
LINE
  8
_0-0_
  6
CONTINUOUS
 62
    7
 10
184.49477403862488
 20
103.42452405189621
 11
184.53207403862487
 21
103.52812405189621
  0
LINE
  8
_0-0_
  6
CONTINUOUS
 62
    7
 10
184.53207403862487
 20
103.52812405189621
 11
184.57017403862488
 21
103.63152405189621
  0
LINE
  8
_0-0_
  6
CONTINUOUS
 62
    7
 10
184.57017403862488
 20
103.63152405189621
 11
184.60897403862486
 21
103.73462405189622
  0
LINE
  8
_0-0_
  6
CONTINUOUS
 62
    7
 10
184.60897403862486
 20
103.73462405189622
 11
184.64857403862487
 21
103.83752405189621
  0
LINE
  8
_0-0_
  6
CONTINUOUS
 62
    7
 10
184.64857403862487
 20
103.83752405189621
 11
184.68887403862487
 21
103.94022405189622
  0
LINE
  8
_0-0_
  6
CONTINUOUS
 62
    7
 10
184.68887403862487
 20
103.94022405189622
 11
184.72987403862487
 21
104.04252405189621
  0
LINE
  8
_0-0_
  6
CONTINUOUS
 62
    7
 10
184.72987403862487
 20
104.04252405189621
 11
184.77167403862489
 21
104.14462405189622
  0
LINE
  8
_0-0_
  6
CONTINUOUS
 62
    7
 10
184.77167403862489
 20
104.14462405189622
 11
184.81407403862488
 21
104.24652405189622
  0
LINE
  8
_0-0_
  6
CONTINUOUS
 62
    7
 10
184.81407403862488
 20
104.24652405189622
 11
184.85737403862487
 21
104.34802405189622
  0
LINE
  8
_0-0_
  6
CONTINUOUS
 62
    7
 10
184.85737403862487
 20
104.34802405189622
 11
184.90127403862488
 21
104.44922405189621
  0
LINE
  8
_0-0_
  6
CONTINUOUS
 62
    7
 10
184.90127403862488
 20
104.44922405189621
 11
184.94597403862488
 21
104.55022405189621
  0
LINE
  8
_0-0_
  6
CONTINUOUS
 62
    7
 10
184.94597403862488
 20
104.55022405189621
 11
184.99137403862488
 21
104.65082405189622
  0
LINE
  8
_0-0_
  6
CONTINUOUS
 62
    7
 10
184.99137403862488
 20
104.65082405189622
 11
185.03747403862488
 21
104.75102405189621
  0
LINE
  8
_0-0_
  6
CONTINUOUS
 62
    7
 10
185.03747403862488
 20
104.75102405189621
 11
185.08437403862487
 21
104.85092405189621
  0
LINE
  8
_0-0_
  6
CONTINUOUS
 62
    7
 10
185.08437403862487
 20
104.85092405189621
 11
185.13197403862489
 21
104.95052405189621
  0
LINE
  8
_0-0_
  6
CONTINUOUS
 62
    7
 10
185.13197403862489
 20
104.95052405189621
 11
185.18027403862487
 21
105.04972405189622
  0
LINE
  8
_0-0_
  6
CONTINUOUS
 62
    7
 10
185.18027403862487
 20
105.04972405189622
 11
185.22927403862488
 21
105.14862405189621
  0
LINE
  8
_0-0_
  6
CONTINUOUS
 62
    7
 10
185.22927403862488
 20
105.14862405189621
 11
185.27907403862488
 21
105.24702405189622
  0
LINE
  8
_0-0_
  6
CONTINUOUS
 62
    7
 10
185.27907403862488
 20
105.24702405189622
 11
185.32957403862488
 21
105.34512405189622
  0
LINE
  8
_0-0_
  6
CONTINUOUS
 62
    7
 10
185.32957403862488
 20
105.34512405189622
 11
185.38077403862488
 21
105.44282405189621
  0
LINE
  8
_0-0_
  6
CONTINUOUS
 62
    7
 10
185.38077403862488
 20
105.44282405189621
 11
185.4326740386249
 21
105.54012405189621
  0
LINE
  8
_0-0_
  6
CONTINUOUS
 62
    7
 10
185.4326740386249
 20
105.54012405189621
 11
185.48537403862488
 21
105.63692405189622
  0
LINE
  8
_0-0_
  6
CONTINUOUS
 62
    7
 10
185.48537403862488
 20
105.63692405189622
 11
185.53877403862487
 21
105.73342405189621
  0
LINE
  8
_0-0_
  6
CONTINUOUS
 62
    7
 10
185.53877403862487
 20
105.73342405189621
 11
185.59287403862487
 21
105.82942405189621
  0
LINE
  8
_0-0_
  6
CONTINUOUS
 62
    7
 10
185.59287403862487
 20
105.82942405189621
 11
185.64767403862487
 21
105.92492405189621
  0
LINE
  8
_0-0_
  6
CONTINUOUS
 62
    7
 10
185.64767403862487
 20
105.92492405189621
 11
185.70327403862487
 21
106.02002405189621
  0
LINE
  8
_0-0_
  6
CONTINUOUS
 62
    7
 10
185.70327403862487
 20
106.02002405189621
 11
185.75957403862489
 21
106.11462405189621
  0
LINE
  8
_0-0_
  6
CONTINUOUS
 62
    7
 10
185.75957403862489
 20
106.11462405189621
 11
185.81657403862488
 21
106.20882405189622
  0
LINE
  8
_0-0_
  6
CONTINUOUS
 62
    7
 10
185.81657403862488
 20
106.20882405189622
 11
185.87427403862489
 21
106.30252405189621
  0
LINE
  8
_0-0_
  6
CONTINUOUS
 62
    7
 10
185.87427403862489
 20
106.30252405189621
 11
185.9326740386249
 21
106.39562405189622
  0
LINE
  8
_0-0_
  6
CONTINUOUS
 62
    7
 10
185.9326740386249
 20
106.39562405189622
 11
185.99187403862487
 21
106.48832405189621
  0
LINE
  8
_0-0_
  6
CONTINUOUS
 62
    7
 10
185.99187403862487
 20
106.48832405189621
 11
186.05167403862487
 21
106.58052405189622
  0
LINE
  8
_0-0_
  6
CONTINUOUS
 62
    7
 10
186.05167403862487
 20
106.58052405189622
 11
186.11227403862489
 21
106.67212405189622
  0
LINE
  8
_0-0_
  6
CONTINUOUS
 62
    7
 10
186.11227403862489
 20
106.67212405189622
 11
186.17357403862488
 21
106.76322405189622
  0
LINE
  8
_0-0_
  6
CONTINUOUS
 62
    7
 10
186.17357403862488
 20
106.76322405189622
 11
186.23557403862489
 21
106.85382405189621
  0
LINE
  8
_0-0_
  6
CONTINUOUS
 62
    7
 10
186.23557403862489
 20
106.85382405189621
 11
186.29837403862487
 21
106.94392405189622
  0
LINE
  8
_0-0_
  6
CONTINUOUS
 62
    7
 10
186.29837403862487
 20
106.94392405189622
 11
186.36157403862489
 21
107.03312405189621
  0
LINE
  8
_0-0_
  6
CONTINUOUS
 62
    7
 10
186.36157403862489
 20
107.03312405189621
 11
186.42447403862488
 21
107.12052405189621
  0
LINE
  8
_0-0_
  6
CONTINUOUS
 62
    7
 10
186.42447403862488
 20
107.12052405189621
 11
186.48577403862487
 21
107.20482405189621
  0
LINE
  8
_0-0_
  6
CONTINUOUS
 62
    7
 10
186.48577403862487
 20
107.20482405189621
 11
186.54447403862488
 21
107.28462405189622
  0
LINE
  8
_0-0_
  6
CONTINUOUS
 62
    7
 10
186.54447403862488
 20
107.28462405189622
 11
186.59937403862489
 21
107.35862405189621
  0
LINE
  8
_0-0_
  6
CONTINUOUS
 62
    7
 10
186.59937403862489
 20
107.35862405189621
 11
186.64937403862487
 21
107.42562405189622
  0
LINE
  8
_0-0_
  6
CONTINUOUS
 62
    7
 10
186.64937403862487
 20
107.42562405189622
 11
186.69347403862488
 21
107.48432405189621
  0
LINE
  8
_0-0_
  6
CONTINUOUS
 62
    7
 10
186.69347403862488
 20
107.48432405189621
 11
186.81827403862488
 21
107.65002405189621
  0
LINE
  8
_0-0_
  6
CONTINUOUS
 62
    7
 10
183.65017403862487
 20
102.28702405189621
 11
183.83487403862489
 21
102.78202405189622
  0
LINE
  8
_0-0_
  6
CONTINUOUS
 62
    7
 10
183.83487403862489
 20
102.78202405189622
 11
183.91257403862488
 21
102.98982405189622
  0
LINE
  8
_0-0_
  6
CONTINUOUS
 62
    7
 10
183.91257403862488
 20
102.98982405189622
 11
184.00667403862488
 21
103.23762405189622
  0
LINE
  8
_0-0_
  6
CONTINUOUS
 62
    7
 10
184.00667403862488
 20
103.23762405189622
 11
184.11607403862487
 21
103.51912405189621
  0
LINE
  8
_0-0_
  6
CONTINUOUS
 62
    7
 10
184.11607403862487
 20
103.51912405189621
 11
184.23967403862488
 21
103.82792405189622
  0
LINE
  8
_0-0_
  6
CONTINUOUS
 62
    7
 10
184.23967403862488
 20
103.82792405189622
 11
184.37667403862488
 21
104.15772405189621
  0
LINE
  8
_0-0_
  6
CONTINUOUS
 62
    7
 10
184.37667403862488
 20
104.15772405189621
 11
184.52587403862486
 21
104.50212405189622
  0
LINE
  8
_0-0_
  6
CONTINUOUS
 62
    7
 10
184.52587403862486
 20
104.50212405189622
 11
184.68637403862488
 21
104.85472405189621
  0
LINE
  8
_0-0_
  6
CONTINUOUS
 62
    7
 10
184.68637403862488
 20
104.85472405189621
 11
184.85717403862489
 21
105.20922405189621
  0
LINE
  8
_0-0_
  6
CONTINUOUS
 62
    7
 10
184.85717403862489
 20
105.20922405189621
 11
185.03667403862488
 21
105.55952405189622
  0
LINE
  8
_0-0_
  6
CONTINUOUS
 62
    7
 10
185.03667403862488
 20
105.55952405189622
 11
185.22087403862488
 21
105.90062405189622
  0
LINE
  8
_0-0_
  6
CONTINUOUS
 62
    7
 10
185.22087403862488
 20
105.90062405189622
 11
185.40547403862487
 21
106.22792405189621
  0
LINE
  8
_0-0_
  6
CONTINUOUS
 62
    7
 10
185.40547403862487
 20
106.22792405189621
 11
185.58577403862489
 21
106.53672405189621
  0
LINE
  8
_0-0_
  6
CONTINUOUS
 62
    7
 10
185.58577403862489
 20
106.53672405189621
 11
185.75757403862488
 21
106.82222405189621
  0
LINE
  8
_0-0_
  6
CONTINUOUS
 62
    7
 10
185.75757403862488
 20
106.82222405189621
 11
185.91607403862488
 21
107.07992405189621
  0
LINE
  8
_0-0_
  6
CONTINUOUS
 62
    7
 10
185.91607403862488
 20
107.07992405189621
 11
186.05707403862488
 21
107.30502405189621
  0
LINE
  8
_0-0_
  6
CONTINUOUS
 62
    7
 10
186.05707403862488
 20
107.30502405189621
 11
186.45947403862488
 21
107.94012405189622
  0
LINE
  8
_0-0_
  6
CONTINUOUS
 62
    7
 10
188.84557403862487
 20
110.15822405189621
 11
186.81827403862488
 21
107.65002405189621
  0
LINE
  8
_0-0_
  6
CONTINUOUS
 62
    7
 10
191.43737403862488
 20
111.32722405189621
 11
191.31767403862489
 21
111.31222405189621
  0
LINE
  8
_0-0_
  6
CONTINUOUS
 62
    7
 10
191.31767403862489
 20
111.31222405189621
 11
191.26737403862489
 21
111.30592405189621
  0
LINE
  8
_0-0_
  6
CONTINUOUS
 62
    7
 10
191.26737403862489
 20
111.30592405189621
 11
191.20737403862489
 21
111.29822405189621
  0
LINE
  8
_0-0_
  6
CONTINUOUS
 62
    7
 10
191.20737403862489
 20
111.29822405189621
 11
191.13927403862488
 21
111.28922405189621
  0
LINE
  8
_0-0_
  6
CONTINUOUS
 62
    7
 10
191.13927403862488
 20
111.28922405189621
 11
191.06457403862487
 21
111.27872405189622
  0
LINE
  8
_0-0_
  6
CONTINUOUS
 62
    7
 10
191.06457403862487
 20
111.27872405189622
 11
190.98467403862489
 21
111.26702405189621
  0
LINE
  8
_0-0_
  6
CONTINUOUS
 62
    7
 10
190.98467403862489
 20
111.26702405189621
 11
190.90137403862488
 21
111.25382405189622
  0
LINE
  8
_0-0_
  6
CONTINUOUS
 62
    7
 10
190.90137403862488
 20
111.25382405189622
 11
190.81597403862489
 21
111.23942405189621
  0
LINE
  8
_0-0_
  6
CONTINUOUS
 62
    7
 10
190.81597403862489
 20
111.23942405189621
 11
190.73017403862488
 21
111.22372405189621
  0
LINE
  8
_0-0_
  6
CONTINUOUS
 62
    7
 10
190.73017403862488
 20
111.22372405189621
 11
190.64507403862487
 21
111.20662405189621
  0
LINE
  8
_0-0_
  6
CONTINUOUS
 62
    7
 10
190.64507403862487
 20
111.20662405189621
 11
190.56097403862486
 21
111.18802405189621
  0
LINE
  8
_0-0_
  6
CONTINUOUS
 62
    7
 10
190.56097403862486
 20
111.18802405189621
 11
190.47757403862488
 21
111.16772405189622
  0
LINE
  8
_0-0_
  6
CONTINUOUS
 62
    7
 10
190.47757403862488
 20
111.16772405189622
 11
190.39477403862489
 21
111.14542405189621
  0
LINE
  8
_0-0_
  6
CONTINUOUS
 62
    7
 10
190.39477403862489
 20
111.14542405189621
 11
190.31227403862488
 21
111.12102405189621
  0
LINE
  8
_0-0_
  6
CONTINUOUS
 62
    7
 10
190.31227403862488
 20
111.12102405189621
 11
190.23007403862488
 21
111.09422405189622
  0
LINE
  8
_0-0_
  6
CONTINUOUS
 62
    7
 10
190.23007403862488
 20
111.09422405189622
 11
190.14797403862488
 21
111.06482405189621
  0
LINE
  8
_0-0_
  6
CONTINUOUS
 62
    7
 10
190.14797403862488
 20
111.06482405189621
 11
190.06577403862488
 21
111.03262405189622
  0
LINE
  8
_0-0_
  6
CONTINUOUS
 62
    7
 10
190.06577403862488
 20
111.03262405189622
 11
189.98337403862487
 21
110.99742405189622
  0
LINE
  8
_0-0_
  6
CONTINUOUS
 62
    7
 10
189.98337403862487
 20
110.99742405189622
 11
189.90087403862486
 21
110.95922405189621
  0
LINE
  8
_0-0_
  6
CONTINUOUS
 62
    7
 10
189.90087403862486
 20
110.95922405189621
 11
189.81867403862486
 21
110.91822405189622
  0
LINE
  8
_0-0_
  6
CONTINUOUS
 62
    7
 10
189.81867403862486
 20
110.91822405189622
 11
189.73697403862488
 21
110.87412405189622
  0
LINE
  8
_0-0_
  6
CONTINUOUS
 62
    7
 10
189.73697403862488
 20
110.87412405189622
 11
189.65597403862489
 21
110.82732405189621
  0
LINE
  8
_0-0_
  6
CONTINUOUS
 62
    7
 10
189.65597403862489
 20
110.82732405189621
 11
189.57597403862488
 21
110.77752405189622
  0
LINE
  8
_0-0_
  6
CONTINUOUS
 62
    7
 10
189.57597403862488
 20
110.77752405189622
 11
189.49727403862488
 21
110.72502405189621
  0
LINE
  8
_0-0_
  6
CONTINUOUS
 62
    7
 10
189.49727403862488
 20
110.72502405189621
 11
189.41997403862487
 21
110.66972405189621
  0
LINE
  8
_0-0_
  6
CONTINUOUS
 62
    7
 10
189.41997403862487
 20
110.66972405189621
 11
189.34457403862487
 21
110.61192405189621
  0
LINE
  8
_0-0_
  6
CONTINUOUS
 62
    7
 10
189.34457403862487
 20
110.61192405189621
 11
189.27177403862487
 21
110.55282405189621
  0
LINE
  8
_0-0_
  6
CONTINUOUS
 62
    7
 10
189.27177403862487
 20
110.55282405189621
 11
189.20237403862487
 21
110.49382405189621
  0
LINE
  8
_0-0_
  6
CONTINUOUS
 62
    7
 10
189.20237403862487
 20
110.49382405189621
 11
189.13737403862487
 21
110.43622405189622
  0
LINE
  8
_0-0_
  6
CONTINUOUS
 62
    7
 10
189.13737403862487
 20
110.43622405189622
 11
189.07767403862488
 21
110.38142405189622
  0
LINE
  8
_0-0_
  6
CONTINUOUS
 62
    7
 10
189.07767403862488
 20
110.38142405189622
 11
189.02397403862489
 21
110.33092405189622
  0
LINE
  8
_0-0_
  6
CONTINUOUS
 62
    7
 10
189.02397403862489
 20
110.33092405189622
 11
188.97717403862487
 21
110.28612405189622
  0
LINE
  8
_0-0_
  6
CONTINUOUS
 62
    7
 10
188.97717403862487
 20
110.28612405189622
 11
188.84557403862487
 21
110.15822405189621
  0
LINE
  8
_0-0_
  6
CONTINUOUS
 62
    7
 10
191.40017403862487
 20
111.78702405189621
 11
191.15117403862487
 21
111.73862405189621
  0
LINE
  8
_0-0_
  6
CONTINUOUS
 62
    7
 10
191.15117403862487
 20
111.73862405189621
 11
191.04667403862487
 21
111.71812405189621
  0
LINE
  8
_0-0_
  6
CONTINUOUS
 62
    7
 10
191.04667403862487
 20
111.71812405189621
 11
190.92177403862487
 21
111.69202405189621
  0
LINE
  8
_0-0_
  6
CONTINUOUS
 62
    7
 10
190.92177403862487
 20
111.69202405189621
 11
190.77977403862488
 21
111.65962405189622
  0
LINE
  8
_0-0_
  6
CONTINUOUS
 62
    7
 10
190.77977403862488
 20
111.65962405189622
 11
190.62357403862489
 21
111.62002405189622
  0
LINE
  8
_0-0_
  6
CONTINUOUS
 62
    7
 10
190.62357403862489
 20
111.62002405189622
 11
190.45637403862489
 21
111.57212405189621
  0
LINE
  8
_0-0_
  6
CONTINUOUS
 62
    7
 10
190.45637403862489
 20
111.57212405189621
 11
190.28107403862487
 21
111.51522405189621
  0
LINE
  8
_0-0_
  6
CONTINUOUS
 62
    7
 10
190.28107403862487
 20
111.51522405189621
 11
190.10077403862488
 21
111.44822405189622
  0
LINE
  8
_0-0_
  6
CONTINUOUS
 62
    7
 10
190.10077403862488
 20
111.44822405189622
 11
189.91857403862488
 21
111.37032405189622
  0
LINE
  8
_0-0_
  6
CONTINUOUS
 62
    7
 10
189.91857403862488
 20
111.37032405189622
 11
189.73757403862487
 21
111.28132405189621
  0
LINE
  8
_0-0_
  6
CONTINUOUS
 62
    7
 10
189.73757403862487
 20
111.28132405189621
 11
189.56027403862487
 21
111.18402405189622
  0
LINE
  8
_0-0_
  6
CONTINUOUS
 62
    7
 10
189.56027403862487
 20
111.18402405189622
 11
189.38937403862488
 21
111.08192405189621
  0
LINE
  8
_0-0_
  6
CONTINUOUS
 62
    7
 10
189.38937403862488
 20
111.08192405189621
 11
189.22757403862488
 21
110.97852405189622
  0
LINE
  8
_0-0_
  6
CONTINUOUS
 62
    7
 10
189.22757403862488
 20
110.97852405189622
 11
189.07747403862487
 21
110.87742405189621
  0
LINE
  8
_0-0_
  6
CONTINUOUS
 62
    7
 10
189.07747403862487
 20
110.87742405189621
 11
188.94167403862488
 21
110.78212405189622
  0
LINE
  8
_0-0_
  6
CONTINUOUS
 62
    7
 10
188.94167403862488
 20
110.78212405189622
 11
188.82267403862488
 21
110.69612405189622
  0
LINE
  8
_0-0_
  6
CONTINUOUS
 62
    7
 10
188.82267403862488
 20
110.69612405189622
 11
188.48677403862487
 21
110.44832405189621
  0
LINE
  8
_0-0_
  6
CONTINUOUS
 62
    7
 10
196.15017403862487
 20
110.78702405189621
 11
192.10057403862487
 21
110.78702405189621
  0
LINE
  8
_0-0_
  6
CONTINUOUS
 62
    7
 10
196.15017403862487
 20
107.78702405189621
 11
192.39247403862487
 21
107.78702405189621
  0
LINE
  8
_0-0_
  6
CONTINUOUS
 62
    7
 10
196.15017403862487
 20
111.78702405189621
 11
187.20017403862488
 21
111.78702405189621
  0
LINE
  8
_0-0_
  6
CONTINUOUS
 62
    7
 10
196.15017403862487
 20
116.78702405189621
 11
175.65017403862487
 21
116.78702405189621
  0
LINE
  8
_0-0_
  6
CONTINUOUS
 62
    7
 10
196.15017403862487
 20
126.78702405189621
 11
184.15017403862487
 21
126.78702405189621
  0
LINE
  8
_0-0_
  6
CONTINUOUS
 62
    7
 10
196.15017403862487
 20
120.28702405189621
 11
174.65017403862487
 21
120.28702405189621
  0
LINE
  8
_0-0_
  6
CONTINUOUS
 62
    7
 10
196.15017403862487
 20
117.28702405189621
 11
174.65017403862487
 21
117.28702405189621
  0
LINE
  8
_0-0_
  6
CONTINUOUS
 62
    7
 10
196.15017403862487
 20
138.64312405189622
 11
170.21197403862487
 21
138.64312405189622
  0
LINE
  8
_0-0_
  6
CONTINUOUS
 62
    7
 10
196.15017403862487
 20
136.14312405189622
 11
168.90017403862487
 21
136.14312405189622
  0
LINE
  8
_0-0_
  6
CONTINUOUS
 62
    7
 10
196.15017403862487
 20
71.184424051896215
 11
193.15017403862487
 21
71.184424051896215
  0
LINE
  8
_0-0_
  6
CONTINUOUS
 62
    7
 10
196.15017403862487
 20
70.643124051896208
 11
193.69147403862488
 21
70.643124051896208
  0
LINE
  8
_0-0_
  6
CONTINUOUS
 62
    7
 10
196.15017403862487
 20
110.78702405189621
 11
200.19977403862487
 21
110.78702405189621
  0
LINE
  8
_0-0_
  6
CONTINUOUS
 62
    7
 10
200.86287403862488
 20
111.32722405189621
 11
200.98267403862488
 21
111.31222405189621
  0
LINE
  8
_0-0_
  6
CONTINUOUS
 62
    7
 10
200.98267403862488
 20
111.31222405189621
 11
201.03297403862487
 21
111.30592405189621
  0
LINE
  8
_0-0_
  6
CONTINUOUS
 62
    7
 10
201.03297403862487
 20
111.30592405189621
 11
201.09297403862487
 21
111.29822405189621
  0
LINE
  8
_0-0_
  6
CONTINUOUS
 62
    7
 10
201.09297403862487
 20
111.29822405189621
 11
201.16107403862489
 21
111.28922405189621
  0
LINE
  8
_0-0_
  6
CONTINUOUS
 62
    7
 10
201.16107403862489
 20
111.28922405189621
 11
201.23577403862487
 21
111.27872405189622
  0
LINE
  8
_0-0_
  6
CONTINUOUS
 62
    7
 10
201.23577403862487
 20
111.27872405189622
 11
201.31557403862487
 21
111.26702405189621
  0
LINE
  8
_0-0_
  6
CONTINUOUS
 62
    7
 10
201.31557403862487
 20
111.26702405189621
 11
201.39897403862489
 21
111.25382405189622
  0
LINE
  8
_0-0_
  6
CONTINUOUS
 62
    7
 10
201.39897403862489
 20
111.25382405189622
 11
201.48437403862488
 21
111.23942405189621
  0
LINE
  8
_0-0_
  6
CONTINUOUS
 62
    7
 10
201.48437403862488
 20
111.23942405189621
 11
201.57017403862488
 21
111.22372405189621
  0
LINE
  8
_0-0_
  6
CONTINUOUS
 62
    7
 10
201.57017403862488
 20
111.22372405189621
 11
201.65517403862486
 21
111.20662405189621
  0
LINE
  8
_0-0_
  6
CONTINUOUS
 62
    7
 10
201.65517403862486
 20
111.20662405189621
 11
201.73937403862487
 21
111.18802405189621
  0
LINE
  8
_0-0_
  6
CONTINUOUS
 62
    7
 10
201.73937403862487
 20
111.18802405189621
 11
201.82277403862489
 21
111.16772405189622
  0
LINE
  8
_0-0_
  6
CONTINUOUS
 62
    7
 10
201.82277403862489
 20
111.16772405189622
 11
201.90557403862488
 21
111.14542405189621
  0
LINE
  8
_0-0_
  6
CONTINUOUS
 62
    7
 10
201.90557403862488
 20
111.14542405189621
 11
201.98797403862488
 21
111.12102405189621
  0
LINE
  8
_0-0_
  6
CONTINUOUS
 62
    7
 10
201.98797403862488
 20
111.12102405189621
 11
202.07017403862488
 21
111.09422405189622
  0
LINE
  8
_0-0_
  6
CONTINUOUS
 62
    7
 10
202.07017403862488
 20
111.09422405189622
 11
202.15237403862488
 21
111.06482405189621
  0
LINE
  8
_0-0_
  6
CONTINUOUS
 62
    7
 10
202.15237403862488
 20
111.06482405189621
 11
202.23457403862488
 21
111.03262405189622
  0
LINE
  8
_0-0_
  6
CONTINUOUS
 62
    7
 10
202.23457403862488
 20
111.03262405189622
 11
202.31697403862489
 21
110.99742405189622
  0
LINE
  8
_0-0_
  6
CONTINUOUS
 62
    7
 10
202.31697403862489
 20
110.99742405189622
 11
202.39947403862487
 21
110.95922405189621
  0
LINE
  8
_0-0_
  6
CONTINUOUS
 62
    7
 10
202.39947403862487
 20
110.95922405189621
 11
202.48167403862487
 21
110.91822405189622
  0
LINE
  8
_0-0_
  6
CONTINUOUS
 62
    7
 10
202.48167403862487
 20
110.91822405189622
 11
202.56337403862489
 21
110.87412405189622
  0
LINE
  8
_0-0_
  6
CONTINUOUS
 62
    7
 10
202.56337403862489
 20
110.87412405189622
 11
202.64437403862487
 21
110.82732405189621
  0
LINE
  8
_0-0_
  6
CONTINUOUS
 62
    7
 10
202.64437403862487
 20
110.82732405189621
 11
202.72427403862488
 21
110.77752405189622
  0
LINE
  8
_0-0_
  6
CONTINUOUS
 62
    7
 10
202.72427403862488
 20
110.77752405189622
 11
202.80307403862489
 21
110.72502405189621
  0
LINE
  8
_0-0_
  6
CONTINUOUS
 62
    7
 10
202.80307403862489
 20
110.72502405189621
 11
202.88037403862489
 21
110.66972405189621
  0
LINE
  8
_0-0_
  6
CONTINUOUS
 62
    7
 10
202.88037403862489
 20
110.66972405189621
 11
202.95577403862487
 21
110.61192405189621
  0
LINE
  8
_0-0_
  6
CONTINUOUS
 62
    7
 10
202.95577403862487
 20
110.61192405189621
 11
203.02857403862487
 21
110.55282405189621
  0
LINE
  8
_0-0_
  6
CONTINUOUS
 62
    7
 10
203.02857403862487
 20
110.55282405189621
 11
203.09787403862487
 21
110.49382405189621
  0
LINE
  8
_0-0_
  6
CONTINUOUS
 62
    7
 10
203.09787403862487
 20
110.49382405189621
 11
203.16287403862489
 21
110.43622405189622
  0
LINE
  8
_0-0_
  6
CONTINUOUS
 62
    7
 10
203.16287403862489
 20
110.43622405189622
 11
203.22267403862489
 21
110.38142405189622
  0
LINE
  8
_0-0_
  6
CONTINUOUS
 62
    7
 10
203.22267403862489
 20
110.38142405189622
 11
203.27637403862488
 21
110.33092405189622
  0
LINE
  8
_0-0_
  6
CONTINUOUS
 62
    7
 10
203.27637403862488
 20
110.33092405189622
 11
203.32317403862487
 21
110.28612405189622
  0
LINE
  8
_0-0_
  6
CONTINUOUS
 62
    7
 10
203.32317403862487
 20
110.28612405189622
 11
203.45477403862489
 21
110.15822405189621
  0
LINE
  8
_0-0_
  6
CONTINUOUS
 62
    7
 10
203.45477403862489
 20
110.15822405189621
 11
205.48207403862489
 21
107.65002405189621
  0
LINE
  8
_0-0_
  6
CONTINUOUS
 62
    7
 10
208.20437403862488
 20
102.16832405189622
 11
208.16287403862489
 21
102.30862405189622
  0
LINE
  8
_0-0_
  6
CONTINUOUS
 62
    7
 10
208.16287403862489
 20
102.30862405189622
 11
208.14547403862488
 21
102.36752405189621
  0
LINE
  8
_0-0_
  6
CONTINUOUS
 62
    7
 10
208.14547403862488
 20
102.36752405189621
 11
208.12447403862487
 21
102.43782405189621
  0
LINE
  8
_0-0_
  6
CONTINUOUS
 62
    7
 10
208.12447403862487
 20
102.43782405189621
 11
208.10047403862487
 21
102.51802405189622
  0
LINE
  8
_0-0_
  6
CONTINUOUS
 62
    7
 10
208.10047403862487
 20
102.51802405189622
 11
208.07377403862489
 21
102.60642405189621
  0
LINE
  8
_0-0_
  6
CONTINUOUS
 62
    7
 10
208.07377403862489
 20
102.60642405189621
 11
208.04467403862489
 21
102.70122405189622
  0
LINE
  8
_0-0_
  6
CONTINUOUS
 62
    7
 10
208.04467403862489
 20
102.70122405189622
 11
208.01377403862489
 21
102.80092405189622
  0
LINE
  8
_0-0_
  6
CONTINUOUS
 62
    7
 10
208.01377403862489
 20
102.80092405189622
 11
207.98127403862489
 21
102.90372405189622
  0
LINE
  8
_0-0_
  6
CONTINUOUS
 62
    7
 10
207.98127403862489
 20
102.90372405189622
 11
207.94767403862488
 21
103.00802405189621
  0
LINE
  8
_0-0_
  6
CONTINUOUS
 62
    7
 10
207.94767403862488
 20
103.00802405189621
 11
207.91327403862488
 21
103.11242405189621
  0
LINE
  8
_0-0_
  6
CONTINUOUS
 62
    7
 10
207.91327403862488
 20
103.11242405189621
 11
207.87807403862487
 21
103.21662405189622
  0
LINE
  8
_0-0_
  6
CONTINUOUS
 62
    7
 10
207.87807403862487
 20
103.21662405189622
 11
207.84217403862488
 21
103.32072405189622
  0
LINE
  8
_0-0_
  6
CONTINUOUS
 62
    7
 10
207.84217403862488
 20
103.32072405189622
 11
207.80557403862488
 21
103.42452405189621
  0
LINE
  8
_0-0_
  6
CONTINUOUS
 62
    7
 10
207.80557403862488
 20
103.42452405189621
 11
207.76817403862489
 21
103.52812405189621
  0
LINE
  8
_0-0_
  6
CONTINUOUS
 62
    7
 10
207.76817403862489
 20
103.52812405189621
 11
207.73017403862488
 21
103.63152405189621
  0
LINE
  8
_0-0_
  6
CONTINUOUS
 62
    7
 10
207.73017403862488
 20
103.63152405189621
 11
207.69127403862487
 21
103.73462405189622
  0
LINE
  8
_0-0_
  6
CONTINUOUS
 62
    7
 10
207.69127403862487
 20
103.73462405189622
 11
207.65177403862489
 21
103.83752405189621
  0
LINE
  8
_0-0_
  6
CONTINUOUS
 62
    7
 10
207.65177403862489
 20
103.83752405189621
 11
207.61147403862489
 21
103.94022405189622
  0
LINE
  8
_0-0_
  6
CONTINUOUS
 62
    7
 10
207.61147403862489
 20
103.94022405189622
 11
207.57047403862487
 21
104.04252405189621
  0
LINE
  8
_0-0_
  6
CONTINUOUS
 62
    7
 10
207.57047403862487
 20
104.04252405189621
 11
207.52867403862487
 21
104.14462405189622
  0
LINE
  8
_0-0_
  6
CONTINUOUS
 62
    7
 10
207.52867403862487
 20
104.14462405189622
 11
207.48617403862488
 21
104.24652405189622
  0
LINE
  8
_0-0_
  6
CONTINUOUS
 62
    7
 10
207.48617403862488
 20
104.24652405189622
 11
207.44297403862487
 21
104.34802405189622
  0
LINE
  8
_0-0_
  6
CONTINUOUS
 62
    7
 10
207.44297403862487
 20
104.34802405189622
 11
207.39907403862489
 21
104.44922405189621
  0
LINE
  8
_0-0_
  6
CONTINUOUS
 62
    7
 10
207.39907403862489
 20
104.44922405189621
 11
207.35437403862488
 21
104.55022405189621
  0
LINE
  8
_0-0_
  6
CONTINUOUS
 62
    7
 10
207.35437403862488
 20
104.55022405189621
 11
207.30897403862488
 21
104.65082405189622
  0
LINE
  8
_0-0_
  6
CONTINUOUS
 62
    7
 10
207.30897403862488
 20
104.65082405189622
 11
207.26287403862489
 21
104.75102405189621
  0
LINE
  8
_0-0_
  6
CONTINUOUS
 62
    7
 10
207.26287403862489
 20
104.75102405189621
 11
207.21597403862489
 21
104.85092405189621
  0
LINE
  8
_0-0_
  6
CONTINUOUS
 62
    7
 10
207.21597403862489
 20
104.85092405189621
 11
207.16837403862488
 21
104.95052405189621
  0
LINE
  8
_0-0_
  6
CONTINUOUS
 62
    7
 10
207.16837403862488
 20
104.95052405189621
 11
207.12007403862489
 21
105.04972405189622
  0
LINE
  8
_0-0_
  6
CONTINUOUS
 62
    7
 10
207.12007403862489
 20
105.04972405189622
 11
207.07107403862489
 21
105.14862405189621
  0
LINE
  8
_0-0_
  6
CONTINUOUS
 62
    7
 10
207.07107403862489
 20
105.14862405189621
 11
207.02127403862488
 21
105.24702405189622
  0
LINE
  8
_0-0_
  6
CONTINUOUS
 62
    7
 10
207.02127403862488
 20
105.24702405189622
 11
206.97077403862488
 21
105.34512405189622
  0
LINE
  8
_0-0_
  6
CONTINUOUS
 62
    7
 10
206.97077403862488
 20
105.34512405189622
 11
206.91957403862489
 21
105.44282405189621
  0
LINE
  8
_0-0_
  6
CONTINUOUS
 62
    7
 10
206.91957403862489
 20
105.44282405189621
 11
206.86757403862487
 21
105.54012405189621
  0
LINE
  8
_0-0_
  6
CONTINUOUS
 62
    7
 10
206.86757403862487
 20
105.54012405189621
 11
206.81497403862488
 21
105.63692405189622
  0
LINE
  8
_0-0_
  6
CONTINUOUS
 62
    7
 10
206.81497403862488
 20
105.63692405189622
 11
206.76157403862487
 21
105.73342405189621
  0
LINE
  8
_0-0_
  6
CONTINUOUS
 62
    7
 10
206.76157403862487
 20
105.73342405189621
 11
206.70747403862487
 21
105.82942405189621
  0
LINE
  8
_0-0_
  6
CONTINUOUS
 62
    7
 10
206.70747403862487
 20
105.82942405189621
 11
206.65257403862489
 21
105.92492405189621
  0
LINE
  8
_0-0_
  6
CONTINUOUS
 62
    7
 10
206.65257403862489
 20
105.92492405189621
 11
206.59707403862487
 21
106.02002405189621
  0
LINE
  8
_0-0_
  6
CONTINUOUS
 62
    7
 10
206.59707403862487
 20
106.02002405189621
 11
206.54077403862487
 21
106.11462405189621
  0
LINE
  8
_0-0_
  6
CONTINUOUS
 62
    7
 10
206.54077403862487
 20
106.11462405189621
 11
206.48377403862489
 21
106.20882405189622
  0
LINE
  8
_0-0_
  6
CONTINUOUS
 62
    7
 10
206.48377403862489
 20
106.20882405189622
 11
206.42607403862488
 21
106.30252405189621
  0
LINE
  8
_0-0_
  6
CONTINUOUS
 62
    7
 10
206.42607403862488
 20
106.30252405189621
 11
206.36767403862487
 21
106.39562405189622
  0
LINE
  8
_0-0_
  6
CONTINUOUS
 62
    7
 10
206.36767403862487
 20
106.39562405189622
 11
206.30847403862487
 21
106.48832405189621
  0
LINE
  8
_0-0_
  6
CONTINUOUS
 62
    7
 10
206.30847403862487
 20
106.48832405189621
 11
206.24867403862487
 21
106.58052405189622
  0
LINE
  8
_0-0_
  6
CONTINUOUS
 62
    7
 10
206.24867403862487
 20
106.58052405189622
 11
206.18807403862488
 21
106.67212405189622
  0
LINE
  8
_0-0_
  6
CONTINUOUS
 62
    7
 10
206.18807403862488
 20
106.67212405189622
 11
206.12677403862489
 21
106.76322405189622
  0
LINE
  8
_0-0_
  6
CONTINUOUS
 62
    7
 10
206.12677403862489
 20
106.76322405189622
 11
206.06477403862488
 21
106.85382405189621
  0
LINE
  8
_0-0_
  6
CONTINUOUS
 62
    7
 10
206.06477403862488
 20
106.85382405189621
 11
206.00197403862489
 21
106.94392405189622
  0
LINE
  8
_0-0_
  6
CONTINUOUS
 62
    7
 10
206.00197403862489
 20
106.94392405189622
 11
205.93877403862487
 21
107.03312405189621
  0
LINE
  8
_0-0_
  6
CONTINUOUS
 62
    7
 10
205.93877403862487
 20
107.03312405189621
 11
205.87587403862489
 21
107.12052405189621
  0
LINE
  8
_0-0_
  6
CONTINUOUS
 62
    7
 10
205.87587403862489
 20
107.12052405189621
 11
205.81457403862487
 21
107.20482405189621
  0
LINE
  8
_0-0_
  6
CONTINUOUS
 62
    7
 10
205.81457403862487
 20
107.20482405189621
 11
205.75587403862488
 21
107.28462405189622
  0
LINE
  8
_0-0_
  6
CONTINUOUS
 62
    7
 10
205.75587403862488
 20
107.28462405189622
 11
205.70097403862488
 21
107.35862405189621
  0
LINE
  8
_0-0_
  6
CONTINUOUS
 62
    7
 10
205.70097403862488
 20
107.35862405189621
 11
205.65097403862487
 21
107.42562405189622
  0
LINE
  8
_0-0_
  6
CONTINUOUS
 62
    7
 10
205.65097403862487
 20
107.42562405189622
 11
205.60687403862488
 21
107.48432405189621
  0
LINE
  8
_0-0_
  6
CONTINUOUS
 62
    7
 10
205.60687403862488
 20
107.48432405189621
 11
205.48207403862489
 21
107.65002405189621
  0
LINE
  8
_0-0_
  6
CONTINUOUS
 62
    7
 10
200.21507403862489
 20
107.86892405189622
 11
200.25577403862488
 21
107.72762405189621
  0
LINE
  8
_0-0_
  6
CONTINUOUS
 62
    7
 10
200.25577403862488
 20
107.72762405189621
 11
200.27287403862488
 21
107.66832405189621
  0
LINE
  8
_0-0_
  6
CONTINUOUS
 62
    7
 10
200.27287403862488
 20
107.66832405189621
 11
200.29327403862487
 21
107.59742405189621
  0
LINE
  8
_0-0_
  6
CONTINUOUS
 62
    7
 10
200.29327403862487
 20
107.59742405189621
 11
200.31677403862489
 21
107.51662405189622
  0
LINE
  8
_0-0_
  6
CONTINUOUS
 62
    7
 10
200.31677403862489
 20
107.51662405189622
 11
200.34287403862487
 21
107.42762405189622
  0
LINE
  8
_0-0_
  6
CONTINUOUS
 62
    7
 10
200.34287403862487
 20
107.42762405189622
 11
200.37107403862487
 21
107.33212405189622
  0
LINE
  8
_0-0_
  6
CONTINUOUS
 62
    7
 10
200.37107403862487
 20
107.33212405189622
 11
200.40107403862487
 21
107.23162405189622
  0
LINE
  8
_0-0_
  6
CONTINUOUS
 62
    7
 10
200.40107403862487
 20
107.23162405189622
 11
200.43237403862489
 21
107.12792405189622
  0
LINE
  8
_0-0_
  6
CONTINUOUS
 62
    7
 10
200.43237403862489
 20
107.12792405189622
 11
200.46467403862488
 21
107.02272405189622
  0
LINE
  8
_0-0_
  6
CONTINUOUS
 62
    7
 10
200.46467403862488
 20
107.02272405189622
 11
200.49757403862489
 21
106.91742405189622
  0
LINE
  8
_0-0_
  6
CONTINUOUS
 62
    7
 10
200.49757403862489
 20
106.91742405189622
 11
200.53097403862489
 21
106.81212405189622
  0
LINE
  8
_0-0_
  6
CONTINUOUS
 62
    7
 10
200.53097403862489
 20
106.81212405189622
 11
200.56487403862488
 21
106.70712405189622
  0
LINE
  8
_0-0_
  6
CONTINUOUS
 62
    7
 10
200.56487403862488
 20
106.70712405189622
 11
200.59937403862489
 21
106.60212405189621
  0
LINE
  8
_0-0_
  6
CONTINUOUS
 62
    7
 10
200.59937403862489
 20
106.60212405189621
 11
200.63437403862488
 21
106.49732405189621
  0
LINE
  8
_0-0_
  6
CONTINUOUS
 62
    7
 10
200.63437403862488
 20
106.49732405189621
 11
200.66987403862487
 21
106.39272405189621
  0
LINE
  8
_0-0_
  6
CONTINUOUS
 62
    7
 10
200.66987403862487
 20
106.39272405189621
 11
200.70597403862487
 21
106.28822405189621
  0
LINE
  8
_0-0_
  6
CONTINUOUS
 62
    7
 10
200.70597403862487
 20
106.28822405189621
 11
200.74257403862487
 21
106.18382405189621
  0
LINE
  8
_0-0_
  6
CONTINUOUS
 62
    7
 10
200.74257403862487
 20
106.18382405189621
 11
200.77967403862488
 21
106.07972405189622
  0
LINE
  8
_0-0_
  6
CONTINUOUS
 62
    7
 10
200.77967403862488
 20
106.07972405189622
 11
200.81727403862487
 21
105.97572405189621
  0
LINE
  8
_0-0_
  6
CONTINUOUS
 62
    7
 10
200.81727403862487
 20
105.97572405189621
 11
200.85537403862489
 21
105.87182405189621
  0
LINE
  8
_0-0_
  6
CONTINUOUS
 62
    7
 10
200.85537403862489
 20
105.87182405189621
 11
200.89407403862486
 21
105.76822405189621
  0
LINE
  8
_0-0_
  6
CONTINUOUS
 62
    7
 10
200.89407403862486
 20
105.76822405189621
 11
200.93327403862489
 21
105.66472405189621
  0
LINE
  8
_0-0_
  6
CONTINUOUS
 62
    7
 10
200.93327403862489
 20
105.66472405189621
 11
200.97297403862487
 21
105.56142405189621
  0
LINE
  8
_0-0_
  6
CONTINUOUS
 62
    7
 10
200.97297403862487
 20
105.56142405189621
 11
201.01317403862487
 21
105.45832405189621
  0
LINE
  8
_0-0_
  6
CONTINUOUS
 62
    7
 10
201.01317403862487
 20
105.45832405189621
 11
201.05397403862489
 21
105.35542405189622
  0
LINE
  8
_0-0_
  6
CONTINUOUS
 62
    7
 10
201.05397403862489
 20
105.35542405189622
 11
201.09517403862489
 21
105.25272405189622
  0
LINE
  8
_0-0_
  6
CONTINUOUS
 62
    7
 10
201.09517403862489
 20
105.25272405189622
 11
201.13697403862488
 21
105.15022405189622
  0
LINE
  8
_0-0_
  6
CONTINUOUS
 62
    7
 10
201.13697403862488
 20
105.15022405189622
 11
201.17927403862487
 21
105.04792405189622
  0
LINE
  8
_0-0_
  6
CONTINUOUS
 62
    7
 10
201.17927403862487
 20
105.04792405189622
 11
201.22207403862487
 21
104.94582405189621
  0
LINE
  8
_0-0_
  6
CONTINUOUS
 62
    7
 10
201.22207403862487
 20
104.94582405189621
 11
201.26537403862488
 21
104.84392405189621
  0
LINE
  8
_0-0_
  6
CONTINUOUS
 62
    7
 10
201.26537403862488
 20
104.84392405189621
 11
201.30917403862489
 21
104.74222405189622
  0
LINE
  8
_0-0_
  6
CONTINUOUS
 62
    7
 10
201.30917403862489
 20
104.74222405189622
 11
201.35357403862488
 21
104.64082405189622
  0
LINE
  8
_0-0_
  6
CONTINUOUS
 62
    7
 10
201.35357403862488
 20
104.64082405189622
 11
201.39837403862487
 21
104.53952405189622
  0
LINE
  8
_0-0_
  6
CONTINUOUS
 62
    7
 10
201.39837403862487
 20
104.53952405189622
 11
201.44377403862487
 21
104.43852405189621
  0
LINE
  8
_0-0_
  6
CONTINUOUS
 62
    7
 10
201.44377403862487
 20
104.43852405189621
 11
201.48957403862488
 21
104.33782405189621
  0
LINE
  8
_0-0_
  6
CONTINUOUS
 62
    7
 10
201.48957403862488
 20
104.33782405189621
 11
201.53597403862489
 21
104.23722405189622
  0
LINE
  8
_0-0_
  6
CONTINUOUS
 62
    7
 10
201.53597403862489
 20
104.23722405189622
 11
201.58287403862488
 21
104.13692405189622
  0
LINE
  8
_0-0_
  6
CONTINUOUS
 62
    7
 10
201.58287403862488
 20
104.13692405189622
 11
201.63027403862489
 21
104.03692405189622
  0
LINE
  8
_0-0_
  6
CONTINUOUS
 62
    7
 10
201.63027403862489
 20
104.03692405189622
 11
201.67817403862489
 21
103.93712405189622
  0
LINE
  8
_0-0_
  6
CONTINUOUS
 62
    7
 10
201.67817403862489
 20
103.93712405189622
 11
201.72647403862487
 21
103.83752405189621
  0
LINE
  8
_0-0_
  6
CONTINUOUS
 62
    7
 10
201.72647403862487
 20
103.83752405189621
 11
201.77537403862488
 21
103.73832405189621
  0
LINE
  8
_0-0_
  6
CONTINUOUS
 62
    7
 10
201.77537403862488
 20
103.73832405189621
 11
201.82477403862487
 21
103.63922405189621
  0
LINE
  8
_0-0_
  6
CONTINUOUS
 62
    7
 10
201.82477403862487
 20
103.63922405189621
 11
201.87467403862487
 21
103.54052405189621
  0
LINE
  8
_0-0_
  6
CONTINUOUS
 62
    7
 10
201.87467403862487
 20
103.54052405189621
 11
201.92507403862487
 21
103.44202405189621
  0
LINE
  8
_0-0_
  6
CONTINUOUS
 62
    7
 10
201.92507403862487
 20
103.44202405189621
 11
201.97597403862488
 21
103.34382405189622
  0
LINE
  8
_0-0_
  6
CONTINUOUS
 62
    7
 10
201.97597403862488
 20
103.34382405189622
 11
202.02737403862488
 21
103.24582405189622
  0
LINE
  8
_0-0_
  6
CONTINUOUS
 62
    7
 10
202.02737403862488
 20
103.24582405189622
 11
202.07917403862487
 21
103.14822405189622
  0
LINE
  8
_0-0_
  6
CONTINUOUS
 62
    7
 10
202.07917403862487
 20
103.14822405189622
 11
202.13157403862488
 21
103.05082405189621
  0
LINE
  8
_0-0_
  6
CONTINUOUS
 62
    7
 10
202.13157403862488
 20
103.05082405189621
 11
202.18447403862487
 21
102.95372405189622
  0
LINE
  8
_0-0_
  6
CONTINUOUS
 62
    7
 10
202.18447403862487
 20
102.95372405189622
 11
202.23777403862488
 21
102.85692405189621
  0
LINE
  8
_0-0_
  6
CONTINUOUS
 62
    7
 10
202.23777403862488
 20
102.85692405189621
 11
202.29167403862488
 21
102.76042405189621
  0
LINE
  8
_0-0_
  6
CONTINUOUS
 62
    7
 10
202.29167403862488
 20
102.76042405189621
 11
202.34597403862489
 21
102.66422405189621
  0
LINE
  8
_0-0_
  6
CONTINUOUS
 62
    7
 10
202.34597403862489
 20
102.66422405189621
 11
202.40087403862489
 21
102.56842405189622
  0
LINE
  8
_0-0_
  6
CONTINUOUS
 62
    7
 10
202.40087403862489
 20
102.56842405189622
 11
202.45617403862488
 21
102.47282405189621
  0
LINE
  8
_0-0_
  6
CONTINUOUS
 62
    7
 10
202.45617403862488
 20
102.47282405189621
 11
202.51197403862488
 21
102.37752405189622
  0
LINE
  8
_0-0_
  6
CONTINUOUS
 62
    7
 10
202.51197403862488
 20
102.37752405189622
 11
202.56827403862488
 21
102.28262405189622
  0
LINE
  8
_0-0_
  6
CONTINUOUS
 62
    7
 10
202.56827403862488
 20
102.28262405189622
 11
202.62507403862489
 21
102.18802405189622
  0
LINE
  8
_0-0_
  6
CONTINUOUS
 62
    7
 10
202.62507403862489
 20
102.18802405189622
 11
202.68227403862488
 21
102.09372405189622
  0
LINE
  8
_0-0_
  6
CONTINUOUS
 62
    7
 10
202.68227403862488
 20
102.09372405189622
 11
202.74007403862487
 21
101.99972405189621
  0
LINE
  8
_0-0_
  6
CONTINUOUS
 62
    7
 10
202.74007403862487
 20
101.99972405189621
 11
202.79837403862487
 21
101.90592405189622
  0
LINE
  8
_0-0_
  6
CONTINUOUS
 62
    7
 10
202.79837403862487
 20
101.90592405189622
 11
202.85717403862489
 21
101.81242405189622
  0
LINE
  8
_0-0_
  6
CONTINUOUS
 62
    7
 10
202.85717403862489
 20
101.81242405189622
 11
202.91667403862488
 21
101.71922405189622
  0
LINE
  8
_0-0_
  6
CONTINUOUS
 62
    7
 10
202.91667403862488
 20
101.71922405189622
 11
202.97667403862488
 21
101.62612405189621
  0
LINE
  8
_0-0_
  6
CONTINUOUS
 62
    7
 10
202.97667403862488
 20
101.62612405189621
 11
203.03727403862487
 21
101.53322405189621
  0
LINE
  8
_0-0_
  6
CONTINUOUS
 62
    7
 10
203.03727403862487
 20
101.53322405189621
 11
203.09847403862489
 21
101.44042405189622
  0
LINE
  8
_0-0_
  6
CONTINUOUS
 62
    7
 10
203.09847403862489
 20
101.44042405189622
 11
203.16037403862487
 21
101.34772405189621
  0
LINE
  8
_0-0_
  6
CONTINUOUS
 62
    7
 10
203.16037403862487
 20
101.34772405189621
 11
203.22297403862487
 21
101.25512405189622
  0
LINE
  8
_0-0_
  6
CONTINUOUS
 62
    7
 10
203.22297403862487
 20
101.25512405189622
 11
203.28607403862489
 21
101.16282405189621
  0
LINE
  8
_0-0_
  6
CONTINUOUS
 62
    7
 10
203.28607403862489
 20
101.16282405189621
 11
203.34977403862487
 21
101.07062405189622
  0
LINE
  8
_0-0_
  6
CONTINUOUS
 62
    7
 10
203.34977403862487
 20
101.07062405189622
 11
203.41407403862488
 21
100.97862405189622
  0
LINE
  8
_0-0_
  6
CONTINUOUS
 62
    7
 10
203.41407403862488
 20
100.97862405189622
 11
203.47897403862487
 21
100.88692405189622
  0
LINE
  8
_0-0_
  6
CONTINUOUS
 62
    7
 10
203.47897403862487
 20
100.88692405189622
 11
203.54427403862488
 21
100.79552405189621
  0
LINE
  8
_0-0_
  6
CONTINUOUS
 62
    7
 10
203.54427403862488
 20
100.79552405189621
 11
203.61017403862488
 21
100.70452405189621
  0
LINE
  8
_0-0_
  6
CONTINUOUS
 62
    7
 10
203.61017403862488
 20
100.70452405189621
 11
203.67637403862489
 21
100.61392405189622
  0
LINE
  8
_0-0_
  6
CONTINUOUS
 62
    7
 10
203.67637403862489
 20
100.61392405189622
 11
203.74187403862487
 21
100.52512405189621
  0
LINE
  8
_0-0_
  6
CONTINUOUS
 62
    7
 10
203.74187403862487
 20
100.52512405189621
 11
203.80557403862488
 21
100.43942405189621
  0
LINE
  8
_0-0_
  6
CONTINUOUS
 62
    7
 10
203.80557403862488
 20
100.43942405189621
 11
203.86647403862489
 21
100.35812405189621
  0
LINE
  8
_0-0_
  6
CONTINUOUS
 62
    7
 10
203.86647403862489
 20
100.35812405189621
 11
203.92337403862487
 21
100.28252405189622
  0
LINE
  8
_0-0_
  6
CONTINUOUS
 62
    7
 10
203.92337403862487
 20
100.28252405189622
 11
203.97507403862488
 21
100.21412405189622
  0
LINE
  8
_0-0_
  6
CONTINUOUS
 62
    7
 10
203.97507403862488
 20
100.21412405189622
 11
204.02057403862489
 21
100.15412405189622
  0
LINE
  8
_0-0_
  6
CONTINUOUS
 62
    7
 10
204.02057403862489
 20
100.15412405189622
 11
204.14937403862487
 21
99.984724051896208
  0
LINE
  8
_0-0_
  6
CONTINUOUS
 62
    7
 10
203.81357403862489
 20
110.44832405189621
 11
205.84087403862489
 21
107.94012405189622
  0
LINE
  8
_0-0_
  6
CONTINUOUS
 62
    7
 10
200.90017403862487
 20
111.78702405189621
 11
201.14917403862489
 21
111.73862405189621
  0
LINE
  8
_0-0_
  6
CONTINUOUS
 62
    7
 10
201.14917403862489
 20
111.73862405189621
 11
201.25367403862487
 21
111.71812405189621
  0
LINE
  8
_0-0_
  6
CONTINUOUS
 62
    7
 10
201.25367403862487
 20
111.71812405189621
 11
201.37847403862489
 21
111.69202405189621
  0
LINE
  8
_0-0_
  6
CONTINUOUS
 62
    7
 10
201.37847403862489
 20
111.69202405189621
 11
201.52057403862489
 21
111.65962405189622
  0
LINE
  8
_0-0_
  6
CONTINUOUS
 62
    7
 10
201.52057403862489
 20
111.65962405189622
 11
201.67677403862487
 21
111.62002405189622
  0
LINE
  8
_0-0_
  6
CONTINUOUS
 62
    7
 10
201.67677403862487
 20
111.62002405189622
 11
201.84397403862488
 21
111.57212405189621
  0
LINE
  8
_0-0_
  6
CONTINUOUS
 62
    7
 10
201.84397403862488
 20
111.57212405189621
 11
202.01927403862487
 21
111.51522405189621
  0
LINE
  8
_0-0_
  6
CONTINUOUS
 62
    7
 10
202.01927403862487
 20
111.51522405189621
 11
202.19957403862489
 21
111.44822405189622
  0
LINE
  8
_0-0_
  6
CONTINUOUS
 62
    7
 10
202.19957403862489
 20
111.44822405189622
 11
202.38167403862488
 21
111.37032405189622
  0
LINE
  8
_0-0_
  6
CONTINUOUS
 62
    7
 10
202.38167403862488
 20
111.37032405189622
 11
202.56277403862487
 21
111.28132405189621
  0
LINE
  8
_0-0_
  6
CONTINUOUS
 62
    7
 10
202.56277403862487
 20
111.28132405189621
 11
202.74007403862487
 21
111.18402405189622
  0
LINE
  8
_0-0_
  6
CONTINUOUS
 62
    7
 10
202.74007403862487
 20
111.18402405189622
 11
202.91087403862488
 21
111.08192405189621
  0
LINE
  8
_0-0_
  6
CONTINUOUS
 62
    7
 10
202.91087403862488
 20
111.08192405189621
 11
203.07267403862488
 21
110.97852405189622
  0
LINE
  8
_0-0_
  6
CONTINUOUS
 62
    7
 10
203.07267403862488
 20
110.97852405189622
 11
203.22287403862487
 21
110.87742405189621
  0
LINE
  8
_0-0_
  6
CONTINUOUS
 62
    7
 10
203.22287403862487
 20
110.87742405189621
 11
203.35867403862488
 21
110.78212405189622
  0
LINE
  8
_0-0_
  6
CONTINUOUS
 62
    7
 10
203.35867403862488
 20
110.78212405189622
 11
203.47757403862488
 21
110.69612405189622
  0
LINE
  8
_0-0_
  6
CONTINUOUS
 62
    7
 10
203.47757403862488
 20
110.69612405189622
 11
203.81357403862489
 21
110.44832405189621
  0
LINE
  8
_0-0_
  6
CONTINUOUS
 62
    7
 10
208.65017403862487
 20
102.28702405189621
 11
208.46547403862488
 21
102.78202405189622
  0
LINE
  8
_0-0_
  6
CONTINUOUS
 62
    7
 10
208.46547403862488
 20
102.78202405189622
 11
208.38767403862488
 21
102.98982405189622
  0
LINE
  8
_0-0_
  6
CONTINUOUS
 62
    7
 10
208.38767403862488
 20
102.98982405189622
 11
208.29367403862489
 21
103.23762405189622
  0
LINE
  8
_0-0_
  6
CONTINUOUS
 62
    7
 10
208.29367403862489
 20
103.23762405189622
 11
208.18427403862489
 21
103.51912405189621
  0
LINE
  8
_0-0_
  6
CONTINUOUS
 62
    7
 10
208.18427403862489
 20
103.51912405189621
 11
208.06057403862488
 21
103.82792405189622
  0
LINE
  8
_0-0_
  6
CONTINUOUS
 62
    7
 10
208.06057403862488
 20
103.82792405189622
 11
207.92367403862488
 21
104.15772405189621
  0
LINE
  8
_0-0_
  6
CONTINUOUS
 62
    7
 10
207.92367403862488
 20
104.15772405189621
 11
207.77447403862487
 21
104.50212405189622
  0
LINE
  8
_0-0_
  6
CONTINUOUS
 62
    7
 10
207.77447403862487
 20
104.50212405189622
 11
207.61387403862489
 21
104.85472405189621
  0
LINE
  8
_0-0_
  6
CONTINUOUS
 62
    7
 10
207.61387403862489
 20
104.85472405189621
 11
207.44317403862487
 21
105.20922405189621
  0
LINE
  8
_0-0_
  6
CONTINUOUS
 62
    7
 10
207.44317403862487
 20
105.20922405189621
 11
207.26367403862488
 21
105.55952405189622
  0
LINE
  8
_0-0_
  6
CONTINUOUS
 62
    7
 10
207.26367403862488
 20
105.55952405189622
 11
207.07947403862488
 21
105.90062405189622
  0
LINE
  8
_0-0_
  6
CONTINUOUS
 62
    7
 10
207.07947403862488
 20
105.90062405189622
 11
206.89487403862489
 21
106.22792405189621
  0
LINE
  8
_0-0_
  6
CONTINUOUS
 62
    7
 10
206.89487403862489
 20
106.22792405189621
 11
206.71447403862487
 21
106.53672405189621
  0
LINE
  8
_0-0_
  6
CONTINUOUS
 62
    7
 10
206.71447403862487
 20
106.53672405189621
 11
206.54277403862488
 21
106.82222405189621
  0
LINE
  8
_0-0_
  6
CONTINUOUS
 62
    7
 10
206.54277403862488
 20
106.82222405189621
 11
206.38417403862488
 21
107.07992405189621
  0
LINE
  8
_0-0_
  6
CONTINUOUS
 62
    7
 10
206.38417403862488
 20
107.07992405189621
 11
206.24327403862489
 21
107.30502405189621
  0
LINE
  8
_0-0_
  6
CONTINUOUS
 62
    7
 10
206.24327403862489
 20
107.30502405189621
 11
205.84087403862489
 21
107.94012405189622
  0
LINE
  8
_0-0_
  6
CONTINUOUS
 62
    7
 10
199.90777403862489
 20
107.78702405189621
 11
200.39427403862487
 21
106.69982405189621
  0
LINE
  8
_0-0_
  6
CONTINUOUS
 62
    7
 10
200.39427403862487
 20
106.69982405189621
 11
200.59797403862487
 21
106.24482405189622
  0
LINE
  8
_0-0_
  6
CONTINUOUS
 62
    7
 10
200.59797403862487
 20
106.24482405189622
 11
200.83787403862488
 21
105.71062405189622
  0
LINE
  8
_0-0_
  6
CONTINUOUS
 62
    7
 10
200.83787403862488
 20
105.71062405189622
 11
201.10487403862487
 21
105.11962405189621
  0
LINE
  8
_0-0_
  6
CONTINUOUS
 62
    7
 10
201.10487403862487
 20
105.11962405189621
 11
201.38957403862489
 21
104.49452405189621
  0
LINE
  8
_0-0_
  6
CONTINUOUS
 62
    7
 10
201.38957403862489
 20
104.49452405189621
 11
201.68257403862486
 21
103.85782405189622
  0
LINE
  8
_0-0_
  6
CONTINUOUS
 62
    7
 10
201.68257403862486
 20
103.85782405189622
 11
201.97467403862487
 21
103.23222405189621
  0
LINE
  8
_0-0_
  6
CONTINUOUS
 62
    7
 10
201.97467403862487
 20
103.23222405189621
 11
202.25667403862488
 21
102.64032405189621
  0
LINE
  8
_0-0_
  6
CONTINUOUS
 62
    7
 10
202.25667403862488
 20
102.64032405189621
 11
202.51897403862489
 21
102.10462405189621
  0
LINE
  8
_0-0_
  6
CONTINUOUS
 62
    7
 10
202.51897403862489
 20
102.10462405189621
 11
202.75437403862489
 21
101.64292405189622
  0
LINE
  8
_0-0_
  6
CONTINUOUS
 62
    7
 10
202.75437403862489
 20
101.64292405189622
 11
202.96237403862489
 21
101.25312405189621
  0
LINE
  8
_0-0_
  6
CONTINUOUS
 62
    7
 10
202.96237403862489
 20
101.25312405189621
 11
203.14467403862488
 21
100.92812405189622
  0
LINE
  8
_0-0_
  6
CONTINUOUS
 62
    7
 10
203.14467403862488
 20
100.92812405189622
 11
203.30257403862487
 21
100.66112405189621
  0
LINE
  8
_0-0_
  6
CONTINUOUS
 62
    7
 10
203.30257403862487
 20
100.66112405189621
 11
203.43767403862489
 21
100.44512405189622
  0
LINE
  8
_0-0_
  6
CONTINUOUS
 62
    7
 10
203.43767403862489
 20
100.44512405189622
 11
203.55147403862489
 21
100.27312405189622
  0
LINE
  8
_0-0_
  6
CONTINUOUS
 62
    7
 10
203.55147403862489
 20
100.27312405189622
 11
203.64547403862488
 21
100.13812405189621
  0
LINE
  8
_0-0_
  6
CONTINUOUS
 62
    7
 10
203.64547403862488
 20
100.13812405189621
 11
203.90017403862487
 21
99.787024051896211
  0
LINE
  8
_0-0_
  6
CONTINUOUS
 62
    7
 10
200.75327403862488
 20
111.19482405189622
 11
200.02307403862488
 21
108.25172405189622
  0
LINE
  8
_0-0_
  6
CONTINUOUS
 62
    7
 10
196.15017403862487
 20
107.78702405189621
 11
199.90777403862489
 21
107.78702405189621
  0
LINE
  8
_0-0_
  6
CONTINUOUS
 62
    7
 10
198.60887403862489
 20
126.78702405189621
 11
198.60887403862489
 21
135.64312405189622
  0
LINE
  8
_0-0_
  6
CONTINUOUS
 62
    7
 10
199.15017403862487
 20
126.78702405189621
 11
199.15017403862487
 21
135.64312405189622
  0
LINE
  8
_0-0_
  6
CONTINUOUS
 62
    7
 10
210.86047403862489
 20
116.51122405189622
 11
206.47947403862489
 21
112.33882405189621
  0
LINE
  8
_0-0_
  6
CONTINUOUS
 62
    7
 10
196.15017403862487
 20
111.78702405189621
 11
205.10017403862489
 21
111.78702405189621
  0
LINE
  8
_0-0_
  6
CONTINUOUS
 62
    7
 10
196.15017403862487
 20
116.78702405189621
 11
216.65017403862487
 21
116.78702405189621
  0
LINE
  8
_0-0_
  6
CONTINUOUS
 62
    7
 10
216.65017403862487
 20
116.78702405189621
 11
216.65017403862487
 21
117.28702405189621
  0
LINE
  8
_0-0_
  6
CONTINUOUS
 62
    7
 10
208.15017403862487
 20
126.78702405189621
 11
217.65017403862487
 21
120.28702405189621
  0
LINE
  8
_0-0_
  6
CONTINUOUS
 62
    7
 10
196.15017403862487
 20
126.78702405189621
 11
208.15017403862487
 21
126.78702405189621
  0
LINE
  8
_0-0_
  6
CONTINUOUS
 62
    7
 10
196.15017403862487
 20
120.28702405189621
 11
217.65017403862487
 21
120.28702405189621
  0
LINE
  8
_0-0_
  6
CONTINUOUS
 62
    7
 10
196.15017403862487
 20
117.28702405189621
 11
217.65017403862487
 21
117.28702405189621
  0
LINE
  8
_0-0_
  6
CONTINUOUS
 62
    7
 10
217.65017403862487
 20
117.28702405189621
 11
217.65017403862487
 21
120.28702405189621
  0
LINE
  8
_0-0_
  6
CONTINUOUS
 62
    7
 10
223.40017403862487
 20
136.14312405189622
 11
223.40017403862487
 21
138.02482405189622
  0
LINE
  8
_0-0_
  6
CONTINUOUS
 62
    7
 10
196.15017403862487
 20
138.64312405189622
 11
222.08837403862489
 21
138.64312405189622
  0
LINE
  8
_0-0_
  6
CONTINUOUS
 62
    7
 10
196.15017403862487
 20
136.14312405189622
 11
223.40017403862487
 21
136.14312405189622
  0
LINE
  8
_0-0_
  6
CONTINUOUS
 62
    7
 10
196.15017403862487
 20
71.184424051896215
 11
199.15017403862487
 21
71.184424051896215
  0
LINE
  8
_0-0_
  6
CONTINUOUS
 62
    7
 10
198.60887403862489
 20
70.643124051896208
 11
199.15017403862487
 21
71.184424051896215
  0
LINE
  8
_0-0_
  6
CONTINUOUS
 62
    7
 10
198.60887403862489
 20
70.643124051896208
 11
198.60887403862489
 21
107.78702405189621
  0
LINE
  8
_0-0_
  6
CONTINUOUS
 62
    7
 10
199.15017403862487
 20
71.184424051896215
 11
199.15017403862487
 21
107.78702405189621
  0
LINE
  8
_0-0_
  6
CONTINUOUS
 62
    7
 10
196.15017403862487
 20
70.643124051896208
 11
198.60887403862489
 21
70.643124051896208
  0
LINE
  8
_0-0_
  6
CENTER1
 62
    7
 10
196.15017403862487
 20
63.356224051896206
 11
196.15017403862487
 21
154.1613240518962
  0
ARC
  8
_0-0_
  6
CONTINUOUS
 62
    7
 10
219.15017403862487
 20
137.14312405189622
 40
1.5
 50
270.00000000000006
 51
318.19000000000005
  0
CIRCLE
  8
_0-0_
  6
CONTINUOUS
 62
    7
 10
196.15017403862487
 20
217.6903240518962
 40
27.25
  0
ARC
  8
_0-0_
  6
CONTINUOUS
 62
    7
 10
169.90017403862487
 20
138.02482405189622
 40
1
 50
116.24100000000003
 51
180.00000000000006
  0
ARC
  8
_0-0_
  6
CONTINUOUS
 62
    7
 10
187.20017403862488
 20
113.78702405189621
 40
2
 50
226.39700000000005
 51
270.00000000000006
  0
ARC
  8
_0-0_
  6
CONTINUOUS
 62
    7
 10
180.75017403862489
 20
115.78702405189621
 40
1
 50
46.397000000000013
 51
90.000000000000028
  0
ARC
  8
_0-0_
  6
CONTINUOUS
 62
    7
 10
188.8350740386249
 20
106.37582405189622
 40
6.6032000000000002
 50
218.25900000000001
 51
266.22400000000005
  0
ARC
  8
_0-0_
  6
CONTINUOUS
 62
    7
 10
187.9095740386249
 20
104.39332405189622
 40
4.4151999999999996
 50
210.26100000000002
 51
273.13400000000007
  0
ARC
  8
_0-0_
  6
CONTINUOUS
 62
    7
 10
196.15017403862487
 20
84.772924051896211
 40
60.370199999999997
 50
90.000000000000028
 51
116.24100000000003
  0
ARC
  8
_0-0_
  6
CONTINUOUS
 62
    7
 10
204.39067403862487
 20
104.39332405189622
 40
4.4151999999999996
 50
266.86600000000004
 51
329.73900000000003
  0
ARC
  8
_0-0_
  6
CONTINUOUS
 62
    7
 10
203.46527403862487
 20
106.37582405189622
 40
6.6032000000000002
 50
273.77600000000007
 51
321.7410000000001
  0
ARC
  8
_0-0_
  6
CONTINUOUS
 62
    7
 10
211.55017403862487
 20
115.78702405189621
 40
1
 50
90.000000000000028
 51
133.60300000000004
  0
ARC
  8
_0-0_
  6
CONTINUOUS
 62
    7
 10
205.10017403862489
 20
113.78702405189621
 40
2
 50
270.00000000000006
 51
313.60300000000007
  0
ARC
  8
_0-0_
  6
CONTINUOUS
 62
    7
 10
222.40017403862487
 20
138.02482405189622
 40
1
 50
0
 51
63.759000000000022
  0
ARC
  8
_0-0_
  6
CONTINUOUS
 62
    7
 10
196.15017403862487
 20
84.772924051896211
 40
60.370199999999997
 50
63.759000000000022
 51
90.000000000000028
  0
POINT
  8
_0-0_
 62
    7
 10
237.9326740386249
 20
145.14312405189622
  0
POINT
  8
_0-0_
 62
    7
 10
208.15017403862487
 20
130.5705240518962
  0
POINT
  8
_0-0_
 62
    7
 10
184.15017403862487
 20
130.5705240518962
  0
POINT
  8
_0-0_
 62
    7
 10
174.65017403862487
 20
113.47342405189622
  0
POINT
  8
_0-0_
 62
    7
 10
217.65017403862487
 20
113.47342405189622
  0
POINT
  8
_0-0_
 62
    7
 10
246.09507403862489
 20
70.643124051896208
  0
POINT
  8
_0-0_
 62
    7
 10
246.09507403862489
 20
145.14312405189622
  0
POINT
  8
_0-0_
 62
    7
 10
223.40017403862487
 20
162.76552405189622
  0
POINT
  8
_0-0_
 62
    7
 10
168.90017403862487
 20
162.76552405189622
  0
TEXT
  8
_0-0_
 62
    7
 10
190.87017403862487
 20
162.59552405189621
 40
3.2000000000000002
 41
1
 50
0
  1
φ54.5
  0
TEXT
  8
_0-0_
 62
    7
 10
238.10267403862488
 20
150.49712405189621
 40
3.2000000000000002
 41
1
 50
90
  1
9.0
  0
TEXT
  8
_0-0_
 62
    7
 10
167.02347403862487
 20
130.40052405189621
 40
3.2000000000000002
 41
1
 50
0
  1
φ24.0
  0
TEXT
  8
_0-0_
 62
    7
 10
159.09287403862487
 20
113.30342405189622
 40
3.2000000000000002
 41
1
 50
0
  1
φ43.0
  0
TEXT
  8
_0-0_
 62
    7
 10
246.26507403862487
 20
101.65312405189621
 40
3.2000000000000002
 41
1
 50
90.000000000000057
  1
(74.5)
  0
TEXT
  8
_0-0_
 62
    7
 10
170.01187403862488
 20
73.395424051896214
 40
3.2000000000000002
 41
1
 50
0
  1
M6X1.0
  0
LINE
  8
_e-0_
  6
CONTINUOUS
 62
    7
 10
224.89496194143126
 20
22.559442898127813
 11
227.8097617615079
 21
23.620343271480195
  0
LINE
  8
_e-0_
  6
CONTINUOUS
 62
    7
 10
224.27973506505128
 20
21.803429741566973
 11
229.27166396158927
 21
23.62034327148011
  0
LINE
  8
_e-0_
  6
CONTINUOUS
 62
    7
 10
223.93704267242137
 20
21.146611024902469
 11
226.90280321503627
 21
22.226059584375477
  0
LINE
  8
_e-0_
  6
CONTINUOUS
 62
    7
 10
223.73756461823959
 20
20.541918064553002
 11
225.91223474161566
 21
21.333433258809876
  0
LINE
  8
_e-0_
  6
CONTINUOUS
 62
    7
 10
223.63661405569695
 20
19.973086178417077
 11
225.46211479408728
 21
20.637514109822135
  0
LINE
  8
_e-0_
  6
CONTINUOUS
 62
    7
 10
223.61285980327798
 20
19.432351451361001
 11
225.45384993840651
 21
20.102417062125539
  0
LINE
  8
_e-0_
  6
CONTINUOUS
 62
    7
 10
223.65474388890888
 20
18.915507125582167
 11
225.49923532220544
 21
19.586847104661103
  0
LINE
  8
_e-0_
  6
CONTINUOUS
 62
    7
 10
223.75586960394017
 20
18.420224989534688
 11
225.64332579634933
 21
19.107202862053043
  0
LINE
  8
_e-0_
  6
CONTINUOUS
 62
    7
 10
223.91312442017227
 20
17.945372175600198
 11
225.8826205913096
 21
18.662210158395453
  0
LINE
  8
_e-0_
  6
CONTINUOUS
 62
    7
 10
224.12592193471446
 20
17.490735250581452
 11
226.22635996333284
 21
18.255232171919317
  0
LINE
  8
_e-0_
  6
CONTINUOUS
 62
    7
 10
224.39606980716562
 20
17.056972148766022
 11
226.70438051479627
 21
17.897128537781555
  0
LINE
  8
_e-0_
  6
CONTINUOUS
 62
    7
 10
224.72818768877963
 20
16.645764285703137
 11
227.41105280437515
 21
17.622247330331049
  0
LINE
  8
_e-0_
  6
CONTINUOUS
 62
    7
 10
225.1309258327662
 20
16.26026009607989
 11
228.97288296980466
 21
17.658618135288464
  0
LINE
  8
_e-0_
  6
CONTINUOUS
 62
    7
 10
225.61987939155057
 20
15.906135751178169
 11
228.43481714028755
 21
16.930689303030761
  0
LINE
  8
_e-0_
  6
CONTINUOUS
 62
    7
 10
228.47486213635935
 20
22.798242238249728
 11
230.73356616167064
 21
23.62034327148028
  0
LINE
  8
_e-0_
  6
CONTINUOUS
 62
    7
 10
226.57261434539558
 20
21.573791777902315
 11
231.82148190616897
 21
23.484223333629259
  0
LINE
  8
_e-0_
  6
CONTINUOUS
 62
    7
 10
227.82333079946997
 20
21.496926452454389
 11
231.82148190616897
 21
22.952134447391316
  0
LINE
  8
_e-0_
  6
CONTINUOUS
 62
    7
 10
229.28523299955151
 20
21.496926452454389
 11
231.82148190616897
 21
22.420045561153373
  0
LINE
  8
_e-0_
  6
CONTINUOUS
 62
    7
 10
229.7038835487775
 20
21.117213904693884
 11
231.82148190616897
 21
21.887956674915429
  0
LINE
  8
_e-0_
  6
CONTINUOUS
 62
    7
 10
229.7038835487775
 20
20.58512501845594
 11
231.82148190616897
 21
21.355867788677429
  0
LINE
  8
_e-0_
  6
CONTINUOUS
 62
    7
 10
229.7038835487775
 20
20.053036132217983
 11
231.82148190616897
 21
20.823778902439486
  0
LINE
  8
_e-0_
  6
CONTINUOUS
 62
    7
 10
229.7038835487775
 20
19.520947245980039
 11
231.82148190616897
 21
20.291690016201528
  0
LINE
  8
_e-0_
  6
CONTINUOUS
 62
    7
 10
229.69645367148712
 20
18.98615410556414
 11
231.82148190616897
 21
19.759601129963585
  0
LINE
  8
_e-0_
  6
CONTINUOUS
 62
    7
 10
229.5817680081563
 20
18.412323051576664
 11
231.82148190616897
 21
19.227512243725641
  0
LINE
  8
_e-0_
  6
CONTINUOUS
 62
    7
 10
229.35586854310083
 20
17.798013484121896
 11
231.82148190616897
 21
18.695423357487698
  0
LINE
  8
_e-0_
  6
CONTINUOUS
 62
    7
 10
228.95640753279892
 20
17.120532680384144
 11
231.70245557819439
 21
18.120012430772988
  0
LINE
  8
_e-0_
  6
CONTINUOUS
 62
    7
 10
228.09100360317413
 20
16.273462523145724
 11
231.42024604365912
 21
17.485207674138053
  0
LINE
  8
_e-0_
  6
CONTINUOUS
 62
    7
 10
227.21428092930469
 20
15.422272679913021
 11
230.93340672274078
 21
16.775923766215442
  0
LINE
  8
_e-0_
  6
CONTINUOUS
 62
    7
 10
228.73013306021926
 20
15.441908848876949
 11
229.78881475325437
 21
15.827237472704269
  0
LINE
  8
_e-0_
  6
CONTINUOUS
 62
    3
 10
227.16101564187161
 20
22.364090237445467
 11
227.16101564187161
 21
22.364090237445467
  0
LINE
  8
_e-0_
  6
CONTINUOUS
 62
    3
 10
227.16101564187161
 20
22.364090237445467
 11
226.74881626045513
 21
22.083158082147321
  0
LINE
  8
_e-0_
  6
CONTINUOUS
 62
    3
 10
228.75505313371696
 20
15.422272679912851
 11
227.20840901853964
 21
15.422272679912851
  0
ARC
  8
_e-0_
  6
CONTINUOUS
 62
    3
 10
228.75505313371696
 20
15.922272679912851
 40
0.5
 50
270
 51
286.2039935104566
  0
LINE
  8
_e-0_
  6
CONTINUOUS
 62
    3
 10
231.83925499864876
 20
23.62034327148011
 11
231.83925499864876
 21
18.584824148334121
  0
ARC
  8
_e-0_
  6
CONTINUOUS
 62
    3
 10
227.7085854921871
 20
19.523301071252035
 40
4.25
 50
286.20399351045648
 51
345.50707147989851
  0
ARC
  8
_e-0_
  6
CONTINUOUS
 62
    3
 10
231.33925499864876
 20
18.584824148334121
 40
0.5
 50
345.5070714798988
 51
0
  0
ARC
  8
_e-0_
  6
CONTINUOUS
 62
    3
 10
225.52564278829468
 20
19.65703826405678
 40
4
 50
279.71265316664216
 51
332.69093929010893
  0
ARC
  8
_e-0_
  6
CONTINUOUS
 62
    3
 10
226.1161174900198
 20
16.207206438210392
 40
0.5
 50
241.94526281180003
 51
279.71265316664227
  0
ARC
  8
_e-0_
  6
CONTINUOUS
 62
    3
 10
226.84280014418442
 20
23.12034327148011
 40
0.5
 50
90
 51
106.0533814378627
  0
LINE
  8
_e-0_
  6
CONTINUOUS
 62
    3
 10
229.35971880604481
 20
23.620343271480081
 11
229.35971880604481
 21
23.620343271480081
  0
LINE
  8
_e-0_
  6
CONTINUOUS
 62
    3
 10
229.35971880604481
 20
23.620343271480081
 11
228.33818881004171
 21
23.131545108989258
  0
LINE
  8
_e-0_
  6
CONTINUOUS
 62
    3
 10
228.33818881004171
 20
23.131545108989258
 11
227.74631474828078
 21
22.751926396751223
  0
LINE
  8
_e-0_
  6
CONTINUOUS
 62
    3
 10
227.16101564187161
 20
22.364090237445467
 11
227.74631474828078
 21
22.751926396751244
  0
ARC
  8
_e-0_
  6
CONTINUOUS
 62
    3
 10
226.84280014418442
 20
23.12034327148011
 40
0.5
 50
90
 51
106.0533814378627
  0
ARC
  8
_e-0_
  6
CONTINUOUS
 62
    3
 10
226.84280014418442
 20
23.12034327148011
 40
0.5
 50
90
 51
106.0533814378627
  0
LINE
  8
_e-0_
  6
CONTINUOUS
 62
    3
 10
229.35971880604484
 20
23.62034327148011
 11
226.84280014418442
 21
23.62034327148011
  0
ARC
  8
_e-0_
  6
CONTINUOUS
 62
    3
 10
227.87979824217902
 20
19.516576499787504
 40
4.25
 50
106.0533814378627
 51
241.94526281180052
  0
ARC
  8
_e-0_
  6
CONTINUOUS
 62
    3
 10
226.84280014418442
 20
23.12034327148011
 40
0.5
 50
90
 51
106.0533814378627
  0
LINE
  8
_e-0_
  6
CONTINUOUS
 62
    3
 10
230.43356720910816
 20
23.62034327148011
 11
231.83925499864876
 21
23.62034327148011
  0
ARC
  8
_e-0_
  6
CONTINUOUS
 62
    3
 10
230.43356720910816
 20
23.12034327148011
 40
0.5
 50
90
 51
112.8455272152833
  0
LINE
  8
_e-0_
  6
CONTINUOUS
 62
    3
 10
229.72165664125728
 20
21.496926452454218
 11
227.41810437481934
 21
21.496926452454218
  0
ARC
  8
_e-0_
  6
CONTINUOUS
 62
    3
 10
227.41810437481934
 20
20.996926452454218
 40
0.5
 50
90
 51
110.93110431809542
  0
ARC
  8
_e-0_
  6
CONTINUOUS
 62
    3
 10
225.93929554254836
 20
20.377863869984594
 40
0.05
 50
165.368776721252
 51
224.67319701305797
  0
LINE
  8
_e-0_
  6
CONTINUOUS
 62
    3
 10
225.90373912032888
 20
20.34271076430457
 11
225.88474474191534
 21
20.361923067900648
  0
ARC
  8
_e-0_
  6
CONTINUOUS
 62
    3
 10
228.13259457660138
 20
19.128905105799561
 40
2.5
 50
110.93110431809528
 51
150.17701829297229
  0
ARC
  8
_e-0_
  6
CONTINUOUS
 62
    3
 10
225.9203011641348
 20
20.397076173580672
 40
0.05
 50
224.67319701305652
 51
330.17701829297562
  0
LINE
  8
_e-0_
  6
CONTINUOUS
 62
    3
 10
230.2394432209482
 20
23.581120741872141
 11
228.8687083260981
 21
23.003634771753198
  0
LINE
  8
_e-0_
  6
CONTINUOUS
 62
    3
 10
228.8687083260981
 20
23.003634771753198
 11
228.22782175306693
 21
22.653614209573234
  0
ARC
  8
_e-0_
  6
CONTINUOUS
 62
    3
 10
228.30984611408007
 20
19.759002021256947
 40
2.5
 50
126.05682261028305
 51
165.36877672125814
  0
ARC
  8
_e-0_
  6
CONTINUOUS
 62
    3
 10
232.7192481497305
 20
13.719013551269938
 40
10
 50
116.68868989749241
 51
126.03335467187628
  0
LINE
  8
_e-0_
  6
CONTINUOUS
 62
    3
 10
226.74881626045513
 20
22.083158082147328
 11
226.74881626045513
 21
22.083158082147328
  0
LINE
  8
_e-0_
  6
CONTINUOUS
 62
    3
 10
226.74881626045513
 20
22.083158082147328
 11
225.9519730586365
 21
21.357663311702638
  0
LINE
  8
_e-0_
  6
CONTINUOUS
 62
    3
 10
225.9519730586365
 20
21.357663311702638
 11
225.76745851498802
 21
21.144341182042698
  0
ARC
  8
_e-0_
  6
CONTINUOUS
 62
    3
 10
227.97130721195708
 20
20.06268049326809
 40
2.5
 50
169.07329675873063
 51
296.321383266618
  0
LINE
  8
_e-0_
  6
CONTINUOUS
 62
    3
 10
225.76745851498802
 20
21.144341182042712
 11
225.76745851498802
 21
21.144341182042712
  0
LINE
  8
_e-0_
  6
CONTINUOUS
 62
    3
 10
225.76745851498802
 20
21.144341182042712
 11
225.51663102113392
 21
20.536563177279575
  0
LINE
  8
_e-0_
  6
CONTINUOUS
 62
    3
 10
229.72165664125728
 20
21.496926452454218
 11
229.72165664125728
 21
19.049903303598853
  0
ARC
  8
_e-0_
  6
CONTINUOUS
 62
    3
 10
228.2447781668277
 20
17.020568401074399
 40
0.5
 50
311.4163090429962
 51
326.13300916724882
  0
ARC
  8
_e-0_
  6
CONTINUOUS
 62
    3
 10
225.7449630233759
 20
19.481073652187035
 40
4
 50
316.78132524618343
 51
353.81191653224226
  0
ARC
  8
_e-0_
  6
CONTINUOUS
 62
    3
 10
224.60638871422316
 20
21.145143796333414
 40
6
 50
294.69555798319504
 51
311.41630904299643
  0
ARC
  8
_e-0_
  6
CONTINUOUS
 62
    3
 10
227.70905044770961
 20
22.905544568558824
 40
7.5
 50
264.68313230529077
 51
266.17253517307824
  0
ARC
  8
_e-0_
  6
CONTINUOUS
 62
    3
 10
227.0187057216842
 20
15.487598480911061
 40
0.05
 50
174.02086603460467
 51
264.68313230528986
  0
ARC
  8
_e-0_
  6
CONTINUOUS
 62
    3
 10
227.2176177010237
 20
15.466765226839073
 40
0.25
 50
114.69555798319523
 51
174.02086603461154
  0
LINE
  8
_e-0_
  6
CONTINUOUS
 62
    7
 10
238.20536810548208
 20
19.550509441829263
 11
239.34255801200223
 21
19.964412718510573
  0
LINE
  8
_e-0_
  6
CONTINUOUS
 62
    3
 10
244.14222125916532
 20
18.870789910286589
 11
244.14222125916532
 21
16.256496040596744
  0
CIRCLE
  8
_e-0_
  6
CONTINUOUS
 62
    3
 10
237.06804321962647
 20
18.853770866897719
 40
1.3337737955830651
  0
CIRCLE
  8
_e-0_
  6
CONTINUOUS
 62
    3
 10
237.03967147488896
 20
18.825399122160206
 40
2.5691707563897666
  0
LINE
  8
_e-0_
  6
CONTINUOUS
 62
    3
 10
240.4657650870484
 20
21.433727799882192
 11
240.4657650870484
 21
16.256496040596744
  0
LINE
  8
_e-0_
  6
CONTINUOUS
 62
    3
 10
240.4657650870484
 20
16.256496040596744
 11
242.00206198988951
 21
16.256496040596744
  0
LINE
  8
_e-0_
  6
CONTINUOUS
 62
    3
 10
242.00206198988951
 20
16.256496040596744
 11
242.00206198988951
 21
19.870789910286589
  0
LINE
  8
_e-0_
  6
CONTINUOUS
 62
    3
 10
245.63411651741569
 20
16.256496040596744
 11
244.14222125916532
 21
16.256496040596744
  0
LINE
  8
_e-0_
  6
CONTINUOUS
 62
    3
 10
243.14222125916532
 20
19.870789910286589
 11
242.00206198988951
 21
19.870789910286589
  0
ARC
  8
_e-0_
  6
CONTINUOUS
 62
    3
 10
243.14222125916532
 20
18.870789910286589
 40
1
 50
0
 51
90
  0
LINE
  8
_e-0_
  6
CONTINUOUS
 62
    3
 10
243.13411651741566
 20
21.433727799882192
 11
240.4657650870484
 21
21.433727799882192
  0
LINE
  8
_e-0_
  6
CONTINUOUS
 62
    3
 10
245.63411651741569
 20
18.933727799882206
 11
245.63411651741569
 21
16.256496040596744
  0
ARC
  8
_e-0_
  6
CONTINUOUS
 62
    3
 10
243.13411651741566
 20
18.933727799882206
 40
2.5
 50
0
 51
90
  0
ARC
  8
_e-0_
  6
CONTINUOUS
 62
    3
 10
249.14089497627498
 20
18.825131180173628
 40
1.3337737955830651
 50
23.422555400004953
 51
97.191484740792632
  0
LINE
  8
_e-0_
  6
CONTINUOUS
 62
    3
 10
247.91702652762893
 20
19.355318466132871
 11
250.36476342492097
 21
19.355318466132871
  0
ARC
  8
_e-0_
  6
CONTINUOUS
 62
    3
 10
249.14089497627498
 20
18.825131180173628
 40
1.3337737955830651
 50
92.530763017635266
 51
156.57744459999506
  0
ARC
  8
_e-0_
  6
CONTINUOUS
 62
    3
 10
249.14089497627498
 20
18.825131180173628
 40
1.3337737955830651
 50
204.21097500392608
 51
316.0067678116265
  0
LINE
  8
_e-0_
  6
CONTINUOUS
 62
    3
 10
247.92443781812131
 20
18.278153557083954
 11
251.66837645014647
 21
18.278153557083954
  0
LINE
  8
_e-0_
  6
CONTINUOUS
 62
    3
 10
250.1004409861489
 20
17.898727384456492
 11
251.3872930355115
 21
17.586420890431725
  0
ARC
  8
_e-0_
  6
CONTINUOUS
 62
    3
 10
249.17292759130117
 20
18.88919641022602
 40
2.5691707563897666
 50
346.24110979921471
 51
329.53046432565105
  0
ARC
  8
_e-0_
  6
CONTINUOUS
 62
    3
 10
255.16772481875665
 20
18.821787263121109
 40
1.1089756641867943
 50
94.502189492040685
 51
357.22978420280037
  0
LINE
  8
_e-0_
  6
CONTINUOUS
 62
    3
 10
256.17540452963732
 20
19.927340999672765
 11
255.08067334343764
 21
19.927340999672765
  0
LINE
  8
_e-0_
  6
CONTINUOUS
 62
    3
 10
256.27540452963729
 20
19.827340999672799
 11
256.27540452963729
 21
18.768189857755942
  0
ARC
  8
_e-0_
  6
CONTINUOUS
 62
    3
 10
256.17540452963732
 20
19.827340999672799
 40
0.1
 50
0
 51
90
  0
LINE
  8
_e-0_
  6
CONTINUOUS
 62
    3
 10
255.41340348807779
 20
21.436536160503309
 11
256.25567666910433
 21
21.436536160503309
  0
ARC
  8
_e-0_
  6
CONTINUOUS
 62
    3
 10
255.21299748064303
 20
18.875193581371718
 40
2.5691707563897666
 50
85.52614601413697
 51
347.40557840019875
  0
LINE
  8
_e-0_
  6
CONTINUOUS
 62
    3
 10
256.25567666910433
 20
23.520343271480115
 11
256.25567666910433
 21
21.436536160503309
  0
ARC
  8
_e-0_
  6
CONTINUOUS
 62
    3
 10
256.35567666910435
 20
23.520343271480115
 40
0.1
 50
90
 51
180
  0
LINE
  8
_e-0_
  6
CONTINUOUS
 62
    3
 10
257.72034884015875
 20
23.520343271480115
 11
257.72034884015875
 21
18.314990461581317
  0
LINE
  8
_e-0_
  6
CONTINUOUS
 62
    3
 10
257.62034884015878
 20
23.62034327148011
 11
256.35567666910435
 21
23.62034327148011
  0
ARC
  8
_e-0_
  6
CONTINUOUS
 62
    3
 10
257.62034884015878
 20
23.520343271480115
 40
0.1
 50
0
 51
90
  0
CIRCLE
  8
_e-0_
  6
CONTINUOUS
 62
    3
 10
261.26569737248099
 20
18.869336188909813
 40
1.3337737955830651
  0
CIRCLE
  8
_e-0_
  6
CONTINUOUS
 62
    3
 10
261.23732562774347
 20
18.8409644441723
 40
2.5691707563897666
  0
ARC
  8
_e-0_
  6
CONTINUOUS
 62
    3
 10
236.64693337240948
 20
20.963586378279629
 40
0.5
 50
90
 51
106.0533814378627
  0
ARC
  8
_e-0_
  6
CONTINUOUS
 62
    3
 10
236.64693337240948
 20
20.963586378279629
 40
0.5
 50
90
 51
106.0533814378627
  0
ARC
  8
_e-0_
  6
CONTINUOUS
 62
    3
 10
236.64693337240948
 20
20.963586378279629
 40
0.5
 50
90
 51
106.0533814378627
  0
ARC
  8
_e-0_
  6
CONTINUOUS
 62
    3
 10
236.64693337240948
 20
20.963586378279629
 40
0.5
 50
90
 51
106.0533814378627
  0
LINE
  8
_e-0_
  6
CONTINUOUS
 62
    7
 10
235.15107695783277
 20
20.567193922253992
 11
237.36681469386815
 21
21.373656505111242
  0
LINE
  8
_e-0_
  6
CONTINUOUS
 62
    7
 10
236.64051954528406
 20
20.577217803496708
 11
238.16842737065565
 21
21.13333077263438
  0
LINE
  8
_e-0_
  6
CONTINUOUS
 62
    7
 10
234.69148442437094
 20
19.867827033944934
 11
236.64051954528406
 21
20.577217803496708
  0
LINE
  8
_e-0_
  6
CONTINUOUS
 62
    7
 10
234.50915297888352
 20
19.269374928778802
 11
236.23993560685426
 21
19.899328287345213
  0
LINE
  8
_e-0_
  6
CONTINUOUS
 62
    7
 10
234.47250458004532
 20
18.723947116230249
 11
235.77994159004078
 21
19.199815271046589
  0
LINE
  8
_e-0_
  6
CONTINUOUS
 62
    7
 10
234.54341421300137
 20
18.217667225711011
 11
235.74894688763922
 21
18.6564452357145
  0
LINE
  8
_e-0_
  6
CONTINUOUS
 62
    7
 10
234.70841714951203
 20
17.745634496929483
 11
235.91431462987958
 21
18.184545285359832
  0
LINE
  8
_e-0_
  6
CONTINUOUS
 62
    7
 10
234.96678181193332
 20
17.307582657399109
 11
236.27286328163976
 21
17.782957435898879
  0
LINE
  8
_e-0_
  6
CONTINUOUS
 62
    7
 10
235.32998539126271
 20
16.907689063015994
 11
237.01516846109061
 21
17.52104553972265
  0
LINE
  8
_e-0_
  6
CONTINUOUS
 62
    7
 10
235.83138183506327
 20
16.558093557888355
 11
238.04171645401385
 21
17.362589566954512
  0
LINE
  8
_e-0_
  6
CONTINUOUS
 62
    7
 10
236.57854471253526
 20
16.297949719198868
 11
238.04707921602099
 21
16.832452566460574
  0
LINE
  8
_e-0_
  6
CONTINUOUS
 62
    7
 10
238.04707921602099
 20
16.832452566460574
 11
239.01752822909665
 21
17.185667121093161
  0
LINE
  8
_e-0_
  6
CONTINUOUS
 62
    7
 10
237.95638429650606
 20
17.331531201595965
 11
239.42267096324301
 21
17.865215903189608
  0
LINE
  8
_e-0_
  6
CONTINUOUS
 62
    7
 10
237.9652069620077
 20
17.866831275463369
 11
239.5820472637179
 21
18.455313018847846
  0
LINE
  8
_e-0_
  6
CONTINUOUS
 62
    7
 10
238.36549199813288
 20
18.544612000073073
 11
239.60323069972162
 21
18.995112045250664
  0
LINE
  8
_e-0_
  6
CONTINUOUS
 62
    7
 10
238.38202050656739
 20
19.082716771397997
 11
239.51957521881721
 21
19.496752826506167
  0
LINE
  8
_e-0_
  6
CONTINUOUS
 62
    7
 10
237.03033909961567
 20
20.187011631770361
 11
238.69277895946874
 21
20.792090257014578
  0
LINE
  8
_e-0_
  6
CONTINUOUS
 62
    7
 10
237.83235325975483
 20
19.946832027283108
 11
239.07144750163258
 21
20.397825448777212
  0
LINE
  8
_e-0_
  6
CONTINUOUS
 62
    7
 10
240.4657650870484
 20
20.905315546982493
 11
241.91756582005348
 21
21.433727799882192
  0
LINE
  8
_e-0_
  6
CONTINUOUS
 62
    7
 10
240.4657650870484
 20
20.373226660744535
 11
243.35307334324386
 21
21.424120923150738
  0
LINE
  8
_e-0_
  6
CONTINUOUS
 62
    7
 10
240.4657650870484
 20
19.841137774506592
 11
244.19379989432932
 21
21.198031476665179
  0
LINE
  8
_e-0_
  6
CONTINUOUS
 62
    7
 10
240.4657650870484
 20
19.309048888268649
 11
244.72746923533319
 21
20.860182345493072
  0
LINE
  8
_e-0_
  6
CONTINUOUS
 62
    7
 10
240.4657650870484
 20
18.776960002030705
 11
242.00206198988951
 21
19.336126345660205
  0
LINE
  8
_e-0_
  6
CONTINUOUS
 62
    7
 10
243.38726974238503
 20
19.840300735843357
 11
245.10880977654847
 21
20.46689006537639
  0
LINE
  8
_e-0_
  6
CONTINUOUS
 62
    7
 10
240.4657650870484
 20
18.244871115792762
 11
242.00206198988951
 21
18.804037459422261
  0
LINE
  8
_e-0_
  6
CONTINUOUS
 62
    7
 10
240.8503582668672
 20
16.256496040596744
 11
242.00206198988951
 21
16.675681914470431
  0
LINE
  8
_e-0_
  6
CONTINUOUS
 62
    7
 10
240.4657650870484
 20
16.648604457078875
 11
242.00206198988951
 21
17.207770800708431
  0
LINE
  8
_e-0_
  6
CONTINUOUS
 62
    7
 10
240.4657650870484
 20
17.180693343316875
 11
242.00206198988951
 21
17.739859686946374
  0
LINE
  8
_e-0_
  6
CONTINUOUS
 62
    7
 10
240.4657650870484
 20
17.712782229554819
 11
242.00206198988951
 21
18.271948573184318
  0
LINE
  8
_e-0_
  6
CONTINUOUS
 62
    7
 10
244.14222125916532
 20
18.518813957551629
 11
245.63411651741569
 21
19.061819424197608
  0
LINE
  8
_e-0_
  6
CONTINUOUS
 62
    7
 10
244.14222125916532
 20
17.986725071313685
 11
245.63411651741569
 21
18.529730537959665
  0
LINE
  8
_e-0_
  6
CONTINUOUS
 62
    7
 10
244.12687367106173
 20
19.045316778552092
 11
245.5532407082851
 21
19.564471923239864
  0
LINE
  8
_e-0_
  6
CONTINUOUS
 62
    7
 10
244.14222125916532
 20
17.454636185075742
 11
245.63411651741569
 21
17.997641651721722
  0
LINE
  8
_e-0_
  6
CONTINUOUS
 62
    7
 10
244.14222125916532
 20
16.922547298837799
 11
245.63411651741569
 21
17.465552765483778
  0
LINE
  8
_e-0_
  6
CONTINUOUS
 62
    7
 10
244.14222125916532
 20
16.390458412599799
 11
245.63411651741569
 21
16.933463879245835
  0
LINE
  8
_e-0_
  6
CONTINUOUS
 62
    7
 10
245.23606486711193
 20
16.256496040596744
 11
245.63411651741569
 21
16.401374993007835
  0
LINE
  8
_e-0_
  6
CONTINUOUS
 62
    7
 10
243.91825915508417
 20
19.501476190538369
 11
245.37933753883709
 21
20.033265232154179
  0
LINE
  8
_e-0_
  6
CONTINUOUS
 62
    7
 10
247.43520734015601
 20
20.781540645361005
 11
249.28772310577978
 21
21.455801242556859
  0
LINE
  8
_e-0_
  6
CONTINUOUS
 62
    7
 10
246.87953280390087
 20
20.047202767986505
 11
250.18541778536053
 21
21.250446499145468
  0
LINE
  8
_e-0_
  6
CONTINUOUS
 62
    7
 10
246.6626588231818
 20
19.436178208179967
 11
250.74431190940527
 21
20.921778438166072
  0
LINE
  8
_e-0_
  6
CONTINUOUS
 62
    7
 10
246.66629311322896
 20
18.905412095341887
 11
247.91531563172288
 21
19.360019114001886
  0
LINE
  8
_e-0_
  6
CONTINUOUS
 62
    7
 10
249.73145207762803
 20
20.021038721677314
 11
251.14522571029147
 21
20.53561024195723
  0
LINE
  8
_e-0_
  6
CONTINUOUS
 62
    7
 10
250.18564170047512
 20
19.654261338868309
 11
251.43421810211515
 21
20.10870598427249
  0
LINE
  8
_e-0_
  6
CONTINUOUS
 62
    7
 10
246.83730318489177
 20
18.435565784948949
 11
249.36430290792754
 21
19.355318466132871
  0
LINE
  8
_e-0_
  6
CONTINUOUS
 62
    7
 10
246.8052568604852
 20
17.891812990509379
 11
251.62777430207888
 21
19.647065793478987
  0
LINE
  8
_e-0_
  6
CONTINUOUS
 62
    7
 10
247.04639808766586
 20
17.4474923332196
 11
248.20920322083208
 21
17.870718789944021
  0
LINE
  8
_e-0_
  6
CONTINUOUS
 62
    7
 10
249.32862104344986
 20
18.278153557083954
 11
251.72865321822383
 21
19.151693829982833
  0
LINE
  8
_e-0_
  6
CONTINUOUS
 62
    7
 10
250.79052324353142
 20
18.278153557083954
 11
251.72788512579223
 21
18.619325380962607
  0
LINE
  8
_e-0_
  6
CONTINUOUS
 62
    7
 10
247.38918632342313
 20
17.040168161453892
 11
248.77187032427668
 21
17.543423981160686
  0
LINE
  8
_e-0_
  6
CONTINUOUS
 62
    7
 10
247.86145472216555
 20
16.679970914942771
 11
250.7661050600471
 21
17.73717717888286
  0
LINE
  8
_e-0_
  6
CONTINUOUS
 62
    7
 10
248.54706387050533
 20
16.397423351041084
 11
251.25404786536131
 21
17.382684949803661
  0
LINE
  8
_e-0_
  6
CONTINUOUS
 62
    7
 10
255.77868582373981
 20
16.369074056294608
 11
256.39055764798957
 21
16.59177718750766
  0
LINE
  8
_e-0_
  6
CONTINUOUS
 62
    7
 10
254.45649567467092
 20
16.419925084231465
 11
257.37072765373284
 21
17.480618780356679
  0
LINE
  8
_e-0_
  6
CONTINUOUS
 62
    7
 10
253.81613692356996
 20
16.718942445816822
 11
257.66906626150819
 21
18.121294039557256
  0
LINE
  8
_e-0_
  6
CONTINUOUS
 62
    7
 10
252.72455535000012
 20
19.514172562191675
 11
257.72034884015875
 21
21.332492689150214
  0
LINE
  8
_e-0_
  6
CONTINUOUS
 62
    7
 10
252.97533721247868
 20
20.137538581665638
 11
257.72034884015875
 21
21.864581575388158
  0
LINE
  8
_e-0_
  6
CONTINUOUS
 62
    7
 10
256.25567666910433
 20
23.459840047118135
 11
256.69665565378858
 21
23.62034327148011
  0
LINE
  8
_e-0_
  6
CONTINUOUS
 62
    7
 10
256.25567666910433
 20
22.927751160880192
 11
257.72034884015875
 21
23.460848234102016
  0
LINE
  8
_e-0_
  6
CONTINUOUS
 62
    7
 10
256.25567666910433
 20
22.39566227464222
 11
257.72034884015875
 21
22.928759347864073
  0
LINE
  8
_e-0_
  6
CONTINUOUS
 62
    7
 10
256.25567666910433
 20
21.863573388404248
 11
257.72034884015875
 21
22.39667046162613
  0
LINE
  8
_e-0_
  6
CONTINUOUS
 62
    7
 10
253.65237211254828
 20
20.916048019088308
 11
255.09666992592457
 21
21.441729432573041
  0
LINE
  8
_e-0_
  6
CONTINUOUS
 62
    7
 10
255.3216285024925
 20
19.927340999672765
 11
257.72034884015875
 21
20.800403802912271
  0
LINE
  8
_e-0_
  6
CONTINUOUS
 62
    7
 10
252.64500914358598
 20
18.953131224570143
 11
254.35388975869347
 21
19.575112902383808
  0
LINE
  8
_e-0_
  6
CONTINUOUS
 62
    7
 10
252.68190999188596
 20
18.434473148732593
 11
254.06483582777616
 21
18.937816989194289
  0
LINE
  8
_e-0_
  6
CONTINUOUS
 62
    7
 10
252.81577006061787
 20
17.951105343069855
 11
254.13041409438028
 21
18.429596640015006
  0
LINE
  8
_e-0_
  6
CONTINUOUS
 62
    7
 10
253.04200327240306
 20
17.501358611924161
 11
254.4199177521366
 21
18.002878467911557
  0
LINE
  8
_e-0_
  6
CONTINUOUS
 62
    7
 10
253.3675420378006
 20
17.087756146390689
 11
255.09198262184347
 21
17.71540118974292
  0
LINE
  8
_e-0_
  6
CONTINUOUS
 62
    7
 10
255.93691796730889
 20
18.022932505371728
 11
257.72034884015875
 21
18.672048257960455
  0
LINE
  8
_e-0_
  6
CONTINUOUS
 62
    7
 10
256.26696269369012
 20
18.675147847988967
 11
257.72034884015875
 21
19.204137144198398
  0
LINE
  8
_e-0_
  6
CONTINUOUS
 62
    7
 10
256.27540452963729
 20
19.210309311234255
 11
257.72034884015875
 21
19.736226030436342
  0
LINE
  8
_e-0_
  6
CONTINUOUS
 62
    7
 10
256.27540452963729
 20
19.742398197472198
 11
257.72034884015875
 21
20.268314916674285
  0
LINE
  8
_e-0_
  6
CONTINUOUS
 62
    7
 10
260.03104519640863
 20
21.109339610776615
 11
260.70330659779682
 21
21.354022750527989
  0
LINE
  8
_e-0_
  6
CONTINUOUS
 62
    7
 10
259.07573351886549
 20
20.229545709466038
 11
262.00063841866569
 21
21.294124031052618
  0
LINE
  8
_e-0_
  6
CONTINUOUS
 62
    7
 10
261.36818066425872
 20
16.275128257876133
 11
262.78637256320337
 21
16.791307895569389
  0
LINE
  8
_e-0_
  6
CONTINUOUS
 62
    7
 10
260.34081652935424
 20
16.433287179256183
 11
263.47171655478212
 21
17.572841594975216
  0
LINE
  8
_e-0_
  6
CONTINUOUS
 62
    7
 10
258.77967812713791
 20
19.589701472945251
 11
262.63871395371888
 21
20.994275646787528
  0
LINE
  8
_e-0_
  6
CONTINUOUS
 62
    7
 10
259.74605077257667
 20
16.748899033666305
 11
263.72446216823408
 21
18.196922361351028
  0
LINE
  8
_e-0_
  6
CONTINUOUS
 62
    7
 10
259.32332387365102
 20
17.127127911471632
 11
260.74098010855022
 21
17.643112583396885
  0
LINE
  8
_e-0_
  6
CONTINUOUS
 62
    7
 10
259.01731185271791
 20
17.547837530762308
 11
260.25546226568082
 21
17.998487426625218
  0
LINE
  8
_e-0_
  6
CONTINUOUS
 62
    7
 10
258.80835191289191
 20
18.003871218749566
 11
260.0033207151597
 21
18.438804293651742
  0
LINE
  8
_e-0_
  6
CONTINUOUS
 62
    7
 10
258.69175640144169
 20
18.493522809370575
 11
259.9341116154028
 21
18.945703127637842
  0
LINE
  8
_e-0_
  6
CONTINUOUS
 62
    7
 10
258.67435016112364
 20
19.019276342242279
 11
260.11490282603074
 21
19.54359463316132
  0
LINE
  8
_e-0_
  6
CONTINUOUS
 62
    7
 10
261.71385216626942
 20
20.125564599107747
 11
263.08606206305882
 21
20.625008156704567
  0
LINE
  8
_e-0_
  6
CONTINUOUS
 62
    7
 10
262.23666352022298
 20
19.783763483845291
 11
263.41067596606644
 21
20.21106906879038
  0
LINE
  8
_e-0_
  6
CONTINUOUS
 62
    7
 10
262.50947456379174
 20
19.350969697045457
 11
263.63610059794183
 21
19.761028038625454
  0
LINE
  8
_e-0_
  6
CONTINUOUS
 62
    7
 10
262.59935315659629
 20
18.851593943286105
 11
263.7691608014415
 21
19.277369105826779
  0
LINE
  8
_e-0_
  6
CONTINUOUS
 62
    7
 10
262.45585545705251
 20
18.26727616572856
 11
263.80516892383406
 21
18.758386104331578
  0
LINE
  8
ADD_LINE
  6
DOT
 62
    9
 10
234.47250458004532
 20
14.6074774177672
 11
234.47250458004532
 21
24.607477417767214
  0
LINE
  8
ADD_LINE
  6
DOT
 62
    9
 10
249.13883675193972
 20
24.607477417767214
 11
249.13883675193972
 21
14.6074774177672
  0
LINE
  8
ADD_LINE
  6
DOT
 62
    9
 10
263.80516892383406
 20
14.6074774177672
 11
263.80516892383406
 21
24.607477417767214
  0
LINE
  8
ADD_LINE
  6
DOT
 62
    9
 10
222.51636891452262
 20
24.607477417767214
 11
222.51636891452262
 21
14.6074774177672
  0
LINE
  8
ADD_LINE
  6
DOT
 62
    9
 10
271.51636891452262
 20
24.607477417767214
 11
271.51636891452262
 21
14.6074774177672
  0
TEXT
  8
_e-0_
 62
    7
 10
264.80223717202438
 20
20.663724475216767
 40
3.5
 41
0.5714285714285714
 50
0
  1
ワンド
  0
TEXT
  8
_e-0_
 62
    7
 10
265.48681991601302
 20
17.30926902967218
 40
3
 41
0.6666666666666666
 50
0
  1
株式
  0
TEXT
  8
_e-0_
 62
    7
 10
265.41836164161418
 20
14.502479779318605
 40
3
 41
0.6666666666666666
 50
0
  1
会社
  0
TEXT
  8
_f-0_
 62
    7
 10
175.26502145922746
 20
16.252145922746791
 40
4.5
 41
0.6666666666666666
 50
0
  1
ＴＰ－３８
  0
TEXT
  8
_f-0_
 62
    7
 10
69.785407725321875
 20
16.252145922746791
 40
4.5
 41
0.8
 50
0
  1
トップ出し水栓穴用キャップ
  0
TEXT
  8
_f-0_
 62
    7
 10
304.96351931330469
 20
17.03739076617083
 40
3.5
 41
0.5714285714285714
 50
0
  1
２０２３．０５．０１
  0
TEXT
  8
_f-0_
 62
    7
 10
357.78320258775733
 20
16.731819047417531
 40
3.5
 41
0.5714285714285714
 50
0
  1
Ｔ．Ｋ
  0
ENDSEC
  0
EOF
