  0
SECTION
  2
HEADER
  9
$ACADVER
  1
AC1009
  9
$INSBASE
 10
0
 20
0
 30
0
  9
$EXTMIN
 10
0
 20
0
  9
$EXTMAX
 10
3360
 20
2376
  9
$LIMMIN
 10
0
 20
0
  9
$LIMMAX
 10
3360
 20
2376
  9
$LTSCALE
 40
8
  0
ENDSEC
  0
SECTION
  2
TABLES
  0
TABLE
  2
LTYPE
 70
     9
  0
LTYPE
  2
CONTINUOUS
 70
    64
  3
実線
 72
    65
 73
     0
 40
0.0
  0
LTYPE
  2
DASHED1
 70
    64
  3
--  --  --  --  --  --  --  --  
 72
    65
 73
     2
 40
2.5
 49
1.25
 49
-1.25
  0
LTYPE
  2
DASHED2
 70
    64
  3
----    ----    ----    ----    
 72
    65
 73
     2
 40
5.0
 49
2.5
 49
-2.5
  0
LTYPE
  2
DASHED3
 70
    64
  3
------  ------  ------  ------  
 72
    65
 73
     2
 40
5.0
 49
3.75
 49
-1.25
  0
LTYPE
  2
CENTER1
 70
    64
  3
----- - ----- - ----- - ----- - 
 72
    65
 73
     4
 40
10.0
 49
6.25
 49
-1.25
 49
1.25
 49
-1.25
  0
LTYPE
  2
CENTER2
 70
    64
  3
----------  --  ----------  --  
 72
    65
 73
     4
 40
20.0
 49
12.5
 49
-2.5
 49
2.5
 49
-2.5
  0
LTYPE
  2
PHANTOM1
 70
    64
  3
--- - - --- - - --- - - --- - - 
 72
    65
 73
     6
 40
10.0
 49
3.25
 49
-1.25
 49
1.25
 49
-1.25
 49
1.25
 49
-1.25
  0
LTYPE
  2
PHANTOM2
 70
    64
  3
--------  -  -  --------  -  -  
 72
    65
 73
     6
 40
20.0
 49
10.0
 49
-2.5
 49
1.25
 49
-2.5
 49
1.25
 49
-2.5
  0
LTYPE
  2
DOT
 70
    64
  3
-   -   -   -   -   -   -   -   
 72
    65
 73
     2
 40
2.5
 49
0.625
 49
-1.875
  0
LTYPE
  2
DUMMY
 70
    64
  3
ダミー
 72
    65
 73
     0
 40
0.0
  0
LTYPE
  2
RAND1
 70
    64
  3
ランダム線1
 72
    65
 73
     4
 40
10.0
 49
1.0
 49
-2.0
 49
3.0
 49
-4.0
  0
LTYPE
  2
RAND2
 70
    64
  3
ランダム線2
 72
    65
 73
     4
 40
14.0
 49
2.0
 49
-3.0
 49
4.0
 49
-5.0
  0
LTYPE
  2
RAND3
 70
    64
  3
ランダム線3
 72
    65
 73
     4
 40
18.0
 49
3.0
 49
-4.0
 49
5.0
 49
-6.0
  0
LTYPE
  2
RAND4
 70
    64
  3
ランダム線4
 72
    65
 73
     4
 40
22.0
 49
4.0
 49
-5.0
 49
6.0
 49
-7.0
  0
LTYPE
  2
RAND5
 70
    64
  3
ランダム線5
 72
    65
 73
     4
 40
26.0
 49
5.0
 49
-6.0
 49
7.0
 49
-8.0
  0
LTYPE
  2
LONG1
 70
    64
  3
----------  --  ----------  --  
 72
    65
 73
     4
 40
40.0
 49
32.5
 49
-2.5
 49
2.5
 49
-2.5
  0
LTYPE
  2
LONG2
 70
    64
  3
--------  -  -  --------  -  -  
 72
    65
 73
     6
 40
40.0
 49
30.0
 49
-2.5
 49
1.25
 49
-2.5
 49
1.25
 49
-2.5
  0
LTYPE
  2
LONG3
 70
    64
  3
+++++++++++++++..+++++++++++++++
 72
    65
 73
     2
 40
40.0
 49
37.5
 49
-2.5
  0
LTYPE
  2
LONG4
 70
    64
  3
+++++++++++++++..+++++++++++++++
 72
    65
 73
     2
 40
80.0
 49
75.0
 49
-5.0
  0
LTYPE
  2
LONG5
 70
    64
  3
----------  --  ----------  --  
 72
    65
 73
     4
 40
60.0
 49
37.5
 49
-7.5
 49
7.5
 49
-7.5
  0
LTYPE
  2
dashed
 70
   64
  3
-------   -------------   ------
 72
   65
 73
    2
 40
7.5
 49
6
 49
-1.5
  0
LTYPE
  2
dashed_spaced
 70
   64
  3
----        --------        ----
 72
   65
 73
    2
 40
12
 49
6
 49
-6
  0
LTYPE
  2
long_dashed_dotted
 70
   64
  3
------------- --- --------------
 72
   65
 73
    4
 40
15.25
 49
12
 49
-1.5
 49
0.25
 49
-1.5
  0
LTYPE
  2
long_dashed_double-dotted
 70
   64
  3
----------- --- --- ------------
 72
   65
 73
    6
 40
17
 49
12
 49
-1.5
 49
0.25
 49
-1.5
 49
0.25
 49
-1.5
  0
LTYPE
  2
long_dashed_triplicate-dotted
 70
   64
  3
--------- --- --- --- ----------
 72
   65
 73
    8
 40
18.75
 49
12
 49
-1.5
 49
0.25
 49
-1.5
 49
0.25
 49
-1.5
 49
0.25
 49
-1.5
  0
LTYPE
  2
dotted
 70
   64
  3
   -       -       -       -    
 72
   65
 73
    2
 40
1.75
 49
0.25
 49
-1.5
  0
LTYPE
  2
chain
 70
   64
  3
-------------- -- --------------
 72
   65
 73
    4
 40
18.5
 49
12
 49
-1.5
 49
3.5
 49
-1.5
  0
LTYPE
  2
chain_double_dash
 70
   64
  3
------------ -- -- -------------
 72
   65
 73
    6
 40
23.5
 49
12
 49
-1.5
 49
3.5
 49
-1.5
 49
3.5
 49
-1.5
  0
LTYPE
  2
dashed_dotted
 70
   64
  3
-----------     -     ----------
 72
   65
 73
    4
 40
9.25
 49
6
 49
-1.5
 49
0.25
 49
-1.5
  0
LTYPE
  2
double-dashed_dotted
 70
   64
  3
------   -----------   -   -----
 72
   65
 73
    6
 40
16.75
 49
6
 49
-1.5
 49
6
 49
-1.5
 49
0.25
 49
-1.5
  0
LTYPE
  2
dashed_double-dotted
 70
   64
  3
---------    -    -    ---------
 72
   65
 73
    6
 40
11
 49
6
 49
-1.5
 49
0.25
 49
-1.5
 49
0.25
 49
-1.5
  0
LTYPE
  2
double-dashed_double-dotted
 70
   64
  3
-----   ---------   -   -   ----
 72
   65
 73
    8
 40
18.5
 49
6
 49
-1.5
 49
6
 49
-1.5
 49
0.25
 49
-1.5
 49
0.25
 49
-1.5
  0
LTYPE
  2
dashed_triplicate-dotted
 70
   64
  3
-------    -    -    -    ------
 72
   65
 73
    8
 40
12.75
 49
6
 49
-1.5
 49
0.25
 49
-1.5
 49
0.25
 49
-1.5
 49
0.25
 49
-1.5
  0
LTYPE
  2
double-dashed_triplicate-dotted
 70
   64
  3
-----  ---------  -  -  -  -----
 72
   65
 73
   10
 40
20.25
 49
6
 49
-1.5
 49
6
 49
-1.5
 49
0.25
 49
-1.5
 49
0.25
 49
-1.5
 49
0.25
 49
-1.5
  0
LTYPE
  2
undefined
 70
   64
  3
--------------------------------
 72
   65
 73
    0
 40
0
  0
LTYPE
  2
_
 70
   64
  3
                                
 72
   65
 73
    0
 40
0
  0
LTYPE
  2
__18
 70
   64
  3
                                
 72
   65
 73
    0
 40
0
  0
LTYPE
  2
__19
 70
   64
  3
                                
 72
   65
 73
    0
 40
0
  0
LTYPE
  2
__20
 70
   64
  3
                                
 72
   65
 73
    0
 40
0
  0
LTYPE
  2
__21
 70
   64
  3
                                
 72
   65
 73
    0
 40
0
  0
LTYPE
  2
__22
 70
   64
  3
                                
 72
   65
 73
    0
 40
0
  0
LTYPE
  2
__23
 70
   64
  3
                                
 72
   65
 73
    0
 40
0
  0
LTYPE
  2
__24
 70
   64
  3
                                
 72
   65
 73
    0
 40
0
  0
LTYPE
  2
__25
 70
   64
  3
                                
 72
   65
 73
    0
 40
0
  0
LTYPE
  2
__26
 70
   64
  3
                                
 72
   65
 73
    0
 40
0
  0
LTYPE
  2
__27
 70
   64
  3
                                
 72
   65
 73
    0
 40
0
  0
LTYPE
  2
__28
 70
   64
  3
                                
 72
   65
 73
    0
 40
0
  0
LTYPE
  2
__29
 70
   64
  3
                                
 72
   65
 73
    0
 40
0
  0
LTYPE
  2
__30
 70
   64
  3
                                
 72
   65
 73
    0
 40
0
  0
LTYPE
  2
__31
 70
   64
  3
                                
 72
   65
 73
    0
 40
0
  0
LTYPE
  2
__32
 70
   64
  3
                                
 72
   65
 73
    0
 40
0
  0
ENDTAB
  0
TABLE
  2
STYLE
  5
3
100
AcDbSymbolTable
 70
     1
  0
STYLE
  5
10
100
AcDbSymbolTableRecord
100
AcDbTextStyleTableRecord
  2
STANDARD
 70
     0
 40
0.0
 41
1.0
 50
0.0
 71
     0
 42
0.2
  3
txt
  4
bigfont.shx
  0
STYLE
  5
26
100
AcDbSymbolTableRecord
100
AcDbTextStyleTableRecord
  2
TATEGAKI
 70
    68
 40
0.0
 41
1.0
 50
0.0
 71
     0
 42
1.0
  3
txt
  4
bigfont.shx
  0
ENDTAB
  0
TABLE
  2
LAYER
 70
   13
  0
LAYER
  2
_0-0_
 70
   64
 62
    7
  6
CONTINUOUS
  0
LAYER
  2
_0-1_
 70
   64
 62
    7
  6
CONTINUOUS
  0
LAYER
  2
_1-2_
 70
   64
 62
    7
  6
CONTINUOUS
  0
LAYER
  2
_2-0_
 70
   64
 62
    7
  6
CONTINUOUS
  0
LAYER
  2
_e-0_
 70
   64
 62
    7
  6
CONTINUOUS
  0
LAYER
  2
_f-0_
 70
   64
 62
    7
  6
CONTINUOUS
  0
LAYER
  2
_f-7_
 70
   64
 62
    7
  6
CONTINUOUS
  0
LAYER
  2
_f-8_
 70
   64
 62
    7
  6
CONTINUOUS
  0
LAYER
  2
_f-9_
 70
   64
 62
    7
  6
CONTINUOUS
  0
LAYER
  2
_f-d_固定文字
 70
   64
 62
    7
  6
CONTINUOUS
  0
LAYER
  2
_f-e_
 70
   64
 62
    7
  6
CONTINUOUS
  0
LAYER
  2
_f-f_図面枠
 70
   64
 62
    7
  6
CONTINUOUS
  0
LAYER
  2
ADD_LINE
 70
   64
 62
    7
  6
CONTINUOUS
  0
ENDTAB
  0
ENDSEC
  0
SECTION
  2
BLOCKS
  0
ENDSEC
  0
SECTION
  2
ENTITIES
  0
LINE
  8
_f-8_
  6
CONTINUOUS
 62
    7
 10
1732
 20
2297.5999999999999
 11
1732.9200000000001
 21
2299.2000000000003
  0
LINE
  8
_f-8_
  6
CONTINUOUS
 62
    7
 10
1726.912
 20
2301.5999999999999
 11
1732
 21
2292.8000000000002
  0
LINE
  8
_f-8_
  6
CONTINUOUS
 62
    7
 10
1732
 20
2292.8000000000002
 11
1737.0799999999999
 21
2301.5999999999999
  0
LINE
  8
_f-8_
  6
CONTINUOUS
 62
    7
 10
1732
 20
2288
 11
1741.232
 21
2304
  0
LINE
  8
_f-8_
  6
CONTINUOUS
 62
    7
 10
1722.76
 20
2304
 11
1732
 21
2288
  0
LINE
  8
_f-8_
  6
CONTINUOUS
 62
    7
 10
1741.232
 20
2304
 11
1722.76
 21
2304
  0
LINE
  8
_f-8_
  6
CONTINUOUS
 62
    7
 10
1731.0720000000001
 20
2299.2000000000003
 11
1732
 21
2297.5999999999999
  0
LINE
  8
_f-8_
  6
CONTINUOUS
 62
    7
 10
1732.9200000000001
 20
2299.2000000000003
 11
1731.0720000000001
 21
2299.2000000000003
  0
LINE
  8
_f-8_
  6
CONTINUOUS
 62
    7
 10
1737.0799999999999
 20
2301.5999999999999
 11
1726.912
 21
2301.5999999999999
  0
LINE
  8
ADD_LINE
  6
DOT
 62
    9
 10
119.98800000000006
 20
80
 11
119.98800000000006
 21
52
  0
LINE
  8
ADD_LINE
  6
DOT
 62
    9
 10
119.98800000000006
 20
52
 11
143.98800000000006
 21
52.000000516804675
  0
LINE
  8
ADD_LINE
  6
DOT
 62
    9
 10
143.98800000000006
 20
80
 11
143.98800000000006
 21
52.000000516804675
  0
LINE
  8
ADD_LINE
  6
DOT
 62
    9
 10
120.01199999999994
 20
52
 11
96.023999999999887
 21
52
  0
LINE
  8
ADD_LINE
  6
DOT
 62
    9
 10
59.988000000000056
 20
44
 11
3315.9880000000003
 21
44
  0
LINE
  8
ADD_LINE
  6
DOT
 62
    9
 10
3304
 20
80
 11
3304
 21
52.000002584023832
  0
LINE
  8
ADD_LINE
  6
DOT
 62
    9
 10
3280
 20
80
 11
3280
 21
52.000002584023832
  0
LINE
  8
ADD_LINE
  6
DOT
 62
    9
 10
3256
 20
80
 11
3256
 21
52.000002584023832
  0
LINE
  8
ADD_LINE
  6
DOT
 62
    9
 10
3232
 20
80
 11
3232
 21
52.000002584023832
  0
LINE
  8
ADD_LINE
  6
DOT
 62
    9
 10
3208
 20
80
 11
3208
 21
52.000002584023832
  0
LINE
  8
ADD_LINE
  6
DOT
 62
    9
 10
3184
 20
80
 11
3184
 21
52
  0
LINE
  8
ADD_LINE
  6
DOT
 62
    9
 10
59.988000000000056
 20
2300
 11
59.988000000000056
 21
44
  0
LINE
  8
ADD_LINE
  6
DOT
 62
    9
 10
96.023999999999887
 20
52
 11
96.023999999999887
 21
2288
  0
LINE
  8
ADD_LINE
  6
DOT
 62
    9
 10
3315.9880000000003
 20
2300
 11
59.988000000000056
 21
2300
  0
LINE
  8
ADD_LINE
  6
DOT
 62
    9
 10
3315.9880000000003
 20
44
 11
3315.9880000000003
 21
2300
  0
LINE
  8
_f-9_
  6
CONTINUOUS
 62
    7
 10
504
 20
96
 11
504
 21
176
  0
LINE
  8
ADD_LINE
  6
DOT
 62
    9
 10
136
 20
96
 11
136
 21
176
  0
LINE
  8
ADD_LINE
  6
DOT
 62
    9
 10
488
 20
96
 11
488
 21
176
  0
LINE
  8
_f-9_
  6
CONTINUOUS
 62
    7
 10
136
 20
96
 11
488
 21
96
  0
LINE
  8
_f-9_
  6
CONTINUOUS
 62
    7
 10
136
 20
176
 11
488
 21
176
  0
LINE
  8
_f-9_
  6
CONTINUOUS
 62
    7
 10
1136
 20
96
 11
1136
 21
176
  0
LINE
  8
_f-9_
  6
CONTINUOUS
 62
    7
 10
1768
 20
96
 11
1768
 21
176
  0
LINE
  8
_f-9_
  6
CONTINUOUS
 62
    7
 10
1776
 20
96
 11
1776
 21
176
  0
LINE
  8
_f-9_
  6
CONTINUOUS
 62
    7
 10
504
 20
96
 11
1768
 21
96
  0
LINE
  8
_f-9_
  6
CONTINUOUS
 62
    7
 10
504
 20
176
 11
1768
 21
176
  0
LINE
  8
_f-9_
  6
CONTINUOUS
 62
    7
 10
2168
 20
96
 11
2168
 21
176
  0
LINE
  8
_f-9_
  6
CONTINUOUS
 62
    7
 10
2176
 20
96
 11
2176
 21
176
  0
LINE
  8
_f-9_
  6
CONTINUOUS
 62
    7
 10
1776
 20
96
 11
2168
 21
96
  0
LINE
  8
_f-9_
  6
CONTINUOUS
 62
    7
 10
1776
 20
176
 11
2168
 21
176
  0
LINE
  8
_f-9_
  6
CONTINUOUS
 62
    7
 10
2416
 20
96
 11
2416
 21
176
  0
LINE
  8
_f-9_
  6
CONTINUOUS
 62
    7
 10
2656
 20
96
 11
2656
 21
176
  0
LINE
  8
_f-9_
  6
CONTINUOUS
 62
    7
 10
2960
 20
96
 11
2960
 21
176
  0
LINE
  8
_f-9_
  6
CONTINUOUS
 62
    7
 10
2176
 20
96
 11
3288
 21
96
  0
LINE
  8
_f-9_
  6
CONTINUOUS
 62
    7
 10
3288
 20
96
 11
3288
 21
176
  0
LINE
  8
_f-9_
  6
CONTINUOUS
 62
    7
 10
2176
 20
176
 11
3288
 21
176
  0
LINE
  8
_f-f_図面枠
  6
CONTINUOUS
 62
  230
 10
3304
 20
2288
 11
3304
 21
80
  0
LINE
  8
_f-f_図面枠
  6
CONTINUOUS
 62
  230
 10
120
 20
2288
 11
3304
 21
2288
  0
LINE
  8
_f-f_図面枠
  6
CONTINUOUS
 62
  230
 10
120
 20
80
 11
3304
 21
80
  0
LINE
  8
_f-f_図面枠
  6
CONTINUOUS
 62
  230
 10
120
 20
80
 11
120
 21
2288
  0
LINE
  8
ADD_LINE
  6
DOT
 62
    9
 10
504
 20
160
 11
1768
 21
160
  0
LINE
  8
ADD_LINE
  6
DOT
 62
    9
 10
2176
 20
160
 11
3288
 21
160
  0
LINE
  8
ADD_LINE
  6
DOT
 62
    9
 10
2192
 20
96
 11
2192
 21
176
  0
LINE
  8
ADD_LINE
  6
DOT
 62
    9
 10
2432
 20
96
 11
2432
 21
176
  0
LINE
  8
ADD_LINE
  6
DOT
 62
    9
 10
2672
 20
96
 11
2672
 21
176
  0
LINE
  8
ADD_LINE
  6
DOT
 62
    9
 10
2976
 20
96
 11
2976
 21
176
  0
LINE
  8
ADD_LINE
  6
DOT
 62
    9
 10
1156
 20
96
 11
1156
 21
176
  0
LINE
  8
ADD_LINE
  6
DOT
 62
    9
 10
524
 20
96
 11
524
 21
176
  0
LINE
  8
ADD_LINE
  6
DOT
 62
    9
 10
2928
 20
96
 11
2928
 21
176
  0
LINE
  8
ADD_LINE
  6
DOT
 62
    9
 10
2176
 20
128
 11
3288
 21
128
  0
TEXT
  8
_f-8_
 62
    7
 10
2432
 20
150
 40
20
 41
0.64
 50
0
  1
ＤＡＴＡ
  0
TEXT
  8
_f-8_
 62
    7
 10
2672
 20
150
 40
20
 41
0.64
 50
0
  1
ＣＨＥＣＫＥＤ
  0
TEXT
  8
_f-8_
 62
    7
 10
2976
 20
150
 40
20
 41
0.64
 50
0
  1
ＳＨＥＥＴ　ＮＯ．
  0
TEXT
  8
_f-8_
 62
    7
 10
2833.5999999999999
 20
150
 40
20
 41
0.64
 50
0
  1
ＤＲＡＷＩＮＧ
  0
LINE
  8
ADD_LINE
  6
DOT
 62
    9
 10
108
 20
52
 11
108
 21
2288
  0
LINE
  8
_f-9_
  6
CONTINUOUS
 62
    7
 10
136
 20
136
 11
488
 21
136
  0
LINE
  8
ADD_LINE
  6
DOT
 62
    9
 10
2328
 20
96
 11
2328
 21
176
  0
LINE
  8
ADD_LINE
  6
DOT
 62
    9
 10
2536
 20
96
 11
2536
 21
176
  0
LINE
  8
ADD_LINE
  6
DOT
 62
    9
 10
2800
 20
176
 11
2800
 21
96
  0
LINE
  8
ADD_LINE
  6
DOT
 62
    9
 10
504
 20
128
 11
1768
 21
128
  0
LINE
  8
ADD_LINE
  6
DOT
 62
    9
 10
820
 20
176
 11
820
 21
96
  0
TEXT
  8
_f-8_
 62
    7
 10
2192.2991872683369
 20
149.97549839587987
 40
20
 41
0.64
 50
0
  1
ＳＣＡＬＥ
  0
TEXT
  8
_f-8_
 62
    7
 10
1156
 20
150
 40
20
 41
0.8
 50
0
  1
図面名称
  0
TEXT
  8
_f-8_
 62
    7
 10
524
 20
150
 40
20
 41
0.8
 50
0
  1
名　称
  0
LINE
  8
ADD_LINE
  6
DOT
 62
    9
 10
1452
 20
96
 11
1452
 21
176
  0
LINE
  8
ADD_LINE
  6
DOT
 62
    9
 10
860
 20
176
 11
860
 21
96
  0
LINE
  8
ADD_LINE
  6
DOT
 62
    9
 10
1492
 20
96
 11
1492
 21
176
  0
TEXT
  8
_f-d_固定文字
 62
    7
 10
120.01199999999994
 20
52
 40
16
 41
1
 50
0
  1
%f
  0
LINE
  8
ADD_LINE
  6
DOT
 62
    9
 10
3184
 20
52
 11
3304
 21
52.000002584023832
  0
TEXT
  8
_f-d_固定文字
 62
    7
 10
3191.1999999999998
 20
52.000002584023832
 40
16
 41
1
 50
0
  1
%y
  0
TEXT
  8
_f-d_固定文字
 62
    7
 10
3216
 20
52.000002584023832
 40
16
 41
1
 50
0
  1
．
  0
TEXT
  8
_f-d_固定文字
 62
    7
 10
3239.1999999999998
 20
52.000002584023832
 40
16
 41
1
 50
0
  1
%m
  0
TEXT
  8
_f-d_固定文字
 62
    7
 10
3264
 20
52.000002584023832
 40
16
 41
1
 50
0
  1
．
  0
TEXT
  8
_f-d_固定文字
 62
    7
 10
3287.1999999999998
 20
52.000002584023832
 40
16
 41
1
 50
0
  1
%d
  0
TEXT
  8
_2-0_
 62
    7
 10
2552.1689566144778
 20
2114.5351816356742
 40
28
 41
0.8571428571428571
 50
0
  1
付　属　品
  0
LINE
  8
_2-0_
  6
CONTINUOUS
 62
    3
 10
3283.5450643776821
 20
2268.9270386266094
 11
2495.5442643776823
 21
2268.9270386266094
  0
LINE
  8
_2-0_
  6
CONTINUOUS
 62
    7
 10
3283.5450643776821
 20
2100.9270386266098
 11
2495.5442643776823
 21
2100.9270386266098
  0
LINE
  8
_2-0_
  6
CONTINUOUS
 62
    7
 10
3283.5450643776821
 20
2156.9270386266098
 11
2495.5442643776823
 21
2156.9270386266098
  0
LINE
  8
_2-0_
  6
CONTINUOUS
 62
    7
 10
3283.5450643776821
 20
2212.9270386266098
 11
2495.5442643776823
 21
2212.9270386266098
  0
LINE
  8
_2-0_
  6
CONTINUOUS
 62
    7
 10
3283.5450643776821
 20
2216.9270386266098
 11
2495.5442643776823
 21
2216.9270386266098
  0
LINE
  8
ADD_LINE
  6
DOT
 62
    9
 10
2495.5442643776823
 20
2242.9270386266098
 11
3283.5450643776821
 21
2242.9270386266098
  0
LINE
  8
ADD_LINE
  6
DOT
 62
    9
 10
3283.5450643776821
 20
2184.9270386266098
 11
2495.5442643776823
 21
2184.9270386266098
  0
LINE
  8
ADD_LINE
  6
DOT
 62
    9
 10
3283.5450643776821
 20
2128.9270386266098
 11
2495.5442643776823
 21
2128.9270386266098
  0
LINE
  8
ADD_LINE
  6
DOT
 62
    9
 10
3283.5450643776821
 20
2072.9270386266098
 11
2495.5442643776823
 21
2072.9270386266098
  0
LINE
  8
ADD_LINE
  6
DOT
 62
    9
 10
2889.5446643776822
 20
2216.9270386266098
 11
2889.5446643776822
 21
2268.9270386266094
  0
TEXT
  8
_2-0_
 62
    7
 10
2813.5446643776822
 20
2228.9270386266098
 40
28
 41
0.8571428571428571
 50
0
  1
仕　　　　様
  0
TEXT
  8
_2-0_
 62
    7
 10
2555.1587778531466
 20
2169.3485710112755
 40
28
 41
0.8571428571428571
 50
0
  1
材　　　質
  0
LINE
  8
_2-0_
  6
CONTINUOUS
 62
    3
 10
2495.5442643776823
 20
2268.9270386266094
 11
2495.5442643776823
 21
2044.9270386266096
  0
LINE
  8
ADD_LINE
  6
DOT
 62
    9
 10
2615.5442643776823
 20
2044.9270386266096
 11
2615.5442643776823
 21
2212.9270386266098
  0
LINE
  8
_2-0_
  6
CONTINUOUS
 62
    7
 10
2735.5442643776823
 20
2212.9270386266098
 11
2735.5442643776823
 21
2044.9270386266096
  0
LINE
  8
ADD_LINE
  6
DOT
 62
    9
 10
2755.5442643776819
 20
2212.9270386266098
 11
2755.5442643776819
 21
2044.9270386266096
  0
LINE
  8
_2-0_
  6
CONTINUOUS
 62
    3
 10
3283.5450643776821
 20
2044.9270386266096
 11
3283.5450643776821
 21
2268.9270386266094
  0
LINE
  8
_2-0_
  6
CONTINUOUS
 62
    3
 10
3283.5450643776821
 20
2044.9270386266096
 11
2495.5442643776823
 21
2044.9270386266096
  0
TEXT
  8
_2-0_
 62
    7
 10
2755.5442643776814
 20
2170.9270386266098
 40
28
 41
0.8571428571428571
 50
0
  1
ステンレスＳＵＳ４３０　０．４ｔ
  0
TEXT
  8
_2-0_
 62
    7
 10
2756.4734079235377
 20
2114.5351816356742
 40
28
 41
0.7714285714285714
 50
0
  1
ドリルネジ＊３
  0
LINE
  8
_e-0_
  6
CONTINUOUS
 62
    7
 10
1795.0287442152689
 20
159.61572384288479
 11
1818.3471427758823
 21
168.10292682970385
  0
LINE
  8
_e-0_
  6
CONTINUOUS
 62
    7
 10
1790.1069292042293
 20
153.56761859039807
 11
1830.0423603765332
 21
168.10292682970316
  0
LINE
  8
_e-0_
  6
CONTINUOUS
 62
    7
 10
1787.3653900631898
 20
148.31306885708204
 11
1811.0914744041092
 21
156.94865733286611
  0
LINE
  8
_e-0_
  6
CONTINUOUS
 62
    7
 10
1785.7695656297358
 20
143.4755251742863
 11
1803.1669266167441
 21
149.8076467283413
  0
LINE
  8
_e-0_
  6
CONTINUOUS
 62
    7
 10
1784.9619611293947
 20
138.92487008519902
 11
1799.5659670365171
 21
144.24029353643937
  0
LINE
  8
_e-0_
  6
CONTINUOUS
 62
    7
 10
1784.7719271100427
 20
134.59899226875041
 11
1799.4998481910709
 21
139.95951715486672
  0
LINE
  8
_e-0_
  6
CONTINUOUS
 62
    7
 10
1785.1069997950901
 20
130.46423766251974
 11
1799.8629312614626
 21
135.83495749515123
  0
LINE
  8
_e-0_
  6
CONTINUOUS
 62
    7
 10
1785.9160055153404
 20
126.50198057413991
 11
1801.0156550546137
 21
131.99780355428675
  0
LINE
  8
_e-0_
  6
CONTINUOUS
 62
    7
 10
1787.174044045197
 20
122.70315806266399
 11
1802.9300134142959
 21
128.43786192502603
  0
LINE
  8
_e-0_
  6
CONTINUOUS
 62
    7
 10
1788.8764241615347
 20
119.06606266251401
 11
1805.6799283904816
 21
125.18203803321694
  0
LINE
  8
_e-0_
  6
CONTINUOUS
 62
    7
 10
1791.0376071411438
 20
115.59595784799058
 11
1809.504092802189
 21
122.31720896011484
  0
LINE
  8
_e-0_
  6
CONTINUOUS
 62
    7
 10
1793.6945501940561
 20
112.3062949434875
 11
1815.1574711188202
 21
120.1181593005108
  0
LINE
  8
_e-0_
  6
CONTINUOUS
 62
    7
 10
1796.9164553459484
 20
109.22226142650152
 11
1827.6521124422563
 21
120.40912574017011
  0
LINE
  8
_e-0_
  6
CONTINUOUS
 62
    7
 10
1800.8280838162236
 20
106.38926666728776
 11
1823.3475858061195
 21
114.58569508210849
  0
LINE
  8
_e-0_
  6
CONTINUOUS
 62
    7
 10
1823.6679457746939
 20
161.52611856386011
 11
1841.7375779771842
 21
168.10292682970453
  0
LINE
  8
_e-0_
  6
CONTINUOUS
 62
    7
 10
1808.4499634469837
 20
151.73051488108081
 11
1850.4409039331708
 21
167.01396732689636
  0
LINE
  8
_e-0_
  6
CONTINUOUS
 62
    7
 10
1818.4556950795788
 20
151.1155922774974
 11
1850.4409039331708
 21
162.75725623699282
  0
LINE
  8
_e-0_
  6
CONTINUOUS
 62
    7
 10
1830.1509126802312
 20
151.1155922774974
 11
1850.4409039331708
 21
158.50054514708927
  0
LINE
  8
_e-0_
  6
CONTINUOUS
 62
    7
 10
1833.5001170740388
 20
148.07789189541336
 11
1850.4409039331708
 21
154.24383405718572
  0
LINE
  8
_e-0_
  6
CONTINUOUS
 62
    7
 10
1833.5001170740388
 20
143.82118080550981
 11
1850.4409039331708
 21
149.98712296728172
  0
LINE
  8
_e-0_
  6
CONTINUOUS
 62
    7
 10
1833.5001170740388
 20
139.56446971560626
 11
1850.4409039331708
 21
145.73041187737817
  0
LINE
  8
_e-0_
  6
CONTINUOUS
 62
    7
 10
1833.5001170740388
 20
135.30775862570272
 11
1850.4409039331708
 21
141.47370078747463
  0
LINE
  8
_e-0_
  6
CONTINUOUS
 62
    7
 10
1833.440678055716
 20
131.02941350237552
 11
1850.4409039331708
 21
137.21698969757108
  0
LINE
  8
_e-0_
  6
CONTINUOUS
 62
    7
 10
1832.5231927490693
 20
126.43876507047571
 11
1850.4409039331708
 21
132.96027860766753
  0
LINE
  8
_e-0_
  6
CONTINUOUS
 62
    7
 10
1830.7159970286257
 20
121.52428853083757
 11
1850.4409039331708
 21
128.70356751776399
  0
LINE
  8
_e-0_
  6
CONTINUOUS
 62
    7
 10
1827.5203089462104
 20
116.10444210093556
 11
1849.4886933093742
 21
124.10028010404631
  0
LINE
  8
_e-0_
  6
CONTINUOUS
 62
    7
 10
1820.5970775092121
 20
109.3278808430282
 11
1847.231017033092
 21
119.02184205096682
  0
LINE
  8
_e-0_
  6
CONTINUOUS
 62
    7
 10
1813.5832961182566
 20
102.51836209716657
 11
1843.3363024657451
 21
113.34757078758594
  0
LINE
  8
_e-0_
  6
CONTINUOUS
 62
    7
 10
1825.7101131655731
 20
102.67545144887799
 11
1834.179566709854
 21
105.75808043949655
  0
LINE
  8
_e-0_
  6
CONTINUOUS
 62
    3
 10
1813.157173818792
 20
158.05290255742614
 11
1813.157173818792
 21
158.05290255742614
  0
LINE
  8
_e-0_
  6
CONTINUOUS
 62
    3
 10
1813.157173818792
 20
158.05290255742614
 11
1809.8595787674601
 21
155.80544531504097
  0
LINE
  8
_e-0_
  6
CONTINUOUS
 62
    3
 10
1825.9094737535545
 20
102.51836209716521
 11
1813.5363208321362
 21
102.51836209716521
  0
ARC
  8
_e-0_
  6
CONTINUOUS
 62
    3
 10
1825.9094737535545
 20
106.51836209716521
 40
4
 50
270
 51
286.2039935104566
  0
LINE
  8
_e-0_
  6
CONTINUOUS
 62
    3
 10
1850.5830886730091
 20
168.10292682970316
 11
1850.5830886730091
 21
127.81877384453537
  0
ARC
  8
_e-0_
  6
CONTINUOUS
 62
    3
 10
1817.5377326213159
 20
135.32658922787869
 40
34
 50
286.20399351045648
 51
345.50707147989851
  0
ARC
  8
_e-0_
  6
CONTINUOUS
 62
    3
 10
1846.5830886730091
 20
127.81877384453537
 40
4
 50
345.5070714798988
 51
0
  0
ARC
  8
_e-0_
  6
CONTINUOUS
 62
    3
 10
1800.0741909901762
 20
136.39648677031664
 40
32
 50
279.71265316664216
 51
332.69093929010893
  0
ARC
  8
_e-0_
  6
CONTINUOUS
 62
    3
 10
1804.7979886039773
 20
108.79783216354554
 40
4
 50
241.94526281180003
 51
279.71265316664227
  0
ARC
  8
_e-0_
  6
CONTINUOUS
 62
    3
 10
1810.6114498372942
 20
164.10292682970316
 40
4
 50
90
 51
106.0533814378627
  0
LINE
  8
_e-0_
  6
CONTINUOUS
 62
    3
 10
1830.7467991321776
 20
168.10292682970305
 11
1830.7467991321776
 21
168.10292682970305
  0
LINE
  8
_e-0_
  6
CONTINUOUS
 62
    3
 10
1830.7467991321776
 20
168.10292682970305
 11
1822.5745591641528
 21
164.19254152977646
  0
LINE
  8
_e-0_
  6
CONTINUOUS
 62
    3
 10
1822.5745591641528
 20
164.19254152977646
 11
1817.8395666700653
 21
161.15559183187219
  0
LINE
  8
_e-0_
  6
CONTINUOUS
 62
    3
 10
1813.157173818792
 20
158.05290255742602
 11
1817.8395666700653
 21
161.15559183187224
  0
ARC
  8
_e-0_
  6
CONTINUOUS
 62
    3
 10
1810.6114498372942
 20
164.10292682970316
 40
4
 50
90
 51
106.0533814378627
  0
ARC
  8
_e-0_
  6
CONTINUOUS
 62
    3
 10
1810.6114498372942
 20
164.10292682970316
 40
4
 50
90
 51
106.0533814378627
  0
LINE
  8
_e-0_
  6
CONTINUOUS
 62
    3
 10
1830.7467991321776
 20
168.10292682970316
 11
1810.6114498372942
 21
168.10292682970316
  0
ARC
  8
_e-0_
  6
CONTINUOUS
 62
    3
 10
1818.9074346212512
 20
135.27279265616244
 40
34
 50
106.0533814378627
 51
241.94526281180052
  0
ARC
  8
_e-0_
  6
CONTINUOUS
 62
    3
 10
1810.6114498372942
 20
164.10292682970316
 40
4
 50
90
 51
106.0533814378627
  0
LINE
  8
_e-0_
  6
CONTINUOUS
 62
    3
 10
1839.3375863566844
 20
168.10292682970316
 11
1850.5830886730091
 21
168.10292682970316
  0
ARC
  8
_e-0_
  6
CONTINUOUS
 62
    3
 10
1839.3375863566844
 20
164.10292682970316
 40
4
 50
90
 51
112.8455272152833
  0
LINE
  8
_e-0_
  6
CONTINUOUS
 62
    3
 10
1833.6423018138771
 20
151.11559227749603
 11
1815.2138836823738
 21
151.11559227749603
  0
ARC
  8
_e-0_
  6
CONTINUOUS
 62
    3
 10
1815.2138836823738
 20
147.11559227749603
 40
4
 50
90
 51
110.93110431809542
  0
ARC
  8
_e-0_
  6
CONTINUOUS
 62
    3
 10
1803.3834130242058
 20
142.16309161773916
 40
0.4
 50
165.368776721252
 51
224.67319701305797
  0
LINE
  8
_e-0_
  6
CONTINUOUS
 62
    3
 10
1803.0989616464501
 20
141.88186677229896
 11
1802.9470066191416
 21
142.03556520106758
  0
ARC
  8
_e-0_
  6
CONTINUOUS
 62
    3
 10
1820.9298052966301
 20
132.17142150425889
 40
20
 50
110.93110431809528
 51
150.17701829297229
  0
ARC
  8
_e-0_
  6
CONTINUOUS
 62
    3
 10
1803.2314579968975
 20
142.31679004650778
 40
0.4
 50
224.67319701305652
 51
330.17701829297562
  0
LINE
  8
_e-0_
  6
CONTINUOUS
 62
    3
 10
1837.7845944514047
 20
167.78914659283942
 11
1826.8187152926039
 21
163.16925883188787
  0
LINE
  8
_e-0_
  6
CONTINUOUS
 62
    3
 10
1826.8187152926039
 20
163.16925883188787
 11
1821.6916227083545
 21
160.36909433444816
  0
ARC
  8
_e-0_
  6
CONTINUOUS
 62
    3
 10
1822.3478175964597
 20
137.21219682791798
 40
20
 50
126.05682261028305
 51
165.36877672125814
  0
ARC
  8
_e-0_
  6
CONTINUOUS
 62
    3
 10
1857.6230338816631
 20
88.89228906802191
 40
80
 50
116.68868989749241
 51
126.03335467187628
  0
LINE
  8
_e-0_
  6
CONTINUOUS
 62
    3
 10
1809.8595787674599
 20
155.80544531504103
 11
1809.8595787674599
 21
155.80544531504103
  0
LINE
  8
_e-0_
  6
CONTINUOUS
 62
    3
 10
1809.8595787674599
 20
155.80544531504103
 11
1803.4848331529108
 21
150.0014871514835
  0
LINE
  8
_e-0_
  6
CONTINUOUS
 62
    3
 10
1803.4848331529108
 20
150.0014871514835
 11
1802.008716803723
 21
148.29491011420399
  0
ARC
  8
_e-0_
  6
CONTINUOUS
 62
    3
 10
1819.6395063794755
 20
139.64162460400712
 40
20
 50
169.07329675873063
 51
296.321383266618
  0
LINE
  8
_e-0_
  6
CONTINUOUS
 62
    3
 10
1802.0087168037232
 20
148.2949101142041
 11
1802.0087168037232
 21
148.2949101142041
  0
LINE
  8
_e-0_
  6
CONTINUOUS
 62
    3
 10
1802.0087168037232
 20
148.2949101142041
 11
1800.0020968528904
 21
143.432686076099
  0
LINE
  8
_e-0_
  6
CONTINUOUS
 62
    3
 10
1833.6423018138771
 20
151.11559227749603
 11
1833.6423018138771
 21
131.53940708665323
  0
ARC
  8
_e-0_
  6
CONTINUOUS
 62
    3
 10
1821.8272740184407
 20
115.3047278664576
 40
4
 50
311.4163090429962
 51
326.13300916724882
  0
ARC
  8
_e-0_
  6
CONTINUOUS
 62
    3
 10
1801.8287528708263
 20
134.98876987535868
 40
32
 50
316.78132524618343
 51
353.81191653224226
  0
ARC
  8
_e-0_
  6
CONTINUOUS
 62
    3
 10
1792.7201583976041
 20
148.3013310285296
 40
48
 50
294.69555798319504
 51
311.41630904299643
  0
ARC
  8
_e-0_
  6
CONTINUOUS
 62
    3
 10
1817.541452265496
 20
162.38453720633288
 40
60
 50
264.68313230529077
 51
266.17253517307824
  0
ARC
  8
_e-0_
  6
CONTINUOUS
 62
    3
 10
1812.0186944572924
 20
103.04096850515089
 40
0.4
 50
174.02086603460467
 51
264.68313230528986
  0
ARC
  8
_e-0_
  6
CONTINUOUS
 62
    3
 10
1813.6099902920084
 20
102.87430247257498
 40
2
 50
114.69555798319523
 51
174.02086603461154
  0
LINE
  8
_e-0_
  6
CONTINUOUS
 62
    7
 10
1901.5119935276755
 20
135.5442561924965
 11
1910.6095127798369
 21
138.85548240594699
  0
LINE
  8
_e-0_
  6
CONTINUOUS
 62
    3
 10
1949.0068187571414
 20
130.10649994015512
 11
1949.0068187571414
 21
109.19214898263635
  0
CIRCLE
  8
_e-0_
  6
CONTINUOUS
 62
    3
 10
1892.4133944408309
 20
129.97034759304415
 40
10.670190364664521
  0
CIRCLE
  8
_e-0_
  6
CONTINUOUS
 62
    3
 10
1892.1864204829308
 20
129.74337363514405
 40
20.553366051118132
  0
LINE
  8
_e-0_
  6
CONTINUOUS
 62
    3
 10
1919.5951693802062
 20
150.61000305691982
 11
1919.5951693802062
 21
109.19214898263635
  0
LINE
  8
_e-0_
  6
CONTINUOUS
 62
    3
 10
1919.5951693802062
 20
109.19214898263635
 11
1931.8855446029352
 21
109.19214898263635
  0
LINE
  8
_e-0_
  6
CONTINUOUS
 62
    3
 10
1931.8855446029352
 20
109.19214898263635
 11
1931.8855446029352
 21
138.10649994015512
  0
LINE
  8
_e-0_
  6
CONTINUOUS
 62
    3
 10
1960.9419808231444
 20
109.19214898263635
 11
1949.0068187571414
 21
109.19214898263635
  0
LINE
  8
_e-0_
  6
CONTINUOUS
 62
    3
 10
1941.0068187571414
 20
138.10649994015512
 11
1931.8855446029352
 21
138.10649994015512
  0
ARC
  8
_e-0_
  6
CONTINUOUS
 62
    3
 10
1941.0068187571414
 20
130.10649994015512
 40
8
 50
0
 51
90
  0
LINE
  8
_e-0_
  6
CONTINUOUS
 62
    3
 10
1940.9419808231441
 20
150.61000305691982
 11
1919.5951693802062
 21
150.61000305691982
  0
LINE
  8
_e-0_
  6
CONTINUOUS
 62
    3
 10
1960.9419808231444
 20
130.61000305692005
 11
1960.9419808231444
 21
109.19214898263635
  0
ARC
  8
_e-0_
  6
CONTINUOUS
 62
    3
 10
1940.9419808231441
 20
130.61000305692005
 40
20
 50
0
 51
90
  0
ARC
  8
_e-0_
  6
CONTINUOUS
 62
    3
 10
1988.9962084940187
 20
129.74123009925142
 40
10.670190364664521
 50
23.422555400004953
 51
97.191484740792632
  0
LINE
  8
_e-0_
  6
CONTINUOUS
 62
    3
 10
1979.2052609048503
 20
133.98272838692537
 11
1998.7871560831868
 21
133.98272838692537
  0
ARC
  8
_e-0_
  6
CONTINUOUS
 62
    3
 10
1988.9962084940187
 20
129.74123009925142
 40
10.670190364664521
 50
92.530763017635266
 51
156.57744459999506
  0
ARC
  8
_e-0_
  6
CONTINUOUS
 62
    3
 10
1988.9962084940187
 20
129.74123009925142
 40
10.670190364664521
 50
204.21097500392608
 51
316.0067678116265
  0
LINE
  8
_e-0_
  6
CONTINUOUS
 62
    3
 10
1979.2645512287895
 20
125.36540911453403
 11
2009.2160602849908
 21
125.36540911453403
  0
LINE
  8
_e-0_
  6
CONTINUOUS
 62
    3
 10
1996.67257657301
 20
122.32999973351434
 11
2006.9673929679111
 21
119.8315477813162
  0
ARC
  8
_e-0_
  6
CONTINUOUS
 62
    3
 10
1989.2524694142282
 20
130.25375193967056
 40
20.553366051118132
 50
346.24110979921471
 51
329.53046432565105
  0
ARC
  8
_e-0_
  6
CONTINUOUS
 62
    3
 10
2037.2108472338723
 20
129.71447876283128
 40
8.8718053134943542
 50
94.502189492040685
 51
357.22978420280037
  0
LINE
  8
_e-0_
  6
CONTINUOUS
 62
    3
 10
2045.2722849209176
 20
138.55890865524452
 11
2036.5144354313202
 21
138.55890865524452
  0
LINE
  8
_e-0_
  6
CONTINUOUS
 62
    3
 10
2046.0722849209174
 20
137.7589086552448
 11
2046.0722849209174
 21
129.28569951990994
  0
ARC
  8
_e-0_
  6
CONTINUOUS
 62
    3
 10
2045.2722849209176
 20
137.7589086552448
 40
0.8
 50
0
 51
90
  0
LINE
  8
_e-0_
  6
CONTINUOUS
 62
    3
 10
2039.1762765884414
 20
150.63246994188876
 11
2045.9144620366537
 21
150.63246994188876
  0
ARC
  8
_e-0_
  6
CONTINUOUS
 62
    3
 10
2037.5730285289633
 20
130.14172930883615
 40
20.553366051118132
 50
85.52614601413697
 51
347.40557840019875
  0
LINE
  8
_e-0_
  6
CONTINUOUS
 62
    3
 10
2045.9144620366537
 20
167.30292682970321
 11
2045.9144620366537
 21
150.63246994188876
  0
ARC
  8
_e-0_
  6
CONTINUOUS
 62
    3
 10
2046.7144620366539
 20
167.30292682970321
 40
0.8
 50
90
 51
180
  0
LINE
  8
_e-0_
  6
CONTINUOUS
 62
    3
 10
2057.6318394050891
 20
167.30292682970321
 11
2057.6318394050891
 21
125.66010435051294
  0
LINE
  8
_e-0_
  6
CONTINUOUS
 62
    3
 10
2056.8318394050893
 20
168.10292682970316
 11
2046.7144620366539
 21
168.10292682970316
  0
ARC
  8
_e-0_
  6
CONTINUOUS
 62
    3
 10
2056.8318394050893
 20
167.30292682970321
 40
0.8
 50
0
 51
90
  0
CIRCLE
  8
_e-0_
  6
CONTINUOUS
 62
    3
 10
2085.9946276636665
 20
130.0948701691409
 40
10.670190364664521
  0
CIRCLE
  8
_e-0_
  6
CONTINUOUS
 62
    3
 10
2085.7676537057669
 20
129.8678962112408
 40
20.553366051118132
  0
ARC
  8
_e-0_
  6
CONTINUOUS
 62
    3
 10
1889.0445156630949
 20
146.84887168409932
 40
4
 50
90
 51
106.0533814378627
  0
ARC
  8
_e-0_
  6
CONTINUOUS
 62
    3
 10
1889.0445156630949
 20
146.84887168409932
 40
4
 50
90
 51
106.0533814378627
  0
ARC
  8
_e-0_
  6
CONTINUOUS
 62
    3
 10
1889.0445156630949
 20
146.84887168409932
 40
4
 50
90
 51
106.0533814378627
  0
ARC
  8
_e-0_
  6
CONTINUOUS
 62
    3
 10
1889.0445156630949
 20
146.84887168409932
 40
4
 50
90
 51
106.0533814378627
  0
LINE
  8
_e-0_
  6
CONTINUOUS
 62
    7
 10
1877.0776643464812
 20
143.67773203589422
 11
1894.8035662347643
 21
150.12943269875223
  0
LINE
  8
_e-0_
  6
CONTINUOUS
 62
    7
 10
1888.9932050460916
 20
143.75792308583596
 11
1901.2164676490643
 21
148.20682683893733
  0
LINE
  8
_e-0_
  6
CONTINUOUS
 62
    7
 10
1873.4009240787866
 20
138.08279692942187
 11
1888.9932050460916
 21
143.75792308583596
  0
LINE
  8
_e-0_
  6
CONTINUOUS
 62
    7
 10
1871.942272514887
 20
133.29518008809282
 11
1885.7885335386532
 21
138.33480695662411
  0
LINE
  8
_e-0_
  6
CONTINUOUS
 62
    7
 10
1871.6490853241817
 20
128.9317575877044
 11
1882.1085814041453
 21
132.73870282623511
  0
LINE
  8
_e-0_
  6
CONTINUOUS
 62
    7
 10
1872.21636238783
 20
124.88151846355049
 11
1881.8606237849328
 21
128.3917425435784
  0
LINE
  8
_e-0_
  6
CONTINUOUS
 62
    7
 10
1873.5363858799153
 20
121.10525663329827
 11
1883.1835657228555
 21
124.61654294074106
  0
LINE
  8
_e-0_
  6
CONTINUOUS
 62
    7
 10
1875.6033031792856
 20
117.60084191705528
 11
1886.0519549369369
 21
121.40384014505344
  0
LINE
  8
_e-0_
  6
CONTINUOUS
 62
    7
 10
1878.5089318139208
 20
114.40169316199035
 11
1891.990396372544
 21
119.3085449756436
  0
LINE
  8
_e-0_
  6
CONTINUOUS
 62
    7
 10
1882.520103364325
 20
111.60492912096925
 11
1900.2027803159299
 21
118.04089719349849
  0
LINE
  8
_e-0_
  6
CONTINUOUS
 62
    7
 10
1888.4974063841012
 20
109.52377841145335
 11
1900.245682411987
 21
113.799801189547
  0
LINE
  8
_e-0_
  6
CONTINUOUS
 62
    7
 10
1900.245682411987
 20
113.799801189547
 11
1908.0092745165923
 21
116.62551762660769
  0
LINE
  8
_e-0_
  6
CONTINUOUS
 62
    7
 10
1899.5201230558675
 20
117.79243027063012
 11
1911.2504163897631
 21
122.06190788337926
  0
LINE
  8
_e-0_
  6
CONTINUOUS
 62
    7
 10
1899.5907043798807
 20
122.07483086156935
 11
1912.525426793562
 21
126.78268480864517
  0
LINE
  8
_e-0_
  6
CONTINUOUS
 62
    7
 10
1902.7929846688821
 20
127.49707665844699
 11
1912.6948942815918
 21
131.10107701986772
  0
LINE
  8
_e-0_
  6
CONTINUOUS
 62
    7
 10
1902.9252127363582
 20
131.80191482904638
 11
1912.0256504343567
 21
135.11420326991174
  0
LINE
  8
_e-0_
  6
CONTINUOUS
 62
    7
 10
1892.1117614807445
 20
140.63627371202529
 11
1905.411280359569
 21
145.47690271397892
  0
LINE
  8
_e-0_
  6
CONTINUOUS
 62
    7
 10
1898.5278747618577
 20
138.71483687612726
 11
1908.4406286968797
 21
142.3227842480801
  0
LINE
  8
_e-0_
  6
CONTINUOUS
 62
    7
 10
1919.5951693802062
 20
146.38270503372223
 11
1931.2095752442469
 21
150.61000305691982
  0
LINE
  8
_e-0_
  6
CONTINUOUS
 62
    7
 10
1919.5951693802062
 20
142.12599394381868
 11
1942.69363542977
 21
150.53314804306819
  0
LINE
  8
_e-0_
  6
CONTINUOUS
 62
    7
 10
1919.5951693802062
 20
137.86928285391514
 11
1949.4194478384534
 21
148.72443247118372
  0
LINE
  8
_e-0_
  6
CONTINUOUS
 62
    7
 10
1919.5951693802062
 20
133.61257176401159
 11
1953.6888025664844
 21
146.02163942180687
  0
LINE
  8
_e-0_
  6
CONTINUOUS
 62
    7
 10
1919.5951693802062
 20
129.35586067410804
 11
1931.8855446029352
 21
133.82919142314404
  0
LINE
  8
_e-0_
  6
CONTINUOUS
 62
    7
 10
1942.9672066228991
 20
137.86258654460926
 11
1956.7395268962068
 21
142.87530118087352
  0
LINE
  8
_e-0_
  6
CONTINUOUS
 62
    7
 10
1919.5951693802062
 20
125.0991495842045
 11
1931.8855446029352
 21
129.57248033324049
  0
LINE
  8
_e-0_
  6
CONTINUOUS
 62
    7
 10
1922.6719148187567
 20
109.19214898263635
 11
1931.8855446029352
 21
112.54563597362585
  0
LINE
  8
_e-0_
  6
CONTINUOUS
 62
    7
 10
1919.5951693802062
 20
112.3290163144934
 11
1931.8855446029352
 21
116.80234706352985
  0
LINE
  8
_e-0_
  6
CONTINUOUS
 62
    7
 10
1919.5951693802062
 20
116.5857274043974
 11
1931.8855446029352
 21
121.0590581534334
  0
LINE
  8
_e-0_
  6
CONTINUOUS
 62
    7
 10
1919.5951693802062
 20
120.84243849430095
 11
1931.8855446029352
 21
125.31576924333694
  0
LINE
  8
_e-0_
  6
CONTINUOUS
 62
    7
 10
1949.0068187571414
 20
127.29069231827543
 11
1960.9419808231444
 21
131.63473605144327
  0
LINE
  8
_e-0_
  6
CONTINUOUS
 62
    7
 10
1949.0068187571414
 20
123.03398122837189
 11
1960.9419808231444
 21
127.37802496153972
  0
LINE
  8
_e-0_
  6
CONTINUOUS
 62
    7
 10
1948.8840380523129
 20
131.50271488627914
 11
1960.2949743500999
 21
135.65595604378132
  0
LINE
  8
_e-0_
  6
CONTINUOUS
 62
    7
 10
1949.0068187571414
 20
118.77727013846834
 11
1960.9419808231444
 21
123.12131387163618
  0
LINE
  8
_e-0_
  6
CONTINUOUS
 62
    7
 10
1949.0068187571414
 20
114.52055904856479
 11
1960.9419808231444
 21
118.86460278173263
  0
LINE
  8
_e-0_
  6
CONTINUOUS
 62
    7
 10
1949.0068187571414
 20
110.26384795866079
 11
1960.9419808231444
 21
114.60789169182908
  0
LINE
  8
_e-0_
  6
CONTINUOUS
 62
    7
 10
1957.7575676207143
 20
109.19214898263635
 11
1960.9419808231444
 21
110.35118060192508
  0
LINE
  8
_e-0_
  6
CONTINUOUS
 62
    7
 10
1947.2151219244925
 20
135.15199018216936
 11
1958.9037489945158
 21
139.40630251509583
  0
LINE
  8
_e-0_
  6
CONTINUOUS
 62
    7
 10
1975.3507074050672
 20
145.39250582075033
 11
1990.1708335300571
 21
150.78659059831716
  0
LINE
  8
_e-0_
  6
CONTINUOUS
 62
    7
 10
1970.9053111150261
 20
139.51780280175444
 11
1997.3523909667033
 21
149.14375265102603
  0
LINE
  8
_e-0_
  6
CONTINUOUS
 62
    7
 10
1969.1703192692735
 20
134.62960632330214
 11
2001.8235439590612
 21
146.51440816319086
  0
LINE
  8
_e-0_
  6
CONTINUOUS
 62
    7
 10
1969.1993935896505
 20
130.3834774205975
 11
1979.1915737376019
 21
134.02033356987749
  0
LINE
  8
_e-0_
  6
CONTINUOUS
 62
    7
 10
1993.7206653048434
 20
139.30849043128092
 11
2005.0308543661506
 21
143.42506259352012
  0
LINE
  8
_e-0_
  6
CONTINUOUS
 62
    7
 10
1997.35418228762
 20
136.37427136880888
 11
2007.3427935007403
 21
140.00982853204232
  0
LINE
  8
_e-0_
  6
CONTINUOUS
 62
    7
 10
1970.5674741629532
 20
126.62470693745399
 11
1990.7834719472394
 21
133.98272838692537
  0
LINE
  8
_e-0_
  6
CONTINUOUS
 62
    7
 10
1970.3111035677005
 20
122.27468458193744
 11
2008.8912431004499
 21
136.3167070056943
  0
LINE
  8
_e-0_
  6
CONTINUOUS
 62
    7
 10
1972.2402333851458
 20
118.7201193236192
 11
1981.5426744504755
 21
122.10593097741457
  0
LINE
  8
_e-0_
  6
CONTINUOUS
 62
    7
 10
1990.4980170314177
 20
125.36540911453403
 11
2009.6982744296097
 21
132.35373129772506
  0
LINE
  8
_e-0_
  6
CONTINUOUS
 62
    7
 10
2002.1932346320702
 20
125.36540911453403
 11
2009.6921296901567
 21
128.09478370556326
  0
LINE
  8
_e-0_
  6
CONTINUOUS
 62
    7
 10
1974.9825392712041
 20
115.46152594949353
 11
1986.0440112780323
 21
119.48757250714789
  0
LINE
  8
_e-0_
  6
CONTINUOUS
 62
    7
 10
1978.7606864611435
 20
112.57994797740457
 11
2001.9978891641956
 21
121.03759808892528
  0
LINE
  8
_e-0_
  6
CONTINUOUS
 62
    7
 10
1984.2455596478617
 20
110.31956746619107
 11
2005.9014316067096
 21
118.20166025629169
  0
LINE
  8
_e-0_
  6
CONTINUOUS
 62
    7
 10
2042.0985352737373
 20
110.09277310821926
 11
2046.9935098677356
 21
111.87439815792368
  0
LINE
  8
_e-0_
  6
CONTINUOUS
 62
    7
 10
2031.5210140811862
 20
110.49958133171413
 11
2054.8348699136818
 21
118.98513090071583
  0
LINE
  8
_e-0_
  6
CONTINUOUS
 62
    7
 10
2026.3981440723785
 20
112.89172022439698
 11
2057.2215787758842
 21
124.11053297432045
  0
LINE
  8
_e-0_
  6
CONTINUOUS
 62
    7
 10
2017.66549148382
 20
135.2535611553958
 11
2057.6318394050891
 21
149.800122171064
  0
LINE
  8
_e-0_
  6
CONTINUOUS
 62
    7
 10
2019.6717463836485
 20
140.2404893111875
 11
2057.6318394050891
 21
154.05683326096755
  0
LINE
  8
_e-0_
  6
CONTINUOUS
 62
    7
 10
2045.9144620366537
 20
166.81890103480737
 11
2049.4422939141277
 21
168.10292682970316
  0
LINE
  8
_e-0_
  6
CONTINUOUS
 62
    7
 10
2045.9144620366537
 20
162.56218994490382
 11
2057.6318394050891
 21
166.82696653067842
  0
LINE
  8
_e-0_
  6
CONTINUOUS
 62
    7
 10
2045.9144620366537
 20
158.30547885500005
 11
2057.6318394050891
 21
162.57025544077487
  0
LINE
  8
_e-0_
  6
CONTINUOUS
 62
    7
 10
2045.9144620366537
 20
154.04876776509627
 11
2057.6318394050891
 21
158.31354435087133
  0
LINE
  8
_e-0_
  6
CONTINUOUS
 62
    7
 10
2025.0880255842051
 20
146.46856481056875
 11
2036.6424080912157
 21
150.67401611844662
  0
LINE
  8
_e-0_
  6
CONTINUOUS
 62
    7
 10
2038.4420767037589
 20
138.55890865524452
 11
2057.6318394050891
 21
145.54341108116046
  0
LINE
  8
_e-0_
  6
CONTINUOUS
 62
    7
 10
2017.0291218325069
 20
130.76523045442354
 11
2030.7001667533668
 21
135.74108387693286
  0
LINE
  8
_e-0_
  6
CONTINUOUS
 62
    7
 10
2017.3243286189065
 20
126.61596584772315
 11
2028.3877353060284
 21
130.64271657141671
  0
LINE
  8
_e-0_
  6
CONTINUOUS
 62
    7
 10
2018.395209168762
 20
122.74902340242124
 11
2028.9123614388614
 21
126.57695377798245
  0
LINE
  8
_e-0_
  6
CONTINUOUS
 62
    7
 10
2020.2050748630436
 20
119.15104955325569
 11
2031.2283907009116
 21
123.16320840115486
  0
LINE
  8
_e-0_
  6
CONTINUOUS
 62
    7
 10
2022.8093849862239
 20
115.84222982898791
 11
2036.6049096585666
 21
120.86339017580576
  0
LINE
  8
_e-0_
  6
CONTINUOUS
 62
    7
 10
2043.3643924222899
 20
123.32364070083622
 11
2057.6318394050891
 21
128.51656672154604
  0
LINE
  8
_e-0_
  6
CONTINUOUS
 62
    7
 10
2046.00475023334
 20
128.54136344177414
 11
2057.6318394050891
 21
132.77327781144959
  0
LINE
  8
_e-0_
  6
CONTINUOUS
 62
    7
 10
2046.0722849209174
 20
132.82265514773644
 11
2057.6318394050891
 21
137.02998890135314
  0
LINE
  8
_e-0_
  6
CONTINUOUS
 62
    7
 10
2046.0722849209174
 20
137.07936623763999
 11
2057.6318394050891
 21
141.28669999125668
  0
LINE
  8
_e-0_
  6
CONTINUOUS
 62
    7
 10
2076.1174102550881
 20
148.01489754407521
 11
2081.4955014661937
 21
149.9723626620862
  0
LINE
  8
_e-0_
  6
CONTINUOUS
 62
    7
 10
2068.4749168347425
 20
140.9765463335907
 11
2091.8741560331446
 21
149.49317290628323
  0
LINE
  8
_e-0_
  6
CONTINUOUS
 62
    7
 10
2086.8144939978883
 20
109.34120672087147
 11
2098.1600291894456
 21
113.47064382241751
  0
LINE
  8
_e-0_
  6
CONTINUOUS
 62
    7
 10
2078.595580918653
 20
110.60647809191187
 11
2103.6427811220756
 21
119.72291341766413
  0
LINE
  8
_e-0_
  6
CONTINUOUS
 62
    7
 10
2066.1064737009224
 20
135.85779244142441
 11
2096.9787603135701
 21
147.09438583216252
  0
LINE
  8
_e-0_
  6
CONTINUOUS
 62
    7
 10
2073.8374548644324
 20
113.13137292719284
 11
2105.6647460296917
 21
124.71555954867063
  0
LINE
  8
_e-0_
  6
CONTINUOUS
 62
    7
 10
2070.4556396730268
 20
116.15720394963546
 11
2081.7968895522208
 21
120.28508132503748
  0
LINE
  8
_e-0_
  6
CONTINUOUS
 62
    7
 10
2068.0075435055624
 20
119.52288090396087
 11
2077.9127468092656
 21
123.12808007086414
  0
LINE
  8
_e-0_
  6
CONTINUOUS
 62
    7
 10
2066.3358639869543
 20
123.17115040785893
 11
2075.8956144050967
 21
126.65061500707634
  0
LINE
  8
_e-0_
  6
CONTINUOUS
 62
    7
 10
2065.4030998953522
 20
127.088363132827
 11
2075.3419416070415
 21
130.70580567896513
  0
LINE
  8
_e-0_
  6
CONTINUOUS
 62
    7
 10
2065.2638499728082
 20
131.29439139580063
 11
2076.7882712920646
 21
135.48893772315296
  0
LINE
  8
_e-0_
  6
CONTINUOUS
 62
    7
 10
2089.5798660139744
 20
140.14469745072438
 11
2100.5575451882896
 21
144.14024591149882
  0
LINE
  8
_e-0_
  6
CONTINUOUS
 62
    7
 10
2093.7623568456029
 20
137.41028852862473
 11
2103.1544564123506
 21
140.82873320818544
  0
LINE
  8
_e-0_
  6
CONTINUOUS
 62
    7
 10
2095.944845194153
 20
133.94793823422606
 11
2104.9578534673537
 21
137.22840496686604
  0
LINE
  8
_e-0_
  6
CONTINUOUS
 62
    7
 10
2096.6638739365894
 20
129.95293220415124
 11
2106.0223350953511
 21
133.35913350447663
  0
LINE
  8
_e-0_
  6
CONTINUOUS
 62
    7
 10
2095.5158923402391
 20
125.27838998369089
 11
2106.3104000744916
 21
129.20726949251502
  0
LINE
  8
ADD_LINE
  6
DOT
 62
    9
 10
1871.6490853241817
 20
96
 11
1871.6490853241817
 21
176
  0
LINE
  8
ADD_LINE
  6
DOT
 62
    9
 10
1988.9797426993366
 20
176
 11
1988.9797426993366
 21
96
  0
LINE
  8
ADD_LINE
  6
DOT
 62
    9
 10
2106.3104000744916
 20
96
 11
2106.3104000744916
 21
176
  0
LINE
  8
ADD_LINE
  6
DOT
 62
    9
 10
1776
 20
176
 11
1776
 21
96
  0
LINE
  8
ADD_LINE
  6
DOT
 62
    9
 10
2168
 20
176
 11
2168
 21
96
  0
TEXT
  8
_e-0_
 62
    7
 10
2114.2869460600141
 20
144.44997645959643
 40
28
 41
0.5714285714285714
 50
0
  1
ワンド
  0
TEXT
  8
_e-0_
 62
    7
 10
2119.7636080119232
 20
117.61433289523984
 40
24
 41
0.6666666666666666
 50
0
  1
株式
  0
TEXT
  8
_e-0_
 62
    7
 10
2119.2159418167325
 20
95.160018892411244
 40
24
 41
0.6666666666666666
 50
0
  1
会社
  0
LINE
  8
_f-7_
  6
CONTINUOUS
 62
    7
 10
95.988000000000056
 20
1149.709493367299
 11
95.988000000000056
 21
1177.4223062884009
  0
LINE
  8
_f-7_
  6
CONTINUOUS
 62
    7
 10
95.988000000000056
 20
1177.4223062884009
 11
119.98800000000006
 21
1163.56589982785
  0
LINE
  8
_f-7_
  6
CONTINUOUS
 62
    7
 10
119.98800000000006
 20
1163.56589982785
 11
95.988000000000056
 21
1149.709493367299
  0
LINE
  8
_f-7_
  6
CONTINUOUS
 62
    7
 10
99.988000000000056
 20
1156.6376965975744
 11
99.988000000000056
 21
1170.4941030581256
  0
LINE
  8
_f-7_
  6
CONTINUOUS
 62
    7
 10
99.988000000000056
 20
1170.4941030581256
 11
111.98800000000006
 21
1163.56589982785
  0
LINE
  8
_f-7_
  6
CONTINUOUS
 62
    7
 10
111.98800000000006
 20
1163.56589982785
 11
99.988000000000056
 21
1156.6376965975744
  0
LINE
  8
_f-7_
  6
CONTINUOUS
 62
    7
 10
103.18799999999987
 20
1162.1802591817948
 11
103.18799999999987
 21
1164.9515404739052
  0
LINE
  8
_f-7_
  6
CONTINUOUS
 62
    7
 10
103.18799999999987
 20
1164.9515404739052
 11
105.58800000000042
 21
1163.56589982785
  0
LINE
  8
_f-7_
  6
CONTINUOUS
 62
    7
 10
105.58800000000042
 20
1163.56589982785
 11
103.18799999999987
 21
1162.1802591817948
  0
TEXT
  8
_f-8_
 62
    7
 10
1347.1553871747915
 20
109.79255148117591
 40
36
 41
0.6666666666666666
 50
0
  1
バックガード
  0
TEXT
  8
_f-8_
 62
    7
 10
2434.4000000000001
 20
114
 40
28
 41
0.5714285714285714
 50
0
  1
２０２３．０５．０１
  0
TEXT
  8
_f-8_
 62
    7
 10
2865.5999999999999
 20
116
 40
24
 41
0.7333333333333333
 50
0
  1
Ｔ．Ｋ
  0
LINE
  8
_f-7_
  6
CONTINUOUS
 62
    7
 10
3328
 20
1149.709493367299
 11
3328
 21
1177.4223062884009
  0
LINE
  8
_f-7_
  6
CONTINUOUS
 62
    7
 10
3328
 20
1177.4223062884009
 11
3304
 21
1163.56589982785
  0
LINE
  8
_f-7_
  6
CONTINUOUS
 62
    7
 10
3304
 20
1163.56589982785
 11
3328
 21
1149.709493367299
  0
LINE
  8
_f-7_
  6
CONTINUOUS
 62
    7
 10
3324
 20
1156.6376965975744
 11
3324
 21
1170.4941030581256
  0
LINE
  8
_f-7_
  6
CONTINUOUS
 62
    7
 10
3324
 20
1170.4941030581256
 11
3312
 21
1163.56589982785
  0
LINE
  8
_f-7_
  6
CONTINUOUS
 62
    7
 10
3312
 20
1163.56589982785
 11
3324
 21
1156.6376965975744
  0
LINE
  8
_f-7_
  6
CONTINUOUS
 62
    7
 10
3320.8000000000002
 20
1162.1802591817948
 11
3320.8000000000002
 21
1164.9515404739052
  0
LINE
  8
_f-7_
  6
CONTINUOUS
 62
    7
 10
3320.8000000000002
 20
1164.9515404739052
 11
3318.3999999999996
 21
1163.56589982785
  0
LINE
  8
_f-7_
  6
CONTINUOUS
 62
    7
 10
3318.3999999999996
 20
1163.56589982785
 11
3320.8000000000002
 21
1162.1802591817948
  0
LINE
  8
ADD_LINE
  6
DOT
 62
    9
 10
3397.469420600858
 20
1534.5
 11
3475.5434549356223
 21
1534.5
  0
LINE
  8
ADD_LINE
  6
DOT
 62
    9
 10
3397.469420600858
 20
918.5
 11
3475.5434549356223
 21
918.5
  0
LINE
  8
_0-1_
  6
CONTINUOUS
 62
    4
 10
686.87953641293052
 20
342.5
 11
1286.8795364129307
 21
342.5
  0
LINE
  8
_0-0_
  6
CONTINUOUS
 62
    7
 10
686.87953641293052
 20
1742.5
 11
1286.8795364129312
 21
1742.5
  0
LINE
  8
_0-0_
  6
CONTINUOUS
 62
    7
 10
1286.8795364129312
 20
1742.5
 11
1286.8795364129312
 21
2012.5000000000005
  0
LINE
  8
_0-0_
  6
CONTINUOUS
 62
    7
 10
1286.8795364129312
 20
2012.5000000000005
 11
686.87953641293052
 21
2012.5000000000005
  0
LINE
  8
_0-0_
  6
CONTINUOUS
 62
    7
 10
686.87953641293052
 20
2012.5000000000005
 11
686.87953641293052
 21
1742.5
  0
LINE
  8
_0-0_
  6
CONTINUOUS
 62
    7
 10
688.37953641293075
 20
1742.5
 11
688.37953641293075
 21
1724.5
  0
LINE
  8
_0-0_
  6
CONTINUOUS
 62
    7
 10
688.37953641293075
 20
1724.5
 11
1285.3795364129312
 21
1724.5
  0
LINE
  8
_0-0_
  6
CONTINUOUS
 62
    7
 10
1285.3795364129312
 20
1724.5
 11
1285.3795364129312
 21
1742.5
  0
LINE
  8
ADD_LINE
  6
DOT
 62
    9
 10
688.37953641293075
 20
1694.5
 11
1285.3795364129312
 21
1694.5
  0
LINE
  8
ADD_LINE
  6
DOT
 62
    9
 10
688.37953641293075
 20
1634.5
 11
1285.3795364129312
 21
1634.5
  0
LINE
  8
ADD_LINE
  6
DOT
 62
    9
 10
688.37953641293075
 20
1574.5
 11
1285.3795364129312
 21
1574.5
  0
LINE
  8
_0-0_
  6
CONTINUOUS
 62
    7
 10
686.87953641293052
 20
510.5
 11
1286.8795364129307
 21
510.5
  0
LINE
  8
_0-0_
  6
CONTINUOUS
 62
    7
 10
1286.8795364129307
 20
510.5
 11
1286.8795364129307
 21
780.5
  0
LINE
  8
_0-0_
  6
CONTINUOUS
 62
    7
 10
1286.8795364129307
 20
780.5
 11
686.87953641293052
 21
780.5
  0
LINE
  8
_0-0_
  6
CONTINUOUS
 62
    7
 10
686.87953641293052
 20
780.5
 11
686.87953641293052
 21
510.5
  0
LINE
  8
_0-0_
  6
CONTINUOUS
 62
    7
 10
688.37953641293075
 20
510.5
 11
688.37953641293075
 21
492.5
  0
LINE
  8
_0-0_
  6
CONTINUOUS
 62
    7
 10
688.37953641293075
 20
492.5
 11
1285.3795364129312
 21
492.5
  0
LINE
  8
_0-0_
  6
CONTINUOUS
 62
    7
 10
1285.3795364129312
 20
492.5
 11
1285.3795364129312
 21
510.5
  0
LINE
  8
ADD_LINE
  6
DOT
 62
    9
 10
688.37953641293075
 20
462.5
 11
1285.3795364129312
 21
462.5
  0
LINE
  8
ADD_LINE
  6
DOT
 62
    9
 10
688.37953641293075
 20
402.5
 11
1285.3795364129312
 21
402.5
  0
LINE
  8
ADD_LINE
  6
DOT
 62
    9
 10
688.37953641293075
 20
342.5
 11
1285.3795364129312
 21
342.5
  0
LINE
  8
_0-0_
  6
CONTINUOUS
 62
    7
 10
1286.879536412931
 20
1346.5
 11
686.87953641293052
 21
1346.5
  0
LINE
  8
_0-0_
  6
CONTINUOUS
 62
    7
 10
686.87953641293052
 20
1126.5
 11
1286.879536412931
 21
1126.5
  0
LINE
  8
_0-0_
  6
CONTINUOUS
 62
    7
 10
686.87953641293052
 20
1346.5
 11
686.87953641293052
 21
1126.5
  0
LINE
  8
_0-0_
  6
CONTINUOUS
 62
    7
 10
1286.879536412931
 20
1346.5
 11
1286.879536412931
 21
1126.5
  0
LINE
  8
_0-0_
  6
CONTINUOUS
 62
    7
 10
688.37953641293075
 20
1126.5
 11
688.37953641293075
 21
1108.5
  0
LINE
  8
_0-0_
  6
CONTINUOUS
 62
    7
 10
688.37953641293075
 20
1108.5
 11
1285.3795364129312
 21
1108.5
  0
LINE
  8
_0-0_
  6
CONTINUOUS
 62
    7
 10
1285.3795364129312
 20
1108.5
 11
1285.3795364129312
 21
1126.5
  0
LINE
  8
ADD_LINE
  6
DOT
 62
    9
 10
688.37953641293075
 20
1078.5
 11
1285.3795364129312
 21
1078.5
  0
LINE
  8
ADD_LINE
  6
DOT
 62
    9
 10
688.37953641293075
 20
1018.5
 11
1285.3795364129312
 21
1018.5
  0
LINE
  8
ADD_LINE
  6
DOT
 62
    9
 10
688.37953641293075
 20
958.5
 11
1285.3795364129312
 21
958.5
  0
POINT
  8
_0-1_
 62
    3
 10
688.37953641293075
 20
1634.5
  0
POINT
  8
_0-1_
 62
    3
 10
1285.3795364129312
 20
1634.5
  0
LINE
  8
_0-1_
  6
CONTINUOUS
 62
    4
 10
688.37953641293075
 20
1627.5
 11
688.37953641293075
 21
1694.5
  0
LINE
  8
_0-1_
  6
CONTINUOUS
 62
    4
 10
1285.3795364129312
 20
1627.5
 11
1285.3795364129312
 21
1694.5
  0
POINT
  8
_0-1_
 62
    3
 10
686.87953641293052
 20
1574.5
  0
POINT
  8
_0-1_
 62
    3
 10
1286.8795364129312
 20
1574.5
  0
LINE
  8
_0-1_
  6
CONTINUOUS
 62
    4
 10
686.87953641293052
 20
1567.5
 11
686.87953641293052
 21
1694.5
  0
LINE
  8
_0-1_
  6
CONTINUOUS
 62
    4
 10
1286.8795364129312
 20
1567.5
 11
1286.8795364129312
 21
1694.5
  0
CIRCLE
  8
_0-0_
  6
CONTINUOUS
 62
    7
 10
708.37953641293075
 20
1734.5
 40
3.5
  0
LINE
  8
ADD_LINE
  6
DOT
 62
    9
 10
708.37953641293075
 20
1738.7116731195449
 11
708.37953641293075
 21
1730.4601500096931
  0
LINE
  8
ADD_LINE
  6
DOT
 62
    9
 10
702.80350719398871
 20
1734.5
 11
713.70366735144717
 21
1734.5
  0
CIRCLE
  8
_0-0_
  6
CONTINUOUS
 62
    7
 10
986.92151945966816
 20
1734.5
 40
3.5
  0
LINE
  8
ADD_LINE
  6
DOT
 62
    9
 10
986.92151945966816
 20
1738.7116731195449
 11
986.92151945966816
 21
1730.4601500096931
  0
LINE
  8
ADD_LINE
  6
DOT
 62
    9
 10
981.34549024072612
 20
1734.5
 11
992.24565039818503
 21
1734.5
  0
CIRCLE
  8
_0-0_
  6
CONTINUOUS
 62
    7
 10
1265.4215194596686
 20
1734.5
 40
3.5
  0
LINE
  8
ADD_LINE
  6
DOT
 62
    9
 10
1265.4215194596686
 20
1738.7116731195449
 11
1265.4215194596686
 21
1730.4601500096931
  0
LINE
  8
ADD_LINE
  6
DOT
 62
    9
 10
1259.8454902407268
 20
1734.5
 11
1270.7456503981853
 21
1734.5
  0
LINE
  8
_0-1_
  6
CONTINUOUS
 62
    4
 10
686.87953641293052
 20
1574.5
 11
1286.8795364129312
 21
1574.5
  0
LINE
  8
_0-1_
  6
CONTINUOUS
 62
    4
 10
688.37953641293075
 20
1634.5
 11
1285.3795364129312
 21
1634.5
  0
TEXT
  8
_0-1_
 62
    7
 10
915.73138141437357
 20
1576.25
 40
28
 41
0.6285714285714286
 50
0
  1
６００（７００）
  0
CIRCLE
  8
_0-0_
  6
CONTINUOUS
 62
    7
 10
708.37953641293075
 20
1118.5
 40
3.5
  0
LINE
  8
ADD_LINE
  6
DOT
 62
    9
 10
708.37953641293075
 20
1122.7116731195447
 11
708.37953641293075
 21
1114.4601500096928
  0
LINE
  8
ADD_LINE
  6
DOT
 62
    9
 10
702.80350719398871
 20
1118.5
 11
713.70366735144717
 21
1118.5
  0
CIRCLE
  8
_0-0_
  6
CONTINUOUS
 62
    7
 10
986.92151945966816
 20
1118.5
 40
3.5
  0
LINE
  8
ADD_LINE
  6
DOT
 62
    9
 10
986.92151945966816
 20
1122.7116731195447
 11
986.92151945966816
 21
1114.4601500096928
  0
LINE
  8
ADD_LINE
  6
DOT
 62
    9
 10
981.34549024072612
 20
1118.5
 11
992.24565039818503
 21
1118.5
  0
CIRCLE
  8
_0-0_
  6
CONTINUOUS
 62
    7
 10
1265.4215194596686
 20
1118.5
 40
3.5
  0
LINE
  8
ADD_LINE
  6
DOT
 62
    9
 10
1265.4215194596686
 20
1122.7116731195447
 11
1265.4215194596686
 21
1114.4601500096928
  0
LINE
  8
ADD_LINE
  6
DOT
 62
    9
 10
1259.8454902407268
 20
1118.5
 11
1270.7456503981853
 21
1118.5
  0
CIRCLE
  8
_0-0_
  6
CONTINUOUS
 62
    7
 10
708.37953641293075
 20
502.50000000000023
 40
3.5
  0
LINE
  8
ADD_LINE
  6
DOT
 62
    9
 10
708.37953641293075
 20
506.71167311954491
 11
708.37953641293075
 21
498.46015000969305
  0
LINE
  8
ADD_LINE
  6
DOT
 62
    9
 10
702.80350719398871
 20
502.50000000000023
 11
713.70366735144717
 21
502.50000000000023
  0
CIRCLE
  8
_0-0_
  6
CONTINUOUS
 62
    7
 10
986.92151945966816
 20
502.50000000000023
 40
3.5
  0
LINE
  8
ADD_LINE
  6
DOT
 62
    9
 10
986.92151945966816
 20
506.71167311954491
 11
986.92151945966816
 21
498.46015000969305
  0
LINE
  8
ADD_LINE
  6
DOT
 62
    9
 10
981.34549024072612
 20
502.50000000000023
 11
992.24565039818503
 21
502.50000000000023
  0
CIRCLE
  8
_0-0_
  6
CONTINUOUS
 62
    7
 10
1265.4215194596686
 20
502.50000000000023
 40
3.5
  0
LINE
  8
ADD_LINE
  6
DOT
 62
    9
 10
1265.4215194596686
 20
506.71167311954491
 11
1265.4215194596686
 21
498.46015000969305
  0
LINE
  8
ADD_LINE
  6
DOT
 62
    9
 10
1259.8454902407268
 20
502.50000000000023
 11
1270.7456503981853
 21
502.50000000000023
  0
POINT
  8
_0-1_
 62
    3
 10
688.37953641293075
 20
1018.5
  0
POINT
  8
_0-1_
 62
    3
 10
1285.3795364129312
 20
1018.5
  0
LINE
  8
_0-1_
  6
CONTINUOUS
 62
    4
 10
688.37953641293075
 20
1011.5
 11
688.37953641293075
 21
1078.5
  0
LINE
  8
_0-1_
  6
CONTINUOUS
 62
    4
 10
1285.3795364129312
 20
1011.5
 11
1285.3795364129312
 21
1078.5
  0
POINT
  8
_0-1_
 62
    3
 10
686.87953641293052
 20
958.5
  0
POINT
  8
_0-1_
 62
    3
 10
1286.8795364129312
 20
958.5
  0
LINE
  8
_0-1_
  6
CONTINUOUS
 62
    4
 10
686.87953641293052
 20
951.5
 11
686.87953641293052
 21
1078.5
  0
LINE
  8
_0-1_
  6
CONTINUOUS
 62
    4
 10
1286.8795364129312
 20
951.5
 11
1286.8795364129312
 21
1078.5
  0
POINT
  8
_0-1_
 62
    3
 10
688.37953641293075
 20
402.5
  0
POINT
  8
_0-1_
 62
    3
 10
1285.3795364129312
 20
402.5
  0
LINE
  8
_0-1_
  6
CONTINUOUS
 62
    4
 10
688.37953641293075
 20
395.5
 11
688.37953641293075
 21
462.5
  0
LINE
  8
_0-1_
  6
CONTINUOUS
 62
    4
 10
1285.3795364129312
 20
395.5
 11
1285.3795364129312
 21
462.5
  0
POINT
  8
_0-1_
 62
    3
 10
686.87953641293052
 20
342.5
  0
POINT
  8
_0-1_
 62
    3
 10
1286.8795364129307
 20
342.5
  0
LINE
  8
_0-1_
  6
CONTINUOUS
 62
    4
 10
686.87953641293052
 20
335.5
 11
686.87953641293052
 21
462.5
  0
LINE
  8
_0-1_
  6
CONTINUOUS
 62
    4
 10
1286.8795364129307
 20
335.5
 11
1286.8795364129307
 21
462.5
  0
LINE
  8
_0-1_
  6
CONTINUOUS
 62
    4
 10
688.37953641293075
 20
1018.5
 11
1285.3795364129312
 21
1018.5
  0
LINE
  8
_0-1_
  6
CONTINUOUS
 62
    4
 10
686.87953641293052
 20
958.5
 11
1286.8795364129312
 21
958.5
  0
LINE
  8
_0-1_
  6
CONTINUOUS
 62
    4
 10
688.37953641293075
 20
402.5
 11
1285.3795364129312
 21
402.5
  0
TEXT
  8
_0-1_
 62
    7
 10
915.73138141437403
 20
1636.25
 40
28
 41
0.6285714285714286
 50
0
  1
５９７（６９７）
  0
TEXT
  8
_0-1_
 62
    7
 10
917.72751092495605
 20
1025.6405579399143
 40
28
 41
0.6285714285714286
 50
0
  1
５９７（６９７）
  0
TEXT
  8
_0-1_
 62
    7
 10
919.95819762023507
 20
965.41201716738192
 40
28
 41
0.6285714285714286
 50
0
  1
６００（７００）
  0
TEXT
  8
_0-1_
 62
    7
 10
918.94098533966257
 20
407.74034334763951
 40
28
 41
0.6285714285714286
 50
0
  1
５９７（６９７）
  0
TEXT
  8
_0-1_
 62
    7
 10
918.74472320552877
 20
345.28111587982846
 40
28
 41
0.6285714285714286
 50
0
  1
６００（７００）
  0
LINE
  8
_0-0_
  6
CONTINUOUS
 62
    7
 10
1593.130531711198
 20
1346.5
 11
1605.1305317111978
 21
1346.5
  0
LINE
  8
_0-0_
  6
CONTINUOUS
 62
    7
 10
1585.1305317111978
 20
1126.5
 11
1585.1305317111978
 21
1338.5
  0
LINE
  8
_0-0_
  6
CONTINUOUS
 62
    7
 10
1604.6305317111978
 20
1122
 11
1604.6305317111978
 21
1126.5
  0
LINE
  8
_0-0_
  6
CONTINUOUS
 62
    7
 10
1605.1305317111978
 20
1346.5
 11
1605.1305317111978
 21
1122
  0
LINE
  8
_0-0_
  6
CONTINUOUS
 62
    7
 10
1605.1305317111978
 20
1742.5
 11
1575.1305317111978
 21
1742.5
  0
LINE
  8
ADD_LINE
  6
DOT
 62
    9
 10
1662.2592780631785
 20
2042.5000000000005
 11
1624.018934715539
 21
2042.5000000000005
  0
LINE
  8
ADD_LINE
  6
DOT
 62
    9
 10
1662.2592780631785
 20
2102.5000000000005
 11
1624.018934715539
 21
2102.5000000000005
  0
LINE
  8
_0-0_
  6
CONTINUOUS
 62
    7
 10
1580.1305317111978
 20
510.5
 11
1605.1305317111978
 21
510.5
  0
ARC
  8
_0-0_
  6
CONTINUOUS
 62
    7
 10
1588.1305317111983
 20
772.5
 40
8.0000000000000018
 50
90
 51
180
  0
LINE
  8
_0-0_
  6
CONTINUOUS
 62
    7
 10
1580.1305317111978
 20
510.5
 11
1580.1305317111978
 21
772.5
  0
LINE
  8
_0-0_
  6
CONTINUOUS
 62
    7
 10
1588.1305317111983
 20
780.5
 11
1605.1305317111978
 21
780.5
  0
ARC
  8
_0-0_
  6
CONTINUOUS
 62
    7
 10
1593.130531711198
 20
1338.5
 40
8.0000000000000018
 50
90
 51
180
  0
LINE
  8
_0-0_
  6
CONTINUOUS
 62
    7
 10
1585.1305317111978
 20
1126.5
 11
1605.1305317111978
 21
1126.5
  0
LINE
  8
ADD_LINE
  6
DOT
 62
    9
 10
1585.1305317111978
 20
2003.2465776897284
 11
1585.1305317111978
 21
2033.0281594798207
  0
POINT
  8
_0-1_
 62
    3
 10
1605.1305317111978
 20
2102.5000000000005
  0
POINT
  8
_0-1_
 62
    3
 10
1585.1305317111978
 20
2102.5000000000005
  0
LINE
  8
_0-1_
  6
CONTINUOUS
 62
    4
 10
1605.1305317111978
 20
2109.5000000000005
 11
1605.1305317111978
 21
2042.5000000000005
  0
LINE
  8
_0-1_
  6
CONTINUOUS
 62
    4
 10
1585.1305317111978
 20
2109.5000000000005
 11
1585.1305317111978
 21
2042.5000000000005
  0
LINE
  8
_0-1_
  6
CONTINUOUS
 62
    4
 10
1605.1305317111978
 20
2102.5000000000005
 11
1585.1305317111978
 21
2102.5000000000005
  0
TEXT
  8
_0-1_
 62
    7
 10
1577.4905317111979
 20
2106.5000000000005
 40
28
 41
0.6285714285714286
 50
0
  1
２０
  0
LINE
  8
ADD_LINE
  6
DOT
 62
    9
 10
1545.1305317111978
 20
1709.9902604579197
 11
1545.1305317111978
 21
1741.3778412753966
  0
LINE
  8
ADD_LINE
  6
DOT
 62
    9
 10
1485.130531711198
 20
1709.9902604579197
 11
1485.130531711198
 21
1741.3778412753966
  0
POINT
  8
_0-1_
 62
    3
 10
1485.130531711198
 20
1742.5
  0
POINT
  8
_0-1_
 62
    3
 10
1485.130531711198
 20
2012.5000000000005
  0
LINE
  8
_0-1_
  6
CONTINUOUS
 62
    4
 10
1478.130531711198
 20
1742.5
 11
1545.1305317111978
 21
1742.5
  0
LINE
  8
_0-1_
  6
CONTINUOUS
 62
    4
 10
1478.130531711198
 20
2012.5000000000005
 11
1545.1305317111978
 21
2012.5000000000005
  0
LINE
  8
_0-1_
  6
CONTINUOUS
 62
    4
 10
1485.130531711198
 20
1742.5
 11
1485.130531711198
 21
2012.5000000000005
  0
TEXT
  8
_0-1_
 62
    7
 10
1481.130531711198
 20
1851.0200000000002
 40
28
 41
0.6285714285714286
 50
90
  1
２７０
  0
POINT
  8
_0-1_
 62
    3
 10
1575.1305317111978
 20
1574.5
  0
POINT
  8
_0-1_
 62
    3
 10
1605.1305317111978
 20
1574.5
  0
LINE
  8
_0-1_
  6
CONTINUOUS
 62
    4
 10
1575.1305317111978
 20
1567.5
 11
1575.1305317111978
 21
1694.5
  0
LINE
  8
_0-1_
  6
CONTINUOUS
 62
    4
 10
1605.1305317111978
 20
1567.5
 11
1605.1305317111978
 21
1694.5
  0
LINE
  8
_0-1_
  6
CONTINUOUS
 62
    4
 10
1575.1305317111978
 20
1574.5
 11
1605.1305317111978
 21
1574.5
  0
TEXT
  8
_0-1_
 62
    7
 10
1572.4905317111979
 20
1578.5
 40
28
 41
0.6285714285714286
 50
0
  1
３０
  0
LINE
  8
_0-0_
  6
CONTINUOUS
 62
    7
 10
1605.1305317111978
 20
1738
 11
1605.1305317111978
 21
2012.5000000000005
  0
LINE
  8
_0-0_
  6
CONTINUOUS
 62
    7
 10
1605.1305317111978
 20
1724.5
 11
1605.1305317111978
 21
1731
  0
LINE
  8
_0-0_
  6
CONTINUOUS
 62
    7
 10
1604.6305317111978
 20
1738
 11
1604.6305317111978
 21
1742.5
  0
LINE
  8
_0-0_
  6
CONTINUOUS
 62
    7
 10
1604.6305317111978
 20
1724.5
 11
1604.6305317111978
 21
1731
  0
LINE
  8
_0-0_
  6
CONTINUOUS
 62
    7
 10
1604.6305317111978
 20
1724.5
 11
1605.1305317111978
 21
1724.5
  0
LINE
  8
_0-0_
  6
DASHED1
 62
    7
 10
1605.1305317111978
 20
1738
 11
1605.1305317111978
 21
1731
  0
LINE
  8
_0-0_
  6
DASHED1
 62
    7
 10
1604.6305317111978
 20
1731
 11
1604.6305317111978
 21
1738
  0
ARC
  8
_0-0_
  6
CONTINUOUS
 62
    7
 10
1593.1305317111978
 20
2004.5000000000005
 40
8
 50
90
 51
180
  0
LINE
  8
_0-0_
  6
CONTINUOUS
 62
    7
 10
1593.1305317111978
 20
2012.5000000000005
 11
1605.1305317111978
 21
2012.5000000000005
  0
LINE
  8
_0-0_
  6
CONTINUOUS
 62
    7
 10
1585.1305317111978
 20
2004.5000000000005
 11
1575.1305317111978
 21
1742.5
  0
LINE
  8
_0-0_
  6
CONTINUOUS
 62
    7
 10
1605.1305317111978
 20
1108.5
 11
1605.1305317111978
 21
1115
  0
LINE
  8
_0-0_
  6
CONTINUOUS
 62
    7
 10
1604.6305317111978
 20
1108.5
 11
1604.6305317111978
 21
1115
  0
LINE
  8
_0-0_
  6
CONTINUOUS
 62
    7
 10
1604.6305317111978
 20
1108.5
 11
1605.1305317111978
 21
1108.5
  0
LINE
  8
_0-0_
  6
DASHED1
 62
    7
 10
1605.1305317111978
 20
1122
 11
1605.1305317111978
 21
1115
  0
LINE
  8
_0-0_
  6
DASHED1
 62
    7
 10
1604.6305317111978
 20
1115
 11
1604.6305317111978
 21
1122
  0
LINE
  8
_0-0_
  6
DASHED1
 62
    7
 10
1604.6305317111978
 20
1122
 11
1605.1305317111978
 21
1122
  0
LINE
  8
_0-0_
  6
DASHED1
 62
    7
 10
1604.6305317111978
 20
1115
 11
1605.1305317111978
 21
1115
  0
LINE
  8
_0-0_
  6
DASHED1
 62
    7
 10
1604.6305317111978
 20
1738
 11
1605.1305317111978
 21
1738
  0
LINE
  8
_0-0_
  6
DASHED1
 62
    7
 10
1604.6305317111978
 20
1731
 11
1605.1305317111978
 21
1731
  0
LINE
  8
_0-0_
  6
CONTINUOUS
 62
    7
 10
1604.6305317111978
 20
506
 11
1604.6305317111978
 21
510.5
  0
LINE
  8
_0-0_
  6
CONTINUOUS
 62
    7
 10
1605.1305317111978
 20
492.5
 11
1605.1305317111978
 21
499.00000000000011
  0
LINE
  8
_0-0_
  6
CONTINUOUS
 62
    7
 10
1604.6305317111978
 20
492.5
 11
1604.6305317111978
 21
499.00000000000011
  0
LINE
  8
_0-0_
  6
CONTINUOUS
 62
    7
 10
1604.6305317111978
 20
492.5
 11
1605.1305317111978
 21
492.5
  0
LINE
  8
_0-0_
  6
DASHED1
 62
    7
 10
1605.1305317111978
 20
506
 11
1605.1305317111978
 21
499.00000000000011
  0
LINE
  8
_0-0_
  6
DASHED1
 62
    7
 10
1604.6305317111978
 20
499.00000000000011
 11
1604.6305317111978
 21
506
  0
LINE
  8
_0-0_
  6
DASHED1
 62
    7
 10
1604.6305317111978
 20
506
 11
1605.1305317111978
 21
506
  0
LINE
  8
_0-0_
  6
DASHED1
 62
    7
 10
1604.6305317111978
 20
499.00000000000011
 11
1605.1305317111978
 21
499.00000000000011
  0
LINE
  8
_0-0_
  6
CONTINUOUS
 62
    7
 10
1605.1305317111978
 20
506
 11
1605.1305317111978
 21
780.5
  0
POINT
  8
_0-1_
 62
    3
 10
1485.1305317111978
 20
1346.5
  0
POINT
  8
_0-1_
 62
    3
 10
1485.1305317111978
 20
1126.5
  0
LINE
  8
_0-1_
  6
CONTINUOUS
 62
    4
 10
1478.1305317111978
 20
1346.5
 11
1545.1305317111978
 21
1346.5
  0
LINE
  8
_0-1_
  6
CONTINUOUS
 62
    4
 10
1478.1305317111978
 20
1126.5
 11
1545.1305317111978
 21
1126.5
  0
LINE
  8
_0-1_
  6
CONTINUOUS
 62
    4
 10
1485.1305317111978
 20
1346.5
 11
1485.1305317111978
 21
1126.5
  0
TEXT
  8
_0-1_
 62
    7
 10
1481.1305317111978
 20
1210.02
 40
28
 41
0.6285714285714286
 50
90
  1
２２０
  0
POINT
  8
_0-1_
 62
    3
 10
1485.1305317111978
 20
780.5
  0
POINT
  8
_0-1_
 62
    3
 10
1485.1305317111978
 20
510.5
  0
LINE
  8
_0-1_
  6
CONTINUOUS
 62
    4
 10
1478.1305317111978
 20
780.5
 11
1545.1305317111978
 21
780.5
  0
LINE
  8
_0-1_
  6
CONTINUOUS
 62
    4
 10
1478.1305317111978
 20
510.5
 11
1545.1305317111978
 21
510.5
  0
LINE
  8
_0-1_
  6
CONTINUOUS
 62
    4
 10
1485.1305317111978
 20
780.5
 11
1485.1305317111978
 21
510.5
  0
TEXT
  8
_0-1_
 62
    7
 10
1481.1305317111978
 20
619.01999999999998
 40
28
 41
0.6285714285714286
 50
90
  1
２７０
  0
LINE
  8
ADD_LINE
  6
DOT
 62
    9
 10
1624.018934715539
 20
1427.5
 11
1662.2592780631785
 21
1427.5
  0
LINE
  8
ADD_LINE
  6
DOT
 62
    9
 10
1624.018934715539
 20
861.5
 11
1662.2592780631785
 21
861.5
  0
POINT
  8
_0-1_
 62
    3
 10
1605.1305317111978
 20
1427.5
  0
POINT
  8
_0-1_
 62
    3
 10
1585.1305317111978
 20
1427.5
  0
LINE
  8
_0-1_
  6
CONTINUOUS
 62
    4
 10
1605.1305317111978
 20
1427.5
 11
1585.1305317111978
 21
1427.5
  0
TEXT
  8
_0-1_
 62
    7
 10
1577.4905317111979
 20
1431.5
 40
28
 41
0.6285714285714286
 50
0
  1
２０
  0
LINE
  8
_0-1_
  6
CONTINUOUS
 62
    4
 10
1605.1305317111978
 20
1434.5
 11
1605.1305317111978
 21
1367.5
  0
LINE
  8
_0-1_
  6
CONTINUOUS
 62
    4
 10
1585.1305317111978
 20
1434.5
 11
1585.1305317111978
 21
1367.5
  0
POINT
  8
_0-1_
 62
    3
 10
1605.1305317111978
 20
861.5
  0
POINT
  8
_0-1_
 62
    3
 10
1580.1305317111978
 20
861.5
  0
LINE
  8
_0-1_
  6
CONTINUOUS
 62
    4
 10
1605.1305317111978
 20
861.5
 11
1580.1305317111978
 21
861.5
  0
TEXT
  8
_0-1_
 62
    7
 10
1574.9905317111979
 20
865.5
 40
28
 41
0.6285714285714286
 50
0
  1
２５
  0
LINE
  8
_0-1_
  6
CONTINUOUS
 62
    4
 10
1605.1305317111978
 20
868.5
 11
1605.1305317111978
 21
801.5
  0
LINE
  8
_0-1_
  6
CONTINUOUS
 62
    4
 10
1580.1305317111978
 20
868.5
 11
1580.1305317111978
 21
801.5
  0
LINE
  8
ADD_LINE
  6
DOT
 62
    9
 10
1624.018934715539
 20
1367.5
 11
1667.7221842556985
 21
1367.5
  0
LINE
  8
ADD_LINE
  6
DOT
 62
    9
 10
1622.6198128083827
 20
801.5
 11
1666.3230623485422
 21
801.5
  0
LINE
  8
_2-0_
  6
CONTINUOUS
 62
    3
 10
568.48068669527902
 20
2012.5000000000005
 11
568.48068669527902
 21
1724.5000000000002
  0
TEXT
  8
_2-0_
 62
    7
 10
211.87875351971707
 20
1754.5000000000002
 40
36
 41
0.6666666666666666
 50
0
  1
ＢＧ５－８０－６０
  0
TEXT
  8
_2-0_
 62
    7
 10
211.87875351971707
 20
1850.5000000000005
 40
36
 41
0.6666666666666666
 50
0
  1
ＢＧ５－８０－７０
  0
LINE
  8
ADD_LINE
  6
DOT
 62
    9
 10
366.17972010749781
 20
2012.5000000000005
 11
366.17972010749781
 21
1916.5000000000005
  0
LINE
  8
ADD_LINE
  6
DOT
 62
    9
 10
211.87875351971707
 20
1916.5000000000005
 11
211.87875351971707
 21
1724.5000000000002
  0
LINE
  8
_2-0_
  6
CONTINUOUS
 62
    3
 10
163.87875351971707
 20
2012.5000000000005
 11
163.87875351971707
 21
1724.5000000000002
  0
LINE
  8
_2-0_
  6
CONTINUOUS
 62
    3
 10
163.87875351971707
 20
2012.5000000000005
 11
568.48068669527902
 21
2012.5000000000005
  0
LINE
  8
ADD_LINE
  6
DOT
 62
    9
 10
163.87875351971707
 20
1964.5000000000005
 11
568.48068669527902
 21
1964.5000000000005
  0
LINE
  8
_2-0_
  6
CONTINUOUS
 62
    3
 10
163.87875351971707
 20
1916.5000000000005
 11
568.48068669527902
 21
1916.5000000000005
  0
LINE
  8
_2-0_
  6
CONTINUOUS
 62
    3
 10
163.87875351971707
 20
1724.5000000000002
 11
568.48068669527902
 21
1724.5000000000002
  0
LINE
  8
ADD_LINE
  6
DOT
 62
    9
 10
163.87875351971707
 20
1772.5000000000002
 11
568.48068669527902
 21
1772.5000000000002
  0
LINE
  8
ADD_LINE
  6
DOT
 62
    9
 10
163.87875351971707
 20
1868.5000000000005
 11
568.48068669527902
 21
1868.5000000000005
  0
LINE
  8
_2-0_
  6
CONTINUOUS
 62
    3
 10
163.87875351971707
 20
1820.5000000000002
 11
568.48068669527902
 21
1820.5000000000002
  0
TEXT
  8
_2-0_
 62
    7
 10
306.17972010749781
 20
1946.5000000000005
 40
36
 41
0.6666666666666666
 50
0
  1
対象品名
  0
LINE
  8
_2-0_
  6
CONTINUOUS
 62
    3
 10
568.48068669527902
 20
1346.5
 11
568.48068669527902
 21
1058.4999999999998
  0
LINE
  8
ADD_LINE
  6
DOT
 62
    9
 10
366.17972010749781
 20
1346.5
 11
366.17972010749781
 21
1250.5
  0
LINE
  8
ADD_LINE
  6
DOT
 62
    9
 10
211.87875351971707
 20
1250.5
 11
211.87875351971707
 21
1058.4999999999998
  0
LINE
  8
_2-0_
  6
CONTINUOUS
 62
    3
 10
163.87875351971707
 20
1346.5
 11
163.87875351971707
 21
1058.4999999999998
  0
LINE
  8
_2-0_
  6
CONTINUOUS
 62
    3
 10
163.87875351971707
 20
1346.5
 11
568.48068669527902
 21
1346.5
  0
LINE
  8
ADD_LINE
  6
DOT
 62
    9
 10
163.87875351971707
 20
1298.5
 11
568.48068669527902
 21
1298.5
  0
LINE
  8
_2-0_
  6
CONTINUOUS
 62
    3
 10
163.87875351971707
 20
1250.5
 11
568.48068669527902
 21
1250.5
  0
LINE
  8
_2-0_
  6
CONTINUOUS
 62
    3
 10
163.87875351971707
 20
1058.4999999999998
 11
568.48068669527902
 21
1058.4999999999998
  0
LINE
  8
ADD_LINE
  6
DOT
 62
    9
 10
163.87875351971707
 20
1106.4999999999998
 11
568.48068669527902
 21
1106.4999999999998
  0
LINE
  8
ADD_LINE
  6
DOT
 62
    9
 10
163.87875351971707
 20
1202.5
 11
568.48068669527902
 21
1202.5
  0
LINE
  8
_2-0_
  6
CONTINUOUS
 62
    3
 10
163.87875351971707
 20
1154.4999999999998
 11
568.48068669527902
 21
1154.4999999999998
  0
TEXT
  8
_2-0_
 62
    7
 10
211.87875351971707
 20
1184.5
 40
36
 41
0.6666666666666666
 50
0
  1
ＢＧ５－８５－７０
  0
TEXT
  8
_2-0_
 62
    7
 10
211.87875351971707
 20
1088.4999999999998
 40
36
 41
0.6666666666666666
 50
0
  1
ＢＧ５－８５－６０
  0
TEXT
  8
_2-0_
 62
    7
 10
306.17972010749781
 20
1280.5
 40
36
 41
0.6666666666666666
 50
0
  1
対象品名
  0
LINE
  8
_2-0_
  6
CONTINUOUS
 62
    3
 10
568.48068669527902
 20
780.5
 11
568.48068669527902
 21
492.49999999999977
  0
LINE
  8
ADD_LINE
  6
DOT
 62
    9
 10
366.17972010749781
 20
780.5
 11
366.17972010749781
 21
684.5
  0
LINE
  8
ADD_LINE
  6
DOT
 62
    9
 10
211.87875351971707
 20
684.5
 11
211.87875351971707
 21
492.49999999999977
  0
LINE
  8
_2-0_
  6
CONTINUOUS
 62
    3
 10
163.87875351971707
 20
780.5
 11
163.87875351971707
 21
492.49999999999977
  0
LINE
  8
_2-0_
  6
CONTINUOUS
 62
    3
 10
163.87875351971707
 20
780.5
 11
568.48068669527902
 21
780.5
  0
LINE
  8
ADD_LINE
  6
DOT
 62
    9
 10
163.87875351971707
 20
732.5
 11
568.48068669527902
 21
732.5
  0
LINE
  8
_2-0_
  6
CONTINUOUS
 62
    3
 10
163.87875351971707
 20
684.5
 11
568.48068669527902
 21
684.5
  0
LINE
  8
_2-0_
  6
CONTINUOUS
 62
    3
 10
163.87875351971707
 20
492.49999999999977
 11
568.48068669527902
 21
492.49999999999977
  0
LINE
  8
ADD_LINE
  6
DOT
 62
    9
 10
163.87875351971707
 20
540.49999999999977
 11
568.48068669527902
 21
540.49999999999977
  0
LINE
  8
ADD_LINE
  6
DOT
 62
    9
 10
163.87875351971707
 20
636.5
 11
568.48068669527902
 21
636.5
  0
LINE
  8
_2-0_
  6
CONTINUOUS
 62
    3
 10
163.87875351971707
 20
588.49999999999977
 11
568.48068669527902
 21
588.49999999999977
  0
TEXT
  8
_2-0_
 62
    7
 10
211.87875351971707
 20
618.5
 40
36
 41
0.6666666666666666
 50
0
  1
ＢＧ４－８０－７０
  0
TEXT
  8
_2-0_
 62
    7
 10
211.87875351971707
 20
522.49999999999977
 40
36
 41
0.6666666666666666
 50
0
  1
ＢＧ４－８０－６０
  0
TEXT
  8
_2-0_
 62
    7
 10
306.17972010749781
 20
714.5
 40
36
 41
0.6666666666666666
 50
0
  1
対象品名
  0
LINE
  8
_2-0_
  6
CONTINUOUS
 62
    3
 10
2359.7324648867598
 20
780.5
 11
2359.7324648867598
 21
492.49999999999977
  0
LINE
  8
ADD_LINE
  6
DOT
 62
    9
 10
2157.4314982989786
 20
780.5
 11
2157.4314982989786
 21
684.5
  0
LINE
  8
ADD_LINE
  6
DOT
 62
    9
 10
2003.1305317111978
 20
684.5
 11
2003.1305317111978
 21
492.49999999999977
  0
LINE
  8
_2-0_
  6
CONTINUOUS
 62
    3
 10
1955.1305317111978
 20
780.5
 11
1955.1305317111978
 21
492.49999999999977
  0
LINE
  8
_2-0_
  6
CONTINUOUS
 62
    3
 10
1955.1305317111978
 20
780.5
 11
2359.7324648867598
 21
780.5
  0
LINE
  8
ADD_LINE
  6
DOT
 62
    9
 10
1955.1305317111978
 20
732.5
 11
2359.7324648867598
 21
732.5
  0
LINE
  8
_2-0_
  6
CONTINUOUS
 62
    3
 10
1955.1305317111978
 20
684.5
 11
2359.7324648867598
 21
684.5
  0
LINE
  8
_2-0_
  6
CONTINUOUS
 62
    3
 10
1955.1305317111978
 20
492.49999999999977
 11
2359.7324648867598
 21
492.49999999999977
  0
LINE
  8
ADD_LINE
  6
DOT
 62
    9
 10
1955.1305317111978
 20
540.49999999999977
 11
2359.7324648867598
 21
540.49999999999977
  0
LINE
  8
ADD_LINE
  6
DOT
 62
    9
 10
1955.1305317111978
 20
636.5
 11
2359.7324648867598
 21
636.5
  0
LINE
  8
_2-0_
  6
CONTINUOUS
 62
    3
 10
1955.1305317111978
 20
588.49999999999977
 11
2359.7324648867598
 21
588.49999999999977
  0
TEXT
  8
_2-0_
 62
    7
 10
2097.4314982989786
 20
714.5
 40
36
 41
0.6666666666666666
 50
0
  1
対象品名
  0
TEXT
  8
_2-0_
 62
    7
 10
2003.1305317111978
 20
618.5
 40
36
 41
0.6666666666666666
 50
0
  1
ＢＧ４－８０－４０
  0
TEXT
  8
_2-0_
 62
    7
 10
2003.1305317111978
 20
522.49999999999977
 40
36
 41
0.6666666666666666
 50
0
  1
ＢＧ４－８０－３５
  0
LINE
  8
_1-2_
  6
CONTINUOUS
 62
    4
 10
2901.2462013390632
 20
1264.0488781882768
 11
2929.6839965649706
 21
1292.4866734141842
  0
LINE
  8
_1-2_
  6
CONTINUOUS
 62
    4
 10
2872.9619300915892
 20
1264.0488781882696
 11
2912.9619300915883
 21
1304.0488781882686
  0
LINE
  8
_1-2_
  6
CONTINUOUS
 62
    4
 10
2844.6776588441253
 20
1264.0488781882723
 11
2884.6776588441244
 21
1304.0488781882714
  0
LINE
  8
_1-2_
  6
CONTINUOUS
 62
    4
 10
2816.3933875966613
 20
1264.0488781882746
 11
2856.3933875966604
 21
1304.0488781882736
  0
LINE
  8
_1-2_
  6
CONTINUOUS
 62
    4
 10
2788.1091163491965
 20
1264.0488781882773
 11
2828.1091163491965
 21
1304.0488781882768
  0
LINE
  8
_1-2_
  6
CONTINUOUS
 62
    4
 10
2759.8248451017698
 20
1264.0488781882796
 11
2799.8248451017698
 21
1304.04887818828
  0
LINE
  8
_1-2_
  6
CONTINUOUS
 62
    4
 10
2731.5405738543041
 20
1264.0488781882818
 11
2771.5405738543041
 21
1304.0488781882818
  0
LINE
  8
_1-2_
  6
CONTINUOUS
 62
    4
 10
2703.2563026068301
 20
1264.0488781882736
 11
2743.2563026068301
 21
1304.0488781882736
  0
LINE
  8
_1-2_
  6
CONTINUOUS
 62
    4
 10
2674.9720313593593
 20
1264.04887818827
 11
2714.9720313593589
 21
1304.0488781882691
  0
LINE
  8
_1-2_
  6
CONTINUOUS
 62
    4
 10
2646.6877601118954
 20
1264.0488781882723
 11
2686.6877601118945
 21
1304.0488781882714
  0
LINE
  8
_1-2_
  6
CONTINUOUS
 62
    4
 10
2618.4034888644314
 20
1264.048878188275
 11
2658.4034888644305
 21
1304.0488781882746
  0
LINE
  8
_1-2_
  6
CONTINUOUS
 62
    4
 10
2590.1192176169675
 20
1264.0488781882777
 11
2630.1192176169666
 21
1304.0488781882768
  0
LINE
  8
_1-2_
  6
CONTINUOUS
 62
    4
 10
2561.8349463695035
 20
1264.0488781882805
 11
2601.8349463695026
 21
1304.0488781882796
  0
LINE
  8
_1-2_
  6
CONTINUOUS
 62
    4
 10
2533.5506751220714
 20
1264.0488781882791
 11
2573.5506751220714
 21
1304.0488781882791
  0
LINE
  8
_1-2_
  6
CONTINUOUS
 62
    7
 10
2929.6839965649651
 20
1304.0488781882818
 11
2929.6839965649651
 21
1844.0488781882818
  0
LINE
  8
_1-2_
  6
CONTINUOUS
 62
    7
 10
2929.6839965649651
 20
1304.0488781882818
 11
2869.6839965649651
 21
1304.0488781882818
  0
ARC
  8
_1-2_
  6
CONTINUOUS
 62
    7
 10
2908.9437633547677
 20
1824.0625815129465
 40
20
 50
92.121096396660391
 51
179.99999999999307
  0
LINE
  8
_1-2_
  6
CONTINUOUS
 62
    7
 10
2888.9985578753158
 20
1825.5420335677388
 11
2869.6839965649651
 21
1304.0488781882818
  0
LINE
  8
_1-2_
  6
CONTINUOUS
 62
    7
 10
2929.6839965649651
 20
1844.0488781882818
 11
2908.2035301445712
 21
1844.0488781882818
  0
LINE
  8
ADD_LINE
  6
DOT
 62
    9
 10
2910.683996564966
 20
1304.0488781882818
 11
2930.683996564966
 21
1304.0488781882818
  0
LINE
  8
_1-2_
  6
CONTINUOUS
 62
    7
 10
2929.6839965649651
 20
1236.0488781882818
 11
2929.6839965649651
 21
1324.0488781882818
  0
LINE
  8
_1-2_
  6
CONTINUOUS
 62
    4
 10
2929.5304725865271
 20
1283.2464909511464
 11
2929.6839965649724
 21
1283.4000149295916
  0
LINE
  8
ADD_LINE
  6
DOT
 62
    9
 10
2961.6839965649651
 20
1287.2464909511536
 11
2955.6839965649651
 21
1287.2464909511536
  0
LINE
  8
ADD_LINE
  6
DOT
 62
    9
 10
2959.6839965649651
 20
1287.2464909511536
 11
2931.6839965649651
 21
1287.2464909511536
  0
LINE
  8
_1-2_
  6
CONTINUOUS
 62
    4
 10
2959.6839965649651
 20
1281.2464909511536
 11
2961.6839965649651
 21
1281.2464909511536
  0
LINE
  8
_1-2_
  6
CONTINUOUS
 62
    4
 10
2961.6839965649651
 20
1281.2464909511536
 11
2961.6839965649651
 21
1293.2464909511536
  0
LINE
  8
_1-2_
  6
CONTINUOUS
 62
    4
 10
2961.6839965649651
 20
1293.2464909511536
 11
2959.6839965649651
 21
1293.2464909511536
  0
LINE
  8
_1-2_
  6
CONTINUOUS
 62
    4
 10
2959.6839965649651
 20
1293.2464909511536
 11
2959.6839965649651
 21
1281.2464909511536
  0
LINE
  8
_1-2_
  6
CONTINUOUS
 62
    4
 10
2961.6839965649651
 20
1293.2464909511536
 11
2961.6839965649651
 21
1287.2464909511536
  0
LINE
  8
_1-2_
  6
CONTINUOUS
 62
    4
 10
2959.6839965649651
 20
1287.2464909511536
 11
2959.6839965649651
 21
1289.7464909511532
  0
LINE
  8
_1-2_
  6
CONTINUOUS
 62
    4
 10
2959.6839965649651
 20
1287.2464909511536
 11
2959.6839965649651
 21
1284.7464909511536
  0
LINE
  8
_1-2_
  6
CONTINUOUS
 62
    4
 10
2959.6839965649651
 20
1289.7464909511532
 11
2939.6839965649651
 21
1289.7464909511532
  0
LINE
  8
_1-2_
  6
CONTINUOUS
 62
    4
 10
2959.6839965649651
 20
1284.7464909511536
 11
2939.6839965649651
 21
1284.7464909511536
  0
LINE
  8
_1-2_
  6
CONTINUOUS
 62
    4
 10
2939.6839965649651
 20
1289.7464909511532
 11
2931.6839965649651
 21
1287.2464909511536
  0
LINE
  8
_1-2_
  6
CONTINUOUS
 62
    4
 10
2931.6839965649651
 20
1287.2464909511536
 11
2939.6839965649651
 21
1284.7464909511536
  0
LINE
  8
_1-2_
  6
CONTINUOUS
 62
    4
 10
2949.1815592353641
 20
1284.7464909511541
 11
2950.5213051975197
 21
1289.7464909511541
  0
LINE
  8
_1-2_
  6
CONTINUOUS
 62
    4
 10
2959.5343210394649
 20
1284.7464909511541
 11
2959.6839965649642
 21
1285.3050876169668
  0
LINE
  8
_1-2_
  6
CONTINUOUS
 62
    4
 10
2949.1815592353641
 20
1284.7464909511541
 11
2950.5213051975197
 21
1289.7464909511541
  0
LINE
  8
_1-2_
  6
CONTINUOUS
 62
    4
 10
2938.8948739233128
 20
1284.9930917766701
 11
2940.168543393419
 21
1289.7464909511546
  0
LINE
  8
_1-2_
  6
CONTINUOUS
 62
    4
 10
2959.5343210394649
 20
1284.7464909511541
 11
2959.6839965649642
 21
1285.3050876169668
  0
LINE
  8
_1-2_
  6
CONTINUOUS
 62
    4
 10
2958.4990448590634
 20
1284.7464909511559
 11
2959.6839965649579
 21
1289.1687909220664
  0
LINE
  8
_1-2_
  6
CONTINUOUS
 62
    4
 10
2957.4637686786427
 20
1284.7464909511546
 11
2958.8035146407983
 21
1289.7464909511546
  0
LINE
  8
_1-2_
  6
CONTINUOUS
 62
    4
 10
2956.4284924982412
 20
1284.7464909511541
 11
2957.7682384603968
 21
1289.7464909511546
  0
LINE
  8
_1-2_
  6
CONTINUOUS
 62
    4
 10
2955.3932163178297
 20
1284.7464909511546
 11
2956.7329622799862
 21
1289.7464909511546
  0
LINE
  8
_1-2_
  6
CONTINUOUS
 62
    4
 10
2954.3579401374191
 20
1284.746490951155
 11
2955.6976860995746
 21
1289.746490951155
  0
LINE
  8
_1-2_
  6
CONTINUOUS
 62
    4
 10
2953.3226639570084
 20
1284.746490951155
 11
2954.6624099191631
 21
1289.7464909511532
  0
LINE
  8
_1-2_
  6
CONTINUOUS
 62
    4
 10
2952.2873877765969
 20
1284.7464909511536
 11
2953.6271337387525
 21
1289.7464909511532
  0
LINE
  8
_1-2_
  6
CONTINUOUS
 62
    4
 10
2951.2521115961863
 20
1284.7464909511559
 11
2952.5918575583419
 21
1289.7464909511559
  0
LINE
  8
_1-2_
  6
CONTINUOUS
 62
    4
 10
2950.2168354157848
 20
1284.7464909511555
 11
2951.5565813779394
 21
1289.7464909511536
  0
LINE
  8
_1-2_
  6
CONTINUOUS
 62
    4
 10
2949.1815592353641
 20
1284.7464909511541
 11
2950.5213051975197
 21
1289.7464909511541
  0
LINE
  8
_1-2_
  6
CONTINUOUS
 62
    4
 10
2948.1462830549626
 20
1284.746490951155
 11
2949.4860290171182
 21
1289.746490951155
  0
LINE
  8
_1-2_
  6
CONTINUOUS
 62
    4
 10
2947.111006874542
 20
1284.746490951155
 11
2948.4507528366976
 21
1289.7464909511546
  0
LINE
  8
_1-2_
  6
CONTINUOUS
 62
    4
 10
2946.0757306941405
 20
1284.7464909511546
 11
2947.4154766562961
 21
1289.7464909511546
  0
LINE
  8
_1-2_
  6
CONTINUOUS
 62
    4
 10
2945.0404545137289
 20
1284.7464909511536
 11
2946.3802004758845
 21
1289.7464909511536
  0
LINE
  8
_1-2_
  6
CONTINUOUS
 62
    4
 10
2944.0051783333183
 20
1284.746490951155
 11
2945.3449242954739
 21
1289.746490951155
  0
LINE
  8
_1-2_
  6
CONTINUOUS
 62
    4
 10
2942.9699021529077
 20
1284.7464909511555
 11
2944.3096481150633
 21
1289.7464909511555
  0
LINE
  8
_1-2_
  6
CONTINUOUS
 62
    4
 10
2941.9346259725053
 20
1284.7464909511536
 11
2943.2743719346608
 21
1289.7464909511532
  0
LINE
  8
_1-2_
  6
CONTINUOUS
 62
    4
 10
2940.8993497920846
 20
1284.7464909511541
 11
2942.2390957542411
 21
1289.7464909511541
  0
LINE
  8
_1-2_
  6
CONTINUOUS
 62
    4
 10
2939.864073611684
 20
1284.7464909511559
 11
2941.2038195738396
 21
1289.7464909511559
  0
LINE
  8
_1-2_
  6
CONTINUOUS
 62
    4
 10
2938.8948739233128
 20
1284.9930917766701
 11
2940.168543393419
 21
1289.7464909511546
  0
LINE
  8
_1-2_
  6
CONTINUOUS
 62
    4
 10
2937.9395877892148
 20
1285.2916186935754
 11
2939.0829381106969
 21
1289.558660184196
  0
LINE
  8
_1-2_
  6
CONTINUOUS
 62
    4
 10
2936.9843016551085
 20
1285.5901456104839
 11
2937.9530518997335
 21
1289.2055707432696
  0
LINE
  8
_1-2_
  6
CONTINUOUS
 62
    4
 10
2936.0290155210023
 20
1285.8886725273924
 11
2936.8231656887701
 21
1288.8524813023432
  0
LINE
  8
_1-2_
  6
CONTINUOUS
 62
    4
 10
2935.0737293868951
 20
1286.1871994443004
 11
2935.6932794778077
 21
1288.4993918614191
  0
LINE
  8
_1-2_
  6
CONTINUOUS
 62
    4
 10
2934.1184432527889
 20
1286.4857263612089
 11
2934.5633932668434
 21
1288.1463024204891
  0
LINE
  8
_1-2_
  6
CONTINUOUS
 62
    4
 10
2933.1631571186826
 20
1286.7842532781174
 11
2933.4335070558809
 21
1287.793212979564
  0
LINE
  8
_1-2_
  6
CONTINUOUS
 62
    4
 10
2932.2078709845846
 20
1287.0827801950231
 11
2932.3036208449275
 21
1287.4401235386404
  0
LINE
  8
_1-2_
  6
CONTINUOUS
 62
    7
 10
3021.2308596586918
 20
1241.7123278828276
 11
2961.6839965649651
 21
1287.2464909511536
  0
LINE
  8
_1-2_
  6
CONTINUOUS
 62
    4
 10
2929.6839965649651
 20
1304.0488781882818
 11
2545.266403874607
 21
1304.0488781882818
  0
LINE
  8
_1-2_
  6
CONTINUOUS
 62
    4
 10
2929.6839965649651
 20
1264.0488781882818
 11
2533.5506751220714
 21
1264.0488781882818
  0
LINE
  8
_1-2_
  6
CONTINUOUS
 62
    4
 10
2929.6839965649651
 20
1062.9329983599555
 11
2929.6839965649651
 21
1304.0488781882818
  0
TEXT
  8
_1-2_
 62
    7
 10
3023.1625295879458
 20
1254.6649514259543
 40
28
 41
0.8571428571428571
 50
0
  1
ドリルネジ
  0
LINE
  8
_1-2_
  6
CONTINUOUS
 62
    7
 10
3021.2308596586918
 20
1241.7123278828276
 11
3159.0552518705445
 21
1241.7123278828276
  0
TEXT
  8
_1-2_
 62
    7
 10
2531.2352515021457
 20
1805.1905090895693
 40
40
 41
1
 50
0
  1
取付例
  0
LINE
  8
_1-2_
  6
CONTINUOUS
 62
    4
 10
2495.5442643776823
 20
1901.6711957848484
 11
3283.2953373390555
 21
1901.6711957848484
  0
LINE
  8
_1-2_
  6
CONTINUOUS
 62
    4
 10
3283.2953373390555
 20
1901.6711957848484
 11
3283.2953373390555
 21
1004.2978052269084
  0
LINE
  8
_1-2_
  6
CONTINUOUS
 62
    4
 10
3283.2953373390555
 20
1004.2978052269084
 11
2495.5442643776823
 21
1004.2978052269084
  0
LINE
  8
_1-2_
  6
CONTINUOUS
 62
    4
 10
2495.5442643776823
 20
1004.2978052269084
 11
2495.5442643776823
 21
1901.6711957848484
  0
LINE
  8
_0-0_
  6
CONTINUOUS
 62
    7
 10
3040.5551291323854
 20
510.5
 11
3065.5551291323854
 21
510.5
  0
LINE
  8
_0-0_
  6
CONTINUOUS
 62
    7
 10
3065.0551291323854
 20
506
 11
3065.0551291323854
 21
510.5
  0
LINE
  8
_0-0_
  6
CONTINUOUS
 62
    7
 10
3065.5551291323854
 20
492.5
 11
3065.5551291323854
 21
499.00000000000011
  0
LINE
  8
_0-0_
  6
CONTINUOUS
 62
    7
 10
3065.0551291323854
 20
492.5
 11
3065.0551291323854
 21
499.00000000000011
  0
LINE
  8
_0-0_
  6
CONTINUOUS
 62
    7
 10
3065.0551291323854
 20
492.5
 11
3065.5551291323854
 21
492.5
  0
LINE
  8
_0-0_
  6
DASHED1
 62
    7
 10
3065.5551291323854
 20
506
 11
3065.5551291323854
 21
499.00000000000011
  0
LINE
  8
_0-0_
  6
DASHED1
 62
    7
 10
3065.0551291323854
 20
499.00000000000011
 11
3065.0551291323854
 21
506
  0
LINE
  8
_0-0_
  6
DASHED1
 62
    7
 10
3065.0551291323854
 20
506
 11
3065.5551291323854
 21
506
  0
LINE
  8
_0-0_
  6
DASHED1
 62
    7
 10
3065.0551291323854
 20
499.00000000000011
 11
3065.5551291323854
 21
499.00000000000011
  0
LINE
  8
_0-0_
  6
CONTINUOUS
 62
    7
 10
2478.1324648867599
 20
510.5
 11
2878.1324648867594
 21
510.5
  0
LINE
  8
_0-0_
  6
CONTINUOUS
 62
    7
 10
2878.1324648867594
 20
510.5
 11
2878.1324648867594
 21
670.5
  0
LINE
  8
_0-0_
  6
CONTINUOUS
 62
    7
 10
2878.1324648867594
 20
670.5
 11
2478.1324648867599
 21
670.5
  0
LINE
  8
_0-0_
  6
CONTINUOUS
 62
    7
 10
2478.1324648867599
 20
670.5
 11
2478.1324648867599
 21
510.5
  0
ARC
  8
_0-0_
  6
CONTINUOUS
 62
    7
 10
3048.5551291323854
 20
662.5
 40
8.0000000000000018
 50
90
 51
180
  0
LINE
  8
_0-0_
  6
CONTINUOUS
 62
    7
 10
3048.5551291323854
 20
670.5
 11
3065.5551291323854
 21
670.5
  0
LINE
  8
_0-0_
  6
CONTINUOUS
 62
    7
 10
3040.5551291323854
 20
510.5
 11
3040.5551291323854
 21
662.5
  0
LINE
  8
_0-0_
  6
CONTINUOUS
 62
    7
 10
3065.5551291323854
 20
506
 11
3065.5551291323854
 21
670.5
  0
LINE
  8
_0-0_
  6
CONTINUOUS
 62
    7
 10
2488.1324648867594
 20
510.5
 11
2488.1324648867594
 21
492.5
  0
LINE
  8
_0-0_
  6
CONTINUOUS
 62
    7
 10
2868.1324648867594
 20
492.5
 11
2488.1324648867594
 21
492.5
  0
LINE
  8
_0-0_
  6
CONTINUOUS
 62
    7
 10
2868.1324648867594
 20
492.5
 11
2868.1324648867594
 21
510.5
  0
LINE
  8
ADD_LINE
  6
DOT
 62
    9
 10
3076.5295526946029
 20
700.5
 11
3095.8138460136915
 21
700.5
  0
LINE
  8
ADD_LINE
  6
DOT
 62
    9
 10
3076.5295526946029
 20
760.5
 11
3095.8138460136915
 21
760.5
  0
LINE
  8
ADD_LINE
  6
DOT
 62
    9
 10
2415.5487738996353
 20
402.5
 11
2458.8878296936268
 21
402.5
  0
LINE
  8
ADD_LINE
  6
DOT
 62
    9
 10
2415.5487738996353
 20
342.5
 11
2458.8878296936268
 21
342.5
  0
LINE
  8
ADD_LINE
  6
DOT
 62
    9
 10
2478.1324648867599
 20
462.5
 11
2878.1324648867594
 21
462.5
  0
POINT
  8
_0-1_
 62
    3
 10
2488.1324648867594
 20
402.5
  0
POINT
  8
_0-1_
 62
    3
 10
2868.1324648867594
 20
402.5
  0
LINE
  8
_0-1_
  6
CONTINUOUS
 62
    4
 10
2488.1324648867594
 20
394.5
 11
2488.1324648867594
 21
462.5
  0
LINE
  8
_0-1_
  6
CONTINUOUS
 62
    4
 10
2868.1324648867594
 20
394.5
 11
2868.1324648867594
 21
462.5
  0
POINT
  8
_0-1_
 62
    3
 10
2478.1324648867599
 20
342.5
  0
POINT
  8
_0-1_
 62
    3
 10
2878.1324648867594
 20
342.5
  0
LINE
  8
_0-1_
  6
CONTINUOUS
 62
    4
 10
2478.1324648867599
 20
334.5
 11
2478.1324648867599
 21
462.5
  0
LINE
  8
_0-1_
  6
CONTINUOUS
 62
    4
 10
2878.1324648867594
 20
334.5
 11
2878.1324648867594
 21
462.5
  0
CIRCLE
  8
_0-0_
  6
CONTINUOUS
 62
    7
 10
2525.6744479334975
 20
501.47136281179371
 40
3.5
  0
CIRCLE
  8
_0-0_
  6
CONTINUOUS
 62
    7
 10
2830.674447933497
 20
501.47136281179371
 40
3.5
  0
POINT
  8
_0-1_
 62
    3
 10
3065.5551291323854
 20
760.5
  0
POINT
  8
_0-1_
 62
    3
 10
3040.5551291323854
 20
760.5
  0
LINE
  8
_0-1_
  6
CONTINUOUS
 62
    4
 10
3065.5551291323854
 20
768.5
 11
3065.5551291323854
 21
700.5
  0
LINE
  8
_0-1_
  6
CONTINUOUS
 62
    4
 10
3040.5551291323854
 20
768.5
 11
3040.5551291323854
 21
700.5
  0
LINE
  8
_0-1_
  6
CONTINUOUS
 62
    4
 10
3065.5551291323854
 20
760.5
 11
3040.5551291323854
 21
760.5
  0
TEXT
  8
_0-1_
 62
    7
 10
3035.4151291323856
 20
764.5
 40
28
 41
0.6285714285714286
 50
0
  1
２５
  0
LINE
  8
_0-1_
  6
CONTINUOUS
 62
    4
 10
2488.1324648867594
 20
402.5
 11
2868.1324648867594
 21
402.5
  0
LINE
  8
_0-1_
  6
CONTINUOUS
 62
    4
 10
2478.1324648867599
 20
342.5
 11
2878.1324648867594
 21
342.5
  0
TEXT
  8
_0-1_
 62
    7
 10
2607.4524648867596
 20
346.5
 40
28
 41
0.6285714285714286
 50
0
  1
４００（３５０）
  0
TEXT
  8
_0-1_
 62
    7
 10
2607.4524648867596
 20
406.5
 40
28
 41
0.6285714285714286
 50
0
  1
３８０（２５０）
  0
LINE
  8
ADD_LINE
  6
DOT
 62
    9
 10
2950.5551291323854
 20
510.5
 11
2950.5551291323854
 21
662.5
  0
POINT
  8
_0-1_
 62
    3
 10
2950.5551291323854
 20
510.5
  0
POINT
  8
_0-1_
 62
    3
 10
2950.5551291323854
 20
670.5
  0
LINE
  8
_0-1_
  6
CONTINUOUS
 62
    4
 10
2942.5551291323854
 20
510.5
 11
3010.555129132385
 21
510.5
  0
LINE
  8
_0-1_
  6
CONTINUOUS
 62
    4
 10
2942.5551291323854
 20
670.5
 11
3010.555129132385
 21
670.5
  0
LINE
  8
_0-1_
  6
CONTINUOUS
 62
    4
 10
2950.5551291323854
 20
510.5
 11
2950.5551291323854
 21
670.5
  0
TEXT
  8
_0-1_
 62
    7
 10
2946.5551291323854
 20
564.01999999999998
 40
28
 41
0.6285714285714286
 50
90
  1
１６０
  0
LINE
  8
ADD_LINE
  6
DOT
 62
    9
 10
3010.555129132385
 20
492.5
 11
3010.555129132385
 21
462.5
  0
LINE
  8
ADD_LINE
  6
DOT
 62
    9
 10
2950.5551291323854
 20
492.5
 11
2950.5551291323854
 21
462.5
  0
TEXT
  8
_f-8_
 62
    7
 10
2288.8000000000002
 20
114
 40
28
 41
0.5714285714285714
 50
0
  1
１／８
  0
ENDSEC
  0
EOF
