  0
SECTION
  2
HEADER
  9
$ACADVER
  1
AC1009
  9
$INSBASE
 10
0
 20
0
 30
0
  9
$EXTMIN
 10
0
 20
0
  9
$EXTMAX
 10
420
 20
297
  9
$LIMMIN
 10
0
 20
0
  9
$LIMMAX
 10
420
 20
297
  9
$LTSCALE
 40
1
  0
ENDSEC
  0
SECTION
  2
TABLES
  0
TABLE
  2
LTYPE
 70
     9
  0
LTYPE
  2
CONTINUOUS
 70
    64
  3
実線
 72
    65
 73
     0
 40
0.0
  0
LTYPE
  2
DASHED1
 70
    64
  3
--  --  --  --  --  --  --  --  
 72
    65
 73
     2
 40
2.5
 49
1.25
 49
-1.25
  0
LTYPE
  2
DASHED2
 70
    64
  3
----    ----    ----    ----    
 72
    65
 73
     2
 40
5.0
 49
2.5
 49
-2.5
  0
LTYPE
  2
DASHED3
 70
    64
  3
------  ------  ------  ------  
 72
    65
 73
     2
 40
5.0
 49
3.75
 49
-1.25
  0
LTYPE
  2
CENTER1
 70
    64
  3
----- - ----- - ----- - ----- - 
 72
    65
 73
     4
 40
10.0
 49
6.25
 49
-1.25
 49
1.25
 49
-1.25
  0
LTYPE
  2
CENTER2
 70
    64
  3
----------  --  ----------  --  
 72
    65
 73
     4
 40
20.0
 49
12.5
 49
-2.5
 49
2.5
 49
-2.5
  0
LTYPE
  2
PHANTOM1
 70
    64
  3
--- - - --- - - --- - - --- - - 
 72
    65
 73
     6
 40
10.0
 49
3.25
 49
-1.25
 49
1.25
 49
-1.25
 49
1.25
 49
-1.25
  0
LTYPE
  2
PHANTOM2
 70
    64
  3
--------  -  -  --------  -  -  
 72
    65
 73
     6
 40
20.0
 49
10.0
 49
-2.5
 49
1.25
 49
-2.5
 49
1.25
 49
-2.5
  0
LTYPE
  2
DOT
 70
    64
  3
-   -   -   -   -   -   -   -   
 72
    65
 73
     2
 40
2.5
 49
0.625
 49
-1.875
  0
LTYPE
  2
DUMMY
 70
    64
  3
ダミー
 72
    65
 73
     0
 40
0.0
  0
LTYPE
  2
RAND1
 70
    64
  3
ランダム線1
 72
    65
 73
     4
 40
10.0
 49
1.0
 49
-2.0
 49
3.0
 49
-4.0
  0
LTYPE
  2
RAND2
 70
    64
  3
ランダム線2
 72
    65
 73
     4
 40
14.0
 49
2.0
 49
-3.0
 49
4.0
 49
-5.0
  0
LTYPE
  2
RAND3
 70
    64
  3
ランダム線3
 72
    65
 73
     4
 40
18.0
 49
3.0
 49
-4.0
 49
5.0
 49
-6.0
  0
LTYPE
  2
RAND4
 70
    64
  3
ランダム線4
 72
    65
 73
     4
 40
22.0
 49
4.0
 49
-5.0
 49
6.0
 49
-7.0
  0
LTYPE
  2
RAND5
 70
    64
  3
ランダム線5
 72
    65
 73
     4
 40
26.0
 49
5.0
 49
-6.0
 49
7.0
 49
-8.0
  0
LTYPE
  2
LONG1
 70
    64
  3
----------  --  ----------  --  
 72
    65
 73
     4
 40
40.0
 49
32.5
 49
-2.5
 49
2.5
 49
-2.5
  0
LTYPE
  2
LONG2
 70
    64
  3
--------  -  -  --------  -  -  
 72
    65
 73
     6
 40
40.0
 49
30.0
 49
-2.5
 49
1.25
 49
-2.5
 49
1.25
 49
-2.5
  0
LTYPE
  2
LONG3
 70
    64
  3
+++++++++++++++..+++++++++++++++
 72
    65
 73
     2
 40
40.0
 49
37.5
 49
-2.5
  0
LTYPE
  2
LONG4
 70
    64
  3
+++++++++++++++..+++++++++++++++
 72
    65
 73
     2
 40
80.0
 49
75.0
 49
-5.0
  0
LTYPE
  2
LONG5
 70
    64
  3
----------  --  ----------  --  
 72
    65
 73
     4
 40
60.0
 49
37.5
 49
-7.5
 49
7.5
 49
-7.5
  0
LTYPE
  2
dashed
 70
   64
  3
-------   -------------   ------
 72
   65
 73
    2
 40
7.5
 49
6
 49
-1.5
  0
LTYPE
  2
dashed_spaced
 70
   64
  3
----        --------        ----
 72
   65
 73
    2
 40
12
 49
6
 49
-6
  0
LTYPE
  2
long_dashed_dotted
 70
   64
  3
------------- --- --------------
 72
   65
 73
    4
 40
15.25
 49
12
 49
-1.5
 49
0.25
 49
-1.5
  0
LTYPE
  2
long_dashed_double-dotted
 70
   64
  3
----------- --- --- ------------
 72
   65
 73
    6
 40
17
 49
12
 49
-1.5
 49
0.25
 49
-1.5
 49
0.25
 49
-1.5
  0
LTYPE
  2
long_dashed_triplicate-dotted
 70
   64
  3
--------- --- --- --- ----------
 72
   65
 73
    8
 40
18.75
 49
12
 49
-1.5
 49
0.25
 49
-1.5
 49
0.25
 49
-1.5
 49
0.25
 49
-1.5
  0
LTYPE
  2
dotted
 70
   64
  3
   -       -       -       -    
 72
   65
 73
    2
 40
1.75
 49
0.25
 49
-1.5
  0
LTYPE
  2
chain
 70
   64
  3
-------------- -- --------------
 72
   65
 73
    4
 40
18.5
 49
12
 49
-1.5
 49
3.5
 49
-1.5
  0
LTYPE
  2
chain_double_dash
 70
   64
  3
------------ -- -- -------------
 72
   65
 73
    6
 40
23.5
 49
12
 49
-1.5
 49
3.5
 49
-1.5
 49
3.5
 49
-1.5
  0
LTYPE
  2
dashed_dotted
 70
   64
  3
-----------     -     ----------
 72
   65
 73
    4
 40
9.25
 49
6
 49
-1.5
 49
0.25
 49
-1.5
  0
LTYPE
  2
double-dashed_dotted
 70
   64
  3
------   -----------   -   -----
 72
   65
 73
    6
 40
16.75
 49
6
 49
-1.5
 49
6
 49
-1.5
 49
0.25
 49
-1.5
  0
LTYPE
  2
dashed_double-dotted
 70
   64
  3
---------    -    -    ---------
 72
   65
 73
    6
 40
11
 49
6
 49
-1.5
 49
0.25
 49
-1.5
 49
0.25
 49
-1.5
  0
LTYPE
  2
double-dashed_double-dotted
 70
   64
  3
-----   ---------   -   -   ----
 72
   65
 73
    8
 40
18.5
 49
6
 49
-1.5
 49
6
 49
-1.5
 49
0.25
 49
-1.5
 49
0.25
 49
-1.5
  0
LTYPE
  2
dashed_triplicate-dotted
 70
   64
  3
-------    -    -    -    ------
 72
   65
 73
    8
 40
12.75
 49
6
 49
-1.5
 49
0.25
 49
-1.5
 49
0.25
 49
-1.5
 49
0.25
 49
-1.5
  0
LTYPE
  2
double-dashed_triplicate-dotted
 70
   64
  3
-----  ---------  -  -  -  -----
 72
   65
 73
   10
 40
20.25
 49
6
 49
-1.5
 49
6
 49
-1.5
 49
0.25
 49
-1.5
 49
0.25
 49
-1.5
 49
0.25
 49
-1.5
  0
LTYPE
  2
undefined
 70
   64
  3
--------------------------------
 72
   65
 73
    0
 40
0
  0
LTYPE
  2
_
 70
   64
  3
                                
 72
   65
 73
    0
 40
0
  0
LTYPE
  2
__18
 70
   64
  3
                                
 72
   65
 73
    0
 40
0
  0
LTYPE
  2
__19
 70
   64
  3
                                
 72
   65
 73
    0
 40
0
  0
LTYPE
  2
__20
 70
   64
  3
                                
 72
   65
 73
    0
 40
0
  0
LTYPE
  2
__21
 70
   64
  3
                                
 72
   65
 73
    0
 40
0
  0
LTYPE
  2
__22
 70
   64
  3
                                
 72
   65
 73
    0
 40
0
  0
LTYPE
  2
__23
 70
   64
  3
                                
 72
   65
 73
    0
 40
0
  0
LTYPE
  2
__24
 70
   64
  3
                                
 72
   65
 73
    0
 40
0
  0
LTYPE
  2
__25
 70
   64
  3
                                
 72
   65
 73
    0
 40
0
  0
LTYPE
  2
__26
 70
   64
  3
                                
 72
   65
 73
    0
 40
0
  0
LTYPE
  2
__27
 70
   64
  3
                                
 72
   65
 73
    0
 40
0
  0
LTYPE
  2
__28
 70
   64
  3
                                
 72
   65
 73
    0
 40
0
  0
LTYPE
  2
__29
 70
   64
  3
                                
 72
   65
 73
    0
 40
0
  0
LTYPE
  2
__30
 70
   64
  3
                                
 72
   65
 73
    0
 40
0
  0
LTYPE
  2
__31
 70
   64
  3
                                
 72
   65
 73
    0
 40
0
  0
LTYPE
  2
__32
 70
   64
  3
                                
 72
   65
 73
    0
 40
0
  0
ENDTAB
  0
TABLE
  2
STYLE
  5
3
100
AcDbSymbolTable
 70
     1
  0
STYLE
  5
10
100
AcDbSymbolTableRecord
100
AcDbTextStyleTableRecord
  2
STANDARD
 70
     0
 40
0.0
 41
1.0
 50
0.0
 71
     0
 42
0.2
  3
txt
  4
bigfont.shx
  0
STYLE
  5
26
100
AcDbSymbolTableRecord
100
AcDbTextStyleTableRecord
  2
TATEGAKI
 70
    68
 40
0.0
 41
1.0
 50
0.0
 71
     0
 42
1.0
  3
txt
  4
bigfont.shx
  0
ENDTAB
  0
TABLE
  2
LAYER
 70
    5
  0
LAYER
  2
_0-0_
 70
   64
 62
    7
  6
CONTINUOUS
  0
LAYER
  2
_e-0_
 70
   64
 62
    7
  6
CONTINUOUS
  0
LAYER
  2
_f-0_
 70
   64
 62
    7
  6
CONTINUOUS
  0
LAYER
  2
_f-1_
 70
   64
 62
    7
  6
CONTINUOUS
  0
LAYER
  2
ADD_LINE
 70
   64
 62
    7
  6
CONTINUOUS
  0
ENDTAB
  0
ENDSEC
  0
SECTION
  2
BLOCKS
  0
BLOCK
  2
-000-33-108X-2__35
 70
   64
 10
0
 20
0
 30
0
  0
ENDBLK
  0
BLOCK
  2
-001-33-108X-2__36
 70
   64
 10
0
 20
0
 30
0
  0
ENDBLK
  0
BLOCK
  2
-002-33-108X-2__37
 70
   64
 10
0
 20
0
 30
0
  0
ENDBLK
  0
BLOCK
  2
-003-33-108X-1__38
 70
   64
 10
0
 20
0
 30
0
  0
ENDBLK
  0
BLOCK
  2
-004-33-108AX__39
 70
   64
 10
0
 20
0
 30
0
  0
INSERT
  2
-000-33-108X-2__35
  8
_0-0_
 10
168.91600509140341
 20
31.783929234556684
 41
1
 42
1
 50
0
  0
INSERT
  2
-001-33-108X-2__36
  8
_0-0_
 10
132.41600509140341
 20
525.98791307951501
 41
1
 42
1
 50
0
  0
INSERT
  2
-002-33-108X-2__37
  8
_0-0_
 10
126.65486205156721
 20
31.783929234556684
 41
1
 42
1
 50
0
  0
INSERT
  2
-003-33-108X-1__38
  8
_0-0_
 10
143.78318357148535
 20
194.6808934947878
 41
1
 42
1
 50
0
  0
ENDBLK
  0
BLOCK
  2
-005-33-108X-1__40
 70
   64
 10
0
 20
0
 30
0
  0
ENDBLK
  0
BLOCK
  2
-006-33-108X-2__41
 70
   64
 10
0
 20
0
 30
0
  0
ENDBLK
  0
BLOCK
  2
-007-33-108AX__42
 70
   64
 10
0
 20
0
 30
0
  0
INSERT
  2
-005-33-108X-1__40
  8
_0-0_
 10
151.7876835714853
 20
194.6808934947878
 41
1
 42
1
 50
0
  0
INSERT
  2
-006-33-108X-2__41
  8
_0-0_
 10
168.91600509140341
 20
31.783929234556684
 41
1
 42
1
 50
0
  0
ENDBLK
  0
BLOCK
  2
-008-87-63
 70
   64
 10
0
 20
0
 30
0
  0
ENDBLK
  0
ENDSEC
  0
SECTION
  2
ENTITIES
  0
LINE
  8
_0-0_
  6
CONTINUOUS
 62
    7
 10
366.44719313282144
 20
237.27787056260729
 11
370.29719313282141
 21
237.27787056260729
  0
LINE
  8
_0-0_
  6
CONTINUOUS
 62
    7
 10
101.79719313282141
 20
221.47787056260728
 11
101.79719313282141
 21
235.47787056260728
  0
LINE
  8
_f-0_
  6
CONTINUOUS
 62
    7
 10
63.516368914522616
 20
24.607477417767214
 11
221.51636891452262
 21
24.607477417767214
  0
LINE
  8
ADD_LINE
  6
DOT
 62
    9
 10
15.514868914522566
 20
12.607477417767257
 11
15.514868914522566
 21
9.1074774177672566
  0
LINE
  8
ADD_LINE
  6
DOT
 62
    9
 10
18.514868914522566
 20
12.607477417767257
 11
18.514868914522566
 21
9.1074774823678126
  0
LINE
  8
ADD_LINE
  6
DOT
 62
    9
 10
8.014868914522566
 20
8.1074774177672566
 11
415.01486891452259
 21
8.1074774177672566
  0
LINE
  8
ADD_LINE
  6
DOT
 62
    9
 10
8.014868914522566
 20
290.10747741776726
 11
8.014868914522566
 21
8.1074774177672566
  0
LINE
  8
ADD_LINE
  6
DOT
 62
    9
 10
415.01486891452259
 20
290.10747741776726
 11
8.014868914522566
 21
290.10747741776726
  0
LINE
  8
ADD_LINE
  6
DOT
 62
    9
 10
415.01486891452259
 20
8.1074774177672566
 11
415.01486891452259
 21
290.10747741776726
  0
LINE
  8
_f-0_
  6
CONTINUOUS
 62
    7
 10
63.516368914522616
 20
14.607477417767257
 11
63.516368914522616
 21
24.607477417767214
  0
LINE
  8
ADD_LINE
  6
DOT
 62
    9
 10
17.516368914522616
 20
14.607477417767257
 11
17.516368914522616
 21
24.607477417767214
  0
LINE
  8
ADD_LINE
  6
DOT
 62
    9
 10
61.516368914522616
 20
14.607477417767257
 11
61.516368914522616
 21
24.607477417767214
  0
LINE
  8
_f-0_
  6
CONTINUOUS
 62
    7
 10
17.516368914522616
 20
14.607477417767257
 11
61.516368914522616
 21
14.607477417767257
  0
LINE
  8
_f-0_
  6
CONTINUOUS
 62
    7
 10
17.516368914522616
 20
24.607477417767214
 11
61.516368914522616
 21
24.607477417767214
  0
LINE
  8
_f-0_
  6
CONTINUOUS
 62
    7
 10
142.51636891452262
 20
14.607477417767257
 11
142.51636891452262
 21
24.607477417767214
  0
LINE
  8
_f-0_
  6
CONTINUOUS
 62
    7
 10
221.51636891452262
 20
14.607477417767257
 11
221.51636891452262
 21
24.607477417767214
  0
LINE
  8
_f-0_
  6
CONTINUOUS
 62
    7
 10
222.51636891452262
 20
14.607477417767257
 11
222.51636891452262
 21
24.607477417767214
  0
LINE
  8
_f-0_
  6
CONTINUOUS
 62
    7
 10
63.516368914522616
 20
14.607477417767257
 11
221.51636891452262
 21
14.607477417767257
  0
LINE
  8
_f-0_
  6
CONTINUOUS
 62
    7
 10
271.51636891452262
 20
14.607477417767257
 11
271.51636891452262
 21
24.607477417767214
  0
LINE
  8
_f-0_
  6
CONTINUOUS
 62
    7
 10
272.51636891452262
 20
14.607477417767257
 11
272.51636891452262
 21
24.607477417767214
  0
LINE
  8
_f-0_
  6
CONTINUOUS
 62
    7
 10
222.51636891452262
 20
14.607477417767257
 11
271.51636891452262
 21
14.607477417767257
  0
LINE
  8
_f-0_
  6
CONTINUOUS
 62
    7
 10
222.51636891452262
 20
24.607477417767214
 11
271.51636891452262
 21
24.607477417767214
  0
LINE
  8
_f-0_
  6
CONTINUOUS
 62
    7
 10
302.51636891452262
 20
14.607477417767257
 11
302.51636891452262
 21
24.607477417767214
  0
LINE
  8
_f-0_
  6
CONTINUOUS
 62
    7
 10
332.51636891452267
 20
14.607477417767257
 11
332.51636891452267
 21
24.607477417767214
  0
LINE
  8
_f-0_
  6
CONTINUOUS
 62
    7
 10
370.51636891452262
 20
14.607477417767257
 11
370.51636891452262
 21
24.607477417767214
  0
LINE
  8
_f-0_
  6
CONTINUOUS
 62
    7
 10
272.51636891452262
 20
14.607477417767257
 11
411.51636891452262
 21
14.607477417767257
  0
LINE
  8
_f-0_
  6
CONTINUOUS
 62
    7
 10
411.51636891452262
 20
14.607477417767257
 11
411.51636891452262
 21
24.607477417767214
  0
LINE
  8
_f-0_
  6
CONTINUOUS
 62
    7
 10
272.51636891452262
 20
24.607477417767214
 11
411.51636891452262
 21
24.607477417767214
  0
LINE
  8
_f-0_
  6
CONTINUOUS
 62
  230
 10
413.51636891452262
 20
288.6074774177672
 11
413.51636891452262
 21
12.607477417767257
  0
LINE
  8
_f-0_
  6
CONTINUOUS
 62
  230
 10
15.516368914522616
 20
288.6074774177672
 11
413.51636891452262
 21
288.6074774177672
  0
LINE
  8
_f-0_
  6
CONTINUOUS
 62
  230
 10
15.516368914522616
 20
12.607477417767257
 11
413.51636891452262
 21
12.607477417767257
  0
LINE
  8
_f-0_
  6
CONTINUOUS
 62
  230
 10
15.516368914522616
 20
12.607477417767257
 11
15.516368914522616
 21
288.6074774177672
  0
LINE
  8
ADD_LINE
  6
DOT
 62
    9
 10
63.516368914522616
 20
22.607477417767242
 11
221.51636891452262
 21
22.607477417767242
  0
LINE
  8
ADD_LINE
  6
DOT
 62
    9
 10
272.51636891452262
 20
22.607477417767242
 11
411.51636891452262
 21
22.607477417767242
  0
LINE
  8
ADD_LINE
  6
DOT
 62
    9
 10
274.51636891452262
 20
14.607477417767257
 11
274.51636891452262
 21
24.607477417767214
  0
LINE
  8
ADD_LINE
  6
DOT
 62
    9
 10
304.51636891452262
 20
14.607477417767257
 11
304.51636891452262
 21
24.607477417767214
  0
LINE
  8
ADD_LINE
  6
DOT
 62
    9
 10
334.51636891452262
 20
14.607477417767257
 11
334.51636891452262
 21
24.607477417767214
  0
LINE
  8
ADD_LINE
  6
DOT
 62
    9
 10
372.51636891452262
 20
14.607477417767257
 11
372.51636891452262
 21
24.607477417767214
  0
LINE
  8
ADD_LINE
  6
DOT
 62
    9
 10
145.01636891452262
 20
14.607477417767257
 11
145.01636891452262
 21
24.607477417767214
  0
LINE
  8
ADD_LINE
  6
DOT
 62
    9
 10
66.016368914522616
 20
14.607477417767257
 11
66.016368914522616
 21
24.607477417767214
  0
LINE
  8
ADD_LINE
  6
DOT
 62
    9
 10
366.51636891452262
 20
14.607477417767257
 11
366.51636891452262
 21
24.607477417767214
  0
LINE
  8
ADD_LINE
  6
DOT
 62
    9
 10
272.51636891452262
 20
18.607477417767257
 11
411.51636891452262
 21
18.607477417767257
  0
TEXT
  8
_f-0_
 62
    7
 10
334.51636891452262
 20
21.357477417767242
 40
2.5
 41
0.64
 50
0
  1
ＣＨＥＣＫＥＤ
  0
TEXT
  8
_f-0_
 62
    7
 10
372.51636891452267
 20
21.357477417767242
 40
2.5
 41
0.64
 50
0
  1
ＳＨＥＥＴ　ＮＯ．
  0
TEXT
  8
_f-0_
 62
    7
 10
354.7163689145226
 20
21.357477417767242
 40
2.5
 41
0.64
 50
0
  1
ＤＲＡＷＩＮＧ
  0
LINE
  8
ADD_LINE
  6
DOT
 62
    9
 10
14.016368914522559
 20
9.1074774177672566
 11
14.016368914522559
 21
288.6074774177672
  0
LINE
  8
_f-0_
  6
CONTINUOUS
 62
    7
 10
17.516368914522616
 20
19.607477417767257
 11
61.516368914522616
 21
19.607477417767257
  0
LINE
  8
ADD_LINE
  6
DOT
 62
    9
 10
291.51636891452262
 20
14.607477417767257
 11
291.51636891452262
 21
24.607477417767214
  0
LINE
  8
ADD_LINE
  6
DOT
 62
    9
 10
317.51636891452267
 20
14.607477417767257
 11
317.51636891452267
 21
24.607477417767214
  0
LINE
  8
ADD_LINE
  6
DOT
 62
    9
 10
350.51636891452262
 20
24.607477417767214
 11
350.51636891452262
 21
14.607477417767257
  0
LINE
  8
ADD_LINE
  6
DOT
 62
    9
 10
63.516368914522616
 20
18.607477417767257
 11
221.51636891452262
 21
18.607477417767257
  0
LINE
  8
ADD_LINE
  6
DOT
 62
    9
 10
103.01636891452262
 20
24.607477417767214
 11
103.01636891452262
 21
14.607477417767257
  0
TEXT
  8
_f-0_
 62
    7
 10
274.55376732306468
 20
21.354414717252212
 40
2.5
 41
0.64
 50
0
  1
ＳＣＡＬＥ
  0
TEXT
  8
_f-0_
 62
    7
 10
145.01636891452262
 20
21.357477417767242
 40
2.5
 41
0.8
 50
0
  1
図面名称
  0
TEXT
  8
_f-0_
 62
    7
 10
66.016368914522616
 20
21.357477417767242
 40
2.5
 41
0.8
 50
0
  1
名　称
  0
LINE
  8
ADD_LINE
  6
DOT
 62
    9
 10
182.01636891452262
 20
14.607477417767257
 11
182.01636891452262
 21
24.607477417767214
  0
LINE
  8
_f-0_
  6
CONTINUOUS
 62
    7
 10
217.01636891452262
 20
289.80747741776725
 11
217.13136891452262
 21
290.00747741776729
  0
LINE
  8
_f-0_
  6
CONTINUOUS
 62
    7
 10
216.38036891452262
 20
290.30747741776725
 11
217.01636891452262
 21
289.20747741776722
  0
LINE
  8
_f-0_
  6
CONTINUOUS
 62
    7
 10
217.01636891452262
 20
289.20747741776722
 11
217.65136891452261
 21
290.30747741776725
  0
LINE
  8
_f-0_
  6
CONTINUOUS
 62
    7
 10
217.01636891452262
 20
288.6074774177672
 11
218.17036891452261
 21
290.6074774177672
  0
LINE
  8
_f-0_
  6
CONTINUOUS
 62
    7
 10
215.86136891452261
 20
290.6074774177672
 11
217.01636891452262
 21
288.6074774177672
  0
LINE
  8
_f-0_
  6
CONTINUOUS
 62
    7
 10
218.17036891452261
 20
290.6074774177672
 11
215.86136891452261
 21
290.6074774177672
  0
LINE
  8
_f-0_
  6
CONTINUOUS
 62
    7
 10
216.90036891452263
 20
290.00747741776729
 11
217.01636891452262
 21
289.80747741776725
  0
LINE
  8
_f-0_
  6
CONTINUOUS
 62
    7
 10
217.13136891452262
 20
290.00747741776729
 11
216.90036891452263
 21
290.00747741776729
  0
LINE
  8
_f-0_
  6
CONTINUOUS
 62
    7
 10
217.65136891452261
 20
290.30747741776725
 11
216.38036891452262
 21
290.30747741776725
  0
LINE
  8
_f-0_
  6
CONTINUOUS
 62
    7
 10
12.516368914522616
 20
148.87542661019836
 11
12.516368914522616
 21
152.33952822533612
  0
LINE
  8
_f-0_
  6
CONTINUOUS
 62
    7
 10
12.516368914522616
 20
152.33952822533612
 11
15.516368914522616
 21
150.60747741776726
  0
LINE
  8
_f-0_
  6
CONTINUOUS
 62
    7
 10
15.516368914522616
 20
150.60747741776726
 11
12.516368914522616
 21
148.87542661019836
  0
LINE
  8
_f-0_
  6
CONTINUOUS
 62
    7
 10
13.016368914522616
 20
149.74145201398278
 11
13.016368914522616
 21
151.47350282155168
  0
LINE
  8
_f-0_
  6
CONTINUOUS
 62
    7
 10
13.016368914522616
 20
151.47350282155168
 11
14.516368914522616
 21
150.60747741776726
  0
LINE
  8
_f-0_
  6
CONTINUOUS
 62
    7
 10
14.516368914522616
 20
150.60747741776726
 11
13.016368914522616
 21
149.74145201398278
  0
LINE
  8
_f-0_
  6
CONTINUOUS
 62
    7
 10
13.416368914522536
 20
150.43427233701033
 11
13.416368914522536
 21
150.78068249852413
  0
LINE
  8
_f-0_
  6
CONTINUOUS
 62
    7
 10
13.416368914522536
 20
150.78068249852413
 11
13.716368914522661
 21
150.60747741776726
  0
LINE
  8
_f-0_
  6
CONTINUOUS
 62
    7
 10
13.716368914522661
 20
150.60747741776726
 11
13.416368914522536
 21
150.43427233701033
  0
LINE
  8
ADD_LINE
  6
DOT
 62
    9
 10
108.01636891452262
 20
24.607477417767214
 11
108.01636891452262
 21
14.607477417767257
  0
LINE
  8
ADD_LINE
  6
DOT
 62
    9
 10
187.01636891452262
 20
14.607477417767257
 11
187.01636891452262
 21
24.607477417767214
  0
TEXT
  8
_f-0_
 62
    7
 10
15.514868914522594
 20
9.1074774177672566
 40
2
 41
1
 50
0
  1
%f
  0
LINE
  8
ADD_LINE
  6
DOT
 62
    9
 10
13.016368914522616
 20
9.1074774177672566
 11
18.514868914522566
 21
9.1074774823678126
  0
TEXT
  8
_f-0_
 62
    7
 10
399.51636891452262
 20
9.1074777407702072
 40
2
 41
1
 50
0
  1
%y
  0
TEXT
  8
_f-0_
 62
    7
 10
402.51636891452267
 20
9.1074777407702072
 40
2
 41
1
 50
0
  1
．
  0
TEXT
  8
_f-0_
 62
    7
 10
405.51636891452262
 20
9.1074777407702072
 40
2
 41
1
 50
0
  1
%m
  0
TEXT
  8
_f-0_
 62
    7
 10
408.51636891452262
 20
9.1074777407702072
 40
2
 41
1
 50
0
  1
．
  0
TEXT
  8
_f-0_
 62
    7
 10
411.51636891452267
 20
9.1074777407702072
 40
2
 41
1
 50
0
  1
%d
  0
LINE
  8
ADD_LINE
  6
DOT
 62
    9
 10
413.51636891452262
 20
12.607477417767257
 11
413.51636891452262
 21
9.1074777407702072
  0
LINE
  8
ADD_LINE
  6
DOT
 62
    9
 10
410.51636891452262
 20
12.607477417767257
 11
410.51636891452262
 21
9.1074777407702072
  0
LINE
  8
ADD_LINE
  6
DOT
 62
    9
 10
407.51636891452267
 20
12.607477417767257
 11
407.51636891452267
 21
9.1074777407702072
  0
LINE
  8
ADD_LINE
  6
DOT
 62
    9
 10
404.51636891452267
 20
12.607477417767257
 11
404.51636891452267
 21
9.1074777407702072
  0
LINE
  8
ADD_LINE
  6
DOT
 62
    9
 10
401.51636891452262
 20
12.607477417767257
 11
401.51636891452262
 21
9.1074777407702072
  0
LINE
  8
ADD_LINE
  6
DOT
 62
    9
 10
398.51636891452262
 20
12.607477417767257
 11
398.51636891452262
 21
9.1074774177672566
  0
LINE
  8
ADD_LINE
  6
DOT
 62
    9
 10
398.51636891452262
 20
9.1074774177672566
 11
413.51636891452262
 21
9.1074777407702072
  0
LINE
  8
ADD_LINE
  6
DOT
 62
    9
 10
13.016368914522616
 20
9.1074774177672566
 11
13.016368914522616
 21
288.6074774177672
  0
INSERT
  2
-004-33-108AX__39
  8
_f-0_
 10
1901.6599019556372
 20
2383.4099562044612
 41
2
 42
2
 50
0
  0
INSERT
  2
-007-33-108AX__42
  8
_f-0_
 10
1797.5235836179434
 20
2383.4099562044617
 41
2
 42
2
 50
0
  0
INSERT
  2
-008-87-63
  8
_f-0_
 10
1762.1673592743095
 20
2313.6243239605778
 41
2
 42
2
 50
0
  0
TEXT
  8
_f-0_
 62
    7
 10
304.51636891452262
 20
21.357477417767242
 40
2.5
 41
0.64
 50
0
  1
ＤＡＴＡ
  0
LINE
  8
_0-0_
  6
CONTINUOUS
 62
    7
 10
74.297193132821405
 20
236.47787056260728
 11
269.96129313282142
 21
236.47787056260728
  0
ARC
  8
_0-0_
  6
CONTINUOUS
 62
    7
 10
359.14719313282137
 20
205.62887056260729
 40
1.151
 50
177.56200000000004
 51
2.4380000000001019
  0
ARC
  8
_0-0_
  6
CONTINUOUS
 62
    7
 10
359.14719313282137
 20
205.62887056260729
 40
1.151
 50
177.56200000000004
 51
2.4380000000001019
  0
LINE
  8
_0-0_
  6
CONTINUOUS
 62
    7
 10
208.08689313282139
 20
237.27787056260729
 11
211.92259313282139
 21
237.27787056260729
  0
LINE
  8
_0-0_
  6
CONTINUOUS
 62
    7
 10
198.08689313282139
 20
237.27787056260729
 11
205.53949313282141
 21
237.27787056260729
  0
LINE
  8
_0-0_
  6
CONTINUOUS
 62
    7
 10
48.697193132821411
 20
249.80587056260731
 11
63.297193132821405
 21
249.80587056260731
  0
LINE
  8
_0-0_
  6
CONTINUOUS
 62
    7
 10
87.594693132821391
 20
221.29297056260731
 11
87.572193132821411
 21
221.47787056260728
  0
LINE
  8
_0-0_
  6
CONTINUOUS
 62
    7
 10
255.29719313282141
 20
204.47787056260728
 11
254.52069313282141
 21
207.3756705626073
  0
LINE
  8
_0-0_
  6
CONTINUOUS
 62
    7
 10
255.29719313282141
 20
204.47787056260728
 11
256.0736931328214
 21
207.3756705626073
  0
LINE
  8
_0-0_
  6
CONTINUOUS
 62
    7
 10
255.29719313282141
 20
238.47787056260728
 11
254.52069313282141
 21
235.58007056260729
  0
LINE
  8
_0-0_
  6
CONTINUOUS
 62
    7
 10
255.29719313282141
 20
238.47787056260728
 11
256.0736931328214
 21
235.58007056260729
  0
LINE
  8
_0-0_
  6
CONTINUOUS
 62
    7
 10
255.29719313282141
 20
204.47787056260728
 11
247.29719313282141
 21
204.47787056260728
  0
LINE
  8
_0-0_
  6
CONTINUOUS
 62
    7
 10
255.29719313282141
 20
238.47787056260728
 11
247.29719313282141
 21
238.47787056260728
  0
LINE
  8
_0-0_
  6
CONTINUOUS
 62
    7
 10
240.29719313282141
 20
236.47787056260728
 11
241.0736931328214
 21
233.58007056260729
  0
LINE
  8
_0-0_
  6
CONTINUOUS
 62
    7
 10
240.29719313282141
 20
236.47787056260728
 11
239.52069313282141
 21
233.58007056260729
  0
LINE
  8
_0-0_
  6
CONTINUOUS
 62
    7
 10
240.29719313282141
 20
206.47787056260728
 11
241.0736931328214
 21
209.3756705626073
  0
LINE
  8
_0-0_
  6
CONTINUOUS
 62
    7
 10
240.29719313282141
 20
206.47787056260728
 11
239.52069313282141
 21
209.3756705626073
  0
LINE
  8
_0-0_
  6
CONTINUOUS
 62
    7
 10
240.29719313282141
 20
236.47787056260728
 11
232.29719313282141
 21
236.47787056260728
  0
LINE
  8
_0-0_
  6
CONTINUOUS
 62
    7
 10
240.29719313282141
 20
206.47787056260728
 11
232.29719313282141
 21
206.47787056260728
  0
LINE
  8
_0-0_
  6
CONTINUOUS
 62
    7
 10
370.29719313282141
 20
205.6778705626073
 11
366.44719313282144
 21
237.27787056260729
  0
LINE
  8
_0-0_
  6
CONTINUOUS
 62
    7
 10
364.14719313282137
 20
237.27787056260729
 11
367.99719313282139
 21
205.6778705626073
  0
LINE
  8
_0-0_
  6
CONTINUOUS
 62
    7
 10
360.29719313282141
 20
205.6778705626073
 11
367.99719313282139
 21
205.6778705626073
  0
LINE
  8
_0-0_
  6
CONTINUOUS
 62
    7
 10
277.8388931328214
 20
206.97697056260728
 11
277.99719313282139
 21
205.6778705626073
  0
LINE
  8
_0-0_
  6
CONTINUOUS
 62
    7
 10
297.99719313282139
 20
205.6778705626073
 11
290.29719313282141
 21
205.6778705626073
  0
LINE
  8
_0-0_
  6
CONTINUOUS
 62
    7
 10
307.99719313282139
 20
205.6778705626073
 11
300.29719313282141
 21
205.6778705626073
  0
LINE
  8
_0-0_
  6
CONTINUOUS
 62
    7
 10
317.99719313282139
 20
205.6778705626073
 11
310.29719313282141
 21
205.6778705626073
  0
LINE
  8
_0-0_
  6
CONTINUOUS
 62
    7
 10
327.99719313282139
 20
205.6778705626073
 11
320.29719313282141
 21
205.6778705626073
  0
LINE
  8
_0-0_
  6
CONTINUOUS
 62
    7
 10
337.99719313282139
 20
205.6778705626073
 11
330.29719313282141
 21
205.6778705626073
  0
LINE
  8
_0-0_
  6
CONTINUOUS
 62
    7
 10
347.99719313282139
 20
205.6778705626073
 11
340.29719313282141
 21
205.6778705626073
  0
LINE
  8
_0-0_
  6
CONTINUOUS
 62
    7
 10
357.99719313282139
 20
205.6778705626073
 11
350.29719313282141
 21
205.6778705626073
  0
LINE
  8
_0-0_
  6
CONTINUOUS
 62
    7
 10
356.44719313282144
 20
237.27787056260729
 11
364.14719313282137
 21
237.27787056260729
  0
LINE
  8
_0-0_
  6
CONTINUOUS
 62
    7
 10
360.29719313282141
 20
205.6778705626073
 11
356.44719313282144
 21
237.27787056260729
  0
LINE
  8
_0-0_
  6
CONTINUOUS
 62
    7
 10
284.14719313282137
 20
237.27787056260729
 11
276.44719313282144
 21
237.27787056260729
  0
LINE
  8
_0-0_
  6
CONTINUOUS
 62
    7
 10
284.14719313282137
 20
237.27787056260729
 11
287.99719313282139
 21
205.6778705626073
  0
LINE
  8
_0-0_
  6
CONTINUOUS
 62
    7
 10
290.29719313282141
 20
205.6778705626073
 11
286.44719313282144
 21
237.27787056260729
  0
LINE
  8
_0-0_
  6
CONTINUOUS
 62
    7
 10
294.14719313282137
 20
237.27787056260729
 11
286.44719313282144
 21
237.27787056260729
  0
LINE
  8
_0-0_
  6
CONTINUOUS
 62
    7
 10
294.14719313282137
 20
237.27787056260729
 11
297.99719313282139
 21
205.6778705626073
  0
LINE
  8
_0-0_
  6
CONTINUOUS
 62
    7
 10
300.29719313282141
 20
205.6778705626073
 11
296.44719313282144
 21
237.27787056260729
  0
LINE
  8
_0-0_
  6
CONTINUOUS
 62
    7
 10
304.14719313282137
 20
237.27787056260729
 11
296.44719313282144
 21
237.27787056260729
  0
LINE
  8
_0-0_
  6
CONTINUOUS
 62
    7
 10
304.14719313282137
 20
237.27787056260729
 11
307.99719313282139
 21
205.6778705626073
  0
LINE
  8
_0-0_
  6
CONTINUOUS
 62
    7
 10
310.29719313282141
 20
205.6778705626073
 11
306.44719313282144
 21
237.27787056260729
  0
LINE
  8
_0-0_
  6
CONTINUOUS
 62
    7
 10
314.14719313282137
 20
237.27787056260729
 11
306.44719313282144
 21
237.27787056260729
  0
LINE
  8
_0-0_
  6
CONTINUOUS
 62
    7
 10
314.14719313282137
 20
237.27787056260729
 11
317.99719313282139
 21
205.6778705626073
  0
LINE
  8
_0-0_
  6
CONTINUOUS
 62
    7
 10
320.29719313282141
 20
205.6778705626073
 11
316.44719313282144
 21
237.27787056260729
  0
LINE
  8
_0-0_
  6
CONTINUOUS
 62
    7
 10
324.14719313282137
 20
237.27787056260729
 11
316.44719313282144
 21
237.27787056260729
  0
LINE
  8
_0-0_
  6
CONTINUOUS
 62
    7
 10
324.14719313282137
 20
237.27787056260729
 11
327.99719313282139
 21
205.6778705626073
  0
LINE
  8
_0-0_
  6
CONTINUOUS
 62
    7
 10
330.29719313282141
 20
205.6778705626073
 11
326.44719313282144
 21
237.27787056260729
  0
LINE
  8
_0-0_
  6
CONTINUOUS
 62
    7
 10
334.14719313282137
 20
237.27787056260729
 11
326.44719313282144
 21
237.27787056260729
  0
LINE
  8
_0-0_
  6
CONTINUOUS
 62
    7
 10
334.14719313282137
 20
237.27787056260729
 11
337.99719313282139
 21
205.6778705626073
  0
LINE
  8
_0-0_
  6
CONTINUOUS
 62
    7
 10
340.29719313282141
 20
205.6778705626073
 11
336.44719313282144
 21
237.27787056260729
  0
LINE
  8
_0-0_
  6
CONTINUOUS
 62
    7
 10
344.14719313282137
 20
237.27787056260729
 11
336.44719313282144
 21
237.27787056260729
  0
LINE
  8
_0-0_
  6
CONTINUOUS
 62
    7
 10
344.14719313282137
 20
237.27787056260729
 11
347.99719313282139
 21
205.6778705626073
  0
LINE
  8
_0-0_
  6
CONTINUOUS
 62
    7
 10
350.29719313282141
 20
205.6778705626073
 11
346.44719313282144
 21
237.27787056260729
  0
LINE
  8
_0-0_
  6
CONTINUOUS
 62
    7
 10
354.14719313282137
 20
237.27787056260729
 11
346.44719313282144
 21
237.27787056260729
  0
LINE
  8
_0-0_
  6
CONTINUOUS
 62
    7
 10
354.14719313282137
 20
237.27787056260729
 11
357.99719313282139
 21
205.6778705626073
  0
LINE
  8
_0-0_
  6
CONTINUOUS
 62
    7
 10
274.14719313282137
 20
237.27787056260729
 11
277.8388931328214
 21
206.97697056260728
  0
LINE
  8
_0-0_
  6
CONTINUOUS
 62
    7
 10
274.14719313282137
 20
237.27787056260729
 11
270.29719313282141
 21
237.27787056260729
  0
LINE
  8
_0-0_
  6
CONTINUOUS
 62
    7
 10
280.33539313282142
 20
205.6778705626073
 11
280.29719313282141
 21
205.6778705626073
  0
LINE
  8
_0-0_
  6
CONTINUOUS
 62
    7
 10
279.14719313282137
 20
204.47787056260728
 11
279.08739313282138
 21
204.47787056260728
  0
LINE
  8
_0-0_
  6
CONTINUOUS
 62
    7
 10
287.99719313282139
 20
205.6778705626073
 11
280.27399313282137
 21
205.6778705626073
  0
LINE
  8
_0-0_
  6
CONTINUOUS
 62
    7
 10
280.29719313282141
 20
205.6778705626073
 11
276.45199313282137
 21
237.23857056260729
  0
LINE
  8
_0-0_
  6
CONTINUOUS
 62
    7
 10
276.45199313282137
 20
237.23857056260729
 11
276.44719313282144
 21
237.27787056260729
  0
LINE
  8
_0-0_
  6
CONTINUOUS
 62
    7
 10
75.456593132821411
 20
200.97787056260728
 11
84.297193132821405
 21
200.97787056260728
  0
LINE
  8
_0-0_
  6
CONTINUOUS
 62
    7
 10
201.79719313282141
 20
205.6778705626073
 11
199.87219313282139
 21
221.47787056260728
  0
LINE
  8
_0-0_
  6
CONTINUOUS
 62
    7
 10
279.08739313282138
 20
204.47787056260728
 11
210.66279313282141
 21
204.47787056260728
  0
LINE
  8
_0-0_
  6
CONTINUOUS
 62
    7
 10
209.49719313282139
 20
205.6778705626073
 11
201.79719313282141
 21
205.6778705626073
  0
LINE
  8
_0-0_
  6
CONTINUOUS
 62
    7
 10
209.49719313282139
 20
205.6778705626073
 11
207.57219313282138
 21
221.47787056260728
  0
LINE
  8
_0-0_
  6
CONTINUOUS
 62
    7
 10
211.79719313282141
 20
205.6778705626073
 11
209.87219313282139
 21
221.47787056260728
  0
LINE
  8
_0-0_
  6
CONTINUOUS
 62
    7
 10
85.6514931328214
 20
205.6778705626073
 11
85.639893132821385
 21
205.6778705626073
  0
LINE
  8
_0-0_
  6
CONTINUOUS
 62
    7
 10
84.297193132821405
 20
200.97787056260728
 11
84.297193132821405
 21
221.47787056260728
  0
LINE
  8
_0-0_
  6
CONTINUOUS
 62
    7
 10
91.797193132821405
 20
205.6778705626073
 11
89.872193132821394
 21
221.47787056260728
  0
LINE
  8
_0-0_
  6
CONTINUOUS
 62
    7
 10
89.497193132821394
 20
205.6778705626073
 11
84.297193132821405
 21
205.6778705626073
  0
LINE
  8
_0-0_
  6
CONTINUOUS
 62
    7
 10
89.497193132821394
 20
205.6778705626073
 11
87.594693132821391
 21
221.29297056260731
  0
LINE
  8
_0-0_
  6
CONTINUOUS
 62
    7
 10
99.497193132821394
 20
205.6778705626073
 11
91.797193132821405
 21
205.6778705626073
  0
LINE
  8
_0-0_
  6
CONTINUOUS
 62
    7
 10
99.497193132821394
 20
205.6778705626073
 11
97.572193132821411
 21
221.47787056260728
  0
LINE
  8
_0-0_
  6
CONTINUOUS
 62
    7
 10
101.79719313282141
 20
205.6778705626073
 11
99.872193132821394
 21
221.47787056260728
  0
LINE
  8
_0-0_
  6
CONTINUOUS
 62
    7
 10
109.49719313282139
 20
205.6778705626073
 11
101.79719313282141
 21
205.6778705626073
  0
LINE
  8
_0-0_
  6
CONTINUOUS
 62
    7
 10
109.49719313282139
 20
205.6778705626073
 11
107.57219313282141
 21
221.47787056260728
  0
LINE
  8
_0-0_
  6
CONTINUOUS
 62
    7
 10
111.79719313282141
 20
205.6778705626073
 11
109.87219313282139
 21
221.47787056260728
  0
LINE
  8
_0-0_
  6
CONTINUOUS
 62
    7
 10
119.49719313282139
 20
205.6778705626073
 11
111.79719313282141
 21
205.6778705626073
  0
LINE
  8
_0-0_
  6
CONTINUOUS
 62
    7
 10
119.49719313282139
 20
205.6778705626073
 11
117.57219313282141
 21
221.47787056260728
  0
LINE
  8
_0-0_
  6
CONTINUOUS
 62
    7
 10
121.79719313282141
 20
205.6778705626073
 11
119.87219313282139
 21
221.47787056260728
  0
LINE
  8
_0-0_
  6
CONTINUOUS
 62
    7
 10
129.49719313282139
 20
205.6778705626073
 11
121.79719313282141
 21
205.6778705626073
  0
LINE
  8
_0-0_
  6
CONTINUOUS
 62
    7
 10
129.49719313282139
 20
205.6778705626073
 11
127.57219313282141
 21
221.47787056260728
  0
LINE
  8
_0-0_
  6
CONTINUOUS
 62
    7
 10
131.79719313282141
 20
205.6778705626073
 11
129.87219313282139
 21
221.47787056260728
  0
LINE
  8
_0-0_
  6
CONTINUOUS
 62
    7
 10
139.49719313282139
 20
205.6778705626073
 11
131.79719313282141
 21
205.6778705626073
  0
LINE
  8
_0-0_
  6
CONTINUOUS
 62
    7
 10
139.49719313282139
 20
205.6778705626073
 11
137.57219313282141
 21
221.47787056260728
  0
LINE
  8
_0-0_
  6
CONTINUOUS
 62
    7
 10
141.79719313282141
 20
205.6778705626073
 11
139.87219313282139
 21
221.47787056260728
  0
LINE
  8
_0-0_
  6
CONTINUOUS
 62
    7
 10
149.49719313282139
 20
205.6778705626073
 11
141.79719313282141
 21
205.6778705626073
  0
LINE
  8
_0-0_
  6
CONTINUOUS
 62
    7
 10
149.49719313282139
 20
205.6778705626073
 11
147.57219313282138
 21
221.47787056260728
  0
LINE
  8
_0-0_
  6
CONTINUOUS
 62
    7
 10
151.79719313282141
 20
205.6778705626073
 11
149.87219313282139
 21
221.47787056260728
  0
LINE
  8
_0-0_
  6
CONTINUOUS
 62
    7
 10
159.49719313282139
 20
205.6778705626073
 11
151.79719313282141
 21
205.6778705626073
  0
LINE
  8
_0-0_
  6
CONTINUOUS
 62
    7
 10
159.49719313282139
 20
205.6778705626073
 11
157.57219313282138
 21
221.47787056260728
  0
LINE
  8
_0-0_
  6
CONTINUOUS
 62
    7
 10
161.79719313282141
 20
205.6778705626073
 11
159.87219313282139
 21
221.47787056260728
  0
LINE
  8
_0-0_
  6
CONTINUOUS
 62
    7
 10
169.49719313282139
 20
205.6778705626073
 11
161.79719313282141
 21
205.6778705626073
  0
LINE
  8
_0-0_
  6
CONTINUOUS
 62
    7
 10
169.49719313282139
 20
205.6778705626073
 11
167.57219313282138
 21
221.47787056260728
  0
LINE
  8
_0-0_
  6
CONTINUOUS
 62
    7
 10
171.79719313282141
 20
205.6778705626073
 11
169.87219313282139
 21
221.47787056260728
  0
LINE
  8
_0-0_
  6
CONTINUOUS
 62
    7
 10
179.49719313282139
 20
205.6778705626073
 11
171.79719313282141
 21
205.6778705626073
  0
LINE
  8
_0-0_
  6
CONTINUOUS
 62
    7
 10
179.49719313282139
 20
205.6778705626073
 11
177.57219313282138
 21
221.47787056260728
  0
LINE
  8
_0-0_
  6
CONTINUOUS
 62
    7
 10
181.79719313282141
 20
205.6778705626073
 11
179.87219313282139
 21
221.47787056260728
  0
LINE
  8
_0-0_
  6
CONTINUOUS
 62
    7
 10
189.49719313282139
 20
205.6778705626073
 11
181.79719313282141
 21
205.6778705626073
  0
LINE
  8
_0-0_
  6
CONTINUOUS
 62
    7
 10
189.49719313282139
 20
205.6778705626073
 11
187.57219313282138
 21
221.47787056260728
  0
LINE
  8
_0-0_
  6
CONTINUOUS
 62
    7
 10
191.79719313282141
 20
205.6778705626073
 11
189.87219313282139
 21
221.47787056260728
  0
LINE
  8
_0-0_
  6
CONTINUOUS
 62
    7
 10
199.49719313282139
 20
205.6778705626073
 11
191.79719313282141
 21
205.6778705626073
  0
LINE
  8
_0-0_
  6
CONTINUOUS
 62
    7
 10
199.49719313282139
 20
205.6778705626073
 11
197.57219313282138
 21
221.47787056260728
  0
LINE
  8
_0-0_
  6
CONTINUOUS
 62
    7
 10
277.99719313282139
 20
205.6778705626073
 11
270.29719313282141
 21
205.6778705626073
  0
LINE
  8
_0-0_
  6
CONTINUOUS
 62
    7
 10
215.29719313282141
 20
205.6778705626073
 11
211.79719313282141
 21
205.6778705626073
  0
LINE
  8
_0-0_
  6
CONTINUOUS
 62
    7
 10
275.27009313282139
 20
238.47787056260728
 11
206.75649313282139
 21
238.47787056260728
  0
LINE
  8
_0-0_
  6
CONTINUOUS
 62
    7
 10
101.79719313282141
 20
235.47787056260728
 11
96.125893132821403
 21
235.97787056260728
  0
LINE
  8
_0-0_
  6
CONTINUOUS
 62
    7
 10
74.297193132821405
 20
240.47787056260728
 11
84.297193132821405
 21
240.47787056260728
  0
LINE
  8
_0-0_
  6
CONTINUOUS
 62
    7
 10
74.297193132821405
 20
235.97787056260728
 11
96.125893132821403
 21
235.97787056260728
  0
LINE
  8
_0-0_
  6
CONTINUOUS
 62
    7
 10
84.297193132821405
 20
240.47787056260728
 11
84.297193132821405
 21
241.97787056260728
  0
LINE
  8
_0-0_
  6
CONTINUOUS
 62
    7
 10
74.297193132821405
 20
235.97787056260728
 11
74.297193132821405
 21
240.47787056260728
  0
LINE
  8
_0-0_
  6
CONTINUOUS
 62
    7
 10
72.297193132821405
 20
234.97787056260728
 11
101.79719313282141
 21
234.97787056260728
  0
LINE
  8
_0-0_
  6
CONTINUOUS
 62
    7
 10
72.297193132821405
 20
221.47787056260728
 11
72.297193132821405
 21
234.97787056260728
  0
LINE
  8
_0-0_
  6
CONTINUOUS
 62
    7
 10
40.297193132821405
 20
221.47787056260728
 11
64.372493132821404
 21
221.47787056260728
  0
LINE
  8
_0-0_
  6
CONTINUOUS
 62
    7
 10
64.372493132821404
 20
221.47787056260728
 11
380.29719313282141
 21
221.47787056260728
  0
LINE
  8
_0-0_
  6
CONTINUOUS
 62
    7
 10
75.456593132821411
 20
241.97787056260728
 11
84.297193132821405
 21
241.97787056260728
  0
LINE
  8
_0-0_
  6
CONTINUOUS
 62
    7
 10
59.797193132821405
 20
243.97787056260728
 11
59.797193132821405
 21
221.47787056260728
  0
LINE
  8
_0-0_
  6
CONTINUOUS
 62
    7
 10
59.797193132821405
 20
243.97787056260728
 11
66.797193132821405
 21
243.97787056260728
  0
LINE
  8
_0-0_
  6
CONTINUOUS
 62
    7
 10
59.797193132821405
 20
243.97787056260728
 11
59.797193132821405
 21
244.97787056260728
  0
LINE
  8
_0-0_
  6
CONTINUOUS
 62
    7
 10
59.797193132821405
 20
244.97787056260728
 11
63.297193132821405
 21
244.97787056260728
  0
LINE
  8
_0-0_
  6
CONTINUOUS
 62
    7
 10
63.297193132821405
 20
244.97787056260728
 11
63.297193132821405
 21
251.47787056260728
  0
LINE
  8
_0-0_
  6
CONTINUOUS
 62
    7
 10
45.297193132821405
 20
256.47787056260728
 11
63.402493132821405
 21
256.47787056260728
  0
LINE
  8
_0-0_
  6
CONTINUOUS
 62
    7
 10
225.29719313282141
 20
106.47787056260731
 11
205.29719313282141
 21
106.47787056260731
  0
LINE
  8
_0-0_
  6
CONTINUOUS
 62
    7
 10
215.29719313282141
 20
129.97787056260731
 11
210.29719313282141
 21
129.97787056260731
  0
LINE
  8
_0-0_
  6
CONTINUOUS
 62
    7
 10
215.29719313282141
 20
80.477870562607308
 11
210.29719313282141
 21
80.477870562607308
  0
LINE
  8
_0-0_
  6
CONTINUOUS
 62
    7
 10
210.29719313282141
 20
80.477870562607308
 11
210.29719313282141
 21
132.47787056260731
  0
LINE
  8
_0-0_
  6
CONTINUOUS
 62
    7
 10
215.29719313282141
 20
80.477870562607308
 11
215.29719313282141
 21
132.47787056260731
  0
LINE
  8
_0-0_
  6
CONTINUOUS
 62
    7
 10
215.29719313282141
 20
132.47787056260731
 11
210.29719313282141
 21
132.47787056260731
  0
LINE
  8
_0-0_
  6
CONTINUOUS
 62
    7
 10
210.29719313282141
 20
132.47787056260731
 11
210.29719313282141
 21
129.97787056260731
  0
LINE
  8
_0-0_
  6
CONTINUOUS
 62
    7
 10
215.29719313282141
 20
129.97787056260731
 11
215.29719313282141
 21
132.47787056260731
  0
LINE
  8
_0-0_
  6
CONTINUOUS
 62
    7
 10
215.14999313282141
 20
129.97787056260731
 11
215.29719313282141
 21
130.12507056260731
  0
LINE
  8
_0-0_
  6
CONTINUOUS
 62
    7
 10
213.73579313282141
 20
129.97787056260731
 11
215.29719313282141
 21
131.5392705626073
  0
LINE
  8
_0-0_
  6
CONTINUOUS
 62
    7
 10
212.32159313282139
 20
129.97787056260731
 11
214.82159313282139
 21
132.47787056260731
  0
LINE
  8
_0-0_
  6
CONTINUOUS
 62
    7
 10
210.9073931328214
 20
129.97787056260731
 11
213.4073931328214
 21
132.47787056260731
  0
LINE
  8
_0-0_
  6
CONTINUOUS
 62
    7
 10
210.29719313282141
 20
130.78187056260731
 11
211.9931931328214
 21
132.47787056260731
  0
LINE
  8
_0-0_
  6
CONTINUOUS
 62
    7
 10
210.29719313282141
 20
132.19617056260731
 11
210.57889313282141
 21
132.47787056260731
  0
LINE
  8
_0-0_
  6
CONTINUOUS
 62
    7
 10
215.29719313282141
 20
70.477870562607308
 11
218.19499313282139
 21
71.254370562607306
  0
LINE
  8
_0-0_
  6
CONTINUOUS
 62
    7
 10
215.29719313282141
 20
70.477870562607308
 11
218.19499313282139
 21
69.701370562607309
  0
LINE
  8
_0-0_
  6
CONTINUOUS
 62
    7
 10
210.29719313282141
 20
70.477870562607308
 11
207.39939313282139
 21
71.254370562607306
  0
LINE
  8
_0-0_
  6
CONTINUOUS
 62
    7
 10
210.29719313282141
 20
70.477870562607308
 11
207.39939313282139
 21
69.701370562607309
  0
LINE
  8
_0-0_
  6
CONTINUOUS
 62
    7
 10
215.29719313282141
 20
70.477870562607308
 11
215.29719313282141
 21
78.477870562607308
  0
LINE
  8
_0-0_
  6
CONTINUOUS
 62
    7
 10
210.29719313282141
 20
70.477870562607308
 11
210.29719313282141
 21
78.477870562607308
  0
LINE
  8
_0-0_
  6
CONTINUOUS
 62
    7
 10
215.29719313282141
 20
70.477870562607308
 11
210.29719313282141
 21
70.477870562607308
  0
LINE
  8
_0-0_
  6
CONTINUOUS
 62
    7
 10
200.29719313282141
 20
82.977870562607308
 11
199.52069313282141
 21
85.875670562607297
  0
LINE
  8
_0-0_
  6
CONTINUOUS
 62
    7
 10
200.29719313282141
 20
82.977870562607308
 11
201.0736931328214
 21
85.875670562607297
  0
LINE
  8
_0-0_
  6
CONTINUOUS
 62
    7
 10
200.29719313282141
 20
129.97787056260731
 11
199.52069313282141
 21
127.08007056260729
  0
LINE
  8
_0-0_
  6
CONTINUOUS
 62
    7
 10
200.29719313282141
 20
129.97787056260731
 11
201.0736931328214
 21
127.08007056260729
  0
LINE
  8
_0-0_
  6
CONTINUOUS
 62
    7
 10
200.29719313282141
 20
82.977870562607308
 11
208.29719313282141
 21
82.977870562607308
  0
LINE
  8
_0-0_
  6
CONTINUOUS
 62
    7
 10
200.29719313282141
 20
129.97787056260731
 11
208.29719313282141
 21
129.97787056260731
  0
LINE
  8
_0-0_
  6
CONTINUOUS
 62
    7
 10
200.29719313282141
 20
82.977870562607308
 11
200.29719313282141
 21
129.97787056260731
  0
LINE
  8
_0-0_
  6
CONTINUOUS
 62
    7
 10
190.29719313282141
 20
132.47787056260731
 11
191.0736931328214
 21
129.58007056260729
  0
LINE
  8
_0-0_
  6
CONTINUOUS
 62
    7
 10
190.29719313282141
 20
132.47787056260731
 11
189.52069313282141
 21
129.58007056260729
  0
LINE
  8
_0-0_
  6
CONTINUOUS
 62
    7
 10
190.29719313282141
 20
80.477870562607308
 11
191.0736931328214
 21
83.375670562607297
  0
LINE
  8
_0-0_
  6
CONTINUOUS
 62
    7
 10
190.29719313282141
 20
80.477870562607308
 11
189.52069313282141
 21
83.375670562607297
  0
LINE
  8
_0-0_
  6
CONTINUOUS
 62
    7
 10
190.29719313282141
 20
132.47787056260731
 11
208.29719313282141
 21
132.47787056260731
  0
LINE
  8
_0-0_
  6
CONTINUOUS
 62
    7
 10
190.29719313282141
 20
80.477870562607308
 11
208.29719313282141
 21
80.477870562607308
  0
LINE
  8
_0-0_
  6
CONTINUOUS
 62
    7
 10
190.29719313282141
 20
132.47787056260731
 11
190.29719313282141
 21
80.477870562607308
  0
LINE
  8
_0-0_
  6
CONTINUOUS
 62
    7
 10
210.29719313282141
 20
70.477870562607308
 11
204.87289313282139
 21
70.477870562607308
  0
LINE
  8
_0-0_
  6
CONTINUOUS
 62
    7
 10
215.29719313282141
 20
70.477870562607308
 11
219.49599313282141
 21
70.477870562607308
  0
LINE
  8
_0-0_
  6
CONTINUOUS
 62
    7
 10
30.297193132821405
 20
191.47787056260728
 11
29.520693132821407
 21
194.3756705626073
  0
LINE
  8
_0-0_
  6
CONTINUOUS
 62
    7
 10
30.297193132821405
 20
191.47787056260728
 11
31.073693132821404
 21
194.3756705626073
  0
LINE
  8
_0-0_
  6
CONTINUOUS
 62
    7
 10
30.297193132821405
 20
251.47787056260728
 11
29.520693132821407
 21
248.58007056260729
  0
LINE
  8
_0-0_
  6
CONTINUOUS
 62
    7
 10
30.297193132821405
 20
251.47787056260728
 11
31.073693132821404
 21
248.58007056260729
  0
LINE
  8
_0-0_
  6
CONTINUOUS
 62
    7
 10
30.297193132821405
 20
191.47787056260728
 11
30.297193132821405
 21
251.47787056260728
  0
LINE
  8
_0-0_
  6
CONTINUOUS
 62
    7
 10
46.766393132821406
 20
271.81987056260732
 11
53.559493132821416
 21
256.49077056260728
  0
LINE
  8
_0-0_
  6
CONTINUOUS
 62
    7
 10
53.5495931328214
 20
256.49077056260728
 11
53.5495931328214
 21
258.88597056260733
  0
LINE
  8
_0-0_
  6
CONTINUOUS
 62
    7
 10
53.5495931328214
 20
256.51327056260732
 11
51.544493132821401
 21
258.51837056260729
  0
LINE
  8
_0-0_
  6
CONTINUOUS
 62
    7
 10
226.17059313282141
 20
133.55517056260729
 11
215.2756931328214
 21
122.44717056260728
  0
LINE
  8
_0-0_
  6
CONTINUOUS
 62
    7
 10
215.2756931328214
 20
122.44717056260728
 11
216.56979313282139
 21
127.27677056260731
  0
LINE
  8
_0-0_
  6
CONTINUOUS
 62
    7
 10
215.29719313282141
 20
122.52747056260731
 11
220.1267931328214
 21
123.82157056260729
  0
LINE
  8
_0-0_
  6
CONTINUOUS
 62
    7
 10
30.297193132821405
 20
251.47787056260728
 11
43.223793132821413
 21
251.47787056260728
  0
LINE
  8
_0-0_
  6
CONTINUOUS
 62
    7
 10
30.297193132821405
 20
191.47787056260728
 11
41.965193132821412
 21
191.47787056260728
  0
LINE
  8
_0-0_
  6
CONTINUOUS
 62
    7
 10
61.797193132821405
 20
213.97787056260728
 11
45.297193132821405
 21
213.97787056260728
  0
LINE
  8
_0-0_
  6
CONTINUOUS
 62
    7
 10
61.794293132821394
 20
208.97787056260728
 11
45.297193132821405
 21
208.97787056260728
  0
LINE
  8
_0-0_
  6
CONTINUOUS
 62
    7
 10
64.297193132821405
 20
188.97787056260728
 11
45.297193132821405
 21
188.97787056260728
  0
LINE
  8
_0-0_
  6
CONTINUOUS
 62
    7
 10
64.297193132821405
 20
187.47787056260728
 11
64.297193132821405
 21
221.47787056260728
  0
LINE
  8
_0-0_
  6
CONTINUOUS
 62
    7
 10
61.797193132821405
 20
193.97787056260728
 11
45.297193132821405
 21
193.97787056260728
  0
LINE
  8
_0-0_
  6
CONTINUOUS
 62
    7
 10
64.297193132821405
 20
196.97787056260728
 11
45.297193132821405
 21
196.97787056260728
  0
LINE
  8
_0-0_
  6
CONTINUOUS
 62
    7
 10
48.697193132821411
 20
249.80587056260731
 11
48.697193132821411
 21
221.47787056260728
  0
LINE
  8
_0-0_
  6
CONTINUOUS
 62
    7
 10
215.61399313282141
 20
206.47787056260728
 11
270.61479313282143
 21
206.47787056260728
  0
LINE
  8
_0-0_
  6
CONTINUOUS
 62
    7
 10
74.297193132821405
 20
256.47787056260728
 11
77.194993132821395
 21
257.25437056260728
  0
LINE
  8
_0-0_
  6
CONTINUOUS
 62
    7
 10
74.297193132821405
 20
256.47787056260728
 11
77.194993132821395
 21
255.70137056260728
  0
LINE
  8
_0-0_
  6
CONTINUOUS
 62
    7
 10
370.29719313282141
 20
256.47787056260728
 11
367.39939313282139
 21
257.25437056260728
  0
LINE
  8
_0-0_
  6
CONTINUOUS
 62
    7
 10
370.29719313282141
 20
256.47787056260728
 11
367.39939313282139
 21
255.70137056260728
  0
LINE
  8
_0-0_
  6
CONTINUOUS
 62
    7
 10
74.297193132821405
 20
256.47787056260728
 11
370.29719313282141
 21
256.47787056260728
  0
LINE
  8
_0-0_
  6
CONTINUOUS
 62
    7
 10
370.29719313282141
 20
256.47787056260728
 11
370.29719313282141
 21
239.35887056260731
  0
LINE
  8
_0-0_
  6
CONTINUOUS
 62
    7
 10
240.29719313282141
 20
236.47787056260728
 11
240.29719313282141
 21
206.47787056260728
  0
LINE
  8
_0-0_
  6
CONTINUOUS
 62
    7
 10
255.29719313282141
 20
204.47787056260728
 11
255.29719313282141
 21
238.47787056260728
  0
LINE
  8
_0-0_
  6
CONTINUOUS
 62
    7
 10
45.297193132821405
 20
256.47787056260728
 11
45.297193132821405
 21
186.47787056260728
  0
LINE
  8
_0-0_
  6
CONTINUOUS
 62
    7
 10
63.297193132821405
 20
186.47787056260728
 11
45.297193132821405
 21
186.47787056260728
  0
LINE
  8
_0-0_
  6
CONTINUOUS
 62
    7
 10
47.945293132821405
 20
250.54537056260727
 11
63.297193132821405
 21
250.54537056260727
  0
LINE
  8
_0-0_
  6
CONTINUOUS
 62
    7
 10
45.297193132821405
 20
251.47787056260728
 11
46.990393132821396
 21
251.47787056260728
  0
LINE
  8
_0-0_
  6
CONTINUOUS
 62
    7
 10
46.997193132821394
 20
251.47787056260728
 11
46.997193132821394
 21
251.47047056260729
  0
LINE
  8
_0-0_
  6
CONTINUOUS
 62
    7
 10
46.997193132821394
 20
251.47047056260729
 11
46.997193132821394
 21
251.4503705626073
  0
LINE
  8
_0-0_
  6
CONTINUOUS
 62
    7
 10
46.997193132821394
 20
251.4503705626073
 11
46.997193132821394
 21
221.47787056260728
  0
LINE
  8
_0-0_
  6
CONTINUOUS
 62
    7
 10
46.990393132821396
 20
251.47787056260728
 11
47.002893132821413
 21
251.47787056260728
  0
LINE
  8
_0-0_
  6
CONTINUOUS
 62
    7
 10
47.002893132821413
 20
251.47787056260728
 11
63.297193132821405
 21
251.47787056260728
  0
LINE
  8
_0-0_
  6
CONTINUOUS
 62
    7
 10
48.697193132821411
 20
249.80587056260731
 11
46.997193132821394
 21
251.47787056260728
  0
LINE
  8
_0-0_
  6
CONTINUOUS
 62
    7
 10
74.297193132821405
 20
256.47787056260728
 11
74.297193132821405
 21
243.88837056260729
  0
LINE
  8
_0-0_
  6
CONTINUOUS
 62
    7
 10
370.29719313282141
 20
205.6778705626073
 11
370.29719313282141
 21
237.27787056260729
  0
LINE
  8
_0-0_
  6
CONTINUOUS
 62
    7
 10
75.539493132821406
 20
237.27787056260729
 11
74.297193132821405
 21
237.27787056260729
  0
LINE
  8
_0-0_
  6
CONTINUOUS
 62
    7
 10
78.086893132821416
 20
237.27787056260729
 11
85.539493132821406
 21
237.27787056260729
  0
LINE
  8
_0-0_
  6
CONTINUOUS
 62
    7
 10
88.086893132821388
 20
237.27787056260729
 11
95.539493132821406
 21
237.27787056260729
  0
LINE
  8
_0-0_
  6
CONTINUOUS
 62
    7
 10
98.086893132821388
 20
237.27787056260729
 11
105.53949313282141
 21
237.27787056260729
  0
LINE
  8
_0-0_
  6
CONTINUOUS
 62
    7
 10
108.08689313282139
 20
237.27787056260729
 11
115.53949313282141
 21
237.27787056260729
  0
LINE
  8
_0-0_
  6
CONTINUOUS
 62
    7
 10
118.08689313282139
 20
237.27787056260729
 11
125.53949313282141
 21
237.27787056260729
  0
LINE
  8
_0-0_
  6
CONTINUOUS
 62
    7
 10
128.08689313282139
 20
237.27787056260729
 11
135.53949313282141
 21
237.27787056260729
  0
LINE
  8
_0-0_
  6
CONTINUOUS
 62
    7
 10
138.08689313282139
 20
237.27787056260729
 11
145.53949313282141
 21
237.27787056260729
  0
LINE
  8
_0-0_
  6
CONTINUOUS
 62
    7
 10
148.08689313282139
 20
237.27787056260729
 11
155.53949313282141
 21
237.27787056260729
  0
LINE
  8
_0-0_
  6
CONTINUOUS
 62
    7
 10
158.08689313282139
 20
237.27787056260729
 11
165.53949313282141
 21
237.27787056260729
  0
LINE
  8
_0-0_
  6
CONTINUOUS
 62
    7
 10
168.08689313282139
 20
237.27787056260729
 11
175.53949313282141
 21
237.27787056260729
  0
LINE
  8
_0-0_
  6
CONTINUOUS
 62
    7
 10
178.08689313282139
 20
237.27787056260729
 11
185.53949313282141
 21
237.27787056260729
  0
LINE
  8
_0-0_
  6
CONTINUOUS
 62
    7
 10
188.08689313282139
 20
237.27787056260729
 11
195.53949313282141
 21
237.27787056260729
  0
LINE
  8
_0-0_
  6
CONTINUOUS
 62
    7
 10
270.29719313282141
 20
205.6778705626073
 11
270.38589313282137
 21
205.8946705626073
  0
LINE
  8
_0-0_
  6
CONTINUOUS
 62
    7
 10
270.38589313282137
 20
205.8946705626073
 11
270.5385931328214
 21
206.26847056260729
  0
LINE
  8
_0-0_
  6
CONTINUOUS
 62
    7
 10
270.5385931328214
 20
206.26847056260729
 11
270.69039313282138
 21
206.64227056260728
  0
LINE
  8
_0-0_
  6
CONTINUOUS
 62
    7
 10
270.69039313282138
 20
206.64227056260728
 11
270.84099313282138
 21
207.01587056260729
  0
LINE
  8
_0-0_
  6
CONTINUOUS
 62
    7
 10
270.84099313282138
 20
207.01587056260729
 11
270.9896931328214
 21
207.3893705626073
  0
LINE
  8
_0-0_
  6
CONTINUOUS
 62
    7
 10
270.9896931328214
 20
207.3893705626073
 11
271.13609313282143
 21
207.7626705626073
  0
LINE
  8
_0-0_
  6
CONTINUOUS
 62
    7
 10
271.13609313282143
 20
207.7626705626073
 11
271.27959313282139
 21
208.13567056260729
  0
LINE
  8
_0-0_
  6
CONTINUOUS
 62
    7
 10
271.27959313282139
 20
208.13567056260729
 11
271.41979313282138
 21
208.5084705626073
  0
LINE
  8
_0-0_
  6
CONTINUOUS
 62
    7
 10
271.41979313282138
 20
208.5084705626073
 11
271.55619313282136
 21
208.8809705626073
  0
LINE
  8
_0-0_
  6
CONTINUOUS
 62
    7
 10
271.55619313282136
 20
208.8809705626073
 11
271.68809313282139
 21
209.25307056260729
  0
LINE
  8
_0-0_
  6
CONTINUOUS
 62
    7
 10
271.68809313282139
 20
209.25307056260729
 11
271.81519313282138
 21
209.6247705626073
  0
LINE
  8
_0-0_
  6
CONTINUOUS
 62
    7
 10
271.81519313282138
 20
209.6247705626073
 11
271.93689313282141
 21
209.99607056260729
  0
LINE
  8
_0-0_
  6
CONTINUOUS
 62
    7
 10
271.93689313282141
 20
209.99607056260729
 11
272.05279313282142
 21
210.36687056260729
  0
LINE
  8
_0-0_
  6
CONTINUOUS
 62
    7
 10
272.05279313282142
 20
210.36687056260729
 11
272.16219313282141
 21
210.7370705626073
  0
LINE
  8
_0-0_
  6
CONTINUOUS
 62
    7
 10
272.16219313282141
 20
210.7370705626073
 11
272.26469313282144
 21
211.1067705626073
  0
LINE
  8
_0-0_
  6
CONTINUOUS
 62
    7
 10
272.26469313282144
 20
211.1067705626073
 11
272.35979313282144
 21
211.4758705626073
  0
LINE
  8
_0-0_
  6
CONTINUOUS
 62
    7
 10
272.35979313282144
 20
211.4758705626073
 11
272.4468931328214
 21
211.84427056260728
  0
LINE
  8
_0-0_
  6
CONTINUOUS
 62
    7
 10
272.4468931328214
 20
211.84427056260728
 11
272.52559313282143
 21
212.21197056260729
  0
LINE
  8
_0-0_
  6
CONTINUOUS
 62
    7
 10
272.52559313282143
 20
212.21197056260729
 11
272.59539313282141
 21
212.57897056260731
  0
LINE
  8
_0-0_
  6
CONTINUOUS
 62
    7
 10
272.59539313282141
 20
212.57897056260731
 11
272.6556931328214
 21
212.94527056260728
  0
LINE
  8
_0-0_
  6
CONTINUOUS
 62
    7
 10
272.6556931328214
 20
212.94527056260728
 11
272.70609313282137
 21
213.3106705626073
  0
LINE
  8
_0-0_
  6
CONTINUOUS
 62
    7
 10
272.70609313282137
 20
213.3106705626073
 11
272.74589313282138
 21
213.67517056260729
  0
LINE
  8
_0-0_
  6
CONTINUOUS
 62
    7
 10
272.74589313282138
 20
213.67517056260729
 11
272.7747931328214
 21
214.03877056260728
  0
LINE
  8
_0-0_
  6
CONTINUOUS
 62
    7
 10
272.7747931328214
 20
214.03877056260728
 11
272.79219313282141
 21
214.4014705626073
  0
LINE
  8
_0-0_
  6
CONTINUOUS
 62
    7
 10
272.79219313282141
 20
214.4014705626073
 11
272.79759313282136
 21
214.76317056260729
  0
LINE
  8
_0-0_
  6
CONTINUOUS
 62
    7
 10
272.79759313282136
 20
214.76317056260729
 11
272.79039313282141
 21
215.12387056260729
  0
LINE
  8
_0-0_
  6
CONTINUOUS
 62
    7
 10
272.79039313282141
 20
215.12387056260729
 11
272.77029313282139
 21
215.48347056260729
  0
LINE
  8
_0-0_
  6
CONTINUOUS
 62
    7
 10
272.77029313282139
 20
215.48347056260729
 11
272.73659313282138
 21
215.84197056260729
  0
LINE
  8
_0-0_
  6
CONTINUOUS
 62
    7
 10
272.73659313282138
 20
215.84197056260729
 11
272.68889313282136
 21
216.1993705626073
  0
LINE
  8
_0-0_
  6
CONTINUOUS
 62
    7
 10
272.68889313282136
 20
216.1993705626073
 11
272.65459313282139
 21
216.40607056260728
  0
LINE
  8
_0-0_
  6
CONTINUOUS
 62
    7
 10
272.65459313282139
 20
216.40607056260728
 11
272.6112931328214
 21
216.63227056260729
  0
LINE
  8
_0-0_
  6
CONTINUOUS
 62
    7
 10
272.6112931328214
 20
216.63227056260729
 11
272.52329313282144
 21
217.0211705626073
  0
LINE
  8
_0-0_
  6
CONTINUOUS
 62
    7
 10
272.52329313282144
 20
217.0211705626073
 11
272.41929313282139
 21
217.40877056260729
  0
LINE
  8
_0-0_
  6
CONTINUOUS
 62
    7
 10
272.41929313282139
 20
217.40877056260729
 11
272.30079313282141
 21
217.7951705626073
  0
LINE
  8
_0-0_
  6
CONTINUOUS
 62
    7
 10
272.30079313282141
 20
217.7951705626073
 11
272.16889313282138
 21
218.1804705626073
  0
LINE
  8
_0-0_
  6
CONTINUOUS
 62
    7
 10
272.16889313282138
 20
218.1804705626073
 11
272.0247931328214
 21
218.56477056260729
  0
LINE
  8
_0-0_
  6
CONTINUOUS
 62
    7
 10
272.0247931328214
 20
218.56477056260729
 11
271.8698931328214
 21
218.94817056260729
  0
LINE
  8
_0-0_
  6
CONTINUOUS
 62
    7
 10
271.8698931328214
 20
218.94817056260729
 11
271.70519313282136
 21
219.33077056260728
  0
LINE
  8
_0-0_
  6
CONTINUOUS
 62
    7
 10
271.70519313282136
 20
219.33077056260728
 11
271.53219313282136
 21
219.71277056260729
  0
LINE
  8
_0-0_
  6
CONTINUOUS
 62
    7
 10
271.53219313282136
 20
219.71277056260729
 11
271.35209313282144
 21
220.0940705626073
  0
LINE
  8
_0-0_
  6
CONTINUOUS
 62
    7
 10
271.35209313282144
 20
220.0940705626073
 11
271.16599313282143
 21
220.4749705626073
  0
LINE
  8
_0-0_
  6
CONTINUOUS
 62
    7
 10
271.16599313282143
 20
220.4749705626073
 11
270.97529313282143
 21
220.85547056260731
  0
LINE
  8
_0-0_
  6
CONTINUOUS
 62
    7
 10
270.97529313282143
 20
220.85547056260731
 11
270.78109313282141
 21
221.23567056260731
  0
LINE
  8
_0-0_
  6
CONTINUOUS
 62
    7
 10
270.78109313282141
 20
221.23567056260731
 11
270.5847931328214
 21
221.61567056260731
  0
LINE
  8
_0-0_
  6
CONTINUOUS
 62
    7
 10
270.5847931328214
 20
221.61567056260731
 11
270.38759313282139
 21
221.9956705626073
  0
LINE
  8
_0-0_
  6
CONTINUOUS
 62
    7
 10
270.38759313282139
 20
221.9956705626073
 11
270.19069313282137
 21
222.3756705626073
  0
LINE
  8
_0-0_
  6
CONTINUOUS
 62
    7
 10
270.19069313282137
 20
222.3756705626073
 11
269.99529313282142
 21
222.7557705626073
  0
LINE
  8
_0-0_
  6
CONTINUOUS
 62
    7
 10
269.99529313282142
 20
222.7557705626073
 11
269.80279313282142
 21
223.13617056260728
  0
LINE
  8
_0-0_
  6
CONTINUOUS
 62
    7
 10
269.80279313282142
 20
223.13617056260728
 11
269.61439313282142
 21
223.51687056260729
  0
LINE
  8
_0-0_
  6
CONTINUOUS
 62
    7
 10
269.61439313282142
 20
223.51687056260729
 11
269.43119313282136
 21
223.8980705626073
  0
LINE
  8
_0-0_
  6
CONTINUOUS
 62
    7
 10
269.43119313282136
 20
223.8980705626073
 11
269.25459313282141
 21
224.2797705626073
  0
LINE
  8
_0-0_
  6
CONTINUOUS
 62
    7
 10
269.25459313282141
 20
224.2797705626073
 11
269.08579313282144
 21
224.66207056260728
  0
LINE
  8
_0-0_
  6
CONTINUOUS
 62
    7
 10
269.08579313282144
 20
224.66207056260728
 11
268.92609313282139
 21
225.0451705626073
  0
LINE
  8
_0-0_
  6
CONTINUOUS
 62
    7
 10
268.92609313282139
 20
225.0451705626073
 11
268.7765931328214
 21
225.42917056260728
  0
LINE
  8
_0-0_
  6
CONTINUOUS
 62
    7
 10
268.7765931328214
 20
225.42917056260728
 11
268.6386931328214
 21
225.8140705626073
  0
LINE
  8
_0-0_
  6
CONTINUOUS
 62
    7
 10
268.6386931328214
 20
225.8140705626073
 11
268.51359313282137
 21
226.20007056260729
  0
LINE
  8
_0-0_
  6
CONTINUOUS
 62
    7
 10
268.51359313282137
 20
226.20007056260729
 11
268.40249313282141
 21
226.5871705626073
  0
LINE
  8
_0-0_
  6
CONTINUOUS
 62
    7
 10
268.40249313282141
 20
226.5871705626073
 11
268.30659313282138
 21
226.97557056260729
  0
LINE
  8
_0-0_
  6
CONTINUOUS
 62
    7
 10
268.30659313282138
 20
226.97557056260729
 11
268.22729313282139
 21
227.3653705626073
  0
LINE
  8
_0-0_
  6
CONTINUOUS
 62
    7
 10
268.22729313282139
 20
227.3653705626073
 11
268.18939313282141
 21
227.59207056260729
  0
LINE
  8
_0-0_
  6
CONTINUOUS
 62
    7
 10
268.18939313282141
 20
227.59207056260729
 11
268.16279313282143
 21
227.7790705626073
  0
LINE
  8
_0-0_
  6
CONTINUOUS
 62
    7
 10
268.16279313282143
 20
227.7790705626073
 11
268.12659313282143
 21
228.10227056260729
  0
LINE
  8
_0-0_
  6
CONTINUOUS
 62
    7
 10
268.12659313282143
 20
228.10227056260729
 11
268.10219313282141
 21
228.4263705626073
  0
LINE
  8
_0-0_
  6
CONTINUOUS
 62
    7
 10
268.10219313282141
 20
228.4263705626073
 11
268.08929313282141
 21
228.7515705626073
  0
LINE
  8
_0-0_
  6
CONTINUOUS
 62
    7
 10
268.08929313282141
 20
228.7515705626073
 11
268.0872931328214
 21
229.07757056260729
  0
LINE
  8
_0-0_
  6
CONTINUOUS
 62
    7
 10
268.0872931328214
 20
229.07757056260729
 11
268.09599313282138
 21
229.40447056260729
  0
LINE
  8
_0-0_
  6
CONTINUOUS
 62
    7
 10
268.09599313282138
 20
229.40447056260729
 11
268.1146931328214
 21
229.73217056260728
  0
LINE
  8
_0-0_
  6
CONTINUOUS
 62
    7
 10
268.1146931328214
 20
229.73217056260728
 11
268.14309313282138
 21
230.0606705626073
  0
LINE
  8
_0-0_
  6
CONTINUOUS
 62
    7
 10
268.14309313282138
 20
230.0606705626073
 11
268.18079313282141
 21
230.38997056260729
  0
LINE
  8
_0-0_
  6
CONTINUOUS
 62
    7
 10
268.18079313282141
 20
230.38997056260729
 11
268.22729313282139
 21
230.7200705626073
  0
LINE
  8
_0-0_
  6
CONTINUOUS
 62
    7
 10
268.22729313282139
 20
230.7200705626073
 11
268.28229313282139
 21
231.05077056260728
  0
LINE
  8
_0-0_
  6
CONTINUOUS
 62
    7
 10
268.28229313282139
 20
231.05077056260728
 11
268.34519313282141
 21
231.38217056260729
  0
LINE
  8
_0-0_
  6
CONTINUOUS
 62
    7
 10
268.34519313282141
 20
231.38217056260729
 11
268.41569313282139
 21
231.71417056260731
  0
LINE
  8
_0-0_
  6
CONTINUOUS
 62
    7
 10
268.41569313282139
 20
231.71417056260731
 11
268.49329313282141
 21
232.04677056260729
  0
LINE
  8
_0-0_
  6
CONTINUOUS
 62
    7
 10
268.49329313282141
 20
232.04677056260729
 11
268.57759313282139
 21
232.37987056260729
  0
LINE
  8
_0-0_
  6
CONTINUOUS
 62
    7
 10
268.57759313282139
 20
232.37987056260729
 11
268.66819313282139
 21
232.71357056260729
  0
LINE
  8
_0-0_
  6
CONTINUOUS
 62
    7
 10
268.66819313282139
 20
232.71357056260729
 11
268.7645931328214
 21
233.0477705626073
  0
LINE
  8
_0-0_
  6
CONTINUOUS
 62
    7
 10
268.7645931328214
 20
233.0477705626073
 11
268.86639313282137
 21
233.38237056260729
  0
LINE
  8
_0-0_
  6
CONTINUOUS
 62
    7
 10
268.86639313282137
 20
233.38237056260729
 11
268.97319313282139
 21
233.7173705626073
  0
LINE
  8
_0-0_
  6
CONTINUOUS
 62
    7
 10
268.97319313282139
 20
233.7173705626073
 11
269.08449313282142
 21
234.05277056260729
  0
LINE
  8
_0-0_
  6
CONTINUOUS
 62
    7
 10
269.08449313282142
 20
234.05277056260729
 11
269.19989313282139
 21
234.3884705626073
  0
LINE
  8
_0-0_
  6
CONTINUOUS
 62
    7
 10
269.19989313282139
 20
234.3884705626073
 11
269.31899313282139
 21
234.72447056260728
  0
LINE
  8
_0-0_
  6
CONTINUOUS
 62
    7
 10
269.31899313282139
 20
234.72447056260728
 11
269.44139313282142
 21
235.06077056260727
  0
LINE
  8
_0-0_
  6
CONTINUOUS
 62
    7
 10
269.44139313282142
 20
235.06077056260727
 11
269.56659313282137
 21
235.39737056260731
  0
LINE
  8
_0-0_
  6
CONTINUOUS
 62
    7
 10
269.56659313282137
 20
235.39737056260731
 11
269.6941931328214
 21
235.73407056260731
  0
LINE
  8
_0-0_
  6
CONTINUOUS
 62
    7
 10
269.6941931328214
 20
235.73407056260731
 11
269.82379313282138
 21
236.0709705626073
  0
LINE
  8
_0-0_
  6
CONTINUOUS
 62
    7
 10
269.82379313282138
 20
236.0709705626073
 11
269.95489313282138
 21
236.40797056260729
  0
LINE
  8
_0-0_
  6
CONTINUOUS
 62
    7
 10
269.95489313282138
 20
236.40797056260729
 11
270.08709313282139
 21
236.74517056260731
  0
LINE
  8
_0-0_
  6
CONTINUOUS
 62
    7
 10
270.08709313282139
 20
236.74517056260731
 11
270.2199931328214
 21
237.08227056260728
  0
LINE
  8
_0-0_
  6
CONTINUOUS
 62
    7
 10
270.2199931328214
 20
237.08227056260728
 11
270.29719313282141
 21
237.27787056260729
  0
LINE
  8
_0-0_
  6
CONTINUOUS
 62
    7
 10
215.29719313282141
 20
205.6778705626073
 11
215.70409313282141
 21
206.69527056260728
  0
LINE
  8
_0-0_
  6
CONTINUOUS
 62
    7
 10
215.70409313282141
 20
206.69527056260728
 11
216.36929313282138
 21
208.44487056260729
  0
LINE
  8
_0-0_
  6
CONTINUOUS
 62
    7
 10
216.36929313282138
 20
208.44487056260729
 11
216.93379313282139
 21
210.1822705626073
  0
LINE
  8
_0-0_
  6
CONTINUOUS
 62
    7
 10
216.93379313282139
 20
210.1822705626073
 11
217.3337931328214
 21
211.8996705626073
  0
LINE
  8
_0-0_
  6
CONTINUOUS
 62
    7
 10
217.3337931328214
 20
211.8996705626073
 11
217.50559313282139
 21
213.58917056260731
  0
LINE
  8
_0-0_
  6
CONTINUOUS
 62
    7
 10
217.50559313282139
 20
213.58917056260731
 11
217.38539313282141
 21
215.24327056260728
  0
LINE
  8
_0-0_
  6
CONTINUOUS
 62
    7
 10
217.38539313282141
 20
215.24327056260728
 11
217.15679313282141
 21
216.1831705626073
  0
LINE
  8
_0-0_
  6
CONTINUOUS
 62
    7
 10
217.15679313282141
 20
216.1831705626073
 11
216.8380931328214
 21
217.03007056260731
  0
LINE
  8
_0-0_
  6
CONTINUOUS
 62
    7
 10
216.8380931328214
 20
217.03007056260731
 11
216.10499313282139
 21
218.4682705626073
  0
LINE
  8
_0-0_
  6
CONTINUOUS
 62
    7
 10
216.10499313282139
 20
218.4682705626073
 11
215.25439313282141
 21
219.89327056260728
  0
LINE
  8
_0-0_
  6
CONTINUOUS
 62
    7
 10
215.25439313282141
 20
219.89327056260728
 11
214.4203931328214
 21
221.32217056260728
  0
LINE
  8
_0-0_
  6
CONTINUOUS
 62
    7
 10
214.4203931328214
 20
221.32217056260728
 11
213.73659313282138
 21
222.77197056260729
  0
LINE
  8
_0-0_
  6
CONTINUOUS
 62
    7
 10
213.73659313282138
 20
222.77197056260729
 11
213.33699313282139
 21
224.25977056260729
  0
LINE
  8
_0-0_
  6
CONTINUOUS
 62
    7
 10
213.33699313282139
 20
224.25977056260729
 11
213.28819313282139
 21
225.14677056260729
  0
LINE
  8
_0-0_
  6
CONTINUOUS
 62
    7
 10
213.28819313282139
 20
225.14677056260729
 11
213.37169313282141
 21
225.9278705626073
  0
LINE
  8
_0-0_
  6
CONTINUOUS
 62
    7
 10
213.37169313282141
 20
225.9278705626073
 11
213.72899313282142
 21
227.29887056260731
  0
LINE
  8
_0-0_
  6
CONTINUOUS
 62
    7
 10
213.72899313282142
 20
227.29887056260731
 11
214.23839313282139
 21
228.67997056260731
  0
LINE
  8
_0-0_
  6
CONTINUOUS
 62
    7
 10
214.23839313282139
 20
228.67997056260731
 11
214.76319313282141
 21
230.0470705626073
  0
LINE
  8
_0-0_
  6
CONTINUOUS
 62
    7
 10
214.76319313282141
 20
230.0470705626073
 11
215.16629313282141
 21
231.37597056260728
  0
LINE
  8
_0-0_
  6
CONTINUOUS
 62
    7
 10
215.16629313282141
 20
231.37597056260728
 11
215.31099313282141
 21
232.64257056260729
  0
LINE
  8
_0-0_
  6
CONTINUOUS
 62
    7
 10
215.31099313282141
 20
232.64257056260729
 11
215.2224931328214
 21
233.33917056260731
  0
LINE
  8
_0-0_
  6
CONTINUOUS
 62
    7
 10
215.2224931328214
 20
233.33917056260731
 11
215.09369313282139
 21
233.74857056260728
  0
LINE
  8
_0-0_
  6
CONTINUOUS
 62
    7
 10
215.09369313282139
 20
233.74857056260728
 11
214.7480931328214
 21
234.42807056260727
  0
LINE
  8
_0-0_
  6
CONTINUOUS
 62
    7
 10
214.7480931328214
 20
234.42807056260727
 11
214.27099313282139
 21
235.07987056260731
  0
LINE
  8
_0-0_
  6
CONTINUOUS
 62
    7
 10
214.27099313282139
 20
235.07987056260731
 11
213.69109313282141
 21
235.70997056260728
  0
LINE
  8
_0-0_
  6
CONTINUOUS
 62
    7
 10
213.69109313282141
 20
235.70997056260728
 11
213.03709313282138
 21
236.3243705626073
  0
LINE
  8
_0-0_
  6
CONTINUOUS
 62
    7
 10
213.03709313282138
 20
236.3243705626073
 11
212.33769313282141
 21
236.92907056260731
  0
LINE
  8
_0-0_
  6
CONTINUOUS
 62
    7
 10
212.33769313282141
 20
236.92907056260731
 11
211.92259313282139
 21
237.27787056260729
  0
LINE
  8
_0-0_
  6
CONTINUOUS
 62
    7
 10
208.08689313282139
 20
237.27787056260729
 11
208.11269313282139
 21
237.4510705626073
  0
LINE
  8
_0-0_
  6
CONTINUOUS
 62
    7
 10
208.11269313282139
 20
237.4510705626073
 11
208.09899313282139
 21
237.62507056260728
  0
LINE
  8
_0-0_
  6
CONTINUOUS
 62
    7
 10
208.09899313282139
 20
237.62507056260728
 11
208.0462931328214
 21
237.7945705626073
  0
LINE
  8
_0-0_
  6
CONTINUOUS
 62
    7
 10
208.0462931328214
 20
237.7945705626073
 11
207.95609313282139
 21
237.9544705626073
  0
LINE
  8
_0-0_
  6
CONTINUOUS
 62
    7
 10
207.95609313282139
 20
237.9544705626073
 11
207.83109313282139
 21
238.09987056260729
  0
LINE
  8
_0-0_
  6
CONTINUOUS
 62
    7
 10
207.83109313282139
 20
238.09987056260729
 11
207.67519313282139
 21
238.22637056260731
  0
LINE
  8
_0-0_
  6
CONTINUOUS
 62
    7
 10
207.67519313282139
 20
238.22637056260731
 11
207.4931931328214
 21
238.33017056260729
  0
LINE
  8
_0-0_
  6
CONTINUOUS
 62
    7
 10
207.4931931328214
 20
238.33017056260729
 11
207.29039313282141
 21
238.40797056260729
  0
LINE
  8
_0-0_
  6
CONTINUOUS
 62
    7
 10
207.29039313282141
 20
238.40797056260729
 11
207.07319313282142
 21
238.45757056260729
  0
LINE
  8
_0-0_
  6
CONTINUOUS
 62
    7
 10
207.07319313282142
 20
238.45757056260729
 11
206.84809313282139
 21
238.47747056260729
  0
LINE
  8
_0-0_
  6
CONTINUOUS
 62
    7
 10
206.84809313282139
 20
238.47747056260729
 11
206.62189313282141
 21
238.46697056260729
  0
LINE
  8
_0-0_
  6
CONTINUOUS
 62
    7
 10
206.62189313282141
 20
238.46697056260729
 11
206.4014931328214
 21
238.4263705626073
  0
LINE
  8
_0-0_
  6
CONTINUOUS
 62
    7
 10
206.4014931328214
 20
238.4263705626073
 11
206.19359313282141
 21
238.35697056260727
  0
LINE
  8
_0-0_
  6
CONTINUOUS
 62
    7
 10
206.19359313282141
 20
238.35697056260727
 11
206.00459313282141
 21
238.26087056260729
  0
LINE
  8
_0-0_
  6
CONTINUOUS
 62
    7
 10
206.00459313282141
 20
238.26087056260729
 11
205.84009313282141
 21
238.14097056260729
  0
LINE
  8
_0-0_
  6
CONTINUOUS
 62
    7
 10
205.84009313282141
 20
238.14097056260729
 11
205.70519313282139
 21
238.0008705626073
  0
LINE
  8
_0-0_
  6
CONTINUOUS
 62
    7
 10
205.70519313282139
 20
238.0008705626073
 11
205.60399313282142
 21
237.84497056260727
  0
LINE
  8
_0-0_
  6
CONTINUOUS
 62
    7
 10
205.60399313282142
 20
237.84497056260727
 11
205.53949313282141
 21
237.6778705626073
  0
LINE
  8
_0-0_
  6
CONTINUOUS
 62
    7
 10
205.53949313282141
 20
237.6778705626073
 11
205.5136931328214
 21
237.50467056260729
  0
LINE
  8
_0-0_
  6
CONTINUOUS
 62
    7
 10
205.5136931328214
 20
237.50467056260729
 11
205.5273931328214
 21
237.33067056260728
  0
LINE
  8
_0-0_
  6
CONTINUOUS
 62
    7
 10
205.5273931328214
 20
237.33067056260728
 11
205.53949313282141
 21
237.27787056260729
  0
LINE
  8
_0-0_
  6
CONTINUOUS
 62
    7
 10
107.8269931328214
 20
237.2266705626073
 11
107.8611931328214
 21
237.27787056260729
  0
LINE
  8
_0-0_
  6
CONTINUOUS
 62
    7
 10
207.9631931328214
 20
237.47787056260728
 11
207.94569313282139
 21
237.62547056260729
  0
LINE
  8
_0-0_
  6
CONTINUOUS
 62
    7
 10
207.94569313282139
 20
237.62547056260729
 11
207.8937931328214
 21
237.76857056260729
  0
LINE
  8
_0-0_
  6
CONTINUOUS
 62
    7
 10
207.8937931328214
 20
237.76857056260729
 11
207.8090931328214
 21
237.90287056260729
  0
LINE
  8
_0-0_
  6
CONTINUOUS
 62
    7
 10
207.8090931328214
 20
237.90287056260729
 11
207.69409313282139
 21
238.02417056260731
  0
LINE
  8
_0-0_
  6
CONTINUOUS
 62
    7
 10
207.69409313282139
 20
238.02417056260731
 11
207.55239313282141
 21
238.12897056260729
  0
LINE
  8
_0-0_
  6
CONTINUOUS
 62
    7
 10
207.55239313282141
 20
238.12897056260729
 11
207.38819313282141
 21
238.2139705626073
  0
LINE
  8
_0-0_
  6
CONTINUOUS
 62
    7
 10
207.38819313282141
 20
238.2139705626073
 11
207.20649313282141
 21
238.27657056260728
  0
LINE
  8
_0-0_
  6
CONTINUOUS
 62
    7
 10
207.20649313282141
 20
238.27657056260728
 11
207.0128931328214
 21
238.3148705626073
  0
LINE
  8
_0-0_
  6
CONTINUOUS
 62
    7
 10
207.0128931328214
 20
238.3148705626073
 11
206.8131931328214
 21
238.3278705626073
  0
LINE
  8
_0-0_
  6
CONTINUOUS
 62
    7
 10
206.8131931328214
 20
238.3278705626073
 11
206.61349313282139
 21
238.3148705626073
  0
LINE
  8
_0-0_
  6
CONTINUOUS
 62
    7
 10
206.61349313282139
 20
238.3148705626073
 11
206.41989313282141
 21
238.27657056260728
  0
LINE
  8
_0-0_
  6
CONTINUOUS
 62
    7
 10
206.41989313282141
 20
238.27657056260728
 11
206.23819313282141
 21
238.2139705626073
  0
LINE
  8
_0-0_
  6
CONTINUOUS
 62
    7
 10
206.23819313282141
 20
238.2139705626073
 11
206.07399313282139
 21
238.12897056260729
  0
LINE
  8
_0-0_
  6
CONTINUOUS
 62
    7
 10
206.07399313282139
 20
238.12897056260729
 11
205.9321931328214
 21
238.02417056260731
  0
LINE
  8
_0-0_
  6
CONTINUOUS
 62
    7
 10
205.9321931328214
 20
238.02417056260731
 11
205.81729313282139
 21
237.90287056260729
  0
LINE
  8
_0-0_
  6
CONTINUOUS
 62
    7
 10
205.81729313282139
 20
237.90287056260729
 11
205.73259313282139
 21
237.76857056260729
  0
LINE
  8
_0-0_
  6
CONTINUOUS
 62
    7
 10
205.73259313282139
 20
237.76857056260729
 11
205.6806931328214
 21
237.62547056260729
  0
LINE
  8
_0-0_
  6
CONTINUOUS
 62
    7
 10
205.6806931328214
 20
237.62547056260729
 11
205.66319313282139
 21
237.47787056260728
  0
LINE
  8
_0-0_
  6
CONTINUOUS
 62
    7
 10
205.66319313282139
 20
237.47787056260728
 11
205.6806931328214
 21
237.3302705626073
  0
LINE
  8
_0-0_
  6
CONTINUOUS
 62
    7
 10
205.6806931328214
 20
237.3302705626073
 11
205.73259313282139
 21
237.18717056260729
  0
LINE
  8
_0-0_
  6
CONTINUOUS
 62
    7
 10
205.73259313282139
 20
237.18717056260729
 11
205.81729313282139
 21
237.0528705626073
  0
LINE
  8
_0-0_
  6
CONTINUOUS
 62
    7
 10
205.81729313282139
 20
237.0528705626073
 11
205.9321931328214
 21
236.93147056260727
  0
LINE
  8
_0-0_
  6
CONTINUOUS
 62
    7
 10
205.9321931328214
 20
236.93147056260727
 11
206.07399313282139
 21
236.82677056260729
  0
LINE
  8
_0-0_
  6
CONTINUOUS
 62
    7
 10
206.07399313282139
 20
236.82677056260729
 11
206.23819313282141
 21
236.74177056260731
  0
LINE
  8
_0-0_
  6
CONTINUOUS
 62
    7
 10
206.23819313282141
 20
236.74177056260731
 11
206.41989313282141
 21
236.67917056260728
  0
LINE
  8
_0-0_
  6
CONTINUOUS
 62
    7
 10
206.41989313282141
 20
236.67917056260728
 11
206.61349313282139
 21
236.64077056260729
  0
LINE
  8
_0-0_
  6
CONTINUOUS
 62
    7
 10
206.61349313282139
 20
236.64077056260729
 11
206.8131931328214
 21
236.62787056260731
  0
LINE
  8
_0-0_
  6
CONTINUOUS
 62
    7
 10
206.8131931328214
 20
236.62787056260731
 11
207.0128931328214
 21
236.64077056260729
  0
LINE
  8
_0-0_
  6
CONTINUOUS
 62
    7
 10
207.0128931328214
 20
236.64077056260729
 11
207.20649313282141
 21
236.67917056260728
  0
LINE
  8
_0-0_
  6
CONTINUOUS
 62
    7
 10
207.20649313282141
 20
236.67917056260728
 11
207.38819313282141
 21
236.74177056260731
  0
LINE
  8
_0-0_
  6
CONTINUOUS
 62
    7
 10
207.38819313282141
 20
236.74177056260731
 11
207.55239313282141
 21
236.82677056260729
  0
LINE
  8
_0-0_
  6
CONTINUOUS
 62
    7
 10
207.55239313282141
 20
236.82677056260729
 11
207.69409313282139
 21
236.93147056260727
  0
LINE
  8
_0-0_
  6
CONTINUOUS
 62
    7
 10
207.69409313282139
 20
236.93147056260727
 11
207.8090931328214
 21
237.0528705626073
  0
LINE
  8
_0-0_
  6
CONTINUOUS
 62
    7
 10
207.8090931328214
 20
237.0528705626073
 11
207.8937931328214
 21
237.18717056260729
  0
LINE
  8
_0-0_
  6
CONTINUOUS
 62
    7
 10
207.8937931328214
 20
237.18717056260729
 11
207.94569313282139
 21
237.3302705626073
  0
LINE
  8
_0-0_
  6
CONTINUOUS
 62
    7
 10
207.94569313282139
 20
237.3302705626073
 11
207.9631931328214
 21
237.47787056260728
  0
LINE
  8
_0-0_
  6
CONTINUOUS
 62
    7
 10
197.9631931328214
 20
237.47787056260728
 11
197.94569313282139
 21
237.62547056260729
  0
LINE
  8
_0-0_
  6
CONTINUOUS
 62
    7
 10
197.94569313282139
 20
237.62547056260729
 11
197.8937931328214
 21
237.76857056260729
  0
LINE
  8
_0-0_
  6
CONTINUOUS
 62
    7
 10
197.8937931328214
 20
237.76857056260729
 11
197.8090931328214
 21
237.90287056260729
  0
LINE
  8
_0-0_
  6
CONTINUOUS
 62
    7
 10
197.8090931328214
 20
237.90287056260729
 11
197.6941931328214
 21
238.02417056260731
  0
LINE
  8
_0-0_
  6
CONTINUOUS
 62
    7
 10
197.6941931328214
 20
238.02417056260731
 11
197.55239313282141
 21
238.12897056260729
  0
LINE
  8
_0-0_
  6
CONTINUOUS
 62
    7
 10
197.55239313282141
 20
238.12897056260729
 11
197.38819313282141
 21
238.2139705626073
  0
LINE
  8
_0-0_
  6
CONTINUOUS
 62
    7
 10
197.38819313282141
 20
238.2139705626073
 11
197.20649313282141
 21
238.27657056260728
  0
LINE
  8
_0-0_
  6
CONTINUOUS
 62
    7
 10
197.20649313282141
 20
238.27657056260728
 11
197.0128931328214
 21
238.3148705626073
  0
LINE
  8
_0-0_
  6
CONTINUOUS
 62
    7
 10
197.0128931328214
 20
238.3148705626073
 11
196.8131931328214
 21
238.3278705626073
  0
LINE
  8
_0-0_
  6
CONTINUOUS
 62
    7
 10
196.8131931328214
 20
238.3278705626073
 11
196.61349313282139
 21
238.3148705626073
  0
LINE
  8
_0-0_
  6
CONTINUOUS
 62
    7
 10
196.61349313282139
 20
238.3148705626073
 11
196.41989313282141
 21
238.27657056260728
  0
LINE
  8
_0-0_
  6
CONTINUOUS
 62
    7
 10
196.41989313282141
 20
238.27657056260728
 11
196.23819313282141
 21
238.2139705626073
  0
LINE
  8
_0-0_
  6
CONTINUOUS
 62
    7
 10
196.23819313282141
 20
238.2139705626073
 11
196.07399313282139
 21
238.12897056260729
  0
LINE
  8
_0-0_
  6
CONTINUOUS
 62
    7
 10
196.07399313282139
 20
238.12897056260729
 11
195.9322931328214
 21
238.02417056260731
  0
LINE
  8
_0-0_
  6
CONTINUOUS
 62
    7
 10
195.9322931328214
 20
238.02417056260731
 11
195.81729313282139
 21
237.90287056260729
  0
LINE
  8
_0-0_
  6
CONTINUOUS
 62
    7
 10
195.81729313282139
 20
237.90287056260729
 11
195.73259313282139
 21
237.76857056260729
  0
LINE
  8
_0-0_
  6
CONTINUOUS
 62
    7
 10
195.73259313282139
 20
237.76857056260729
 11
195.6806931328214
 21
237.62547056260729
  0
LINE
  8
_0-0_
  6
CONTINUOUS
 62
    7
 10
195.6806931328214
 20
237.62547056260729
 11
195.66319313282139
 21
237.47787056260728
  0
LINE
  8
_0-0_
  6
CONTINUOUS
 62
    7
 10
195.66319313282139
 20
237.47787056260728
 11
195.6806931328214
 21
237.3302705626073
  0
LINE
  8
_0-0_
  6
CONTINUOUS
 62
    7
 10
195.6806931328214
 20
237.3302705626073
 11
195.73259313282139
 21
237.18717056260729
  0
LINE
  8
_0-0_
  6
CONTINUOUS
 62
    7
 10
195.73259313282139
 20
237.18717056260729
 11
195.81729313282139
 21
237.0528705626073
  0
LINE
  8
_0-0_
  6
CONTINUOUS
 62
    7
 10
195.81729313282139
 20
237.0528705626073
 11
195.9322931328214
 21
236.93147056260727
  0
LINE
  8
_0-0_
  6
CONTINUOUS
 62
    7
 10
195.9322931328214
 20
236.93147056260727
 11
196.07399313282139
 21
236.82677056260729
  0
LINE
  8
_0-0_
  6
CONTINUOUS
 62
    7
 10
196.07399313282139
 20
236.82677056260729
 11
196.23819313282141
 21
236.74177056260731
  0
LINE
  8
_0-0_
  6
CONTINUOUS
 62
    7
 10
196.23819313282141
 20
236.74177056260731
 11
196.41989313282141
 21
236.67917056260728
  0
LINE
  8
_0-0_
  6
CONTINUOUS
 62
    7
 10
196.41989313282141
 20
236.67917056260728
 11
196.61349313282139
 21
236.64077056260729
  0
LINE
  8
_0-0_
  6
CONTINUOUS
 62
    7
 10
196.61349313282139
 20
236.64077056260729
 11
196.8131931328214
 21
236.62787056260731
  0
LINE
  8
_0-0_
  6
CONTINUOUS
 62
    7
 10
196.8131931328214
 20
236.62787056260731
 11
197.0128931328214
 21
236.64077056260729
  0
LINE
  8
_0-0_
  6
CONTINUOUS
 62
    7
 10
197.0128931328214
 20
236.64077056260729
 11
197.20649313282141
 21
236.67917056260728
  0
LINE
  8
_0-0_
  6
CONTINUOUS
 62
    7
 10
197.20649313282141
 20
236.67917056260728
 11
197.38819313282141
 21
236.74177056260731
  0
LINE
  8
_0-0_
  6
CONTINUOUS
 62
    7
 10
197.38819313282141
 20
236.74177056260731
 11
197.55239313282141
 21
236.82677056260729
  0
LINE
  8
_0-0_
  6
CONTINUOUS
 62
    7
 10
197.55239313282141
 20
236.82677056260729
 11
197.6941931328214
 21
236.93147056260727
  0
LINE
  8
_0-0_
  6
CONTINUOUS
 62
    7
 10
197.6941931328214
 20
236.93147056260727
 11
197.8090931328214
 21
237.0528705626073
  0
LINE
  8
_0-0_
  6
CONTINUOUS
 62
    7
 10
197.8090931328214
 20
237.0528705626073
 11
197.8937931328214
 21
237.18717056260729
  0
LINE
  8
_0-0_
  6
CONTINUOUS
 62
    7
 10
197.8937931328214
 20
237.18717056260729
 11
197.94569313282139
 21
237.3302705626073
  0
LINE
  8
_0-0_
  6
CONTINUOUS
 62
    7
 10
197.94569313282139
 20
237.3302705626073
 11
197.9631931328214
 21
237.47787056260728
  0
LINE
  8
_0-0_
  6
CONTINUOUS
 62
    7
 10
198.08689313282139
 20
237.27787056260729
 11
198.11269313282139
 21
237.4510705626073
  0
LINE
  8
_0-0_
  6
CONTINUOUS
 62
    7
 10
198.11269313282139
 20
237.4510705626073
 11
198.09899313282139
 21
237.62507056260728
  0
LINE
  8
_0-0_
  6
CONTINUOUS
 62
    7
 10
198.09899313282139
 20
237.62507056260728
 11
198.0462931328214
 21
237.7945705626073
  0
LINE
  8
_0-0_
  6
CONTINUOUS
 62
    7
 10
198.0462931328214
 20
237.7945705626073
 11
197.95609313282139
 21
237.9544705626073
  0
LINE
  8
_0-0_
  6
CONTINUOUS
 62
    7
 10
197.95609313282139
 20
237.9544705626073
 11
197.83109313282139
 21
238.09987056260729
  0
LINE
  8
_0-0_
  6
CONTINUOUS
 62
    7
 10
197.83109313282139
 20
238.09987056260729
 11
197.67519313282139
 21
238.22637056260731
  0
LINE
  8
_0-0_
  6
CONTINUOUS
 62
    7
 10
197.67519313282139
 20
238.22637056260731
 11
197.4931931328214
 21
238.33017056260729
  0
LINE
  8
_0-0_
  6
CONTINUOUS
 62
    7
 10
197.4931931328214
 20
238.33017056260729
 11
197.29039313282141
 21
238.40797056260729
  0
LINE
  8
_0-0_
  6
CONTINUOUS
 62
    7
 10
197.29039313282141
 20
238.40797056260729
 11
197.07319313282142
 21
238.45757056260729
  0
LINE
  8
_0-0_
  6
CONTINUOUS
 62
    7
 10
197.07319313282142
 20
238.45757056260729
 11
196.84809313282139
 21
238.47747056260729
  0
LINE
  8
_0-0_
  6
CONTINUOUS
 62
    7
 10
196.84809313282139
 20
238.47747056260729
 11
196.62189313282141
 21
238.46697056260729
  0
LINE
  8
_0-0_
  6
CONTINUOUS
 62
    7
 10
196.62189313282141
 20
238.46697056260729
 11
196.4014931328214
 21
238.4263705626073
  0
LINE
  8
_0-0_
  6
CONTINUOUS
 62
    7
 10
196.4014931328214
 20
238.4263705626073
 11
196.19359313282141
 21
238.35697056260727
  0
LINE
  8
_0-0_
  6
CONTINUOUS
 62
    7
 10
196.19359313282141
 20
238.35697056260727
 11
196.00459313282141
 21
238.26087056260729
  0
LINE
  8
_0-0_
  6
CONTINUOUS
 62
    7
 10
196.00459313282141
 20
238.26087056260729
 11
195.84009313282138
 21
238.14097056260729
  0
LINE
  8
_0-0_
  6
CONTINUOUS
 62
    7
 10
195.84009313282138
 20
238.14097056260729
 11
195.70519313282139
 21
238.0008705626073
  0
LINE
  8
_0-0_
  6
CONTINUOUS
 62
    7
 10
195.70519313282139
 20
238.0008705626073
 11
195.60399313282142
 21
237.84497056260727
  0
LINE
  8
_0-0_
  6
CONTINUOUS
 62
    7
 10
195.60399313282142
 20
237.84497056260727
 11
195.53949313282141
 21
237.6778705626073
  0
LINE
  8
_0-0_
  6
CONTINUOUS
 62
    7
 10
195.53949313282141
 20
237.6778705626073
 11
195.5136931328214
 21
237.50467056260729
  0
LINE
  8
_0-0_
  6
CONTINUOUS
 62
    7
 10
195.5136931328214
 20
237.50467056260729
 11
195.5273931328214
 21
237.33067056260728
  0
LINE
  8
_0-0_
  6
CONTINUOUS
 62
    7
 10
195.5273931328214
 20
237.33067056260728
 11
195.53949313282141
 21
237.27787056260729
  0
LINE
  8
_0-0_
  6
CONTINUOUS
 62
    7
 10
187.9631931328214
 20
237.47787056260728
 11
187.94569313282139
 21
237.62547056260729
  0
LINE
  8
_0-0_
  6
CONTINUOUS
 62
    7
 10
187.94569313282139
 20
237.62547056260729
 11
187.8937931328214
 21
237.76857056260729
  0
LINE
  8
_0-0_
  6
CONTINUOUS
 62
    7
 10
187.8937931328214
 20
237.76857056260729
 11
187.8090931328214
 21
237.90287056260729
  0
LINE
  8
_0-0_
  6
CONTINUOUS
 62
    7
 10
187.8090931328214
 20
237.90287056260729
 11
187.69409313282139
 21
238.02417056260731
  0
LINE
  8
_0-0_
  6
CONTINUOUS
 62
    7
 10
187.69409313282139
 20
238.02417056260731
 11
187.55239313282141
 21
238.12897056260729
  0
LINE
  8
_0-0_
  6
CONTINUOUS
 62
    7
 10
187.55239313282141
 20
238.12897056260729
 11
187.38819313282141
 21
238.2139705626073
  0
LINE
  8
_0-0_
  6
CONTINUOUS
 62
    7
 10
187.38819313282141
 20
238.2139705626073
 11
187.20649313282141
 21
238.27657056260728
  0
LINE
  8
_0-0_
  6
CONTINUOUS
 62
    7
 10
187.20649313282141
 20
238.27657056260728
 11
187.0128931328214
 21
238.3148705626073
  0
LINE
  8
_0-0_
  6
CONTINUOUS
 62
    7
 10
187.0128931328214
 20
238.3148705626073
 11
186.8131931328214
 21
238.3278705626073
  0
LINE
  8
_0-0_
  6
CONTINUOUS
 62
    7
 10
186.8131931328214
 20
238.3278705626073
 11
186.61349313282139
 21
238.3148705626073
  0
LINE
  8
_0-0_
  6
CONTINUOUS
 62
    7
 10
186.61349313282139
 20
238.3148705626073
 11
186.41989313282139
 21
238.27657056260728
  0
LINE
  8
_0-0_
  6
CONTINUOUS
 62
    7
 10
186.41989313282139
 20
238.27657056260728
 11
186.23819313282141
 21
238.2139705626073
  0
LINE
  8
_0-0_
  6
CONTINUOUS
 62
    7
 10
186.23819313282141
 20
238.2139705626073
 11
186.07399313282139
 21
238.12897056260729
  0
LINE
  8
_0-0_
  6
CONTINUOUS
 62
    7
 10
186.07399313282139
 20
238.12897056260729
 11
185.9321931328214
 21
238.02417056260731
  0
LINE
  8
_0-0_
  6
CONTINUOUS
 62
    7
 10
185.9321931328214
 20
238.02417056260731
 11
185.81729313282139
 21
237.90287056260729
  0
LINE
  8
_0-0_
  6
CONTINUOUS
 62
    7
 10
185.81729313282139
 20
237.90287056260729
 11
185.73249313282139
 21
237.76857056260729
  0
LINE
  8
_0-0_
  6
CONTINUOUS
 62
    7
 10
185.73249313282139
 20
237.76857056260729
 11
185.6806931328214
 21
237.62547056260729
  0
LINE
  8
_0-0_
  6
CONTINUOUS
 62
    7
 10
185.6806931328214
 20
237.62547056260729
 11
185.66319313282139
 21
237.47787056260728
  0
LINE
  8
_0-0_
  6
CONTINUOUS
 62
    7
 10
185.66319313282139
 20
237.47787056260728
 11
185.6806931328214
 21
237.3302705626073
  0
LINE
  8
_0-0_
  6
CONTINUOUS
 62
    7
 10
185.6806931328214
 20
237.3302705626073
 11
185.73249313282139
 21
237.18717056260729
  0
LINE
  8
_0-0_
  6
CONTINUOUS
 62
    7
 10
185.73249313282139
 20
237.18717056260729
 11
185.81729313282139
 21
237.0528705626073
  0
LINE
  8
_0-0_
  6
CONTINUOUS
 62
    7
 10
185.81729313282139
 20
237.0528705626073
 11
185.9321931328214
 21
236.93147056260727
  0
LINE
  8
_0-0_
  6
CONTINUOUS
 62
    7
 10
185.9321931328214
 20
236.93147056260727
 11
186.07399313282139
 21
236.82677056260729
  0
LINE
  8
_0-0_
  6
CONTINUOUS
 62
    7
 10
186.07399313282139
 20
236.82677056260729
 11
186.23819313282141
 21
236.74177056260731
  0
LINE
  8
_0-0_
  6
CONTINUOUS
 62
    7
 10
186.23819313282141
 20
236.74177056260731
 11
186.41989313282139
 21
236.67917056260728
  0
LINE
  8
_0-0_
  6
CONTINUOUS
 62
    7
 10
186.41989313282139
 20
236.67917056260728
 11
186.61349313282139
 21
236.64077056260729
  0
LINE
  8
_0-0_
  6
CONTINUOUS
 62
    7
 10
186.61349313282139
 20
236.64077056260729
 11
186.8131931328214
 21
236.62787056260731
  0
LINE
  8
_0-0_
  6
CONTINUOUS
 62
    7
 10
186.8131931328214
 20
236.62787056260731
 11
187.0128931328214
 21
236.64077056260729
  0
LINE
  8
_0-0_
  6
CONTINUOUS
 62
    7
 10
187.0128931328214
 20
236.64077056260729
 11
187.20649313282141
 21
236.67917056260728
  0
LINE
  8
_0-0_
  6
CONTINUOUS
 62
    7
 10
187.20649313282141
 20
236.67917056260728
 11
187.38819313282141
 21
236.74177056260731
  0
LINE
  8
_0-0_
  6
CONTINUOUS
 62
    7
 10
187.38819313282141
 20
236.74177056260731
 11
187.55239313282141
 21
236.82677056260729
  0
LINE
  8
_0-0_
  6
CONTINUOUS
 62
    7
 10
187.55239313282141
 20
236.82677056260729
 11
187.69409313282139
 21
236.93147056260727
  0
LINE
  8
_0-0_
  6
CONTINUOUS
 62
    7
 10
187.69409313282139
 20
236.93147056260727
 11
187.8090931328214
 21
237.0528705626073
  0
LINE
  8
_0-0_
  6
CONTINUOUS
 62
    7
 10
187.8090931328214
 20
237.0528705626073
 11
187.8937931328214
 21
237.18717056260729
  0
LINE
  8
_0-0_
  6
CONTINUOUS
 62
    7
 10
187.8937931328214
 20
237.18717056260729
 11
187.94569313282139
 21
237.3302705626073
  0
LINE
  8
_0-0_
  6
CONTINUOUS
 62
    7
 10
187.94569313282139
 20
237.3302705626073
 11
187.9631931328214
 21
237.47787056260728
  0
LINE
  8
_0-0_
  6
CONTINUOUS
 62
    7
 10
177.9631931328214
 20
237.47787056260728
 11
177.94569313282139
 21
237.62547056260729
  0
LINE
  8
_0-0_
  6
CONTINUOUS
 62
    7
 10
177.94569313282139
 20
237.62547056260729
 11
177.8937931328214
 21
237.76857056260729
  0
LINE
  8
_0-0_
  6
CONTINUOUS
 62
    7
 10
177.8937931328214
 20
237.76857056260729
 11
177.8090931328214
 21
237.90287056260729
  0
LINE
  8
_0-0_
  6
CONTINUOUS
 62
    7
 10
177.8090931328214
 20
237.90287056260729
 11
177.69409313282139
 21
238.02417056260731
  0
LINE
  8
_0-0_
  6
CONTINUOUS
 62
    7
 10
177.69409313282139
 20
238.02417056260731
 11
177.55239313282141
 21
238.12897056260729
  0
LINE
  8
_0-0_
  6
CONTINUOUS
 62
    7
 10
177.55239313282141
 20
238.12897056260729
 11
177.38819313282141
 21
238.2139705626073
  0
LINE
  8
_0-0_
  6
CONTINUOUS
 62
    7
 10
177.38819313282141
 20
238.2139705626073
 11
177.20649313282141
 21
238.27657056260728
  0
LINE
  8
_0-0_
  6
CONTINUOUS
 62
    7
 10
177.20649313282141
 20
238.27657056260728
 11
177.0128931328214
 21
238.3148705626073
  0
LINE
  8
_0-0_
  6
CONTINUOUS
 62
    7
 10
177.0128931328214
 20
238.3148705626073
 11
176.8131931328214
 21
238.3278705626073
  0
LINE
  8
_0-0_
  6
CONTINUOUS
 62
    7
 10
176.8131931328214
 20
238.3278705626073
 11
176.61349313282139
 21
238.3148705626073
  0
LINE
  8
_0-0_
  6
CONTINUOUS
 62
    7
 10
176.61349313282139
 20
238.3148705626073
 11
176.41989313282141
 21
238.27657056260728
  0
LINE
  8
_0-0_
  6
CONTINUOUS
 62
    7
 10
176.41989313282141
 20
238.27657056260728
 11
176.23819313282141
 21
238.2139705626073
  0
LINE
  8
_0-0_
  6
CONTINUOUS
 62
    7
 10
176.23819313282141
 20
238.2139705626073
 11
176.07399313282139
 21
238.12897056260729
  0
LINE
  8
_0-0_
  6
CONTINUOUS
 62
    7
 10
176.07399313282139
 20
238.12897056260729
 11
175.9321931328214
 21
238.02417056260731
  0
LINE
  8
_0-0_
  6
CONTINUOUS
 62
    7
 10
175.9321931328214
 20
238.02417056260731
 11
175.81729313282139
 21
237.90287056260729
  0
LINE
  8
_0-0_
  6
CONTINUOUS
 62
    7
 10
175.81729313282139
 20
237.90287056260729
 11
175.73259313282139
 21
237.76857056260729
  0
LINE
  8
_0-0_
  6
CONTINUOUS
 62
    7
 10
175.73259313282139
 20
237.76857056260729
 11
175.6806931328214
 21
237.62547056260729
  0
LINE
  8
_0-0_
  6
CONTINUOUS
 62
    7
 10
175.6806931328214
 20
237.62547056260729
 11
175.66319313282139
 21
237.47787056260728
  0
LINE
  8
_0-0_
  6
CONTINUOUS
 62
    7
 10
175.66319313282139
 20
237.47787056260728
 11
175.6806931328214
 21
237.3302705626073
  0
LINE
  8
_0-0_
  6
CONTINUOUS
 62
    7
 10
175.6806931328214
 20
237.3302705626073
 11
175.73259313282139
 21
237.18717056260729
  0
LINE
  8
_0-0_
  6
CONTINUOUS
 62
    7
 10
175.73259313282139
 20
237.18717056260729
 11
175.81729313282139
 21
237.0528705626073
  0
LINE
  8
_0-0_
  6
CONTINUOUS
 62
    7
 10
175.81729313282139
 20
237.0528705626073
 11
175.9321931328214
 21
236.93147056260727
  0
LINE
  8
_0-0_
  6
CONTINUOUS
 62
    7
 10
175.9321931328214
 20
236.93147056260727
 11
176.07399313282139
 21
236.82677056260729
  0
LINE
  8
_0-0_
  6
CONTINUOUS
 62
    7
 10
176.07399313282139
 20
236.82677056260729
 11
176.23819313282141
 21
236.74177056260731
  0
LINE
  8
_0-0_
  6
CONTINUOUS
 62
    7
 10
176.23819313282141
 20
236.74177056260731
 11
176.41989313282141
 21
236.67917056260728
  0
LINE
  8
_0-0_
  6
CONTINUOUS
 62
    7
 10
176.41989313282141
 20
236.67917056260728
 11
176.61349313282139
 21
236.64077056260729
  0
LINE
  8
_0-0_
  6
CONTINUOUS
 62
    7
 10
176.61349313282139
 20
236.64077056260729
 11
176.8131931328214
 21
236.62787056260731
  0
LINE
  8
_0-0_
  6
CONTINUOUS
 62
    7
 10
176.8131931328214
 20
236.62787056260731
 11
177.0128931328214
 21
236.64077056260729
  0
LINE
  8
_0-0_
  6
CONTINUOUS
 62
    7
 10
177.0128931328214
 20
236.64077056260729
 11
177.20649313282141
 21
236.67917056260728
  0
LINE
  8
_0-0_
  6
CONTINUOUS
 62
    7
 10
177.20649313282141
 20
236.67917056260728
 11
177.38819313282141
 21
236.74177056260731
  0
LINE
  8
_0-0_
  6
CONTINUOUS
 62
    7
 10
177.38819313282141
 20
236.74177056260731
 11
177.55239313282141
 21
236.82677056260729
  0
LINE
  8
_0-0_
  6
CONTINUOUS
 62
    7
 10
177.55239313282141
 20
236.82677056260729
 11
177.69409313282139
 21
236.93147056260727
  0
LINE
  8
_0-0_
  6
CONTINUOUS
 62
    7
 10
177.69409313282139
 20
236.93147056260727
 11
177.8090931328214
 21
237.0528705626073
  0
LINE
  8
_0-0_
  6
CONTINUOUS
 62
    7
 10
177.8090931328214
 20
237.0528705626073
 11
177.8937931328214
 21
237.18717056260729
  0
LINE
  8
_0-0_
  6
CONTINUOUS
 62
    7
 10
177.8937931328214
 20
237.18717056260729
 11
177.94569313282139
 21
237.3302705626073
  0
LINE
  8
_0-0_
  6
CONTINUOUS
 62
    7
 10
177.94569313282139
 20
237.3302705626073
 11
177.9631931328214
 21
237.47787056260728
  0
LINE
  8
_0-0_
  6
CONTINUOUS
 62
    7
 10
167.9631931328214
 20
237.47787056260728
 11
167.94569313282139
 21
237.62547056260729
  0
LINE
  8
_0-0_
  6
CONTINUOUS
 62
    7
 10
167.94569313282139
 20
237.62547056260729
 11
167.8937931328214
 21
237.76857056260729
  0
LINE
  8
_0-0_
  6
CONTINUOUS
 62
    7
 10
167.8937931328214
 20
237.76857056260729
 11
167.8090931328214
 21
237.90287056260729
  0
LINE
  8
_0-0_
  6
CONTINUOUS
 62
    7
 10
167.8090931328214
 20
237.90287056260729
 11
167.6941931328214
 21
238.02417056260731
  0
LINE
  8
_0-0_
  6
CONTINUOUS
 62
    7
 10
167.6941931328214
 20
238.02417056260731
 11
167.55239313282141
 21
238.12897056260729
  0
LINE
  8
_0-0_
  6
CONTINUOUS
 62
    7
 10
167.55239313282141
 20
238.12897056260729
 11
167.38819313282141
 21
238.2139705626073
  0
LINE
  8
_0-0_
  6
CONTINUOUS
 62
    7
 10
167.38819313282141
 20
238.2139705626073
 11
167.20649313282141
 21
238.27657056260728
  0
LINE
  8
_0-0_
  6
CONTINUOUS
 62
    7
 10
167.20649313282141
 20
238.27657056260728
 11
167.0128931328214
 21
238.3148705626073
  0
LINE
  8
_0-0_
  6
CONTINUOUS
 62
    7
 10
167.0128931328214
 20
238.3148705626073
 11
166.8131931328214
 21
238.3278705626073
  0
LINE
  8
_0-0_
  6
CONTINUOUS
 62
    7
 10
166.8131931328214
 20
238.3278705626073
 11
166.61349313282139
 21
238.3148705626073
  0
LINE
  8
_0-0_
  6
CONTINUOUS
 62
    7
 10
166.61349313282139
 20
238.3148705626073
 11
166.41989313282141
 21
238.27657056260728
  0
LINE
  8
_0-0_
  6
CONTINUOUS
 62
    7
 10
166.41989313282141
 20
238.27657056260728
 11
166.23819313282141
 21
238.2139705626073
  0
LINE
  8
_0-0_
  6
CONTINUOUS
 62
    7
 10
166.23819313282141
 20
238.2139705626073
 11
166.07399313282139
 21
238.12897056260729
  0
LINE
  8
_0-0_
  6
CONTINUOUS
 62
    7
 10
166.07399313282139
 20
238.12897056260729
 11
165.9322931328214
 21
238.02417056260731
  0
LINE
  8
_0-0_
  6
CONTINUOUS
 62
    7
 10
165.9322931328214
 20
238.02417056260731
 11
165.81729313282139
 21
237.90287056260729
  0
LINE
  8
_0-0_
  6
CONTINUOUS
 62
    7
 10
165.81729313282139
 20
237.90287056260729
 11
165.73259313282139
 21
237.76857056260729
  0
LINE
  8
_0-0_
  6
CONTINUOUS
 62
    7
 10
165.73259313282139
 20
237.76857056260729
 11
165.6806931328214
 21
237.62547056260729
  0
LINE
  8
_0-0_
  6
CONTINUOUS
 62
    7
 10
165.6806931328214
 20
237.62547056260729
 11
165.66319313282139
 21
237.47787056260728
  0
LINE
  8
_0-0_
  6
CONTINUOUS
 62
    7
 10
165.66319313282139
 20
237.47787056260728
 11
165.6806931328214
 21
237.3302705626073
  0
LINE
  8
_0-0_
  6
CONTINUOUS
 62
    7
 10
165.6806931328214
 20
237.3302705626073
 11
165.73259313282139
 21
237.18717056260729
  0
LINE
  8
_0-0_
  6
CONTINUOUS
 62
    7
 10
165.73259313282139
 20
237.18717056260729
 11
165.81729313282139
 21
237.0528705626073
  0
LINE
  8
_0-0_
  6
CONTINUOUS
 62
    7
 10
165.81729313282139
 20
237.0528705626073
 11
165.9322931328214
 21
236.93147056260727
  0
LINE
  8
_0-0_
  6
CONTINUOUS
 62
    7
 10
165.9322931328214
 20
236.93147056260727
 11
166.07399313282139
 21
236.82677056260729
  0
LINE
  8
_0-0_
  6
CONTINUOUS
 62
    7
 10
166.07399313282139
 20
236.82677056260729
 11
166.23819313282141
 21
236.74177056260731
  0
LINE
  8
_0-0_
  6
CONTINUOUS
 62
    7
 10
166.23819313282141
 20
236.74177056260731
 11
166.41989313282141
 21
236.67917056260728
  0
LINE
  8
_0-0_
  6
CONTINUOUS
 62
    7
 10
166.41989313282141
 20
236.67917056260728
 11
166.61349313282139
 21
236.64077056260729
  0
LINE
  8
_0-0_
  6
CONTINUOUS
 62
    7
 10
166.61349313282139
 20
236.64077056260729
 11
166.8131931328214
 21
236.62787056260731
  0
LINE
  8
_0-0_
  6
CONTINUOUS
 62
    7
 10
166.8131931328214
 20
236.62787056260731
 11
167.0128931328214
 21
236.64077056260729
  0
LINE
  8
_0-0_
  6
CONTINUOUS
 62
    7
 10
167.0128931328214
 20
236.64077056260729
 11
167.20649313282141
 21
236.67917056260728
  0
LINE
  8
_0-0_
  6
CONTINUOUS
 62
    7
 10
167.20649313282141
 20
236.67917056260728
 11
167.38819313282141
 21
236.74177056260731
  0
LINE
  8
_0-0_
  6
CONTINUOUS
 62
    7
 10
167.38819313282141
 20
236.74177056260731
 11
167.55239313282141
 21
236.82677056260729
  0
LINE
  8
_0-0_
  6
CONTINUOUS
 62
    7
 10
167.55239313282141
 20
236.82677056260729
 11
167.6941931328214
 21
236.93147056260727
  0
LINE
  8
_0-0_
  6
CONTINUOUS
 62
    7
 10
167.6941931328214
 20
236.93147056260727
 11
167.8090931328214
 21
237.0528705626073
  0
LINE
  8
_0-0_
  6
CONTINUOUS
 62
    7
 10
167.8090931328214
 20
237.0528705626073
 11
167.8937931328214
 21
237.18717056260729
  0
LINE
  8
_0-0_
  6
CONTINUOUS
 62
    7
 10
167.8937931328214
 20
237.18717056260729
 11
167.94569313282139
 21
237.3302705626073
  0
LINE
  8
_0-0_
  6
CONTINUOUS
 62
    7
 10
167.94569313282139
 20
237.3302705626073
 11
167.9631931328214
 21
237.47787056260728
  0
LINE
  8
_0-0_
  6
CONTINUOUS
 62
    7
 10
157.9631931328214
 20
237.47787056260728
 11
157.94569313282139
 21
237.62547056260729
  0
LINE
  8
_0-0_
  6
CONTINUOUS
 62
    7
 10
157.94569313282139
 20
237.62547056260729
 11
157.8937931328214
 21
237.76857056260729
  0
LINE
  8
_0-0_
  6
CONTINUOUS
 62
    7
 10
157.8937931328214
 20
237.76857056260729
 11
157.8090931328214
 21
237.90287056260729
  0
LINE
  8
_0-0_
  6
CONTINUOUS
 62
    7
 10
157.8090931328214
 20
237.90287056260729
 11
157.69409313282139
 21
238.02417056260731
  0
LINE
  8
_0-0_
  6
CONTINUOUS
 62
    7
 10
157.69409313282139
 20
238.02417056260731
 11
157.55239313282141
 21
238.12897056260729
  0
LINE
  8
_0-0_
  6
CONTINUOUS
 62
    7
 10
157.55239313282141
 20
238.12897056260729
 11
157.38819313282141
 21
238.2139705626073
  0
LINE
  8
_0-0_
  6
CONTINUOUS
 62
    7
 10
157.38819313282141
 20
238.2139705626073
 11
157.20649313282141
 21
238.27657056260728
  0
LINE
  8
_0-0_
  6
CONTINUOUS
 62
    7
 10
157.20649313282141
 20
238.27657056260728
 11
157.0128931328214
 21
238.3148705626073
  0
LINE
  8
_0-0_
  6
CONTINUOUS
 62
    7
 10
157.0128931328214
 20
238.3148705626073
 11
156.8131931328214
 21
238.3278705626073
  0
LINE
  8
_0-0_
  6
CONTINUOUS
 62
    7
 10
156.8131931328214
 20
238.3278705626073
 11
156.61349313282139
 21
238.3148705626073
  0
LINE
  8
_0-0_
  6
CONTINUOUS
 62
    7
 10
156.61349313282139
 20
238.3148705626073
 11
156.41989313282141
 21
238.27657056260728
  0
LINE
  8
_0-0_
  6
CONTINUOUS
 62
    7
 10
156.41989313282141
 20
238.27657056260728
 11
156.23819313282141
 21
238.2139705626073
  0
LINE
  8
_0-0_
  6
CONTINUOUS
 62
    7
 10
156.23819313282141
 20
238.2139705626073
 11
156.07399313282139
 21
238.12897056260729
  0
LINE
  8
_0-0_
  6
CONTINUOUS
 62
    7
 10
156.07399313282139
 20
238.12897056260729
 11
155.9321931328214
 21
238.02417056260731
  0
LINE
  8
_0-0_
  6
CONTINUOUS
 62
    7
 10
155.9321931328214
 20
238.02417056260731
 11
155.81729313282139
 21
237.90287056260729
  0
LINE
  8
_0-0_
  6
CONTINUOUS
 62
    7
 10
155.81729313282139
 20
237.90287056260729
 11
155.73249313282139
 21
237.76857056260729
  0
LINE
  8
_0-0_
  6
CONTINUOUS
 62
    7
 10
155.73249313282139
 20
237.76857056260729
 11
155.6806931328214
 21
237.62547056260729
  0
LINE
  8
_0-0_
  6
CONTINUOUS
 62
    7
 10
155.6806931328214
 20
237.62547056260729
 11
155.66319313282139
 21
237.47787056260728
  0
LINE
  8
_0-0_
  6
CONTINUOUS
 62
    7
 10
155.66319313282139
 20
237.47787056260728
 11
155.6806931328214
 21
237.3302705626073
  0
LINE
  8
_0-0_
  6
CONTINUOUS
 62
    7
 10
155.6806931328214
 20
237.3302705626073
 11
155.73249313282139
 21
237.18717056260729
  0
LINE
  8
_0-0_
  6
CONTINUOUS
 62
    7
 10
155.73249313282139
 20
237.18717056260729
 11
155.81729313282139
 21
237.0528705626073
  0
LINE
  8
_0-0_
  6
CONTINUOUS
 62
    7
 10
155.81729313282139
 20
237.0528705626073
 11
155.9321931328214
 21
236.93147056260727
  0
LINE
  8
_0-0_
  6
CONTINUOUS
 62
    7
 10
155.9321931328214
 20
236.93147056260727
 11
156.07399313282139
 21
236.82677056260729
  0
LINE
  8
_0-0_
  6
CONTINUOUS
 62
    7
 10
156.07399313282139
 20
236.82677056260729
 11
156.23819313282141
 21
236.74177056260731
  0
LINE
  8
_0-0_
  6
CONTINUOUS
 62
    7
 10
156.23819313282141
 20
236.74177056260731
 11
156.41989313282141
 21
236.67917056260728
  0
LINE
  8
_0-0_
  6
CONTINUOUS
 62
    7
 10
156.41989313282141
 20
236.67917056260728
 11
156.61349313282139
 21
236.64077056260729
  0
LINE
  8
_0-0_
  6
CONTINUOUS
 62
    7
 10
156.61349313282139
 20
236.64077056260729
 11
156.8131931328214
 21
236.62787056260731
  0
LINE
  8
_0-0_
  6
CONTINUOUS
 62
    7
 10
156.8131931328214
 20
236.62787056260731
 11
157.0128931328214
 21
236.64077056260729
  0
LINE
  8
_0-0_
  6
CONTINUOUS
 62
    7
 10
157.0128931328214
 20
236.64077056260729
 11
157.20649313282141
 21
236.67917056260728
  0
LINE
  8
_0-0_
  6
CONTINUOUS
 62
    7
 10
157.20649313282141
 20
236.67917056260728
 11
157.38819313282141
 21
236.74177056260731
  0
LINE
  8
_0-0_
  6
CONTINUOUS
 62
    7
 10
157.38819313282141
 20
236.74177056260731
 11
157.55239313282141
 21
236.82677056260729
  0
LINE
  8
_0-0_
  6
CONTINUOUS
 62
    7
 10
157.55239313282141
 20
236.82677056260729
 11
157.69409313282139
 21
236.93147056260727
  0
LINE
  8
_0-0_
  6
CONTINUOUS
 62
    7
 10
157.69409313282139
 20
236.93147056260727
 11
157.8090931328214
 21
237.0528705626073
  0
LINE
  8
_0-0_
  6
CONTINUOUS
 62
    7
 10
157.8090931328214
 20
237.0528705626073
 11
157.8937931328214
 21
237.18717056260729
  0
LINE
  8
_0-0_
  6
CONTINUOUS
 62
    7
 10
157.8937931328214
 20
237.18717056260729
 11
157.94569313282139
 21
237.3302705626073
  0
LINE
  8
_0-0_
  6
CONTINUOUS
 62
    7
 10
157.94569313282139
 20
237.3302705626073
 11
157.9631931328214
 21
237.47787056260728
  0
LINE
  8
_0-0_
  6
CONTINUOUS
 62
    7
 10
147.9631931328214
 20
237.47787056260728
 11
147.94569313282139
 21
237.62547056260729
  0
LINE
  8
_0-0_
  6
CONTINUOUS
 62
    7
 10
147.94569313282139
 20
237.62547056260729
 11
147.8937931328214
 21
237.76857056260729
  0
LINE
  8
_0-0_
  6
CONTINUOUS
 62
    7
 10
147.8937931328214
 20
237.76857056260729
 11
147.8090931328214
 21
237.90287056260729
  0
LINE
  8
_0-0_
  6
CONTINUOUS
 62
    7
 10
147.8090931328214
 20
237.90287056260729
 11
147.69409313282139
 21
238.02417056260731
  0
LINE
  8
_0-0_
  6
CONTINUOUS
 62
    7
 10
147.69409313282139
 20
238.02417056260731
 11
147.55239313282141
 21
238.12897056260729
  0
LINE
  8
_0-0_
  6
CONTINUOUS
 62
    7
 10
147.55239313282141
 20
238.12897056260729
 11
147.38819313282141
 21
238.2139705626073
  0
LINE
  8
_0-0_
  6
CONTINUOUS
 62
    7
 10
147.38819313282141
 20
238.2139705626073
 11
147.20649313282141
 21
238.27657056260728
  0
LINE
  8
_0-0_
  6
CONTINUOUS
 62
    7
 10
147.20649313282141
 20
238.27657056260728
 11
147.0128931328214
 21
238.3148705626073
  0
LINE
  8
_0-0_
  6
CONTINUOUS
 62
    7
 10
147.0128931328214
 20
238.3148705626073
 11
146.8131931328214
 21
238.3278705626073
  0
LINE
  8
_0-0_
  6
CONTINUOUS
 62
    7
 10
146.8131931328214
 20
238.3278705626073
 11
146.61349313282139
 21
238.3148705626073
  0
LINE
  8
_0-0_
  6
CONTINUOUS
 62
    7
 10
146.61349313282139
 20
238.3148705626073
 11
146.41989313282141
 21
238.27657056260728
  0
LINE
  8
_0-0_
  6
CONTINUOUS
 62
    7
 10
146.41989313282141
 20
238.27657056260728
 11
146.23819313282141
 21
238.2139705626073
  0
LINE
  8
_0-0_
  6
CONTINUOUS
 62
    7
 10
146.23819313282141
 20
238.2139705626073
 11
146.07399313282139
 21
238.12897056260729
  0
LINE
  8
_0-0_
  6
CONTINUOUS
 62
    7
 10
146.07399313282139
 20
238.12897056260729
 11
145.9321931328214
 21
238.02417056260731
  0
LINE
  8
_0-0_
  6
CONTINUOUS
 62
    7
 10
145.9321931328214
 20
238.02417056260731
 11
145.81729313282139
 21
237.90287056260729
  0
LINE
  8
_0-0_
  6
CONTINUOUS
 62
    7
 10
145.81729313282139
 20
237.90287056260729
 11
145.73259313282139
 21
237.76857056260729
  0
LINE
  8
_0-0_
  6
CONTINUOUS
 62
    7
 10
145.73259313282139
 20
237.76857056260729
 11
145.6806931328214
 21
237.62547056260729
  0
LINE
  8
_0-0_
  6
CONTINUOUS
 62
    7
 10
145.6806931328214
 20
237.62547056260729
 11
145.66319313282139
 21
237.47787056260728
  0
LINE
  8
_0-0_
  6
CONTINUOUS
 62
    7
 10
145.66319313282139
 20
237.47787056260728
 11
145.6806931328214
 21
237.3302705626073
  0
LINE
  8
_0-0_
  6
CONTINUOUS
 62
    7
 10
145.6806931328214
 20
237.3302705626073
 11
145.73259313282139
 21
237.18717056260729
  0
LINE
  8
_0-0_
  6
CONTINUOUS
 62
    7
 10
145.73259313282139
 20
237.18717056260729
 11
145.81729313282139
 21
237.0528705626073
  0
LINE
  8
_0-0_
  6
CONTINUOUS
 62
    7
 10
145.81729313282139
 20
237.0528705626073
 11
145.9321931328214
 21
236.93147056260727
  0
LINE
  8
_0-0_
  6
CONTINUOUS
 62
    7
 10
145.9321931328214
 20
236.93147056260727
 11
146.07399313282139
 21
236.82677056260729
  0
LINE
  8
_0-0_
  6
CONTINUOUS
 62
    7
 10
146.07399313282139
 20
236.82677056260729
 11
146.23819313282141
 21
236.74177056260731
  0
LINE
  8
_0-0_
  6
CONTINUOUS
 62
    7
 10
146.23819313282141
 20
236.74177056260731
 11
146.41989313282141
 21
236.67917056260728
  0
LINE
  8
_0-0_
  6
CONTINUOUS
 62
    7
 10
146.41989313282141
 20
236.67917056260728
 11
146.61349313282139
 21
236.64077056260729
  0
LINE
  8
_0-0_
  6
CONTINUOUS
 62
    7
 10
146.61349313282139
 20
236.64077056260729
 11
146.8131931328214
 21
236.62787056260731
  0
LINE
  8
_0-0_
  6
CONTINUOUS
 62
    7
 10
146.8131931328214
 20
236.62787056260731
 11
147.0128931328214
 21
236.64077056260729
  0
LINE
  8
_0-0_
  6
CONTINUOUS
 62
    7
 10
147.0128931328214
 20
236.64077056260729
 11
147.20649313282141
 21
236.67917056260728
  0
LINE
  8
_0-0_
  6
CONTINUOUS
 62
    7
 10
147.20649313282141
 20
236.67917056260728
 11
147.38819313282141
 21
236.74177056260731
  0
LINE
  8
_0-0_
  6
CONTINUOUS
 62
    7
 10
147.38819313282141
 20
236.74177056260731
 11
147.55239313282141
 21
236.82677056260729
  0
LINE
  8
_0-0_
  6
CONTINUOUS
 62
    7
 10
147.55239313282141
 20
236.82677056260729
 11
147.69409313282139
 21
236.93147056260727
  0
LINE
  8
_0-0_
  6
CONTINUOUS
 62
    7
 10
147.69409313282139
 20
236.93147056260727
 11
147.8090931328214
 21
237.0528705626073
  0
LINE
  8
_0-0_
  6
CONTINUOUS
 62
    7
 10
147.8090931328214
 20
237.0528705626073
 11
147.8937931328214
 21
237.18717056260729
  0
LINE
  8
_0-0_
  6
CONTINUOUS
 62
    7
 10
147.8937931328214
 20
237.18717056260729
 11
147.94569313282139
 21
237.3302705626073
  0
LINE
  8
_0-0_
  6
CONTINUOUS
 62
    7
 10
147.94569313282139
 20
237.3302705626073
 11
147.9631931328214
 21
237.47787056260728
  0
LINE
  8
_0-0_
  6
CONTINUOUS
 62
    7
 10
137.9631931328214
 20
237.47787056260728
 11
137.94569313282139
 21
237.62547056260729
  0
LINE
  8
_0-0_
  6
CONTINUOUS
 62
    7
 10
137.94569313282139
 20
237.62547056260729
 11
137.8937931328214
 21
237.76857056260729
  0
LINE
  8
_0-0_
  6
CONTINUOUS
 62
    7
 10
137.8937931328214
 20
237.76857056260729
 11
137.8090931328214
 21
237.90287056260729
  0
LINE
  8
_0-0_
  6
CONTINUOUS
 62
    7
 10
137.8090931328214
 20
237.90287056260729
 11
137.6941931328214
 21
238.02417056260731
  0
LINE
  8
_0-0_
  6
CONTINUOUS
 62
    7
 10
137.6941931328214
 20
238.02417056260731
 11
137.55239313282141
 21
238.12897056260729
  0
LINE
  8
_0-0_
  6
CONTINUOUS
 62
    7
 10
137.55239313282141
 20
238.12897056260729
 11
137.38819313282139
 21
238.2139705626073
  0
LINE
  8
_0-0_
  6
CONTINUOUS
 62
    7
 10
137.38819313282139
 20
238.2139705626073
 11
137.20649313282141
 21
238.27657056260728
  0
LINE
  8
_0-0_
  6
CONTINUOUS
 62
    7
 10
137.20649313282141
 20
238.27657056260728
 11
137.0128931328214
 21
238.3148705626073
  0
LINE
  8
_0-0_
  6
CONTINUOUS
 62
    7
 10
137.0128931328214
 20
238.3148705626073
 11
136.8131931328214
 21
238.3278705626073
  0
LINE
  8
_0-0_
  6
CONTINUOUS
 62
    7
 10
136.8131931328214
 20
238.3278705626073
 11
136.61349313282139
 21
238.3148705626073
  0
LINE
  8
_0-0_
  6
CONTINUOUS
 62
    7
 10
136.61349313282139
 20
238.3148705626073
 11
136.41989313282139
 21
238.27657056260728
  0
LINE
  8
_0-0_
  6
CONTINUOUS
 62
    7
 10
136.41989313282139
 20
238.27657056260728
 11
136.23819313282141
 21
238.2139705626073
  0
LINE
  8
_0-0_
  6
CONTINUOUS
 62
    7
 10
136.23819313282141
 20
238.2139705626073
 11
136.07399313282139
 21
238.12897056260729
  0
LINE
  8
_0-0_
  6
CONTINUOUS
 62
    7
 10
136.07399313282139
 20
238.12897056260729
 11
135.9322931328214
 21
238.02417056260731
  0
LINE
  8
_0-0_
  6
CONTINUOUS
 62
    7
 10
135.9322931328214
 20
238.02417056260731
 11
135.81729313282139
 21
237.90287056260729
  0
LINE
  8
_0-0_
  6
CONTINUOUS
 62
    7
 10
135.81729313282139
 20
237.90287056260729
 11
135.73259313282139
 21
237.76857056260729
  0
LINE
  8
_0-0_
  6
CONTINUOUS
 62
    7
 10
135.73259313282139
 20
237.76857056260729
 11
135.6806931328214
 21
237.62547056260729
  0
LINE
  8
_0-0_
  6
CONTINUOUS
 62
    7
 10
135.6806931328214
 20
237.62547056260729
 11
135.66319313282139
 21
237.47787056260728
  0
LINE
  8
_0-0_
  6
CONTINUOUS
 62
    7
 10
135.66319313282139
 20
237.47787056260728
 11
135.6806931328214
 21
237.3302705626073
  0
LINE
  8
_0-0_
  6
CONTINUOUS
 62
    7
 10
135.6806931328214
 20
237.3302705626073
 11
135.73259313282139
 21
237.18717056260729
  0
LINE
  8
_0-0_
  6
CONTINUOUS
 62
    7
 10
135.73259313282139
 20
237.18717056260729
 11
135.81729313282139
 21
237.0528705626073
  0
LINE
  8
_0-0_
  6
CONTINUOUS
 62
    7
 10
135.81729313282139
 20
237.0528705626073
 11
135.9322931328214
 21
236.93147056260727
  0
LINE
  8
_0-0_
  6
CONTINUOUS
 62
    7
 10
135.9322931328214
 20
236.93147056260727
 11
136.07399313282139
 21
236.82677056260729
  0
LINE
  8
_0-0_
  6
CONTINUOUS
 62
    7
 10
136.07399313282139
 20
236.82677056260729
 11
136.23819313282141
 21
236.74177056260731
  0
LINE
  8
_0-0_
  6
CONTINUOUS
 62
    7
 10
136.23819313282141
 20
236.74177056260731
 11
136.41989313282139
 21
236.67917056260728
  0
LINE
  8
_0-0_
  6
CONTINUOUS
 62
    7
 10
136.41989313282139
 20
236.67917056260728
 11
136.61349313282139
 21
236.64077056260729
  0
LINE
  8
_0-0_
  6
CONTINUOUS
 62
    7
 10
136.61349313282139
 20
236.64077056260729
 11
136.8131931328214
 21
236.62787056260731
  0
LINE
  8
_0-0_
  6
CONTINUOUS
 62
    7
 10
136.8131931328214
 20
236.62787056260731
 11
137.0128931328214
 21
236.64077056260729
  0
LINE
  8
_0-0_
  6
CONTINUOUS
 62
    7
 10
137.0128931328214
 20
236.64077056260729
 11
137.20649313282141
 21
236.67917056260728
  0
LINE
  8
_0-0_
  6
CONTINUOUS
 62
    7
 10
137.20649313282141
 20
236.67917056260728
 11
137.38819313282139
 21
236.74177056260731
  0
LINE
  8
_0-0_
  6
CONTINUOUS
 62
    7
 10
137.38819313282139
 20
236.74177056260731
 11
137.55239313282141
 21
236.82677056260729
  0
LINE
  8
_0-0_
  6
CONTINUOUS
 62
    7
 10
137.55239313282141
 20
236.82677056260729
 11
137.6941931328214
 21
236.93147056260727
  0
LINE
  8
_0-0_
  6
CONTINUOUS
 62
    7
 10
137.6941931328214
 20
236.93147056260727
 11
137.8090931328214
 21
237.0528705626073
  0
LINE
  8
_0-0_
  6
CONTINUOUS
 62
    7
 10
137.8090931328214
 20
237.0528705626073
 11
137.8937931328214
 21
237.18717056260729
  0
LINE
  8
_0-0_
  6
CONTINUOUS
 62
    7
 10
137.8937931328214
 20
237.18717056260729
 11
137.94569313282139
 21
237.3302705626073
  0
LINE
  8
_0-0_
  6
CONTINUOUS
 62
    7
 10
137.94569313282139
 20
237.3302705626073
 11
137.9631931328214
 21
237.47787056260728
  0
LINE
  8
_0-0_
  6
CONTINUOUS
 62
    7
 10
127.9631931328214
 20
237.47787056260728
 11
127.94569313282139
 21
237.62547056260729
  0
LINE
  8
_0-0_
  6
CONTINUOUS
 62
    7
 10
127.94569313282139
 20
237.62547056260729
 11
127.8937931328214
 21
237.76857056260729
  0
LINE
  8
_0-0_
  6
CONTINUOUS
 62
    7
 10
127.8937931328214
 20
237.76857056260729
 11
127.8090931328214
 21
237.90287056260729
  0
LINE
  8
_0-0_
  6
CONTINUOUS
 62
    7
 10
127.8090931328214
 20
237.90287056260729
 11
127.69409313282139
 21
238.02417056260731
  0
LINE
  8
_0-0_
  6
CONTINUOUS
 62
    7
 10
127.69409313282139
 20
238.02417056260731
 11
127.55239313282141
 21
238.12897056260729
  0
LINE
  8
_0-0_
  6
CONTINUOUS
 62
    7
 10
127.55239313282141
 20
238.12897056260729
 11
127.38819313282139
 21
238.2139705626073
  0
LINE
  8
_0-0_
  6
CONTINUOUS
 62
    7
 10
127.38819313282139
 20
238.2139705626073
 11
127.20649313282141
 21
238.27657056260728
  0
LINE
  8
_0-0_
  6
CONTINUOUS
 62
    7
 10
127.20649313282141
 20
238.27657056260728
 11
127.0128931328214
 21
238.3148705626073
  0
LINE
  8
_0-0_
  6
CONTINUOUS
 62
    7
 10
127.0128931328214
 20
238.3148705626073
 11
126.8131931328214
 21
238.3278705626073
  0
LINE
  8
_0-0_
  6
CONTINUOUS
 62
    7
 10
126.8131931328214
 20
238.3278705626073
 11
126.61349313282139
 21
238.3148705626073
  0
LINE
  8
_0-0_
  6
CONTINUOUS
 62
    7
 10
126.61349313282139
 20
238.3148705626073
 11
126.41989313282139
 21
238.27657056260728
  0
LINE
  8
_0-0_
  6
CONTINUOUS
 62
    7
 10
126.41989313282139
 20
238.27657056260728
 11
126.23819313282141
 21
238.2139705626073
  0
LINE
  8
_0-0_
  6
CONTINUOUS
 62
    7
 10
126.23819313282141
 20
238.2139705626073
 11
126.07399313282139
 21
238.12897056260729
  0
LINE
  8
_0-0_
  6
CONTINUOUS
 62
    7
 10
126.07399313282139
 20
238.12897056260729
 11
125.9321931328214
 21
238.02417056260731
  0
LINE
  8
_0-0_
  6
CONTINUOUS
 62
    7
 10
125.9321931328214
 20
238.02417056260731
 11
125.81729313282139
 21
237.90287056260729
  0
LINE
  8
_0-0_
  6
CONTINUOUS
 62
    7
 10
125.81729313282139
 20
237.90287056260729
 11
125.73249313282139
 21
237.76857056260729
  0
LINE
  8
_0-0_
  6
CONTINUOUS
 62
    7
 10
125.73249313282139
 20
237.76857056260729
 11
125.6806931328214
 21
237.62547056260729
  0
LINE
  8
_0-0_
  6
CONTINUOUS
 62
    7
 10
125.6806931328214
 20
237.62547056260729
 11
125.66319313282139
 21
237.47787056260728
  0
LINE
  8
_0-0_
  6
CONTINUOUS
 62
    7
 10
125.66319313282139
 20
237.47787056260728
 11
125.6806931328214
 21
237.3302705626073
  0
LINE
  8
_0-0_
  6
CONTINUOUS
 62
    7
 10
125.6806931328214
 20
237.3302705626073
 11
125.73249313282139
 21
237.18717056260729
  0
LINE
  8
_0-0_
  6
CONTINUOUS
 62
    7
 10
125.73249313282139
 20
237.18717056260729
 11
125.81729313282139
 21
237.0528705626073
  0
LINE
  8
_0-0_
  6
CONTINUOUS
 62
    7
 10
125.81729313282139
 20
237.0528705626073
 11
125.9321931328214
 21
236.93147056260727
  0
LINE
  8
_0-0_
  6
CONTINUOUS
 62
    7
 10
125.9321931328214
 20
236.93147056260727
 11
126.07399313282139
 21
236.82677056260729
  0
LINE
  8
_0-0_
  6
CONTINUOUS
 62
    7
 10
126.07399313282139
 20
236.82677056260729
 11
126.23819313282141
 21
236.74177056260731
  0
LINE
  8
_0-0_
  6
CONTINUOUS
 62
    7
 10
126.23819313282141
 20
236.74177056260731
 11
126.41989313282139
 21
236.67917056260728
  0
LINE
  8
_0-0_
  6
CONTINUOUS
 62
    7
 10
126.41989313282139
 20
236.67917056260728
 11
126.61349313282139
 21
236.64077056260729
  0
LINE
  8
_0-0_
  6
CONTINUOUS
 62
    7
 10
126.61349313282139
 20
236.64077056260729
 11
126.8131931328214
 21
236.62787056260731
  0
LINE
  8
_0-0_
  6
CONTINUOUS
 62
    7
 10
126.8131931328214
 20
236.62787056260731
 11
127.0128931328214
 21
236.64077056260729
  0
LINE
  8
_0-0_
  6
CONTINUOUS
 62
    7
 10
127.0128931328214
 20
236.64077056260729
 11
127.20649313282141
 21
236.67917056260728
  0
LINE
  8
_0-0_
  6
CONTINUOUS
 62
    7
 10
127.20649313282141
 20
236.67917056260728
 11
127.38819313282139
 21
236.74177056260731
  0
LINE
  8
_0-0_
  6
CONTINUOUS
 62
    7
 10
127.38819313282139
 20
236.74177056260731
 11
127.55239313282141
 21
236.82677056260729
  0
LINE
  8
_0-0_
  6
CONTINUOUS
 62
    7
 10
127.55239313282141
 20
236.82677056260729
 11
127.69409313282139
 21
236.93147056260727
  0
LINE
  8
_0-0_
  6
CONTINUOUS
 62
    7
 10
127.69409313282139
 20
236.93147056260727
 11
127.8090931328214
 21
237.0528705626073
  0
LINE
  8
_0-0_
  6
CONTINUOUS
 62
    7
 10
127.8090931328214
 20
237.0528705626073
 11
127.8937931328214
 21
237.18717056260729
  0
LINE
  8
_0-0_
  6
CONTINUOUS
 62
    7
 10
127.8937931328214
 20
237.18717056260729
 11
127.94569313282139
 21
237.3302705626073
  0
LINE
  8
_0-0_
  6
CONTINUOUS
 62
    7
 10
127.94569313282139
 20
237.3302705626073
 11
127.9631931328214
 21
237.47787056260728
  0
LINE
  8
_0-0_
  6
CONTINUOUS
 62
    7
 10
117.9631931328214
 20
237.47787056260728
 11
117.94569313282139
 21
237.62547056260729
  0
LINE
  8
_0-0_
  6
CONTINUOUS
 62
    7
 10
117.94569313282139
 20
237.62547056260729
 11
117.8937931328214
 21
237.76857056260729
  0
LINE
  8
_0-0_
  6
CONTINUOUS
 62
    7
 10
117.8937931328214
 20
237.76857056260729
 11
117.8090931328214
 21
237.90287056260729
  0
LINE
  8
_0-0_
  6
CONTINUOUS
 62
    7
 10
117.8090931328214
 20
237.90287056260729
 11
117.69409313282139
 21
238.02417056260731
  0
LINE
  8
_0-0_
  6
CONTINUOUS
 62
    7
 10
117.69409313282139
 20
238.02417056260731
 11
117.55239313282141
 21
238.12897056260729
  0
LINE
  8
_0-0_
  6
CONTINUOUS
 62
    7
 10
117.55239313282141
 20
238.12897056260729
 11
117.38819313282139
 21
238.2139705626073
  0
LINE
  8
_0-0_
  6
CONTINUOUS
 62
    7
 10
117.38819313282139
 20
238.2139705626073
 11
117.20649313282141
 21
238.27657056260728
  0
LINE
  8
_0-0_
  6
CONTINUOUS
 62
    7
 10
117.20649313282141
 20
238.27657056260728
 11
117.0128931328214
 21
238.3148705626073
  0
LINE
  8
_0-0_
  6
CONTINUOUS
 62
    7
 10
117.0128931328214
 20
238.3148705626073
 11
116.8131931328214
 21
238.3278705626073
  0
LINE
  8
_0-0_
  6
CONTINUOUS
 62
    7
 10
116.8131931328214
 20
238.3278705626073
 11
116.61349313282139
 21
238.3148705626073
  0
LINE
  8
_0-0_
  6
CONTINUOUS
 62
    7
 10
116.61349313282139
 20
238.3148705626073
 11
116.41989313282139
 21
238.27657056260728
  0
LINE
  8
_0-0_
  6
CONTINUOUS
 62
    7
 10
116.41989313282139
 20
238.27657056260728
 11
116.23819313282141
 21
238.2139705626073
  0
LINE
  8
_0-0_
  6
CONTINUOUS
 62
    7
 10
116.23819313282141
 20
238.2139705626073
 11
116.07399313282139
 21
238.12897056260729
  0
LINE
  8
_0-0_
  6
CONTINUOUS
 62
    7
 10
116.07399313282139
 20
238.12897056260729
 11
115.9321931328214
 21
238.02417056260731
  0
LINE
  8
_0-0_
  6
CONTINUOUS
 62
    7
 10
115.9321931328214
 20
238.02417056260731
 11
115.81729313282139
 21
237.90287056260729
  0
LINE
  8
_0-0_
  6
CONTINUOUS
 62
    7
 10
115.81729313282139
 20
237.90287056260729
 11
115.73259313282139
 21
237.76857056260729
  0
LINE
  8
_0-0_
  6
CONTINUOUS
 62
    7
 10
115.73259313282139
 20
237.76857056260729
 11
115.6806931328214
 21
237.62547056260729
  0
LINE
  8
_0-0_
  6
CONTINUOUS
 62
    7
 10
115.6806931328214
 20
237.62547056260729
 11
115.66319313282139
 21
237.47787056260728
  0
LINE
  8
_0-0_
  6
CONTINUOUS
 62
    7
 10
115.66319313282139
 20
237.47787056260728
 11
115.6806931328214
 21
237.3302705626073
  0
LINE
  8
_0-0_
  6
CONTINUOUS
 62
    7
 10
115.6806931328214
 20
237.3302705626073
 11
115.73259313282139
 21
237.18717056260729
  0
LINE
  8
_0-0_
  6
CONTINUOUS
 62
    7
 10
115.73259313282139
 20
237.18717056260729
 11
115.81729313282139
 21
237.0528705626073
  0
LINE
  8
_0-0_
  6
CONTINUOUS
 62
    7
 10
115.81729313282139
 20
237.0528705626073
 11
115.9321931328214
 21
236.93147056260727
  0
LINE
  8
_0-0_
  6
CONTINUOUS
 62
    7
 10
115.9321931328214
 20
236.93147056260727
 11
116.07399313282139
 21
236.82677056260729
  0
LINE
  8
_0-0_
  6
CONTINUOUS
 62
    7
 10
116.07399313282139
 20
236.82677056260729
 11
116.23819313282141
 21
236.74177056260731
  0
LINE
  8
_0-0_
  6
CONTINUOUS
 62
    7
 10
116.23819313282141
 20
236.74177056260731
 11
116.41989313282139
 21
236.67917056260728
  0
LINE
  8
_0-0_
  6
CONTINUOUS
 62
    7
 10
116.41989313282139
 20
236.67917056260728
 11
116.61349313282139
 21
236.64077056260729
  0
LINE
  8
_0-0_
  6
CONTINUOUS
 62
    7
 10
116.61349313282139
 20
236.64077056260729
 11
116.8131931328214
 21
236.62787056260731
  0
LINE
  8
_0-0_
  6
CONTINUOUS
 62
    7
 10
116.8131931328214
 20
236.62787056260731
 11
117.0128931328214
 21
236.64077056260729
  0
LINE
  8
_0-0_
  6
CONTINUOUS
 62
    7
 10
117.0128931328214
 20
236.64077056260729
 11
117.20649313282141
 21
236.67917056260728
  0
LINE
  8
_0-0_
  6
CONTINUOUS
 62
    7
 10
117.20649313282141
 20
236.67917056260728
 11
117.38819313282139
 21
236.74177056260731
  0
LINE
  8
_0-0_
  6
CONTINUOUS
 62
    7
 10
117.38819313282139
 20
236.74177056260731
 11
117.55239313282141
 21
236.82677056260729
  0
LINE
  8
_0-0_
  6
CONTINUOUS
 62
    7
 10
117.55239313282141
 20
236.82677056260729
 11
117.69409313282139
 21
236.93147056260727
  0
LINE
  8
_0-0_
  6
CONTINUOUS
 62
    7
 10
117.69409313282139
 20
236.93147056260727
 11
117.8090931328214
 21
237.0528705626073
  0
LINE
  8
_0-0_
  6
CONTINUOUS
 62
    7
 10
117.8090931328214
 20
237.0528705626073
 11
117.8937931328214
 21
237.18717056260729
  0
LINE
  8
_0-0_
  6
CONTINUOUS
 62
    7
 10
117.8937931328214
 20
237.18717056260729
 11
117.94569313282139
 21
237.3302705626073
  0
LINE
  8
_0-0_
  6
CONTINUOUS
 62
    7
 10
117.94569313282139
 20
237.3302705626073
 11
117.9631931328214
 21
237.47787056260728
  0
LINE
  8
_0-0_
  6
CONTINUOUS
 62
    7
 10
107.9631931328214
 20
237.47787056260728
 11
107.94569313282139
 21
237.62547056260729
  0
LINE
  8
_0-0_
  6
CONTINUOUS
 62
    7
 10
107.94569313282139
 20
237.62547056260729
 11
107.8937931328214
 21
237.76857056260729
  0
LINE
  8
_0-0_
  6
CONTINUOUS
 62
    7
 10
107.8937931328214
 20
237.76857056260729
 11
107.8090931328214
 21
237.90287056260729
  0
LINE
  8
_0-0_
  6
CONTINUOUS
 62
    7
 10
107.8090931328214
 20
237.90287056260729
 11
107.6941931328214
 21
238.02417056260731
  0
LINE
  8
_0-0_
  6
CONTINUOUS
 62
    7
 10
107.6941931328214
 20
238.02417056260731
 11
107.55239313282141
 21
238.12897056260729
  0
LINE
  8
_0-0_
  6
CONTINUOUS
 62
    7
 10
107.55239313282141
 20
238.12897056260729
 11
107.38819313282139
 21
238.2139705626073
  0
LINE
  8
_0-0_
  6
CONTINUOUS
 62
    7
 10
107.38819313282139
 20
238.2139705626073
 11
107.20649313282141
 21
238.27657056260728
  0
LINE
  8
_0-0_
  6
CONTINUOUS
 62
    7
 10
107.20649313282141
 20
238.27657056260728
 11
107.0128931328214
 21
238.3148705626073
  0
LINE
  8
_0-0_
  6
CONTINUOUS
 62
    7
 10
107.0128931328214
 20
238.3148705626073
 11
106.8131931328214
 21
238.3278705626073
  0
LINE
  8
_0-0_
  6
CONTINUOUS
 62
    7
 10
106.8131931328214
 20
238.3278705626073
 11
106.61349313282139
 21
238.3148705626073
  0
LINE
  8
_0-0_
  6
CONTINUOUS
 62
    7
 10
106.61349313282139
 20
238.3148705626073
 11
106.41989313282139
 21
238.27657056260728
  0
LINE
  8
_0-0_
  6
CONTINUOUS
 62
    7
 10
106.41989313282139
 20
238.27657056260728
 11
106.23819313282141
 21
238.2139705626073
  0
LINE
  8
_0-0_
  6
CONTINUOUS
 62
    7
 10
106.23819313282141
 20
238.2139705626073
 11
106.07399313282139
 21
238.12897056260729
  0
LINE
  8
_0-0_
  6
CONTINUOUS
 62
    7
 10
106.07399313282139
 20
238.12897056260729
 11
105.9322931328214
 21
238.02417056260731
  0
LINE
  8
_0-0_
  6
CONTINUOUS
 62
    7
 10
105.9322931328214
 20
238.02417056260731
 11
105.81729313282139
 21
237.90287056260729
  0
LINE
  8
_0-0_
  6
CONTINUOUS
 62
    7
 10
105.81729313282139
 20
237.90287056260729
 11
105.73259313282139
 21
237.76857056260729
  0
LINE
  8
_0-0_
  6
CONTINUOUS
 62
    7
 10
105.73259313282139
 20
237.76857056260729
 11
105.6806931328214
 21
237.62547056260729
  0
LINE
  8
_0-0_
  6
CONTINUOUS
 62
    7
 10
105.6806931328214
 20
237.62547056260729
 11
105.66319313282139
 21
237.47787056260728
  0
LINE
  8
_0-0_
  6
CONTINUOUS
 62
    7
 10
105.66319313282139
 20
237.47787056260728
 11
105.6806931328214
 21
237.3302705626073
  0
LINE
  8
_0-0_
  6
CONTINUOUS
 62
    7
 10
105.6806931328214
 20
237.3302705626073
 11
105.73259313282139
 21
237.18717056260729
  0
LINE
  8
_0-0_
  6
CONTINUOUS
 62
    7
 10
105.73259313282139
 20
237.18717056260729
 11
105.81729313282139
 21
237.0528705626073
  0
LINE
  8
_0-0_
  6
CONTINUOUS
 62
    7
 10
105.81729313282139
 20
237.0528705626073
 11
105.9322931328214
 21
236.93147056260727
  0
LINE
  8
_0-0_
  6
CONTINUOUS
 62
    7
 10
105.9322931328214
 20
236.93147056260727
 11
106.07399313282139
 21
236.82677056260729
  0
LINE
  8
_0-0_
  6
CONTINUOUS
 62
    7
 10
106.07399313282139
 20
236.82677056260729
 11
106.23819313282141
 21
236.74177056260731
  0
LINE
  8
_0-0_
  6
CONTINUOUS
 62
    7
 10
106.23819313282141
 20
236.74177056260731
 11
106.41989313282139
 21
236.67917056260728
  0
LINE
  8
_0-0_
  6
CONTINUOUS
 62
    7
 10
106.41989313282139
 20
236.67917056260728
 11
106.61349313282139
 21
236.64077056260729
  0
LINE
  8
_0-0_
  6
CONTINUOUS
 62
    7
 10
106.61349313282139
 20
236.64077056260729
 11
106.8131931328214
 21
236.62787056260731
  0
LINE
  8
_0-0_
  6
CONTINUOUS
 62
    7
 10
106.8131931328214
 20
236.62787056260731
 11
107.0128931328214
 21
236.64077056260729
  0
LINE
  8
_0-0_
  6
CONTINUOUS
 62
    7
 10
107.0128931328214
 20
236.64077056260729
 11
107.20649313282141
 21
236.67917056260728
  0
LINE
  8
_0-0_
  6
CONTINUOUS
 62
    7
 10
107.20649313282141
 20
236.67917056260728
 11
107.38819313282139
 21
236.74177056260731
  0
LINE
  8
_0-0_
  6
CONTINUOUS
 62
    7
 10
107.38819313282139
 20
236.74177056260731
 11
107.55239313282141
 21
236.82677056260729
  0
LINE
  8
_0-0_
  6
CONTINUOUS
 62
    7
 10
107.55239313282141
 20
236.82677056260729
 11
107.6941931328214
 21
236.93147056260727
  0
LINE
  8
_0-0_
  6
CONTINUOUS
 62
    7
 10
107.6941931328214
 20
236.93147056260727
 11
107.8090931328214
 21
237.0528705626073
  0
LINE
  8
_0-0_
  6
CONTINUOUS
 62
    7
 10
107.8090931328214
 20
237.0528705626073
 11
107.8937931328214
 21
237.18717056260729
  0
LINE
  8
_0-0_
  6
CONTINUOUS
 62
    7
 10
107.8937931328214
 20
237.18717056260729
 11
107.94569313282139
 21
237.3302705626073
  0
LINE
  8
_0-0_
  6
CONTINUOUS
 62
    7
 10
107.94569313282139
 20
237.3302705626073
 11
107.9631931328214
 21
237.47787056260728
  0
LINE
  8
_0-0_
  6
CONTINUOUS
 62
    7
 10
87.963193132821402
 20
237.47787056260728
 11
87.94569313282139
 21
237.62547056260729
  0
LINE
  8
_0-0_
  6
CONTINUOUS
 62
    7
 10
87.94569313282139
 20
237.62547056260729
 11
87.893793132821401
 21
237.76857056260729
  0
LINE
  8
_0-0_
  6
CONTINUOUS
 62
    7
 10
87.893793132821401
 20
237.76857056260729
 11
87.809093132821403
 21
237.90287056260729
  0
LINE
  8
_0-0_
  6
CONTINUOUS
 62
    7
 10
87.809093132821403
 20
237.90287056260729
 11
87.694093132821394
 21
238.02417056260731
  0
LINE
  8
_0-0_
  6
CONTINUOUS
 62
    7
 10
87.694093132821394
 20
238.02417056260731
 11
87.552393132821408
 21
238.12897056260729
  0
LINE
  8
_0-0_
  6
CONTINUOUS
 62
    7
 10
87.552393132821408
 20
238.12897056260729
 11
87.388193132821385
 21
238.2139705626073
  0
LINE
  8
_0-0_
  6
CONTINUOUS
 62
    7
 10
87.388193132821385
 20
238.2139705626073
 11
87.206493132821407
 21
238.27657056260728
  0
LINE
  8
_0-0_
  6
CONTINUOUS
 62
    7
 10
87.206493132821407
 20
238.27657056260728
 11
87.012893132821404
 21
238.3148705626073
  0
LINE
  8
_0-0_
  6
CONTINUOUS
 62
    7
 10
87.012893132821404
 20
238.3148705626073
 11
86.813193132821397
 21
238.3278705626073
  0
LINE
  8
_0-0_
  6
CONTINUOUS
 62
    7
 10
86.813193132821397
 20
238.3278705626073
 11
86.61349313282139
 21
238.3148705626073
  0
LINE
  8
_0-0_
  6
CONTINUOUS
 62
    7
 10
86.61349313282139
 20
238.3148705626073
 11
86.419893132821386
 21
238.27657056260728
  0
LINE
  8
_0-0_
  6
CONTINUOUS
 62
    7
 10
86.419893132821386
 20
238.27657056260728
 11
86.238193132821408
 21
238.2139705626073
  0
LINE
  8
_0-0_
  6
CONTINUOUS
 62
    7
 10
86.238193132821408
 20
238.2139705626073
 11
86.073993132821386
 21
238.12897056260729
  0
LINE
  8
_0-0_
  6
CONTINUOUS
 62
    7
 10
86.073993132821386
 20
238.12897056260729
 11
85.932193132821396
 21
238.02417056260731
  0
LINE
  8
_0-0_
  6
CONTINUOUS
 62
    7
 10
85.932193132821396
 20
238.02417056260731
 11
85.817293132821391
 21
237.90287056260729
  0
LINE
  8
_0-0_
  6
CONTINUOUS
 62
    7
 10
85.817293132821391
 20
237.90287056260729
 11
85.732593132821393
 21
237.76857056260729
  0
LINE
  8
_0-0_
  6
CONTINUOUS
 62
    7
 10
85.732593132821393
 20
237.76857056260729
 11
85.680693132821403
 21
237.62547056260729
  0
LINE
  8
_0-0_
  6
CONTINUOUS
 62
    7
 10
85.680693132821403
 20
237.62547056260729
 11
85.663193132821391
 21
237.47787056260728
  0
LINE
  8
_0-0_
  6
CONTINUOUS
 62
    7
 10
85.663193132821391
 20
237.47787056260728
 11
85.680693132821403
 21
237.3302705626073
  0
LINE
  8
_0-0_
  6
CONTINUOUS
 62
    7
 10
85.680693132821403
 20
237.3302705626073
 11
85.732593132821393
 21
237.18717056260729
  0
LINE
  8
_0-0_
  6
CONTINUOUS
 62
    7
 10
85.732593132821393
 20
237.18717056260729
 11
85.817293132821391
 21
237.0528705626073
  0
LINE
  8
_0-0_
  6
CONTINUOUS
 62
    7
 10
85.817293132821391
 20
237.0528705626073
 11
85.932193132821396
 21
236.93147056260727
  0
LINE
  8
_0-0_
  6
CONTINUOUS
 62
    7
 10
85.932193132821396
 20
236.93147056260727
 11
86.073993132821386
 21
236.82677056260729
  0
LINE
  8
_0-0_
  6
CONTINUOUS
 62
    7
 10
86.073993132821386
 20
236.82677056260729
 11
86.238193132821408
 21
236.74177056260731
  0
LINE
  8
_0-0_
  6
CONTINUOUS
 62
    7
 10
86.238193132821408
 20
236.74177056260731
 11
86.419893132821386
 21
236.67917056260728
  0
LINE
  8
_0-0_
  6
CONTINUOUS
 62
    7
 10
86.419893132821386
 20
236.67917056260728
 11
86.61349313282139
 21
236.64077056260729
  0
LINE
  8
_0-0_
  6
CONTINUOUS
 62
    7
 10
86.61349313282139
 20
236.64077056260729
 11
86.813193132821397
 21
236.62787056260731
  0
LINE
  8
_0-0_
  6
CONTINUOUS
 62
    7
 10
86.813193132821397
 20
236.62787056260731
 11
87.012893132821404
 21
236.64077056260729
  0
LINE
  8
_0-0_
  6
CONTINUOUS
 62
    7
 10
87.012893132821404
 20
236.64077056260729
 11
87.206493132821407
 21
236.67917056260728
  0
LINE
  8
_0-0_
  6
CONTINUOUS
 62
    7
 10
87.206493132821407
 20
236.67917056260728
 11
87.388193132821385
 21
236.74177056260731
  0
LINE
  8
_0-0_
  6
CONTINUOUS
 62
    7
 10
87.388193132821385
 20
236.74177056260731
 11
87.552393132821408
 21
236.82677056260729
  0
LINE
  8
_0-0_
  6
CONTINUOUS
 62
    7
 10
87.552393132821408
 20
236.82677056260729
 11
87.694093132821394
 21
236.93147056260727
  0
LINE
  8
_0-0_
  6
CONTINUOUS
 62
    7
 10
87.694093132821394
 20
236.93147056260727
 11
87.809093132821403
 21
237.0528705626073
  0
LINE
  8
_0-0_
  6
CONTINUOUS
 62
    7
 10
87.809093132821403
 20
237.0528705626073
 11
87.893793132821401
 21
237.18717056260729
  0
LINE
  8
_0-0_
  6
CONTINUOUS
 62
    7
 10
87.893793132821401
 20
237.18717056260729
 11
87.94569313282139
 21
237.3302705626073
  0
LINE
  8
_0-0_
  6
CONTINUOUS
 62
    7
 10
87.94569313282139
 20
237.3302705626073
 11
87.963193132821402
 21
237.47787056260728
  0
LINE
  8
_0-0_
  6
CONTINUOUS
 62
    7
 10
97.963193132821402
 20
237.47787056260728
 11
97.94569313282139
 21
237.62547056260729
  0
LINE
  8
_0-0_
  6
CONTINUOUS
 62
    7
 10
97.94569313282139
 20
237.62547056260729
 11
97.893793132821401
 21
237.76857056260729
  0
LINE
  8
_0-0_
  6
CONTINUOUS
 62
    7
 10
97.893793132821401
 20
237.76857056260729
 11
97.809093132821403
 21
237.90287056260729
  0
LINE
  8
_0-0_
  6
CONTINUOUS
 62
    7
 10
97.809093132821403
 20
237.90287056260729
 11
97.694193132821397
 21
238.02417056260731
  0
LINE
  8
_0-0_
  6
CONTINUOUS
 62
    7
 10
97.694193132821397
 20
238.02417056260731
 11
97.552393132821408
 21
238.12897056260729
  0
LINE
  8
_0-0_
  6
CONTINUOUS
 62
    7
 10
97.552393132821408
 20
238.12897056260729
 11
97.388193132821385
 21
238.2139705626073
  0
LINE
  8
_0-0_
  6
CONTINUOUS
 62
    7
 10
97.388193132821385
 20
238.2139705626073
 11
97.206493132821407
 21
238.27657056260728
  0
LINE
  8
_0-0_
  6
CONTINUOUS
 62
    7
 10
97.206493132821407
 20
238.27657056260728
 11
97.012893132821404
 21
238.3148705626073
  0
LINE
  8
_0-0_
  6
CONTINUOUS
 62
    7
 10
97.012893132821404
 20
238.3148705626073
 11
96.813193132821397
 21
238.3278705626073
  0
LINE
  8
_0-0_
  6
CONTINUOUS
 62
    7
 10
96.813193132821397
 20
238.3278705626073
 11
96.61349313282139
 21
238.3148705626073
  0
LINE
  8
_0-0_
  6
CONTINUOUS
 62
    7
 10
96.61349313282139
 20
238.3148705626073
 11
96.419893132821386
 21
238.27657056260728
  0
LINE
  8
_0-0_
  6
CONTINUOUS
 62
    7
 10
96.419893132821386
 20
238.27657056260728
 11
96.238193132821408
 21
238.2139705626073
  0
LINE
  8
_0-0_
  6
CONTINUOUS
 62
    7
 10
96.238193132821408
 20
238.2139705626073
 11
96.073993132821386
 21
238.12897056260729
  0
LINE
  8
_0-0_
  6
CONTINUOUS
 62
    7
 10
96.073993132821386
 20
238.12897056260729
 11
95.932193132821396
 21
238.02417056260731
  0
LINE
  8
_0-0_
  6
CONTINUOUS
 62
    7
 10
95.932193132821396
 20
238.02417056260731
 11
95.817293132821391
 21
237.90287056260729
  0
LINE
  8
_0-0_
  6
CONTINUOUS
 62
    7
 10
95.817293132821391
 20
237.90287056260729
 11
95.732593132821393
 21
237.76857056260729
  0
LINE
  8
_0-0_
  6
CONTINUOUS
 62
    7
 10
95.732593132821393
 20
237.76857056260729
 11
95.680693132821403
 21
237.62547056260729
  0
LINE
  8
_0-0_
  6
CONTINUOUS
 62
    7
 10
95.680693132821403
 20
237.62547056260729
 11
95.663193132821391
 21
237.47787056260728
  0
LINE
  8
_0-0_
  6
CONTINUOUS
 62
    7
 10
95.663193132821391
 20
237.47787056260728
 11
95.680693132821403
 21
237.3302705626073
  0
LINE
  8
_0-0_
  6
CONTINUOUS
 62
    7
 10
95.680693132821403
 20
237.3302705626073
 11
95.732593132821393
 21
237.18717056260729
  0
LINE
  8
_0-0_
  6
CONTINUOUS
 62
    7
 10
95.732593132821393
 20
237.18717056260729
 11
95.817293132821391
 21
237.0528705626073
  0
LINE
  8
_0-0_
  6
CONTINUOUS
 62
    7
 10
95.817293132821391
 20
237.0528705626073
 11
95.932193132821396
 21
236.93147056260727
  0
LINE
  8
_0-0_
  6
CONTINUOUS
 62
    7
 10
95.932193132821396
 20
236.93147056260727
 11
96.073993132821386
 21
236.82677056260729
  0
LINE
  8
_0-0_
  6
CONTINUOUS
 62
    7
 10
96.073993132821386
 20
236.82677056260729
 11
96.238193132821408
 21
236.74177056260731
  0
LINE
  8
_0-0_
  6
CONTINUOUS
 62
    7
 10
96.238193132821408
 20
236.74177056260731
 11
96.419893132821386
 21
236.67917056260728
  0
LINE
  8
_0-0_
  6
CONTINUOUS
 62
    7
 10
96.419893132821386
 20
236.67917056260728
 11
96.61349313282139
 21
236.64077056260729
  0
LINE
  8
_0-0_
  6
CONTINUOUS
 62
    7
 10
96.61349313282139
 20
236.64077056260729
 11
96.813193132821397
 21
236.62787056260731
  0
LINE
  8
_0-0_
  6
CONTINUOUS
 62
    7
 10
96.813193132821397
 20
236.62787056260731
 11
97.012893132821404
 21
236.64077056260729
  0
LINE
  8
_0-0_
  6
CONTINUOUS
 62
    7
 10
97.012893132821404
 20
236.64077056260729
 11
97.206493132821407
 21
236.67917056260728
  0
LINE
  8
_0-0_
  6
CONTINUOUS
 62
    7
 10
97.206493132821407
 20
236.67917056260728
 11
97.388193132821385
 21
236.74177056260731
  0
LINE
  8
_0-0_
  6
CONTINUOUS
 62
    7
 10
97.388193132821385
 20
236.74177056260731
 11
97.552393132821408
 21
236.82677056260729
  0
LINE
  8
_0-0_
  6
CONTINUOUS
 62
    7
 10
97.552393132821408
 20
236.82677056260729
 11
97.694193132821397
 21
236.93147056260727
  0
LINE
  8
_0-0_
  6
CONTINUOUS
 62
    7
 10
97.694193132821397
 20
236.93147056260727
 11
97.809093132821403
 21
237.0528705626073
  0
LINE
  8
_0-0_
  6
CONTINUOUS
 62
    7
 10
97.809093132821403
 20
237.0528705626073
 11
97.893793132821401
 21
237.18717056260729
  0
LINE
  8
_0-0_
  6
CONTINUOUS
 62
    7
 10
97.893793132821401
 20
237.18717056260729
 11
97.94569313282139
 21
237.3302705626073
  0
LINE
  8
_0-0_
  6
CONTINUOUS
 62
    7
 10
97.94569313282139
 20
237.3302705626073
 11
97.963193132821402
 21
237.47787056260728
  0
LINE
  8
_0-0_
  6
CONTINUOUS
 62
    7
 10
77.963193132821402
 20
237.47787056260728
 11
77.945693132821418
 21
237.62547056260729
  0
LINE
  8
_0-0_
  6
CONTINUOUS
 62
    7
 10
77.945693132821418
 20
237.62547056260729
 11
77.893793132821401
 21
237.76857056260729
  0
LINE
  8
_0-0_
  6
CONTINUOUS
 62
    7
 10
77.893793132821401
 20
237.76857056260729
 11
77.809093132821403
 21
237.90287056260729
  0
LINE
  8
_0-0_
  6
CONTINUOUS
 62
    7
 10
77.809093132821403
 20
237.90287056260729
 11
77.694093132821394
 21
238.02417056260731
  0
LINE
  8
_0-0_
  6
CONTINUOUS
 62
    7
 10
77.694093132821394
 20
238.02417056260731
 11
77.552393132821408
 21
238.12897056260729
  0
LINE
  8
_0-0_
  6
CONTINUOUS
 62
    7
 10
77.552393132821408
 20
238.12897056260729
 11
77.388193132821414
 21
238.2139705626073
  0
LINE
  8
_0-0_
  6
CONTINUOUS
 62
    7
 10
77.388193132821414
 20
238.2139705626073
 11
77.206493132821407
 21
238.27657056260728
  0
LINE
  8
_0-0_
  6
CONTINUOUS
 62
    7
 10
77.206493132821407
 20
238.27657056260728
 11
77.012893132821404
 21
238.3148705626073
  0
LINE
  8
_0-0_
  6
CONTINUOUS
 62
    7
 10
77.012893132821404
 20
238.3148705626073
 11
76.813193132821397
 21
238.3278705626073
  0
LINE
  8
_0-0_
  6
CONTINUOUS
 62
    7
 10
76.813193132821397
 20
238.3278705626073
 11
76.613493132821418
 21
238.3148705626073
  0
LINE
  8
_0-0_
  6
CONTINUOUS
 62
    7
 10
76.613493132821418
 20
238.3148705626073
 11
76.419893132821414
 21
238.27657056260728
  0
LINE
  8
_0-0_
  6
CONTINUOUS
 62
    7
 10
76.419893132821414
 20
238.27657056260728
 11
76.238193132821408
 21
238.2139705626073
  0
LINE
  8
_0-0_
  6
CONTINUOUS
 62
    7
 10
76.238193132821408
 20
238.2139705626073
 11
76.073993132821414
 21
238.12897056260729
  0
LINE
  8
_0-0_
  6
CONTINUOUS
 62
    7
 10
76.073993132821414
 20
238.12897056260729
 11
75.932193132821396
 21
238.02417056260731
  0
LINE
  8
_0-0_
  6
CONTINUOUS
 62
    7
 10
75.932193132821396
 20
238.02417056260731
 11
75.817293132821419
 21
237.90287056260729
  0
LINE
  8
_0-0_
  6
CONTINUOUS
 62
    7
 10
75.817293132821419
 20
237.90287056260729
 11
75.732493132821418
 21
237.76857056260729
  0
LINE
  8
_0-0_
  6
CONTINUOUS
 62
    7
 10
75.732493132821418
 20
237.76857056260729
 11
75.680693132821403
 21
237.62547056260729
  0
LINE
  8
_0-0_
  6
CONTINUOUS
 62
    7
 10
75.680693132821403
 20
237.62547056260729
 11
75.663193132821419
 21
237.47787056260728
  0
LINE
  8
_0-0_
  6
CONTINUOUS
 62
    7
 10
75.663193132821419
 20
237.47787056260728
 11
75.680693132821403
 21
237.3302705626073
  0
LINE
  8
_0-0_
  6
CONTINUOUS
 62
    7
 10
75.680693132821403
 20
237.3302705626073
 11
75.732493132821418
 21
237.18717056260729
  0
LINE
  8
_0-0_
  6
CONTINUOUS
 62
    7
 10
75.732493132821418
 20
237.18717056260729
 11
75.817293132821419
 21
237.0528705626073
  0
LINE
  8
_0-0_
  6
CONTINUOUS
 62
    7
 10
75.817293132821419
 20
237.0528705626073
 11
75.932193132821396
 21
236.93147056260727
  0
LINE
  8
_0-0_
  6
CONTINUOUS
 62
    7
 10
75.932193132821396
 20
236.93147056260727
 11
76.073993132821414
 21
236.82677056260729
  0
LINE
  8
_0-0_
  6
CONTINUOUS
 62
    7
 10
76.073993132821414
 20
236.82677056260729
 11
76.238193132821408
 21
236.74177056260731
  0
LINE
  8
_0-0_
  6
CONTINUOUS
 62
    7
 10
76.238193132821408
 20
236.74177056260731
 11
76.419893132821414
 21
236.67917056260728
  0
LINE
  8
_0-0_
  6
CONTINUOUS
 62
    7
 10
76.419893132821414
 20
236.67917056260728
 11
76.613493132821418
 21
236.64077056260729
  0
LINE
  8
_0-0_
  6
CONTINUOUS
 62
    7
 10
76.613493132821418
 20
236.64077056260729
 11
76.813193132821397
 21
236.62787056260731
  0
LINE
  8
_0-0_
  6
CONTINUOUS
 62
    7
 10
76.813193132821397
 20
236.62787056260731
 11
77.012893132821404
 21
236.64077056260729
  0
LINE
  8
_0-0_
  6
CONTINUOUS
 62
    7
 10
77.012893132821404
 20
236.64077056260729
 11
77.206493132821407
 21
236.67917056260728
  0
LINE
  8
_0-0_
  6
CONTINUOUS
 62
    7
 10
77.206493132821407
 20
236.67917056260728
 11
77.388193132821414
 21
236.74177056260731
  0
LINE
  8
_0-0_
  6
CONTINUOUS
 62
    7
 10
77.388193132821414
 20
236.74177056260731
 11
77.552393132821408
 21
236.82677056260729
  0
LINE
  8
_0-0_
  6
CONTINUOUS
 62
    7
 10
77.552393132821408
 20
236.82677056260729
 11
77.694093132821394
 21
236.93147056260727
  0
LINE
  8
_0-0_
  6
CONTINUOUS
 62
    7
 10
77.694093132821394
 20
236.93147056260727
 11
77.809093132821403
 21
237.0528705626073
  0
LINE
  8
_0-0_
  6
CONTINUOUS
 62
    7
 10
77.809093132821403
 20
237.0528705626073
 11
77.893793132821401
 21
237.18717056260729
  0
LINE
  8
_0-0_
  6
CONTINUOUS
 62
    7
 10
77.893793132821401
 20
237.18717056260729
 11
77.945693132821418
 21
237.3302705626073
  0
LINE
  8
_0-0_
  6
CONTINUOUS
 62
    7
 10
77.945693132821418
 20
237.3302705626073
 11
77.963193132821402
 21
237.47787056260728
  0
LINE
  8
_0-0_
  6
CONTINUOUS
 62
    7
 10
78.086893132821416
 20
237.27787056260729
 11
78.112693132821391
 21
237.4510705626073
  0
LINE
  8
_0-0_
  6
CONTINUOUS
 62
    7
 10
78.112693132821391
 20
237.4510705626073
 11
78.098993132821391
 21
237.62507056260728
  0
LINE
  8
_0-0_
  6
CONTINUOUS
 62
    7
 10
78.098993132821391
 20
237.62507056260728
 11
78.046293132821404
 21
237.7945705626073
  0
LINE
  8
_0-0_
  6
CONTINUOUS
 62
    7
 10
78.046293132821404
 20
237.7945705626073
 11
77.956093132821394
 21
237.9544705626073
  0
LINE
  8
_0-0_
  6
CONTINUOUS
 62
    7
 10
77.956093132821394
 20
237.9544705626073
 11
77.831093132821394
 21
238.09987056260729
  0
LINE
  8
_0-0_
  6
CONTINUOUS
 62
    7
 10
77.831093132821394
 20
238.09987056260729
 11
77.675193132821391
 21
238.22637056260731
  0
LINE
  8
_0-0_
  6
CONTINUOUS
 62
    7
 10
77.675193132821391
 20
238.22637056260731
 11
77.493193132821403
 21
238.33017056260729
  0
LINE
  8
_0-0_
  6
CONTINUOUS
 62
    7
 10
77.493193132821403
 20
238.33017056260729
 11
77.290393132821407
 21
238.40797056260729
  0
LINE
  8
_0-0_
  6
CONTINUOUS
 62
    7
 10
77.290393132821407
 20
238.40797056260729
 11
77.073193132821416
 21
238.45757056260729
  0
LINE
  8
_0-0_
  6
CONTINUOUS
 62
    7
 10
77.073193132821416
 20
238.45757056260729
 11
76.848093132821418
 21
238.47747056260729
  0
LINE
  8
_0-0_
  6
CONTINUOUS
 62
    7
 10
76.848093132821418
 20
238.47747056260729
 11
76.621893132821413
 21
238.46697056260729
  0
LINE
  8
_0-0_
  6
CONTINUOUS
 62
    7
 10
76.621893132821413
 20
238.46697056260729
 11
76.4014931328214
 21
238.4263705626073
  0
LINE
  8
_0-0_
  6
CONTINUOUS
 62
    7
 10
76.4014931328214
 20
238.4263705626073
 11
76.193593132821405
 21
238.35697056260727
  0
LINE
  8
_0-0_
  6
CONTINUOUS
 62
    7
 10
76.193593132821405
 20
238.35697056260727
 11
76.004593132821412
 21
238.26087056260729
  0
LINE
  8
_0-0_
  6
CONTINUOUS
 62
    7
 10
76.004593132821412
 20
238.26087056260729
 11
75.840093132821409
 21
238.14097056260729
  0
LINE
  8
_0-0_
  6
CONTINUOUS
 62
    7
 10
75.840093132821409
 20
238.14097056260729
 11
75.705193132821393
 21
238.0008705626073
  0
LINE
  8
_0-0_
  6
CONTINUOUS
 62
    7
 10
75.705193132821393
 20
238.0008705626073
 11
75.603993132821415
 21
237.84497056260727
  0
LINE
  8
_0-0_
  6
CONTINUOUS
 62
    7
 10
75.603993132821415
 20
237.84497056260727
 11
75.539493132821406
 21
237.6778705626073
  0
LINE
  8
_0-0_
  6
CONTINUOUS
 62
    7
 10
75.539493132821406
 20
237.6778705626073
 11
75.513693132821402
 21
237.50467056260729
  0
LINE
  8
_0-0_
  6
CONTINUOUS
 62
    7
 10
75.513693132821402
 20
237.50467056260729
 11
75.527293132821399
 21
237.33067056260728
  0
LINE
  8
_0-0_
  6
CONTINUOUS
 62
    7
 10
75.527293132821399
 20
237.33067056260728
 11
75.539493132821406
 21
237.27787056260729
  0
LINE
  8
_0-0_
  6
CONTINUOUS
 62
    7
 10
88.086893132821388
 20
237.27787056260729
 11
88.112693132821391
 21
237.4510705626073
  0
LINE
  8
_0-0_
  6
CONTINUOUS
 62
    7
 10
88.112693132821391
 20
237.4510705626073
 11
88.098993132821391
 21
237.62507056260728
  0
LINE
  8
_0-0_
  6
CONTINUOUS
 62
    7
 10
88.098993132821391
 20
237.62507056260728
 11
88.046293132821404
 21
237.7945705626073
  0
LINE
  8
_0-0_
  6
CONTINUOUS
 62
    7
 10
88.046293132821404
 20
237.7945705626073
 11
87.956093132821394
 21
237.9544705626073
  0
LINE
  8
_0-0_
  6
CONTINUOUS
 62
    7
 10
87.956093132821394
 20
237.9544705626073
 11
87.831093132821394
 21
238.09987056260729
  0
LINE
  8
_0-0_
  6
CONTINUOUS
 62
    7
 10
87.831093132821394
 20
238.09987056260729
 11
87.675193132821391
 21
238.22637056260731
  0
LINE
  8
_0-0_
  6
CONTINUOUS
 62
    7
 10
87.675193132821391
 20
238.22637056260731
 11
87.493193132821403
 21
238.33017056260729
  0
LINE
  8
_0-0_
  6
CONTINUOUS
 62
    7
 10
87.493193132821403
 20
238.33017056260729
 11
87.290393132821407
 21
238.40797056260729
  0
LINE
  8
_0-0_
  6
CONTINUOUS
 62
    7
 10
87.290393132821407
 20
238.40797056260729
 11
87.073193132821388
 21
238.45757056260729
  0
LINE
  8
_0-0_
  6
CONTINUOUS
 62
    7
 10
87.073193132821388
 20
238.45757056260729
 11
86.84809313282139
 21
238.47747056260729
  0
LINE
  8
_0-0_
  6
CONTINUOUS
 62
    7
 10
86.84809313282139
 20
238.47747056260729
 11
86.621893132821413
 21
238.46697056260729
  0
LINE
  8
_0-0_
  6
CONTINUOUS
 62
    7
 10
86.621893132821413
 20
238.46697056260729
 11
86.4014931328214
 21
238.4263705626073
  0
LINE
  8
_0-0_
  6
CONTINUOUS
 62
    7
 10
86.4014931328214
 20
238.4263705626073
 11
86.193593132821405
 21
238.35697056260727
  0
LINE
  8
_0-0_
  6
CONTINUOUS
 62
    7
 10
86.193593132821405
 20
238.35697056260727
 11
86.004593132821412
 21
238.26087056260729
  0
LINE
  8
_0-0_
  6
CONTINUOUS
 62
    7
 10
86.004593132821412
 20
238.26087056260729
 11
85.840093132821409
 21
238.14097056260729
  0
LINE
  8
_0-0_
  6
CONTINUOUS
 62
    7
 10
85.840093132821409
 20
238.14097056260729
 11
85.705193132821393
 21
238.0008705626073
  0
LINE
  8
_0-0_
  6
CONTINUOUS
 62
    7
 10
85.705193132821393
 20
238.0008705626073
 11
85.603993132821387
 21
237.84497056260727
  0
LINE
  8
_0-0_
  6
CONTINUOUS
 62
    7
 10
85.603993132821387
 20
237.84497056260727
 11
85.539493132821406
 21
237.6778705626073
  0
LINE
  8
_0-0_
  6
CONTINUOUS
 62
    7
 10
85.539493132821406
 20
237.6778705626073
 11
85.513693132821402
 21
237.50467056260729
  0
LINE
  8
_0-0_
  6
CONTINUOUS
 62
    7
 10
85.513693132821402
 20
237.50467056260729
 11
85.527393132821402
 21
237.33067056260728
  0
LINE
  8
_0-0_
  6
CONTINUOUS
 62
    7
 10
85.527393132821402
 20
237.33067056260728
 11
85.539493132821406
 21
237.27787056260729
  0
LINE
  8
_0-0_
  6
CONTINUOUS
 62
    7
 10
98.086893132821388
 20
237.27787056260729
 11
98.112693132821391
 21
237.4510705626073
  0
LINE
  8
_0-0_
  6
CONTINUOUS
 62
    7
 10
98.112693132821391
 20
237.4510705626073
 11
98.098993132821391
 21
237.62507056260728
  0
LINE
  8
_0-0_
  6
CONTINUOUS
 62
    7
 10
98.098993132821391
 20
237.62507056260728
 11
98.046293132821404
 21
237.7945705626073
  0
LINE
  8
_0-0_
  6
CONTINUOUS
 62
    7
 10
98.046293132821404
 20
237.7945705626073
 11
97.956093132821394
 21
237.9544705626073
  0
LINE
  8
_0-0_
  6
CONTINUOUS
 62
    7
 10
97.956093132821394
 20
237.9544705626073
 11
97.831093132821394
 21
238.09987056260729
  0
LINE
  8
_0-0_
  6
CONTINUOUS
 62
    7
 10
97.831093132821394
 20
238.09987056260729
 11
97.675193132821391
 21
238.22637056260731
  0
LINE
  8
_0-0_
  6
CONTINUOUS
 62
    7
 10
97.675193132821391
 20
238.22637056260731
 11
97.493193132821403
 21
238.33017056260729
  0
LINE
  8
_0-0_
  6
CONTINUOUS
 62
    7
 10
97.493193132821403
 20
238.33017056260729
 11
97.290393132821407
 21
238.40797056260729
  0
LINE
  8
_0-0_
  6
CONTINUOUS
 62
    7
 10
97.290393132821407
 20
238.40797056260729
 11
97.073193132821388
 21
238.45757056260729
  0
LINE
  8
_0-0_
  6
CONTINUOUS
 62
    7
 10
97.073193132821388
 20
238.45757056260729
 11
96.84809313282139
 21
238.47747056260729
  0
LINE
  8
_0-0_
  6
CONTINUOUS
 62
    7
 10
96.84809313282139
 20
238.47747056260729
 11
96.621893132821413
 21
238.46697056260729
  0
LINE
  8
_0-0_
  6
CONTINUOUS
 62
    7
 10
96.621893132821413
 20
238.46697056260729
 11
96.4014931328214
 21
238.4263705626073
  0
LINE
  8
_0-0_
  6
CONTINUOUS
 62
    7
 10
96.4014931328214
 20
238.4263705626073
 11
96.193593132821405
 21
238.35697056260727
  0
LINE
  8
_0-0_
  6
CONTINUOUS
 62
    7
 10
96.193593132821405
 20
238.35697056260727
 11
96.004593132821412
 21
238.26087056260729
  0
LINE
  8
_0-0_
  6
CONTINUOUS
 62
    7
 10
96.004593132821412
 20
238.26087056260729
 11
95.840093132821409
 21
238.14097056260729
  0
LINE
  8
_0-0_
  6
CONTINUOUS
 62
    7
 10
95.840093132821409
 20
238.14097056260729
 11
95.705193132821393
 21
238.0008705626073
  0
LINE
  8
_0-0_
  6
CONTINUOUS
 62
    7
 10
95.705193132821393
 20
238.0008705626073
 11
95.603993132821387
 21
237.84497056260727
  0
LINE
  8
_0-0_
  6
CONTINUOUS
 62
    7
 10
95.603993132821387
 20
237.84497056260727
 11
95.539493132821406
 21
237.6778705626073
  0
LINE
  8
_0-0_
  6
CONTINUOUS
 62
    7
 10
95.539493132821406
 20
237.6778705626073
 11
95.513693132821402
 21
237.50467056260729
  0
LINE
  8
_0-0_
  6
CONTINUOUS
 62
    7
 10
95.513693132821402
 20
237.50467056260729
 11
95.527393132821402
 21
237.33067056260728
  0
LINE
  8
_0-0_
  6
CONTINUOUS
 62
    7
 10
95.527393132821402
 20
237.33067056260728
 11
95.539493132821406
 21
237.27787056260729
  0
LINE
  8
_0-0_
  6
CONTINUOUS
 62
    7
 10
108.08689313282139
 20
237.27787056260729
 11
108.11269313282139
 21
237.4510705626073
  0
LINE
  8
_0-0_
  6
CONTINUOUS
 62
    7
 10
108.11269313282139
 20
237.4510705626073
 11
108.09899313282139
 21
237.62507056260728
  0
LINE
  8
_0-0_
  6
CONTINUOUS
 62
    7
 10
108.09899313282139
 20
237.62507056260728
 11
108.0462931328214
 21
237.7945705626073
  0
LINE
  8
_0-0_
  6
CONTINUOUS
 62
    7
 10
108.0462931328214
 20
237.7945705626073
 11
107.95609313282139
 21
237.9544705626073
  0
LINE
  8
_0-0_
  6
CONTINUOUS
 62
    7
 10
107.95609313282139
 20
237.9544705626073
 11
107.83109313282139
 21
238.09987056260729
  0
LINE
  8
_0-0_
  6
CONTINUOUS
 62
    7
 10
107.83109313282139
 20
238.09987056260729
 11
107.67519313282139
 21
238.22637056260731
  0
LINE
  8
_0-0_
  6
CONTINUOUS
 62
    7
 10
107.67519313282139
 20
238.22637056260731
 11
107.4931931328214
 21
238.33017056260729
  0
LINE
  8
_0-0_
  6
CONTINUOUS
 62
    7
 10
107.4931931328214
 20
238.33017056260729
 11
107.29039313282141
 21
238.40797056260729
  0
LINE
  8
_0-0_
  6
CONTINUOUS
 62
    7
 10
107.29039313282141
 20
238.40797056260729
 11
107.07319313282139
 21
238.45757056260729
  0
LINE
  8
_0-0_
  6
CONTINUOUS
 62
    7
 10
107.07319313282139
 20
238.45757056260729
 11
106.84809313282139
 21
238.47747056260729
  0
LINE
  8
_0-0_
  6
CONTINUOUS
 62
    7
 10
106.84809313282139
 20
238.47747056260729
 11
106.62189313282141
 21
238.46697056260729
  0
LINE
  8
_0-0_
  6
CONTINUOUS
 62
    7
 10
106.62189313282141
 20
238.46697056260729
 11
106.4014931328214
 21
238.4263705626073
  0
LINE
  8
_0-0_
  6
CONTINUOUS
 62
    7
 10
106.4014931328214
 20
238.4263705626073
 11
106.19359313282141
 21
238.35697056260727
  0
LINE
  8
_0-0_
  6
CONTINUOUS
 62
    7
 10
106.19359313282141
 20
238.35697056260727
 11
106.00459313282141
 21
238.26087056260729
  0
LINE
  8
_0-0_
  6
CONTINUOUS
 62
    7
 10
106.00459313282141
 20
238.26087056260729
 11
105.84009313282141
 21
238.14097056260729
  0
LINE
  8
_0-0_
  6
CONTINUOUS
 62
    7
 10
105.84009313282141
 20
238.14097056260729
 11
105.70519313282139
 21
238.0008705626073
  0
LINE
  8
_0-0_
  6
CONTINUOUS
 62
    7
 10
105.70519313282139
 20
238.0008705626073
 11
105.60399313282139
 21
237.84497056260727
  0
LINE
  8
_0-0_
  6
CONTINUOUS
 62
    7
 10
105.60399313282139
 20
237.84497056260727
 11
105.53949313282141
 21
237.6778705626073
  0
LINE
  8
_0-0_
  6
CONTINUOUS
 62
    7
 10
105.53949313282141
 20
237.6778705626073
 11
105.5136931328214
 21
237.50467056260729
  0
LINE
  8
_0-0_
  6
CONTINUOUS
 62
    7
 10
105.5136931328214
 20
237.50467056260729
 11
105.5273931328214
 21
237.33067056260728
  0
LINE
  8
_0-0_
  6
CONTINUOUS
 62
    7
 10
105.5273931328214
 20
237.33067056260728
 11
105.53949313282141
 21
237.27787056260729
  0
LINE
  8
_0-0_
  6
CONTINUOUS
 62
    7
 10
118.08689313282139
 20
237.27787056260729
 11
118.11269313282139
 21
237.4510705626073
  0
LINE
  8
_0-0_
  6
CONTINUOUS
 62
    7
 10
118.11269313282139
 20
237.4510705626073
 11
118.09899313282139
 21
237.62507056260728
  0
LINE
  8
_0-0_
  6
CONTINUOUS
 62
    7
 10
118.09899313282139
 20
237.62507056260728
 11
118.0462931328214
 21
237.7945705626073
  0
LINE
  8
_0-0_
  6
CONTINUOUS
 62
    7
 10
118.0462931328214
 20
237.7945705626073
 11
117.95609313282139
 21
237.9544705626073
  0
LINE
  8
_0-0_
  6
CONTINUOUS
 62
    7
 10
117.95609313282139
 20
237.9544705626073
 11
117.83109313282139
 21
238.09987056260729
  0
LINE
  8
_0-0_
  6
CONTINUOUS
 62
    7
 10
117.83109313282139
 20
238.09987056260729
 11
117.67519313282139
 21
238.22637056260731
  0
LINE
  8
_0-0_
  6
CONTINUOUS
 62
    7
 10
117.67519313282139
 20
238.22637056260731
 11
117.4931931328214
 21
238.33017056260729
  0
LINE
  8
_0-0_
  6
CONTINUOUS
 62
    7
 10
117.4931931328214
 20
238.33017056260729
 11
117.29039313282141
 21
238.40797056260729
  0
LINE
  8
_0-0_
  6
CONTINUOUS
 62
    7
 10
117.29039313282141
 20
238.40797056260729
 11
117.07319313282139
 21
238.45757056260729
  0
LINE
  8
_0-0_
  6
CONTINUOUS
 62
    7
 10
117.07319313282139
 20
238.45757056260729
 11
116.84809313282139
 21
238.47747056260729
  0
LINE
  8
_0-0_
  6
CONTINUOUS
 62
    7
 10
116.84809313282139
 20
238.47747056260729
 11
116.62189313282141
 21
238.46697056260729
  0
LINE
  8
_0-0_
  6
CONTINUOUS
 62
    7
 10
116.62189313282141
 20
238.46697056260729
 11
116.4014931328214
 21
238.4263705626073
  0
LINE
  8
_0-0_
  6
CONTINUOUS
 62
    7
 10
116.4014931328214
 20
238.4263705626073
 11
116.19359313282141
 21
238.35697056260727
  0
LINE
  8
_0-0_
  6
CONTINUOUS
 62
    7
 10
116.19359313282141
 20
238.35697056260727
 11
116.00459313282141
 21
238.26087056260729
  0
LINE
  8
_0-0_
  6
CONTINUOUS
 62
    7
 10
116.00459313282141
 20
238.26087056260729
 11
115.84009313282141
 21
238.14097056260729
  0
LINE
  8
_0-0_
  6
CONTINUOUS
 62
    7
 10
115.84009313282141
 20
238.14097056260729
 11
115.70519313282139
 21
238.0008705626073
  0
LINE
  8
_0-0_
  6
CONTINUOUS
 62
    7
 10
115.70519313282139
 20
238.0008705626073
 11
115.60399313282139
 21
237.84497056260727
  0
LINE
  8
_0-0_
  6
CONTINUOUS
 62
    7
 10
115.60399313282139
 20
237.84497056260727
 11
115.53949313282141
 21
237.6778705626073
  0
LINE
  8
_0-0_
  6
CONTINUOUS
 62
    7
 10
115.53949313282141
 20
237.6778705626073
 11
115.5136931328214
 21
237.50467056260729
  0
LINE
  8
_0-0_
  6
CONTINUOUS
 62
    7
 10
115.5136931328214
 20
237.50467056260729
 11
115.5273931328214
 21
237.33067056260728
  0
LINE
  8
_0-0_
  6
CONTINUOUS
 62
    7
 10
115.5273931328214
 20
237.33067056260728
 11
115.53949313282141
 21
237.27787056260729
  0
LINE
  8
_0-0_
  6
CONTINUOUS
 62
    7
 10
128.08689313282139
 20
237.27787056260729
 11
128.11269313282139
 21
237.4510705626073
  0
LINE
  8
_0-0_
  6
CONTINUOUS
 62
    7
 10
128.11269313282139
 20
237.4510705626073
 11
128.09899313282139
 21
237.62507056260728
  0
LINE
  8
_0-0_
  6
CONTINUOUS
 62
    7
 10
128.09899313282139
 20
237.62507056260728
 11
128.0462931328214
 21
237.7945705626073
  0
LINE
  8
_0-0_
  6
CONTINUOUS
 62
    7
 10
128.0462931328214
 20
237.7945705626073
 11
127.95609313282139
 21
237.9544705626073
  0
LINE
  8
_0-0_
  6
CONTINUOUS
 62
    7
 10
127.95609313282139
 20
237.9544705626073
 11
127.83109313282139
 21
238.09987056260729
  0
LINE
  8
_0-0_
  6
CONTINUOUS
 62
    7
 10
127.83109313282139
 20
238.09987056260729
 11
127.67519313282139
 21
238.22637056260731
  0
LINE
  8
_0-0_
  6
CONTINUOUS
 62
    7
 10
127.67519313282139
 20
238.22637056260731
 11
127.4931931328214
 21
238.33017056260729
  0
LINE
  8
_0-0_
  6
CONTINUOUS
 62
    7
 10
127.4931931328214
 20
238.33017056260729
 11
127.29039313282141
 21
238.40797056260729
  0
LINE
  8
_0-0_
  6
CONTINUOUS
 62
    7
 10
127.29039313282141
 20
238.40797056260729
 11
127.07319313282139
 21
238.45757056260729
  0
LINE
  8
_0-0_
  6
CONTINUOUS
 62
    7
 10
127.07319313282139
 20
238.45757056260729
 11
126.84809313282139
 21
238.47747056260729
  0
LINE
  8
_0-0_
  6
CONTINUOUS
 62
    7
 10
126.84809313282139
 20
238.47747056260729
 11
126.62189313282141
 21
238.46697056260729
  0
LINE
  8
_0-0_
  6
CONTINUOUS
 62
    7
 10
126.62189313282141
 20
238.46697056260729
 11
126.4014931328214
 21
238.4263705626073
  0
LINE
  8
_0-0_
  6
CONTINUOUS
 62
    7
 10
126.4014931328214
 20
238.4263705626073
 11
126.19359313282141
 21
238.35697056260727
  0
LINE
  8
_0-0_
  6
CONTINUOUS
 62
    7
 10
126.19359313282141
 20
238.35697056260727
 11
126.00459313282141
 21
238.26087056260729
  0
LINE
  8
_0-0_
  6
CONTINUOUS
 62
    7
 10
126.00459313282141
 20
238.26087056260729
 11
125.84009313282141
 21
238.14097056260729
  0
LINE
  8
_0-0_
  6
CONTINUOUS
 62
    7
 10
125.84009313282141
 20
238.14097056260729
 11
125.70519313282139
 21
238.0008705626073
  0
LINE
  8
_0-0_
  6
CONTINUOUS
 62
    7
 10
125.70519313282139
 20
238.0008705626073
 11
125.60399313282139
 21
237.84497056260727
  0
LINE
  8
_0-0_
  6
CONTINUOUS
 62
    7
 10
125.60399313282139
 20
237.84497056260727
 11
125.53949313282141
 21
237.6778705626073
  0
LINE
  8
_0-0_
  6
CONTINUOUS
 62
    7
 10
125.53949313282141
 20
237.6778705626073
 11
125.5136931328214
 21
237.50467056260729
  0
LINE
  8
_0-0_
  6
CONTINUOUS
 62
    7
 10
125.5136931328214
 20
237.50467056260729
 11
125.5272931328214
 21
237.33067056260728
  0
LINE
  8
_0-0_
  6
CONTINUOUS
 62
    7
 10
125.5272931328214
 20
237.33067056260728
 11
125.53949313282141
 21
237.27787056260729
  0
LINE
  8
_0-0_
  6
CONTINUOUS
 62
    7
 10
138.08689313282139
 20
237.27787056260729
 11
138.11269313282139
 21
237.4510705626073
  0
LINE
  8
_0-0_
  6
CONTINUOUS
 62
    7
 10
138.11269313282139
 20
237.4510705626073
 11
138.09899313282139
 21
237.62507056260728
  0
LINE
  8
_0-0_
  6
CONTINUOUS
 62
    7
 10
138.09899313282139
 20
237.62507056260728
 11
138.0462931328214
 21
237.7945705626073
  0
LINE
  8
_0-0_
  6
CONTINUOUS
 62
    7
 10
138.0462931328214
 20
237.7945705626073
 11
137.95609313282139
 21
237.9544705626073
  0
LINE
  8
_0-0_
  6
CONTINUOUS
 62
    7
 10
137.95609313282139
 20
237.9544705626073
 11
137.83109313282139
 21
238.09987056260729
  0
LINE
  8
_0-0_
  6
CONTINUOUS
 62
    7
 10
137.83109313282139
 20
238.09987056260729
 11
137.67519313282139
 21
238.22637056260731
  0
LINE
  8
_0-0_
  6
CONTINUOUS
 62
    7
 10
137.67519313282139
 20
238.22637056260731
 11
137.4931931328214
 21
238.33017056260729
  0
LINE
  8
_0-0_
  6
CONTINUOUS
 62
    7
 10
137.4931931328214
 20
238.33017056260729
 11
137.29039313282141
 21
238.40797056260729
  0
LINE
  8
_0-0_
  6
CONTINUOUS
 62
    7
 10
137.29039313282141
 20
238.40797056260729
 11
137.07319313282139
 21
238.45757056260729
  0
LINE
  8
_0-0_
  6
CONTINUOUS
 62
    7
 10
137.07319313282139
 20
238.45757056260729
 11
136.84809313282139
 21
238.47747056260729
  0
LINE
  8
_0-0_
  6
CONTINUOUS
 62
    7
 10
136.84809313282139
 20
238.47747056260729
 11
136.62189313282141
 21
238.46697056260729
  0
LINE
  8
_0-0_
  6
CONTINUOUS
 62
    7
 10
136.62189313282141
 20
238.46697056260729
 11
136.4014931328214
 21
238.4263705626073
  0
LINE
  8
_0-0_
  6
CONTINUOUS
 62
    7
 10
136.4014931328214
 20
238.4263705626073
 11
136.19359313282141
 21
238.35697056260727
  0
LINE
  8
_0-0_
  6
CONTINUOUS
 62
    7
 10
136.19359313282141
 20
238.35697056260727
 11
136.00459313282141
 21
238.26087056260729
  0
LINE
  8
_0-0_
  6
CONTINUOUS
 62
    7
 10
136.00459313282141
 20
238.26087056260729
 11
135.84009313282141
 21
238.14097056260729
  0
LINE
  8
_0-0_
  6
CONTINUOUS
 62
    7
 10
135.84009313282141
 20
238.14097056260729
 11
135.70519313282139
 21
238.0008705626073
  0
LINE
  8
_0-0_
  6
CONTINUOUS
 62
    7
 10
135.70519313282139
 20
238.0008705626073
 11
135.60399313282139
 21
237.84497056260727
  0
LINE
  8
_0-0_
  6
CONTINUOUS
 62
    7
 10
135.60399313282139
 20
237.84497056260727
 11
135.53949313282141
 21
237.6778705626073
  0
LINE
  8
_0-0_
  6
CONTINUOUS
 62
    7
 10
135.53949313282141
 20
237.6778705626073
 11
135.5136931328214
 21
237.50467056260729
  0
LINE
  8
_0-0_
  6
CONTINUOUS
 62
    7
 10
135.5136931328214
 20
237.50467056260729
 11
135.5273931328214
 21
237.33067056260728
  0
LINE
  8
_0-0_
  6
CONTINUOUS
 62
    7
 10
135.5273931328214
 20
237.33067056260728
 11
135.53949313282141
 21
237.27787056260729
  0
LINE
  8
_0-0_
  6
CONTINUOUS
 62
    7
 10
148.08689313282139
 20
237.27787056260729
 11
148.11269313282139
 21
237.4510705626073
  0
LINE
  8
_0-0_
  6
CONTINUOUS
 62
    7
 10
148.11269313282139
 20
237.4510705626073
 11
148.09899313282139
 21
237.62507056260728
  0
LINE
  8
_0-0_
  6
CONTINUOUS
 62
    7
 10
148.09899313282139
 20
237.62507056260728
 11
148.0462931328214
 21
237.7945705626073
  0
LINE
  8
_0-0_
  6
CONTINUOUS
 62
    7
 10
148.0462931328214
 20
237.7945705626073
 11
147.95609313282139
 21
237.9544705626073
  0
LINE
  8
_0-0_
  6
CONTINUOUS
 62
    7
 10
147.95609313282139
 20
237.9544705626073
 11
147.83109313282139
 21
238.09987056260729
  0
LINE
  8
_0-0_
  6
CONTINUOUS
 62
    7
 10
147.83109313282139
 20
238.09987056260729
 11
147.67519313282139
 21
238.22637056260731
  0
LINE
  8
_0-0_
  6
CONTINUOUS
 62
    7
 10
147.67519313282139
 20
238.22637056260731
 11
147.4931931328214
 21
238.33017056260729
  0
LINE
  8
_0-0_
  6
CONTINUOUS
 62
    7
 10
147.4931931328214
 20
238.33017056260729
 11
147.29039313282141
 21
238.40797056260729
  0
LINE
  8
_0-0_
  6
CONTINUOUS
 62
    7
 10
147.29039313282141
 20
238.40797056260729
 11
147.07319313282142
 21
238.45757056260729
  0
LINE
  8
_0-0_
  6
CONTINUOUS
 62
    7
 10
147.07319313282142
 20
238.45757056260729
 11
146.84809313282139
 21
238.47747056260729
  0
LINE
  8
_0-0_
  6
CONTINUOUS
 62
    7
 10
146.84809313282139
 20
238.47747056260729
 11
146.62189313282141
 21
238.46697056260729
  0
LINE
  8
_0-0_
  6
CONTINUOUS
 62
    7
 10
146.62189313282141
 20
238.46697056260729
 11
146.4014931328214
 21
238.4263705626073
  0
LINE
  8
_0-0_
  6
CONTINUOUS
 62
    7
 10
146.4014931328214
 20
238.4263705626073
 11
146.19359313282141
 21
238.35697056260727
  0
LINE
  8
_0-0_
  6
CONTINUOUS
 62
    7
 10
146.19359313282141
 20
238.35697056260727
 11
146.00459313282141
 21
238.26087056260729
  0
LINE
  8
_0-0_
  6
CONTINUOUS
 62
    7
 10
146.00459313282141
 20
238.26087056260729
 11
145.84009313282141
 21
238.14097056260729
  0
LINE
  8
_0-0_
  6
CONTINUOUS
 62
    7
 10
145.84009313282141
 20
238.14097056260729
 11
145.70519313282139
 21
238.0008705626073
  0
LINE
  8
_0-0_
  6
CONTINUOUS
 62
    7
 10
145.70519313282139
 20
238.0008705626073
 11
145.60399313282139
 21
237.84497056260727
  0
LINE
  8
_0-0_
  6
CONTINUOUS
 62
    7
 10
145.60399313282139
 20
237.84497056260727
 11
145.53949313282141
 21
237.6778705626073
  0
LINE
  8
_0-0_
  6
CONTINUOUS
 62
    7
 10
145.53949313282141
 20
237.6778705626073
 11
145.5136931328214
 21
237.50467056260729
  0
LINE
  8
_0-0_
  6
CONTINUOUS
 62
    7
 10
145.5136931328214
 20
237.50467056260729
 11
145.5273931328214
 21
237.33067056260728
  0
LINE
  8
_0-0_
  6
CONTINUOUS
 62
    7
 10
145.5273931328214
 20
237.33067056260728
 11
145.53949313282141
 21
237.27787056260729
  0
LINE
  8
_0-0_
  6
CONTINUOUS
 62
    7
 10
158.08689313282139
 20
237.27787056260729
 11
158.11269313282139
 21
237.4510705626073
  0
LINE
  8
_0-0_
  6
CONTINUOUS
 62
    7
 10
158.11269313282139
 20
237.4510705626073
 11
158.09899313282139
 21
237.62507056260728
  0
LINE
  8
_0-0_
  6
CONTINUOUS
 62
    7
 10
158.09899313282139
 20
237.62507056260728
 11
158.0462931328214
 21
237.7945705626073
  0
LINE
  8
_0-0_
  6
CONTINUOUS
 62
    7
 10
158.0462931328214
 20
237.7945705626073
 11
157.95609313282139
 21
237.9544705626073
  0
LINE
  8
_0-0_
  6
CONTINUOUS
 62
    7
 10
157.95609313282139
 20
237.9544705626073
 11
157.83109313282139
 21
238.09987056260729
  0
LINE
  8
_0-0_
  6
CONTINUOUS
 62
    7
 10
157.83109313282139
 20
238.09987056260729
 11
157.67519313282139
 21
238.22637056260731
  0
LINE
  8
_0-0_
  6
CONTINUOUS
 62
    7
 10
157.67519313282139
 20
238.22637056260731
 11
157.4931931328214
 21
238.33017056260729
  0
LINE
  8
_0-0_
  6
CONTINUOUS
 62
    7
 10
157.4931931328214
 20
238.33017056260729
 11
157.29039313282141
 21
238.40797056260729
  0
LINE
  8
_0-0_
  6
CONTINUOUS
 62
    7
 10
157.29039313282141
 20
238.40797056260729
 11
157.07319313282142
 21
238.45757056260729
  0
LINE
  8
_0-0_
  6
CONTINUOUS
 62
    7
 10
157.07319313282142
 20
238.45757056260729
 11
156.84809313282139
 21
238.47747056260729
  0
LINE
  8
_0-0_
  6
CONTINUOUS
 62
    7
 10
156.84809313282139
 20
238.47747056260729
 11
156.62189313282141
 21
238.46697056260729
  0
LINE
  8
_0-0_
  6
CONTINUOUS
 62
    7
 10
156.62189313282141
 20
238.46697056260729
 11
156.4014931328214
 21
238.4263705626073
  0
LINE
  8
_0-0_
  6
CONTINUOUS
 62
    7
 10
156.4014931328214
 20
238.4263705626073
 11
156.19359313282141
 21
238.35697056260727
  0
LINE
  8
_0-0_
  6
CONTINUOUS
 62
    7
 10
156.19359313282141
 20
238.35697056260727
 11
156.00459313282141
 21
238.26087056260729
  0
LINE
  8
_0-0_
  6
CONTINUOUS
 62
    7
 10
156.00459313282141
 20
238.26087056260729
 11
155.84009313282141
 21
238.14097056260729
  0
LINE
  8
_0-0_
  6
CONTINUOUS
 62
    7
 10
155.84009313282141
 20
238.14097056260729
 11
155.70519313282139
 21
238.0008705626073
  0
LINE
  8
_0-0_
  6
CONTINUOUS
 62
    7
 10
155.70519313282139
 20
238.0008705626073
 11
155.60399313282142
 21
237.84497056260727
  0
LINE
  8
_0-0_
  6
CONTINUOUS
 62
    7
 10
155.60399313282142
 20
237.84497056260727
 11
155.53949313282141
 21
237.6778705626073
  0
LINE
  8
_0-0_
  6
CONTINUOUS
 62
    7
 10
155.53949313282141
 20
237.6778705626073
 11
155.5136931328214
 21
237.50467056260729
  0
LINE
  8
_0-0_
  6
CONTINUOUS
 62
    7
 10
155.5136931328214
 20
237.50467056260729
 11
155.5272931328214
 21
237.33067056260728
  0
LINE
  8
_0-0_
  6
CONTINUOUS
 62
    7
 10
155.5272931328214
 20
237.33067056260728
 11
155.53949313282141
 21
237.27787056260729
  0
LINE
  8
_0-0_
  6
CONTINUOUS
 62
    7
 10
168.08689313282139
 20
237.27787056260729
 11
168.11269313282139
 21
237.4510705626073
  0
LINE
  8
_0-0_
  6
CONTINUOUS
 62
    7
 10
168.11269313282139
 20
237.4510705626073
 11
168.09899313282139
 21
237.62507056260728
  0
LINE
  8
_0-0_
  6
CONTINUOUS
 62
    7
 10
168.09899313282139
 20
237.62507056260728
 11
168.0462931328214
 21
237.7945705626073
  0
LINE
  8
_0-0_
  6
CONTINUOUS
 62
    7
 10
168.0462931328214
 20
237.7945705626073
 11
167.95609313282139
 21
237.9544705626073
  0
LINE
  8
_0-0_
  6
CONTINUOUS
 62
    7
 10
167.95609313282139
 20
237.9544705626073
 11
167.83109313282139
 21
238.09987056260729
  0
LINE
  8
_0-0_
  6
CONTINUOUS
 62
    7
 10
167.83109313282139
 20
238.09987056260729
 11
167.67519313282139
 21
238.22637056260731
  0
LINE
  8
_0-0_
  6
CONTINUOUS
 62
    7
 10
167.67519313282139
 20
238.22637056260731
 11
167.4931931328214
 21
238.33017056260729
  0
LINE
  8
_0-0_
  6
CONTINUOUS
 62
    7
 10
167.4931931328214
 20
238.33017056260729
 11
167.29039313282141
 21
238.40797056260729
  0
LINE
  8
_0-0_
  6
CONTINUOUS
 62
    7
 10
167.29039313282141
 20
238.40797056260729
 11
167.07319313282142
 21
238.45757056260729
  0
LINE
  8
_0-0_
  6
CONTINUOUS
 62
    7
 10
167.07319313282142
 20
238.45757056260729
 11
166.84809313282139
 21
238.47747056260729
  0
LINE
  8
_0-0_
  6
CONTINUOUS
 62
    7
 10
166.84809313282139
 20
238.47747056260729
 11
166.62189313282141
 21
238.46697056260729
  0
LINE
  8
_0-0_
  6
CONTINUOUS
 62
    7
 10
166.62189313282141
 20
238.46697056260729
 11
166.4014931328214
 21
238.4263705626073
  0
LINE
  8
_0-0_
  6
CONTINUOUS
 62
    7
 10
166.4014931328214
 20
238.4263705626073
 11
166.19359313282141
 21
238.35697056260727
  0
LINE
  8
_0-0_
  6
CONTINUOUS
 62
    7
 10
166.19359313282141
 20
238.35697056260727
 11
166.00459313282141
 21
238.26087056260729
  0
LINE
  8
_0-0_
  6
CONTINUOUS
 62
    7
 10
166.00459313282141
 20
238.26087056260729
 11
165.84009313282141
 21
238.14097056260729
  0
LINE
  8
_0-0_
  6
CONTINUOUS
 62
    7
 10
165.84009313282141
 20
238.14097056260729
 11
165.70519313282139
 21
238.0008705626073
  0
LINE
  8
_0-0_
  6
CONTINUOUS
 62
    7
 10
165.70519313282139
 20
238.0008705626073
 11
165.60399313282142
 21
237.84497056260727
  0
LINE
  8
_0-0_
  6
CONTINUOUS
 62
    7
 10
165.60399313282142
 20
237.84497056260727
 11
165.53949313282141
 21
237.6778705626073
  0
LINE
  8
_0-0_
  6
CONTINUOUS
 62
    7
 10
165.53949313282141
 20
237.6778705626073
 11
165.5136931328214
 21
237.50467056260729
  0
LINE
  8
_0-0_
  6
CONTINUOUS
 62
    7
 10
165.5136931328214
 20
237.50467056260729
 11
165.5273931328214
 21
237.33067056260728
  0
LINE
  8
_0-0_
  6
CONTINUOUS
 62
    7
 10
165.5273931328214
 20
237.33067056260728
 11
165.53949313282141
 21
237.27787056260729
  0
LINE
  8
_0-0_
  6
CONTINUOUS
 62
    7
 10
178.08689313282139
 20
237.27787056260729
 11
178.11269313282139
 21
237.4510705626073
  0
LINE
  8
_0-0_
  6
CONTINUOUS
 62
    7
 10
178.11269313282139
 20
237.4510705626073
 11
178.09899313282139
 21
237.62507056260728
  0
LINE
  8
_0-0_
  6
CONTINUOUS
 62
    7
 10
178.09899313282139
 20
237.62507056260728
 11
178.0462931328214
 21
237.7945705626073
  0
LINE
  8
_0-0_
  6
CONTINUOUS
 62
    7
 10
178.0462931328214
 20
237.7945705626073
 11
177.95609313282139
 21
237.9544705626073
  0
LINE
  8
_0-0_
  6
CONTINUOUS
 62
    7
 10
177.95609313282139
 20
237.9544705626073
 11
177.83109313282139
 21
238.09987056260729
  0
LINE
  8
_0-0_
  6
CONTINUOUS
 62
    7
 10
177.83109313282139
 20
238.09987056260729
 11
177.67519313282139
 21
238.22637056260731
  0
LINE
  8
_0-0_
  6
CONTINUOUS
 62
    7
 10
177.67519313282139
 20
238.22637056260731
 11
177.4931931328214
 21
238.33017056260729
  0
LINE
  8
_0-0_
  6
CONTINUOUS
 62
    7
 10
177.4931931328214
 20
238.33017056260729
 11
177.29039313282141
 21
238.40797056260729
  0
LINE
  8
_0-0_
  6
CONTINUOUS
 62
    7
 10
177.29039313282141
 20
238.40797056260729
 11
177.07319313282142
 21
238.45757056260729
  0
LINE
  8
_0-0_
  6
CONTINUOUS
 62
    7
 10
177.07319313282142
 20
238.45757056260729
 11
176.84809313282139
 21
238.47747056260729
  0
LINE
  8
_0-0_
  6
CONTINUOUS
 62
    7
 10
176.84809313282139
 20
238.47747056260729
 11
176.62189313282141
 21
238.46697056260729
  0
LINE
  8
_0-0_
  6
CONTINUOUS
 62
    7
 10
176.62189313282141
 20
238.46697056260729
 11
176.4014931328214
 21
238.4263705626073
  0
LINE
  8
_0-0_
  6
CONTINUOUS
 62
    7
 10
176.4014931328214
 20
238.4263705626073
 11
176.19359313282141
 21
238.35697056260727
  0
LINE
  8
_0-0_
  6
CONTINUOUS
 62
    7
 10
176.19359313282141
 20
238.35697056260727
 11
176.00459313282141
 21
238.26087056260729
  0
LINE
  8
_0-0_
  6
CONTINUOUS
 62
    7
 10
176.00459313282141
 20
238.26087056260729
 11
175.84009313282141
 21
238.14097056260729
  0
LINE
  8
_0-0_
  6
CONTINUOUS
 62
    7
 10
175.84009313282141
 20
238.14097056260729
 11
175.70519313282139
 21
238.0008705626073
  0
LINE
  8
_0-0_
  6
CONTINUOUS
 62
    7
 10
175.70519313282139
 20
238.0008705626073
 11
175.60399313282142
 21
237.84497056260727
  0
LINE
  8
_0-0_
  6
CONTINUOUS
 62
    7
 10
175.60399313282142
 20
237.84497056260727
 11
175.53949313282141
 21
237.6778705626073
  0
LINE
  8
_0-0_
  6
CONTINUOUS
 62
    7
 10
175.53949313282141
 20
237.6778705626073
 11
175.5136931328214
 21
237.50467056260729
  0
LINE
  8
_0-0_
  6
CONTINUOUS
 62
    7
 10
175.5136931328214
 20
237.50467056260729
 11
175.5273931328214
 21
237.33067056260728
  0
LINE
  8
_0-0_
  6
CONTINUOUS
 62
    7
 10
175.5273931328214
 20
237.33067056260728
 11
175.53949313282141
 21
237.27787056260729
  0
LINE
  8
_0-0_
  6
CONTINUOUS
 62
    7
 10
188.08689313282139
 20
237.27787056260729
 11
188.11269313282139
 21
237.4510705626073
  0
LINE
  8
_0-0_
  6
CONTINUOUS
 62
    7
 10
188.11269313282139
 20
237.4510705626073
 11
188.09899313282139
 21
237.62507056260728
  0
LINE
  8
_0-0_
  6
CONTINUOUS
 62
    7
 10
188.09899313282139
 20
237.62507056260728
 11
188.0462931328214
 21
237.7945705626073
  0
LINE
  8
_0-0_
  6
CONTINUOUS
 62
    7
 10
188.0462931328214
 20
237.7945705626073
 11
187.95609313282139
 21
237.9544705626073
  0
LINE
  8
_0-0_
  6
CONTINUOUS
 62
    7
 10
187.95609313282139
 20
237.9544705626073
 11
187.83109313282139
 21
238.09987056260729
  0
LINE
  8
_0-0_
  6
CONTINUOUS
 62
    7
 10
187.83109313282139
 20
238.09987056260729
 11
187.67519313282139
 21
238.22637056260731
  0
LINE
  8
_0-0_
  6
CONTINUOUS
 62
    7
 10
187.67519313282139
 20
238.22637056260731
 11
187.4931931328214
 21
238.33017056260729
  0
LINE
  8
_0-0_
  6
CONTINUOUS
 62
    7
 10
187.4931931328214
 20
238.33017056260729
 11
187.29039313282141
 21
238.40797056260729
  0
LINE
  8
_0-0_
  6
CONTINUOUS
 62
    7
 10
187.29039313282141
 20
238.40797056260729
 11
187.07319313282139
 21
238.45757056260729
  0
LINE
  8
_0-0_
  6
CONTINUOUS
 62
    7
 10
187.07319313282139
 20
238.45757056260729
 11
186.84809313282139
 21
238.47747056260729
  0
LINE
  8
_0-0_
  6
CONTINUOUS
 62
    7
 10
186.84809313282139
 20
238.47747056260729
 11
186.62189313282141
 21
238.46697056260729
  0
LINE
  8
_0-0_
  6
CONTINUOUS
 62
    7
 10
186.62189313282141
 20
238.46697056260729
 11
186.4014931328214
 21
238.4263705626073
  0
LINE
  8
_0-0_
  6
CONTINUOUS
 62
    7
 10
186.4014931328214
 20
238.4263705626073
 11
186.19359313282141
 21
238.35697056260727
  0
LINE
  8
_0-0_
  6
CONTINUOUS
 62
    7
 10
186.19359313282141
 20
238.35697056260727
 11
186.00459313282141
 21
238.26087056260729
  0
LINE
  8
_0-0_
  6
CONTINUOUS
 62
    7
 10
186.00459313282141
 20
238.26087056260729
 11
185.84009313282141
 21
238.14097056260729
  0
LINE
  8
_0-0_
  6
CONTINUOUS
 62
    7
 10
185.84009313282141
 20
238.14097056260729
 11
185.70519313282139
 21
238.0008705626073
  0
LINE
  8
_0-0_
  6
CONTINUOUS
 62
    7
 10
185.70519313282139
 20
238.0008705626073
 11
185.60399313282139
 21
237.84497056260727
  0
LINE
  8
_0-0_
  6
CONTINUOUS
 62
    7
 10
185.60399313282139
 20
237.84497056260727
 11
185.53949313282141
 21
237.6778705626073
  0
LINE
  8
_0-0_
  6
CONTINUOUS
 62
    7
 10
185.53949313282141
 20
237.6778705626073
 11
185.5136931328214
 21
237.50467056260729
  0
LINE
  8
_0-0_
  6
CONTINUOUS
 62
    7
 10
185.5136931328214
 20
237.50467056260729
 11
185.5272931328214
 21
237.33067056260728
  0
LINE
  8
_0-0_
  6
CONTINUOUS
 62
    7
 10
185.5272931328214
 20
237.33067056260728
 11
185.53949313282141
 21
237.27787056260729
  0
ARC
  8
_0-0_
  6
CONTINUOUS
 62
    7
 10
369.14719313282137
 20
205.62887056260729
 40
1.151
 50
177.56200000000004
 51
2.4380000000001019
  0
ARC
  8
_0-0_
  6
CONTINUOUS
 62
    7
 10
365.29719313282141
 20
237.3268705626073
 40
1.151
 50
357.56200000000007
 51
182.43800000000007
  0
ARC
  8
_0-0_
  6
CONTINUOUS
 62
    7
 10
355.29719313282141
 20
237.3268705626073
 40
1.151
 50
357.56200000000007
 51
182.43800000000007
  0
ARC
  8
_0-0_
  6
CONTINUOUS
 62
    7
 10
349.14719313282137
 20
205.62887056260729
 40
1.151
 50
177.56200000000004
 51
2.4380000000001019
  0
ARC
  8
_0-0_
  6
CONTINUOUS
 62
    7
 10
345.29719313282141
 20
237.3268705626073
 40
1.151
 50
357.56200000000007
 51
182.43800000000007
  0
ARC
  8
_0-0_
  6
CONTINUOUS
 62
    7
 10
339.14719313282137
 20
205.62887056260729
 40
1.151
 50
177.56200000000004
 51
2.4380000000001019
  0
ARC
  8
_0-0_
  6
CONTINUOUS
 62
    7
 10
335.29719313282141
 20
237.3268705626073
 40
1.151
 50
357.56200000000007
 51
182.43800000000007
  0
ARC
  8
_0-0_
  6
CONTINUOUS
 62
    7
 10
329.14719313282137
 20
205.62887056260729
 40
1.151
 50
177.56200000000004
 51
2.4380000000001019
  0
ARC
  8
_0-0_
  6
CONTINUOUS
 62
    7
 10
325.29719313282141
 20
237.3268705626073
 40
1.151
 50
357.56200000000007
 51
182.43800000000007
  0
ARC
  8
_0-0_
  6
CONTINUOUS
 62
    7
 10
319.14719313282137
 20
205.62887056260729
 40
1.151
 50
177.56200000000004
 51
2.4380000000001019
  0
ARC
  8
_0-0_
  6
CONTINUOUS
 62
    7
 10
315.29719313282141
 20
237.3268705626073
 40
1.151
 50
357.56200000000007
 51
182.43800000000007
  0
ARC
  8
_0-0_
  6
CONTINUOUS
 62
    7
 10
309.14719313282137
 20
205.62887056260729
 40
1.151
 50
177.56200000000004
 51
2.4380000000001019
  0
ARC
  8
_0-0_
  6
CONTINUOUS
 62
    7
 10
305.29719313282141
 20
237.3268705626073
 40
1.151
 50
357.56200000000007
 51
182.43800000000007
  0
ARC
  8
_0-0_
  6
CONTINUOUS
 62
    7
 10
299.14719313282137
 20
205.62887056260729
 40
1.151
 50
177.56200000000004
 51
2.4380000000001019
  0
ARC
  8
_0-0_
  6
CONTINUOUS
 62
    7
 10
295.29719313282141
 20
237.3268705626073
 40
1.151
 50
357.56200000000007
 51
182.43800000000007
  0
ARC
  8
_0-0_
  6
CONTINUOUS
 62
    7
 10
289.14719313282137
 20
205.62887056260729
 40
1.151
 50
177.56200000000004
 51
2.4380000000001019
  0
ARC
  8
_0-0_
  6
CONTINUOUS
 62
    7
 10
285.29719313282141
 20
237.3268705626073
 40
1.151
 50
357.56200000000007
 51
182.43800000000007
  0
ARC
  8
_0-0_
  6
CONTINUOUS
 62
    7
 10
279.14719313282137
 20
205.62887056260729
 40
1.151
 50
177.56200000000004
 51
2.4380000000001019
  0
ARC
  8
_0-0_
  6
CONTINUOUS
 62
    7
 10
275.29719313282141
 20
237.3268705626073
 40
1.151
 50
357.56200000000007
 51
182.43800000000007
  0
ARC
  8
_0-0_
  6
CONTINUOUS
 62
    7
 10
79.297193132821405
 20
186.47787056260728
 40
15
 50
104.83500000000002
 51
176.18600000000004
  0
ARC
  8
_0-0_
  6
CONTINUOUS
 62
    7
 10
100.6471931328214
 20
205.62887056260729
 40
1.151
 50
177.56200000000004
 51
2.4380000000001019
  0
ARC
  8
_0-0_
  6
CONTINUOUS
 62
    7
 10
90.6471931328214
 20
205.62887056260729
 40
1.151
 50
177.56200000000004
 51
2.4380000000001019
  0
ARC
  8
_0-0_
  6
CONTINUOUS
 62
    7
 10
110.6471931328214
 20
205.62887056260729
 40
1.151
 50
177.56200000000004
 51
2.4380000000001019
  0
ARC
  8
_0-0_
  6
CONTINUOUS
 62
    7
 10
120.6471931328214
 20
205.62887056260729
 40
1.151
 50
177.56200000000004
 51
2.4380000000001019
  0
ARC
  8
_0-0_
  6
CONTINUOUS
 62
    7
 10
130.6471931328214
 20
205.62887056260729
 40
1.151
 50
177.56200000000004
 51
2.4380000000001019
  0
ARC
  8
_0-0_
  6
CONTINUOUS
 62
    7
 10
140.6471931328214
 20
205.62887056260729
 40
1.151
 50
177.56200000000004
 51
2.4380000000001019
  0
ARC
  8
_0-0_
  6
CONTINUOUS
 62
    7
 10
150.6471931328214
 20
205.62887056260729
 40
1.151
 50
177.56200000000004
 51
2.4380000000001019
  0
ARC
  8
_0-0_
  6
CONTINUOUS
 62
    7
 10
160.6471931328214
 20
205.62887056260729
 40
1.151
 50
177.56200000000004
 51
2.4380000000001019
  0
ARC
  8
_0-0_
  6
CONTINUOUS
 62
    7
 10
170.6471931328214
 20
205.62887056260729
 40
1.151
 50
177.56200000000004
 51
2.4380000000001019
  0
ARC
  8
_0-0_
  6
CONTINUOUS
 62
    7
 10
180.6471931328214
 20
205.62887056260729
 40
1.151
 50
177.56200000000004
 51
2.4380000000001019
  0
ARC
  8
_0-0_
  6
CONTINUOUS
 62
    7
 10
190.6471931328214
 20
205.62887056260729
 40
1.151
 50
177.56200000000004
 51
2.4380000000001019
  0
ARC
  8
_0-0_
  6
CONTINUOUS
 62
    7
 10
210.6471931328214
 20
205.62887056260729
 40
1.151
 50
177.56200000000004
 51
2.4380000000001019
  0
ARC
  8
_0-0_
  6
CONTINUOUS
 62
    7
 10
200.6471931328214
 20
205.62887056260729
 40
1.151
 50
359.95700000000005
 51
2.4380000000000437
  0
ARC
  8
_0-0_
  6
CONTINUOUS
 62
    7
 10
200.6471931328214
 20
205.62887056260729
 40
1.151
 50
177.56200000000004
 51
2.4380000000001019
  0
ARC
  8
_0-0_
  6
CONTINUOUS
 62
    7
 10
79.372493132821404
 20
256.45777056260727
 40
15
 50
183.51100000000005
 51
254.86700000000008
  0
ARC
  8
_0-0_
  6
CONTINUOUS
 62
    7
 10
63.402493132821405
 20
255.47787056260728
 40
1
 50
3.511000000000001
 51
90.000000000000014
  0
ARC
  8
_0-0_
  6
CONTINUOUS
 62
    7
 10
62.297393132821412
 20
235.04747056260729
 40
10
 50
359.60100000000006
 51
63.258000000000052
  0
CIRCLE
  8
_0-0_
  6
CONTINUOUS
 62
    7
 10
45.297193132821405
 20
276.47787056260734
 40
5
  0
CIRCLE
  8
_0-0_
  6
CONTINUOUS
 62
    7
 10
230.29719313282141
 20
136.47787056260731
 40
5
  0
ARC
  8
_0-0_
  6
CONTINUOUS
 62
    7
 10
61.797193132821405
 20
211.47787056260728
 40
2.5
 50
270.00000000000006
 51
90.000000000000099
  0
ARC
  8
_0-0_
  6
CONTINUOUS
 62
    7
 10
63.297193132821405
 20
187.47787056260728
 40
1
 50
329.85500000000008
 51
0.0000000000000572
  0
ARC
  8
_0-0_
  6
CONTINUOUS
 62
    7
 10
63.297193132821405
 20
187.47787056260728
 40
1
 50
270.00000000000006
 51
0.0000000000000763
  0
ARC
  8
_0-0_
  6
CONTINUOUS
 62
    7
 10
59.511093132821401
 20
198.42467056260728
 40
5
 50
297.20800000000008
 51
297.25800000000004
  0
ARC
  8
_0-0_
  6
CONTINUOUS
 62
    7
 10
59.511093132821401
 20
198.42467056260728
 40
5
 50
297.25800000000004
 51
343.1810000000001
  0
POINT
  8
_0-0_
 62
    7
 10
101.79719313282141
 20
205.6778705626073
  0
POINT
  8
_0-0_
 62
    7
 10
210.66279313282141
 20
204.47787056260728
  0
TEXT
  8
_0-0_
 62
    7
 10
211.79719313282141
 20
70.577870562607302
 40
4
 41
1
 50
0
  1
5
  0
TEXT
  8
_0-0_
 62
    7
 10
200.19719313282138
 20
104.35287056260731
 40
4
 41
1
 50
90.000002504478161
  1
47
  0
TEXT
  8
_0-0_
 62
    7
 10
190.19719313282138
 20
104.35287056260731
 40
4
 41
1
 50
90.000002504478232
  1
52
  0
TEXT
  8
_0-0_
 62
    7
 10
190.42529313282139
 20
98.920870562607291
 40
4
 41
1
 50
90.000002504478161
  1
φ
  0
TEXT
  8
_0-0_
 62
    7
 10
200.2302931328214
 20
99.197070562607308
 40
4
 41
1
 50
90.00000250447826
  1
φ
  0
TEXT
  8
_0-0_
 62
    7
 10
30.197193132821411
 20
219.35287056260728
 40
4
 41
1
 50
90.000002504478459
  1
60
  0
TEXT
  8
_0-0_
 62
    7
 10
24.650093132821411
 20
217.3475705626073
 40
4
 41
1
 50
90
  1
φ
  7
TATEGAKI
  0
TEXT
  8
_0-0_
 62
    7
 10
30.146293132821398
 20
224.33757056260728
 40
4
 41
1
 50
90.000002504478147
  1
(G2")
  0
TEXT
  8
_0-0_
 62
    7
 10
240.55319313282141
 20
216.7251705626073
 40
4
 41
1
 50
90.00000250447826
  1
30
  0
TEXT
  8
_0-0_
 62
    7
 10
255.33539313282139
 20
216.77077056260731
 40
4
 41
1
 50
90.000002504478061
  1
34
  0
TEXT
  8
_0-0_
 62
    7
 10
240.55319313282141
 20
221.5153705626073
 40
4
 41
1
 50
90.000002504478232
  1
±0.5
  0
TEXT
  8
_0-0_
 62
    7
 10
255.0616931328214
 20
221.92597056260729
 40
4
 41
1
 50
90.000002504478232
  1
±0.8
  0
TEXT
  8
_0-0_
 62
    7
 10
240.60929313282139
 20
212.84267056260728
 40
4
 41
1
 50
90.000002504478061
  1
φ
  0
TEXT
  8
_0-0_
 62
    7
 10
194.01649313282138
 20
258.8704705626073
 40
4
 41
1
 50
0
  1
800,1000,1500
  0
LINE
  8
ADD_LINE
  6
DOT
 62
    9
 10
230.29719313282141
 20
136.47787056260731
 11
219.54001329510845
 21
136.47787056260731
  0
TEXT
  8
_0-0_
 62
    7
 10
227.29719313282141
 20
133.47787056260731
 40
6
 41
1
 50
0
  1
２
  0
LINE
  8
ADD_LINE
  6
DOT
 62
    9
 10
45.297193132821405
 20
276.47787056260734
 11
56.58740331415791
 21
276.47787056260734
  0
TEXT
  8
_0-0_
 62
    7
 10
42.297193132821405
 20
273.47787056260734
 40
6
 41
1
 50
0
  1
１
  0
TEXT
  8
_0-0_
 62
    7
 10
301.71669313282143
 20
73.944070562607294
 40
4
 41
1
 50
0
  1
2”カウス
  0
TEXT
  8
_0-0_
 62
    7
 10
346.46079313282144
 20
73.478070562607314
 40
4
 41
1
 50
0
  1
ABS
  0
LINE
  8
_0-0_
  6
CONTINUOUS
 62
    7
 10
280.29719313282141
 20
61.477870562607308
 11
280.29719313282141
 21
91.477870562607308
  0
LINE
  8
_0-0_
  6
CONTINUOUS
 62
    7
 10
290.29719313282141
 20
61.477870562607308
 11
290.29719313282141
 21
91.477870562607308
  0
LINE
  8
_0-0_
  6
CONTINUOUS
 62
    7
 10
365.29719313282141
 20
61.477870562607308
 11
365.29719313282141
 21
91.477870562607308
  0
LINE
  8
_0-0_
  6
CONTINUOUS
 62
    7
 10
335.29719313282141
 20
61.477870562607308
 11
335.29719313282141
 21
91.477870562607308
  0
TEXT
  8
_0-0_
 62
    7
 10
283.4715931328214
 20
74.177170562607301
 40
4
 41
1
 50
0
  1
１
  0
LINE
  8
_e-0_
  6
CONTINUOUS
 62
    7
 10
224.89496194143126
 20
22.559442898127813
 11
227.8097617615079
 21
23.620343271480195
  0
LINE
  8
_e-0_
  6
CONTINUOUS
 62
    7
 10
224.27973506505128
 20
21.803429741566973
 11
229.27166396158927
 21
23.62034327148011
  0
LINE
  8
_e-0_
  6
CONTINUOUS
 62
    7
 10
223.93704267242137
 20
21.146611024902469
 11
226.90280321503627
 21
22.226059584375477
  0
LINE
  8
_e-0_
  6
CONTINUOUS
 62
    7
 10
223.73756461823959
 20
20.541918064553002
 11
225.91223474161566
 21
21.333433258809876
  0
LINE
  8
_e-0_
  6
CONTINUOUS
 62
    7
 10
223.63661405569695
 20
19.973086178417077
 11
225.46211479408728
 21
20.637514109822135
  0
LINE
  8
_e-0_
  6
CONTINUOUS
 62
    7
 10
223.61285980327798
 20
19.432351451361001
 11
225.45384993840651
 21
20.102417062125539
  0
LINE
  8
_e-0_
  6
CONTINUOUS
 62
    7
 10
223.65474388890888
 20
18.915507125582167
 11
225.49923532220544
 21
19.586847104661103
  0
LINE
  8
_e-0_
  6
CONTINUOUS
 62
    7
 10
223.75586960394017
 20
18.420224989534688
 11
225.64332579634933
 21
19.107202862053043
  0
LINE
  8
_e-0_
  6
CONTINUOUS
 62
    7
 10
223.91312442017227
 20
17.945372175600198
 11
225.8826205913096
 21
18.662210158395453
  0
LINE
  8
_e-0_
  6
CONTINUOUS
 62
    7
 10
224.12592193471446
 20
17.490735250581452
 11
226.22635996333284
 21
18.255232171919317
  0
LINE
  8
_e-0_
  6
CONTINUOUS
 62
    7
 10
224.39606980716562
 20
17.056972148766022
 11
226.70438051479627
 21
17.897128537781555
  0
LINE
  8
_e-0_
  6
CONTINUOUS
 62
    7
 10
224.72818768877963
 20
16.645764285703137
 11
227.41105280437515
 21
17.622247330331049
  0
LINE
  8
_e-0_
  6
CONTINUOUS
 62
    7
 10
225.1309258327662
 20
16.26026009607989
 11
228.97288296980466
 21
17.658618135288464
  0
LINE
  8
_e-0_
  6
CONTINUOUS
 62
    7
 10
225.61987939155057
 20
15.906135751178169
 11
228.43481714028755
 21
16.930689303030761
  0
LINE
  8
_e-0_
  6
CONTINUOUS
 62
    7
 10
228.47486213635935
 20
22.798242238249728
 11
230.73356616167064
 21
23.62034327148028
  0
LINE
  8
_e-0_
  6
CONTINUOUS
 62
    7
 10
226.57261434539558
 20
21.573791777902315
 11
231.82148190616897
 21
23.484223333629259
  0
LINE
  8
_e-0_
  6
CONTINUOUS
 62
    7
 10
227.82333079946997
 20
21.496926452454389
 11
231.82148190616897
 21
22.952134447391316
  0
LINE
  8
_e-0_
  6
CONTINUOUS
 62
    7
 10
229.28523299955151
 20
21.496926452454389
 11
231.82148190616897
 21
22.420045561153373
  0
LINE
  8
_e-0_
  6
CONTINUOUS
 62
    7
 10
229.7038835487775
 20
21.117213904693884
 11
231.82148190616897
 21
21.887956674915429
  0
LINE
  8
_e-0_
  6
CONTINUOUS
 62
    7
 10
229.7038835487775
 20
20.58512501845594
 11
231.82148190616897
 21
21.355867788677429
  0
LINE
  8
_e-0_
  6
CONTINUOUS
 62
    7
 10
229.7038835487775
 20
20.053036132217983
 11
231.82148190616897
 21
20.823778902439486
  0
LINE
  8
_e-0_
  6
CONTINUOUS
 62
    7
 10
229.7038835487775
 20
19.520947245980039
 11
231.82148190616897
 21
20.291690016201528
  0
LINE
  8
_e-0_
  6
CONTINUOUS
 62
    7
 10
229.69645367148712
 20
18.98615410556414
 11
231.82148190616897
 21
19.759601129963585
  0
LINE
  8
_e-0_
  6
CONTINUOUS
 62
    7
 10
229.5817680081563
 20
18.412323051576664
 11
231.82148190616897
 21
19.227512243725641
  0
LINE
  8
_e-0_
  6
CONTINUOUS
 62
    7
 10
229.35586854310083
 20
17.798013484121896
 11
231.82148190616897
 21
18.695423357487698
  0
LINE
  8
_e-0_
  6
CONTINUOUS
 62
    7
 10
228.95640753279892
 20
17.120532680384144
 11
231.70245557819439
 21
18.120012430772988
  0
LINE
  8
_e-0_
  6
CONTINUOUS
 62
    7
 10
228.09100360317413
 20
16.273462523145724
 11
231.42024604365912
 21
17.485207674138053
  0
LINE
  8
_e-0_
  6
CONTINUOUS
 62
    7
 10
227.21428092930469
 20
15.422272679913021
 11
230.93340672274078
 21
16.775923766215442
  0
LINE
  8
_e-0_
  6
CONTINUOUS
 62
    7
 10
228.73013306021926
 20
15.441908848876949
 11
229.78881475325437
 21
15.827237472704269
  0
LINE
  8
_e-0_
  6
CONTINUOUS
 62
    3
 10
227.16101564187161
 20
22.364090237445467
 11
227.16101564187161
 21
22.364090237445467
  0
LINE
  8
_e-0_
  6
CONTINUOUS
 62
    3
 10
227.16101564187161
 20
22.364090237445467
 11
226.74881626045513
 21
22.083158082147321
  0
LINE
  8
_e-0_
  6
CONTINUOUS
 62
    3
 10
228.75505313371696
 20
15.422272679912851
 11
227.20840901853964
 21
15.422272679912851
  0
ARC
  8
_e-0_
  6
CONTINUOUS
 62
    3
 10
228.75505313371696
 20
15.922272679912851
 40
0.5
 50
270
 51
286.2039935104566
  0
LINE
  8
_e-0_
  6
CONTINUOUS
 62
    3
 10
231.83925499864876
 20
23.62034327148011
 11
231.83925499864876
 21
18.584824148334121
  0
ARC
  8
_e-0_
  6
CONTINUOUS
 62
    3
 10
227.7085854921871
 20
19.523301071252035
 40
4.25
 50
286.20399351045648
 51
345.50707147989851
  0
ARC
  8
_e-0_
  6
CONTINUOUS
 62
    3
 10
231.33925499864876
 20
18.584824148334121
 40
0.5
 50
345.5070714798988
 51
0
  0
ARC
  8
_e-0_
  6
CONTINUOUS
 62
    3
 10
225.52564278829468
 20
19.65703826405678
 40
4
 50
279.71265316664216
 51
332.69093929010893
  0
ARC
  8
_e-0_
  6
CONTINUOUS
 62
    3
 10
226.1161174900198
 20
16.207206438210392
 40
0.5
 50
241.94526281180003
 51
279.71265316664227
  0
ARC
  8
_e-0_
  6
CONTINUOUS
 62
    3
 10
226.84280014418442
 20
23.12034327148011
 40
0.5
 50
90
 51
106.0533814378627
  0
LINE
  8
_e-0_
  6
CONTINUOUS
 62
    3
 10
229.35971880604481
 20
23.620343271480081
 11
229.35971880604481
 21
23.620343271480081
  0
LINE
  8
_e-0_
  6
CONTINUOUS
 62
    3
 10
229.35971880604481
 20
23.620343271480081
 11
228.33818881004171
 21
23.131545108989258
  0
LINE
  8
_e-0_
  6
CONTINUOUS
 62
    3
 10
228.33818881004171
 20
23.131545108989258
 11
227.74631474828078
 21
22.751926396751223
  0
LINE
  8
_e-0_
  6
CONTINUOUS
 62
    3
 10
227.16101564187161
 20
22.364090237445467
 11
227.74631474828078
 21
22.751926396751244
  0
ARC
  8
_e-0_
  6
CONTINUOUS
 62
    3
 10
226.84280014418442
 20
23.12034327148011
 40
0.5
 50
90
 51
106.0533814378627
  0
ARC
  8
_e-0_
  6
CONTINUOUS
 62
    3
 10
226.84280014418442
 20
23.12034327148011
 40
0.5
 50
90
 51
106.0533814378627
  0
LINE
  8
_e-0_
  6
CONTINUOUS
 62
    3
 10
229.35971880604484
 20
23.62034327148011
 11
226.84280014418442
 21
23.62034327148011
  0
ARC
  8
_e-0_
  6
CONTINUOUS
 62
    3
 10
227.87979824217902
 20
19.516576499787504
 40
4.25
 50
106.0533814378627
 51
241.94526281180052
  0
ARC
  8
_e-0_
  6
CONTINUOUS
 62
    3
 10
226.84280014418442
 20
23.12034327148011
 40
0.5
 50
90
 51
106.0533814378627
  0
LINE
  8
_e-0_
  6
CONTINUOUS
 62
    3
 10
230.43356720910816
 20
23.62034327148011
 11
231.83925499864876
 21
23.62034327148011
  0
ARC
  8
_e-0_
  6
CONTINUOUS
 62
    3
 10
230.43356720910816
 20
23.12034327148011
 40
0.5
 50
90
 51
112.8455272152833
  0
LINE
  8
_e-0_
  6
CONTINUOUS
 62
    3
 10
229.72165664125728
 20
21.496926452454218
 11
227.41810437481934
 21
21.496926452454218
  0
ARC
  8
_e-0_
  6
CONTINUOUS
 62
    3
 10
227.41810437481934
 20
20.996926452454218
 40
0.5
 50
90
 51
110.93110431809542
  0
ARC
  8
_e-0_
  6
CONTINUOUS
 62
    3
 10
225.93929554254836
 20
20.377863869984594
 40
0.05
 50
165.368776721252
 51
224.67319701305797
  0
LINE
  8
_e-0_
  6
CONTINUOUS
 62
    3
 10
225.90373912032888
 20
20.34271076430457
 11
225.88474474191534
 21
20.361923067900648
  0
ARC
  8
_e-0_
  6
CONTINUOUS
 62
    3
 10
228.13259457660138
 20
19.128905105799561
 40
2.5
 50
110.93110431809528
 51
150.17701829297229
  0
ARC
  8
_e-0_
  6
CONTINUOUS
 62
    3
 10
225.9203011641348
 20
20.397076173580672
 40
0.05
 50
224.67319701305652
 51
330.17701829297562
  0
LINE
  8
_e-0_
  6
CONTINUOUS
 62
    3
 10
230.2394432209482
 20
23.581120741872141
 11
228.8687083260981
 21
23.003634771753198
  0
LINE
  8
_e-0_
  6
CONTINUOUS
 62
    3
 10
228.8687083260981
 20
23.003634771753198
 11
228.22782175306693
 21
22.653614209573234
  0
ARC
  8
_e-0_
  6
CONTINUOUS
 62
    3
 10
228.30984611408007
 20
19.759002021256947
 40
2.5
 50
126.05682261028305
 51
165.36877672125814
  0
ARC
  8
_e-0_
  6
CONTINUOUS
 62
    3
 10
232.7192481497305
 20
13.719013551269938
 40
10
 50
116.68868989749241
 51
126.03335467187628
  0
LINE
  8
_e-0_
  6
CONTINUOUS
 62
    3
 10
226.74881626045513
 20
22.083158082147328
 11
226.74881626045513
 21
22.083158082147328
  0
LINE
  8
_e-0_
  6
CONTINUOUS
 62
    3
 10
226.74881626045513
 20
22.083158082147328
 11
225.9519730586365
 21
21.357663311702638
  0
LINE
  8
_e-0_
  6
CONTINUOUS
 62
    3
 10
225.9519730586365
 20
21.357663311702638
 11
225.76745851498802
 21
21.144341182042698
  0
ARC
  8
_e-0_
  6
CONTINUOUS
 62
    3
 10
227.97130721195708
 20
20.06268049326809
 40
2.5
 50
169.07329675873063
 51
296.321383266618
  0
LINE
  8
_e-0_
  6
CONTINUOUS
 62
    3
 10
225.76745851498802
 20
21.144341182042712
 11
225.76745851498802
 21
21.144341182042712
  0
LINE
  8
_e-0_
  6
CONTINUOUS
 62
    3
 10
225.76745851498802
 20
21.144341182042712
 11
225.51663102113392
 21
20.536563177279575
  0
LINE
  8
_e-0_
  6
CONTINUOUS
 62
    3
 10
229.72165664125728
 20
21.496926452454218
 11
229.72165664125728
 21
19.049903303598853
  0
ARC
  8
_e-0_
  6
CONTINUOUS
 62
    3
 10
228.2447781668277
 20
17.020568401074399
 40
0.5
 50
311.4163090429962
 51
326.13300916724882
  0
ARC
  8
_e-0_
  6
CONTINUOUS
 62
    3
 10
225.7449630233759
 20
19.481073652187035
 40
4
 50
316.78132524618343
 51
353.81191653224226
  0
ARC
  8
_e-0_
  6
CONTINUOUS
 62
    3
 10
224.60638871422316
 20
21.145143796333414
 40
6
 50
294.69555798319504
 51
311.41630904299643
  0
ARC
  8
_e-0_
  6
CONTINUOUS
 62
    3
 10
227.70905044770961
 20
22.905544568558824
 40
7.5
 50
264.68313230529077
 51
266.17253517307824
  0
ARC
  8
_e-0_
  6
CONTINUOUS
 62
    3
 10
227.0187057216842
 20
15.487598480911061
 40
0.05
 50
174.02086603460467
 51
264.68313230528986
  0
ARC
  8
_e-0_
  6
CONTINUOUS
 62
    3
 10
227.2176177010237
 20
15.466765226839073
 40
0.25
 50
114.69555798319523
 51
174.02086603461154
  0
LINE
  8
_e-0_
  6
CONTINUOUS
 62
    7
 10
238.20536810548208
 20
19.550509441829263
 11
239.34255801200223
 21
19.964412718510573
  0
LINE
  8
_e-0_
  6
CONTINUOUS
 62
    3
 10
244.14222125916532
 20
18.870789910286589
 11
244.14222125916532
 21
16.256496040596744
  0
CIRCLE
  8
_e-0_
  6
CONTINUOUS
 62
    3
 10
237.06804321962647
 20
18.853770866897719
 40
1.3337737955830651
  0
CIRCLE
  8
_e-0_
  6
CONTINUOUS
 62
    3
 10
237.03967147488896
 20
18.825399122160206
 40
2.5691707563897666
  0
LINE
  8
_e-0_
  6
CONTINUOUS
 62
    3
 10
240.4657650870484
 20
21.433727799882192
 11
240.4657650870484
 21
16.256496040596744
  0
LINE
  8
_e-0_
  6
CONTINUOUS
 62
    3
 10
240.4657650870484
 20
16.256496040596744
 11
242.00206198988951
 21
16.256496040596744
  0
LINE
  8
_e-0_
  6
CONTINUOUS
 62
    3
 10
242.00206198988951
 20
16.256496040596744
 11
242.00206198988951
 21
19.870789910286589
  0
LINE
  8
_e-0_
  6
CONTINUOUS
 62
    3
 10
245.63411651741569
 20
16.256496040596744
 11
244.14222125916532
 21
16.256496040596744
  0
LINE
  8
_e-0_
  6
CONTINUOUS
 62
    3
 10
243.14222125916532
 20
19.870789910286589
 11
242.00206198988951
 21
19.870789910286589
  0
ARC
  8
_e-0_
  6
CONTINUOUS
 62
    3
 10
243.14222125916532
 20
18.870789910286589
 40
1
 50
0
 51
90
  0
LINE
  8
_e-0_
  6
CONTINUOUS
 62
    3
 10
243.13411651741566
 20
21.433727799882192
 11
240.4657650870484
 21
21.433727799882192
  0
LINE
  8
_e-0_
  6
CONTINUOUS
 62
    3
 10
245.63411651741569
 20
18.933727799882206
 11
245.63411651741569
 21
16.256496040596744
  0
ARC
  8
_e-0_
  6
CONTINUOUS
 62
    3
 10
243.13411651741566
 20
18.933727799882206
 40
2.5
 50
0
 51
90
  0
ARC
  8
_e-0_
  6
CONTINUOUS
 62
    3
 10
249.14089497627498
 20
18.825131180173628
 40
1.3337737955830651
 50
23.422555400004953
 51
97.191484740792632
  0
LINE
  8
_e-0_
  6
CONTINUOUS
 62
    3
 10
247.91702652762893
 20
19.355318466132871
 11
250.36476342492097
 21
19.355318466132871
  0
ARC
  8
_e-0_
  6
CONTINUOUS
 62
    3
 10
249.14089497627498
 20
18.825131180173628
 40
1.3337737955830651
 50
92.530763017635266
 51
156.57744459999506
  0
ARC
  8
_e-0_
  6
CONTINUOUS
 62
    3
 10
249.14089497627498
 20
18.825131180173628
 40
1.3337737955830651
 50
204.21097500392608
 51
316.0067678116265
  0
LINE
  8
_e-0_
  6
CONTINUOUS
 62
    3
 10
247.92443781812131
 20
18.278153557083954
 11
251.66837645014647
 21
18.278153557083954
  0
LINE
  8
_e-0_
  6
CONTINUOUS
 62
    3
 10
250.1004409861489
 20
17.898727384456492
 11
251.3872930355115
 21
17.586420890431725
  0
ARC
  8
_e-0_
  6
CONTINUOUS
 62
    3
 10
249.17292759130117
 20
18.88919641022602
 40
2.5691707563897666
 50
346.24110979921471
 51
329.53046432565105
  0
ARC
  8
_e-0_
  6
CONTINUOUS
 62
    3
 10
255.16772481875665
 20
18.821787263121109
 40
1.1089756641867943
 50
94.502189492040685
 51
357.22978420280037
  0
LINE
  8
_e-0_
  6
CONTINUOUS
 62
    3
 10
256.17540452963732
 20
19.927340999672765
 11
255.08067334343764
 21
19.927340999672765
  0
LINE
  8
_e-0_
  6
CONTINUOUS
 62
    3
 10
256.27540452963729
 20
19.827340999672799
 11
256.27540452963729
 21
18.768189857755942
  0
ARC
  8
_e-0_
  6
CONTINUOUS
 62
    3
 10
256.17540452963732
 20
19.827340999672799
 40
0.1
 50
0
 51
90
  0
LINE
  8
_e-0_
  6
CONTINUOUS
 62
    3
 10
255.41340348807779
 20
21.436536160503309
 11
256.25567666910433
 21
21.436536160503309
  0
ARC
  8
_e-0_
  6
CONTINUOUS
 62
    3
 10
255.21299748064303
 20
18.875193581371718
 40
2.5691707563897666
 50
85.52614601413697
 51
347.40557840019875
  0
LINE
  8
_e-0_
  6
CONTINUOUS
 62
    3
 10
256.25567666910433
 20
23.520343271480115
 11
256.25567666910433
 21
21.436536160503309
  0
ARC
  8
_e-0_
  6
CONTINUOUS
 62
    3
 10
256.35567666910435
 20
23.520343271480115
 40
0.1
 50
90
 51
180
  0
LINE
  8
_e-0_
  6
CONTINUOUS
 62
    3
 10
257.72034884015875
 20
23.520343271480115
 11
257.72034884015875
 21
18.314990461581317
  0
LINE
  8
_e-0_
  6
CONTINUOUS
 62
    3
 10
257.62034884015878
 20
23.62034327148011
 11
256.35567666910435
 21
23.62034327148011
  0
ARC
  8
_e-0_
  6
CONTINUOUS
 62
    3
 10
257.62034884015878
 20
23.520343271480115
 40
0.1
 50
0
 51
90
  0
CIRCLE
  8
_e-0_
  6
CONTINUOUS
 62
    3
 10
261.26569737248099
 20
18.869336188909813
 40
1.3337737955830651
  0
CIRCLE
  8
_e-0_
  6
CONTINUOUS
 62
    3
 10
261.23732562774347
 20
18.8409644441723
 40
2.5691707563897666
  0
ARC
  8
_e-0_
  6
CONTINUOUS
 62
    3
 10
236.64693337240948
 20
20.963586378279629
 40
0.5
 50
90
 51
106.0533814378627
  0
ARC
  8
_e-0_
  6
CONTINUOUS
 62
    3
 10
236.64693337240948
 20
20.963586378279629
 40
0.5
 50
90
 51
106.0533814378627
  0
ARC
  8
_e-0_
  6
CONTINUOUS
 62
    3
 10
236.64693337240948
 20
20.963586378279629
 40
0.5
 50
90
 51
106.0533814378627
  0
ARC
  8
_e-0_
  6
CONTINUOUS
 62
    3
 10
236.64693337240948
 20
20.963586378279629
 40
0.5
 50
90
 51
106.0533814378627
  0
LINE
  8
_e-0_
  6
CONTINUOUS
 62
    7
 10
235.15107695783277
 20
20.567193922253992
 11
237.36681469386815
 21
21.373656505111242
  0
LINE
  8
_e-0_
  6
CONTINUOUS
 62
    7
 10
236.64051954528406
 20
20.577217803496708
 11
238.16842737065565
 21
21.13333077263438
  0
LINE
  8
_e-0_
  6
CONTINUOUS
 62
    7
 10
234.69148442437094
 20
19.867827033944934
 11
236.64051954528406
 21
20.577217803496708
  0
LINE
  8
_e-0_
  6
CONTINUOUS
 62
    7
 10
234.50915297888352
 20
19.269374928778802
 11
236.23993560685426
 21
19.899328287345213
  0
LINE
  8
_e-0_
  6
CONTINUOUS
 62
    7
 10
234.47250458004532
 20
18.723947116230249
 11
235.77994159004078
 21
19.199815271046589
  0
LINE
  8
_e-0_
  6
CONTINUOUS
 62
    7
 10
234.54341421300137
 20
18.217667225711011
 11
235.74894688763922
 21
18.6564452357145
  0
LINE
  8
_e-0_
  6
CONTINUOUS
 62
    7
 10
234.70841714951203
 20
17.745634496929483
 11
235.91431462987958
 21
18.184545285359832
  0
LINE
  8
_e-0_
  6
CONTINUOUS
 62
    7
 10
234.96678181193332
 20
17.307582657399109
 11
236.27286328163976
 21
17.782957435898879
  0
LINE
  8
_e-0_
  6
CONTINUOUS
 62
    7
 10
235.32998539126271
 20
16.907689063015994
 11
237.01516846109061
 21
17.52104553972265
  0
LINE
  8
_e-0_
  6
CONTINUOUS
 62
    7
 10
235.83138183506327
 20
16.558093557888355
 11
238.04171645401385
 21
17.362589566954512
  0
LINE
  8
_e-0_
  6
CONTINUOUS
 62
    7
 10
236.57854471253526
 20
16.297949719198868
 11
238.04707921602099
 21
16.832452566460574
  0
LINE
  8
_e-0_
  6
CONTINUOUS
 62
    7
 10
238.04707921602099
 20
16.832452566460574
 11
239.01752822909665
 21
17.185667121093161
  0
LINE
  8
_e-0_
  6
CONTINUOUS
 62
    7
 10
237.95638429650606
 20
17.331531201595965
 11
239.42267096324301
 21
17.865215903189608
  0
LINE
  8
_e-0_
  6
CONTINUOUS
 62
    7
 10
237.9652069620077
 20
17.866831275463369
 11
239.5820472637179
 21
18.455313018847846
  0
LINE
  8
_e-0_
  6
CONTINUOUS
 62
    7
 10
238.36549199813288
 20
18.544612000073073
 11
239.60323069972162
 21
18.995112045250664
  0
LINE
  8
_e-0_
  6
CONTINUOUS
 62
    7
 10
238.38202050656739
 20
19.082716771397997
 11
239.51957521881721
 21
19.496752826506167
  0
LINE
  8
_e-0_
  6
CONTINUOUS
 62
    7
 10
237.03033909961567
 20
20.187011631770361
 11
238.69277895946874
 21
20.792090257014578
  0
LINE
  8
_e-0_
  6
CONTINUOUS
 62
    7
 10
237.83235325975483
 20
19.946832027283108
 11
239.07144750163258
 21
20.397825448777212
  0
LINE
  8
_e-0_
  6
CONTINUOUS
 62
    7
 10
240.4657650870484
 20
20.905315546982493
 11
241.91756582005348
 21
21.433727799882192
  0
LINE
  8
_e-0_
  6
CONTINUOUS
 62
    7
 10
240.4657650870484
 20
20.373226660744535
 11
243.35307334324386
 21
21.424120923150738
  0
LINE
  8
_e-0_
  6
CONTINUOUS
 62
    7
 10
240.4657650870484
 20
19.841137774506592
 11
244.19379989432932
 21
21.198031476665179
  0
LINE
  8
_e-0_
  6
CONTINUOUS
 62
    7
 10
240.4657650870484
 20
19.309048888268649
 11
244.72746923533319
 21
20.860182345493072
  0
LINE
  8
_e-0_
  6
CONTINUOUS
 62
    7
 10
240.4657650870484
 20
18.776960002030705
 11
242.00206198988951
 21
19.336126345660205
  0
LINE
  8
_e-0_
  6
CONTINUOUS
 62
    7
 10
243.38726974238503
 20
19.840300735843357
 11
245.10880977654847
 21
20.46689006537639
  0
LINE
  8
_e-0_
  6
CONTINUOUS
 62
    7
 10
240.4657650870484
 20
18.244871115792762
 11
242.00206198988951
 21
18.804037459422261
  0
LINE
  8
_e-0_
  6
CONTINUOUS
 62
    7
 10
240.8503582668672
 20
16.256496040596744
 11
242.00206198988951
 21
16.675681914470431
  0
LINE
  8
_e-0_
  6
CONTINUOUS
 62
    7
 10
240.4657650870484
 20
16.648604457078875
 11
242.00206198988951
 21
17.207770800708431
  0
LINE
  8
_e-0_
  6
CONTINUOUS
 62
    7
 10
240.4657650870484
 20
17.180693343316875
 11
242.00206198988951
 21
17.739859686946374
  0
LINE
  8
_e-0_
  6
CONTINUOUS
 62
    7
 10
240.4657650870484
 20
17.712782229554819
 11
242.00206198988951
 21
18.271948573184318
  0
LINE
  8
_e-0_
  6
CONTINUOUS
 62
    7
 10
244.14222125916532
 20
18.518813957551629
 11
245.63411651741569
 21
19.061819424197608
  0
LINE
  8
_e-0_
  6
CONTINUOUS
 62
    7
 10
244.14222125916532
 20
17.986725071313685
 11
245.63411651741569
 21
18.529730537959665
  0
LINE
  8
_e-0_
  6
CONTINUOUS
 62
    7
 10
244.12687367106173
 20
19.045316778552092
 11
245.5532407082851
 21
19.564471923239864
  0
LINE
  8
_e-0_
  6
CONTINUOUS
 62
    7
 10
244.14222125916532
 20
17.454636185075742
 11
245.63411651741569
 21
17.997641651721722
  0
LINE
  8
_e-0_
  6
CONTINUOUS
 62
    7
 10
244.14222125916532
 20
16.922547298837799
 11
245.63411651741569
 21
17.465552765483778
  0
LINE
  8
_e-0_
  6
CONTINUOUS
 62
    7
 10
244.14222125916532
 20
16.390458412599799
 11
245.63411651741569
 21
16.933463879245835
  0
LINE
  8
_e-0_
  6
CONTINUOUS
 62
    7
 10
245.23606486711193
 20
16.256496040596744
 11
245.63411651741569
 21
16.401374993007835
  0
LINE
  8
_e-0_
  6
CONTINUOUS
 62
    7
 10
243.91825915508417
 20
19.501476190538369
 11
245.37933753883709
 21
20.033265232154179
  0
LINE
  8
_e-0_
  6
CONTINUOUS
 62
    7
 10
247.43520734015601
 20
20.781540645361005
 11
249.28772310577978
 21
21.455801242556859
  0
LINE
  8
_e-0_
  6
CONTINUOUS
 62
    7
 10
246.87953280390087
 20
20.047202767986505
 11
250.18541778536053
 21
21.250446499145468
  0
LINE
  8
_e-0_
  6
CONTINUOUS
 62
    7
 10
246.6626588231818
 20
19.436178208179967
 11
250.74431190940527
 21
20.921778438166072
  0
LINE
  8
_e-0_
  6
CONTINUOUS
 62
    7
 10
246.66629311322896
 20
18.905412095341887
 11
247.91531563172288
 21
19.360019114001886
  0
LINE
  8
_e-0_
  6
CONTINUOUS
 62
    7
 10
249.73145207762803
 20
20.021038721677314
 11
251.14522571029147
 21
20.53561024195723
  0
LINE
  8
_e-0_
  6
CONTINUOUS
 62
    7
 10
250.18564170047512
 20
19.654261338868309
 11
251.43421810211515
 21
20.10870598427249
  0
LINE
  8
_e-0_
  6
CONTINUOUS
 62
    7
 10
246.83730318489177
 20
18.435565784948949
 11
249.36430290792754
 21
19.355318466132871
  0
LINE
  8
_e-0_
  6
CONTINUOUS
 62
    7
 10
246.8052568604852
 20
17.891812990509379
 11
251.62777430207888
 21
19.647065793478987
  0
LINE
  8
_e-0_
  6
CONTINUOUS
 62
    7
 10
247.04639808766586
 20
17.4474923332196
 11
248.20920322083208
 21
17.870718789944021
  0
LINE
  8
_e-0_
  6
CONTINUOUS
 62
    7
 10
249.32862104344986
 20
18.278153557083954
 11
251.72865321822383
 21
19.151693829982833
  0
LINE
  8
_e-0_
  6
CONTINUOUS
 62
    7
 10
250.79052324353142
 20
18.278153557083954
 11
251.72788512579223
 21
18.619325380962607
  0
LINE
  8
_e-0_
  6
CONTINUOUS
 62
    7
 10
247.38918632342313
 20
17.040168161453892
 11
248.77187032427668
 21
17.543423981160686
  0
LINE
  8
_e-0_
  6
CONTINUOUS
 62
    7
 10
247.86145472216555
 20
16.679970914942771
 11
250.7661050600471
 21
17.73717717888286
  0
LINE
  8
_e-0_
  6
CONTINUOUS
 62
    7
 10
248.54706387050533
 20
16.397423351041084
 11
251.25404786536131
 21
17.382684949803661
  0
LINE
  8
_e-0_
  6
CONTINUOUS
 62
    7
 10
255.77868582373981
 20
16.369074056294608
 11
256.39055764798957
 21
16.59177718750766
  0
LINE
  8
_e-0_
  6
CONTINUOUS
 62
    7
 10
254.45649567467092
 20
16.419925084231465
 11
257.37072765373284
 21
17.480618780356679
  0
LINE
  8
_e-0_
  6
CONTINUOUS
 62
    7
 10
253.81613692356996
 20
16.718942445816822
 11
257.66906626150819
 21
18.121294039557256
  0
LINE
  8
_e-0_
  6
CONTINUOUS
 62
    7
 10
252.72455535000012
 20
19.514172562191675
 11
257.72034884015875
 21
21.332492689150214
  0
LINE
  8
_e-0_
  6
CONTINUOUS
 62
    7
 10
252.97533721247868
 20
20.137538581665638
 11
257.72034884015875
 21
21.864581575388158
  0
LINE
  8
_e-0_
  6
CONTINUOUS
 62
    7
 10
256.25567666910433
 20
23.459840047118135
 11
256.69665565378858
 21
23.62034327148011
  0
LINE
  8
_e-0_
  6
CONTINUOUS
 62
    7
 10
256.25567666910433
 20
22.927751160880192
 11
257.72034884015875
 21
23.460848234102016
  0
LINE
  8
_e-0_
  6
CONTINUOUS
 62
    7
 10
256.25567666910433
 20
22.39566227464222
 11
257.72034884015875
 21
22.928759347864073
  0
LINE
  8
_e-0_
  6
CONTINUOUS
 62
    7
 10
256.25567666910433
 20
21.863573388404248
 11
257.72034884015875
 21
22.39667046162613
  0
LINE
  8
_e-0_
  6
CONTINUOUS
 62
    7
 10
253.65237211254828
 20
20.916048019088308
 11
255.09666992592457
 21
21.441729432573041
  0
LINE
  8
_e-0_
  6
CONTINUOUS
 62
    7
 10
255.3216285024925
 20
19.927340999672765
 11
257.72034884015875
 21
20.800403802912271
  0
LINE
  8
_e-0_
  6
CONTINUOUS
 62
    7
 10
252.64500914358598
 20
18.953131224570143
 11
254.35388975869347
 21
19.575112902383808
  0
LINE
  8
_e-0_
  6
CONTINUOUS
 62
    7
 10
252.68190999188596
 20
18.434473148732593
 11
254.06483582777616
 21
18.937816989194289
  0
LINE
  8
_e-0_
  6
CONTINUOUS
 62
    7
 10
252.81577006061787
 20
17.951105343069855
 11
254.13041409438028
 21
18.429596640015006
  0
LINE
  8
_e-0_
  6
CONTINUOUS
 62
    7
 10
253.04200327240306
 20
17.501358611924161
 11
254.4199177521366
 21
18.002878467911557
  0
LINE
  8
_e-0_
  6
CONTINUOUS
 62
    7
 10
253.3675420378006
 20
17.087756146390689
 11
255.09198262184347
 21
17.71540118974292
  0
LINE
  8
_e-0_
  6
CONTINUOUS
 62
    7
 10
255.93691796730889
 20
18.022932505371728
 11
257.72034884015875
 21
18.672048257960455
  0
LINE
  8
_e-0_
  6
CONTINUOUS
 62
    7
 10
256.26696269369012
 20
18.675147847988967
 11
257.72034884015875
 21
19.204137144198398
  0
LINE
  8
_e-0_
  6
CONTINUOUS
 62
    7
 10
256.27540452963729
 20
19.210309311234255
 11
257.72034884015875
 21
19.736226030436342
  0
LINE
  8
_e-0_
  6
CONTINUOUS
 62
    7
 10
256.27540452963729
 20
19.742398197472198
 11
257.72034884015875
 21
20.268314916674285
  0
LINE
  8
_e-0_
  6
CONTINUOUS
 62
    7
 10
260.03104519640863
 20
21.109339610776615
 11
260.70330659779682
 21
21.354022750527989
  0
LINE
  8
_e-0_
  6
CONTINUOUS
 62
    7
 10
259.07573351886549
 20
20.229545709466038
 11
262.00063841866569
 21
21.294124031052618
  0
LINE
  8
_e-0_
  6
CONTINUOUS
 62
    7
 10
261.36818066425872
 20
16.275128257876133
 11
262.78637256320337
 21
16.791307895569389
  0
LINE
  8
_e-0_
  6
CONTINUOUS
 62
    7
 10
260.34081652935424
 20
16.433287179256183
 11
263.47171655478212
 21
17.572841594975216
  0
LINE
  8
_e-0_
  6
CONTINUOUS
 62
    7
 10
258.77967812713791
 20
19.589701472945251
 11
262.63871395371888
 21
20.994275646787528
  0
LINE
  8
_e-0_
  6
CONTINUOUS
 62
    7
 10
259.74605077257667
 20
16.748899033666305
 11
263.72446216823408
 21
18.196922361351028
  0
LINE
  8
_e-0_
  6
CONTINUOUS
 62
    7
 10
259.32332387365102
 20
17.127127911471632
 11
260.74098010855022
 21
17.643112583396885
  0
LINE
  8
_e-0_
  6
CONTINUOUS
 62
    7
 10
259.01731185271791
 20
17.547837530762308
 11
260.25546226568082
 21
17.998487426625218
  0
LINE
  8
_e-0_
  6
CONTINUOUS
 62
    7
 10
258.80835191289191
 20
18.003871218749566
 11
260.0033207151597
 21
18.438804293651742
  0
LINE
  8
_e-0_
  6
CONTINUOUS
 62
    7
 10
258.69175640144169
 20
18.493522809370575
 11
259.9341116154028
 21
18.945703127637842
  0
LINE
  8
_e-0_
  6
CONTINUOUS
 62
    7
 10
258.67435016112364
 20
19.019276342242279
 11
260.11490282603074
 21
19.54359463316132
  0
LINE
  8
_e-0_
  6
CONTINUOUS
 62
    7
 10
261.71385216626942
 20
20.125564599107747
 11
263.08606206305882
 21
20.625008156704567
  0
LINE
  8
_e-0_
  6
CONTINUOUS
 62
    7
 10
262.23666352022298
 20
19.783763483845291
 11
263.41067596606644
 21
20.21106906879038
  0
LINE
  8
_e-0_
  6
CONTINUOUS
 62
    7
 10
262.50947456379174
 20
19.350969697045457
 11
263.63610059794183
 21
19.761028038625454
  0
LINE
  8
_e-0_
  6
CONTINUOUS
 62
    7
 10
262.59935315659629
 20
18.851593943286105
 11
263.7691608014415
 21
19.277369105826779
  0
LINE
  8
_e-0_
  6
CONTINUOUS
 62
    7
 10
262.45585545705251
 20
18.26727616572856
 11
263.80516892383406
 21
18.758386104331578
  0
LINE
  8
ADD_LINE
  6
DOT
 62
    9
 10
234.47250458004532
 20
14.6074774177672
 11
234.47250458004532
 21
24.607477417767214
  0
LINE
  8
ADD_LINE
  6
DOT
 62
    9
 10
249.13883675193972
 20
24.607477417767214
 11
249.13883675193972
 21
14.6074774177672
  0
LINE
  8
ADD_LINE
  6
DOT
 62
    9
 10
263.80516892383406
 20
14.6074774177672
 11
263.80516892383406
 21
24.607477417767214
  0
LINE
  8
ADD_LINE
  6
DOT
 62
    9
 10
222.51636891452262
 20
24.607477417767214
 11
222.51636891452262
 21
14.6074774177672
  0
LINE
  8
ADD_LINE
  6
DOT
 62
    9
 10
271.51636891452262
 20
24.607477417767214
 11
271.51636891452262
 21
14.6074774177672
  0
TEXT
  8
_e-0_
 62
    7
 10
264.80223717202438
 20
20.663724475216767
 40
3.5
 41
0.5714285714285714
 50
0
  1
ワンド
  0
TEXT
  8
_e-0_
 62
    7
 10
265.48681991601302
 20
17.30926902967218
 40
3
 41
0.6666666666666666
 50
0
  1
株式
  0
TEXT
  8
_e-0_
 62
    7
 10
265.41836164161418
 20
14.502479779318605
 40
3
 41
0.6666666666666666
 50
0
  1
会社
  0
TEXT
  8
_f-1_
 62
    7
 10
172.71566523605151
 20
16.252145922746791
 40
4.5
 41
0.6666666666666666
 50
0
  1
排水ホース
  0
TEXT
  8
_0-0_
 62
    7
 10
291.22979313282138
 20
63.964870562607302
 40
4
 41
1
 50
0
  1
2吋カウス用パッキン
  0
TEXT
  8
_0-0_
 62
    7
 10
347.15989313282137
 20
64.19797056260731
 40
4
 41
1
 50
0
  1
NR
  0
LINE
  8
_0-0_
  6
CONTINUOUS
 62
    7
 10
280.29719313282141
 20
61.477870562607308
 11
365.29719313282141
 21
61.477870562607308
  0
LINE
  8
_0-0_
  6
CONTINUOUS
 62
    7
 10
280.29719313282141
 20
71.477870562607308
 11
365.29719313282141
 21
71.477870562607308
  0
TEXT
  8
_0-0_
 62
    7
 10
283.10909313282139
 20
64.266970562607298
 40
4
 41
1
 50
0
  1
２
  0
LINE
  8
_0-0_
  6
CONTINUOUS
 62
    7
 10
280.29719313282141
 20
71.477870562607308
 11
365.29719313282141
 21
71.477870562607308
  0
LINE
  8
_e-0_
  6
CONTINUOUS
 62
    7
 10
280.29719313282141
 20
81.477870562607308
 11
365.29719313282141
 21
81.477870562607308
  0
TEXT
  8
_0-0_
 62
    7
 10
344.59639313282139
 20
84.114770562607305
 40
4
 41
1
 50
0
  1
材　質
  0
TEXT
  8
_0-0_
 62
    7
 10
305.44539313282144
 20
83.881670562607297
 40
4
 41
1
 50
0
  1
品　名
  0
TEXT
  8
_0-0_
 62
    7
 10
281.20899313282143
 20
83.415570562607314
 40
4
 41
1
 50
0
  1
品番
  0
LINE
  8
_0-0_
  6
CONTINUOUS
 62
    7
 10
280.29719313282141
 20
91.477870562607308
 11
365.29719313282141
 21
91.477870562607308
  0
LINE
  8
_0-0_
  6
CONTINUOUS
 62
    7
 10
280.29719313282141
 20
91.477870562607308
 11
365.29719313282141
 21
91.477870562607308
  0
TEXT
  8
_f-1_
 62
    7
 10
304.93890205959127
 20
16.857477417767257
 40
3.5
 41
0.5714285714285714
 50
0
  1
２０２３．０５．０１
  0
TEXT
  8
_f-1_
 62
    7
 10
357.72095497071984
 20
16.857477417767257
 40
3.5
 41
0.5714285714285714
 50
0
  1
Ｔ．Ｋ
  0
ENDSEC
  0
EOF
