  0
SECTION
  2
HEADER
  9
$ACADVER
  1
AC1009
  9
$INSBASE
 10
0
 20
0
 30
0
  9
$EXTMIN
 10
0
 20
0
  9
$EXTMAX
 10
420
 20
297
  9
$LIMMIN
 10
0
 20
0
  9
$LIMMAX
 10
420
 20
297
  9
$LTSCALE
 40
1
  0
ENDSEC
  0
SECTION
  2
TABLES
  0
TABLE
  2
LTYPE
 70
     9
  0
LTYPE
  2
CONTINUOUS
 70
    64
  3
実線
 72
    65
 73
     0
 40
0.0
  0
LTYPE
  2
DASHED1
 70
    64
  3
--  --  --  --  --  --  --  --  
 72
    65
 73
     2
 40
2.5
 49
1.25
 49
-1.25
  0
LTYPE
  2
DASHED2
 70
    64
  3
----    ----    ----    ----    
 72
    65
 73
     2
 40
5.0
 49
2.5
 49
-2.5
  0
LTYPE
  2
DASHED3
 70
    64
  3
------  ------  ------  ------  
 72
    65
 73
     2
 40
5.0
 49
3.75
 49
-1.25
  0
LTYPE
  2
CENTER1
 70
    64
  3
----- - ----- - ----- - ----- - 
 72
    65
 73
     4
 40
10.0
 49
6.25
 49
-1.25
 49
1.25
 49
-1.25
  0
LTYPE
  2
CENTER2
 70
    64
  3
----------  --  ----------  --  
 72
    65
 73
     4
 40
20.0
 49
12.5
 49
-2.5
 49
2.5
 49
-2.5
  0
LTYPE
  2
PHANTOM1
 70
    64
  3
--- - - --- - - --- - - --- - - 
 72
    65
 73
     6
 40
10.0
 49
3.25
 49
-1.25
 49
1.25
 49
-1.25
 49
1.25
 49
-1.25
  0
LTYPE
  2
PHANTOM2
 70
    64
  3
--------  -  -  --------  -  -  
 72
    65
 73
     6
 40
20.0
 49
10.0
 49
-2.5
 49
1.25
 49
-2.5
 49
1.25
 49
-2.5
  0
LTYPE
  2
DOT
 70
    64
  3
-   -   -   -   -   -   -   -   
 72
    65
 73
     2
 40
2.5
 49
0.625
 49
-1.875
  0
LTYPE
  2
DUMMY
 70
    64
  3
ダミー
 72
    65
 73
     0
 40
0.0
  0
LTYPE
  2
RAND1
 70
    64
  3
ランダム線1
 72
    65
 73
     4
 40
10.0
 49
1.0
 49
-2.0
 49
3.0
 49
-4.0
  0
LTYPE
  2
RAND2
 70
    64
  3
ランダム線2
 72
    65
 73
     4
 40
14.0
 49
2.0
 49
-3.0
 49
4.0
 49
-5.0
  0
LTYPE
  2
RAND3
 70
    64
  3
ランダム線3
 72
    65
 73
     4
 40
18.0
 49
3.0
 49
-4.0
 49
5.0
 49
-6.0
  0
LTYPE
  2
RAND4
 70
    64
  3
ランダム線4
 72
    65
 73
     4
 40
22.0
 49
4.0
 49
-5.0
 49
6.0
 49
-7.0
  0
LTYPE
  2
RAND5
 70
    64
  3
ランダム線5
 72
    65
 73
     4
 40
26.0
 49
5.0
 49
-6.0
 49
7.0
 49
-8.0
  0
LTYPE
  2
LONG1
 70
    64
  3
----------  --  ----------  --  
 72
    65
 73
     4
 40
40.0
 49
32.5
 49
-2.5
 49
2.5
 49
-2.5
  0
LTYPE
  2
LONG2
 70
    64
  3
--------  -  -  --------  -  -  
 72
    65
 73
     6
 40
40.0
 49
30.0
 49
-2.5
 49
1.25
 49
-2.5
 49
1.25
 49
-2.5
  0
LTYPE
  2
LONG3
 70
    64
  3
+++++++++++++++..+++++++++++++++
 72
    65
 73
     2
 40
40.0
 49
37.5
 49
-2.5
  0
LTYPE
  2
LONG4
 70
    64
  3
+++++++++++++++..+++++++++++++++
 72
    65
 73
     2
 40
80.0
 49
75.0
 49
-5.0
  0
LTYPE
  2
LONG5
 70
    64
  3
----------  --  ----------  --  
 72
    65
 73
     4
 40
60.0
 49
37.5
 49
-7.5
 49
7.5
 49
-7.5
  0
LTYPE
  2
dashed
 70
   64
  3
-------   -------------   ------
 72
   65
 73
    2
 40
7.5
 49
6
 49
-1.5
  0
LTYPE
  2
dashed_spaced
 70
   64
  3
----        --------        ----
 72
   65
 73
    2
 40
12
 49
6
 49
-6
  0
LTYPE
  2
long_dashed_dotted
 70
   64
  3
------------- --- --------------
 72
   65
 73
    4
 40
15.25
 49
12
 49
-1.5
 49
0.25
 49
-1.5
  0
LTYPE
  2
long_dashed_double-dotted
 70
   64
  3
----------- --- --- ------------
 72
   65
 73
    6
 40
17
 49
12
 49
-1.5
 49
0.25
 49
-1.5
 49
0.25
 49
-1.5
  0
LTYPE
  2
long_dashed_triplicate-dotted
 70
   64
  3
--------- --- --- --- ----------
 72
   65
 73
    8
 40
18.75
 49
12
 49
-1.5
 49
0.25
 49
-1.5
 49
0.25
 49
-1.5
 49
0.25
 49
-1.5
  0
LTYPE
  2
dotted
 70
   64
  3
   -       -       -       -    
 72
   65
 73
    2
 40
1.75
 49
0.25
 49
-1.5
  0
LTYPE
  2
chain
 70
   64
  3
-------------- -- --------------
 72
   65
 73
    4
 40
18.5
 49
12
 49
-1.5
 49
3.5
 49
-1.5
  0
LTYPE
  2
chain_double_dash
 70
   64
  3
------------ -- -- -------------
 72
   65
 73
    6
 40
23.5
 49
12
 49
-1.5
 49
3.5
 49
-1.5
 49
3.5
 49
-1.5
  0
LTYPE
  2
dashed_dotted
 70
   64
  3
-----------     -     ----------
 72
   65
 73
    4
 40
9.25
 49
6
 49
-1.5
 49
0.25
 49
-1.5
  0
LTYPE
  2
double-dashed_dotted
 70
   64
  3
------   -----------   -   -----
 72
   65
 73
    6
 40
16.75
 49
6
 49
-1.5
 49
6
 49
-1.5
 49
0.25
 49
-1.5
  0
LTYPE
  2
dashed_double-dotted
 70
   64
  3
---------    -    -    ---------
 72
   65
 73
    6
 40
11
 49
6
 49
-1.5
 49
0.25
 49
-1.5
 49
0.25
 49
-1.5
  0
LTYPE
  2
double-dashed_double-dotted
 70
   64
  3
-----   ---------   -   -   ----
 72
   65
 73
    8
 40
18.5
 49
6
 49
-1.5
 49
6
 49
-1.5
 49
0.25
 49
-1.5
 49
0.25
 49
-1.5
  0
LTYPE
  2
dashed_triplicate-dotted
 70
   64
  3
-------    -    -    -    ------
 72
   65
 73
    8
 40
12.75
 49
6
 49
-1.5
 49
0.25
 49
-1.5
 49
0.25
 49
-1.5
 49
0.25
 49
-1.5
  0
LTYPE
  2
double-dashed_triplicate-dotted
 70
   64
  3
-----  ---------  -  -  -  -----
 72
   65
 73
   10
 40
20.25
 49
6
 49
-1.5
 49
6
 49
-1.5
 49
0.25
 49
-1.5
 49
0.25
 49
-1.5
 49
0.25
 49
-1.5
  0
LTYPE
  2
undefined
 70
   64
  3
--------------------------------
 72
   65
 73
    0
 40
0
  0
LTYPE
  2
DASHED
 70
   64
  3
------     -----------     -----
 72
   65
 73
    2
 40
0.75
 49
0.5
 49
-0.25
  0
LTYPE
  2
HIDDEN
 70
   64
  3
------     -----------     -----
 72
   65
 73
    2
 40
0.375
 49
0.25
 49
-0.125
  0
LTYPE
  2
CENTER
 70
   64
  3
----------    ----    ----------
 72
   65
 73
    4
 40
2
 49
1.25
 49
-0.25
 49
0.25
 49
-0.25
  0
LTYPE
  2
PHANTOM
 70
   64
  3
---------   ---   ---   --------
 72
   65
 73
    6
 40
2.5
 49
1.25
 49
-0.25
 49
0.25
 49
-0.25
 49
0.25
 49
-0.25
  0
LTYPE
  2
_
 70
   64
  3
                                
 72
   65
 73
    0
 40
0
  0
LTYPE
  2
__22
 70
   64
  3
                                
 72
   65
 73
    0
 40
0
  0
LTYPE
  2
__23
 70
   64
  3
                                
 72
   65
 73
    0
 40
0
  0
LTYPE
  2
__24
 70
   64
  3
                                
 72
   65
 73
    0
 40
0
  0
LTYPE
  2
__25
 70
   64
  3
                                
 72
   65
 73
    0
 40
0
  0
LTYPE
  2
__26
 70
   64
  3
                                
 72
   65
 73
    0
 40
0
  0
LTYPE
  2
__27
 70
   64
  3
                                
 72
   65
 73
    0
 40
0
  0
LTYPE
  2
__28
 70
   64
  3
                                
 72
   65
 73
    0
 40
0
  0
LTYPE
  2
__29
 70
   64
  3
                                
 72
   65
 73
    0
 40
0
  0
LTYPE
  2
__30
 70
   64
  3
                                
 72
   65
 73
    0
 40
0
  0
LTYPE
  2
__31
 70
   64
  3
                                
 72
   65
 73
    0
 40
0
  0
LTYPE
  2
__32
 70
   64
  3
                                
 72
   65
 73
    0
 40
0
  0
ENDTAB
  0
TABLE
  2
STYLE
  5
3
100
AcDbSymbolTable
 70
     1
  0
STYLE
  5
10
100
AcDbSymbolTableRecord
100
AcDbTextStyleTableRecord
  2
STANDARD
 70
     0
 40
0.0
 41
1.0
 50
0.0
 71
     0
 42
0.2
  3
txt
  4
bigfont.shx
  0
STYLE
  5
26
100
AcDbSymbolTableRecord
100
AcDbTextStyleTableRecord
  2
TATEGAKI
 70
    68
 40
0.0
 41
1.0
 50
0.0
 71
     0
 42
1.0
  3
txt
  4
bigfont.shx
  0
ENDTAB
  0
TABLE
  2
LAYER
 70
    8
  0
LAYER
  2
_0-0_001
 70
   64
 62
    7
  6
CONTINUOUS
  0
LAYER
  2
_0-2_011
 70
   64
 62
    7
  6
CONTINUOUS
  0
LAYER
  2
_0-3_019
 70
   64
 62
    7
  6
CONTINUOUS
  0
LAYER
  2
_0-4_021
 70
   64
 62
    7
  6
CONTINUOUS
  0
LAYER
  2
_0-5_031
 70
   64
 62
    7
  6
CONTINUOUS
  0
LAYER
  2
_0-6_061
 70
   64
 62
    7
  6
CONTINUOUS
  0
LAYER
  2
_0-7_081
 70
   64
 62
    7
  6
CONTINUOUS
  0
LAYER
  2
ADD_LINE
 70
   64
 62
    7
  6
CONTINUOUS
  0
ENDTAB
  0
ENDSEC
  0
SECTION
  2
BLOCKS
  0
BLOCK
  2
-000-PART0
 70
   64
 10
0
 20
0
 30
0
  0
LINE
  8
_0-5_031
  6
CONTINUOUS
 62
    7
 10
475.79133799999999
 20
250.31040200000001
 11
475.24419599999998
 21
247.88673
  0
LINE
  8
_0-5_031
  6
CONTINUOUS
 62
    7
 10
475.24419599999998
 20
247.88673
 11
476.92986999999999
 21
249.71211999999999
  0
LINE
  8
_0-5_031
  6
CONTINUOUS
 62
    7
 10
475.24419599999998
 20
247.88673
 11
493.34711399999997
 21
282.336702
  0
CIRCLE
  8
_0-5_031
  6
CONTINUOUS
 62
    7
 10
496.13813199999998
 20
287.64803
 40
6
  0
TEXT
  8
_0-5_031
 62
    7
 10
492.53813200000001
 20
282.84803199999998
 40
9.5999999999999996
 41
0.65625
 50
0
  1
3
  0
ENDBLK
  0
BLOCK
  2
-001-PART1
 70
   64
 10
0
 20
0
 30
0
  0
LINE
  8
_0-5_031
  6
CONTINUOUS
 62
    7
 10
466.52157199999999
 20
252.841822
 11
468.74054999999998
 21
251.723928
  0
LINE
  8
_0-5_031
  6
CONTINUOUS
 62
    7
 10
468.74054999999998
 20
251.723928
 11
467.37780600000002
 21
253.80154200000001
  0
LINE
  8
_0-5_031
  6
CONTINUOUS
 62
    7
 10
468.74054999999998
 20
251.723928
 11
447.24192599999997
 21
270.90438199999999
  0
CIRCLE
  8
_0-5_031
  6
CONTINUOUS
 62
    7
 10
442.76477399999998
 20
274.89876600000002
 40
6
  0
TEXT
  8
_0-5_031
 62
    7
 10
439.16477400000002
 20
270.098768
 40
9.5999999999999996
 41
0.65625
 50
0
  1
4
  0
ENDBLK
  0
BLOCK
  2
-002-PART2
 70
   64
 10
0
 20
0
 30
0
  0
LINE
  8
_0-5_031
  6
CONTINUOUS
 62
    7
 10
374.33860399999997
 20
277.95931200000001
 11
372.76427799999999
 21
276.03705999999999
  0
LINE
  8
_0-5_031
  6
CONTINUOUS
 62
    7
 10
372.76427799999999
 20
276.03705999999999
 11
375.08881000000002
 21
276.91461600000002
  0
LINE
  8
_0-5_031
  6
CONTINUOUS
 62
    7
 10
372.76427799999999
 20
276.03705999999999
 11
393.41019199999999
 21
290.86310800000001
  0
CIRCLE
  8
_0-5_031
  6
CONTINUOUS
 62
    7
 10
398.28376200000002
 20
294.36286799999999
 40
6
  0
TEXT
  8
_0-5_031
 62
    7
 10
394.683762
 20
289.56286799999998
 40
9.5999999999999996
 41
0.9843739999999999
 50
0
  1
1
  0
ENDBLK
  0
BLOCK
  2
-003-PART3
 70
   64
 10
0
 20
0
 30
0
  0
LINE
  8
_0-5_031
  6
CONTINUOUS
 62
    7
 10
366.75440400000002
 20
227.380918
 11
369.10427800000002
 21
226.573676
  0
LINE
  8
_0-5_031
  6
CONTINUOUS
 62
    7
 10
369.10427800000002
 20
226.573676
 11
367.47284999999999
 21
228.44770600000001
  0
LINE
  8
_0-5_031
  6
CONTINUOUS
 62
    7
 10
369.10427800000002
 20
226.573676
 11
338.46039200000001
 21
247.21127799999999
  0
CIRCLE
  8
_0-5_031
  6
CONTINUOUS
 62
    7
 10
333.48376200000001
 20
250.562868
 40
6
  0
TEXT
  8
_0-5_031
 62
    7
 10
329.88376199999999
 20
245.76286799999999
 40
9.5999999999999996
 41
0.65625
 50
0
  1
2
  0
ENDBLK
  0
BLOCK
  2
-004-ARROW
 70
   64
 10
0
 20
0
 30
0
  0
LINE
  8
_0-8_0
  6
CONTINUOUS
 62
    7
 10
4
 20
1.0717959999999999
 11
0
 21
0
  0
LINE
  8
_0-8_0
  6
CONTINUOUS
 62
    7
 10
0
 20
0
 11
4
 21
-1.0717959999999999
  0
ENDBLK
  0
BLOCK
  2
-005-_D0
 70
   64
 10
0
 20
0
 30
0
  0
LINE
  8
_0-5_031
  6
CONTINUOUS
 62
    7
 10
-75.026194000000003
 20
-10.862068
 11
-84.327820000000002
 21
-10.862068
  0
LINE
  8
_0-5_031
  6
CONTINUOUS
 62
    7
 10
-75.026194000000003
 20
-7.2620680000000001
 11
-84.327820000000002
 21
-7.2620680000000001
  0
LINE
  8
_0-5_031
  6
CONTINUOUS
 62
    7
 10
-82.327820000000002
 20
-10.862068
 11
-82.327820000000002
 21
-7.2620680000000001
  0
INSERT
  2
-004-ARROW
  8
_0-5_031
 10
-82.327820000000002
 20
-10.862068
 41
1
 42
1
 50
270
  0
INSERT
  2
-004-ARROW
  8
_0-5_031
 10
-82.327820000000002
 20
-7.2620680000000001
 41
1
 42
1
 50
90
  0
TEXT
  8
_0-5_031
 62
    7
 10
-84.327820000000002
 20
-4.6220679999999996
 40
6.4000000000000003
 41
0.65625
 50
90.000003000000162
  1
6
  0
POINT
  8
_0-5_031
 62
    7
 10
-73.026194000000003
 20
-10.862068
  0
POINT
  8
_0-5_031
 62
    7
 10
-73.026194000000003
 20
-7.2620680000000001
  0
POINT
  8
_0-5_031
 62
    7
 10
-82.327820000000002
 20
-7.2620680000000001
  0
LINE
  8
_0-5_031
  6
CONTINUOUS
 62
    7
 10
-82.327820000000002
 20
-10.862068
 11
-82.327820000000002
 21
-16.862068
  0
LINE
  8
_0-5_031
  6
CONTINUOUS
 62
    7
 10
-82.327820000000002
 20
-7.2620680000000001
 11
-82.327820000000002
 21
0.177932
  0
ENDBLK
  0
BLOCK
  2
-006-_D1
 70
   64
 10
0
 20
0
 30
0
  0
LINE
  8
_0-5_031
  6
CONTINUOUS
 62
    7
 10
-46.826194
 20
-16.862068
 11
-93.853234
 21
-16.862068
  0
LINE
  8
_0-5_031
  6
CONTINUOUS
 62
    7
 10
-75.026194000000003
 20
-7.2620680000000001
 11
-93.853234
 21
-7.2620680000000001
  0
LINE
  8
_0-5_031
  6
CONTINUOUS
 62
    7
 10
-91.853234
 20
-16.862068
 11
-91.853234
 21
-7.2620680000000001
  0
INSERT
  2
-004-ARROW
  8
_0-5_031
 10
-91.853234
 20
-16.862068
 41
1
 42
1
 50
270
  0
INSERT
  2
-004-ARROW
  8
_0-5_031
 10
-91.853234
 20
-7.2620680000000001
 41
1
 42
1
 50
90
  0
TEXT
  8
_0-5_031
 62
    7
 10
-93.853234
 20
-5.4620680000000003
 40
6.4000000000000003
 41
0.7874999999999999
 50
90.000002999999992
  1
16
  0
POINT
  8
_0-5_031
 62
    7
 10
-44.826194
 20
-16.862068
  0
POINT
  8
_0-5_031
 62
    7
 10
-73.026194000000003
 20
-7.2620680000000001
  0
POINT
  8
_0-5_031
 62
    7
 10
-91.853234
 20
-7.2620680000000001
  0
LINE
  8
_0-5_031
  6
CONTINUOUS
 62
    7
 10
-91.853234
 20
-16.862068
 11
-91.853234
 21
-22.862068
  0
LINE
  8
_0-5_031
  6
CONTINUOUS
 62
    7
 10
-91.853234
 20
-7.2620680000000001
 11
-91.853234
 21
3.537932
  0
ENDBLK
  0
BLOCK
  2
-007-_D2
 70
   64
 10
0
 20
0
 30
0
  0
LINE
  8
_0-5_031
  6
CONTINUOUS
 62
    7
 10
-43.026193999999996
 20
-246.24258599999998
 11
-43.026193999999996
 21
-295.74258600000001
  0
LINE
  8
_0-5_031
  6
CONTINUOUS
 62
    7
 10
106.97380599999999
 20
-246.24258599999998
 11
106.97380599999999
 21
-295.74258600000001
  0
LINE
  8
_0-5_031
  6
CONTINUOUS
 62
    7
 10
-43.026193999999996
 20
-293.74258600000001
 11
106.97380599999999
 21
-293.74258600000001
  0
INSERT
  2
-004-ARROW
  8
_0-5_031
 10
-43.026193999999996
 20
-293.74258600000001
 41
1
 42
1
 50
0
  0
INSERT
  2
-004-ARROW
  8
_0-5_031
 10
106.97380599999999
 20
-293.74258600000001
 41
1
 42
1
 50
180
  0
TEXT
  8
_0-5_031
 62
    7
 10
38.573805999999997
 20
-295.74258600000001
 40
6.4000000000000003
 41
0.694853
 50
179.99997800000005
  1
250
  0
POINT
  8
_0-5_031
 62
    7
 10
-43.026193999999996
 20
-244.24258599999998
  0
POINT
  8
_0-5_031
 62
    7
 10
106.97380599999999
 20
-244.24258599999998
  0
POINT
  8
_0-5_031
 62
    7
 10
106.97380599999999
 20
-293.74258600000001
  0
ENDBLK
  0
BLOCK
  2
-008-_D3
 70
   64
 10
0
 20
0
 30
0
  0
LINE
  8
_0-5_031
  6
CONTINUOUS
 62
    7
 10
-73.026194000000003
 20
-275.942586
 11
-73.026194000000003
 21
-313.14258599999999
  0
LINE
  8
_0-5_031
  6
CONTINUOUS
 62
    7
 10
136.97380599999999
 20
-275.942586
 11
136.97380599999999
 21
-313.14258599999999
  0
LINE
  8
_0-5_031
  6
CONTINUOUS
 62
    7
 10
-73.026194000000003
 20
-311.14258599999999
 11
136.97380599999999
 21
-311.14258599999999
  0
INSERT
  2
-004-ARROW
  8
_0-5_031
 10
-73.026194000000003
 20
-311.14258599999999
 41
1
 42
1
 50
0
  0
INSERT
  2
-004-ARROW
  8
_0-5_031
 10
136.97380599999999
 20
-311.14258599999999
 41
1
 42
1
 50
180
  0
TEXT
  8
_0-5_031
 62
    7
 10
38.573805999999997
 20
-313.14258599999999
 40
6.4000000000000003
 41
0.694853
 50
179.99997800000005
  1
350
  0
POINT
  8
_0-5_031
 62
    7
 10
-73.026194000000003
 20
-273.942586
  0
POINT
  8
_0-5_031
 62
    7
 10
136.97380599999999
 20
-273.942586
  0
POINT
  8
_0-5_031
 62
    7
 10
136.97380599999999
 20
-311.14258599999999
  0
ENDBLK
  0
BLOCK
  2
-009-_D4
 70
   64
 10
0
 20
0
 30
0
  0
LINE
  8
_0-5_031
  6
CONTINUOUS
 62
    7
 10
-46.833419999999996
 20
97.317850000000007
 11
-62.939121999999997
 21
97.317850000000007
  0
LINE
  8
_0-5_031
  6
CONTINUOUS
 62
    7
 10
-36.944429999999996
 20
78.117850000000004
 11
-62.939121999999997
 21
78.117850000000004
  0
LINE
  8
_0-5_031
  6
CONTINUOUS
 62
    7
 10
-60.939121999999997
 20
97.317850000000007
 11
-60.939121999999997
 21
78.117850000000004
  0
INSERT
  2
-004-ARROW
  8
_0-5_031
 10
-60.939121999999997
 20
97.317850000000007
 41
1
 42
1
 50
270
  0
INSERT
  2
-004-ARROW
  8
_0-5_031
 10
-60.939121999999997
 20
78.117850000000004
 41
1
 42
1
 50
90
  0
TEXT
  8
_0-5_031
 62
    7
 10
-62.939121999999997
 20
83.217849999999998
 40
6.4000000000000003
 41
0.7874999999999999
 50
90.000002999999992
  1
16
  0
POINT
  8
_0-5_031
 62
    7
 10
-44.833419999999996
 20
97.317850000000007
  0
POINT
  8
_0-5_031
 62
    7
 10
-34.944429999999996
 20
78.117850000000004
  0
POINT
  8
_0-5_031
 62
    7
 10
-60.939121999999997
 20
78.117850000000004
  0
ENDBLK
  0
BLOCK
  2
-010-PART4
 70
   64
 10
0
 20
0
 30
0
  0
LINE
  8
_0-5_031
  6
CONTINUOUS
 62
    7
 10
-74.726194000000006
 20
-274.24258600000001
 11
-100.3071
 21
-274.24258600000001
  0
LINE
  8
_0-5_031
  6
CONTINUOUS
 62
    7
 10
-99.378898000000006
 20
-270.24258600000001
 11
-98.307100000000005
 21
-274.24258600000001
  0
LINE
  8
_0-5_031
  6
CONTINUOUS
 62
    7
 10
-98.307100000000005
 20
-274.24258600000001
 11
-97.235303999999999
 21
-270.24258600000001
  0
LINE
  8
_0-5_031
  6
CONTINUOUS
 62
    7
 10
-98.307100000000005
 20
-274.24258600000001
 11
-98.307100000000005
 21
-106.39014799999999
  0
TEXT
  8
_0-5_031
 62
    7
 10
-100.3071
 20
-119.590146
 40
6.4000000000000003
 41
0.65625
 50
90.000003000000049
  1
535
  0
ENDBLK
  0
BLOCK
  2
-011-PART5
 70
   64
 10
0
 20
0
 30
0
  0
LINE
  8
_0-5_031
  6
CONTINUOUS
 62
    7
 10
-84.8245
 20
-106.39014799999999
 11
-84.8245
 21
-244.24258599999998
  0
TEXT
  8
_0-5_031
 62
    7
 10
-86.8245
 20
-119.590146
 40
6.4000000000000003
 41
0.65625
 50
90.000003000000049
  1
435
  0
LINE
  8
_0-5_031
  6
CONTINUOUS
 62
    7
 10
-85.896298000000001
 20
-240.24258599999998
 11
-84.8245
 21
-244.24258599999998
  0
LINE
  8
_0-5_031
  6
CONTINUOUS
 62
    7
 10
-84.8245
 20
-244.24258599999998
 11
-83.752703999999994
 21
-240.24258599999998
  0
LINE
  8
_0-5_031
  6
CONTINUOUS
 62
    7
 10
-45.026193999999996
 20
-244.24258599999998
 11
-86.8245
 21
-244.24258599999998
  0
ENDBLK
  0
ENDSEC
  0
SECTION
  2
ENTITIES
  0
TEXT
  8
_0-5_031
 62
    7
 10
187.23848401392405
 20
62.900382351707648
 40
3
 41
1
 50
0.0000030000000105
  1
t1.6 A1100P
  0
INSERT
  2
-000-PART0
  8
_0-0_001
 10
67.766703194102774
 20
60.015465634940696
 41
0.5
 42
0.5
 50
0
  0
INSERT
  2
-001-PART1
  8
_0-0_001
 10
67.766703194102774
 20
60.015465634940696
 41
0.5
 42
0.5
 50
0
  0
INSERT
  2
-002-PART2
  8
_0-0_001
 10
67.766703194102774
 20
60.015465634940696
 41
0.5
 42
0.5
 50
0
  0
INSERT
  2
-003-PART3
  8
_0-0_001
 10
67.766703194102774
 20
60.015465634940696
 41
0.5
 42
0.5
 50
0
  0
INSERT
  2
-005-_D0
  8
_0-5_031
 10
257.77987719410276
 20
167.9838026349407
 41
0.5
 42
0.5
 50
-90
  0
INSERT
  2
-006-_D1
  8
_0-5_031
 10
257.77987719410276
 20
167.9838026349407
 41
0.5
 42
0.5
 50
-90
  0
INSERT
  2
-007-_D2
  8
_0-5_031
 10
257.77987719410276
 20
167.9838026349407
 41
0.5
 42
0.5
 50
-90
  0
INSERT
  2
-008-_D3
  8
_0-5_031
 10
257.77987719410276
 20
167.9838026349407
 41
0.5
 42
0.5
 50
-90
  0
INSERT
  2
-009-_D4
  8
_0-5_031
 10
257.77987719410276
 20
167.9838026349407
 41
0.5
 42
0.5
 50
-90
  0
INSERT
  2
-010-PART4
  8
_0-0_001
 10
257.77987719410276
 20
167.9838026349407
 41
0.5
 42
0.5
 50
-90
  0
INSERT
  2
-011-PART5
  8
_0-0_001
 10
257.77987719410276
 20
167.9838026349407
 41
0.5
 42
0.5
 50
-90
  0
LINE
  8
_0-2_011
  6
CONTINUOUS
 62
    9
 10
338.34024219410275
 20
229.05697563494069
 11
61.340242194102756
 21
229.05697563494069
  0
LINE
  8
_0-2_011
  6
CONTINUOUS
 62
    9
 10
338.34024219410275
 20
53.056975634940698
 11
338.34024219410275
 21
229.05697563494069
  0
LINE
  8
_0-2_011
  6
CONTINUOUS
 62
    9
 10
61.340242194102756
 20
53.056975634940698
 11
338.34024219410275
 21
53.056975634940698
  0
LINE
  8
_0-2_011
  6
CONTINUOUS
 62
    9
 10
61.340242194102756
 20
53.056975634940684
 11
61.340242194102756
 21
229.05697563494069
  0
LINE
  8
_0-2_011
  6
CONTINUOUS
 62
    9
 10
248.34024219410275
 20
78.056975634940698
 11
338.34024219410275
 21
78.056975634940698
  0
LINE
  8
_0-2_011
  6
CONTINUOUS
 62
    9
 10
248.34024219410275
 20
53.056975634940698
 11
248.34024219410275
 21
78.056975634940698
  0
LINE
  8
_0-2_011
  6
CONTINUOUS
 62
    3
 10
301.80903119410277
 20
81.416840634940697
 11
334.69469019410274
 21
81.416840634940697
  0
LINE
  8
_0-2_011
  6
CONTINUOUS
 62
    3
 10
301.80903119410277
 20
87.932828634940705
 11
334.69469019410274
 21
87.932828634940705
  0
LINE
  8
_0-2_011
  6
CONTINUOUS
 62
    3
 10
334.69469019410274
 20
87.932828634940705
 11
334.69469019410274
 21
81.416840634940697
  0
LINE
  8
_0-2_011
  6
CONTINUOUS
 62
    3
 10
301.80903119410277
 20
87.932828634940705
 11
301.80903119410277
 21
81.416840634940697
  0
LINE
  8
_0-2_011
  6
CONTINUOUS
 62
    3
 10
120.80858419410277
 20
204.49689963494068
 11
207.28029619410276
 21
204.49689963494068
  0
LINE
  8
_0-2_011
  6
CONTINUOUS
 62
    3
 10
120.80858419410277
 20
99.496899634940689
 11
207.28029619410278
 21
99.496899634940689
  0
LINE
  8
_0-2_011
  6
CONTINUOUS
 62
    3
 10
120.65858419410277
 20
99.64689963494068
 11
120.65858419410277
 21
204.34689963494068
  0
LINE
  8
_0-2_011
  6
CONTINUOUS
 62
    3
 10
122.37071619410276
 20
202.99689963494068
 11
207.28029619410276
 21
202.99689963494068
  0
LINE
  8
_0-2_011
  6
CONTINUOUS
 62
    3
 10
122.15858419410277
 20
101.20903163494068
 11
122.15858419410277
 21
202.78476763494069
  0
LINE
  8
_0-2_011
  6
CONTINUOUS
 62
    3
 10
122.37071619410276
 20
100.99689963494068
 11
207.28029619410278
 21
100.99689963494068
  0
LINE
  8
_0-2_011
  6
CONTINUOUS
 62
    3
 10
122.15858419410277
 20
202.78476763494069
 11
120.65858419410277
 21
204.28476763494069
  0
LINE
  8
_0-2_011
  6
CONTINUOUS
 62
    3
 10
122.37071619410276
 20
202.99689963494068
 11
120.87071619410276
 21
204.49689963494068
  0
ARC
  8
_0-2_011
  6
CONTINUOUS
 62
    3
 10
120.80858419410277
 20
204.34689963494068
 40
0.1499999999999999
 50
90
 51
180
  0
LINE
  8
_0-2_011
  6
CONTINUOUS
 62
    3
 10
121.02071619410277
 20
204.34689963494068
 11
120.80858419410277
 21
204.34689963494068
  0
LINE
  8
_0-2_011
  6
CONTINUOUS
 62
    3
 10
120.80858419410277
 20
204.13476763494068
 11
120.80858419410277
 21
204.34689963494068
  0
LINE
  8
_0-2_011
  6
CONTINUOUS
 62
    3
 10
120.65858419410277
 20
99.709031634940686
 11
122.15858419410277
 21
101.20903163494068
  0
LINE
  8
_0-2_011
  6
CONTINUOUS
 62
    3
 10
120.87071619410276
 20
99.496899634940689
 11
122.37071619410276
 21
100.99689963494068
  0
ARC
  8
_0-2_011
  6
CONTINUOUS
 62
    3
 10
120.80858419410277
 20
99.64689963494068
 40
0.1499999999999999
 50
180
 51
270
  0
LINE
  8
_0-2_011
  6
CONTINUOUS
 62
    3
 10
121.02071619410277
 20
99.64689963494068
 11
120.80858419410277
 21
99.64689963494068
  0
LINE
  8
_0-2_011
  6
CONTINUOUS
 62
    3
 10
120.80858419410277
 20
99.859031634940691
 11
120.80858419410277
 21
99.64689963494068
  0
CIRCLE
  8
_0-2_011
  6
CONTINUOUS
 62
    3
 10
135.65858419410278
 20
114.49689963494068
 40
0.9749999999999999
  0
LINE
  8
_0-2_011
  6
DASHED
 62
    3
 10
121.02071619410277
 20
204.34689963494071
 11
207.28029619410276
 21
204.34689963494071
  0
LINE
  8
_0-2_011
  6
DASHED
 62
    3
 10
120.80858419410277
 20
99.859031634940691
 11
120.80858419410277
 21
204.13476763494068
  0
LINE
  8
_0-2_011
  6
DASHED
 62
    3
 10
121.02071619410277
 20
99.646899634940695
 11
207.28029619410278
 21
99.646899634940695
  0
LINE
  8
_0-2_011
  6
CONTINUOUS
 62
    3
 10
254.14884319410276
 20
204.49689963494068
 11
252.34884319410275
 21
204.49689963494068
  0
LINE
  8
_0-2_011
  6
CONTINUOUS
 62
    3
 10
253.99884319410276
 20
204.34689963494071
 11
252.49884319410276
 21
204.34689963494071
  0
LINE
  8
_0-2_011
  6
CONTINUOUS
 62
    3
 10
252.49884319410276
 20
202.99689963494068
 11
252.34884319410275
 21
202.99689963494068
  0
LINE
  8
_0-2_011
  6
CONTINUOUS
 62
    3
 10
254.14884319410276
 20
99.496899634940703
 11
252.34884319410275
 21
99.496899634940703
  0
LINE
  8
_0-2_011
  6
CONTINUOUS
 62
    3
 10
253.99884319410278
 20
99.646899634940695
 11
252.49884319410278
 21
99.646899634940695
  0
LINE
  8
_0-2_011
  6
CONTINUOUS
 62
    3
 10
252.49884319410278
 20
100.9968996349407
 11
252.34884319410275
 21
100.9968996349407
  0
LINE
  8
_0-2_011
  6
CONTINUOUS
 62
    3
 10
254.14884319410276
 20
99.496899634940703
 11
254.14884319410276
 21
204.49689963494068
  0
LINE
  8
_0-2_011
  6
CONTINUOUS
 62
    3
 10
253.39884319410276
 20
190.9218996349407
 11
253.69884319410277
 21
190.9218996349407
  0
LINE
  8
_0-2_011
  6
CONTINUOUS
 62
    3
 10
253.39884319410276
 20
188.0718996349407
 11
253.69884319410277
 21
188.0718996349407
  0
ARC
  8
_0-2_011
  6
CONTINUOUS
 62
    3
 10
253.39884319410276
 20
190.77189963494069
 40
0.1499999999999999
 50
90
 51
180
  0
ARC
  8
_0-2_011
  6
CONTINUOUS
 62
    3
 10
253.39884319410276
 20
188.22189963494071
 40
0.1499999999999999
 50
180
 51
270
  0
ARC
  8
_0-2_011
  6
CONTINUOUS
 62
    3
 10
253.69884319410277
 20
187.77189963494069
 40
0.2999999999999999
 50
0
 51
90
  0
ARC
  8
_0-2_011
  6
CONTINUOUS
 62
    3
 10
253.69884319410277
 20
191.22189963494071
 40
0.2999999999999999
 50
270
 51
0
  0
LINE
  8
_0-2_011
  6
CONTINUOUS
 62
    3
 10
253.39884319410276
 20
190.77189963494069
 11
253.69884319410277
 21
190.77189963494069
  0
LINE
  8
_0-2_011
  6
CONTINUOUS
 62
    3
 10
253.39884319410276
 20
188.22189963494071
 11
253.69884319410277
 21
188.22189963494071
  0
ARC
  8
_0-2_011
  6
CONTINUOUS
 62
    3
 10
253.69884319410277
 20
191.22189963494071
 40
0.45
 50
270
 51
0
  0
ARC
  8
_0-2_011
  6
CONTINUOUS
 62
    3
 10
253.69884319410277
 20
187.77189963494069
 40
0.45
 50
0
 51
90
  0
LINE
  8
_0-2_011
  6
CONTINUOUS
 62
    3
 10
253.99884319410276
 20
191.22189963494071
 11
253.99884319410276
 21
204.34689963494071
  0
LINE
  8
_0-2_011
  6
CONTINUOUS
 62
    3
 10
253.39884319410276
 20
188.22189963494071
 11
253.39884319410276
 21
188.52189963494069
  0
LINE
  8
_0-2_011
  6
CONTINUOUS
 62
    3
 10
253.39884319410276
 20
190.47189963494071
 11
253.39884319410276
 21
190.77189963494069
  0
LINE
  8
_0-2_011
  6
CONTINUOUS
 62
    3
 10
253.24884319410276
 20
188.22189963494071
 11
253.24884319410276
 21
188.52189963494069
  0
LINE
  8
_0-2_011
  6
CONTINUOUS
 62
    3
 10
253.24884319410276
 20
190.47189963494071
 11
253.24884319410276
 21
190.77189963494069
  0
LINE
  8
_0-2_011
  6
CONTINUOUS
 62
    3
 10
252.19884319410277
 20
187.09689963494071
 11
252.31884319410278
 21
187.09689963494071
  0
LINE
  8
_0-2_011
  6
CONTINUOUS
 62
    3
 10
253.24884319410276
 20
190.47189963494071
 11
253.39884319410276
 21
190.47189963494071
  0
LINE
  8
_0-2_011
  6
CONTINUOUS
 62
    3
 10
253.24884319410276
 20
188.52189963494069
 11
253.39884319410276
 21
188.52189963494069
  0
LINE
  8
_0-2_011
  6
CONTINUOUS
 62
    3
 10
253.39884319410276
 20
115.9218996349407
 11
253.69884319410277
 21
115.9218996349407
  0
LINE
  8
_0-2_011
  6
CONTINUOUS
 62
    3
 10
253.39884319410276
 20
113.07189963494069
 11
253.69884319410277
 21
113.07189963494069
  0
ARC
  8
_0-2_011
  6
CONTINUOUS
 62
    3
 10
253.39884319410276
 20
115.77189963494069
 40
0.1499999999999999
 50
90
 51
180
  0
ARC
  8
_0-2_011
  6
CONTINUOUS
 62
    3
 10
253.39884319410276
 20
113.22189963494069
 40
0.1499999999999999
 50
180
 51
270
  0
ARC
  8
_0-2_011
  6
CONTINUOUS
 62
    3
 10
253.69884319410277
 20
112.77189963494069
 40
0.2999999999999999
 50
0
 51
90
  0
ARC
  8
_0-2_011
  6
CONTINUOUS
 62
    3
 10
253.69884319410277
 20
116.22189963494069
 40
0.2999999999999999
 50
270
 51
0
  0
LINE
  8
_0-2_011
  6
CONTINUOUS
 62
    3
 10
253.39884319410276
 20
115.77189963494069
 11
253.69884319410277
 21
115.77189963494069
  0
LINE
  8
_0-2_011
  6
CONTINUOUS
 62
    3
 10
253.39884319410276
 20
113.22189963494069
 11
253.69884319410277
 21
113.22189963494069
  0
ARC
  8
_0-2_011
  6
CONTINUOUS
 62
    3
 10
253.69884319410277
 20
116.22189963494069
 40
0.45
 50
270
 51
0
  0
ARC
  8
_0-2_011
  6
CONTINUOUS
 62
    3
 10
253.69884319410277
 20
112.77189963494069
 40
0.45
 50
0
 51
90
  0
LINE
  8
_0-2_011
  6
CONTINUOUS
 62
    3
 10
253.39884319410276
 20
113.22189963494069
 11
253.39884319410276
 21
113.52189963494069
  0
LINE
  8
_0-2_011
  6
CONTINUOUS
 62
    3
 10
253.39884319410276
 20
115.47189963494069
 11
253.39884319410276
 21
115.77189963494069
  0
LINE
  8
_0-2_011
  6
CONTINUOUS
 62
    3
 10
253.24884319410278
 20
113.22189963494069
 11
253.24884319410278
 21
113.52189963494069
  0
LINE
  8
_0-2_011
  6
CONTINUOUS
 62
    3
 10
253.24884319410278
 20
115.47189963494069
 11
253.24884319410278
 21
115.77189963494069
  0
LINE
  8
_0-2_011
  6
CONTINUOUS
 62
    3
 10
253.24884319410278
 20
115.47189963494069
 11
253.39884319410276
 21
115.47189963494069
  0
LINE
  8
_0-2_011
  6
CONTINUOUS
 62
    3
 10
253.24884319410278
 20
113.52189963494069
 11
253.39884319410276
 21
113.52189963494069
  0
LINE
  8
_0-2_011
  6
CONTINUOUS
 62
    3
 10
253.99884319410278
 20
99.646899634940695
 11
253.99884319410278
 21
112.77189963494069
  0
LINE
  8
_0-2_011
  6
CONTINUOUS
 62
    3
 10
253.99884319410278
 20
116.22189963494069
 11
253.99884319410278
 21
187.77189963494069
  0
LINE
  8
_0-2_011
  6
CONTINUOUS
 62
    3
 10
252.49884319410276
 20
199.99689963494068
 11
252.49884319410276
 21
204.34689963494071
  0
LINE
  8
_0-2_011
  6
CONTINUOUS
 62
    3
 10
252.49884319410278
 20
103.9968996349407
 11
252.49884319410278
 21
99.646899634940695
  0
LINE
  8
_0-2_011
  6
CONTINUOUS
 62
    3
 10
252.34884319410275
 20
199.99689963494068
 11
252.34884319410275
 21
204.49689963494068
  0
LINE
  8
_0-2_011
  6
CONTINUOUS
 62
    3
 10
252.34884319410275
 20
103.9968996349407
 11
252.34884319410275
 21
99.496899634940703
  0
LINE
  8
_0-2_011
  6
CONTINUOUS
 62
    3
 10
306.43880219410277
 20
176.91152363494069
 11
306.43880219410277
 21
190.40051263494069
  0
LINE
  8
_0-2_011
  6
CONTINUOUS
 62
    3
 10
306.13880219410276
 20
187.62880963494069
 11
306.13880219410276
 21
190.53835163494068
  0
LINE
  8
_0-2_011
  6
CONTINUOUS
 62
    3
 10
304.93880219410277
 20
185.60601763494071
 11
304.93880219410277
 21
186.0560176349407
  0
LINE
  8
_0-2_011
  6
CONTINUOUS
 62
    3
 10
304.63880219410276
 20
181.10601763494071
 11
304.63880219410276
 21
181.7060176349407
  0
LINE
  8
_0-2_011
  6
CONTINUOUS
 62
    3
 10
304.63880219410276
 20
185.60601763494071
 11
304.63880219410276
 21
186.20601763494067
  0
LINE
  8
_0-2_011
  6
CONTINUOUS
 62
    3
 10
302.53880219410274
 20
178.85601763494071
 11
302.77880219410275
 21
178.85601763494071
  0
LINE
  8
_0-2_011
  6
CONTINUOUS
 62
    3
 10
306.13880219410276
 20
176.7736846349407
 11
306.13880219410276
 21
179.68322563494069
  0
LINE
  8
_0-2_011
  6
CONTINUOUS
 62
    3
 10
305.23880219410278
 20
186.0560176349407
 11
306.17519819410279
 21
186.9924136349407
  0
LINE
  8
_0-2_011
  6
CONTINUOUS
 62
    3
 10
304.63880219410276
 20
185.8802816349407
 11
305.96306619410279
 21
187.2045456349407
  0
LINE
  8
_0-2_011
  6
CONTINUOUS
 62
    3
 10
305.77707919410278
 20
186.1700306349407
 11
305.38880219410276
 21
185.78175363494068
  0
LINE
  8
_0-2_011
  6
CONTINUOUS
 62
    3
 10
305.56494719410278
 20
186.38216263494069
 11
305.77707919410278
 21
186.1700306349407
  0
LINE
  8
_0-2_011
  6
CONTINUOUS
 62
    3
 10
304.63880219410276
 20
181.43175363494069
 11
305.96306619410279
 21
180.10748963494069
  0
LINE
  8
_0-2_011
  6
CONTINUOUS
 62
    3
 10
305.23880219410278
 20
181.25601763494069
 11
306.17519819410279
 21
180.31962163494068
  0
LINE
  8
_0-2_011
  6
CONTINUOUS
 62
    3
 10
305.56494719410278
 20
180.92987263494069
 11
305.77707919410278
 21
181.14200463494069
  0
LINE
  8
_0-2_011
  6
CONTINUOUS
 62
    3
 10
305.77707919410278
 20
181.14200463494069
 11
305.38880219410276
 21
181.5302816349407
  0
ARC
  8
_0-2_011
  6
CONTINUOUS
 62
    3
 10
305.53880219410274
 20
187.62880963494069
 40
0.9
 50
315
 51
0
  0
ARC
  8
_0-2_011
  6
CONTINUOUS
 62
    3
 10
305.53880219410274
 20
179.68322563494069
 40
0.9
 50
0
 51
45
  0
ARC
  8
_0-2_011
  6
CONTINUOUS
 62
    3
 10
305.53880219410274
 20
187.62880963494069
 40
0.5999999999999999
 50
315
 51
0
  0
ARC
  8
_0-2_011
  6
CONTINUOUS
 62
    3
 10
305.53880219410274
 20
179.68322563494069
 40
0.5999999999999999
 50
0
 51
45
  0
LINE
  8
_0-2_011
  6
CONTINUOUS
 62
    3
 10
296.83880219410275
 20
181.85601763494071
 11
296.83880219410275
 21
185.45601763494067
  0
LINE
  8
_0-3_019
  6
CONTINUOUS
 62
    7
 10
252.31884319410278
 20
191.89689963494069
 11
252.19884319410277
 21
191.89689963494069
  0
LINE
  8
_0-3_019
  6
CONTINUOUS
 62
    7
 10
252.19884319410277
 20
191.89689963494069
 11
252.19884319410277
 21
190.6968996349407
  0
LINE
  8
_0-3_019
  6
CONTINUOUS
 62
    7
 10
251.86510619410276
 20
190.54857263494068
 11
252.19884319410277
 21
190.6968996349407
  0
ARC
  8
_0-3_019
  6
CONTINUOUS
 62
    7
 10
251.91384319410275
 20
190.43891463494071
 40
0.1199999999999999
 50
113.96248899999997
 51
179.99999999999997
  0
LINE
  8
_0-3_019
  6
CONTINUOUS
 62
    7
 10
251.91384319410275
 20
190.43891463494071
 11
251.91384319410275
 21
190.39689963494069
  0
LINE
  8
_0-3_019
  6
CONTINUOUS
 62
    7
 10
251.91384319410275
 20
190.43891463494071
 11
252.31884319410278
 21
190.61891463494069
  0
LINE
  8
_0-3_019
  6
CONTINUOUS
 62
    7
 10
251.79384319410277
 20
190.43891463494071
 11
251.79384319410277
 21
190.39689963494069
  0
LINE
  8
_0-3_019
  6
CONTINUOUS
 62
    7
 10
252.31884319410278
 20
187.09689963494071
 11
252.19884319410277
 21
187.09689963494071
  0
LINE
  8
_0-3_019
  6
CONTINUOUS
 62
    7
 10
252.19884319410277
 20
187.09689963494071
 11
252.19884319410277
 21
188.2968996349407
  0
LINE
  8
_0-3_019
  6
CONTINUOUS
 62
    7
 10
251.86510619410276
 20
188.44522763494069
 11
252.19884319410277
 21
188.2968996349407
  0
ARC
  8
_0-3_019
  6
CONTINUOUS
 62
    7
 10
251.91384319410275
 20
188.55488463494069
 40
0.1199999999999999
 50
180
 51
246.03751099999999
  0
LINE
  8
_0-3_019
  6
CONTINUOUS
 62
    7
 10
251.91384319410275
 20
188.55488463494069
 11
251.91384319410275
 21
188.59689963494071
  0
LINE
  8
_0-3_019
  6
CONTINUOUS
 62
    7
 10
251.91384319410275
 20
188.55488463494069
 11
252.31884319410278
 21
188.37488463494071
  0
LINE
  8
_0-3_019
  6
CONTINUOUS
 62
    7
 10
251.79384319410277
 20
188.55488463494069
 11
251.79384319410277
 21
188.59689963494071
  0
LINE
  8
_0-3_019
  6
CONTINUOUS
 62
    7
 10
252.31884319410278
 20
116.89689963494069
 11
252.19884319410277
 21
116.89689963494069
  0
LINE
  8
_0-3_019
  6
CONTINUOUS
 62
    7
 10
252.19884319410277
 20
116.89689963494069
 11
252.19884319410277
 21
115.69689963494069
  0
LINE
  8
_0-3_019
  6
CONTINUOUS
 62
    7
 10
251.86510619410276
 20
115.54857263494069
 11
252.19884319410277
 21
115.69689963494069
  0
ARC
  8
_0-3_019
  6
CONTINUOUS
 62
    7
 10
251.91384319410278
 20
115.4389146349407
 40
0.1199999999999999
 50
113.96248899999997
 51
179.99999999999997
  0
LINE
  8
_0-3_019
  6
CONTINUOUS
 62
    7
 10
251.91384319410278
 20
115.4389146349407
 11
251.91384319410278
 21
115.39689963494069
  0
LINE
  8
_0-3_019
  6
CONTINUOUS
 62
    7
 10
251.91384319410278
 20
115.4389146349407
 11
252.31884319410278
 21
115.61891463494069
  0
LINE
  8
_0-3_019
  6
CONTINUOUS
 62
    7
 10
251.79384319410277
 20
115.4389146349407
 11
251.79384319410277
 21
115.39689963494069
  0
LINE
  8
_0-3_019
  6
CONTINUOUS
 62
    7
 10
252.19884319410277
 20
112.09689963494069
 11
252.19884319410277
 21
113.2968996349407
  0
LINE
  8
_0-3_019
  6
CONTINUOUS
 62
    7
 10
251.86510619410276
 20
113.44522763494069
 11
252.19884319410277
 21
113.2968996349407
  0
ARC
  8
_0-3_019
  6
CONTINUOUS
 62
    7
 10
251.91384319410278
 20
113.55488463494069
 40
0.1199999999999999
 50
180
 51
246.03751099999999
  0
LINE
  8
_0-3_019
  6
CONTINUOUS
 62
    7
 10
251.91384319410278
 20
113.55488463494069
 11
251.91384319410278
 21
113.59689963494069
  0
LINE
  8
_0-3_019
  6
CONTINUOUS
 62
    7
 10
251.91384319410278
 20
113.55488463494069
 11
252.31884319410278
 21
113.37488463494069
  0
LINE
  8
_0-3_019
  6
CONTINUOUS
 62
    7
 10
251.79384319410277
 20
113.55488463494069
 11
251.79384319410277
 21
113.59689963494069
  0
LINE
  8
_0-3_019
  6
CONTINUOUS
 62
    7
 10
252.31884319410278
 20
112.09689963494069
 11
252.19884319410277
 21
112.09689963494069
  0
CIRCLE
  8
_0-3_019
  6
CONTINUOUS
 62
    7
 10
135.65858419410278
 20
189.49689963494068
 40
2.3999999999999999
  0
CIRCLE
  8
_0-3_019
  6
CONTINUOUS
 62
    7
 10
135.65858419410278
 20
189.49689963494068
 40
1.1999999999999999
  0
CIRCLE
  8
_0-3_019
  6
CONTINUOUS
 62
    7
 10
135.65858419410278
 20
114.49689963494068
 40
2.3999999999999999
  0
CIRCLE
  8
_0-3_019
  6
CONTINUOUS
 62
    7
 10
135.65858419410278
 20
114.49689963494068
 40
1.1999999999999999
  0
LINE
  8
_0-3_019
  6
CONTINUOUS
 62
    7
 10
302.77880219410275
 20
188.45601763494067
 11
302.53880219410274
 21
188.45601763494067
  0
LINE
  8
_0-3_019
  6
CONTINUOUS
 62
    7
 10
302.53880219410274
 20
188.45601763494067
 11
302.53880219410274
 21
186.0560176349407
  0
LINE
  8
_0-3_019
  6
CONTINUOUS
 62
    7
 10
301.87132819410277
 20
185.75936263494071
 11
302.53880219410274
 21
186.0560176349407
  0
ARC
  8
_0-3_019
  6
CONTINUOUS
 62
    7
 10
301.96880219410275
 20
185.54004863494071
 40
0.2399999999999999
 50
113.96248899999997
 51
179.99999999999997
  0
LINE
  8
_0-3_019
  6
CONTINUOUS
 62
    7
 10
301.96880219410275
 20
185.54004863494071
 11
301.96880219410275
 21
185.45601763494067
  0
LINE
  8
_0-3_019
  6
CONTINUOUS
 62
    7
 10
301.96880219410275
 20
185.54004863494071
 11
302.77880219410275
 21
185.9000486349407
  0
LINE
  8
_0-3_019
  6
CONTINUOUS
 62
    7
 10
301.72880219410279
 20
185.54004863494071
 11
301.72880219410279
 21
185.45601763494067
  0
LINE
  8
_0-3_019
  6
CONTINUOUS
 62
    7
 10
302.77880219410275
 20
178.85601763494071
 11
302.53880219410274
 21
178.85601763494071
  0
LINE
  8
_0-3_019
  6
CONTINUOUS
 62
    7
 10
302.53880219410274
 20
178.85601763494071
 11
302.53880219410274
 21
181.25601763494069
  0
LINE
  8
_0-3_019
  6
CONTINUOUS
 62
    7
 10
301.87132819410277
 20
181.5526726349407
 11
302.53880219410274
 21
181.25601763494069
  0
ARC
  8
_0-3_019
  6
CONTINUOUS
 62
    7
 10
301.96880219410275
 20
181.7719876349407
 40
0.2399999999999999
 50
180
 51
246.03751099999999
  0
LINE
  8
_0-3_019
  6
CONTINUOUS
 62
    7
 10
301.96880219410275
 20
181.7719876349407
 11
301.96880219410275
 21
181.85601763494071
  0
LINE
  8
_0-3_019
  6
CONTINUOUS
 62
    7
 10
301.96880219410275
 20
181.7719876349407
 11
302.77880219410275
 21
181.41198763494071
  0
LINE
  8
_0-3_019
  6
CONTINUOUS
 62
    7
 10
301.72880219410279
 20
181.7719876349407
 11
301.72880219410279
 21
181.85601763494071
  0
LINE
  8
_0-4_021
  6
CENTER
 62
    4
 10
248.66202619410276
 20
181.99689963494068
 11
256.98839719410278
 21
181.99689963494068
  0
LINE
  8
_0-4_021
  6
CENTER
 62
    4
 10
248.66202619410276
 20
151.99689963494068
 11
258.72659419410274
 21
151.99689963494068
  0
LINE
  8
_0-4_021
  6
CENTER
 62
    4
 10
247.44953119410277
 20
121.9968996349407
 11
260.10866919410278
 21
121.9968996349407
  0
LINE
  8
_0-4_021
  6
CENTER
 62
    4
 10
192.97199219410276
 20
121.99689963494068
 11
207.03016419410278
 21
121.99689963494068
  0
LINE
  8
_0-4_021
  6
CENTER
 62
    4
 10
147.87222219410278
 20
121.99689963494068
 11
162.96483319410276
 21
121.99689963494068
  0
LINE
  8
_0-4_021
  6
CENTER
 62
    4
 10
140.06306719410275
 20
114.49689963494068
 11
129.65086619410277
 21
114.49689963494068
  0
LINE
  8
_0-4_021
  6
CENTER
 62
    4
 10
171.29120119410276
 20
151.99689963494068
 11
115.43159119410277
 21
151.99689963494068
  0
LINE
  8
_0-4_021
  6
CENTER
 62
    4
 10
194.87976619410278
 20
151.99689963494068
 11
171.29120119410276
 21
151.99689963494068
  0
LINE
  8
_0-4_021
  6
CENTER
 62
    4
 10
208.06460219410277
 20
151.99689963494068
 11
193.6672691941028
 21
151.99689963494068
  0
LINE
  8
_0-4_021
  6
CENTER
 62
    4
 10
193.6672691941028
 20
181.99689963494068
 11
208.24266019410276
 21
181.99689963494068
  0
LINE
  8
_0-4_021
  6
CENTER
 62
    4
 10
147.69416119410277
 20
181.99689963494068
 11
162.78677219410275
 21
181.99689963494068
  0
LINE
  8
_0-4_021
  6
CENTER
 62
    4
 10
135.65858419410278
 20
108.17073363494068
 11
135.65858419410278
 21
119.96501463494068
  0
LINE
  8
_0-4_021
  6
CENTER
 62
    4
 10
200.90858419410278
 20
158.8242436349407
 11
200.90858419410278
 21
207.40040063494069
  0
LINE
  8
_0-4_021
  6
CENTER
 62
    4
 10
200.90858419410278
 20
129.68193663494068
 11
200.90858419410278
 21
159.51951763494071
  0
LINE
  8
_0-4_021
  6
CENTER
 62
    4
 10
200.90858419410278
 20
88.219653634940698
 11
200.90858419410278
 21
129.16471863494069
  0
LINE
  8
_0-4_021
  6
CENTER
 62
    4
 10
155.90858419410278
 20
173.23005463494069
 11
155.90858419410278
 21
189.70474063494069
  0
LINE
  8
_0-4_021
  6
CENTER
 62
    4
 10
155.90858419410278
 20
143.73163363494069
 11
155.90858419410278
 21
159.51951763494071
  0
LINE
  8
_0-4_021
  6
CENTER
 62
    4
 10
155.90858419410278
 20
116.14946363494068
 11
155.90858419410278
 21
129.16471863494069
  0
LINE
  8
_0-4_021
  6
CENTER
 62
    4
 10
178.40858419410278
 20
143.73163363494069
 11
178.40858419410278
 21
159.51951763494071
  0
LINE
  8
_0-4_021
  6
CENTER
 62
    4
 10
135.65858419410278
 20
183.17073363494068
 11
135.65858419410278
 21
194.9650146349407
  0
LINE
  8
_0-4_021
  6
CENTER
 62
    4
 10
140.06306719410275
 20
189.49689963494068
 11
129.65086619410277
 21
189.49689963494068
  0
LINE
  8
_0-5_031
  6
CONTINUOUS
 62
    7
 10
248.34024219410275
 20
72.056975634940698
 11
338.34024219410275
 21
72.056975634940698
  0
LINE
  8
_0-5_031
  6
CONTINUOUS
 62
    7
 10
248.34024219410275
 20
66.056975634940698
 11
338.34024219410275
 21
66.056975634940698
  0
LINE
  8
_0-5_031
  6
CONTINUOUS
 62
    7
 10
248.34024219410275
 20
60.056975634940698
 11
338.34024219410275
 21
60.056975634940698
  0
LINE
  8
_0-5_031
  6
CONTINUOUS
 62
    7
 10
316.34024219410275
 20
66.056975634940698
 11
316.34024219410275
 21
78.056975634940698
  0
LINE
  8
_0-5_031
  6
CONTINUOUS
 62
    7
 10
325.34024219410275
 20
66.056975634940698
 11
325.34024219410275
 21
78.056975634940698
  0
CIRCLE
  8
_0-5_031
  6
CONTINUOUS
 62
    7
 10
252.50858419410275
 20
189.49689963494068
 40
3.75
  0
LINE
  8
_0-5_031
  6
CONTINUOUS
 62
    7
 10
256.94553919410276
 20
193.13306563494069
 11
255.68460219410275
 21
191.49074263494071
  0
LINE
  8
_0-5_031
  6
CONTINUOUS
 62
    7
 10
255.68460219410275
 20
191.49074263494071
 11
257.59776719410274
 21
192.2825676349407
  0
LINE
  8
_0-5_031
  6
CONTINUOUS
 62
    7
 10
255.68460219410275
 20
191.49074263494071
 11
260.90858419410278
 21
195.49689963494068
  0
LINE
  8
_0-5_031
  6
CONTINUOUS
 62
    7
 10
260.90858419410278
 20
195.49689963494068
 11
268.10858419410277
 21
195.49689963494068
  0
TEXT
  8
_0-5_031
 62
    7
 10
262.78358427787856
 20
194.89689960745175
 40
6.4000000000000003
 41
0.65625
 50
0.0000030000001778
  1
A
  0
LINE
  8
_0-5_031
  6
CONTINUOUS
 62
    7
 10
255.70341519410277
 20
105.8589926349407
 11
254.14884319410276
 21
107.22665163494069
  0
LINE
  8
_0-5_031
  6
CONTINUOUS
 62
    7
 10
254.14884319410276
 20
107.22665163494069
 11
254.81131319410278
 21
105.26493763494069
  0
LINE
  8
_0-5_031
  6
CONTINUOUS
 62
    7
 10
254.14884319410276
 20
107.22665163494069
 11
257.93042419410278
 21
101.5477816349407
  0
LINE
  8
_0-5_031
  6
CONTINUOUS
 62
    7
 10
257.93042419410278
 20
101.5477816349407
 11
279.83042419410276
 21
101.5477816349407
  0
TEXT
  8
_0-5_031
 62
    7
 10
253.33042427787859
 20
100.94778226842154
 40
6.4000000000000003
 41
0.546875
 50
0.0000030000000518
  1
ビニ－ルコ－ト面
  0
LINE
  8
_0-5_031
  6
CONTINUOUS
 62
    7
 10
307.73679819410278
 20
180.6966206349407
 11
305.69910419410274
 21
181.0640296349407
  0
LINE
  8
_0-5_031
  6
CONTINUOUS
 62
    7
 10
305.69910419410274
 20
181.0640296349407
 11
307.28009419410278
 21
179.72699763494068
  0
LINE
  8
_0-5_031
  6
CONTINUOUS
 62
    7
 10
305.69910419410274
 20
181.0640296349407
 11
313.55968219410277
 21
177.36160963494069
  0
LINE
  8
_0-5_031
  6
CONTINUOUS
 62
    7
 10
313.55968219410277
 20
177.36160963494069
 11
329.15968219410279
 21
177.36160963494069
  0
TEXT
  8
_0-5_031
 62
    7
 10
311.58468227787858
 20
176.76160940586623
 40
6.4000000000000003
 41
0.546875
 50
0.0000030000000227
  1
全周カシメ
  0
TEXT
  8
_0-5_031
 62
    7
 10
291.12381251478859
 20
166.00004937314122
 40
5.4000000000000003
 41
0.7407409999999999
 50
0.0000029999999847
  1
Ａ部詳細図
  0
LINE
  8
_0-5_031
  6
CONTINUOUS
 62
    7
 10
295.54979719410277
 20
167.0231796349407
 11
308.66785219410274
 21
167.0231796349407
  0
LINE
  8
_0-6_061
  6
CONTINUOUS
 62
    2
 10
253.24884319410276
 20
187.99689963494068
 11
253.24884319410276
 21
188.59689963494071
  0
LINE
  8
_0-6_061
  6
CONTINUOUS
 62
    2
 10
252.79884319410277
 20
188.59689963494071
 11
252.79884319410277
 21
187.99689963494068
  0
LINE
  8
_0-6_061
  6
CONTINUOUS
 62
    2
 10
253.24884319410276
 20
188.59689963494071
 11
253.39884319410276
 21
188.59689963494071
  0
LINE
  8
_0-6_061
  6
CONTINUOUS
 62
    2
 10
252.79884319410277
 20
187.99689963494068
 11
253.24884319410276
 21
187.99689963494068
  0
LINE
  8
_0-6_061
  6
CONTINUOUS
 62
    2
 10
253.24884319410276
 20
190.99689963494068
 11
253.24884319410276
 21
190.39689963494069
  0
LINE
  8
_0-6_061
  6
CONTINUOUS
 62
    2
 10
252.79884319410277
 20
190.39689963494069
 11
252.79884319410277
 21
190.99689963494068
  0
LINE
  8
_0-6_061
  6
CONTINUOUS
 62
    2
 10
253.24884319410276
 20
190.39689963494069
 11
253.39884319410276
 21
190.39689963494069
  0
LINE
  8
_0-6_061
  6
CONTINUOUS
 62
    2
 10
252.79884319410277
 20
190.99689963494068
 11
253.24884319410276
 21
190.99689963494068
  0
LINE
  8
_0-6_061
  6
CONTINUOUS
 62
    2
 10
253.62384319410276
 20
190.6968996349407
 11
253.39884319410276
 21
190.6968996349407
  0
LINE
  8
_0-6_061
  6
CONTINUOUS
 62
    2
 10
253.62384319410276
 20
190.6968996349407
 11
253.62384319410276
 21
188.2968996349407
  0
LINE
  8
_0-6_061
  6
CONTINUOUS
 62
    2
 10
253.62384319410276
 20
188.2968996349407
 11
253.39884319410276
 21
188.2968996349407
  0
CIRCLE
  8
_0-6_061
  6
CONTINUOUS
 62
    2
 10
135.65858419410278
 20
189.49689963494068
 40
0.675
  0
CIRCLE
  8
_0-6_061
  6
CONTINUOUS
 62
    2
 10
135.65858419410278
 20
189.49689963494068
 40
0.9
  0
CIRCLE
  8
_0-6_061
  6
CONTINUOUS
 62
    2
 10
135.65858419410278
 20
114.49689963494068
 40
0.675
  0
CIRCLE
  8
_0-6_061
  6
CONTINUOUS
 62
    2
 10
135.65858419410278
 20
114.49689963494068
 40
0.9
  0
LINE
  8
_0-6_061
  6
CONTINUOUS
 62
    2
 10
253.39884319410276
 20
190.39689963494069
 11
253.39884319410276
 21
190.6968996349407
  0
LINE
  8
_0-6_061
  6
CONTINUOUS
 62
    2
 10
253.39884319410276
 20
188.59689963494071
 11
253.39884319410276
 21
188.2968996349407
  0
LINE
  8
_0-6_061
  6
CONTINUOUS
 62
    2
 10
249.34884319410275
 20
188.59689963494071
 11
252.79884319410277
 21
188.59689963494071
  0
LINE
  8
_0-6_061
  6
CONTINUOUS
 62
    2
 10
253.62384319410276
 20
188.8218996349407
 11
249.34884319410275
 21
188.8218996349407
  0
LINE
  8
_0-6_061
  6
CONTINUOUS
 62
    2
 10
249.34884319410275
 20
190.39689963494069
 11
252.79884319410277
 21
190.39689963494069
  0
LINE
  8
_0-6_061
  6
CONTINUOUS
 62
    2
 10
253.62384319410276
 20
190.1718996349407
 11
249.34884319410275
 21
190.1718996349407
  0
LINE
  8
_0-6_061
  6
CONTINUOUS
 62
    2
 10
249.34884319410275
 20
190.39689963494069
 11
249.34884319410275
 21
188.59689963494071
  0
LINE
  8
_0-6_061
  6
CENTER
 62
    2
 10
254.35865419410276
 20
189.49689963494068
 11
249.22529519410275
 21
189.49689963494068
  0
LINE
  8
_0-6_061
  6
CONTINUOUS
 62
    2
 10
253.37395219410277
 20
190.1718996349407
 11
253.62384319410276
 21
190.42179063494069
  0
LINE
  8
_0-6_061
  6
CONTINUOUS
 62
    2
 10
252.94968819410277
 20
190.1718996349407
 11
253.24884319410276
 21
190.47105463494068
  0
LINE
  8
_0-6_061
  6
CONTINUOUS
 62
    2
 10
253.39884319410276
 20
190.62105463494069
 11
253.47468819410278
 21
190.6968996349407
  0
LINE
  8
_0-6_061
  6
CONTINUOUS
 62
    2
 10
252.52542419410275
 20
190.1718996349407
 11
252.75042419410277
 21
190.39689963494069
  0
LINE
  8
_0-6_061
  6
CONTINUOUS
 62
    2
 10
252.79884319410277
 20
190.44531863494069
 11
253.24884319410276
 21
190.89531863494067
  0
LINE
  8
_0-6_061
  6
CONTINUOUS
 62
    2
 10
252.10116019410276
 20
190.1718996349407
 11
252.32616019410278
 21
190.39689963494069
  0
LINE
  8
_0-6_061
  6
CONTINUOUS
 62
    2
 10
252.79884319410277
 20
190.86958263494068
 11
252.92616019410277
 21
190.99689963494068
  0
LINE
  8
_0-6_061
  6
CONTINUOUS
 62
    2
 10
251.67689619410276
 20
190.1718996349407
 11
251.90189619410276
 21
190.39689963494069
  0
LINE
  8
_0-6_061
  6
CONTINUOUS
 62
    2
 10
251.25263219410277
 20
190.1718996349407
 11
251.47763219410276
 21
190.39689963494069
  0
LINE
  8
_0-6_061
  6
CONTINUOUS
 62
    2
 10
250.82836819410277
 20
190.1718996349407
 11
251.05336819410277
 21
190.39689963494069
  0
LINE
  8
_0-6_061
  6
CONTINUOUS
 62
    2
 10
250.40410319410275
 20
190.1718996349407
 11
250.62910319410275
 21
190.39689963494069
  0
LINE
  8
_0-6_061
  6
CONTINUOUS
 62
    2
 10
249.97983919410276
 20
190.1718996349407
 11
250.20483919410276
 21
190.39689963494069
  0
LINE
  8
_0-6_061
  6
CONTINUOUS
 62
    2
 10
249.55557519410277
 20
190.1718996349407
 11
249.78057519410276
 21
190.39689963494069
  0
LINE
  8
_0-6_061
  6
CONTINUOUS
 62
    2
 10
249.34884319410275
 20
190.3894316349407
 11
249.35631119410277
 21
190.39689963494069
  0
LINE
  8
_0-6_061
  6
CONTINUOUS
 62
    2
 10
253.62027219410276
 20
188.2968996349407
 11
253.62384319410276
 21
188.30047063494069
  0
LINE
  8
_0-6_061
  6
CONTINUOUS
 62
    2
 10
252.89600819410276
 20
187.99689963494068
 11
253.24884319410276
 21
188.34973463494071
  0
LINE
  8
_0-6_061
  6
CONTINUOUS
 62
    2
 10
253.39884319410276
 20
188.49973463494069
 11
253.62384319410276
 21
188.72473463494071
  0
LINE
  8
_0-6_061
  6
CONTINUOUS
 62
    2
 10
252.79884319410277
 20
188.32399863494069
 11
253.29674419410275
 21
188.8218996349407
  0
LINE
  8
_0-6_061
  6
CONTINUOUS
 62
    2
 10
252.64748019410276
 20
188.59689963494071
 11
252.87248019410276
 21
188.8218996349407
  0
LINE
  8
_0-6_061
  6
CONTINUOUS
 62
    2
 10
252.22321619410277
 20
188.59689963494071
 11
252.44821619410276
 21
188.8218996349407
  0
LINE
  8
_0-6_061
  6
CONTINUOUS
 62
    2
 10
251.79895219410275
 20
188.59689963494071
 11
252.02395219410277
 21
188.8218996349407
  0
LINE
  8
_0-6_061
  6
CONTINUOUS
 62
    2
 10
251.37468819410275
 20
188.59689963494071
 11
251.59968819410278
 21
188.8218996349407
  0
LINE
  8
_0-6_061
  6
CONTINUOUS
 62
    2
 10
250.95042419410276
 20
188.59689963494071
 11
251.17542419410276
 21
188.8218996349407
  0
LINE
  8
_0-6_061
  6
CONTINUOUS
 62
    2
 10
250.52616019410277
 20
188.59689963494071
 11
250.75116019410276
 21
188.8218996349407
  0
LINE
  8
_0-6_061
  6
CONTINUOUS
 62
    2
 10
250.10189619410277
 20
188.59689963494071
 11
250.32689619410277
 21
188.8218996349407
  0
LINE
  8
_0-6_061
  6
CONTINUOUS
 62
    2
 10
249.67763219410275
 20
188.59689963494071
 11
249.90263219410275
 21
188.8218996349407
  0
LINE
  8
_0-6_061
  6
CONTINUOUS
 62
    2
 10
249.34884319410275
 20
188.6923756349407
 11
249.47836819410275
 21
188.8218996349407
  0
LINE
  8
_0-6_061
  6
CONTINUOUS
 62
    2
 10
253.24884319410278
 20
112.9968996349407
 11
253.24884319410278
 21
113.59689963494069
  0
LINE
  8
_0-6_061
  6
CONTINUOUS
 62
    2
 10
252.79884319410277
 20
113.59689963494069
 11
252.79884319410277
 21
112.9968996349407
  0
LINE
  8
_0-6_061
  6
CONTINUOUS
 62
    2
 10
253.24884319410278
 20
113.59689963494069
 11
253.39884319410276
 21
113.59689963494069
  0
LINE
  8
_0-6_061
  6
CONTINUOUS
 62
    2
 10
252.79884319410277
 20
112.9968996349407
 11
253.24884319410278
 21
112.9968996349407
  0
LINE
  8
_0-6_061
  6
CONTINUOUS
 62
    2
 10
253.24884319410278
 20
115.9968996349407
 11
253.24884319410278
 21
115.39689963494069
  0
LINE
  8
_0-6_061
  6
CONTINUOUS
 62
    2
 10
252.79884319410277
 20
115.39689963494069
 11
252.79884319410277
 21
115.9968996349407
  0
LINE
  8
_0-6_061
  6
CONTINUOUS
 62
    2
 10
253.24884319410278
 20
115.39689963494069
 11
253.39884319410276
 21
115.39689963494069
  0
LINE
  8
_0-6_061
  6
CONTINUOUS
 62
    2
 10
252.79884319410277
 20
115.9968996349407
 11
253.24884319410278
 21
115.9968996349407
  0
LINE
  8
_0-6_061
  6
CONTINUOUS
 62
    2
 10
253.62384319410278
 20
115.69689963494069
 11
253.39884319410276
 21
115.69689963494069
  0
LINE
  8
_0-6_061
  6
CONTINUOUS
 62
    2
 10
253.62384319410278
 20
115.69689963494069
 11
253.62384319410278
 21
113.2968996349407
  0
LINE
  8
_0-6_061
  6
CONTINUOUS
 62
    2
 10
253.62384319410278
 20
113.2968996349407
 11
253.39884319410276
 21
113.2968996349407
  0
LINE
  8
_0-6_061
  6
CONTINUOUS
 62
    2
 10
253.39884319410276
 20
115.39689963494069
 11
253.39884319410276
 21
115.69689963494069
  0
LINE
  8
_0-6_061
  6
CONTINUOUS
 62
    2
 10
253.39884319410276
 20
113.59689963494069
 11
253.39884319410276
 21
113.2968996349407
  0
LINE
  8
_0-6_061
  6
CONTINUOUS
 62
    2
 10
249.34884319410275
 20
113.59689963494069
 11
252.79884319410277
 21
113.59689963494069
  0
LINE
  8
_0-6_061
  6
CONTINUOUS
 62
    2
 10
253.62384319410278
 20
113.82189963494069
 11
249.34884319410275
 21
113.82189963494069
  0
LINE
  8
_0-6_061
  6
CONTINUOUS
 62
    2
 10
249.34884319410275
 20
115.39689963494069
 11
252.79884319410277
 21
115.39689963494069
  0
LINE
  8
_0-6_061
  6
CONTINUOUS
 62
    2
 10
253.62384319410278
 20
115.1718996349407
 11
249.34884319410275
 21
115.1718996349407
  0
LINE
  8
_0-6_061
  6
CONTINUOUS
 62
    2
 10
249.34884319410275
 20
115.39689963494069
 11
249.34884319410275
 21
113.59689963494069
  0
LINE
  8
_0-6_061
  6
CENTER
 62
    2
 10
254.35865419410276
 20
114.4968996349407
 11
249.22529519410278
 21
114.4968996349407
  0
LINE
  8
_0-6_061
  6
CONTINUOUS
 62
    2
 10
253.37395219410277
 20
115.1718996349407
 11
253.62384319410278
 21
115.42179063494069
  0
LINE
  8
_0-6_061
  6
CONTINUOUS
 62
    2
 10
252.94968819410277
 20
115.1718996349407
 11
253.24884319410278
 21
115.47105463494069
  0
LINE
  8
_0-6_061
  6
CONTINUOUS
 62
    2
 10
253.39884319410276
 20
115.62105463494069
 11
253.47468819410278
 21
115.69689963494069
  0
LINE
  8
_0-6_061
  6
CONTINUOUS
 62
    2
 10
252.52542419410278
 20
115.1718996349407
 11
252.75042419410277
 21
115.39689963494069
  0
LINE
  8
_0-6_061
  6
CONTINUOUS
 62
    2
 10
252.79884319410277
 20
115.4453186349407
 11
253.24884319410278
 21
115.89531863494069
  0
LINE
  8
_0-6_061
  6
CONTINUOUS
 62
    2
 10
252.10116019410276
 20
115.1718996349407
 11
252.32616019410278
 21
115.39689963494069
  0
LINE
  8
_0-6_061
  6
CONTINUOUS
 62
    2
 10
252.79884319410277
 20
115.86958263494069
 11
252.92616019410277
 21
115.9968996349407
  0
LINE
  8
_0-6_061
  6
CONTINUOUS
 62
    2
 10
251.67689619410276
 20
115.1718996349407
 11
251.90189619410278
 21
115.39689963494069
  0
LINE
  8
_0-6_061
  6
CONTINUOUS
 62
    2
 10
251.25263219410277
 20
115.1718996349407
 11
251.47763219410276
 21
115.39689963494069
  0
LINE
  8
_0-6_061
  6
CONTINUOUS
 62
    2
 10
250.82836819410277
 20
115.1718996349407
 11
251.05336819410277
 21
115.39689963494069
  0
LINE
  8
_0-6_061
  6
CONTINUOUS
 62
    2
 10
250.40410319410278
 20
115.1718996349407
 11
250.62910319410278
 21
115.39689963494069
  0
LINE
  8
_0-6_061
  6
CONTINUOUS
 62
    2
 10
249.97983919410276
 20
115.1718996349407
 11
250.20483919410276
 21
115.39689963494069
  0
LINE
  8
_0-6_061
  6
CONTINUOUS
 62
    2
 10
249.55557519410277
 20
115.1718996349407
 11
249.78057519410276
 21
115.39689963494069
  0
LINE
  8
_0-6_061
  6
CONTINUOUS
 62
    2
 10
249.34884319410275
 20
115.38943163494069
 11
249.35631119410277
 21
115.39689963494069
  0
LINE
  8
_0-6_061
  6
CONTINUOUS
 62
    2
 10
253.62027219410276
 20
113.2968996349407
 11
253.62384319410278
 21
113.30047063494069
  0
LINE
  8
_0-6_061
  6
CONTINUOUS
 62
    2
 10
252.89600819410276
 20
112.9968996349407
 11
253.24884319410278
 21
113.3497346349407
  0
LINE
  8
_0-6_061
  6
CONTINUOUS
 62
    2
 10
253.39884319410276
 20
113.49973463494069
 11
253.62384319410278
 21
113.7247346349407
  0
LINE
  8
_0-6_061
  6
CONTINUOUS
 62
    2
 10
252.79884319410277
 20
113.32399863494069
 11
253.29674419410275
 21
113.82189963494069
  0
LINE
  8
_0-6_061
  6
CONTINUOUS
 62
    2
 10
252.64748019410276
 20
113.59689963494069
 11
252.87248019410276
 21
113.82189963494069
  0
LINE
  8
_0-6_061
  6
CONTINUOUS
 62
    2
 10
252.22321619410277
 20
113.59689963494069
 11
252.44821619410276
 21
113.82189963494069
  0
LINE
  8
_0-6_061
  6
CONTINUOUS
 62
    2
 10
251.79895219410278
 20
113.59689963494069
 11
252.02395219410277
 21
113.82189963494069
  0
LINE
  8
_0-6_061
  6
CONTINUOUS
 62
    2
 10
251.37468819410275
 20
113.59689963494069
 11
251.59968819410278
 21
113.82189963494069
  0
LINE
  8
_0-6_061
  6
CONTINUOUS
 62
    2
 10
250.95042419410276
 20
113.59689963494069
 11
251.17542419410278
 21
113.82189963494069
  0
LINE
  8
_0-6_061
  6
CONTINUOUS
 62
    2
 10
250.52616019410277
 20
113.59689963494069
 11
250.75116019410276
 21
113.82189963494069
  0
LINE
  8
_0-6_061
  6
CONTINUOUS
 62
    2
 10
250.10189619410277
 20
113.59689963494069
 11
250.32689619410277
 21
113.82189963494069
  0
LINE
  8
_0-6_061
  6
CONTINUOUS
 62
    2
 10
249.67763219410278
 20
113.59689963494069
 11
249.90263219410277
 21
113.82189963494069
  0
LINE
  8
_0-6_061
  6
CONTINUOUS
 62
    2
 10
249.34884319410275
 20
113.6923756349407
 11
249.47836819410275
 21
113.82189963494069
  0
LINE
  8
_0-6_061
  6
CONTINUOUS
 62
    2
 10
304.63880219410276
 20
180.65601763494069
 11
304.63880219410276
 21
181.85601763494071
  0
LINE
  8
_0-6_061
  6
CONTINUOUS
 62
    2
 10
303.73880219410278
 20
181.85601763494071
 11
303.73880219410278
 21
180.65601763494069
  0
LINE
  8
_0-6_061
  6
CONTINUOUS
 62
    2
 10
304.63880219410276
 20
181.85601763494071
 11
304.93880219410277
 21
181.85601763494071
  0
LINE
  8
_0-6_061
  6
CONTINUOUS
 62
    2
 10
303.73880219410278
 20
180.65601763494069
 11
304.63880219410276
 21
180.65601763494069
  0
LINE
  8
_0-6_061
  6
CONTINUOUS
 62
    2
 10
296.83880219410275
 20
181.85601763494071
 11
303.73880219410278
 21
181.85601763494071
  0
LINE
  8
_0-6_061
  6
CONTINUOUS
 62
    2
 10
305.38880219410276
 20
182.3060176349407
 11
296.83880219410275
 21
182.3060176349407
  0
LINE
  8
_0-6_061
  6
CONTINUOUS
 62
    2
 10
304.63880219410276
 20
186.65601763494069
 11
304.63880219410276
 21
185.45601763494067
  0
LINE
  8
_0-6_061
  6
CONTINUOUS
 62
    2
 10
303.73880219410278
 20
185.45601763494067
 11
303.73880219410278
 21
186.65601763494069
  0
LINE
  8
_0-6_061
  6
CONTINUOUS
 62
    2
 10
304.63880219410276
 20
185.45601763494067
 11
304.93880219410277
 21
185.45601763494067
  0
LINE
  8
_0-6_061
  6
CONTINUOUS
 62
    2
 10
303.73880219410278
 20
186.65601763494069
 11
304.63880219410276
 21
186.65601763494069
  0
LINE
  8
_0-6_061
  6
CONTINUOUS
 62
    2
 10
296.83880219410275
 20
185.45601763494067
 11
303.73880219410278
 21
185.45601763494067
  0
LINE
  8
_0-6_061
  6
CONTINUOUS
 62
    2
 10
305.38880219410276
 20
185.00601763494069
 11
296.83880219410275
 21
185.00601763494069
  0
LINE
  8
_0-6_061
  6
CENTER
 62
    2
 10
306.85842419410278
 20
183.65601763494069
 11
296.32658719410278
 21
183.65601763494069
  0
LINE
  8
_0-6_061
  6
CONTINUOUS
 62
    2
 10
304.93880219410277
 20
181.25601763494069
 11
305.38880219410276
 21
181.25601763494069
  0
LINE
  8
_0-6_061
  6
CONTINUOUS
 62
    2
 10
304.93880219410277
 20
185.45601763494067
 11
304.93880219410277
 21
186.0560176349407
  0
LINE
  8
_0-6_061
  6
CONTINUOUS
 62
    2
 10
304.93880219410277
 20
181.85601763494071
 11
304.93880219410277
 21
181.25601763494069
  0
LINE
  8
_0-6_061
  6
CONTINUOUS
 62
    2
 10
305.38880219410276
 20
181.25601763494069
 11
305.38880219410276
 21
186.0560176349407
  0
LINE
  8
_0-6_061
  6
CONTINUOUS
 62
    2
 10
304.93880219410277
 20
186.0560176349407
 11
305.38880219410276
 21
186.0560176349407
  0
LINE
  8
_0-6_061
  6
CONTINUOUS
 62
    2
 10
305.38607619410277
 20
185.00601763494069
 11
305.38880219410276
 21
185.00874363494068
  0
LINE
  8
_0-6_061
  6
CONTINUOUS
 62
    2
 10
304.96181219410277
 20
185.00601763494069
 11
305.38880219410276
 21
185.43300763494067
  0
LINE
  8
_0-6_061
  6
CONTINUOUS
 62
    2
 10
304.53754819410278
 20
185.00601763494069
 11
305.38880219410276
 21
185.8572716349407
  0
LINE
  8
_0-6_061
  6
CONTINUOUS
 62
    2
 10
304.11328419410278
 20
185.00601763494069
 11
304.63880219410276
 21
185.53153563494069
  0
LINE
  8
_0-6_061
  6
CONTINUOUS
 62
    2
 10
304.93880219410277
 20
185.8315356349407
 11
305.16328419410274
 21
186.0560176349407
  0
LINE
  8
_0-6_061
  6
CONTINUOUS
 62
    2
 10
303.68902019410279
 20
185.00601763494069
 11
304.63880219410276
 21
185.95579963494071
  0
LINE
  8
_0-6_061
  6
CONTINUOUS
 62
    2
 10
303.26475619410274
 20
185.00601763494069
 11
303.71475619410279
 21
185.45601763494067
  0
LINE
  8
_0-6_061
  6
CONTINUOUS
 62
    2
 10
303.73880219410278
 20
185.4800636349407
 11
304.63880219410276
 21
186.38006363494071
  0
LINE
  8
_0-6_061
  6
CONTINUOUS
 62
    2
 10
302.84049219410275
 20
185.00601763494069
 11
303.29049219410279
 21
185.45601763494067
  0
LINE
  8
_0-6_061
  6
CONTINUOUS
 62
    2
 10
303.73880219410278
 20
185.90432763494069
 11
304.49049219410278
 21
186.65601763494069
  0
LINE
  8
_0-6_061
  6
CONTINUOUS
 62
    2
 10
302.41622819410275
 20
185.00601763494069
 11
302.86622819410274
 21
185.45601763494067
  0
LINE
  8
_0-6_061
  6
CONTINUOUS
 62
    2
 10
303.73880219410278
 20
186.32859163494069
 11
304.06622819410279
 21
186.65601763494069
  0
LINE
  8
_0-6_061
  6
CONTINUOUS
 62
    2
 10
301.99196419410276
 20
185.00601763494069
 11
302.44196419410275
 21
185.45601763494067
  0
LINE
  8
_0-6_061
  6
CONTINUOUS
 62
    2
 10
301.56770019410276
 20
185.00601763494069
 11
302.01770019410275
 21
185.45601763494067
  0
LINE
  8
_0-6_061
  6
CONTINUOUS
 62
    2
 10
301.14343519410277
 20
185.00601763494069
 11
301.59343519410276
 21
185.45601763494067
  0
LINE
  8
_0-6_061
  6
CONTINUOUS
 62
    2
 10
300.71917119410278
 20
185.00601763494069
 11
301.16917119410277
 21
185.45601763494067
  0
LINE
  8
_0-6_061
  6
CONTINUOUS
 62
    2
 10
300.43880219410277
 20
185.1499126349407
 11
300.74490719410277
 21
185.45601763494067
  0
LINE
  8
_0-6_061
  6
CONTINUOUS
 62
    2
 10
304.43018919410275
 20
180.65601763494069
 11
304.63880219410276
 21
180.86463063494068
  0
LINE
  8
_0-6_061
  6
CONTINUOUS
 62
    2
 10
305.03018919410277
 20
181.25601763494069
 11
305.38880219410276
 21
181.61463063494068
  0
LINE
  8
_0-6_061
  6
CONTINUOUS
 62
    2
 10
304.00592519410275
 20
180.65601763494069
 11
304.63880219410276
 21
181.2888946349407
  0
LINE
  8
_0-6_061
  6
CONTINUOUS
 62
    2
 10
304.93880219410277
 20
181.58889463494068
 11
305.38880219410276
 21
182.0388946349407
  0
LINE
  8
_0-6_061
  6
CONTINUOUS
 62
    2
 10
303.73880219410278
 20
180.81315863494069
 11
304.63880219410276
 21
181.71315863494069
  0
LINE
  8
_0-6_061
  6
CONTINUOUS
 62
    2
 10
304.78166119410275
 20
181.85601763494071
 11
305.23166119410279
 21
182.3060176349407
  0
LINE
  8
_0-6_061
  6
CONTINUOUS
 62
    2
 10
303.73880219410278
 20
181.23742263494068
 11
304.80739619410275
 21
182.3060176349407
  0
LINE
  8
_0-6_061
  6
CONTINUOUS
 62
    2
 10
303.73880219410278
 20
181.6616866349407
 11
304.38313219410275
 21
182.3060176349407
  0
LINE
  8
_0-6_061
  6
CONTINUOUS
 62
    2
 10
303.50886819410277
 20
181.85601763494071
 11
303.95886819410276
 21
182.3060176349407
  0
LINE
  8
_0-6_061
  6
CONTINUOUS
 62
    2
 10
303.08460419410278
 20
181.85601763494071
 11
303.53460419410276
 21
182.3060176349407
  0
LINE
  8
_0-6_061
  6
CONTINUOUS
 62
    2
 10
302.66034019410278
 20
181.85601763494071
 11
303.11034019410277
 21
182.3060176349407
  0
LINE
  8
_0-6_061
  6
CONTINUOUS
 62
    2
 10
302.23607619410279
 20
181.85601763494071
 11
302.68607619410278
 21
182.3060176349407
  0
LINE
  8
_0-6_061
  6
CONTINUOUS
 62
    2
 10
301.81181219410274
 20
181.85601763494071
 11
302.26181219410278
 21
182.3060176349407
  0
LINE
  8
_0-6_061
  6
CONTINUOUS
 62
    2
 10
301.38754819410274
 20
181.85601763494071
 11
301.83754819410279
 21
182.3060176349407
  0
LINE
  8
_0-6_061
  6
CONTINUOUS
 62
    2
 10
300.96328419410275
 20
181.85601763494071
 11
301.41328419410274
 21
182.3060176349407
  0
LINE
  8
_0-6_061
  6
CONTINUOUS
 62
    2
 10
300.53902019410276
 20
181.85601763494071
 11
300.98902019410274
 21
182.3060176349407
  0
LINE
  8
_0-6_061
  6
CONTINUOUS
 62
    2
 10
300.43880219410277
 20
182.18006363494069
 11
300.56475619410275
 21
182.3060176349407
  0
LINE
  8
_0-6_061
  6
CONTINUOUS
 62
    2
 10
300.29490719410279
 20
185.00601763494069
 11
300.43880219410277
 21
185.1499126349407
  0
LINE
  8
_0-6_061
  6
CONTINUOUS
 62
    2
 10
299.87064319410279
 20
185.00601763494069
 11
300.32064319410278
 21
185.45601763494067
  0
LINE
  8
_0-6_061
  6
CONTINUOUS
 62
    2
 10
299.44637919410274
 20
185.00601763494069
 11
299.89637919410279
 21
185.45601763494067
  0
LINE
  8
_0-6_061
  6
CONTINUOUS
 62
    2
 10
299.02211519410275
 20
185.00601763494069
 11
299.47211519410279
 21
185.45601763494067
  0
LINE
  8
_0-6_061
  6
CONTINUOUS
 62
    2
 10
298.59785119410275
 20
185.00601763494069
 11
299.04785119410274
 21
185.45601763494067
  0
LINE
  8
_0-6_061
  6
CONTINUOUS
 62
    2
 10
298.17358719410276
 20
185.00601763494069
 11
298.62358719410275
 21
185.45601763494067
  0
LINE
  8
_0-6_061
  6
CONTINUOUS
 62
    2
 10
297.74932319410277
 20
185.00601763494069
 11
298.19932319410276
 21
185.45601763494067
  0
LINE
  8
_0-6_061
  6
CONTINUOUS
 62
    2
 10
297.32505919410277
 20
185.00601763494069
 11
297.77505919410276
 21
185.45601763494067
  0
LINE
  8
_0-6_061
  6
CONTINUOUS
 62
    2
 10
296.90079519410278
 20
185.00601763494069
 11
297.35079519410277
 21
185.45601763494067
  0
LINE
  8
_0-6_061
  6
CONTINUOUS
 62
    2
 10
296.83880219410275
 20
185.36828863494071
 11
296.92653119410277
 21
185.45601763494067
  0
LINE
  8
_0-6_061
  6
CONTINUOUS
 62
    2
 10
300.11475619410276
 20
181.85601763494071
 11
300.43880219410277
 21
182.18006363494069
  0
LINE
  8
_0-6_061
  6
CONTINUOUS
 62
    2
 10
299.69049219410277
 20
181.85601763494071
 11
300.14049219410276
 21
182.3060176349407
  0
LINE
  8
_0-6_061
  6
CONTINUOUS
 62
    2
 10
299.26622819410277
 20
181.85601763494071
 11
299.71622819410276
 21
182.3060176349407
  0
LINE
  8
_0-6_061
  6
CONTINUOUS
 62
    2
 10
298.84196419410278
 20
181.85601763494071
 11
299.29196419410277
 21
182.3060176349407
  0
LINE
  8
_0-6_061
  6
CONTINUOUS
 62
    2
 10
298.41770019410279
 20
181.85601763494071
 11
298.86770019410278
 21
182.3060176349407
  0
LINE
  8
_0-6_061
  6
CONTINUOUS
 62
    2
 10
297.99343519410274
 20
181.85601763494071
 11
298.44343519410278
 21
182.3060176349407
  0
LINE
  8
_0-6_061
  6
CONTINUOUS
 62
    2
 10
297.56917119410275
 20
181.85601763494071
 11
298.01917119410279
 21
182.3060176349407
  0
LINE
  8
_0-6_061
  6
CONTINUOUS
 62
    2
 10
297.14490719410275
 20
181.85601763494071
 11
297.59490719410274
 21
182.3060176349407
  0
LINE
  8
_0-6_061
  6
CONTINUOUS
 62
    2
 10
296.83880219410275
 20
181.9741766349407
 11
297.17064319410275
 21
182.3060176349407
  0
LINE
  8
_0-7_081
  6
CONTINUOUS
 62
    7
 10
125.90858419410277
 20
199.99689963494068
 11
207.28029619410276
 21
199.99689963494068
  0
LINE
  8
_0-7_081
  6
CONTINUOUS
 62
    7
 10
125.90858419410277
 20
103.99689963494068
 11
207.28029619410278
 21
103.99689963494068
  0
LINE
  8
_0-7_081
  6
CONTINUOUS
 62
    7
 10
125.90858419410277
 20
103.99689963494068
 11
125.90858419410277
 21
199.99689963494068
  0
LINE
  8
_0-7_081
  6
CONTINUOUS
 62
    7
 10
252.31884319410278
 20
199.99689963494068
 11
252.79884319410277
 21
199.99689963494068
  0
LINE
  8
_0-7_081
  6
CONTINUOUS
 62
    7
 10
252.31884319410278
 20
103.9968996349407
 11
252.79884319410277
 21
103.9968996349407
  0
LINE
  8
_0-7_081
  6
CONTINUOUS
 62
    7
 10
253.99884319410276
 20
179.19572263494069
 11
253.99884319410276
 21
184.79807763494068
  0
LINE
  8
_0-7_081
  6
CONTINUOUS
 62
    7
 10
253.85825419410275
 20
185.13748863494069
 11
252.79884319410277
 21
186.1968996349407
  0
LINE
  8
_0-7_081
  6
CONTINUOUS
 62
    7
 10
253.85825419410275
 20
178.85631063494071
 11
252.79884319410277
 21
177.7968996349407
  0
ARC
  8
_0-7_081
  6
CONTINUOUS
 62
    7
 10
253.51884319410277
 20
184.79807763494068
 40
0.4799999999999999
 50
0
 51
45
  0
ARC
  8
_0-7_081
  6
CONTINUOUS
 62
    7
 10
253.51884319410277
 20
179.19572263494069
 40
0.4799999999999999
 50
315
 51
0
  0
CIRCLE
  8
_0-7_081
  6
CONTINUOUS
 62
    7
 10
200.90858419410278
 20
181.99689963494068
 40
3
  0
CIRCLE
  8
_0-7_081
  6
CONTINUOUS
 62
    7
 10
200.90858419410278
 20
181.99689963494068
 40
4.2000000000000001
  0
CIRCLE
  8
_0-7_081
  6
CONTINUOUS
 62
    7
 10
200.90858419410278
 20
151.99689963494068
 40
4.2000000000000001
  0
CIRCLE
  8
_0-7_081
  6
CONTINUOUS
 62
    7
 10
200.90858419410278
 20
151.99689963494068
 40
3
  0
CIRCLE
  8
_0-7_081
  6
CONTINUOUS
 62
    7
 10
200.90858419410278
 20
121.99689963494068
 40
4.2000000000000001
  0
CIRCLE
  8
_0-7_081
  6
CONTINUOUS
 62
    7
 10
200.90858419410278
 20
121.99689963494068
 40
3
  0
CIRCLE
  8
_0-7_081
  6
CONTINUOUS
 62
    7
 10
155.90858419410278
 20
121.99689963494068
 40
4.2000000000000001
  0
CIRCLE
  8
_0-7_081
  6
CONTINUOUS
 62
    7
 10
155.90858419410278
 20
121.99689963494068
 40
3
  0
CIRCLE
  8
_0-7_081
  6
CONTINUOUS
 62
    7
 10
155.90858419410278
 20
151.99689963494068
 40
4.2000000000000001
  0
CIRCLE
  8
_0-7_081
  6
CONTINUOUS
 62
    7
 10
155.90858419410278
 20
151.99689963494068
 40
3
  0
CIRCLE
  8
_0-7_081
  6
CONTINUOUS
 62
    7
 10
155.90858419410278
 20
181.99689963494068
 40
4.2000000000000001
  0
CIRCLE
  8
_0-7_081
  6
CONTINUOUS
 62
    7
 10
155.90858419410278
 20
181.99689963494068
 40
3
  0
CIRCLE
  8
_0-7_081
  6
CONTINUOUS
 62
    7
 10
178.40858419410278
 20
151.99689963494068
 40
4.2000000000000001
  0
CIRCLE
  8
_0-7_081
  6
CONTINUOUS
 62
    7
 10
178.40858419410278
 20
151.99689963494068
 40
3
  0
LINE
  8
_0-7_081
  6
CONTINUOUS
 62
    7
 10
253.99884319410278
 20
149.19572263494069
 11
253.99884319410278
 21
154.79807763494068
  0
LINE
  8
_0-7_081
  6
CONTINUOUS
 62
    7
 10
253.85825419410275
 20
155.13748863494069
 11
252.79884319410277
 21
156.1968996349407
  0
LINE
  8
_0-7_081
  6
CONTINUOUS
 62
    7
 10
253.85825419410275
 20
148.85631063494071
 11
252.79884319410277
 21
147.7968996349407
  0
ARC
  8
_0-7_081
  6
CONTINUOUS
 62
    7
 10
253.51884319410277
 20
154.79807763494068
 40
0.4799999999999999
 50
0
 51
45
  0
ARC
  8
_0-7_081
  6
CONTINUOUS
 62
    7
 10
253.51884319410277
 20
149.19572263494069
 40
0.4799999999999999
 50
315
 51
0
  0
LINE
  8
_0-7_081
  6
CONTINUOUS
 62
    7
 10
253.99884319410278
 20
119.19572263494069
 11
253.99884319410278
 21
124.79807763494069
  0
LINE
  8
_0-7_081
  6
CONTINUOUS
 62
    7
 10
253.85825419410278
 20
125.13748863494069
 11
252.79884319410277
 21
126.19689963494069
  0
LINE
  8
_0-7_081
  6
CONTINUOUS
 62
    7
 10
253.85825419410278
 20
118.85631063494069
 11
252.79884319410277
 21
117.7968996349407
  0
ARC
  8
_0-7_081
  6
CONTINUOUS
 62
    7
 10
253.51884319410277
 20
124.79807763494069
 40
0.4799999999999999
 50
0
 51
45
  0
ARC
  8
_0-7_081
  6
CONTINUOUS
 62
    7
 10
253.51884319410277
 20
119.19572263494069
 40
0.4799999999999999
 50
315
 51
0
  0
LINE
  8
_0-7_081
  6
CONTINUOUS
 62
    7
 10
253.51884319410277
 20
184.79807763494068
 11
252.45943219410276
 21
185.85748863494069
  0
LINE
  8
_0-7_081
  6
CONTINUOUS
 62
    7
 10
253.51884319410277
 20
179.19572263494069
 11
253.51884319410277
 21
184.79807763494068
  0
LINE
  8
_0-7_081
  6
CONTINUOUS
 62
    7
 10
253.51884319410277
 20
179.19572263494069
 11
252.45943219410276
 21
178.13631063494068
  0
LINE
  8
_0-7_081
  6
CONTINUOUS
 62
    7
 10
253.51884319410277
 20
154.79807763494068
 11
252.45943219410276
 21
155.85748863494069
  0
LINE
  8
_0-7_081
  6
CONTINUOUS
 62
    7
 10
253.51884319410277
 20
149.19572263494069
 11
253.51884319410277
 21
154.79807763494068
  0
LINE
  8
_0-7_081
  6
CONTINUOUS
 62
    7
 10
253.51884319410277
 20
149.19572263494069
 11
252.45943219410276
 21
148.13631063494068
  0
LINE
  8
_0-7_081
  6
CONTINUOUS
 62
    7
 10
252.79884319410277
 20
156.1968996349407
 11
252.79884319410277
 21
177.7968996349407
  0
LINE
  8
_0-7_081
  6
CONTINUOUS
 62
    7
 10
253.51884319410277
 20
124.79807763494069
 11
252.45943219410276
 21
125.85748863494069
  0
LINE
  8
_0-7_081
  6
CONTINUOUS
 62
    7
 10
253.51884319410277
 20
119.19572263494069
 11
253.51884319410277
 21
124.79807763494069
  0
LINE
  8
_0-7_081
  6
CONTINUOUS
 62
    7
 10
253.51884319410277
 20
119.19572263494069
 11
252.45943219410276
 21
118.13631063494069
  0
LINE
  8
_0-7_081
  6
CONTINUOUS
 62
    7
 10
252.79884319410277
 20
126.19689963494069
 11
252.79884319410277
 21
147.7968996349407
  0
ARC
  8
_0-7_081
  6
CONTINUOUS
 62
    7
 10
252.79884319410277
 20
117.7968996349407
 40
0.4799999999999999
 50
135
 51
180
  0
ARC
  8
_0-7_081
  6
CONTINUOUS
 62
    7
 10
252.79884319410277
 20
126.19689963494069
 40
0.4799999999999999
 50
180
 51
225
  0
ARC
  8
_0-7_081
  6
CONTINUOUS
 62
    7
 10
252.79884319410277
 20
156.1968996349407
 40
0.4799999999999999
 50
180
 51
225
  0
ARC
  8
_0-7_081
  6
CONTINUOUS
 62
    7
 10
252.79884319410277
 20
147.7968996349407
 40
0.4799999999999999
 50
135
 51
180
  0
ARC
  8
_0-7_081
  6
CONTINUOUS
 62
    7
 10
252.79884319410277
 20
186.1968996349407
 40
0.4799999999999999
 50
180
 51
225
  0
ARC
  8
_0-7_081
  6
CONTINUOUS
 62
    7
 10
252.79884319410277
 20
177.7968996349407
 40
0.4799999999999999
 50
135
 51
180
  0
LINE
  8
_0-7_081
  6
CONTINUOUS
 62
    7
 10
252.79884319410277
 20
188.52189963494069
 11
252.79884319410277
 21
186.1968996349407
  0
LINE
  8
_0-7_081
  6
CONTINUOUS
 62
    7
 10
252.79884319410277
 20
190.47189963494071
 11
252.79884319410277
 21
199.99689963494068
  0
LINE
  8
_0-7_081
  6
CONTINUOUS
 62
    7
 10
252.31884319410278
 20
190.47189963494071
 11
252.31884319410278
 21
199.99689963494068
  0
LINE
  8
_0-7_081
  6
CONTINUOUS
 62
    7
 10
252.79884319410277
 20
190.47189963494071
 11
252.31884319410278
 21
190.47189963494071
  0
LINE
  8
_0-7_081
  6
CONTINUOUS
 62
    7
 10
252.79884319410277
 20
188.52189963494069
 11
252.31884319410278
 21
188.52189963494069
  0
LINE
  8
_0-7_081
  6
CONTINUOUS
 62
    7
 10
252.79884319410277
 20
115.47189963494069
 11
252.31884319410278
 21
115.47189963494069
  0
LINE
  8
_0-7_081
  6
CONTINUOUS
 62
    7
 10
252.79884319410277
 20
113.52189963494069
 11
252.31884319410278
 21
113.52189963494069
  0
LINE
  8
_0-7_081
  6
CONTINUOUS
 62
    7
 10
252.79884319410277
 20
103.9968996349407
 11
252.79884319410277
 21
113.52189963494069
  0
LINE
  8
_0-7_081
  6
CONTINUOUS
 62
    7
 10
252.79884319410277
 20
115.47189963494069
 11
252.79884319410277
 21
117.7968996349407
  0
LINE
  8
_0-7_081
  6
CONTINUOUS
 62
    7
 10
252.31884319410278
 20
103.9968996349407
 11
252.31884319410278
 21
113.52189963494069
  0
LINE
  8
_0-7_081
  6
CONTINUOUS
 62
    7
 10
252.31884319410278
 20
188.52189963494069
 11
252.31884319410278
 21
115.47189963494069
  0
LINE
  8
_0-7_081
  6
CONTINUOUS
 62
    7
 10
304.51505819410277
 20
176.27976063494071
 11
303.73880219410278
 21
177.0560176349407
  0
LINE
  8
_0-7_081
  6
CONTINUOUS
 62
    7
 10
303.28016619410277
 20
176.15700863494069
 11
303.05997919410276
 21
176.3771956349407
  0
ARC
  8
_0-7_081
  6
CONTINUOUS
 62
    7
 10
303.73880219410278
 20
177.0560176349407
 40
0.9599999999999999
 50
180
 51
225
  0
LINE
  8
_0-7_081
  6
CONTINUOUS
 62
    7
 10
303.73880219410278
 20
181.7060176349407
 11
303.73880219410278
 21
177.0560176349407
  0
LINE
  8
_0-7_081
  6
CONTINUOUS
 62
    7
 10
303.73880219410278
 20
185.60601763494071
 11
303.73880219410278
 21
191.13351763494068
  0
LINE
  8
_0-7_081
  6
CONTINUOUS
 62
    7
 10
302.77880219410275
 20
181.7060176349407
 11
302.77880219410275
 21
177.0560176349407
  0
LINE
  8
_0-7_081
  6
CONTINUOUS
 62
    7
 10
302.77880219410275
 20
185.60601763494071
 11
302.77880219410275
 21
191.1464116349407
  0
LINE
  8
_0-7_081
  6
CONTINUOUS
 62
    7
 10
303.73880219410278
 20
185.60601763494071
 11
302.77880219410275
 21
185.60601763494071
  0
LINE
  8
_0-7_081
  6
CONTINUOUS
 62
    7
 10
303.73880219410278
 20
181.7060176349407
 11
302.77880219410275
 21
181.7060176349407
  0
LINE
  8
_0-5_031
  6
CONTINUOUS
 62
    7
 10
257.34024219410275
 20
66.056975634940698
 11
257.34024219410275
 21
78.056975634940698
  0
LINE
  8
_0-5_031
  6
CONTINUOUS
 62
    7
 10
109.54448919410278
 20
56.656975634940692
 11
248.34024219410275
 21
56.656975634940692
  0
LINE
  8
_0-5_031
  6
CONTINUOUS
 62
    7
 10
109.54448919410278
 20
78.256975634940687
 11
109.54448919410278
 21
53.056975634940698
  0
LINE
  8
_0-5_031
  6
CONTINUOUS
 62
    7
 10
118.54448919410278
 20
78.256975634940687
 11
118.54448919410278
 21
53.056975634940698
  0
LINE
  8
_0-5_031
  6
CONTINUOUS
 62
    7
 10
174.34448919410277
 20
78.256975634940687
 11
174.34448919410277
 21
53.056975634940698
  0
LINE
  8
_0-5_031
  6
CONTINUOUS
 62
    7
 10
181.54448919410276
 20
78.256975634940687
 11
181.54448919410276
 21
53.056975634940698
  0
LINE
  8
_0-5_031
  6
CONTINUOUS
 62
    7
 10
215.74448919410278
 20
78.256975634940701
 11
215.74448919410278
 21
53.056975634940698
  0
LINE
  8
_0-5_031
  6
CONTINUOUS
 62
    7
 10
109.54448919410278
 20
56.656975634940692
 11
248.34024219410275
 21
56.656975634940692
  0
LINE
  8
_0-5_031
  6
CONTINUOUS
 62
    7
 10
109.54448919410278
 20
62.056975634940698
 11
215.74448919410278
 21
62.056975634940698
  0
LINE
  8
_0-5_031
  6
CONTINUOUS
 62
    7
 10
109.54448919410278
 20
67.456975634940704
 11
215.74448919410278
 21
67.456975634940704
  0
LINE
  8
_0-5_031
  6
CONTINUOUS
 62
    7
 10
109.54448919410278
 20
72.856975634940681
 11
215.74448919410278
 21
72.856975634940681
  0
LINE
  8
_0-5_031
  6
CONTINUOUS
 62
    7
 10
109.54448919410278
 20
78.256975634940687
 11
248.34024219410275
 21
78.256975634940687
  0
LINE
  8
_0-5_031
  6
CONTINUOUS
 62
    7
 10
218.78787319410275
 20
70.149649634940701
 11
218.78787319410275
 21
58.859068634940697
  0
LINE
  8
_0-5_031
  6
CONTINUOUS
 62
    7
 10
218.78787319410275
 20
70.149649634940701
 11
216.83464119410277
 21
71.278590634940698
  0
LINE
  8
_0-5_031
  6
CONTINUOUS
 62
    7
 10
218.78787319410275
 20
58.859068634940697
 11
216.83464119410277
 21
57.7301276349407
  0
LINE
  8
_0-5_031
  6
CONTINUOUS
 62
    7
 10
109.54448919410278
 20
67.45697563494069
 11
109.54448919410278
 21
53.056975634940698
  0
TEXT
  8
_0-5_031
 62
    7
 10
222.9175320778786
 20
78.472789214970774
 40
3
 41
1
 50
0.0000030000000373
  1
単位（ｍ／ｍ）
  0
TEXT
  8
_0-5_031
 62
    7
 10
119.59733017852401
 20
73.773379723476537
 40
3
 41
1
 50
0.0000029999999963
  1
プッシュナット（ＳＰＮー６）
  0
TEXT
  8
_0-5_031
 62
    7
 10
112.64282618724747
 20
74.001396247780675
 40
3
 41
1
 50
0.0000029999998676
  1
4
  0
TEXT
  8
_0-5_031
 62
    7
 10
113.09885923585578
 20
68.41499140232905
 40
3
 41
1
 50
0.0000029999998676
  1
3
  0
TEXT
  8
_0-5_031
 62
    7
 10
113.09885923585578
 20
62.942594819029508
 40
3
 41
1
 50
0.0000029999998676
  1
2
  0
TEXT
  8
_0-5_031
 62
    7
 10
113.09885923585578
 20
57.812223022186174
 40
3
 41
1
 50
0.0000029999998676
  1
1
  0
TEXT
  8
_0-5_031
 62
    7
 10
110.02063615774979
 20
53.251892536103213
 40
3
 41
1
 50
0.0000029999998676
  1
部
  0
TEXT
  8
_0-5_031
 62
    7
 10
114.58096664383273
 20
53.137884273951144
 40
3
 41
1
 50
0.0000029999998676
  1
番
  0
TEXT
  8
_0-5_031
 62
    7
 10
130.20009855866686
 20
53.137884273951158
 40
3
 41
1
 50
0.0000030000000432
  1
部　品　名
  0
TEXT
  8
_0-5_031
 62
    7
 10
174.77732906012778
 20
53.251892536103213
 40
3
 41
1
 50
0.0000029999999511
  1
個数
  0
TEXT
  8
_0-5_031
 62
    7
 10
177.17703862660943
 20
73.612660944206012
 40
3
 41
1
 50
0.0000029999998676
  1
4
  0
TEXT
  8
_0-5_031
 62
    7
 10
183.42482979407526
 20
68.447515762396747
 40
3
 41
1
 50
0.0000030000000115
  1
φ10 C3604BD
  0
TEXT
  8
_0-5_031
 62
    7
 10
177.35765262613409
 20
68.100819924228659
 40
3
 41
1
 50
0.0000029999998676
  1
4
  0
TEXT
  8
_0-5_031
 62
    7
 10
184.11822147041141
 20
56.833205183766494
 40
3
 41
1
 50
0.0000030000000424
  1
t0.5 SUS430CP(BA)
  0
TEXT
  8
_0-5_031
 62
    7
 10
177.01095678796605
 20
57.699944779186651
 40
3
 41
1
 50
0.0000029999998676
  1
1
  0
TEXT
  8
_0-5_031
 62
    7
 10
177.1843047070501
 20
62.900382351707648
 40
3
 41
1
 50
0.0000029999998676
  1
1
  0
TEXT
  8
_0-5_031
 62
    7
 10
189.66535488110048
 20
53.192898883001788
 40
3
 41
1
 50
0.0000029999999279
  1
材　　質
  0
TEXT
  8
_0-5_031
 62
    7
 10
227.10850540325174
 20
53.019550963917765
 40
3
 41
1
 50
0.0000029999999279
  1
仕　　上
  0
TEXT
  8
_0-5_031
 62
    7
 10
220.86798031622652
 20
62.900382351707648
 40
3
 41
1
 50
0.0000029999999762
  1
カシメ
  0
TEXT
  8
_0-5_031
 62
    7
 10
119.17537850722064
 20
62.583096839132693
 40
3
 41
1
 50
0.0000030000000354
  1
横壁用防熱板裏板
  0
TEXT
  8
_0-5_031
 62
    7
 10
119.66151388908303
 20
57.818970096881088
 40
3
 41
1
 50
0.0000030000000354
  1
横壁用防熱板本体
  0
TEXT
  8
_0-5_031
 62
    7
 10
119.56428681271059
 20
68.416721421481597
 40
3
 41
1
 50
0.0000030000000092
  1
防熱カシメピン（Ａ）
  0
TEXT
  8
_0-2_011
 62
    7
 10
307.17642616367959
 20
83.544755843725241
 40
3
 41
1
 50
0.0000030000000373
  1
メーカー市販品
  0
TEXT
  8
_0-2_011
 62
    7
 10
249.5574195509219
 20
72.987631011807181
 40
3
 41
1
 50
0.0000029999999511
  1
品名
  0
TEXT
  8
_0-2_011
 62
    3
 10
261.8952642340069
 20
71.715688260973692
 40
5
 41
1
 50
0.0000030000000012
  1
LP0106
  0
TEXT
  8
_0-2_011
 62
    7
 10
249.5574195509219
 20
67.26388863305641
 40
3
 41
1
 50
0.0000029999999511
  1
名称
  0
TEXT
  8
_0-2_011
 62
    3
 10
259.60576728250663
 20
66.373528707472971
 40
5
 41
1
 50
0.0000030000000263
  1
横壁用防熱板
  0
TEXT
  8
_0-2_011
 62
    7
 10
327.65470445209894
 20
72.606048186557131
 40
3
 41
1
 50
0.0000030000000795
  1
H.11.8
  0
TEXT
  8
_0-2_011
 62
    7
 10
317.60635672051432
 20
72.351659636390422
 40
3
 41
1
 50
0.0000029999999511
  1
作成
  0
TEXT
  8
_0-2_011
 62
    7
 10
316.71599679493084
 20
66.627917257639666
 40
3
 41
1
 50
0.0000029999999511
  1
尺度
  0
TEXT
  8
_0-2_011
 62
    7
 10
328.41787010259906
 20
66.246334432389616
 40
3
 41
1
 50
0.0000030000001089
  1
Free
  0
ENDSEC
  0
EOF
