  0
SECTION
  2
HEADER
  9
$ACADVER
  1
AC1009
  9
$INSBASE
 10
0
 20
0
 30
0
  9
$EXTMIN
 10
0
 20
0
  9
$EXTMAX
 10
420
 20
297
  9
$LIMMIN
 10
0
 20
0
  9
$LIMMAX
 10
420
 20
297
  9
$LTSCALE
 40
1
  0
ENDSEC
  0
SECTION
  2
TABLES
  0
TABLE
  2
LTYPE
 70
     9
  0
LTYPE
  2
CONTINUOUS
 70
    64
  3
実線
 72
    65
 73
     0
 40
0.0
  0
LTYPE
  2
DASHED1
 70
    64
  3
--  --  --  --  --  --  --  --  
 72
    65
 73
     2
 40
2.5
 49
1.25
 49
-1.25
  0
LTYPE
  2
DASHED2
 70
    64
  3
----    ----    ----    ----    
 72
    65
 73
     2
 40
5.0
 49
2.5
 49
-2.5
  0
LTYPE
  2
DASHED3
 70
    64
  3
------  ------  ------  ------  
 72
    65
 73
     2
 40
5.0
 49
3.75
 49
-1.25
  0
LTYPE
  2
CENTER1
 70
    64
  3
----- - ----- - ----- - ----- - 
 72
    65
 73
     4
 40
10.0
 49
6.25
 49
-1.25
 49
1.25
 49
-1.25
  0
LTYPE
  2
CENTER2
 70
    64
  3
----------  --  ----------  --  
 72
    65
 73
     4
 40
20.0
 49
12.5
 49
-2.5
 49
2.5
 49
-2.5
  0
LTYPE
  2
PHANTOM1
 70
    64
  3
--- - - --- - - --- - - --- - - 
 72
    65
 73
     6
 40
10.0
 49
3.25
 49
-1.25
 49
1.25
 49
-1.25
 49
1.25
 49
-1.25
  0
LTYPE
  2
PHANTOM2
 70
    64
  3
--------  -  -  --------  -  -  
 72
    65
 73
     6
 40
20.0
 49
10.0
 49
-2.5
 49
1.25
 49
-2.5
 49
1.25
 49
-2.5
  0
LTYPE
  2
DOT
 70
    64
  3
-   -   -   -   -   -   -   -   
 72
    65
 73
     2
 40
2.5
 49
0.625
 49
-1.875
  0
LTYPE
  2
DUMMY
 70
    64
  3
ダミー
 72
    65
 73
     0
 40
0.0
  0
LTYPE
  2
RAND1
 70
    64
  3
ランダム線1
 72
    65
 73
     4
 40
10.0
 49
1.0
 49
-2.0
 49
3.0
 49
-4.0
  0
LTYPE
  2
RAND2
 70
    64
  3
ランダム線2
 72
    65
 73
     4
 40
14.0
 49
2.0
 49
-3.0
 49
4.0
 49
-5.0
  0
LTYPE
  2
RAND3
 70
    64
  3
ランダム線3
 72
    65
 73
     4
 40
18.0
 49
3.0
 49
-4.0
 49
5.0
 49
-6.0
  0
LTYPE
  2
RAND4
 70
    64
  3
ランダム線4
 72
    65
 73
     4
 40
22.0
 49
4.0
 49
-5.0
 49
6.0
 49
-7.0
  0
LTYPE
  2
RAND5
 70
    64
  3
ランダム線5
 72
    65
 73
     4
 40
26.0
 49
5.0
 49
-6.0
 49
7.0
 49
-8.0
  0
LTYPE
  2
LONG1
 70
    64
  3
----------  --  ----------  --  
 72
    65
 73
     4
 40
40.0
 49
32.5
 49
-2.5
 49
2.5
 49
-2.5
  0
LTYPE
  2
LONG2
 70
    64
  3
--------  -  -  --------  -  -  
 72
    65
 73
     6
 40
40.0
 49
30.0
 49
-2.5
 49
1.25
 49
-2.5
 49
1.25
 49
-2.5
  0
LTYPE
  2
LONG3
 70
    64
  3
+++++++++++++++..+++++++++++++++
 72
    65
 73
     2
 40
40.0
 49
37.5
 49
-2.5
  0
LTYPE
  2
LONG4
 70
    64
  3
+++++++++++++++..+++++++++++++++
 72
    65
 73
     2
 40
80.0
 49
75.0
 49
-5.0
  0
LTYPE
  2
LONG5
 70
    64
  3
----------  --  ----------  --  
 72
    65
 73
     4
 40
60.0
 49
37.5
 49
-7.5
 49
7.5
 49
-7.5
  0
LTYPE
  2
dashed
 70
   64
  3
-------   -------------   ------
 72
   65
 73
    2
 40
7.5
 49
6
 49
-1.5
  0
LTYPE
  2
dashed_spaced
 70
   64
  3
----        --------        ----
 72
   65
 73
    2
 40
12
 49
6
 49
-6
  0
LTYPE
  2
long_dashed_dotted
 70
   64
  3
------------- --- --------------
 72
   65
 73
    4
 40
15.25
 49
12
 49
-1.5
 49
0.25
 49
-1.5
  0
LTYPE
  2
long_dashed_double-dotted
 70
   64
  3
----------- --- --- ------------
 72
   65
 73
    6
 40
17
 49
12
 49
-1.5
 49
0.25
 49
-1.5
 49
0.25
 49
-1.5
  0
LTYPE
  2
long_dashed_triplicate-dotted
 70
   64
  3
--------- --- --- --- ----------
 72
   65
 73
    8
 40
18.75
 49
12
 49
-1.5
 49
0.25
 49
-1.5
 49
0.25
 49
-1.5
 49
0.25
 49
-1.5
  0
LTYPE
  2
dotted
 70
   64
  3
   -       -       -       -    
 72
   65
 73
    2
 40
1.75
 49
0.25
 49
-1.5
  0
LTYPE
  2
chain
 70
   64
  3
-------------- -- --------------
 72
   65
 73
    4
 40
18.5
 49
12
 49
-1.5
 49
3.5
 49
-1.5
  0
LTYPE
  2
chain_double_dash
 70
   64
  3
------------ -- -- -------------
 72
   65
 73
    6
 40
23.5
 49
12
 49
-1.5
 49
3.5
 49
-1.5
 49
3.5
 49
-1.5
  0
LTYPE
  2
dashed_dotted
 70
   64
  3
-----------     -     ----------
 72
   65
 73
    4
 40
9.25
 49
6
 49
-1.5
 49
0.25
 49
-1.5
  0
LTYPE
  2
double-dashed_dotted
 70
   64
  3
------   -----------   -   -----
 72
   65
 73
    6
 40
16.75
 49
6
 49
-1.5
 49
6
 49
-1.5
 49
0.25
 49
-1.5
  0
LTYPE
  2
dashed_double-dotted
 70
   64
  3
---------    -    -    ---------
 72
   65
 73
    6
 40
11
 49
6
 49
-1.5
 49
0.25
 49
-1.5
 49
0.25
 49
-1.5
  0
LTYPE
  2
double-dashed_double-dotted
 70
   64
  3
-----   ---------   -   -   ----
 72
   65
 73
    8
 40
18.5
 49
6
 49
-1.5
 49
6
 49
-1.5
 49
0.25
 49
-1.5
 49
0.25
 49
-1.5
  0
LTYPE
  2
dashed_triplicate-dotted
 70
   64
  3
-------    -    -    -    ------
 72
   65
 73
    8
 40
12.75
 49
6
 49
-1.5
 49
0.25
 49
-1.5
 49
0.25
 49
-1.5
 49
0.25
 49
-1.5
  0
LTYPE
  2
double-dashed_triplicate-dotted
 70
   64
  3
-----  ---------  -  -  -  -----
 72
   65
 73
   10
 40
20.25
 49
6
 49
-1.5
 49
6
 49
-1.5
 49
0.25
 49
-1.5
 49
0.25
 49
-1.5
 49
0.25
 49
-1.5
  0
LTYPE
  2
undefined
 70
   64
  3
--------------------------------
 72
   65
 73
    0
 40
0
  0
LTYPE
  2
DASHED
 70
   64
  3
------     -----------     -----
 72
   65
 73
    2
 40
0.75
 49
0.5
 49
-0.25
  0
LTYPE
  2
HIDDEN
 70
   64
  3
------     -----------     -----
 72
   65
 73
    2
 40
0.375
 49
0.25
 49
-0.125
  0
LTYPE
  2
CENTER
 70
   64
  3
----------    ----    ----------
 72
   65
 73
    4
 40
2
 49
1.25
 49
-0.25
 49
0.25
 49
-0.25
  0
LTYPE
  2
PHANTOM
 70
   64
  3
---------   ---   ---   --------
 72
   65
 73
    6
 40
2.5
 49
1.25
 49
-0.25
 49
0.25
 49
-0.25
 49
0.25
 49
-0.25
  0
LTYPE
  2
_
 70
   64
  3
                                
 72
   65
 73
    0
 40
0
  0
LTYPE
  2
__22
 70
   64
  3
                                
 72
   65
 73
    0
 40
0
  0
LTYPE
  2
__23
 70
   64
  3
                                
 72
   65
 73
    0
 40
0
  0
LTYPE
  2
__24
 70
   64
  3
                                
 72
   65
 73
    0
 40
0
  0
LTYPE
  2
__25
 70
   64
  3
                                
 72
   65
 73
    0
 40
0
  0
LTYPE
  2
__26
 70
   64
  3
                                
 72
   65
 73
    0
 40
0
  0
LTYPE
  2
__27
 70
   64
  3
                                
 72
   65
 73
    0
 40
0
  0
LTYPE
  2
__28
 70
   64
  3
                                
 72
   65
 73
    0
 40
0
  0
LTYPE
  2
__29
 70
   64
  3
                                
 72
   65
 73
    0
 40
0
  0
LTYPE
  2
__30
 70
   64
  3
                                
 72
   65
 73
    0
 40
0
  0
LTYPE
  2
__31
 70
   64
  3
                                
 72
   65
 73
    0
 40
0
  0
LTYPE
  2
__32
 70
   64
  3
                                
 72
   65
 73
    0
 40
0
  0
ENDTAB
  0
TABLE
  2
STYLE
  5
3
100
AcDbSymbolTable
 70
     1
  0
STYLE
  5
10
100
AcDbSymbolTableRecord
100
AcDbTextStyleTableRecord
  2
STANDARD
 70
     0
 40
0.0
 41
1.0
 50
0.0
 71
     0
 42
0.2
  3
txt
  4
bigfont.shx
  0
STYLE
  5
26
100
AcDbSymbolTableRecord
100
AcDbTextStyleTableRecord
  2
TATEGAKI
 70
    68
 40
0.0
 41
1.0
 50
0.0
 71
     0
 42
1.0
  3
txt
  4
bigfont.shx
  0
ENDTAB
  0
TABLE
  2
LAYER
 70
    7
  0
LAYER
  2
_0-0_0
 70
   64
 62
    7
  6
CONTINUOUS
  0
LAYER
  2
_0-1_H0
 70
   64
 62
    7
  6
CONTINUOUS
  0
LAYER
  2
_0-3_A0
 70
   64
 62
    7
  6
CONTINUOUS
  0
LAYER
  2
_0-4_A2
 70
   64
 62
    7
  6
CONTINUOUS
  0
LAYER
  2
_0-5_A30
 70
   64
 62
    7
  6
CONTINUOUS
  0
LAYER
  2
_0-6_A50
 70
   64
 62
    7
  6
CONTINUOUS
  0
LAYER
  2
ADD_LINE
 70
   64
 62
    7
  6
CONTINUOUS
  0
ENDTAB
  0
ENDSEC
  0
SECTION
  2
BLOCKS
  0
BLOCK
  2
-000-_OPEN
 70
   64
 10
0
 20
0
 30
0
  0
LINE
  8
_0-0_0
  6
CONTINUOUS
 62
    7
 10
-1
 20
0.166667
 11
0
 21
0
  0
LINE
  8
_0-0_0
  6
CONTINUOUS
 62
    7
 10
0
 20
0
 11
-1
 21
-0.166667
  0
LINE
  8
_0-0_0
  6
CONTINUOUS
 62
    7
 10
0
 20
0
 11
-1
 21
0
  0
ENDBLK
  0
BLOCK
  2
-001-_D2
 70
   64
 10
0
 20
0
 30
0
  0
LINE
  8
_0-1_H0
  6
CONTINUOUS
 62
    7
 10
332.74355747098178
 20
151.54978017697519
 11
342.49737916505841
 21
151.54978017697519
  0
LINE
  8
_0-1_H0
  6
CONTINUOUS
 62
    7
 10
341.49737916505841
 20
151.54978017697519
 11
341.49737916505841
 21
141.54978017697519
  0
INSERT
  2
-000-_OPEN
  8
_0-1_H0
 10
341.49737916505841
 20
151.54978017697519
 41
3
 42
3
 50
270
  0
INSERT
  2
-000-_OPEN
  8
_0-1_H0
 10
341.49737916505841
 20
141.54978017697519
 41
3
 42
3
 50
90
  0
LINE
  8
_0-1_H0
  6
CONTINUOUS
 62
    7
 10
341.49737916505841
 20
154.54978017697519
 11
341.49737916505841
 21
156.54978017697519
  0
LINE
  8
_0-1_H0
  6
CONTINUOUS
 62
    7
 10
341.49737916505841
 20
138.54978017697519
 11
341.49737916505841
 21
136.54978017697519
  0
LINE
  8
_0-1_H0
  6
CONTINUOUS
 62
    7
 10
336.39539453048331
 20
141.54978017697519
 11
342.49737916505841
 21
141.54978017697519
  0
TEXT
  8
_0-1_H0
 62
    7
 10
340.99737916505841
 20
144.54978017697519
 40
4
 41
1
 50
90
  1
10
  0
ENDBLK
  0
BLOCK
  2
-002-D3
 70
   64
 10
0
 20
0
 30
0
  0
LINE
  8
_0-1_H0
  6
CONTINUOUS
 62
    7
 10
250.65236379514681
 20
-1.4105116966713919
 11
250.65236379517139
 21
-12.52984504716994
  0
LINE
  8
_0-1_H0
  6
CONTINUOUS
 62
    7
 10
251.2523638190066
 20
-9.5298450471686138
 11
250.65236379517139
 21
-12.52984504716994
  0
LINE
  8
_0-1_H0
  6
CONTINUOUS
 62
    7
 10
250.65236379517139
 20
-12.52984504716994
 11
250.05236377132288
 21
-9.5298450471712712
  0
LINE
  8
_0-1_H0
  6
CONTINUOUS
 62
    7
 10
241.89854210108939
 20
-12.529845047189379
 11
251.65236379517131
 21
-12.529845047167729
  0
TEXT
  8
_0-1_H0
 62
    7
 10
250.15236379515269
 20
-6.080511362516944
 40
4
 41
1
 50
90
  1
50
  0
ENDBLK
  0
BLOCK
  2
-005-_D6
 70
   64
 10
0
 20
0
 30
0
  0
LINE
  8
_0-3_A0
  6
CONTINUOUS
 62
    7
 10
274.5453180144388
 20
163.96234861194548
 11
285.1826788101136
 21
163.96234861194548
  0
LINE
  8
_0-3_A0
  6
CONTINUOUS
 62
    7
 10
284.1826788101136
 20
163.96234861194548
 11
284.1826788101136
 21
168.96234861194548
  0
INSERT
  2
-000-_OPEN
  8
_0-3_A0
 10
284.1826788101136
 20
163.96234861194548
 41
3
 42
3
 50
90
  0
INSERT
  2
-000-_OPEN
  8
_0-3_A0
 10
284.1826788101136
 20
168.96234861194548
 41
3
 42
3
 50
270
  0
LINE
  8
_0-3_A0
  6
CONTINUOUS
 62
    7
 10
284.1826788101136
 20
160.96234861194548
 11
284.1826788101136
 21
158.96234861194548
  0
LINE
  8
_0-3_A0
  6
CONTINUOUS
 62
    7
 10
284.1826788101136
 20
171.96234861194548
 11
284.1826788101136
 21
173.96234861194548
  0
LINE
  8
_0-3_A0
  6
CONTINUOUS
 62
    7
 10
276.48267882203447
 20
168.96234861194548
 11
285.1826788101136
 21
168.96234861194548
  0
TEXT
  8
_0-3_A0
 62
    7
 10
283.6826788101136
 20
164.46234861194548
 40
4
 41
1
 50
90
  1
50
  0
ENDBLK
  0
BLOCK
  2
-006-_D7
 70
   64
 10
0
 20
0
 30
0
  0
LINE
  8
_0-3_A0
  6
CONTINUOUS
 62
    7
 10
284.1826788101136
 20
160.96234861194548
 11
284.1826788101136
 21
131.96234861194548
  0
INSERT
  2
-000-_OPEN
  8
_0-3_A0
 10
284.1826788101136
 20
163.96234861194548
 41
3
 42
3
 50
90
  0
INSERT
  2
-000-_OPEN
  8
_0-3_A0
 10
284.1826788101136
 20
128.96234861194548
 41
3
 42
3
 50
270
  0
LINE
  8
_0-3_A0
  6
CONTINUOUS
 62
    7
 10
273.99250037142377
 20
128.96234861194548
 11
285.1826788101136
 21
128.96234861194548
  0
TEXT
  8
_0-3_A0
 62
    7
 10
283.6826788101136
 20
143.46234861194548
 40
4
 41
1
 50
90
  1
350
  0
ENDBLK
  0
BLOCK
  2
-007-_D8
 70
   64
 10
0
 20
0
 30
0
  0
LINE
  8
_0-3_A0
  6
CONTINUOUS
 62
    7
 10
271.1826788101136
 20
166.15768835456
 11
271.1826788101136
 21
177.96234861194548
  0
LINE
  8
_0-3_A0
  6
CONTINUOUS
 62
    7
 10
271.1826788101136
 20
176.96234861194548
 11
276.1826788101136
 21
176.96234861194548
  0
INSERT
  2
-000-_OPEN
  8
_0-3_A0
 10
271.1826788101136
 20
176.96234861194548
 41
3
 42
3
 50
0
  0
INSERT
  2
-000-_OPEN
  8
_0-3_A0
 10
276.1826788101136
 20
176.96234861194548
 41
3
 42
3
 50
180
  0
LINE
  8
_0-3_A0
  6
CONTINUOUS
 62
    7
 10
268.1826788101136
 20
176.96234861194548
 11
266.1826788101136
 21
176.96234861194548
  0
LINE
  8
_0-3_A0
  6
CONTINUOUS
 62
    7
 10
279.1826788101136
 20
176.96234861194548
 11
281.1826788101136
 21
176.96234861194548
  0
LINE
  8
_0-3_A0
  6
CONTINUOUS
 62
    7
 10
276.1826788101136
 20
169.2623486321774
 11
276.1826788101136
 21
177.96234861194548
  0
TEXT
  8
_0-3_A0
 62
    7
 10
271.6826788101136
 20
177.46234861194548
 40
4
 41
1
 50
0
  1
50
  0
ENDBLK
  0
BLOCK
  2
-008-_D9
 70
   64
 10
0
 20
0
 30
0
  0
LINE
  8
_0-3_A0
  6
CONTINUOUS
 62
    7
 10
151.77154813805981
 20
108.73887661448969
 11
151.77154813805981
 21
99.962348618895958
  0
LINE
  8
_0-3_A0
  6
CONTINUOUS
 62
    7
 10
154.77154813805981
 20
100.962348618896
 11
186.77154813807828
 21
100.962348618896
  0
INSERT
  2
-000-_OPEN
  8
_0-3_A0
 10
151.77154813805981
 20
100.962348618896
 41
3
 42
3
 50
180
  0
INSERT
  2
-000-_OPEN
  8
_0-3_A0
 10
189.77154813807828
 20
100.962348618896
 41
3
 42
3
 50
0
  0
LINE
  8
_0-3_A0
  6
CONTINUOUS
 62
    7
 10
189.77154813807828
 20
108.66234859945009
 11
189.77154813807828
 21
99.962348618895958
  0
TEXT
  8
_0-3_A0
 62
    7
 10
167.7715481380691
 20
101.462348618896
 40
4
 41
1
 50
0
  1
380
  0
ENDBLK
  0
BLOCK
  2
-009-_D10
 70
   64
 10
0
 20
0
 30
0
  0
LINE
  8
_0-3_A0
  6
CONTINUOUS
 62
    7
 10
151.77154813807828
 20
108.66234860266129
 11
151.77154813807828
 21
99.962348618895958
  0
LINE
  8
_0-3_A0
  6
CONTINUOUS
 62
    7
 10
148.77154813807828
 20
100.962348618896
 11
133.6715481380782
 21
100.962348618896
  0
INSERT
  2
-000-_OPEN
  8
_0-3_A0
 10
151.77154813807828
 20
100.962348618896
 41
3
 42
3
 50
360
  0
INSERT
  2
-000-_OPEN
  8
_0-3_A0
 10
130.6715481380782
 20
100.962348618896
 41
3
 42
3
 50
180
  0
LINE
  8
_0-3_A0
  6
CONTINUOUS
 62
    7
 10
130.6715481380782
 20
115.6981770842312
 11
130.6715481380782
 21
99.962348618895958
  0
TEXT
  8
_0-3_A0
 62
    7
 10
138.2215481380783
 20
101.462348618896
 40
4
 41
1
 50
0
  1
210
  0
ENDBLK
  0
BLOCK
  2
-010-_D11
 70
   64
 10
0
 20
0
 30
0
  0
LINE
  8
_0-3_A0
  6
CONTINUOUS
 62
    7
 10
151.4715481261573
 20
108.96234861458219
 11
125.21384414316629
 21
108.96234861458219
  0
LINE
  8
_0-3_A0
  6
CONTINUOUS
 62
    7
 10
126.21384414316629
 20
108.96234861458219
 11
126.21384414316629
 21
115.9981770961521
  0
INSERT
  2
-000-_OPEN
  8
_0-3_A0
 10
126.21384414316629
 20
108.96234861458219
 41
3
 42
3
 50
90
  0
INSERT
  2
-000-_OPEN
  8
_0-3_A0
 10
126.21384414316629
 20
115.9981770961521
 41
3
 42
3
 50
270
  0
LINE
  8
_0-3_A0
  6
CONTINUOUS
 62
    7
 10
126.21384414316629
 20
105.96234861458219
 11
126.21384414316629
 21
103.96234861458219
  0
LINE
  8
_0-3_A0
  6
CONTINUOUS
 62
    7
 10
126.21384414316629
 20
118.9981770961521
 11
126.21384414316629
 21
120.9981770961521
  0
LINE
  8
_0-3_A0
  6
CONTINUOUS
 62
    7
 10
130.3715481261573
 20
115.9981770961521
 11
125.21384414316629
 21
115.9981770961521
  0
TEXT
  8
_0-3_A0
 62
    7
 10
125.71384414316629
 20
110.4802628553671
 40
4
 41
1
 50
90
  1
70
  0
ENDBLK
  0
BLOCK
  2
-011-_D12
 70
   64
 10
0
 20
0
 30
0
  0
LINE
  8
_0-3_A0
  6
CONTINUOUS
 62
    7
 10
221.18267881011348
 20
166.15768835456
 11
221.1826788101136
 21
177.96234861194548
  0
LINE
  8
_0-3_A0
  6
CONTINUOUS
 62
    7
 10
221.1826788101136
 20
176.96234861194548
 11
216.18267881011371
 21
176.96234861194548
  0
INSERT
  2
-000-_OPEN
  8
_0-3_A0
 10
221.1826788101136
 20
176.96234861194548
 41
3
 42
3
 50
180
  0
INSERT
  2
-000-_OPEN
  8
_0-3_A0
 10
216.18267881011371
 20
176.96234861194548
 41
3
 42
3
 50
360
  0
LINE
  8
_0-3_A0
  6
CONTINUOUS
 62
    7
 10
224.1826788101136
 20
176.96234861194548
 11
226.1826788101136
 21
176.96234861194548
  0
LINE
  8
_0-3_A0
  6
CONTINUOUS
 62
    7
 10
213.18267881011371
 20
176.96234861194548
 11
211.18267881011371
 21
176.96234861194548
  0
LINE
  8
_0-3_A0
  6
CONTINUOUS
 62
    7
 10
216.18267881011371
 20
169.26234863217729
 11
216.18267881011371
 21
177.96234861194548
  0
TEXT
  8
_0-3_A0
 62
    7
 10
216.6826788101136
 20
177.46234861194548
 40
4
 41
1
 50
0
  1
50
  0
ENDBLK
  0
BLOCK
  2
-012-_D13
 70
   64
 10
0
 20
0
 30
0
  0
LINE
  8
_0-3_A0
  6
CONTINUOUS
 62
    7
 10
185.6573345934569
 20
161.96234861051161
 11
197.46086710905561
 21
161.96234861051161
  0
LINE
  8
_0-3_A0
  6
CONTINUOUS
 62
    7
 10
196.46086710905569
 20
158.96234861051161
 11
196.46086710905569
 21
132.96234861297651
  0
INSERT
  2
-000-_OPEN
  8
_0-3_A0
 10
196.46086710905569
 20
161.96234861051161
 41
3
 42
3
 50
90
  0
INSERT
  2
-000-_OPEN
  8
_0-3_A0
 10
196.46086710905569
 20
129.96234861297651
 41
3
 42
3
 50
270
  0
LINE
  8
_0-3_A0
  6
CONTINUOUS
 62
    7
 10
185.65733459075289
 20
129.96234861297651
 11
197.46086710905569
 21
129.96234861297651
  0
TEXT
  8
_0-3_A0
 62
    7
 10
195.96086710905569
 20
142.962348611744
 40
4
 41
1
 50
90
  1
320
  0
ENDBLK
  0
BLOCK
  2
-013-_D14
 70
   64
 10
0
 20
0
 30
0
  0
LINE
  8
_0-3_A0
  6
CONTINUOUS
 62
    7
 10
111.30017186115769
 20
168.96234861580751
 11
120.0001718492368
 21
168.96234861580751
  0
LINE
  8
_0-3_A0
  6
CONTINUOUS
 62
    7
 10
119.0001718492368
 20
165.96234861580751
 11
119.0001718492368
 21
111.96234861833839
  0
INSERT
  2
-000-_OPEN
  8
_0-3_A0
 10
119.0001718492368
 20
168.96234861580751
 41
3
 42
3
 50
90
  0
INSERT
  2
-000-_OPEN
  8
_0-3_A0
 10
119.0001718492368
 20
108.96234861833839
 41
3
 42
3
 50
270
  0
LINE
  8
_0-3_A0
  6
CONTINUOUS
 62
    7
 10
111.25017186115769
 20
108.96234861833839
 11
120.0001718492368
 21
108.96234861833839
  0
TEXT
  8
_0-3_A0
 62
    7
 10
118.5001718492368
 20
135.9623486170729
 40
4
 41
1
 50
90
  1
600
  0
ENDBLK
  0
BLOCK
  2
-014-_D15
 70
   64
 10
0
 20
0
 30
0
  0
LINE
  8
_0-3_A0
  6
CONTINUOUS
 62
    7
 10
154.77154814120498
 20
160.8481350625245
 11
154.77154814120498
 21
177.9623486121458
  0
LINE
  8
_0-3_A0
  6
CONTINUOUS
 62
    7
 10
157.77154814120498
 20
176.9623486121458
 11
183.77154814367008
 21
176.9623486121458
  0
INSERT
  2
-000-_OPEN
  8
_0-3_A0
 10
154.77154814120498
 20
176.9623486121458
 41
3
 42
3
 50
180
  0
INSERT
  2
-000-_OPEN
  8
_0-3_A0
 10
186.77154814367008
 20
176.9623486121458
 41
3
 42
3
 50
0
  0
LINE
  8
_0-3_A0
  6
CONTINUOUS
 62
    7
 10
186.77154814367008
 20
160.8481350598204
 11
186.77154814367008
 21
177.9623486121458
  0
TEXT
  8
_0-3_A0
 62
    7
 10
167.77154814243749
 20
177.4623486121458
 40
4
 41
1
 50
0
  1
320
  0
ENDBLK
  0
BLOCK
  2
-015-_D16
 70
   64
 10
0
 20
0
 30
0
  0
LINE
  8
_0-3_A0
  6
CONTINUOUS
 62
    7
 10
151.77154812369539
 20
169.1623485105195
 11
151.77154812499239
 21
184.87129923503678
  0
LINE
  8
_0-3_A0
  6
CONTINUOUS
 62
    7
 10
151.77154812490979
 20
183.87129923503678
 11
148.29918997864049
 21
183.8712992353235
  0
INSERT
  2
-000-_OPEN
  8
_0-3_A0
 10
151.77154812490979
 20
183.87129923503678
 41
3
 42
3
 50
179.99999999526949
  0
INSERT
  2
-000-_OPEN
  8
_0-3_A0
 10
148.29918997864049
 20
183.8712992353235
 41
3
 42
3
 50
359.99999999526949
  0
LINE
  8
_0-3_A0
  6
CONTINUOUS
 62
    7
 10
154.77154812490979
 20
183.871299234789
 11
156.77154812490979
 21
183.8712992346239
  0
LINE
  8
_0-3_A0
  6
CONTINUOUS
 62
    7
 10
145.29918997864049
 20
183.87129923557108
 11
143.29918997864049
 21
183.8712992357363
  0
LINE
  8
_0-3_A0
  6
CONTINUOUS
 62
    7
 10
148.29918997742609
 20
169.16234851080619
 11
148.29918997872309
 21
184.8712992353235
  0
TEXT
  8
_0-3_A0
 62
    7
 10
148.0353690518165
 20
184.37129923518
 40
4
 41
1
 50
0
  1
35
  0
ENDBLK
  0
BLOCK
  2
-016-_D17
 70
   64
 10
0
 20
0
 30
0
  0
LINE
  8
_0-3_A0
  6
CONTINUOUS
 62
    7
 10
190.0715481550695
 20
168.96234861137099
 11
205.63236396331188
 21
168.96234861137099
  0
LINE
  8
_0-3_A0
  6
CONTINUOUS
 62
    7
 10
204.63236396331188
 20
165.96234861137099
 11
204.63236396331188
 21
148.96234861461999
  0
INSERT
  2
-000-_OPEN
  8
_0-3_A0
 10
204.63236396331188
 20
168.96234861137099
 41
3
 42
3
 50
90
  0
INSERT
  2
-000-_OPEN
  8
_0-3_A0
 10
204.63236396331188
 20
145.96234861461999
 41
3
 42
3
 50
270
  0
TEXT
  8
_0-3_A0
 62
    7
 10
204.13236396331188
 20
154.46234861299561
 40
4
 41
1
 50
90
  1
230
  0
ENDBLK
  0
BLOCK
  2
-017-_D18
 70
   64
 10
0
 20
0
 30
0
  0
LINE
  8
_0-3_A0
  6
CONTINUOUS
 62
    7
 10
170.77154814437818
 20
183.8143530168364
 11
170.77154814437818
 21
184.8712992351248
  0
LINE
  8
_0-3_A0
  6
CONTINUOUS
 62
    7
 10
173.77154814437818
 20
183.8712992351248
 11
186.77154814314849
 21
183.8712992351248
  0
INSERT
  2
-000-_OPEN
  8
_0-3_A0
 10
170.77154814437818
 20
183.8712992351248
 41
3
 42
3
 50
180
  0
INSERT
  2
-000-_OPEN
  8
_0-3_A0
 10
189.77154814314849
 20
183.8712992351248
 41
3
 42
3
 50
0
  0
LINE
  8
_0-3_A0
  6
CONTINUOUS
 62
    7
 10
189.77154814314849
 20
169.26234862329201
 11
189.77154814314849
 21
184.8712992351248
  0
TEXT
  8
_0-3_A0
 62
    7
 10
177.27154814376339
 20
184.3712992351248
 40
4
 41
1
 50
0
  1
190
  0
ENDBLK
  0
BLOCK
  2
-018-$$BALLOON$$0
 70
   64
 10
0
 20
0
 30
0
  0
TEXT
  8
_0-3_A0
 62
    7
 10
-4.6927355799027701
 20
-2.58143872220599
 40
3.2400000000000002
 41
1
 50
0
  1
1
  0
CIRCLE
  8
_0-3_A0
  6
CONTINUOUS
 62
    7
 10
-3.8827355799027696
 20
-0.9614387222059899
 40
4
  0
ENDBLK
  0
BLOCK
  2
-019-$$BALLOON$$1
 70
   64
 10
0
 20
0
 30
0
  0
TEXT
  8
_0-3_A0
 62
    7
 10
-2.7670034455093084
 20
1.8685724178042573
 40
3.2400000000000002
 41
1
 50
0
  1
2
  0
CIRCLE
  8
_0-3_A0
  6
CONTINUOUS
 62
    7
 10
-1.9570034455093079
 20
3.4885724178042583
 40
4
  0
ENDBLK
  0
BLOCK
  2
-020-_D19
 70
   64
 10
0
 20
0
 30
0
  0
LINE
  8
_0-3_A0
  6
CONTINUOUS
 62
    7
 10
111.30017187016089
 20
243.5407819757867
 11
120.462986493385
 21
243.5407819757867
  0
LINE
  8
_0-3_A0
  6
CONTINUOUS
 62
    7
 10
119.462986493385
 20
243.5407819757867
 11
119.462986493385
 21
237.54078197755549
  0
INSERT
  2
-000-_OPEN
  8
_0-3_A0
 10
119.462986493385
 20
243.5407819757867
 41
3
 42
3
 50
270
  0
INSERT
  2
-000-_OPEN
  8
_0-3_A0
 10
119.462986493385
 20
237.54078197755549
 41
3
 42
3
 50
90
  0
LINE
  8
_0-3_A0
  6
CONTINUOUS
 62
    7
 10
119.462986493385
 20
246.5407819757867
 11
119.462986493385
 21
248.5407819757867
  0
LINE
  8
_0-3_A0
  6
CONTINUOUS
 62
    7
 10
119.462986493385
 20
234.54078197755549
 11
119.462986493385
 21
232.54078197755549
  0
LINE
  8
_0-3_A0
  6
CONTINUOUS
 62
    7
 10
105.5084654996221
 20
237.54078197755549
 11
120.462986493385
 21
237.54078197755549
  0
TEXT
  8
_0-3_A0
 62
    7
 10
118.962986493385
 20
236.5512295383059
 40
4
 41
1
 50
90
  1
(60)
  0
ENDBLK
  0
BLOCK
  2
-021-_D20
 70
   64
 10
0
 20
0
 30
0
  0
LINE
  8
_0-3_A0
  6
CONTINUOUS
 62
    7
 10
103.5501718598302
 20
239.84078198970189
 11
103.5501718598302
 21
251.85110072086419
  0
LINE
  8
_0-3_A0
  6
CONTINUOUS
 62
    7
 10
103.5501718598302
 20
250.85110072086419
 11
111.00017185823999
 21
250.85110072086419
  0
INSERT
  2
-000-_OPEN
  8
_0-3_A0
 10
103.5501718598302
 20
250.85110072086419
 41
3
 42
3
 50
0
  0
INSERT
  2
-000-_OPEN
  8
_0-3_A0
 10
111.00017185823999
 20
250.85110072086419
 41
3
 42
3
 50
180
  0
LINE
  8
_0-3_A0
  6
CONTINUOUS
 62
    7
 10
100.5501718598302
 20
250.85110072086419
 11
98.550171859830157
 21
250.85110072086419
  0
LINE
  8
_0-3_A0
  6
CONTINUOUS
 62
    7
 10
114.00017185823999
 20
250.85110072086419
 11
116.00017185823999
 21
250.85110072086419
  0
LINE
  8
_0-3_A0
  6
CONTINUOUS
 62
    7
 10
111.00017185823999
 20
243.84078198770768
 11
111.00017185823999
 21
251.85110072086419
  0
TEXT
  8
_0-3_A0
 62
    7
 10
103.27517185903509
 20
251.35110072086419
 40
4
 41
1
 50
0
  1
(75)
  0
ENDBLK
  0
BLOCK
  2
-022-_D21
 70
   64
 10
0
 20
0
 30
0
  0
LINE
  8
_0-3_A0
  6
CONTINUOUS
 62
    7
 10
58.550171856386342
 20
239.840781992761
 11
58.55017185801924
 21
251.8511007239233
  0
LINE
  8
_0-3_A0
  6
CONTINUOUS
 62
    7
 10
58.550171857883277
 20
250.8511007239233
 11
51.100171859473491
 21
250.8511007249362
  0
INSERT
  2
-000-_OPEN
  8
_0-3_A0
 10
58.550171857883277
 20
250.8511007239233
 41
3
 42
3
 50
179.99999999221006
  0
INSERT
  2
-000-_OPEN
  8
_0-3_A0
 10
51.100171859473491
 20
250.8511007249362
 41
3
 42
3
 50
359.99999999221012
  0
LINE
  8
_0-3_A0
  6
CONTINUOUS
 62
    7
 10
61.550171857883277
 20
250.8511007235154
 11
63.550171857883277
 21
250.85110072324349
  0
LINE
  8
_0-3_A0
  6
CONTINUOUS
 62
    7
 10
48.100171859473491
 20
250.85110072534411
 11
46.100171859473491
 21
250.85110072561599
  0
LINE
  8
_0-3_A0
  6
CONTINUOUS
 62
    7
 10
51.100171858520383
 20
243.84078199177969
 11
51.100171859609453
 21
251.8511007249362
  0
TEXT
  8
_0-3_A0
 62
    7
 10
50.825171858746372
 20
251.35110072442969
 40
4
 41
1
 50
0
  1
(75)
  0
ENDBLK
  0
BLOCK
  2
-023-_D22
 70
   64
 10
0
 20
0
 30
0
  0
LINE
  8
_0-3_A0
  6
CONTINUOUS
 62
    7
 10
50.800171846558662
 20
243.54078197989949
 11
41.63735722333461
 21
243.54078198114518
  0
LINE
  8
_0-3_A0
  6
CONTINUOUS
 62
    7
 10
42.63735722333461
 20
243.5407819810093
 11
42.637357222518858
 21
237.54078198277809
  0
INSERT
  2
-000-_OPEN
  8
_0-3_A0
 10
42.63735722333461
 20
243.5407819810093
 41
3
 42
3
 50
269.99999999221012
  0
INSERT
  2
-000-_OPEN
  8
_0-3_A0
 10
42.637357222518858
 20
237.54078198277809
 41
3
 42
3
 50
89.999999992210121
  0
LINE
  8
_0-3_A0
  6
CONTINUOUS
 62
    7
 10
42.637357223742476
 20
246.5407819810093
 11
42.637357224014408
 21
248.5407819810093
  0
LINE
  8
_0-3_A0
  6
CONTINUOUS
 62
    7
 10
42.637357222110992
 20
234.54078198277809
 11
42.637357221839067
 21
232.54078198277809
  0
LINE
  8
_0-3_A0
  6
CONTINUOUS
 62
    7
 10
56.591878216281692
 20
237.5407819808808
 11
41.637357222518858
 21
237.54078198291401
  0
TEXT
  8
_0-3_A0
 62
    7
 10
42.137357222928159
 20
236.5512295435964
 40
4
 41
1
 50
90
  1
(60)
  0
ENDBLK
  0
BLOCK
  2
-024-_D23
 70
   64
 10
0
 20
0
 30
0
  0
LINE
  8
_0-3_A0
  6
CONTINUOUS
 62
    7
 10
130.67154813805299
 20
115.6981770842312
 11
130.67154813611719
 21
92.790138816262071
  0
LINE
  8
_0-3_A0
  6
CONTINUOUS
 62
    7
 10
133.67154813620169
 20
93.79013881600855
 11
186.77154813679621
 21
93.79013881152143
  0
INSERT
  2
-000-_OPEN
  8
_0-3_A0
 10
130.67154813620169
 20
93.790138816262071
 41
3
 42
3
 50
179.9999999951583
  0
INSERT
  2
-000-_OPEN
  8
_0-3_A0
 10
189.77154813679621
 20
93.790138811267922
 41
3
 42
3
 50
359.9999999951583
  0
LINE
  8
_0-3_A0
  6
CONTINUOUS
 62
    7
 10
189.7715481380529
 20
108.66234859945009
 11
189.77154813671168
 21
92.790138811267922
  0
TEXT
  8
_0-3_A0
 62
    7
 10
157.2215481365412
 20
94.290138813764997
 40
4
 41
1
 50
0
  1
590
  0
ENDBLK
  0
ENDSEC
  0
SECTION
  2
ENTITIES
  0
LINE
  8
_0-1_H0
  6
CONTINUOUS
 62
    3
 10
404.34734658449423
 20
13.09030279069006
 11
404.34734658449423
 21
290.09030279069008
  0
LINE
  8
_0-1_H0
  6
CONTINUOUS
 62
    3
 10
404.34734658449423
 20
290.09030279069008
 11
9.3473465844942325
 21
290.09030279069008
  0
LINE
  8
_0-1_H0
  6
CONTINUOUS
 62
    3
 10
9.3473465844942325
 20
290.09030279069008
 11
9.3473465844942325
 21
13.09030279069006
  0
LINE
  8
_0-1_H0
  6
CONTINUOUS
 62
    3
 10
81.347346584494232
 20
285.09030279069008
 11
9.3473465844942325
 21
285.09030279069008
  0
LINE
  8
_0-1_H0
  6
CONTINUOUS
 62
    3
 10
50.347346584494232
 20
290.09030279069008
 11
50.347346584494232
 21
271.59030279069008
  0
LINE
  8
_0-1_H0
  6
CONTINUOUS
 62
    3
 10
81.347346584494232
 20
280.59030279069008
 11
9.3473465844942325
 21
280.59030279069008
  0
LINE
  8
_0-1_H0
  6
CONTINUOUS
 62
    3
 10
81.347346584494232
 20
271.59030279069008
 11
9.3473465844942325
 21
271.59030279069008
  0
LINE
  8
_0-1_H0
  6
CONTINUOUS
 62
    3
 10
9.3473465844942325
 20
276.09030279069008
 11
81.347346584494232
 21
276.09030279069008
  0
LINE
  8
_0-1_H0
  6
CONTINUOUS
 62
    3
 10
15.347346584494232
 20
290.09030279069008
 11
15.347346584494232
 21
271.59030279069008
  0
LINE
  8
_0-1_H0
  6
CONTINUOUS
 62
    3
 10
60.347346584494232
 20
290.09030279069008
 11
60.347346584494232
 21
271.59030279069008
  0
LINE
  8
_0-1_H0
  6
CONTINUOUS
 62
    3
 10
10.147346584494187
 20
271.99030279069006
 11
14.547346584494221
 21
271.99030279069006
  0
LINE
  8
_0-1_H0
  6
CONTINUOUS
 62
    3
 10
14.547346584494221
 20
271.99030279069017
 11
12.347346584494232
 21
275.80081456734149
  0
LINE
  8
_0-1_H0
  6
CONTINUOUS
 62
    3
 10
12.347346584494175
 20
275.80081456734137
 11
10.147346584494187
 21
271.99030279069006
  0
LINE
  8
_0-1_H0
  6
CONTINUOUS
 62
    3
 10
10.147346584494187
 20
276.49030279069006
 11
14.547346584494221
 21
276.49030279069006
  0
LINE
  8
_0-1_H0
  6
CONTINUOUS
 62
    3
 10
14.547346584494221
 20
276.49030279069006
 11
12.347346584494175
 21
280.30081456734149
  0
LINE
  8
_0-1_H0
  6
CONTINUOUS
 62
    3
 10
12.347346584494232
 20
280.30081456734149
 11
10.147346584494187
 21
276.49030279069006
  0
TEXT
  8
_0-1_H0
 62
    7
 10
11.547346584494221
 20
277.0284734134247
 40
1.6639999389648434
 41
1
 50
0
  1
B
  0
LINE
  8
_0-1_H0
  6
CONTINUOUS
 62
    3
 10
10.147346584494187
 20
280.99030279069006
 11
14.547346584494221
 21
280.99030279069006
  0
LINE
  8
_0-1_H0
  6
CONTINUOUS
 62
    3
 10
14.547346584494221
 20
280.99030279069017
 11
12.347346584494175
 21
284.80081456734149
  0
LINE
  8
_0-1_H0
  6
CONTINUOUS
 62
    3
 10
12.347346584494175
 20
284.80081456734149
 11
10.147346584494187
 21
280.99030279069017
  0
TEXT
  8
_0-1_H0
 62
    7
 10
11.547346584494221
 20
281.5284734134247
 40
1.6639999389648434
 41
1
 50
0
  1
A
  0
LINE
  8
_0-1_H0
  6
CONTINUOUS
 62
    3
 10
73.347346584494232
 20
290.09030279069008
 11
73.347346584494232
 21
271.59030279069008
  0
LINE
  8
_0-1_H0
  6
CONTINUOUS
 62
    3
 10
81.347346584494232
 20
290.09030279069008
 11
81.347346584494232
 21
271.59030279069008
  0
TEXT
  8
_0-1_H0
 62
    7
 10
11.547346584494221
 20
272.5283028212076
 40
1.6639999389648434
 41
1
 50
0
  1
C
  0
LINE
  8
_0-1_H0
  6
CONTINUOUS
 62
    3
 10
9.3473465844942325
 20
13.09030279069006
 11
404.34734658449423
 21
13.09030279069006
  0
LINE
  8
_0-1_H0
  6
CONTINUOUS
 62
    3
 10
300.77837227901181
 20
126.93594660239436
 11
342.66887526426461
 21
126.93594660239436
  0
LINE
  8
_0-1_H0
  6
CENTER
 62
    3
 10
326.79090404355514
 20
154.64008296766525
 11
312.75226879084311
 21
154.64008296766525
  0
LINE
  8
_0-1_H0
  6
CENTER
 62
    3
 10
319.3921693193875
 20
163.93594660239446
 11
319.3921693193875
 21
134.74603181518455
  0
LINE
  8
_0-1_H0
  6
CENTER
 62
    3
 10
330.44274110305661
 20
144.64008296766525
 11
307.87743911223191
 21
144.64008296766525
  0
ARC
  8
_0-1_H0
  6
CONTINUOUS
 62
    3
 10
319.3921693193875
 20
154.64008296766525
 40
2.6
 50
0
 51
180
  0
ARC
  8
_0-1_H0
  6
CONTINUOUS
 62
    3
 10
319.3921693193875
 20
144.64008296766525
 40
8
 50
108.9655749888488
 51
71.034425011151313
  0
LINE
  8
_0-1_H0
  6
CONTINUOUS
 62
    3
 10
321.99216931938764
 20
154.64008296766525
 11
321.99216931938764
 21
152.20579509541636
  0
LINE
  8
_0-1_H0
  6
CONTINUOUS
 62
    3
 10
316.79216931938753
 20
154.64008296766525
 11
316.79216931938753
 21
152.20579509541636
  0
LINE
  8
_0-1_H0
  6
DASHED
 62
    3
 10
383.93374860974182
 20
227.79422767032787
 11
379.22054326601585
 21
227.79422767032787
  0
LINE
  8
_0-1_H0
  6
CONTINUOUS
 62
    3
 10
324.08647506158234
 20
232.79422767032787
 11
345.53144914248105
 21
232.79422767032787
  0
LINE
  8
_0-1_H0
  6
CONTINUOUS
 62
    3
 10
366.05902002422163
 20
232.79422767032787
 11
397.07066857138426
 21
232.79422767032787
  0
LINE
  8
_0-1_H0
  6
CONTINUOUS
 62
    3
 10
324.08647506158234
 20
232.79422767032787
 11
324.08647506158234
 21
222.79422767032787
  0
LINE
  8
_0-1_H0
  6
CONTINUOUS
 62
    3
 10
397.07066857138426
 20
232.79422767032787
 11
397.07066857138426
 21
222.79422767032787
  0
LINE
  8
_0-1_H0
  6
CONTINUOUS
 62
    3
 10
324.08647506158234
 20
222.79422767032787
 11
397.07066857138426
 21
222.79422767032787
  0
INSERT
  2
-001-_D2
  8
_0-1_H0
 10
-5.6526534155057674
 20
3.0903027906900604
 41
1
 42
1
 50
0
  0
INSERT
  2
-002-D3
  8
_0-1_H0
 10
85.19236195438664
 20
167.16992801485537
 41
1
 42
1
 50
0
  0
LINE
  8
_0-1_H0
  6
CONTINUOUS
 62
    3
 10
268.7663700566988
 20
164.50831086461516
 11
306.67153208753211
 21
150.37266013177026
  0
LINE
  8
_0-1_H0
  6
CONTINUOUS
 62
    3
 10
304.07027773791725
 20
151.98308735372717
 11
306.67153208753211
 21
150.37266013177026
  0
LINE
  8
_0-1_H0
  6
CONTINUOUS
 62
    3
 10
306.67153208753211
 20
150.37266013177026
 11
303.65097913355253
 21
150.85872584833006
  0
LINE
  8
_0-1_H0
  6
CONTINUOUS
 62
    3
 10
59.091719720709164
 20
67.418486503991687
 11
59.091719720709164
 21
36.418486503991772
  0
LINE
  8
_0-1_H0
  6
CONTINUOUS
 62
    3
 10
43.091719720709164
 20
67.418486503991687
 11
43.091719720709164
 21
36.418486503991772
  0
LINE
  8
_0-1_H0
  6
CONTINUOUS
 62
    3
 10
15.091719720709164
 20
67.418486503991744
 11
15.091719720709164
 21
36.418486503991772
  0
TEXT
  8
_0-1_H0
 62
    7
 10
48.849719748842574
 20
58.797486518058434
 40
2.2419999718666074
 41
1
 50
0
  1
(kg)
  0
LINE
  8
_0-1_H0
  6
CONTINUOUS
 62
    3
 10
15.091719720709164
 20
57.418486503991744
 11
59.091719720709164
 21
57.418486503991744
  0
LINE
  8
_0-1_H0
  6
CONTINUOUS
 62
    3
 10
15.091719720709164
 20
67.418486503991744
 11
59.091719720709164
 21
67.418486503991744
  0
LINE
  8
_0-1_H0
  6
CONTINUOUS
 62
    3
 10
15.091719720709221
 20
36.418486503991715
 11
59.091719720709164
 21
36.418486503991715
  0
TEXT
  8
_0-1_H0
 62
    7
 10
23.891719720709232
 20
49.639067725047624
 40
2.6
 41
1
 50
0
  1
FAN-600F
  0
TEXT
  8
_0-1_H0
 62
    7
 10
23.891719720709232
 20
41.659646249358644
 40
2.6
 41
1
 50
0
  1
FAN-750F
  0
TEXT
  8
_0-1_H0
 62
    7
 10
50.441719720709158
 20
49.639067725047539
 40
2.6
 41
1
 50
0
  1
8
  0
TEXT
  8
_0-1_H0
 62
    7
 10
50.441719720709158
 20
41.659646249358559
 40
2.6
 41
1
 50
0
  1
9
  0
LINE
  8
_0-1_H0
  6
CONTINUOUS
 62
    3
 10
244.34734658449423
 20
37.09030279069006
 11
404.34734658449411
 21
37.09030279069006
  0
LINE
  8
_0-1_H0
  6
CONTINUOUS
 62
    3
 10
333.34734658449411
 20
37.090302790690031
 11
333.34734658449411
 21
13.09030279069006
  0
LINE
  8
_0-1_H0
  6
CONTINUOUS
 62
    3
 10
328.34734658449411
 20
37.090302790690031
 11
328.34734658449411
 21
13.09030279069006
  0
LINE
  8
_0-1_H0
  6
CONTINUOUS
 62
    3
 10
214.34734658449411
 20
42.09030279069006
 11
404.34734658449411
 21
42.09030279069006
  0
LINE
  8
_0-1_H0
  6
CONTINUOUS
 62
    3
 10
244.34734658449423
 20
47.09030279069006
 11
404.34734658449411
 21
47.09030279069006
  0
LINE
  8
_0-1_H0
  6
CONTINUOUS
 62
    3
 10
286.34734658449411
 20
62.090302790690088
 11
286.34734658449411
 21
37.090302790690031
  0
LINE
  8
_0-1_H0
  6
CONTINUOUS
 62
    3
 10
244.34734658449411
 20
20.09030279069006
 11
404.34734658449411
 21
20.09030279069006
  0
LINE
  8
_0-1_H0
  6
CONTINUOUS
 62
    3
 10
328.34734658449411
 20
27.09030279069006
 11
404.34734658449411
 21
27.09030279069006
  0
LINE
  8
_0-1_H0
  6
CONTINUOUS
 62
    3
 10
392.34734658449411
 20
13.09030279069006
 11
392.34734658449411
 21
20.09030279069006
  0
LINE
  8
_0-1_H0
  6
CONTINUOUS
 62
    3
 10
396.34734658449411
 20
13.09030279069006
 11
396.34734658449411
 21
20.09030279069006
  0
LINE
  8
_0-1_H0
  6
CONTINUOUS
 62
    3
 10
314.34734658449411
 20
13.09030279069006
 11
314.34734658449411
 21
62.090302790690088
  0
LINE
  8
_0-1_H0
  6
CONTINUOUS
 62
    3
 10
300.34734658449411
 20
13.09030279069006
 11
300.34734658449411
 21
37.090302790690031
  0
LINE
  8
_0-1_H0
  6
CONTINUOUS
 62
    3
 10
286.34734658449411
 20
20.09030279069006
 11
286.34734658449411
 21
37.090302790690031
  0
LINE
  8
_0-1_H0
  6
CONTINUOUS
 62
    3
 10
272.34734658449411
 20
20.09030279069006
 11
272.34734658449411
 21
37.090302790690031
  0
LINE
  8
_0-1_H0
  6
CONTINUOUS
 62
    3
 10
258.34734658449411
 20
20.09030279069006
 11
258.34734658449411
 21
37.090302790690031
  0
LINE
  8
_0-1_H0
  6
CONTINUOUS
 62
    3
 10
244.34734658449411
 20
13.09030279069006
 11
244.34734658449411
 21
42.09030279069006
  0
LINE
  8
_0-1_H0
  6
CONTINUOUS
 62
    3
 10
244.34734658449411
 20
34.09030279069006
 11
328.34734658449411
 21
34.09030279069006
  0
LINE
  8
_0-1_H0
  6
CONTINUOUS
 62
    3
 10
321.34734658449423
 20
14.590302790690031
 11
325.34734658449411
 21
18.590302790686962
  0
TEXT
  8
_0-1_H0
 62
    7
 10
323.61534660547494
 20
13.758302811670887
 40
2.4639999580383302
 41
1
 50
0
  1
10
  0
TEXT
  8
_0-1_H0
 62
    7
 10
321.27334659426952
 20
17.042302810237373
 40
2.295999960899353
 41
1
 50
0
  1
1
  0
LINE
  8
_0-1_H0
  6
CONTINUOUS
 62
    3
 10
318.34734658449411
 20
13.09030279069006
 11
318.34734658449411
 21
20.09030279069006
  0
TEXT
  8
_0-1_H0
 62
    7
 10
335.34734658438753
 20
31.390302790690071
 40
4.4000000000000003
 41
1
 50
0
  1
FAN-600/750F
  0
LINE
  8
_0-1_H0
  6
CONTINUOUS
 62
    3
 10
335.34734658449411
 20
31.09030279069006
 11
402.34734658449411
 21
31.09030279069006
  0
LINE
  8
_0-1_H0
  6
CONTINUOUS
 62
    3
 10
244.34734658449411
 20
13.09030279069006
 11
244.34734658449434
 21
62.090302790690088
  0
LINE
  8
_0-1_H0
  6
CONTINUOUS
 62
    3
 10
214.34734658449411
 20
52.09030279069006
 11
404.34734658449411
 21
52.09030279069006
  0
LINE
  8
_0-1_H0
  6
CONTINUOUS
 62
    3
 10
229.34734658449411
 20
13.09030279069006
 11
229.34734658449411
 21
62.090302790690088
  0
LINE
  8
_0-1_H0
  6
CONTINUOUS
 62
    3
 10
384.34734658449411
 20
37.09030279069006
 11
384.34734658449411
 21
62.090302790690088
  0
LINE
  8
_0-1_H0
  6
CONTINUOUS
 62
    3
 10
356.34734658449411
 20
37.09030279069006
 11
356.34734658449411
 21
62.090302790690088
  0
LINE
  8
_0-1_H0
  6
CONTINUOUS
 62
    3
 10
214.34734658449411
 20
13.09030279069006
 11
214.34734658449411
 21
62.090302790690117
  0
LINE
  8
_0-1_H0
  6
CONTINUOUS
 62
    3
 10
404.34734658449423
 20
280.09030279069008
 11
258.34734658449423
 21
280.09030279069008
  0
LINE
  8
_0-1_H0
  6
CONTINUOUS
 62
    3
 10
404.34734658449423
 20
280.09030279069008
 11
258.34734658449423
 21
280.09030279069008
  0
TEXT
  8
_0-1_H0
 62
    7
 10
262.61734658449415
 20
271.13030279069005
 40
2.9199999999999999
 41
1
 50
0
  1
2
  0
TEXT
  8
_0-1_H0
 62
    7
 10
262.61734658449415
 20
276.13030279069005
 40
2.9199999999999999
 41
1
 50
0
  1
1
  0
LINE
  8
_0-1_H0
  6
CONTINUOUS
 62
    3
 10
258.34734658449423
 20
280.09030279069008
 11
404.34734658449423
 21
280.09030279069008
  0
LINE
  8
_0-1_H0
  6
CONTINUOUS
 62
    3
 10
404.34734658449423
 20
275.09030279069008
 11
258.34734658449423
 21
275.09030279069008
  0
LINE
  8
_0-1_H0
  6
CONTINUOUS
 62
    3
 10
258.34734658449423
 20
270.09030279069008
 11
404.34734658449423
 21
270.09030279069008
  0
LINE
  8
_0-1_H0
  6
CONTINUOUS
 62
    3
 10
258.34734658449423
 20
285.09030279069008
 11
404.34734658449423
 21
285.09030279069008
  0
LINE
  8
_0-1_H0
  6
CONTINUOUS
 62
    3
 10
258.34734658449411
 20
270.09030279069008
 11
258.34734658449411
 21
290.09030279069008
  0
LINE
  8
_0-1_H0
  6
CONTINUOUS
 62
    3
 10
268.34734658449411
 20
270.09030279069008
 11
268.34734658449411
 21
285.09030279069008
  0
LINE
  8
_0-1_H0
  6
CONTINUOUS
 62
    3
 10
303.34734658449411
 20
270.09030279069008
 11
303.34734658449411
 21
285.09030279069008
  0
LINE
  8
_0-1_H0
  6
CONTINUOUS
 62
    3
 10
344.34734658449423
 20
285.09030279069008
 11
344.34734658449423
 21
270.09030279069008
  0
LINE
  8
_0-1_H0
  6
CONTINUOUS
 62
    3
 10
374.34734658449423
 20
285.09030279069008
 11
374.34734658449423
 21
270.09030279069008
  0
LINE
  8
_0-1_H0
  6
CONTINUOUS
 62
    3
 10
257.92275229423773
 20
264.54692501157035
 11
351.01735595240103
 21
264.54692501157035
  0
TEXT
  8
_0-1_H0
 62
    7
 10
234.65734658449423
 20
45.630302790690052
 40
2.9199999999999999
 41
1
 50
0
  1
600
  0
TEXT
  8
_0-1_H0
 62
    7
 10
219.65734658449423
 20
45.630302790690052
 40
2.9199999999999999
 41
1
 50
0
  1
596
  0
LINE
  8
_0-1_H0
  6
CONTINUOUS
 62
    3
 10
263.87909755321095
 20
258.54692501157035
 11
329.46135996174524
 21
258.54692501157035
  0
LINE
  8
_0-1_H0
  6
CONTINUOUS
 62
    3
 10
271.87909731479231
 20
252.54692501157035
 11
373.2138535717832
 21
252.54692501157035
  0
LINE
  8
_0-1_H0
  6
CONTINUOUS
 62
    3
 10
263.87909755321095
 20
252.54692501157035
 11
271.87909731479231
 21
252.54692501157035
  0
LINE
  8
_0-1_H0
  6
CONTINUOUS
 62
    3
 10
271.87909731479231
 20
247.04692501157035
 11
389.31531090323022
 21
247.04692501157035
  0
LINE
  8
_0-1_H0
  6
CONTINUOUS
 62
    3
 10
244.34734658449434
 20
57.09030279069006
 11
404.34734658449411
 21
57.09030279069006
  0
TEXT
  8
_0-1_H0
 62
    7
 10
234.65734658449423
 20
55.63030279069008
 40
2.9199999999999999
 41
1
 50
0
  1
750
  0
TEXT
  8
_0-1_H0
 62
    7
 10
219.65734658449423
 20
55.63030279069008
 40
2.9199999999999999
 41
1
 50
0
  1
746
  0
LINE
  8
_0-1_H0
  6
CONTINUOUS
 62
    3
 10
214.34734658449411
 20
62.090302790690088
 11
404.34734658449411
 21
62.090302790690088
  0
TEXT
  8
_0-1_H0
 62
    7
 10
245.34734658449423
 20
43.130302790690052
 40
2.9199999999999999
 41
1
 50
0
  1
FAN-600F-BK
  0
TEXT
  8
_0-1_H0
 62
    7
 10
294.50734658449425
 20
43.130302790690052
 40
2.9199999999999999
 41
1
 50
0
  1
179M98SW
  0
TEXT
  8
_0-1_H0
 62
    7
 10
245.34734658449423
 20
48.130302790690052
 40
2.9199999999999999
 41
1
 50
0
  1
FAN-600F-W
  0
TEXT
  8
_0-1_H0
 62
    7
 10
294.50734658449425
 20
48.130302790690052
 40
2.9199999999999999
 41
1
 50
0
  1
179M98XP
  0
TEXT
  8
_0-1_H0
 62
    7
 10
245.34734658449423
 20
53.130302790690052
 40
2.9199999999999999
 41
1
 50
0
  1
FAN-750F-BK
  0
TEXT
  8
_0-1_H0
 62
    7
 10
294.50734658449425
 20
53.130302790690052
 40
2.9199999999999999
 41
1
 50
0
  1
179M99SW
  0
TEXT
  8
_0-1_H0
 62
    7
 10
245.34734658449423
 20
58.130302790690052
 40
2.9199999999999999
 41
1
 50
0
  1
FAN-750F-W
  0
TEXT
  8
_0-1_H0
 62
    7
 10
294.50734658449425
 20
58.130302790690052
 40
2.9199999999999999
 41
1
 50
0
  1
179M99XP
  0
LINE
  8
_0-1_H0
  6
CONTINUOUS
 62
    3
 10
387.05035938667674
 20
59.590302790690088
 11
401.72534321659071
 21
59.590302790690088
  0
LINE
  8
_0-1_H0
  6
CONTINUOUS
 62
    3
 10
387.05035938667674
 20
54.59030279069006
 11
401.72534321659071
 21
54.59030279069006
  0
LINE
  8
_0-1_H0
  6
CONTINUOUS
 62
    3
 10
387.05035938667674
 20
49.59030279069006
 11
401.72534321659071
 21
49.59030279069006
  0
LINE
  8
_0-1_H0
  6
CONTINUOUS
 62
    3
 10
387.05035938667674
 20
44.59030279069006
 11
401.72534321659071
 21
44.59030279069006
  0
LINE
  8
_0-3_A0
  6
HIDDEN
 62
    3
 10
125.30355692274314
 20
119.62603679712616
 11
146.11889472257234
 21
112.68512937791136
  0
LINE
  8
_0-3_A0
  6
CONTINUOUS
 62
    3
 10
125.01889472257245
 20
119.08847988684216
 11
142.64653656189557
 21
171.95265128957527
  0
LINE
  8
_0-3_A0
  6
CONTINUOUS
 62
    3
 10
125.16117545661275
 20
118.88291665714636
 11
127.95020539334613
 21
117.95291019909866
  0
LINE
  8
_0-3_A0
  6
CONTINUOUS
 62
    3
 10
125.06632720448963
 20
119.07266345048076
 11
125.05051080661344
 21
119.02523095573066
  0
LINE
  8
_0-3_A0
  6
CONTINUOUS
 62
    3
 10
125.05051080661355
 20
119.02523095573076
 11
125.16117545661283
 21
118.88291665714636
  0
LINE
  8
_0-3_A0
  6
CONTINUOUS
 62
    3
 10
128.13995203272656
 20
118.04775837426505
 11
128.12413646642227
 21
118.00032837335255
  0
LINE
  8
_0-3_A0
  6
CONTINUOUS
 62
    3
 10
128.12413563485034
 20
118.00032587951486
 11
127.95020539334625
 21
117.95291019909866
  0
LINE
  8
_0-3_A0
  6
CONTINUOUS
 62
    3
 10
125.05051076812843
 20
119.02523096856366
 11
128.12413563485034
 21
118.00032587951496
  0
LINE
  8
_0-3_A0
  6
CONTINUOUS
 62
    3
 10
45.447518439551714
 20
172.05265141155936
 11
45.447518434485743
 21
112.10265141155936
  0
LINE
  8
_0-3_A0
  6
CONTINUOUS
 62
    3
 10
48.947518434515302
 20
112.45265141126365
 11
48.947518434481537
 21
112.05265141126355
  0
LINE
  8
_0-3_A0
  6
CONTINUOUS
 62
    3
 10
49.14751843453223
 20
112.65265141124666
 11
48.947518434515302
 21
112.45265141126365
  0
LINE
  8
_0-3_A0
  6
CONTINUOUS
 62
    3
 10
103.84751844260745
 20
245.13108476660366
 11
105.34751844273424
 21
246.63108476647687
  0
LINE
  8
_0-3_A0
  6
CONTINUOUS
 62
    3
 10
103.84751843954514
 20
208.89108476660416
 11
104.04751843952824
 21
208.69108476658675
  0
LINE
  8
_0-3_A0
  6
CONTINUOUS
 62
    3
 10
105.34751843952814
 20
208.69108476647676
 11
103.84751843952814
 21
208.69108476660355
  0
LINE
  8
_0-3_A0
  6
CONTINUOUS
 62
    3
 10
103.84751843952814
 20
208.69108476660355
 11
103.84751843952304
 21
208.63108476660354
  0
LINE
  8
_0-3_A0
  6
CONTINUOUS
 62
    3
 10
105.29751844051403
 20
208.63108476648105
 11
103.84751843952304
 21
208.63108476660366
  0
LINE
  8
_0-3_A0
  6
CONTINUOUS
 62
    3
 10
184.11889472764272
 20
172.05265140206117
 11
184.11889472257252
 21
112.05265140206115
  0
LINE
  8
_0-3_A0
  6
CONTINUOUS
 62
    3
 10
146.11889470814077
 20
172.05265140527225
 11
184.11889472764272
 21
172.05265140206105
  0
LINE
  8
_0-3_A0
  6
CONTINUOUS
 62
    3
 10
47.047518434658996
 20
114.15265141142405
 11
47.047518434486619
 21
112.11265141142405
  0
LINE
  8
_0-3_A0
  6
CONTINUOUS
 62
    3
 10
47.147518434532173
 20
112.65265141141566
 11
47.087518434532171
 21
112.65265141142076
  0
LINE
  8
_0-3_A0
  6
CONTINUOUS
 62
    3
 10
45.447518434486596
 20
112.11265141155935
 11
47.087518434486582
 21
112.11265141142075
  0
LINE
  8
_0-3_A0
  6
CONTINUOUS
 62
    3
 10
47.147518434667404
 20
114.25265141141505
 11
47.047518434658911
 21
114.15265141142415
  0
LINE
  8
_0-3_A0
  6
CONTINUOUS
 62
    3
 10
47.147518439365825
 20
169.85265141141624
 11
47.14751843466746
 21
114.25265141141505
  0
LINE
  8
_0-3_A0
  6
CONTINUOUS
 62
    3
 10
45.447518439551714
 20
172.05265141155936
 11
105.34751843373105
 21
172.05265140649757
  0
LINE
  8
_0-3_A0
  6
CONTINUOUS
 62
    3
 10
47.047518439374243
 20
169.95265141142417
 11
47.047518439529767
 21
171.79265141142417
  0
LINE
  8
_0-3_A0
  6
CONTINUOUS
 62
    3
 10
47.147518439365796
 20
169.85265141141616
 11
47.047518439374186
 21
169.95265141142397
  0
LINE
  8
_0-3_A0
  6
CONTINUOUS
 62
    3
 10
46.847518439546604
 20
171.99265141144095
 11
47.04751843952971
 21
171.79265141142406
  0
LINE
  8
_0-3_A0
  6
CONTINUOUS
 62
    3
 10
47.14751843453223
 20
112.65265141141566
 11
47.147518434486585
 21
112.11265141141565
  0
ARC
  8
_0-3_A0
  6
CONTINUOUS
 62
    3
 10
47.087518434486582
 20
112.11265141142075
 40
0.0599999999999999
 50
269.99999999515102
 51
359.99999999457656
  0
LINE
  8
_0-3_A0
  6
HIDDEN
 62
    3
 10
184.11889472262322
 20
112.65265140206116
 11
146.11889472262322
 21
112.65265140527226
  0
LINE
  8
_0-3_A0
  6
CONTINUOUS
 62
    3
 10
184.11889472257252
 20
112.05265140206115
 11
146.11889472257252
 21
112.05265140527225
  0
LINE
  8
_0-3_A0
  6
CONTINUOUS
 62
    3
 10
75.397518439546615
 20
171.99265140902846
 11
45.447518439546627
 21
171.99265140902906
  0
LINE
  8
_0-3_A0
  6
CONTINUOUS
 62
    3
 10
47.087518434532228
 20
112.65265141142076
 11
47.087518434486582
 21
112.11265141142075
  0
LINE
  8
_0-3_A0
  6
CENTER
 62
    3
 10
75.397518437608141
 20
149.05265140852137
 11
55.564018341123187
 21
149.05265141019737
  0
LINE
  8
_0-3_A0
  6
CONTINUOUS
 62
    3
 10
75.397518439546615
 20
171.99265140902846
 11
45.507518439546629
 21
171.99265140902846
  0
LINE
  8
_0-3_A0
  6
CONTINUOUS
 62
    3
 10
47.087518434486582
 20
112.65265141155425
 11
47.087518434486582
 21
112.21265141155426
  0
LINE
  8
_0-3_A0
  6
HIDDEN
 62
    3
 10
45.607518434486564
 20
112.11265141155425
 11
46.987518427415125
 21
112.11265141155425
  0
LINE
  8
_0-3_A0
  6
CONTINUOUS
 62
    3
 10
49.14751843483981
 20
112.65265141155425
 11
47.087518434486582
 21
112.65265141155425
  0
LINE
  8
_0-3_A0
  6
CONTINUOUS
 62
    3
 10
47.087518434486582
 20
112.65265141155425
 11
47.047518434532207
 21
112.65265141155425
  0
LINE
  8
_0-3_A0
  6
CONTINUOUS
 62
    3
 10
45.44751844151682
 20
208.68108476901045
 11
45.447518443643332
 21
246.63108477068595
  0
LINE
  8
_0-3_A0
  6
CONTINUOUS
 62
    3
 10
46.94751844355926
 20
245.13108477060197
 11
45.447518443643275
 21
246.63108477068607
  0
LINE
  8
_0-3_A0
  6
CONTINUOUS
 62
    3
 10
46.947518441528558
 20
208.89108477060244
 11
46.747518441517343
 21
208.69108477061317
  0
LINE
  8
_0-3_A0
  6
CONTINUOUS
 62
    3
 10
45.447518441517331
 20
208.69108477068584
 11
46.947518441517331
 21
208.69108477060186
  0
LINE
  8
_0-3_A0
  6
CONTINUOUS
 62
    3
 10
46.947518441517331
 20
208.69108477060186
 11
46.947518441513977
 21
208.63108477060197
  0
LINE
  8
_0-3_A0
  6
CONTINUOUS
 62
    3
 10
45.49751844051542
 20
208.63108477068306
 11
46.947518441513977
 21
208.63108477060185
  0
LINE
  8
_0-3_A0
  6
CONTINUOUS
 62
    3
 10
46.94751844355926
 20
245.13108477060197
 11
46.947518441528586
 21
208.89108477060244
  0
LINE
  8
_0-3_A0
  6
CONTINUOUS
 62
    3
 10
53.447518434481509
 20
111.93265141155936
 11
53.947518434481509
 21
111.93265141155936
  0
LINE
  8
_0-3_A0
  6
CONTINUOUS
 62
    3
 10
54.047518434481503
 20
112.05265141155936
 11
54.047518434481503
 21
112.03265141155935
  0
ARC
  8
_0-3_A0
  6
CONTINUOUS
 62
    3
 10
53.947518434481509
 20
112.03265141155935
 40
0.1
 50
269.99999999999528
 51
359.9999999999934
  0
LINE
  8
_0-3_A0
  6
CONTINUOUS
 62
    3
 10
53.447518434481509
 20
111.93265141155936
 11
52.947518434481509
 21
111.93265141155936
  0
LINE
  8
_0-3_A0
  6
CONTINUOUS
 62
    3
 10
52.847518434481514
 20
112.05265141155936
 11
52.847518434481514
 21
112.03265141155935
  0
ARC
  8
_0-3_A0
  6
CONTINUOUS
 62
    3
 10
52.947518434481509
 20
112.03265141155935
 40
0.1
 50
180
 51
269.99999999999812
  0
LINE
  8
_0-3_A0
  6
CONTINUOUS
 62
    3
 10
183.26889472256414
 20
111.93265140343386
 11
182.76889472256414
 21
111.93265140350416
  0
ARC
  8
_0-3_A0
  6
CONTINUOUS
 62
    3
 10
182.76889472257823
 20
112.03265140350416
 40
0.1
 50
179.99999999194778
 51
269.99999999194579
  0
LINE
  8
_0-3_A0
  6
CONTINUOUS
 62
    3
 10
183.26889472256414
 20
111.93265140343386
 11
183.76889472256414
 21
111.93265140336356
  0
ARC
  8
_0-3_A0
  6
CONTINUOUS
 62
    3
 10
183.76889472257823
 20
112.03265140336355
 40
0.1
 50
269.99999999194301
 51
359.99999999194108
  0
ARC
  8
_0-3_A0
  6
CONTINUOUS
 62
    6
 10
45.497518434481492
 20
112.10265141155936
 40
0.05
 50
180
 51
269.99999999999482
  0
LINE
  8
_0-3_A0
  6
CONTINUOUS
 62
    3
 10
47.147518434481526
 20
122.35566628473365
 11
48.525296212259263
 21
122.35566628473365
  0
LINE
  8
_0-3_A0
  6
CONTINUOUS
 62
    3
 10
105.34751843952724
 20
208.68108476900354
 11
105.34751844042264
 21
219.27724563357975
  0
LINE
  8
_0-3_A0
  6
CONTINUOUS
 62
    3
 10
103.84751844042264
 20
219.27724563357966
 11
103.84751843954504
 21
208.89108476660425
  0
LINE
  8
_0-3_A0
  6
CONTINUOUS
 62
    6
 10
105.34751843373105
 20
172.05265140649757
 11
105.34751843373105
 21
112.10265140902845
  0
ARC
  8
_0-3_A0
  6
CONTINUOUS
 62
    6
 10
105.29751843373104
 20
112.10265140902845
 40
0.05
 50
269.99999999999801
 51
359.99999999999641
  0
LINE
  8
_0-3_A0
  6
CONTINUOUS
 62
    6
 10
105.34751843373105
 20
112.11265140902845
 11
105.19751842867245
 21
112.11265140902845
  0
LINE
  8
_0-3_A0
  6
CONTINUOUS
 62
    6
 10
103.64751843373105
 20
112.65265140902846
 11
103.70751843373105
 21
112.65265140902846
  0
ARC
  8
_0-3_A0
  6
CONTINUOUS
 62
    3
 10
97.847518433731053
 20
112.03265140902846
 40
0.1
 50
269.99999999999528
 51
359.9999999999934
  0
LINE
  8
_0-3_A0
  6
CONTINUOUS
 62
    3
 10
97.947518433731048
 20
112.05265140902845
 11
97.947518433731048
 21
112.03265140902846
  0
LINE
  8
_0-3_A0
  6
CONTINUOUS
 62
    3
 10
97.347518433731053
 20
111.93265140902846
 11
97.847518433731053
 21
111.93265140902846
  0
LINE
  8
_0-3_A0
  6
CONTINUOUS
 62
    3
 10
97.347518433731053
 20
111.93265140902846
 11
96.847518433731053
 21
111.93265140902846
  0
ARC
  8
_0-3_A0
  6
CONTINUOUS
 62
    3
 10
96.847518433731053
 20
112.03265140902846
 40
0.1
 50
180
 51
269.99999999999812
  0
LINE
  8
_0-3_A0
  6
CONTINUOUS
 62
    3
 10
96.747518433731045
 20
112.05265140902845
 11
96.747518433731045
 21
112.03265140902846
  0
ARC
  8
_0-3_A0
  6
CONTINUOUS
 62
    3
 10
105.29751844051824
 20
208.68108476900775
 40
0.05
 50
269.99999999999488
 51
359.99999999999346
  0
ARC
  8
_0-3_A0
  6
CONTINUOUS
 62
    3
 10
45.497518440518234
 20
208.68108476900775
 40
0.05
 50
179.99999999999639
 51
269.99999999999482
  0
ARC
  8
_0-3_A0
  6
CONTINUOUS
 62
    3
 10
105.29751844051824
 20
208.68108476900775
 40
0.05
 50
269.99999999999488
 51
359.99999999999346
  0
LINE
  8
_0-3_A0
  6
CONTINUOUS
 62
    3
 10
103.84751844051824
 20
208.63108476900777
 11
105.29751844051824
 21
208.63108476900777
  0
LINE
  8
_0-3_A0
  6
CONTINUOUS
 62
    3
 10
105.14751844051404
 20
208.63108476649034
 11
103.69751844051404
 21
208.63108476661307
  0
ARC
  8
_0-3_A0
  6
CONTINUOUS
 62
    3
 10
105.14751844050974
 20
208.58108476649024
 40
0.05
 50
359.99999999457708
 51
89.99999999514803
  0
LINE
  8
_0-3_A0
  6
CONTINUOUS
 62
    3
 10
105.09751844051405
 20
208.63108476649446
 11
103.69751844051404
 21
208.63108476661295
  0
LINE
  8
_0-3_A0
  6
CONTINUOUS
 62
    3
 10
45.647518440514033
 20
208.63108477152516
 11
46.947518440518251
 21
208.63108477141514
  0
LINE
  8
_0-3_A0
  6
CONTINUOUS
 62
    3
 10
45.697518440513988
 20
208.63108477152107
 11
47.097518440514022
 21
208.63108477140255
  0
LINE
  8
_0-3_A0
  6
CONTINUOUS
 62
    3
 10
105.14751844051824
 20
208.63108476397977
 11
103.69751844067783
 21
208.63108476422485
  0
LINE
  8
_0-3_A0
  6
CONTINUOUS
 62
    3
 10
105.19751844068214
 20
208.58108476649456
 11
105.19751844236785
 21
188.64108476422495
  0
LINE
  8
_0-3_A0
  6
CONTINUOUS
 62
    3
 10
103.69751844069975
 20
208.37108476422474
 11
103.69751844070314
 21
208.33108476427545
  0
LINE
  8
_0-3_A0
  6
CONTINUOUS
 62
    3
 10
104.19751844070835
 20
205.27108476414036
 11
102.74751844098985
 21
205.27108476438544
  0
LINE
  8
_0-3_A0
  6
DASHED
 62
    3
 10
102.63751844098985
 20
205.27108476440395
 11
102.63751844099154
 21
205.28108476440397
  0
ARC
  8
_0-3_A0
  6
CONTINUOUS
 62
    3
 10
102.71751844098655
 20
205.25108476439046
 40
0.02
 50
89.999999990884376
 51
179.9999999903099
  0
ARC
  8
_0-3_A0
  6
CONTINUOUS
 62
    3
 10
102.67751844097465
 20
205.18108476439715
 40
0.02
 50
269.99999998973532
 51
359.99999999030626
  0
ARC
  8
_0-3_A0
  6
DASHED
 62
    3
 10
102.61751844098485
 20
205.24108476440724
 40
0.02
 50
269.99999998973532
 51
359.99999999030626
  0
ARC
  8
_0-3_A0
  6
CONTINUOUS
 62
    3
 10
102.74751844098135
 20
205.22108476438535
 40
0.05
 50
89.999999990884376
 51
179.9999999903099
  0
ARC
  8
_0-3_A0
  6
CONTINUOUS
 62
    3
 10
102.64751844097975
 20
205.21108476440227
 40
0.05
 50
269.99999998973532
 51
359.99999999030626
  0
LINE
  8
_0-3_A0
  6
CONTINUOUS
 62
    3
 10
102.64751844097135
 20
205.16108476440234
 11
75.397518440971197
 21
205.16108476900785
  0
LINE
  8
_0-3_A0
  6
CONTINUOUS
 62
    3
 10
102.69751844096194
 20
205.27108476439386
 11
102.69751844246094
 21
187.53108476900786
  0
LINE
  8
_0-3_A0
  6
CONTINUOUS
 62
    3
 10
45.647518440665066
 20
208.63108475894867
 11
47.397518440682404
 21
208.63108475954035
  0
LINE
  8
_0-3_A0
  6
CONTINUOUS
 62
    3
 10
45.597518440681938
 20
208.58108475894437
 11
45.597518442368254
 21
188.64108475918524
  0
LINE
  8
_0-3_A0
  6
CONTINUOUS
 62
    3
 10
47.097518440699786
 20
208.37108475943887
 11
47.097518440703197
 21
208.33108475948955
  0
LINE
  8
_0-3_A0
  6
CONTINUOUS
 62
    3
 10
46.597518441215413
 20
205.27108475926996
 11
48.04751844093397
 21
205.27108475976015
  0
ARC
  8
_0-3_A0
  6
CONTINUOUS
 62
    3
 10
48.07751844094065
 20
205.25108475977026
 40
0.02
 50
0.0000000193729875
 51
90.000000018798445
  0
ARC
  8
_0-3_A0
  6
CONTINUOUS
 62
    3
 10
48.117518440964374
 20
205.18108475978377
 40
0.02
 50
180.00000001936999
 51
270.00000001994078
  0
ARC
  8
_0-3_A0
  6
CONTINUOUS
 62
    3
 10
48.047518440950852
 20
205.22108475976006
 40
0.05
 50
0.0000000193729875
 51
90.000000018798445
  0
ARC
  8
_0-3_A0
  6
CONTINUOUS
 62
    3
 10
48.147518440954172
 20
205.21108475979386
 40
0.05
 50
180.00000001936999
 51
270.00000001994078
  0
LINE
  8
_0-3_A0
  6
CONTINUOUS
 62
    3
 10
48.147518440971055
 20
205.16108475979396
 11
75.397518440971197
 21
205.16108476900785
  0
LINE
  8
_0-3_A0
  6
CONTINUOUS
 62
    3
 10
48.097518440961835
 20
205.27108475977706
 11
48.097518442462956
 21
187.53108476900774
  0
LINE
  8
_0-3_A0
  6
CONTINUOUS
 62
    3
 10
75.397518433731192
 20
171.95265140902844
 11
105.19751843371794
 21
171.95265140902844
  0
LINE
  8
_0-3_A0
  6
CONTINUOUS
 62
    3
 10
103.74751842866734
 20
112.05265141401996
 11
105.14751842866733
 21
112.05265141390185
  0
LINE
  8
_0-3_A0
  6
CONTINUOUS
 62
    3
 10
103.69751842870954
 20
112.55265141402425
 11
103.69751842867154
 21
112.10265141402426
  0
LINE
  8
_0-3_A0
  6
CONTINUOUS
 62
    3
 10
103.69751842870954
 20
112.55265141402415
 11
103.74751842870954
 21
112.55265141401996
  0
LINE
  8
_0-3_A0
  6
CONTINUOUS
 62
    3
 10
103.74751842870954
 20
112.55265141401996
 11
103.74751842867163
 21
112.10265141401995
  0
LINE
  8
_0-3_A0
  6
CONTINUOUS
 62
    3
 10
103.79751842871804
 20
112.65265141401576
 11
103.79751842867165
 21
112.10265141401576
  0
LINE
  8
_0-3_A0
  6
CONTINUOUS
 62
    3
 10
103.69751842872643
 20
112.75265141402415
 11
103.79751842871804
 21
112.65265141401576
  0
LINE
  8
_0-3_A0
  6
CONTINUOUS
 62
    3
 10
103.74751842867163
 20
112.10265141401995
 11
103.79751842867165
 21
112.10265141401576
  0
LINE
  8
_0-3_A0
  6
CONTINUOUS
 62
    3
 10
103.79751842867165
 20
112.10265141401576
 11
105.19751842867154
 21
112.10265141389766
  0
ARC
  8
_0-3_A0
  6
CONTINUOUS
 62
    3
 10
103.74751842867163
 20
112.10265141401995
 40
0.05
 50
179.9999999945744
 51
269.99999999514528
  0
ARC
  8
_0-3_A0
  6
CONTINUOUS
 62
    3
 10
105.14751842867164
 20
112.10265141390196
 40
0.05
 50
269.99999999514528
 51
359.99999999514221
  0
LINE
  8
_0-3_A0
  6
CONTINUOUS
 62
    3
 10
105.19751843371794
 20
171.95265141406497
 11
75.397518433731192
 21
171.95265140902844
  0
LINE
  8
_0-3_A0
  6
CONTINUOUS
 62
    3
 10
103.69751842872643
 20
112.75265141402415
 11
103.69751842916194
 21
117.91728556281965
  0
LINE
  8
_0-3_A0
  6
CONTINUOUS
 62
    3
 10
78.117552532106174
 20
167.96832292833036
 11
75.397518433394282
 21
167.96832292787067
  0
LINE
  8
_0-3_A0
  6
CONTINUOUS
 62
    3
 10
78.117552532232366
 20
167.20940321763325
 11
75.397518433330134
 21
167.20940321717347
  0
LINE
  8
_0-3_A0
  6
CONTINUOUS
 62
    3
 10
78.117552532169497
 20
167.20940321761435
 11
78.178237876361606
 21
167.23714002826457
  0
LINE
  8
_0-3_A0
  6
CONTINUOUS
 62
    3
 10
78.178237876361606
 20
167.23714002826457
 11
78.233432151726589
 21
167.27556376564749
  0
LINE
  8
_0-3_A0
  6
CONTINUOUS
 62
    3
 10
78.233432151726589
 20
167.27556376564749
 11
78.281458308137189
 21
167.323506943946
  0
LINE
  8
_0-3_A0
  6
CONTINUOUS
 62
    3
 10
78.281458308137189
 20
167.323506943946
 11
78.320857095133249
 21
167.37951283394798
  0
LINE
  8
_0-3_A0
  6
CONTINUOUS
 62
    3
 10
78.320857095133249
 20
167.37951283394798
 11
78.350431400508682
 21
167.44187972502604
  0
LINE
  8
_0-3_A0
  6
CONTINUOUS
 62
    3
 10
78.350431400508682
 20
167.44187972502604
 11
78.369282623959946
 21
167.50871263075396
  0
LINE
  8
_0-3_A0
  6
CONTINUOUS
 62
    3
 10
78.369282623959946
 20
167.50871263075396
 11
78.376837980601635
 21
167.57798086711028
  0
LINE
  8
_0-3_A0
  6
CONTINUOUS
 62
    3
 10
78.376837980601635
 20
167.57798086711028
 11
78.372867904745419
 21
167.64757975378472
  0
LINE
  8
_0-3_A0
  6
CONTINUOUS
 62
    3
 10
78.372867904745419
 20
167.64757975378472
 11
78.357493025137245
 21
167.71539456382441
  0
LINE
  8
_0-3_A0
  6
CONTINUOUS
 62
    3
 10
78.357493025137245
 20
167.71539456382441
 11
78.331180499713923
 21
167.77936477854225
  0
LINE
  8
_0-3_A0
  6
CONTINUOUS
 62
    3
 10
78.331180499713923
 20
167.77936477854225
 11
78.294729821245624
 21
167.83754669533453
  0
LINE
  8
_0-3_A0
  6
CONTINUOUS
 62
    3
 10
78.294729821245624
 20
167.83754669533453
 11
78.249248525152722
 21
167.88817248610098
  0
LINE
  8
_0-3_A0
  6
CONTINUOUS
 62
    3
 10
78.249248525152722
 20
167.88817248610098
 11
78.196118537602359
 21
167.92970391180705
  0
LINE
  8
_0-3_A0
  6
CONTINUOUS
 62
    3
 10
78.196118537602359
 20
167.92970391180705
 11
78.13695418638116
 21
167.9608790610986
  0
LINE
  8
_0-3_A0
  6
CONTINUOUS
 62
    3
 10
78.13695418638116
 20
167.9608790610986
 11
78.117552532169497
 21
167.96832292830839
  0
LINE
  8
_0-3_A0
  6
CONTINUOUS
 62
    3
 10
78.117552531985893
 20
166.54534847077377
 11
75.397518433273972
 21
166.54534847031416
  0
LINE
  8
_0-3_A0
  6
CONTINUOUS
 62
    3
 10
78.117552532112057
 20
165.78642876007666
 11
75.397518433209796
 21
165.78642875961696
  0
LINE
  8
_0-3_A0
  6
CONTINUOUS
 62
    3
 10
78.117552532049273
 20
165.78642876005775
 11
78.178237876241325
 21
165.81416557070801
  0
LINE
  8
_0-3_A0
  6
CONTINUOUS
 62
    3
 10
78.178237876241325
 20
165.81416557070801
 11
78.233432151606336
 21
165.85258930809092
  0
LINE
  8
_0-3_A0
  6
CONTINUOUS
 62
    3
 10
78.233432151606336
 20
165.85258930809092
 11
78.281458308016908
 21
165.90053248638946
  0
LINE
  8
_0-3_A0
  6
CONTINUOUS
 62
    3
 10
78.281458308016908
 20
165.90053248638946
 11
78.320857095012968
 21
165.95653837639144
  0
LINE
  8
_0-3_A0
  6
CONTINUOUS
 62
    3
 10
78.320857095012968
 20
165.95653837639144
 11
78.350431400388401
 21
166.0189052674695
  0
LINE
  8
_0-3_A0
  6
CONTINUOUS
 62
    3
 10
78.350431400388401
 20
166.0189052674695
 11
78.369282623839637
 21
166.08573817319742
  0
LINE
  8
_0-3_A0
  6
CONTINUOUS
 62
    3
 10
78.369282623839637
 20
166.08573817319742
 11
78.376837980481298
 21
166.15500640955374
  0
LINE
  8
_0-3_A0
  6
CONTINUOUS
 62
    3
 10
78.376837980481298
 20
166.15500640955374
 11
78.372867904625081
 21
166.22460529622819
  0
LINE
  8
_0-3_A0
  6
CONTINUOUS
 62
    3
 10
78.372867904625081
 20
166.22460529622819
 11
78.357493025016879
 21
166.29242010626788
  0
LINE
  8
_0-3_A0
  6
CONTINUOUS
 62
    3
 10
78.357493025016879
 20
166.29242010626788
 11
78.331180499593529
 21
166.35639032098569
  0
LINE
  8
_0-3_A0
  6
CONTINUOUS
 62
    3
 10
78.331180499593529
 20
166.35639032098569
 11
78.294729821125258
 21
166.41457223777797
  0
LINE
  8
_0-3_A0
  6
CONTINUOUS
 62
    3
 10
78.294729821125258
 20
166.41457223777797
 11
78.249248525032328
 21
166.46519802854442
  0
LINE
  8
_0-3_A0
  6
CONTINUOUS
 62
    3
 10
78.249248525032328
 20
166.46519802854442
 11
78.196118537481936
 21
166.50672945425048
  0
LINE
  8
_0-3_A0
  6
CONTINUOUS
 62
    3
 10
78.196118537481936
 20
166.50672945425048
 11
78.136954186260709
 21
166.53790460354201
  0
LINE
  8
_0-3_A0
  6
CONTINUOUS
 62
    3
 10
78.136954186260709
 20
166.53790460354201
 11
78.117552532049046
 21
166.5453484707518
  0
LINE
  8
_0-3_A0
  6
CONTINUOUS
 62
    3
 10
85.617552532106202
 20
167.96832292959797
 11
80.177484330739673
 21
167.96832292867844
  0
LINE
  8
_0-3_A0
  6
CONTINUOUS
 62
    3
 10
85.61755253223238
 20
167.20940321890086
 11
80.177484338356123
 21
167.20940321798136
  0
LINE
  8
_0-3_A0
  6
CONTINUOUS
 62
    3
 10
85.617552532169597
 20
167.20940321888195
 11
85.678237876361677
 21
167.23714002953221
  0
LINE
  8
_0-3_A0
  6
CONTINUOUS
 62
    3
 10
85.678237876361677
 20
167.23714002953221
 11
85.73343215172666
 21
167.27556376691512
  0
LINE
  8
_0-3_A0
  6
CONTINUOUS
 62
    3
 10
85.73343215172666
 20
167.27556376691512
 11
85.781458308137246
 21
167.32350694521366
  0
LINE
  8
_0-3_A0
  6
CONTINUOUS
 62
    3
 10
85.781458308137246
 20
167.32350694521366
 11
85.82085709513332
 21
167.37951283521564
  0
LINE
  8
_0-3_A0
  6
CONTINUOUS
 62
    3
 10
85.82085709513332
 20
167.37951283521564
 11
85.850431400508725
 21
167.4418797262937
  0
LINE
  8
_0-3_A0
  6
CONTINUOUS
 62
    3
 10
85.850431400508725
 20
167.4418797262937
 11
85.869282623959961
 21
167.50871263202162
  0
LINE
  8
_0-3_A0
  6
CONTINUOUS
 62
    3
 10
85.869282623959961
 20
167.50871263202162
 11
85.876837980601649
 21
167.57798086837794
  0
LINE
  8
_0-3_A0
  6
CONTINUOUS
 62
    3
 10
85.876837980601649
 20
167.57798086837794
 11
85.872867904745433
 21
167.64757975505239
  0
LINE
  8
_0-3_A0
  6
CONTINUOUS
 62
    3
 10
85.872867904745433
 20
167.64757975505239
 11
85.857493025137216
 21
167.71539456509208
  0
LINE
  8
_0-3_A0
  6
CONTINUOUS
 62
    3
 10
85.857493025137216
 20
167.71539456509208
 11
85.831180499713866
 21
167.77936477980989
  0
LINE
  8
_0-3_A0
  6
CONTINUOUS
 62
    3
 10
85.831180499713866
 20
167.77936477980989
 11
85.794729821245582
 21
167.83754669660217
  0
LINE
  8
_0-3_A0
  6
CONTINUOUS
 62
    3
 10
85.794729821245582
 20
167.83754669660217
 11
85.749248525152665
 21
167.88817248736862
  0
LINE
  8
_0-3_A0
  6
CONTINUOUS
 62
    3
 10
85.749248525152665
 20
167.88817248736862
 11
85.696118537602288
 21
167.92970391307468
  0
LINE
  8
_0-3_A0
  6
CONTINUOUS
 62
    3
 10
85.696118537602288
 20
167.92970391307468
 11
85.636954186381061
 21
167.96087906236621
  0
LINE
  8
_0-3_A0
  6
CONTINUOUS
 62
    3
 10
85.636954186381061
 20
167.96087906236621
 11
85.617552532169398
 21
167.968322929576
  0
LINE
  8
_0-3_A0
  6
CONTINUOUS
 62
    3
 10
80.177484334555174
 20
167.96832293001574
 11
80.116798990363065
 21
167.94058611936554
  0
LINE
  8
_0-3_A0
  6
CONTINUOUS
 62
    3
 10
80.116798990363065
 20
167.94058611936554
 11
80.061604714998054
 21
167.90216238198269
  0
LINE
  8
_0-3_A0
  6
CONTINUOUS
 62
    3
 10
80.061604714998054
 20
167.90216238198269
 11
80.013578558587425
 21
167.85421920368418
  0
LINE
  8
_0-3_A0
  6
CONTINUOUS
 62
    3
 10
80.013578558587425
 20
167.85421920368418
 11
79.974179771591337
 21
167.79821331368222
  0
LINE
  8
_0-3_A0
  6
CONTINUOUS
 62
    3
 10
79.974179771591337
 20
167.79821331368222
 11
79.944605466215875
 21
167.73584642260416
  0
LINE
  8
_0-3_A0
  6
CONTINUOUS
 62
    3
 10
79.944605466215875
 20
167.73584642260416
 11
79.925754242764583
 21
167.66901351687627
  0
LINE
  8
_0-3_A0
  6
CONTINUOUS
 62
    3
 10
79.925754242764583
 20
167.66901351687627
 11
79.918198886122866
 21
167.59974528051995
  0
LINE
  8
_0-3_A0
  6
CONTINUOUS
 62
    3
 10
79.918198886122866
 20
167.59974528051995
 11
79.922168961979025
 21
167.53014639384551
  0
LINE
  8
_0-3_A0
  6
CONTINUOUS
 62
    3
 10
79.922168961979025
 20
167.53014639384551
 11
79.937543841587171
 21
167.46233158380582
  0
LINE
  8
_0-3_A0
  6
CONTINUOUS
 62
    3
 10
79.937543841587171
 20
167.46233158380582
 11
79.963856367010521
 21
167.39836136908797
  0
LINE
  8
_0-3_A0
  6
CONTINUOUS
 62
    3
 10
79.963856367010521
 20
167.39836136908797
 11
80.000307045478734
 21
167.34017945229567
  0
LINE
  8
_0-3_A0
  6
CONTINUOUS
 62
    3
 10
80.000307045478734
 20
167.34017945229567
 11
80.045788341571608
 21
167.28955366152919
  0
LINE
  8
_0-3_A0
  6
CONTINUOUS
 62
    3
 10
80.045788341571608
 20
167.28955366152919
 11
80.098918329122
 21
167.24802223582307
  0
LINE
  8
_0-3_A0
  6
CONTINUOUS
 62
    3
 10
80.098918329122
 20
167.24802223582307
 11
80.15808268034317
 21
167.21684708653151
  0
LINE
  8
_0-3_A0
  6
CONTINUOUS
 62
    3
 10
80.15808268034317
 20
167.21684708653151
 11
80.177484334554918
 21
167.20940321932167
  0
LINE
  8
_0-3_A0
  6
CONTINUOUS
 62
    3
 10
85.617552531985907
 20
166.54534847204135
 11
80.177484330619336
 21
166.54534847112196
  0
LINE
  8
_0-3_A0
  6
CONTINUOUS
 62
    3
 10
85.617552532112071
 20
165.78642876134435
 11
80.177484338235785
 21
165.78642876042496
  0
LINE
  8
_0-3_A0
  6
CONTINUOUS
 62
    3
 10
85.617552532049188
 20
165.78642876132542
 11
85.678237876241269
 21
165.81416557197564
  0
LINE
  8
_0-3_A0
  6
CONTINUOUS
 62
    3
 10
85.678237876241269
 20
165.81416557197564
 11
85.733432151606265
 21
165.85258930935856
  0
LINE
  8
_0-3_A0
  6
CONTINUOUS
 62
    3
 10
85.733432151606265
 20
165.85258930935856
 11
85.781458308016865
 21
165.90053248765707
  0
LINE
  8
_0-3_A0
  6
CONTINUOUS
 62
    3
 10
85.781458308016865
 20
165.90053248765707
 11
85.820857095012939
 21
165.95653837765905
  0
LINE
  8
_0-3_A0
  6
CONTINUOUS
 62
    3
 10
85.820857095012939
 20
165.95653837765905
 11
85.850431400388373
 21
166.01890526873711
  0
LINE
  8
_0-3_A0
  6
CONTINUOUS
 62
    3
 10
85.850431400388373
 20
166.01890526873711
 11
85.869282623839623
 21
166.08573817446503
  0
LINE
  8
_0-3_A0
  6
CONTINUOUS
 62
    3
 10
85.869282623839623
 20
166.08573817446503
 11
85.876837980481326
 21
166.15500641082135
  0
LINE
  8
_0-3_A0
  6
CONTINUOUS
 62
    3
 10
85.876837980481326
 20
166.15500641082135
 11
85.87286790462511
 21
166.22460529749579
  0
LINE
  8
_0-3_A0
  6
CONTINUOUS
 62
    3
 10
85.87286790462511
 20
166.22460529749579
 11
85.857493025016921
 21
166.29242010753549
  0
LINE
  8
_0-3_A0
  6
CONTINUOUS
 62
    3
 10
85.857493025016921
 20
166.29242010753549
 11
85.831180499593585
 21
166.35639032225333
  0
LINE
  8
_0-3_A0
  6
CONTINUOUS
 62
    3
 10
85.831180499593585
 20
166.35639032225333
 11
85.794729821125301
 21
166.41457223904561
  0
LINE
  8
_0-3_A0
  6
CONTINUOUS
 62
    3
 10
85.794729821125301
 20
166.41457223904561
 11
85.749248525032413
 21
166.46519802981205
  0
LINE
  8
_0-3_A0
  6
CONTINUOUS
 62
    3
 10
85.749248525032413
 20
166.46519802981205
 11
85.696118537482036
 21
166.50672945551812
  0
LINE
  8
_0-3_A0
  6
CONTINUOUS
 62
    3
 10
85.696118537482036
 20
166.50672945551812
 11
85.636954186260823
 21
166.53790460480968
  0
LINE
  8
_0-3_A0
  6
CONTINUOUS
 62
    3
 10
85.636954186260823
 20
166.53790460480968
 11
85.61755253204916
 21
166.54534847201946
  0
LINE
  8
_0-3_A0
  6
CONTINUOUS
 62
    3
 10
80.177484334434751
 20
166.54534847245912
 11
80.116798990242671
 21
166.51761166180892
  0
LINE
  8
_0-3_A0
  6
CONTINUOUS
 62
    3
 10
80.116798990242671
 20
166.51761166180892
 11
80.06160471487766
 21
166.47918792442604
  0
LINE
  8
_0-3_A0
  6
CONTINUOUS
 62
    3
 10
80.06160471487766
 20
166.47918792442604
 11
80.013578558467031
 21
166.43124474612753
  0
LINE
  8
_0-3_A0
  6
CONTINUOUS
 62
    3
 10
80.013578558467031
 20
166.43124474612753
 11
79.974179771470943
 21
166.37523885612554
  0
LINE
  8
_0-3_A0
  6
CONTINUOUS
 62
    3
 10
79.974179771470943
 20
166.37523885612554
 11
79.944605466095509
 21
166.31287196504749
  0
LINE
  8
_0-3_A0
  6
CONTINUOUS
 62
    3
 10
79.944605466095509
 20
166.31287196504749
 11
79.925754242644245
 21
166.24603905931959
  0
LINE
  8
_0-3_A0
  6
CONTINUOUS
 62
    3
 10
79.925754242644245
 20
166.24603905931959
 11
79.918198886002528
 21
166.17677082296327
  0
LINE
  8
_0-3_A0
  6
CONTINUOUS
 62
    3
 10
79.918198886002528
 20
166.17677082296327
 11
79.922168961858687
 21
166.10717193628883
  0
LINE
  8
_0-3_A0
  6
CONTINUOUS
 62
    3
 10
79.922168961858687
 20
166.10717193628883
 11
79.93754384146689
 21
166.03935712624914
  0
LINE
  8
_0-3_A0
  6
CONTINUOUS
 62
    3
 10
79.93754384146689
 20
166.03935712624914
 11
79.963856366890183
 21
165.9753869115313
  0
LINE
  8
_0-3_A0
  6
CONTINUOUS
 62
    3
 10
79.963856366890183
 20
165.9753869115313
 11
80.000307045358454
 21
165.91720499473899
  0
LINE
  8
_0-3_A0
  6
CONTINUOUS
 62
    3
 10
80.000307045358454
 20
165.91720499473899
 11
80.045788341451356
 21
165.86657920397254
  0
LINE
  8
_0-3_A0
  6
CONTINUOUS
 62
    3
 10
80.045788341451356
 20
165.86657920397254
 11
80.098918329001719
 21
165.82504777826645
  0
LINE
  8
_0-3_A0
  6
CONTINUOUS
 62
    3
 10
80.098918329001719
 20
165.82504777826645
 11
80.158082680222918
 21
165.79387262897486
  0
LINE
  8
_0-3_A0
  6
CONTINUOUS
 62
    3
 10
80.158082680222918
 20
165.79387262897486
 11
80.177484334434581
 21
165.78642876176508
  0
LINE
  8
_0-3_A0
  6
CONTINUOUS
 62
    3
 10
93.117552532106245
 20
167.96832293086555
 11
87.677484330739687
 21
167.96832292994616
  0
LINE
  8
_0-3_A0
  6
CONTINUOUS
 62
    3
 10
93.11755253223238
 20
167.20940322016846
 11
87.677484338356137
 21
167.20940321924896
  0
LINE
  8
_0-3_A0
  6
CONTINUOUS
 62
    3
 10
93.117552532169511
 20
167.20940322014953
 11
93.178237876361592
 21
167.23714003079976
  0
LINE
  8
_0-3_A0
  6
CONTINUOUS
 62
    3
 10
93.178237876361592
 20
167.23714003079976
 11
93.233432151726589
 21
167.27556376818267
  0
LINE
  8
_0-3_A0
  6
CONTINUOUS
 62
    3
 10
93.233432151726589
 20
167.27556376818267
 11
93.281458308137189
 21
167.32350694648118
  0
LINE
  8
_0-3_A0
  6
CONTINUOUS
 62
    3
 10
93.281458308137189
 20
167.32350694648118
 11
93.320857095133263
 21
167.37951283648317
  0
LINE
  8
_0-3_A0
  6
CONTINUOUS
 62
    3
 10
93.320857095133263
 20
167.37951283648317
 11
93.350431400508696
 21
167.44187972756122
  0
LINE
  8
_0-3_A0
  6
CONTINUOUS
 62
    3
 10
93.350431400508696
 20
167.44187972756122
 11
93.369282623959946
 21
167.50871263328915
  0
LINE
  8
_0-3_A0
  6
CONTINUOUS
 62
    3
 10
93.369282623959946
 20
167.50871263328915
 11
93.376837980601649
 21
167.57798086964547
  0
LINE
  8
_0-3_A0
  6
CONTINUOUS
 62
    3
 10
93.376837980601649
 20
167.57798086964547
 11
93.372867904745433
 21
167.64757975631991
  0
LINE
  8
_0-3_A0
  6
CONTINUOUS
 62
    3
 10
93.372867904745433
 20
167.64757975631991
 11
93.357493025137245
 21
167.7153945663596
  0
LINE
  8
_0-3_A0
  6
CONTINUOUS
 62
    3
 10
93.357493025137245
 20
167.7153945663596
 11
93.331180499713909
 21
167.77936478107744
  0
LINE
  8
_0-3_A0
  6
CONTINUOUS
 62
    3
 10
93.331180499713909
 20
167.77936478107744
 11
93.294729821245624
 21
167.83754669786972
  0
LINE
  8
_0-3_A0
  6
CONTINUOUS
 62
    3
 10
93.294729821245624
 20
167.83754669786972
 11
93.249248525152736
 21
167.88817248863617
  0
LINE
  8
_0-3_A0
  6
CONTINUOUS
 62
    3
 10
93.249248525152736
 20
167.88817248863617
 11
93.196118537602359
 21
167.92970391434224
  0
LINE
  8
_0-3_A0
  6
CONTINUOUS
 62
    3
 10
93.196118537602359
 20
167.92970391434224
 11
93.136954186381146
 21
167.96087906363379
  0
LINE
  8
_0-3_A0
  6
CONTINUOUS
 62
    3
 10
93.136954186381146
 20
167.96087906363379
 11
93.117552532169483
 21
167.96832293084358
  0
LINE
  8
_0-3_A0
  6
CONTINUOUS
 62
    3
 10
87.677484334555146
 20
167.96832293128332
 11
87.616798990363051
 21
167.94058612063312
  0
LINE
  8
_0-3_A0
  6
CONTINUOUS
 62
    3
 10
87.616798990363051
 20
167.94058612063312
 11
87.56160471499804
 21
167.90216238325024
  0
LINE
  8
_0-3_A0
  6
CONTINUOUS
 62
    3
 10
87.56160471499804
 20
167.90216238325024
 11
87.513578558587425
 21
167.85421920495173
  0
LINE
  8
_0-3_A0
  6
CONTINUOUS
 62
    3
 10
87.513578558587425
 20
167.85421920495173
 11
87.474179771591337
 21
167.79821331494974
  0
LINE
  8
_0-3_A0
  6
CONTINUOUS
 62
    3
 10
87.474179771591337
 20
167.79821331494974
 11
87.444605466215904
 21
167.73584642387169
  0
LINE
  8
_0-3_A0
  6
CONTINUOUS
 62
    3
 10
87.444605466215904
 20
167.73584642387169
 11
87.425754242764639
 21
167.66901351814379
  0
LINE
  8
_0-3_A0
  6
CONTINUOUS
 62
    3
 10
87.425754242764639
 20
167.66901351814379
 11
87.418198886122908
 21
167.59974528178747
  0
LINE
  8
_0-3_A0
  6
CONTINUOUS
 62
    3
 10
87.418198886122908
 20
167.59974528178747
 11
87.422168961979096
 21
167.53014639511303
  0
LINE
  8
_0-3_A0
  6
CONTINUOUS
 62
    3
 10
87.422168961979096
 20
167.53014639511303
 11
87.43754384158727
 21
167.46233158507334
  0
LINE
  8
_0-3_A0
  6
CONTINUOUS
 62
    3
 10
87.43754384158727
 20
167.46233158507334
 11
87.463856367010592
 21
167.3983613703555
  0
LINE
  8
_0-3_A0
  6
CONTINUOUS
 62
    3
 10
87.463856367010592
 20
167.3983613703555
 11
87.500307045478862
 21
167.34017945356319
  0
LINE
  8
_0-3_A0
  6
CONTINUOUS
 62
    3
 10
87.500307045478862
 20
167.34017945356319
 11
87.54578834157175
 21
167.28955366279674
  0
LINE
  8
_0-3_A0
  6
CONTINUOUS
 62
    3
 10
87.54578834157175
 20
167.28955366279674
 11
87.598918329122113
 21
167.24802223709065
  0
LINE
  8
_0-3_A0
  6
CONTINUOUS
 62
    3
 10
87.598918329122113
 20
167.24802223709065
 11
87.658082680343312
 21
167.21684708779906
  0
LINE
  8
_0-3_A0
  6
CONTINUOUS
 62
    3
 10
87.658082680343312
 20
167.21684708779906
 11
87.67748433455506
 21
167.20940322058925
  0
LINE
  8
_0-3_A0
  6
CONTINUOUS
 62
    3
 10
93.117552531985907
 20
166.54534847330904
 11
87.677484330619392
 21
166.54534847238966
  0
LINE
  8
_0-3_A0
  6
CONTINUOUS
 62
    3
 10
93.117552532112071
 20
165.78642876261196
 11
87.6774843382358
 21
165.78642876169254
  0
LINE
  8
_0-3_A0
  6
CONTINUOUS
 62
    3
 10
93.117552532049188
 20
165.78642876259314
 11
93.178237876241269
 21
165.81416557324337
  0
LINE
  8
_0-3_A0
  6
CONTINUOUS
 62
    3
 10
93.178237876241269
 20
165.81416557324337
 11
93.233432151606265
 21
165.85258931062628
  0
LINE
  8
_0-3_A0
  6
CONTINUOUS
 62
    3
 10
93.233432151606265
 20
165.85258931062628
 11
93.281458308016865
 21
165.90053248892479
  0
LINE
  8
_0-3_A0
  6
CONTINUOUS
 62
    3
 10
93.281458308016865
 20
165.90053248892479
 11
93.320857095012939
 21
165.95653837892677
  0
LINE
  8
_0-3_A0
  6
CONTINUOUS
 62
    3
 10
93.320857095012939
 20
165.95653837892677
 11
93.350431400388373
 21
166.01890527000483
  0
LINE
  8
_0-3_A0
  6
CONTINUOUS
 62
    3
 10
93.350431400388373
 20
166.01890527000483
 11
93.369282623839623
 21
166.08573817573275
  0
LINE
  8
_0-3_A0
  6
CONTINUOUS
 62
    3
 10
93.369282623839623
 20
166.08573817573275
 11
93.376837980481326
 21
166.15500641208907
  0
LINE
  8
_0-3_A0
  6
CONTINUOUS
 62
    3
 10
93.376837980481326
 20
166.15500641208907
 11
93.37286790462511
 21
166.22460529876352
  0
LINE
  8
_0-3_A0
  6
CONTINUOUS
 62
    3
 10
93.37286790462511
 20
166.22460529876352
 11
93.357493025016921
 21
166.29242010880321
  0
LINE
  8
_0-3_A0
  6
CONTINUOUS
 62
    3
 10
93.357493025016921
 20
166.29242010880321
 11
93.331180499593585
 21
166.35639032352105
  0
LINE
  8
_0-3_A0
  6
CONTINUOUS
 62
    3
 10
93.331180499593585
 20
166.35639032352105
 11
93.294729821125301
 21
166.41457224031333
  0
LINE
  8
_0-3_A0
  6
CONTINUOUS
 62
    3
 10
93.294729821125301
 20
166.41457224031333
 11
93.249248525032413
 21
166.46519803107977
  0
LINE
  8
_0-3_A0
  6
CONTINUOUS
 62
    3
 10
93.249248525032413
 20
166.46519803107977
 11
93.196118537482036
 21
166.50672945678584
  0
LINE
  8
_0-3_A0
  6
CONTINUOUS
 62
    3
 10
93.196118537482036
 20
166.50672945678584
 11
93.136954186260823
 21
166.5379046060774
  0
LINE
  8
_0-3_A0
  6
CONTINUOUS
 62
    3
 10
93.136954186260823
 20
166.5379046060774
 11
93.11755253204916
 21
166.54534847328719
  0
LINE
  8
_0-3_A0
  6
CONTINUOUS
 62
    3
 10
87.677484334434893
 20
166.54534847372684
 11
87.616798990242799
 21
166.51761166307665
  0
LINE
  8
_0-3_A0
  6
CONTINUOUS
 62
    3
 10
87.616798990242799
 20
166.51761166307665
 11
87.561604714877788
 21
166.47918792569379
  0
LINE
  8
_0-3_A0
  6
CONTINUOUS
 62
    3
 10
87.561604714877788
 20
166.47918792569379
 11
87.513578558467159
 21
166.43124474739528
  0
LINE
  8
_0-3_A0
  6
CONTINUOUS
 62
    3
 10
87.513578558467159
 20
166.43124474739528
 11
87.474179771471071
 21
166.37523885739332
  0
LINE
  8
_0-3_A0
  6
CONTINUOUS
 62
    3
 10
87.474179771471071
 20
166.37523885739332
 11
87.444605466095609
 21
166.31287196631527
  0
LINE
  8
_0-3_A0
  6
CONTINUOUS
 62
    3
 10
87.444605466095609
 20
166.31287196631527
 11
87.42575424264433
 21
166.24603906058737
  0
LINE
  8
_0-3_A0
  6
CONTINUOUS
 62
    3
 10
87.42575424264433
 20
166.24603906058737
 11
87.418198886002585
 21
166.17677082423105
  0
LINE
  8
_0-3_A0
  6
CONTINUOUS
 62
    3
 10
87.418198886002585
 20
166.17677082423105
 11
87.422168961858773
 21
166.10717193755661
  0
LINE
  8
_0-3_A0
  6
CONTINUOUS
 62
    3
 10
87.422168961858773
 20
166.10717193755661
 11
87.437543841466919
 21
166.03935712751692
  0
LINE
  8
_0-3_A0
  6
CONTINUOUS
 62
    3
 10
87.437543841466919
 20
166.03935712751692
 11
87.46385636689024
 21
165.97538691279908
  0
LINE
  8
_0-3_A0
  6
CONTINUOUS
 62
    3
 10
87.46385636689024
 20
165.97538691279908
 11
87.500307045358482
 21
165.91720499600677
  0
LINE
  8
_0-3_A0
  6
CONTINUOUS
 62
    3
 10
87.500307045358482
 20
165.91720499600677
 11
87.545788341451356
 21
165.86657920524029
  0
LINE
  8
_0-3_A0
  6
CONTINUOUS
 62
    3
 10
87.545788341451356
 20
165.86657920524029
 11
87.598918329001719
 21
165.82504777953417
  0
LINE
  8
_0-3_A0
  6
CONTINUOUS
 62
    3
 10
87.598918329001719
 20
165.82504777953417
 11
87.658082680222918
 21
165.79387263024261
  0
LINE
  8
_0-3_A0
  6
CONTINUOUS
 62
    3
 10
87.658082680222918
 20
165.79387263024261
 11
87.677484334434652
 21
165.78642876303277
  0
LINE
  8
_0-3_A0
  6
CONTINUOUS
 62
    3
 10
100.61755253210624
 20
167.96832293213316
 11
95.177484330739645
 21
167.96832293121366
  0
LINE
  8
_0-3_A0
  6
CONTINUOUS
 62
    3
 10
100.61755253223235
 20
167.20940322143604
 11
95.177484338356151
 21
167.20940322051654
  0
LINE
  8
_0-3_A0
  6
CONTINUOUS
 62
    3
 10
100.61755253216954
 20
167.20940322141717
 11
100.67823787636162
 21
167.23714003206742
  0
LINE
  8
_0-3_A0
  6
CONTINUOUS
 62
    3
 10
100.67823787636162
 20
167.23714003206742
 11
100.7334321517266
 21
167.27556376945034
  0
LINE
  8
_0-3_A0
  6
CONTINUOUS
 62
    3
 10
100.7334321517266
 20
167.27556376945034
 11
100.78145830813718
 21
167.32350694774888
  0
LINE
  8
_0-3_A0
  6
CONTINUOUS
 62
    3
 10
100.78145830813718
 20
167.32350694774888
 11
100.82085709513326
 21
167.37951283775086
  0
LINE
  8
_0-3_A0
  6
CONTINUOUS
 62
    3
 10
100.82085709513326
 20
167.37951283775086
 11
100.85043140050866
 21
167.44187972882892
  0
LINE
  8
_0-3_A0
  6
CONTINUOUS
 62
    3
 10
100.85043140050866
 20
167.44187972882892
 11
100.8692826239599
 21
167.50871263455684
  0
LINE
  8
_0-3_A0
  6
CONTINUOUS
 62
    3
 10
100.8692826239599
 20
167.50871263455684
 11
100.87683798060159
 21
167.57798087091316
  0
LINE
  8
_0-3_A0
  6
CONTINUOUS
 62
    3
 10
100.87683798060159
 20
167.57798087091316
 11
100.87286790474537
 21
167.6475797575876
  0
LINE
  8
_0-3_A0
  6
CONTINUOUS
 62
    3
 10
100.87286790474537
 20
167.6475797575876
 11
100.85749302513715
 21
167.71539456762729
  0
LINE
  8
_0-3_A0
  6
CONTINUOUS
 62
    3
 10
100.85749302513715
 20
167.71539456762729
 11
100.8311804997138
 21
167.77936478234511
  0
LINE
  8
_0-3_A0
  6
CONTINUOUS
 62
    3
 10
100.8311804997138
 20
167.77936478234511
 11
100.79472982124552
 21
167.83754669913739
  0
LINE
  8
_0-3_A0
  6
CONTINUOUS
 62
    3
 10
100.79472982124552
 20
167.83754669913739
 11
100.7492485251526
 21
167.88817248990383
  0
LINE
  8
_0-3_A0
  6
CONTINUOUS
 62
    3
 10
100.7492485251526
 20
167.88817248990383
 11
100.69611853760223
 21
167.9297039156099
  0
LINE
  8
_0-3_A0
  6
CONTINUOUS
 62
    3
 10
100.69611853760223
 20
167.9297039156099
 11
100.636954186381
 21
167.96087906490143
  0
LINE
  8
_0-3_A0
  6
CONTINUOUS
 62
    3
 10
100.636954186381
 20
167.96087906490143
 11
100.61755253216934
 21
167.96832293211122
  0
LINE
  8
_0-3_A0
  6
CONTINUOUS
 62
    3
 10
95.177484334555202
 20
167.96832293255084
 11
95.116798990363108
 21
167.94058612190065
  0
LINE
  8
_0-3_A0
  6
CONTINUOUS
 62
    3
 10
95.116798990363108
 20
167.94058612190065
 11
95.061604714998097
 21
167.90216238451779
  0
LINE
  8
_0-3_A0
  6
CONTINUOUS
 62
    3
 10
95.061604714998097
 20
167.90216238451779
 11
95.013578558587468
 21
167.85421920621928
  0
LINE
  8
_0-3_A0
  6
CONTINUOUS
 62
    3
 10
95.013578558587468
 20
167.85421920621928
 11
94.97417977159138
 21
167.79821331621732
  0
LINE
  8
_0-3_A0
  6
CONTINUOUS
 62
    3
 10
94.97417977159138
 20
167.79821331621732
 11
94.944605466215918
 21
167.73584642513927
  0
LINE
  8
_0-3_A0
  6
CONTINUOUS
 62
    3
 10
94.944605466215918
 20
167.73584642513927
 11
94.925754242764639
 21
167.66901351941137
  0
LINE
  8
_0-3_A0
  6
CONTINUOUS
 62
    3
 10
94.925754242764639
 20
167.66901351941137
 11
94.918198886122894
 21
167.59974528305505
  0
LINE
  8
_0-3_A0
  6
CONTINUOUS
 62
    3
 10
94.918198886122894
 20
167.59974528305505
 11
94.922168961979082
 21
167.53014639638061
  0
LINE
  8
_0-3_A0
  6
CONTINUOUS
 62
    3
 10
94.922168961979082
 20
167.53014639638061
 11
94.937543841587228
 21
167.46233158634092
  0
LINE
  8
_0-3_A0
  6
CONTINUOUS
 62
    3
 10
94.937543841587228
 20
167.46233158634092
 11
94.963856367010549
 21
167.39836137162308
  0
LINE
  8
_0-3_A0
  6
CONTINUOUS
 62
    3
 10
94.963856367010549
 20
167.39836137162308
 11
95.000307045478791
 21
167.34017945483077
  0
LINE
  8
_0-3_A0
  6
CONTINUOUS
 62
    3
 10
95.000307045478791
 20
167.34017945483077
 11
95.045788341571665
 21
167.2895536640643
  0
LINE
  8
_0-3_A0
  6
CONTINUOUS
 62
    3
 10
95.045788341571665
 20
167.2895536640643
 11
95.098918329122028
 21
167.24802223835817
  0
LINE
  8
_0-3_A0
  6
CONTINUOUS
 62
    3
 10
95.098918329122028
 20
167.24802223835817
 11
95.158082680343227
 21
167.21684708906661
  0
LINE
  8
_0-3_A0
  6
CONTINUOUS
 62
    3
 10
95.158082680343227
 20
167.21684708906661
 11
95.177484334554961
 21
167.20940322185677
  0
LINE
  8
_0-3_A0
  6
CONTINUOUS
 62
    3
 10
100.61755253198595
 20
166.54534847457676
 11
95.177484330619449
 21
166.54534847365727
  0
LINE
  8
_0-3_A0
  6
CONTINUOUS
 62
    3
 10
100.61755253211214
 20
165.78642876387965
 11
95.177484338235842
 21
165.78642876296015
  0
LINE
  8
_0-3_A0
  6
CONTINUOUS
 62
    3
 10
100.61755253204934
 20
165.78642876386075
 11
100.67823787624142
 21
165.814165574511
  0
LINE
  8
_0-3_A0
  6
CONTINUOUS
 62
    3
 10
100.67823787624142
 20
165.814165574511
 11
100.7334321516064
 21
165.85258931189392
  0
LINE
  8
_0-3_A0
  6
CONTINUOUS
 62
    3
 10
100.7334321516064
 20
165.85258931189392
 11
100.78145830801699
 21
165.90053249019246
  0
LINE
  8
_0-3_A0
  6
CONTINUOUS
 62
    3
 10
100.78145830801699
 20
165.90053249019246
 11
100.82085709501306
 21
165.95653838019444
  0
LINE
  8
_0-3_A0
  6
CONTINUOUS
 62
    3
 10
100.82085709501306
 20
165.95653838019444
 11
100.85043140038847
 21
166.0189052712725
  0
LINE
  8
_0-3_A0
  6
CONTINUOUS
 62
    3
 10
100.85043140038847
 20
166.0189052712725
 11
100.8692826238397
 21
166.08573817700042
  0
LINE
  8
_0-3_A0
  6
CONTINUOUS
 62
    3
 10
100.8692826238397
 20
166.08573817700042
 11
100.87683798048139
 21
166.15500641335674
  0
LINE
  8
_0-3_A0
  6
CONTINUOUS
 62
    3
 10
100.87683798048139
 20
166.15500641335674
 11
100.87286790462518
 21
166.22460530003118
  0
LINE
  8
_0-3_A0
  6
CONTINUOUS
 62
    3
 10
100.87286790462518
 20
166.22460530003118
 11
100.85749302501696
 21
166.29242011007087
  0
LINE
  8
_0-3_A0
  6
CONTINUOUS
 62
    3
 10
100.85749302501696
 20
166.29242011007087
 11
100.83118049959361
 21
166.35639032478869
  0
LINE
  8
_0-3_A0
  6
CONTINUOUS
 62
    3
 10
100.83118049959361
 20
166.35639032478869
 11
100.79472982112532
 21
166.41457224158097
  0
LINE
  8
_0-3_A0
  6
CONTINUOUS
 62
    3
 10
100.79472982112532
 20
166.41457224158097
 11
100.74924852503241
 21
166.46519803234741
  0
LINE
  8
_0-3_A0
  6
CONTINUOUS
 62
    3
 10
100.74924852503241
 20
166.46519803234741
 11
100.69611853748203
 21
166.50672945805348
  0
LINE
  8
_0-3_A0
  6
CONTINUOUS
 62
    3
 10
100.69611853748203
 20
166.50672945805348
 11
100.6369541862608
 21
166.53790460734501
  0
LINE
  8
_0-3_A0
  6
CONTINUOUS
 62
    3
 10
100.6369541862608
 20
166.53790460734501
 11
100.61755253204914
 21
166.54534847455479
  0
LINE
  8
_0-3_A0
  6
CONTINUOUS
 62
    3
 10
95.177484334434836
 20
166.54534847499451
 11
95.116798990242742
 21
166.51761166434431
  0
LINE
  8
_0-3_A0
  6
CONTINUOUS
 62
    3
 10
95.116798990242742
 20
166.51761166434431
 11
95.061604714877731
 21
166.47918792696142
  0
LINE
  8
_0-3_A0
  6
CONTINUOUS
 62
    3
 10
95.061604714877731
 20
166.47918792696142
 11
95.013578558467116
 21
166.43124474866291
  0
LINE
  8
_0-3_A0
  6
CONTINUOUS
 62
    3
 10
95.013578558467116
 20
166.43124474866291
 11
94.974179771471028
 21
166.37523885866093
  0
LINE
  8
_0-3_A0
  6
CONTINUOUS
 62
    3
 10
94.974179771471028
 20
166.37523885866093
 11
94.944605466095595
 21
166.31287196758287
  0
LINE
  8
_0-3_A0
  6
CONTINUOUS
 62
    3
 10
94.944605466095595
 20
166.31287196758287
 11
94.92575424264433
 21
166.24603906185498
  0
LINE
  8
_0-3_A0
  6
CONTINUOUS
 62
    3
 10
94.92575424264433
 20
166.24603906185498
 11
94.918198886002599
 21
166.17677082549866
  0
LINE
  8
_0-3_A0
  6
CONTINUOUS
 62
    3
 10
94.918198886002599
 20
166.17677082549866
 11
94.922168961858787
 21
166.10717193882422
  0
LINE
  8
_0-3_A0
  6
CONTINUOUS
 62
    3
 10
94.922168961858787
 20
166.10717193882422
 11
94.937543841466961
 21
166.03935712878453
  0
LINE
  8
_0-3_A0
  6
CONTINUOUS
 62
    3
 10
94.937543841466961
 20
166.03935712878453
 11
94.963856366890283
 21
165.97538691406668
  0
LINE
  8
_0-3_A0
  6
CONTINUOUS
 62
    3
 10
94.963856366890283
 20
165.97538691406668
 11
95.000307045358553
 21
165.91720499727438
  0
LINE
  8
_0-3_A0
  6
CONTINUOUS
 62
    3
 10
95.000307045358553
 20
165.91720499727438
 11
95.045788341451441
 21
165.86657920650793
  0
LINE
  8
_0-3_A0
  6
CONTINUOUS
 62
    3
 10
95.045788341451441
 20
165.86657920650793
 11
95.098918329001804
 21
165.82504778080183
  0
LINE
  8
_0-3_A0
  6
CONTINUOUS
 62
    3
 10
95.098918329001804
 20
165.82504778080183
 11
95.158082680223003
 21
165.79387263151025
  0
LINE
  8
_0-3_A0
  6
CONTINUOUS
 62
    3
 10
95.158082680223003
 20
165.79387263151025
 11
95.177484334434751
 21
165.78642876430043
  0
LINE
  8
_0-3_A0
  6
CONTINUOUS
 62
    3
 10
93.117552531985907
 20
166.54534847330916
 11
87.677484330619392
 21
166.54534847238974
  0
LINE
  8
_0-3_A0
  6
CONTINUOUS
 62
    3
 10
93.117552532112071
 20
165.78642876261204
 11
87.6774843382358
 21
165.78642876169266
  0
LINE
  8
_0-3_A0
  6
CONTINUOUS
 62
    3
 10
93.117552532049188
 20
165.78642876259314
 11
93.178237876241269
 21
165.81416557324337
  0
LINE
  8
_0-3_A0
  6
CONTINUOUS
 62
    3
 10
93.178237876241269
 20
165.81416557324337
 11
93.233432151606265
 21
165.85258931062628
  0
LINE
  8
_0-3_A0
  6
CONTINUOUS
 62
    3
 10
93.233432151606265
 20
165.85258931062628
 11
93.281458308016865
 21
165.90053248892479
  0
LINE
  8
_0-3_A0
  6
CONTINUOUS
 62
    3
 10
93.281458308016865
 20
165.90053248892479
 11
93.320857095012939
 21
165.95653837892677
  0
LINE
  8
_0-3_A0
  6
CONTINUOUS
 62
    3
 10
93.320857095012939
 20
165.95653837892677
 11
93.350431400388373
 21
166.01890527000483
  0
LINE
  8
_0-3_A0
  6
CONTINUOUS
 62
    3
 10
93.350431400388373
 20
166.01890527000483
 11
93.369282623839623
 21
166.08573817573275
  0
LINE
  8
_0-3_A0
  6
CONTINUOUS
 62
    3
 10
93.369282623839623
 20
166.08573817573275
 11
93.376837980481326
 21
166.15500641208907
  0
LINE
  8
_0-3_A0
  6
CONTINUOUS
 62
    3
 10
93.376837980481326
 20
166.15500641208907
 11
93.37286790462511
 21
166.22460529876352
  0
LINE
  8
_0-3_A0
  6
CONTINUOUS
 62
    3
 10
93.37286790462511
 20
166.22460529876352
 11
93.357493025016921
 21
166.29242010880321
  0
LINE
  8
_0-3_A0
  6
CONTINUOUS
 62
    3
 10
93.357493025016921
 20
166.29242010880321
 11
93.331180499593585
 21
166.35639032352105
  0
LINE
  8
_0-3_A0
  6
CONTINUOUS
 62
    3
 10
93.331180499593585
 20
166.35639032352105
 11
93.294729821125301
 21
166.41457224031333
  0
LINE
  8
_0-3_A0
  6
CONTINUOUS
 62
    3
 10
93.294729821125301
 20
166.41457224031333
 11
93.249248525032413
 21
166.46519803107977
  0
LINE
  8
_0-3_A0
  6
CONTINUOUS
 62
    3
 10
93.249248525032413
 20
166.46519803107977
 11
93.196118537482036
 21
166.50672945678584
  0
LINE
  8
_0-3_A0
  6
CONTINUOUS
 62
    3
 10
93.196118537482036
 20
166.50672945678584
 11
93.136954186260823
 21
166.5379046060774
  0
LINE
  8
_0-3_A0
  6
CONTINUOUS
 62
    3
 10
93.136954186260823
 20
166.5379046060774
 11
93.11755253204916
 21
166.54534847328719
  0
LINE
  8
_0-3_A0
  6
CONTINUOUS
 62
    3
 10
87.677484334434765
 20
166.5453484737269
 11
87.616798990242671
 21
166.5176116630767
  0
LINE
  8
_0-3_A0
  6
CONTINUOUS
 62
    3
 10
87.616798990242671
 20
166.5176116630767
 11
87.56160471487766
 21
166.47918792569382
  0
LINE
  8
_0-3_A0
  6
CONTINUOUS
 62
    3
 10
87.56160471487766
 20
166.47918792569382
 11
87.513578558467045
 21
166.43124474739531
  0
LINE
  8
_0-3_A0
  6
CONTINUOUS
 62
    3
 10
87.513578558467045
 20
166.43124474739531
 11
87.474179771470957
 21
166.37523885739332
  0
LINE
  8
_0-3_A0
  6
CONTINUOUS
 62
    3
 10
87.474179771470957
 20
166.37523885739332
 11
87.444605466095524
 21
166.31287196631527
  0
LINE
  8
_0-3_A0
  6
CONTINUOUS
 62
    3
 10
87.444605466095524
 20
166.31287196631527
 11
87.425754242644259
 21
166.24603906058737
  0
LINE
  8
_0-3_A0
  6
CONTINUOUS
 62
    3
 10
87.425754242644259
 20
166.24603906058737
 11
87.418198886002528
 21
166.17677082423105
  0
LINE
  8
_0-3_A0
  6
CONTINUOUS
 62
    3
 10
87.418198886002528
 20
166.17677082423105
 11
87.422168961858716
 21
166.10717193755661
  0
LINE
  8
_0-3_A0
  6
CONTINUOUS
 62
    3
 10
87.422168961858716
 20
166.10717193755661
 11
87.43754384146689
 21
166.03935712751692
  0
LINE
  8
_0-3_A0
  6
CONTINUOUS
 62
    3
 10
87.43754384146689
 20
166.03935712751692
 11
87.463856366890212
 21
165.97538691279908
  0
LINE
  8
_0-3_A0
  6
CONTINUOUS
 62
    3
 10
87.463856366890212
 20
165.97538691279908
 11
87.500307045358482
 21
165.91720499600677
  0
LINE
  8
_0-3_A0
  6
CONTINUOUS
 62
    3
 10
87.500307045358482
 20
165.91720499600677
 11
87.54578834145137
 21
165.86657920524032
  0
LINE
  8
_0-3_A0
  6
CONTINUOUS
 62
    3
 10
87.54578834145137
 20
165.86657920524032
 11
87.598918329001733
 21
165.82504777953423
  0
LINE
  8
_0-3_A0
  6
CONTINUOUS
 62
    3
 10
87.598918329001733
 20
165.82504777953423
 11
87.658082680222932
 21
165.79387263024264
  0
LINE
  8
_0-3_A0
  6
CONTINUOUS
 62
    3
 10
87.658082680222932
 20
165.79387263024264
 11
87.67748433443468
 21
165.78642876303283
  0
LINE
  8
_0-3_A0
  6
CONTINUOUS
 62
    3
 10
75.397518429261339
 20
119.08765141883236
 11
102.69751842926054
 21
119.08765141883236
  0
LINE
  8
_0-3_A0
  6
CONTINUOUS
 62
    3
 10
101.95751842920815
 20
118.46766393247305
 11
101.95751842925224
 21
118.98960633253015
  0
LINE
  8
_0-3_A0
  6
CONTINUOUS
 62
    3
 10
105.13751842916585
 20
117.96470124322095
 11
105.13751842919845
 21
118.35183498240806
  0
LINE
  8
_0-3_A0
  6
CONTINUOUS
 62
    3
 10
104.98751842916584
 20
117.96470124322105
 11
104.98751842917285
 21
118.04729202103585
  0
LINE
  8
_0-3_A0
  6
CONTINUOUS
 62
    3
 10
102.10751842920414
 20
118.42024831613336
 11
102.10751842924024
 21
118.84729202110355
  0
LINE
  8
_0-3_A0
  6
CONTINUOUS
 62
    3
 10
105.19751842867154
 20
112.10265141389766
 11
105.19751842925504
 21
119.02292278236855
  0
LINE
  8
_0-3_A0
  6
CONTINUOUS
 62
    3
 10
102.69751842925624
 20
119.03703881444596
 11
102.69751843371794
 21
171.95265141364257
  0
LINE
  8
_0-3_A0
  6
CONTINUOUS
 62
    3
 10
75.397518431983002
 20
171.95265141733935
 11
105.19751843371794
 21
171.95265141733935
  0
LINE
  8
_0-3_A0
  6
CONTINUOUS
 62
    3
 10
102.69751844246094
 20
187.53108476900774
 11
48.097518442462956
 21
187.53108476900774
  0
LINE
  8
_0-3_A0
  6
CONTINUOUS
 62
    3
 10
48.147518440971055
 20
187.53108475979405
 11
75.397518440971197
 21
187.53108476900786
  0
LINE
  8
_0-3_A0
  6
CONTINUOUS
 62
    3
 10
102.64751844097135
 20
187.53108476440235
 11
75.397518440971225
 21
187.53108476900786
  0
LINE
  8
_0-3_A0
  6
CONTINUOUS
 62
    3
 10
46.597518441215413
 20
187.64108475926985
 11
48.04751844093397
 21
187.64108475976016
  0
LINE
  8
_0-3_A0
  6
CONTINUOUS
 62
    3
 10
104.19751844070835
 20
187.64108476414037
 11
102.74751844098985
 21
187.64108476438545
  0
ARC
  8
_0-3_A0
  6
CONTINUOUS
 62
    3
 10
46.597518440877308
 20
206.27108475926985
 40
1
 50
179.99999999999639
 51
270.00000001936581
  0
ARC
  8
_0-3_A0
  6
CONTINUOUS
 62
    3
 10
104.19751844087734
 20
206.27108476414025
 40
1
 50
269.99999999031297
 51
359.99999999999351
  0
ARC
  8
_0-3_A0
  6
CONTINUOUS
 62
    3
 10
46.597518442368283
 20
188.64108475926985
 40
1
 50
179.99999999999639
 51
270.0000000193657
  0
ARC
  8
_0-3_A0
  6
CONTINUOUS
 62
    3
 10
104.19751844236785
 20
188.64108476414037
 40
1
 50
269.99999999031297
 51
359.99999999999351
  0
LINE
  8
_0-3_A0
  6
CONTINUOUS
 62
    3
 10
75.397518433731079
 20
118.58152545514066
 11
101.95751842921784
 21
118.58152545514066
  0
LINE
  8
_0-3_A0
  6
CONTINUOUS
 62
    3
 10
102.69751842925624
 20
119.03703881444606
 11
104.39751842918884
 21
119.03703881444606
  0
LINE
  8
_0-3_A0
  6
CONTINUOUS
 62
    3
 10
101.95751842925224
 20
118.98960633253015
 11
104.27656771331334
 21
118.98960633253015
  0
LINE
  8
_0-3_A0
  6
CONTINUOUS
 62
    3
 10
102.10751842924014
 20
118.84729202110345
 11
104.18751842917274
 21
118.84729202110345
  0
LINE
  8
_0-3_A0
  6
CONTINUOUS
 62
    3
 10
103.69751842916585
 20
117.91728556281965
 11
104.98751842916185
 21
117.91728556281965
  0
LINE
  8
_0-3_A0
  6
CONTINUOUS
 62
    3
 10
103.69751842916585
 20
117.96470124322105
 11
104.98751842916584
 21
117.96470124322105
  0
LINE
  8
_0-3_A0
  6
CONTINUOUS
 62
    3
 10
101.95751842925224
 20
118.98960633253005
 11
102.10751842924024
 21
118.84729202110345
  0
LINE
  8
_0-3_A0
  6
CONTINUOUS
 62
    3
 10
101.95751842920815
 20
118.46766393247305
 11
102.10751842920414
 21
118.42024831613336
  0
LINE
  8
_0-3_A0
  6
CONTINUOUS
 62
    3
 10
104.98751842916584
 20
117.96470124322105
 11
105.13751842916585
 21
117.96470124322105
  0
LINE
  8
_0-3_A0
  6
CONTINUOUS
 62
    3
 10
105.13751842916585
 20
117.96470124322095
 11
104.98751842916185
 21
117.91728556281955
  0
ARC
  8
_0-3_A0
  6
CONTINUOUS
 62
    3
 10
104.18751842917274
 20
118.04729202110345
 40
0.8
 50
0
 51
89.999999999425526
  0
ARC
  8
_0-3_A0
  6
CONTINUOUS
 62
    3
 10
104.27656771331334
 20
118.08960633253016
 40
0.9
 50
16.939704236879318
 51
89.999999999425526
  0
LINE
  8
_0-3_A0
  6
CONTINUOUS
 62
    3
 10
105.19751842918874
 20
118.23703881437856
 11
105.19751842925624
 21
119.03703881444606
  0
LINE
  8
_0-3_A0
  6
CONTINUOUS
 62
    3
 10
105.19751842925624
 20
119.03703881444596
 11
105.19751843371794
 21
171.95265140902844
  0
ARC
  8
_0-3_A0
  6
CONTINUOUS
 62
    3
 10
104.39751842918875
 20
118.23703881444606
 40
0.8
 50
0
 51
89.999999999999189
  0
LINE
  8
_0-3_A0
  6
CONTINUOUS
 62
    3
 10
100.67731074512644
 20
203.83250476473534
 11
95.11772615657874
 21
203.83250476567496
  0
LINE
  8
_0-3_A0
  6
CONTINUOUS
 62
    3
 10
100.67731070217514
 20
203.57944476473537
 11
95.117726158193846
 21
203.57944476567496
  0
LINE
  8
_0-3_A0
  6
CONTINUOUS
 62
    3
 10
95.159155394343287
 20
203.83250476566786
 11
95.117146356964639
 21
203.83247803460253
  0
LINE
  8
_0-3_A0
  6
CONTINUOUS
 62
    3
 10
95.117146356964639
 20
203.83247803460253
 11
95.075784339714161
 21
203.82860756572569
  0
LINE
  8
_0-3_A0
  6
CONTINUOUS
 62
    3
 10
95.075784339714161
 20
203.82860756572569
 11
95.036326106555819
 21
203.82101096127561
  0
LINE
  8
_0-3_A0
  6
CONTINUOUS
 62
    3
 10
95.036326106555819
 20
203.82101096127561
 11
94.999970575937311
 21
203.80991904023446
  0
LINE
  8
_0-3_A0
  6
CONTINUOUS
 62
    3
 10
94.999970575937311
 20
203.80991904023446
 11
94.967822392259677
 21
203.79566882501026
  0
LINE
  8
_0-3_A0
  6
CONTINUOUS
 62
    3
 10
94.967822392259677
 20
203.79566882501026
 11
94.940858361816225
 21
203.77869330118167
  0
LINE
  8
_0-3_A0
  6
CONTINUOUS
 62
    3
 10
94.940858361816225
 20
203.77869330118167
 11
94.919897773027486
 21
203.75950826145015
  0
LINE
  8
_0-3_A0
  6
CONTINUOUS
 62
    3
 10
94.919897773027486
 20
203.75950826145015
 11
94.905577502777262
 21
203.73869663353988
  0
LINE
  8
_0-3_A0
  6
CONTINUOUS
 62
    3
 10
94.905577502777262
 20
203.73869663353988
 11
94.898332665230682
 21
203.71689076823372
  0
LINE
  8
_0-3_A0
  6
CONTINUOUS
 62
    3
 10
94.898332665230682
 20
203.71689076823372
 11
94.898383391110542
 21
203.69475322571469
  0
LINE
  8
_0-3_A0
  6
CONTINUOUS
 62
    3
 10
94.898383391110542
 20
203.69475322571469
 11
94.905728139136655
 21
203.67295664401007
  0
LINE
  8
_0-3_A0
  6
CONTINUOUS
 62
    3
 10
94.905728139136655
 20
203.67295664401007
 11
94.920143742856879
 21
203.65216330122538
  0
LINE
  8
_0-3_A0
  6
CONTINUOUS
 62
    3
 10
94.920143742856879
 20
203.65216330122538
 11
94.941192191446788
 21
203.63300499255919
  0
LINE
  8
_0-3_A0
  6
CONTINUOUS
 62
    3
 10
94.941192191446788
 20
203.63300499255919
 11
94.968233938447042
 21
203.61606383352577
  0
LINE
  8
_0-3_A0
  6
CONTINUOUS
 62
    3
 10
94.968233938447042
 20
203.61606383352577
 11
95.000447334058804
 21
203.60185457266965
  0
LINE
  8
_0-3_A0
  6
CONTINUOUS
 62
    3
 10
95.000447334058804
 20
203.60185457266965
 11
95.036853590557171
 21
203.59080895119177
  0
LINE
  8
_0-3_A0
  6
CONTINUOUS
 62
    3
 10
95.036853590557171
 20
203.59080895119177
 11
95.076346522260919
 21
203.58326258471137
  0
LINE
  8
_0-3_A0
  6
CONTINUOUS
 62
    3
 10
95.076346522260919
 20
203.58326258471137
 11
95.117726156424595
 21
203.57944476575528
  0
LINE
  8
_0-3_A0
  6
CONTINUOUS
 62
    3
 10
95.117726156424595
 20
203.57944476575528
 11
95.159155392419833
 21
203.57944476566785
  0
LINE
  8
_0-3_A0
  6
CONTINUOUS
 62
    3
 10
100.63588148861724
 20
203.57944476566785
 11
100.67789052599549
 21
203.57947149691051
  0
LINE
  8
_0-3_A0
  6
CONTINUOUS
 62
    3
 10
100.67789052599549
 20
203.57947149691051
 11
100.71925254318712
 21
203.58334196596194
  0
LINE
  8
_0-3_A0
  6
CONTINUOUS
 62
    3
 10
100.71925254318712
 20
203.58334196596194
 11
100.75871077622998
 21
203.59093857057857
  0
LINE
  8
_0-3_A0
  6
CONTINUOUS
 62
    3
 10
100.75871077622998
 20
203.59093857057857
 11
100.79506630667988
 21
203.6020304917732
  0
LINE
  8
_0-3_A0
  6
CONTINUOUS
 62
    3
 10
100.79506630667988
 20
203.6020304917732
 11
100.82721449014088
 21
203.61628070713311
  0
LINE
  8
_0-3_A0
  6
CONTINUOUS
 62
    3
 10
100.82721449014088
 20
203.61628070713311
 11
100.8541785203263
 21
203.63325623107556
  0
LINE
  8
_0-3_A0
  6
CONTINUOUS
 62
    3
 10
100.8541785203263
 20
203.63325623107556
 11
100.87513910882339
 21
203.65244127089556
  0
LINE
  8
_0-3_A0
  6
CONTINUOUS
 62
    3
 10
100.87513910882339
 20
203.65244127089556
 11
100.88945937875725
 21
203.67325289886628
  0
LINE
  8
_0-3_A0
  6
CONTINUOUS
 62
    3
 10
100.88945937875725
 20
203.67325289886628
 11
100.89670421597234
 21
203.69505876420302
  0
LINE
  8
_0-3_A0
  6
CONTINUOUS
 62
    3
 10
100.89670421597234
 20
203.69505876420302
 11
100.89665348975596
 21
203.71719630672185
  0
LINE
  8
_0-3_A0
  6
CONTINUOUS
 62
    3
 10
100.89665348975596
 20
203.71719630672185
 11
100.8893087413985
 21
203.73899288839544
  0
LINE
  8
_0-3_A0
  6
CONTINUOUS
 62
    3
 10
100.8893087413985
 20
203.73899288839544
 11
100.8748931373622
 21
203.75978623111927
  0
LINE
  8
_0-3_A0
  6
CONTINUOUS
 62
    3
 10
100.8748931373622
 20
203.75978623111927
 11
100.85384468848104
 21
203.77894453969662
  0
LINE
  8
_0-3_A0
  6
CONTINUOUS
 62
    3
 10
100.85384468848104
 20
203.77894453969662
 11
100.82680294122327
 21
203.7958856986159
  0
LINE
  8
_0-3_A0
  6
CONTINUOUS
 62
    3
 10
100.82680294122327
 20
203.7958856986159
 11
100.79458954539551
 21
203.81009495933599
  0
LINE
  8
_0-3_A0
  6
CONTINUOUS
 62
    3
 10
100.79458954539551
 20
203.81009495933599
 11
100.75818328872922
 21
203.82114058066019
  0
LINE
  8
_0-3_A0
  6
CONTINUOUS
 62
    3
 10
100.75818328872922
 20
203.82114058066019
 11
100.71869035691076
 21
203.8286869469739
  0
LINE
  8
_0-3_A0
  6
CONTINUOUS
 62
    3
 10
100.71869035691076
 20
203.8286869469739
 11
100.67731072268905
 21
203.83250476575528
  0
LINE
  8
_0-3_A0
  6
CONTINUOUS
 62
    3
 10
100.67731072268905
 20
203.83250476575528
 11
100.63588148669383
 21
203.83250476566786
  0
LINE
  8
_0-3_A0
  6
CONTINUOUS
 62
    3
 10
95.159155392419862
 20
203.35801476474287
 11
95.117146355041612
 21
203.35798803350022
  0
LINE
  8
_0-3_A0
  6
CONTINUOUS
 62
    3
 10
95.117146355041612
 20
203.35798803350022
 11
95.075784337849981
 21
203.35411756444878
  0
LINE
  8
_0-3_A0
  6
CONTINUOUS
 62
    3
 10
95.075784337849981
 20
203.35411756444878
 11
95.036326104807116
 21
203.34652095983216
  0
LINE
  8
_0-3_A0
  6
CONTINUOUS
 62
    3
 10
95.036326104807116
 20
203.34652095983216
 11
94.99997057435722
 21
203.33542903863752
  0
LINE
  8
_0-3_A0
  6
CONTINUOUS
 62
    3
 10
94.99997057435722
 20
203.33542903863752
 11
94.967822390896216
 21
203.32117882327762
  0
LINE
  8
_0-3_A0
  6
CONTINUOUS
 62
    3
 10
94.967822390896216
 20
203.32117882327762
 11
94.940858360710805
 21
203.30420329933517
  0
LINE
  8
_0-3_A0
  6
CONTINUOUS
 62
    3
 10
94.940858360710805
 20
203.30420329933517
 11
94.919897772213701
 21
203.28501825951519
  0
LINE
  8
_0-3_A0
  6
CONTINUOUS
 62
    3
 10
94.919897772213701
 20
203.28501825951519
 11
94.90557750227984
 21
203.26420663154448
  0
LINE
  8
_0-3_A0
  6
CONTINUOUS
 62
    3
 10
94.90557750227984
 20
203.26420663154448
 11
94.898332665064742
 21
203.2424007662077
  0
LINE
  8
_0-3_A0
  6
CONTINUOUS
 62
    3
 10
94.898332665064742
 20
203.2424007662077
 11
94.898383391281129
 21
203.2202632236889
  0
LINE
  8
_0-3_A0
  6
CONTINUOUS
 62
    3
 10
94.898383391281129
 20
203.2202632236889
 11
94.905728139638583
 21
203.19846664201529
  0
LINE
  8
_0-3_A0
  6
CONTINUOUS
 62
    3
 10
94.905728139638583
 20
203.19846664201529
 11
94.920143743674884
 21
203.17767329929145
  0
LINE
  8
_0-3_A0
  6
CONTINUOUS
 62
    3
 10
94.920143743674884
 20
203.17767329929145
 11
94.94119219255603
 21
203.15851499071413
  0
LINE
  8
_0-3_A0
  6
CONTINUOUS
 62
    3
 10
94.94119219255603
 20
203.15851499071413
 11
94.968233939813814
 21
203.14157383179482
  0
LINE
  8
_0-3_A0
  6
CONTINUOUS
 62
    3
 10
94.968233939813814
 20
203.14157383179482
 11
95.000447335641567
 21
203.12736457107473
  0
LINE
  8
_0-3_A0
  6
CONTINUOUS
 62
    3
 10
95.000447335641567
 20
203.12736457107473
 11
95.036853592307849
 21
203.11631894975053
  0
LINE
  8
_0-3_A0
  6
CONTINUOUS
 62
    3
 10
95.036853592307849
 20
203.11631894975053
 11
95.076346524126307
 21
203.10877258343683
  0
LINE
  8
_0-3_A0
  6
CONTINUOUS
 62
    3
 10
95.076346524126307
 20
203.10877258343683
 11
95.11772615834802
 21
203.10495476465544
  0
LINE
  8
_0-3_A0
  6
CONTINUOUS
 62
    3
 10
95.11772615834802
 20
203.10495476465544
 11
95.159155394343272
 21
203.10495476474287
  0
LINE
  8
_0-3_A0
  6
CONTINUOUS
 62
    3
 10
100.67731074512644
 20
203.10495476567555
 11
95.11772615657874
 21
203.10495476473585
  0
LINE
  8
_0-3_A0
  6
CONTINUOUS
 62
    3
 10
100.63588148669383
 20
203.10495476474298
 11
100.67789052407248
 21
203.10498149580831
  0
LINE
  8
_0-3_A0
  6
CONTINUOUS
 62
    3
 10
100.67789052407248
 20
203.10498149580831
 11
100.71925254132295
 21
203.10885196468515
  0
LINE
  8
_0-3_A0
  6
CONTINUOUS
 62
    3
 10
100.71925254132295
 20
203.10885196468515
 11
100.7587107744813
 21
203.11644856913522
  0
LINE
  8
_0-3_A0
  6
CONTINUOUS
 62
    3
 10
100.7587107744813
 20
203.11644856913522
 11
100.7950663050998
 21
203.12754049017638
  0
LINE
  8
_0-3_A0
  6
CONTINUOUS
 62
    3
 10
100.7950663050998
 20
203.12754049017638
 11
100.82721448877742
 21
203.14179070540058
  0
LINE
  8
_0-3_A0
  6
CONTINUOUS
 62
    3
 10
100.82721448877742
 20
203.14179070540058
 11
100.85417851922088
 21
203.1587662292292
  0
LINE
  8
_0-3_A0
  6
CONTINUOUS
 62
    3
 10
100.85417851922088
 20
203.1587662292292
 11
100.87513910800961
 21
203.17795126896069
  0
LINE
  8
_0-3_A0
  6
CONTINUOUS
 62
    3
 10
100.87513910800961
 20
203.17795126896069
 11
100.88945937825984
 21
203.19876289687098
  0
LINE
  8
_0-3_A0
  6
CONTINUOUS
 62
    3
 10
100.88945937825984
 20
203.19876289687098
 11
100.8967042158064
 21
203.22056876217715
  0
LINE
  8
_0-3_A0
  6
CONTINUOUS
 62
    3
 10
100.8967042158064
 20
203.22056876217715
 11
100.89665348992653
 21
203.24270630469618
  0
LINE
  8
_0-3_A0
  6
CONTINUOUS
 62
    3
 10
100.89665348992653
 20
203.24270630469618
 11
100.88930874190042
 21
203.2645028864008
  0
LINE
  8
_0-3_A0
  6
CONTINUOUS
 62
    3
 10
100.88930874190042
 20
203.2645028864008
 11
100.87489313818021
 21
203.28529622918546
  0
LINE
  8
_0-3_A0
  6
CONTINUOUS
 62
    3
 10
100.87489313818021
 20
203.28529622918546
 11
100.85384468959028
 21
203.30445453785165
  0
LINE
  8
_0-3_A0
  6
CONTINUOUS
 62
    3
 10
100.85384468959028
 20
203.30445453785165
 11
100.82680294259003
 21
203.3213956968851
  0
LINE
  8
_0-3_A0
  6
CONTINUOUS
 62
    3
 10
100.82680294259003
 20
203.3213956968851
 11
100.79458954697827
 21
203.33560495774119
  0
LINE
  8
_0-3_A0
  6
CONTINUOUS
 62
    3
 10
100.79458954697827
 20
203.33560495774119
 11
100.75818329047989
 21
203.34665057921907
  0
LINE
  8
_0-3_A0
  6
CONTINUOUS
 62
    3
 10
100.75818329047989
 20
203.34665057921907
 11
100.71869035877614
 21
203.35419694569947
  0
LINE
  8
_0-3_A0
  6
CONTINUOUS
 62
    3
 10
100.71869035877614
 20
203.35419694569947
 11
100.67731072461246
 21
203.35801476465556
  0
LINE
  8
_0-3_A0
  6
CONTINUOUS
 62
    3
 10
100.67731072461246
 20
203.35801476465556
 11
100.63588148861724
 21
203.35801476474298
  0
LINE
  8
_0-3_A0
  6
CONTINUOUS
 62
    3
 10
100.67731070217514
 20
203.35801476567556
 11
95.117726158193846
 21
203.35801476473585
  0
LINE
  8
_0-3_A0
  6
CONTINUOUS
 62
    3
 10
87.617726135910501
 20
203.83250476473526
 11
93.177310724458251
 21
203.83250476567496
  0
LINE
  8
_0-3_A0
  6
CONTINUOUS
 62
    3
 10
87.617726178861815
 20
203.57944476473537
 11
93.177310722843103
 21
203.57944476567496
  0
LINE
  8
_0-3_A0
  6
CONTINUOUS
 62
    3
 10
93.135881488617002
 20
203.57944476566785
 11
93.177890525995252
 21
203.57947149691051
  0
LINE
  8
_0-3_A0
  6
CONTINUOUS
 62
    3
 10
93.177890525995252
 20
203.57947149691051
 11
93.219252543186883
 21
203.58334196596194
  0
LINE
  8
_0-3_A0
  6
CONTINUOUS
 62
    3
 10
93.219252543186883
 20
203.58334196596194
 11
93.258710776229747
 21
203.59093857057857
  0
LINE
  8
_0-3_A0
  6
CONTINUOUS
 62
    3
 10
93.258710776229747
 20
203.59093857057857
 11
93.295066306679643
 21
203.6020304917732
  0
LINE
  8
_0-3_A0
  6
CONTINUOUS
 62
    3
 10
93.295066306679643
 20
203.6020304917732
 11
93.327214490140647
 21
203.61628070713311
  0
LINE
  8
_0-3_A0
  6
CONTINUOUS
 62
    3
 10
93.327214490140647
 20
203.61628070713311
 11
93.354178520326058
 21
203.63325623107556
  0
LINE
  8
_0-3_A0
  6
CONTINUOUS
 62
    3
 10
93.354178520326058
 20
203.63325623107556
 11
93.375139108823162
 21
203.65244127089553
  0
LINE
  8
_0-3_A0
  6
CONTINUOUS
 62
    3
 10
93.375139108823162
 20
203.65244127089553
 11
93.389459378757024
 21
203.67325289886625
  0
LINE
  8
_0-3_A0
  6
CONTINUOUS
 62
    3
 10
93.389459378757024
 20
203.67325289886625
 11
93.396704215972121
 21
203.69505876420302
  0
LINE
  8
_0-3_A0
  6
CONTINUOUS
 62
    3
 10
93.396704215972121
 20
203.69505876420302
 11
93.396653489755735
 21
203.71719630672183
  0
LINE
  8
_0-3_A0
  6
CONTINUOUS
 62
    3
 10
93.396653489755735
 20
203.71719630672183
 11
93.389308741398281
 21
203.73899288839544
  0
LINE
  8
_0-3_A0
  6
CONTINUOUS
 62
    3
 10
93.389308741398281
 20
203.73899288839544
 11
93.374893137361979
 21
203.75978623111927
  0
LINE
  8
_0-3_A0
  6
CONTINUOUS
 62
    3
 10
93.374893137361979
 20
203.75978623111927
 11
93.353844688480833
 21
203.77894453969659
  0
LINE
  8
_0-3_A0
  6
CONTINUOUS
 62
    3
 10
93.353844688480833
 20
203.77894453969659
 11
93.32680294122305
 21
203.7958856986159
  0
LINE
  8
_0-3_A0
  6
CONTINUOUS
 62
    3
 10
93.32680294122305
 20
203.7958856986159
 11
93.294589545395297
 21
203.81009495933599
  0
LINE
  8
_0-3_A0
  6
CONTINUOUS
 62
    3
 10
93.294589545395297
 20
203.81009495933599
 11
93.258183288729014
 21
203.82114058066019
  0
LINE
  8
_0-3_A0
  6
CONTINUOUS
 62
    3
 10
93.258183288729014
 20
203.82114058066019
 11
93.218690356910556
 21
203.8286869469739
  0
LINE
  8
_0-3_A0
  6
CONTINUOUS
 62
    3
 10
93.218690356910556
 20
203.8286869469739
 11
93.177310722688844
 21
203.83250476575528
  0
LINE
  8
_0-3_A0
  6
CONTINUOUS
 62
    3
 10
93.177310722688844
 20
203.83250476575528
 11
93.135881486693591
 21
203.83250476566786
  0
LINE
  8
_0-3_A0
  6
CONTINUOUS
 62
    3
 10
87.659155394343059
 20
203.83250476566786
 11
87.617146356964411
 21
203.83247803460253
  0
LINE
  8
_0-3_A0
  6
CONTINUOUS
 62
    3
 10
87.617146356964411
 20
203.83247803460253
 11
87.575784339713933
 21
203.82860756572569
  0
LINE
  8
_0-3_A0
  6
CONTINUOUS
 62
    3
 10
87.575784339713933
 20
203.82860756572569
 11
87.536326106555591
 21
203.82101096127561
  0
LINE
  8
_0-3_A0
  6
CONTINUOUS
 62
    3
 10
87.536326106555591
 20
203.82101096127561
 11
87.499970575937084
 21
203.80991904023446
  0
LINE
  8
_0-3_A0
  6
CONTINUOUS
 62
    3
 10
87.499970575937084
 20
203.80991904023446
 11
87.467822392259449
 21
203.79566882501026
  0
LINE
  8
_0-3_A0
  6
CONTINUOUS
 62
    3
 10
87.467822392259449
 20
203.79566882501026
 11
87.440858361815998
 21
203.77869330118167
  0
LINE
  8
_0-3_A0
  6
CONTINUOUS
 62
    3
 10
87.440858361815998
 20
203.77869330118167
 11
87.419897773027258
 21
203.75950826145015
  0
LINE
  8
_0-3_A0
  6
CONTINUOUS
 62
    3
 10
87.419897773027258
 20
203.75950826145015
 11
87.405577502777035
 21
203.73869663353988
  0
LINE
  8
_0-3_A0
  6
CONTINUOUS
 62
    3
 10
87.405577502777035
 20
203.73869663353988
 11
87.398332665230455
 21
203.71689076823372
  0
LINE
  8
_0-3_A0
  6
CONTINUOUS
 62
    3
 10
87.398332665230455
 20
203.71689076823372
 11
87.398383391110314
 21
203.69475322571469
  0
LINE
  8
_0-3_A0
  6
CONTINUOUS
 62
    3
 10
87.398383391110314
 20
203.69475322571469
 11
87.405728139136428
 21
203.67295664401007
  0
LINE
  8
_0-3_A0
  6
CONTINUOUS
 62
    3
 10
87.405728139136428
 20
203.67295664401007
 11
87.420143742856652
 21
203.65216330122538
  0
LINE
  8
_0-3_A0
  6
CONTINUOUS
 62
    3
 10
87.420143742856652
 20
203.65216330122538
 11
87.44119219144656
 21
203.63300499255919
  0
LINE
  8
_0-3_A0
  6
CONTINUOUS
 62
    3
 10
87.44119219144656
 20
203.63300499255919
 11
87.468233938446815
 21
203.61606383352577
  0
LINE
  8
_0-3_A0
  6
CONTINUOUS
 62
    3
 10
87.468233938446815
 20
203.61606383352577
 11
87.500447334058577
 21
203.60185457266965
  0
LINE
  8
_0-3_A0
  6
CONTINUOUS
 62
    3
 10
87.500447334058577
 20
203.60185457266965
 11
87.536853590556944
 21
203.59080895119177
  0
LINE
  8
_0-3_A0
  6
CONTINUOUS
 62
    3
 10
87.536853590556944
 20
203.59080895119177
 11
87.576346522260692
 21
203.58326258471137
  0
LINE
  8
_0-3_A0
  6
CONTINUOUS
 62
    3
 10
87.576346522260692
 20
203.58326258471137
 11
87.617726156424367
 21
203.57944476575528
  0
LINE
  8
_0-3_A0
  6
CONTINUOUS
 62
    3
 10
87.617726156424367
 20
203.57944476575528
 11
87.65915539241962
 21
203.57944476566785
  0
LINE
  8
_0-3_A0
  6
CONTINUOUS
 62
    3
 10
93.135881486693577
 20
203.10495476474287
 11
93.177890524072225
 21
203.1049814958082
  0
LINE
  8
_0-3_A0
  6
CONTINUOUS
 62
    3
 10
93.177890524072225
 20
203.1049814958082
 11
93.219252541322703
 21
203.10885196468504
  0
LINE
  8
_0-3_A0
  6
CONTINUOUS
 62
    3
 10
93.219252541322703
 20
203.10885196468504
 11
93.258710774481045
 21
203.11644856913511
  0
LINE
  8
_0-3_A0
  6
CONTINUOUS
 62
    3
 10
93.258710774481045
 20
203.11644856913511
 11
93.295066305099553
 21
203.12754049017627
  0
LINE
  8
_0-3_A0
  6
CONTINUOUS
 62
    3
 10
93.295066305099553
 20
203.12754049017627
 11
93.327214488777187
 21
203.14179070540046
  0
LINE
  8
_0-3_A0
  6
CONTINUOUS
 62
    3
 10
93.327214488777187
 20
203.14179070540046
 11
93.354178519220639
 21
203.15876622922905
  0
LINE
  8
_0-3_A0
  6
CONTINUOUS
 62
    3
 10
93.354178519220639
 20
203.15876622922905
 11
93.375139108009378
 21
203.17795126896058
  0
LINE
  8
_0-3_A0
  6
CONTINUOUS
 62
    3
 10
93.375139108009378
 20
203.17795126896058
 11
93.389459378259601
 21
203.19876289687084
  0
LINE
  8
_0-3_A0
  6
CONTINUOUS
 62
    3
 10
93.389459378259601
 20
203.19876289687084
 11
93.396704215806181
 21
203.220568762177
  0
LINE
  8
_0-3_A0
  6
CONTINUOUS
 62
    3
 10
93.396704215806181
 20
203.220568762177
 11
93.396653489926322
 21
203.24270630469607
  0
LINE
  8
_0-3_A0
  6
CONTINUOUS
 62
    3
 10
93.396653489926322
 20
203.24270630469607
 11
93.389308741900208
 21
203.26450288640066
  0
LINE
  8
_0-3_A0
  6
CONTINUOUS
 62
    3
 10
93.389308741900208
 20
203.26450288640066
 11
93.374893138179984
 21
203.28529622918534
  0
LINE
  8
_0-3_A0
  6
CONTINUOUS
 62
    3
 10
93.374893138179984
 20
203.28529622918534
 11
93.353844689590076
 21
203.30445453785154
  0
LINE
  8
_0-3_A0
  6
CONTINUOUS
 62
    3
 10
93.353844689590076
 20
203.30445453785154
 11
93.326802942589822
 21
203.32139569688496
  0
LINE
  8
_0-3_A0
  6
CONTINUOUS
 62
    3
 10
93.326802942589822
 20
203.32139569688496
 11
93.294589546978059
 21
203.33560495774108
  0
LINE
  8
_0-3_A0
  6
CONTINUOUS
 62
    3
 10
93.294589546978059
 20
203.33560495774108
 11
93.258183290479678
 21
203.34665057921895
  0
LINE
  8
_0-3_A0
  6
CONTINUOUS
 62
    3
 10
93.258183290479678
 20
203.34665057921895
 11
93.218690358775944
 21
203.35419694569935
  0
LINE
  8
_0-3_A0
  6
CONTINUOUS
 62
    3
 10
93.218690358775944
 20
203.35419694569935
 11
93.177310724612269
 21
203.35801476465545
  0
LINE
  8
_0-3_A0
  6
CONTINUOUS
 62
    3
 10
93.177310724612269
 20
203.35801476465545
 11
93.13588148861703
 21
203.35801476474287
  0
LINE
  8
_0-3_A0
  6
CONTINUOUS
 62
    3
 10
87.617726135910473
 20
203.10495476567547
 11
93.177310724458166
 21
203.10495476473585
  0
LINE
  8
_0-3_A0
  6
CONTINUOUS
 62
    3
 10
87.65915539241962
 20
203.35801476474298
 11
87.61714635504137
 21
203.35798803350033
  0
LINE
  8
_0-3_A0
  6
CONTINUOUS
 62
    3
 10
87.61714635504137
 20
203.35798803350033
 11
87.575784337849725
 21
203.35411756444889
  0
LINE
  8
_0-3_A0
  6
CONTINUOUS
 62
    3
 10
87.575784337849725
 20
203.35411756444889
 11
87.536326104806875
 21
203.34652095983224
  0
LINE
  8
_0-3_A0
  6
CONTINUOUS
 62
    3
 10
87.536326104806875
 20
203.34652095983224
 11
87.499970574356979
 21
203.33542903863764
  0
LINE
  8
_0-3_A0
  6
CONTINUOUS
 62
    3
 10
87.499970574356979
 20
203.33542903863764
 11
87.467822390895975
 21
203.32117882327773
  0
LINE
  8
_0-3_A0
  6
CONTINUOUS
 62
    3
 10
87.467822390895975
 20
203.32117882327773
 11
87.440858360710564
 21
203.30420329933528
  0
LINE
  8
_0-3_A0
  6
CONTINUOUS
 62
    3
 10
87.440858360710564
 20
203.30420329933528
 11
87.419897772213474
 21
203.28501825951528
  0
LINE
  8
_0-3_A0
  6
CONTINUOUS
 62
    3
 10
87.419897772213474
 20
203.28501825951528
 11
87.405577502279612
 21
203.26420663154456
  0
LINE
  8
_0-3_A0
  6
CONTINUOUS
 62
    3
 10
87.405577502279612
 20
203.26420663154456
 11
87.398332665064515
 21
203.24240076620782
  0
LINE
  8
_0-3_A0
  6
CONTINUOUS
 62
    3
 10
87.398332665064515
 20
203.24240076620782
 11
87.398383391280901
 21
203.22026322368898
  0
LINE
  8
_0-3_A0
  6
CONTINUOUS
 62
    3
 10
87.398383391280901
 20
203.22026322368898
 11
87.405728139638355
 21
203.1984666420154
  0
LINE
  8
_0-3_A0
  6
CONTINUOUS
 62
    3
 10
87.405728139638355
 20
203.1984666420154
 11
87.420143743674657
 21
203.17767329929156
  0
LINE
  8
_0-3_A0
  6
CONTINUOUS
 62
    3
 10
87.420143743674657
 20
203.17767329929156
 11
87.441192192555817
 21
203.15851499071422
  0
LINE
  8
_0-3_A0
  6
CONTINUOUS
 62
    3
 10
87.441192192555817
 20
203.15851499071422
 11
87.468233939813586
 21
203.14157383179494
  0
LINE
  8
_0-3_A0
  6
CONTINUOUS
 62
    3
 10
87.468233939813586
 20
203.14157383179494
 11
87.500447335641354
 21
203.12736457107482
  0
LINE
  8
_0-3_A0
  6
CONTINUOUS
 62
    3
 10
87.500447335641354
 20
203.12736457107482
 11
87.536853592307636
 21
203.11631894975064
  0
LINE
  8
_0-3_A0
  6
CONTINUOUS
 62
    3
 10
87.536853592307636
 20
203.11631894975064
 11
87.576346524126094
 21
203.10877258343694
  0
LINE
  8
_0-3_A0
  6
CONTINUOUS
 62
    3
 10
87.576346524126094
 20
203.10877258343694
 11
87.617726158347807
 21
203.10495476465555
  0
LINE
  8
_0-3_A0
  6
CONTINUOUS
 62
    3
 10
87.617726158347807
 20
203.10495476465555
 11
87.659155394343031
 21
203.10495476474298
  0
LINE
  8
_0-3_A0
  6
CONTINUOUS
 62
    3
 10
87.617726178861786
 20
203.35801476567556
 11
93.177310722843074
 21
203.35801476473585
  0
LINE
  8
_0-3_A0
  6
CONTINUOUS
 62
    3
 10
72.617726135910459
 20
203.83250476473526
 11
78.177310724458266
 21
203.83250476567485
  0
LINE
  8
_0-3_A0
  6
CONTINUOUS
 62
    3
 10
72.617726178861801
 20
203.57944476473525
 11
78.177310722843117
 21
203.57944476567496
  0
LINE
  8
_0-3_A0
  6
CONTINUOUS
 62
    3
 10
78.13588148861703
 20
203.57944476566785
 11
78.17789052599528
 21
203.57947149691051
  0
LINE
  8
_0-3_A0
  6
CONTINUOUS
 62
    3
 10
78.17789052599528
 20
203.57947149691051
 11
78.219252543186939
 21
203.58334196596194
  0
LINE
  8
_0-3_A0
  6
CONTINUOUS
 62
    3
 10
78.219252543186939
 20
203.58334196596194
 11
78.258710776229804
 21
203.59093857057857
  0
LINE
  8
_0-3_A0
  6
CONTINUOUS
 62
    3
 10
78.258710776229804
 20
203.59093857057857
 11
78.2950663066797
 21
203.6020304917732
  0
LINE
  8
_0-3_A0
  6
CONTINUOUS
 62
    3
 10
78.2950663066797
 20
203.6020304917732
 11
78.327214490140704
 21
203.61628070713311
  0
LINE
  8
_0-3_A0
  6
CONTINUOUS
 62
    3
 10
78.327214490140704
 20
203.61628070713311
 11
78.354178520326115
 21
203.63325623107556
  0
LINE
  8
_0-3_A0
  6
CONTINUOUS
 62
    3
 10
78.354178520326115
 20
203.63325623107556
 11
78.375139108823191
 21
203.65244127089553
  0
LINE
  8
_0-3_A0
  6
CONTINUOUS
 62
    3
 10
78.375139108823191
 20
203.65244127089553
 11
78.389459378757067
 21
203.67325289886625
  0
LINE
  8
_0-3_A0
  6
CONTINUOUS
 62
    3
 10
78.389459378757067
 20
203.67325289886625
 11
78.396704215972164
 21
203.69505876420302
  0
LINE
  8
_0-3_A0
  6
CONTINUOUS
 62
    3
 10
78.396704215972164
 20
203.69505876420302
 11
78.396653489755777
 21
203.71719630672183
  0
LINE
  8
_0-3_A0
  6
CONTINUOUS
 62
    3
 10
78.396653489755777
 20
203.71719630672183
 11
78.389308741398338
 21
203.73899288839544
  0
LINE
  8
_0-3_A0
  6
CONTINUOUS
 62
    3
 10
78.389308741398338
 20
203.73899288839544
 11
78.374893137362022
 21
203.75978623111927
  0
LINE
  8
_0-3_A0
  6
CONTINUOUS
 62
    3
 10
78.374893137362022
 20
203.75978623111927
 11
78.353844688480876
 21
203.77894453969659
  0
LINE
  8
_0-3_A0
  6
CONTINUOUS
 62
    3
 10
78.353844688480876
 20
203.77894453969659
 11
78.326802941223093
 21
203.7958856986159
  0
LINE
  8
_0-3_A0
  6
CONTINUOUS
 62
    3
 10
78.326802941223093
 20
203.7958856986159
 11
78.294589545395353
 21
203.81009495933599
  0
LINE
  8
_0-3_A0
  6
CONTINUOUS
 62
    3
 10
78.294589545395353
 20
203.81009495933599
 11
78.258183288729071
 21
203.82114058066019
  0
LINE
  8
_0-3_A0
  6
CONTINUOUS
 62
    3
 10
78.258183288729071
 20
203.82114058066019
 11
78.218690356910599
 21
203.8286869469739
  0
LINE
  8
_0-3_A0
  6
CONTINUOUS
 62
    3
 10
78.218690356910599
 20
203.8286869469739
 11
78.177310722688901
 21
203.83250476575528
  0
LINE
  8
_0-3_A0
  6
CONTINUOUS
 62
    3
 10
78.177310722688901
 20
203.83250476575528
 11
78.135881486693619
 21
203.83250476566786
  0
LINE
  8
_0-3_A0
  6
CONTINUOUS
 62
    3
 10
72.659155394343088
 20
203.83250476566786
 11
72.61714635696444
 21
203.83247803460253
  0
LINE
  8
_0-3_A0
  6
CONTINUOUS
 62
    3
 10
72.61714635696444
 20
203.83247803460253
 11
72.575784339713948
 21
203.82860756572569
  0
LINE
  8
_0-3_A0
  6
CONTINUOUS
 62
    3
 10
72.575784339713948
 20
203.82860756572569
 11
72.536326106555634
 21
203.82101096127561
  0
LINE
  8
_0-3_A0
  6
CONTINUOUS
 62
    3
 10
72.536326106555634
 20
203.82101096127561
 11
72.499970575937112
 21
203.80991904023446
  0
LINE
  8
_0-3_A0
  6
CONTINUOUS
 62
    3
 10
72.499970575937112
 20
203.80991904023446
 11
72.467822392259478
 21
203.79566882501026
  0
LINE
  8
_0-3_A0
  6
CONTINUOUS
 62
    3
 10
72.467822392259478
 20
203.79566882501026
 11
72.440858361816026
 21
203.77869330118167
  0
LINE
  8
_0-3_A0
  6
CONTINUOUS
 62
    3
 10
72.440858361816026
 20
203.77869330118167
 11
72.419897773027287
 21
203.75950826145015
  0
LINE
  8
_0-3_A0
  6
CONTINUOUS
 62
    3
 10
72.419897773027287
 20
203.75950826145015
 11
72.405577502777077
 21
203.73869663353988
  0
LINE
  8
_0-3_A0
  6
CONTINUOUS
 62
    3
 10
72.405577502777077
 20
203.73869663353988
 11
72.398332665230498
 21
203.71689076823372
  0
LINE
  8
_0-3_A0
  6
CONTINUOUS
 62
    3
 10
72.398332665230498
 20
203.71689076823372
 11
72.398383391110343
 21
203.69475322571469
  0
LINE
  8
_0-3_A0
  6
CONTINUOUS
 62
    3
 10
72.398383391110343
 20
203.69475322571469
 11
72.405728139136442
 21
203.67295664401007
  0
LINE
  8
_0-3_A0
  6
CONTINUOUS
 62
    3
 10
72.405728139136442
 20
203.67295664401007
 11
72.42014374285668
 21
203.65216330122538
  0
LINE
  8
_0-3_A0
  6
CONTINUOUS
 62
    3
 10
72.42014374285668
 20
203.65216330122538
 11
72.441192191446589
 21
203.63300499255919
  0
LINE
  8
_0-3_A0
  6
CONTINUOUS
 62
    3
 10
72.441192191446589
 20
203.63300499255919
 11
72.468233938446843
 21
203.61606383352577
  0
LINE
  8
_0-3_A0
  6
CONTINUOUS
 62
    3
 10
72.468233938446843
 20
203.61606383352577
 11
72.500447334058605
 21
203.60185457266965
  0
LINE
  8
_0-3_A0
  6
CONTINUOUS
 62
    3
 10
72.500447334058605
 20
203.60185457266965
 11
72.536853590556972
 21
203.59080895119177
  0
LINE
  8
_0-3_A0
  6
CONTINUOUS
 62
    3
 10
72.536853590556972
 20
203.59080895119177
 11
72.576346522260735
 21
203.58326258471137
  0
LINE
  8
_0-3_A0
  6
CONTINUOUS
 62
    3
 10
72.576346522260735
 20
203.58326258471137
 11
72.617726156424396
 21
203.57944476575528
  0
LINE
  8
_0-3_A0
  6
CONTINUOUS
 62
    3
 10
72.617726156424396
 20
203.57944476575528
 11
72.659155392419648
 21
203.57944476566785
  0
LINE
  8
_0-3_A0
  6
CONTINUOUS
 62
    3
 10
78.135881486693619
 20
203.10495476474287
 11
78.177890524072267
 21
203.1049814958082
  0
LINE
  8
_0-3_A0
  6
CONTINUOUS
 62
    3
 10
78.177890524072267
 20
203.1049814958082
 11
78.219252541322759
 21
203.10885196468504
  0
LINE
  8
_0-3_A0
  6
CONTINUOUS
 62
    3
 10
78.219252541322759
 20
203.10885196468504
 11
78.258710774481102
 21
203.11644856913511
  0
LINE
  8
_0-3_A0
  6
CONTINUOUS
 62
    3
 10
78.258710774481102
 20
203.11644856913511
 11
78.295066305099624
 21
203.12754049017627
  0
LINE
  8
_0-3_A0
  6
CONTINUOUS
 62
    3
 10
78.295066305099624
 20
203.12754049017627
 11
78.327214488777229
 21
203.14179070540046
  0
LINE
  8
_0-3_A0
  6
CONTINUOUS
 62
    3
 10
78.327214488777229
 20
203.14179070540046
 11
78.354178519220681
 21
203.15876622922908
  0
LINE
  8
_0-3_A0
  6
CONTINUOUS
 62
    3
 10
78.354178519220681
 20
203.15876622922908
 11
78.37513910800942
 21
203.17795126896058
  0
LINE
  8
_0-3_A0
  6
CONTINUOUS
 62
    3
 10
78.37513910800942
 20
203.17795126896058
 11
78.389459378259658
 21
203.19876289687084
  0
LINE
  8
_0-3_A0
  6
CONTINUOUS
 62
    3
 10
78.389459378259658
 20
203.19876289687084
 11
78.396704215806209
 21
203.22056876217703
  0
LINE
  8
_0-3_A0
  6
CONTINUOUS
 62
    3
 10
78.396704215806209
 20
203.22056876217703
 11
78.396653489926336
 21
203.24270630469607
  0
LINE
  8
_0-3_A0
  6
CONTINUOUS
 62
    3
 10
78.396653489926336
 20
203.24270630469607
 11
78.389308741900237
 21
203.26450288640066
  0
LINE
  8
_0-3_A0
  6
CONTINUOUS
 62
    3
 10
78.389308741900237
 20
203.26450288640066
 11
78.374893138180027
 21
203.28529622918534
  0
LINE
  8
_0-3_A0
  6
CONTINUOUS
 62
    3
 10
78.374893138180027
 20
203.28529622918534
 11
78.353844689590118
 21
203.30445453785154
  0
LINE
  8
_0-3_A0
  6
CONTINUOUS
 62
    3
 10
78.353844689590118
 20
203.30445453785154
 11
78.326802942589836
 21
203.32139569688499
  0
LINE
  8
_0-3_A0
  6
CONTINUOUS
 62
    3
 10
78.326802942589836
 20
203.32139569688499
 11
78.294589546978102
 21
203.33560495774108
  0
LINE
  8
_0-3_A0
  6
CONTINUOUS
 62
    3
 10
78.294589546978102
 20
203.33560495774108
 11
78.258183290479706
 21
203.34665057921895
  0
LINE
  8
_0-3_A0
  6
CONTINUOUS
 62
    3
 10
78.258183290479706
 20
203.34665057921895
 11
78.218690358775972
 21
203.35419694569935
  0
LINE
  8
_0-3_A0
  6
CONTINUOUS
 62
    3
 10
78.218690358775972
 20
203.35419694569935
 11
78.177310724612311
 21
203.35801476465545
  0
LINE
  8
_0-3_A0
  6
CONTINUOUS
 62
    3
 10
78.177310724612311
 20
203.35801476465545
 11
78.135881488617087
 21
203.35801476474287
  0
LINE
  8
_0-3_A0
  6
CONTINUOUS
 62
    3
 10
72.617726135910459
 20
203.10495476567555
 11
78.177310724458152
 21
203.10495476473585
  0
LINE
  8
_0-3_A0
  6
CONTINUOUS
 62
    3
 10
72.659155392419677
 20
203.35801476474298
 11
72.617146355041427
 21
203.35798803350033
  0
LINE
  8
_0-3_A0
  6
CONTINUOUS
 62
    3
 10
72.617146355041427
 20
203.35798803350033
 11
72.575784337849768
 21
203.35411756444889
  0
LINE
  8
_0-3_A0
  6
CONTINUOUS
 62
    3
 10
72.575784337849768
 20
203.35411756444889
 11
72.536326104806903
 21
203.34652095983227
  0
LINE
  8
_0-3_A0
  6
CONTINUOUS
 62
    3
 10
72.536326104806903
 20
203.34652095983227
 11
72.499970574357007
 21
203.33542903863764
  0
LINE
  8
_0-3_A0
  6
CONTINUOUS
 62
    3
 10
72.499970574357007
 20
203.33542903863764
 11
72.467822390896003
 21
203.32117882327773
  0
LINE
  8
_0-3_A0
  6
CONTINUOUS
 62
    3
 10
72.467822390896003
 20
203.32117882327773
 11
72.440858360710592
 21
203.30420329933528
  0
LINE
  8
_0-3_A0
  6
CONTINUOUS
 62
    3
 10
72.440858360710592
 20
203.30420329933528
 11
72.419897772213516
 21
203.28501825951531
  0
LINE
  8
_0-3_A0
  6
CONTINUOUS
 62
    3
 10
72.419897772213516
 20
203.28501825951531
 11
72.405577502279641
 21
203.26420663154459
  0
LINE
  8
_0-3_A0
  6
CONTINUOUS
 62
    3
 10
72.405577502279641
 20
203.26420663154459
 11
72.398332665064543
 21
203.24240076620782
  0
LINE
  8
_0-3_A0
  6
CONTINUOUS
 62
    3
 10
72.398332665064543
 20
203.24240076620782
 11
72.39838339128093
 21
203.22026322368901
  0
LINE
  8
_0-3_A0
  6
CONTINUOUS
 62
    3
 10
72.39838339128093
 20
203.22026322368901
 11
72.40572813963837
 21
203.1984666420154
  0
LINE
  8
_0-3_A0
  6
CONTINUOUS
 62
    3
 10
72.40572813963837
 20
203.1984666420154
 11
72.420143743674685
 21
203.17767329929156
  0
LINE
  8
_0-3_A0
  6
CONTINUOUS
 62
    3
 10
72.420143743674685
 20
203.17767329929156
 11
72.441192192555831
 21
203.15851499071422
  0
LINE
  8
_0-3_A0
  6
CONTINUOUS
 62
    3
 10
72.441192192555831
 20
203.15851499071422
 11
72.468233939813615
 21
203.14157383179494
  0
LINE
  8
_0-3_A0
  6
CONTINUOUS
 62
    3
 10
72.468233939813615
 20
203.14157383179494
 11
72.500447335641354
 21
203.12736457107484
  0
LINE
  8
_0-3_A0
  6
CONTINUOUS
 62
    3
 10
72.500447335641354
 20
203.12736457107484
 11
72.536853592307636
 21
203.11631894975064
  0
LINE
  8
_0-3_A0
  6
CONTINUOUS
 62
    3
 10
72.536853592307636
 20
203.11631894975064
 11
72.576346524126108
 21
203.10877258343694
  0
LINE
  8
_0-3_A0
  6
CONTINUOUS
 62
    3
 10
72.576346524126108
 20
203.10877258343694
 11
72.617726158347807
 21
203.10495476465555
  0
LINE
  8
_0-3_A0
  6
CONTINUOUS
 62
    3
 10
72.617726158347807
 20
203.10495476465555
 11
72.659155394343059
 21
203.10495476474298
  0
LINE
  8
_0-3_A0
  6
CONTINUOUS
 62
    3
 10
72.617726178861744
 20
203.35801476567556
 11
78.17731072284306
 21
203.35801476473585
  0
LINE
  8
_0-3_A0
  6
CONTINUOUS
 62
    3
 10
85.677310745126476
 20
203.83250476473534
 11
80.117726156578726
 21
203.83250476567496
  0
LINE
  8
_0-3_A0
  6
CONTINUOUS
 62
    3
 10
85.677310702175148
 20
203.57944476473525
 11
80.117726158193818
 21
203.57944476567496
  0
LINE
  8
_0-3_A0
  6
CONTINUOUS
 62
    3
 10
80.159155394343315
 20
203.83250476566786
 11
80.117146356964667
 21
203.83247803460253
  0
LINE
  8
_0-3_A0
  6
CONTINUOUS
 62
    3
 10
80.117146356964667
 20
203.83247803460253
 11
80.075784339714175
 21
203.82860756572569
  0
LINE
  8
_0-3_A0
  6
CONTINUOUS
 62
    3
 10
80.075784339714175
 20
203.82860756572569
 11
80.036326106555861
 21
203.82101096127561
  0
LINE
  8
_0-3_A0
  6
CONTINUOUS
 62
    3
 10
80.036326106555861
 20
203.82101096127561
 11
79.999970575937339
 21
203.80991904023446
  0
LINE
  8
_0-3_A0
  6
CONTINUOUS
 62
    3
 10
79.999970575937339
 20
203.80991904023446
 11
79.967822392259705
 21
203.79566882501026
  0
LINE
  8
_0-3_A0
  6
CONTINUOUS
 62
    3
 10
79.967822392259705
 20
203.79566882501026
 11
79.940858361816253
 21
203.77869330118167
  0
LINE
  8
_0-3_A0
  6
CONTINUOUS
 62
    3
 10
79.940858361816253
 20
203.77869330118167
 11
79.919897773027514
 21
203.75950826145015
  0
LINE
  8
_0-3_A0
  6
CONTINUOUS
 62
    3
 10
79.919897773027514
 20
203.75950826145015
 11
79.905577502777305
 21
203.73869663353988
  0
LINE
  8
_0-3_A0
  6
CONTINUOUS
 62
    3
 10
79.905577502777305
 20
203.73869663353988
 11
79.898332665230725
 21
203.71689076823372
  0
LINE
  8
_0-3_A0
  6
CONTINUOUS
 62
    3
 10
79.898332665230725
 20
203.71689076823372
 11
79.89838339111057
 21
203.69475322571469
  0
LINE
  8
_0-3_A0
  6
CONTINUOUS
 62
    3
 10
79.89838339111057
 20
203.69475322571469
 11
79.90572813913667
 21
203.67295664401007
  0
LINE
  8
_0-3_A0
  6
CONTINUOUS
 62
    3
 10
79.90572813913667
 20
203.67295664401007
 11
79.920143742856907
 21
203.65216330122538
  0
LINE
  8
_0-3_A0
  6
CONTINUOUS
 62
    3
 10
79.920143742856907
 20
203.65216330122538
 11
79.941192191446816
 21
203.63300499255919
  0
LINE
  8
_0-3_A0
  6
CONTINUOUS
 62
    3
 10
79.941192191446816
 20
203.63300499255919
 11
79.96823393844707
 21
203.61606383352577
  0
LINE
  8
_0-3_A0
  6
CONTINUOUS
 62
    3
 10
79.96823393844707
 20
203.61606383352577
 11
80.000447334058833
 21
203.60185457266965
  0
LINE
  8
_0-3_A0
  6
CONTINUOUS
 62
    3
 10
80.000447334058833
 20
203.60185457266965
 11
80.0368535905572
 21
203.59080895119177
  0
LINE
  8
_0-3_A0
  6
CONTINUOUS
 62
    3
 10
80.0368535905572
 20
203.59080895119177
 11
80.076346522260962
 21
203.58326258471137
  0
LINE
  8
_0-3_A0
  6
CONTINUOUS
 62
    3
 10
80.076346522260962
 20
203.58326258471137
 11
80.117726156424623
 21
203.57944476575528
  0
LINE
  8
_0-3_A0
  6
CONTINUOUS
 62
    3
 10
80.117726156424623
 20
203.57944476575528
 11
80.159155392419847
 21
203.57944476566785
  0
LINE
  8
_0-3_A0
  6
CONTINUOUS
 62
    3
 10
85.635881488617286
 20
203.57944476566785
 11
85.677890525995536
 21
203.57947149691051
  0
LINE
  8
_0-3_A0
  6
CONTINUOUS
 62
    3
 10
85.677890525995536
 20
203.57947149691051
 11
85.719252543187167
 21
203.58334196596194
  0
LINE
  8
_0-3_A0
  6
CONTINUOUS
 62
    3
 10
85.719252543187167
 20
203.58334196596194
 11
85.758710776230032
 21
203.59093857057857
  0
LINE
  8
_0-3_A0
  6
CONTINUOUS
 62
    3
 10
85.758710776230032
 20
203.59093857057857
 11
85.795066306679927
 21
203.6020304917732
  0
LINE
  8
_0-3_A0
  6
CONTINUOUS
 62
    3
 10
85.795066306679927
 20
203.6020304917732
 11
85.827214490140931
 21
203.61628070713311
  0
LINE
  8
_0-3_A0
  6
CONTINUOUS
 62
    3
 10
85.827214490140931
 20
203.61628070713311
 11
85.854178520326343
 21
203.63325623107556
  0
LINE
  8
_0-3_A0
  6
CONTINUOUS
 62
    3
 10
85.854178520326343
 20
203.63325623107556
 11
85.875139108823432
 21
203.65244127089556
  0
LINE
  8
_0-3_A0
  6
CONTINUOUS
 62
    3
 10
85.875139108823432
 20
203.65244127089556
 11
85.889459378757294
 21
203.67325289886628
  0
LINE
  8
_0-3_A0
  6
CONTINUOUS
 62
    3
 10
85.889459378757294
 20
203.67325289886628
 11
85.896704215972391
 21
203.69505876420302
  0
LINE
  8
_0-3_A0
  6
CONTINUOUS
 62
    3
 10
85.896704215972391
 20
203.69505876420302
 11
85.896653489756005
 21
203.71719630672185
  0
LINE
  8
_0-3_A0
  6
CONTINUOUS
 62
    3
 10
85.896653489756005
 20
203.71719630672185
 11
85.889308741398551
 21
203.73899288839544
  0
LINE
  8
_0-3_A0
  6
CONTINUOUS
 62
    3
 10
85.889308741398551
 20
203.73899288839544
 11
85.874893137362249
 21
203.75978623111927
  0
LINE
  8
_0-3_A0
  6
CONTINUOUS
 62
    3
 10
85.874893137362249
 20
203.75978623111927
 11
85.853844688481089
 21
203.77894453969662
  0
LINE
  8
_0-3_A0
  6
CONTINUOUS
 62
    3
 10
85.853844688481089
 20
203.77894453969662
 11
85.82680294122332
 21
203.7958856986159
  0
LINE
  8
_0-3_A0
  6
CONTINUOUS
 62
    3
 10
85.82680294122332
 20
203.7958856986159
 11
85.794589545395552
 21
203.81009495933599
  0
LINE
  8
_0-3_A0
  6
CONTINUOUS
 62
    3
 10
85.794589545395552
 20
203.81009495933599
 11
85.75818328872927
 21
203.82114058066019
  0
LINE
  8
_0-3_A0
  6
CONTINUOUS
 62
    3
 10
85.75818328872927
 20
203.82114058066019
 11
85.718690356910812
 21
203.8286869469739
  0
LINE
  8
_0-3_A0
  6
CONTINUOUS
 62
    3
 10
85.718690356910812
 20
203.8286869469739
 11
85.677310722689099
 21
203.83250476575528
  0
LINE
  8
_0-3_A0
  6
CONTINUOUS
 62
    3
 10
85.677310722689099
 20
203.83250476575528
 11
85.635881486693875
 21
203.83250476566786
  0
LINE
  8
_0-3_A0
  6
CONTINUOUS
 62
    3
 10
80.159155392419904
 20
203.35801476474287
 11
80.117146355041654
 21
203.35798803350022
  0
LINE
  8
_0-3_A0
  6
CONTINUOUS
 62
    3
 10
80.117146355041654
 20
203.35798803350022
 11
80.075784337849995
 21
203.35411756444878
  0
LINE
  8
_0-3_A0
  6
CONTINUOUS
 62
    3
 10
80.075784337849995
 20
203.35411756444878
 11
80.03632610480713
 21
203.34652095983216
  0
LINE
  8
_0-3_A0
  6
CONTINUOUS
 62
    3
 10
80.03632610480713
 20
203.34652095983216
 11
79.999970574357234
 21
203.33542903863752
  0
LINE
  8
_0-3_A0
  6
CONTINUOUS
 62
    3
 10
79.999970574357234
 20
203.33542903863752
 11
79.96782239089623
 21
203.32117882327762
  0
LINE
  8
_0-3_A0
  6
CONTINUOUS
 62
    3
 10
79.96782239089623
 20
203.32117882327762
 11
79.940858360710819
 21
203.30420329933517
  0
LINE
  8
_0-3_A0
  6
CONTINUOUS
 62
    3
 10
79.940858360710819
 20
203.30420329933517
 11
79.919897772213744
 21
203.28501825951519
  0
LINE
  8
_0-3_A0
  6
CONTINUOUS
 62
    3
 10
79.919897772213744
 20
203.28501825951519
 11
79.905577502279868
 21
203.26420663154448
  0
LINE
  8
_0-3_A0
  6
CONTINUOUS
 62
    3
 10
79.905577502279868
 20
203.26420663154448
 11
79.898332665064771
 21
203.2424007662077
  0
LINE
  8
_0-3_A0
  6
CONTINUOUS
 62
    3
 10
79.898332665064771
 20
203.2424007662077
 11
79.898383391281157
 21
203.2202632236889
  0
LINE
  8
_0-3_A0
  6
CONTINUOUS
 62
    3
 10
79.898383391281157
 20
203.2202632236889
 11
79.905728139638597
 21
203.19846664201529
  0
LINE
  8
_0-3_A0
  6
CONTINUOUS
 62
    3
 10
79.905728139638597
 20
203.19846664201529
 11
79.920143743674913
 21
203.17767329929145
  0
LINE
  8
_0-3_A0
  6
CONTINUOUS
 62
    3
 10
79.920143743674913
 20
203.17767329929145
 11
79.941192192556059
 21
203.15851499071413
  0
LINE
  8
_0-3_A0
  6
CONTINUOUS
 62
    3
 10
79.941192192556059
 20
203.15851499071413
 11
79.968233939813842
 21
203.14157383179482
  0
LINE
  8
_0-3_A0
  6
CONTINUOUS
 62
    3
 10
79.968233939813842
 20
203.14157383179482
 11
80.000447335641581
 21
203.12736457107473
  0
LINE
  8
_0-3_A0
  6
CONTINUOUS
 62
    3
 10
80.000447335641581
 20
203.12736457107473
 11
80.036853592307863
 21
203.11631894975053
  0
LINE
  8
_0-3_A0
  6
CONTINUOUS
 62
    3
 10
80.036853592307863
 20
203.11631894975053
 11
80.076346524126336
 21
203.10877258343683
  0
LINE
  8
_0-3_A0
  6
CONTINUOUS
 62
    3
 10
80.076346524126336
 20
203.10877258343683
 11
80.117726158348034
 21
203.10495476465544
  0
LINE
  8
_0-3_A0
  6
CONTINUOUS
 62
    3
 10
80.117726158348034
 20
203.10495476465544
 11
80.159155394343315
 21
203.10495476474287
  0
LINE
  8
_0-3_A0
  6
CONTINUOUS
 62
    3
 10
85.67731074512649
 20
203.10495476567547
 11
80.117726156578726
 21
203.10495476473585
  0
LINE
  8
_0-3_A0
  6
CONTINUOUS
 62
    3
 10
85.635881486693861
 20
203.10495476474298
 11
85.677890524072509
 21
203.10498149580831
  0
LINE
  8
_0-3_A0
  6
CONTINUOUS
 62
    3
 10
85.677890524072509
 20
203.10498149580831
 11
85.719252541322987
 21
203.10885196468515
  0
LINE
  8
_0-3_A0
  6
CONTINUOUS
 62
    3
 10
85.719252541322987
 20
203.10885196468515
 11
85.758710774481329
 21
203.11644856913522
  0
LINE
  8
_0-3_A0
  6
CONTINUOUS
 62
    3
 10
85.758710774481329
 20
203.11644856913522
 11
85.795066305099837
 21
203.12754049017638
  0
LINE
  8
_0-3_A0
  6
CONTINUOUS
 62
    3
 10
85.795066305099837
 20
203.12754049017638
 11
85.827214488777457
 21
203.14179070540058
  0
LINE
  8
_0-3_A0
  6
CONTINUOUS
 62
    3
 10
85.827214488777457
 20
203.14179070540058
 11
85.854178519220923
 21
203.1587662292292
  0
LINE
  8
_0-3_A0
  6
CONTINUOUS
 62
    3
 10
85.854178519220923
 20
203.1587662292292
 11
85.875139108009648
 21
203.17795126896069
  0
LINE
  8
_0-3_A0
  6
CONTINUOUS
 62
    3
 10
85.875139108009648
 20
203.17795126896069
 11
85.889459378259886
 21
203.19876289687096
  0
LINE
  8
_0-3_A0
  6
CONTINUOUS
 62
    3
 10
85.889459378259886
 20
203.19876289687096
 11
85.896704215806451
 21
203.22056876217712
  0
LINE
  8
_0-3_A0
  6
CONTINUOUS
 62
    3
 10
85.896704215806451
 20
203.22056876217712
 11
85.896653489926578
 21
203.24270630469618
  0
LINE
  8
_0-3_A0
  6
CONTINUOUS
 62
    3
 10
85.896653489926578
 20
203.24270630469618
 11
85.889308741900464
 21
203.26450288640077
  0
LINE
  8
_0-3_A0
  6
CONTINUOUS
 62
    3
 10
85.889308741900464
 20
203.26450288640077
 11
85.874893138180254
 21
203.28529622918546
  0
LINE
  8
_0-3_A0
  6
CONTINUOUS
 62
    3
 10
85.874893138180254
 20
203.28529622918546
 11
85.853844689590331
 21
203.30445453785165
  0
LINE
  8
_0-3_A0
  6
CONTINUOUS
 62
    3
 10
85.853844689590331
 20
203.30445453785165
 11
85.826802942590077
 21
203.3213956968851
  0
LINE
  8
_0-3_A0
  6
CONTINUOUS
 62
    3
 10
85.826802942590077
 20
203.3213956968851
 11
85.794589546978315
 21
203.33560495774119
  0
LINE
  8
_0-3_A0
  6
CONTINUOUS
 62
    3
 10
85.794589546978315
 20
203.33560495774119
 11
85.758183290479948
 21
203.34665057921907
  0
LINE
  8
_0-3_A0
  6
CONTINUOUS
 62
    3
 10
85.758183290479948
 20
203.34665057921907
 11
85.7186903587762
 21
203.35419694569947
  0
LINE
  8
_0-3_A0
  6
CONTINUOUS
 62
    3
 10
85.7186903587762
 20
203.35419694569947
 11
85.677310724612524
 21
203.35801476465556
  0
LINE
  8
_0-3_A0
  6
CONTINUOUS
 62
    3
 10
85.677310724612524
 20
203.35801476465556
 11
85.6358814886173
 21
203.35801476474298
  0
LINE
  8
_0-3_A0
  6
CONTINUOUS
 62
    3
 10
85.677310702175162
 20
203.35801476567556
 11
80.117726158193875
 21
203.35801476473585
  0
LINE
  8
_0-3_A0
  6
CONTINUOUS
 62
    3
 10
50.117726135910459
 20
203.83250476473534
 11
55.677310724458152
 21
203.83250476567496
  0
LINE
  8
_0-3_A0
  6
CONTINUOUS
 62
    3
 10
50.117726178861744
 20
203.57944476473537
 11
55.67731072284306
 21
203.57944476567496
  0
LINE
  8
_0-3_A0
  6
CONTINUOUS
 62
    3
 10
55.635881488617059
 20
203.57944476566785
 11
55.677890525995309
 21
203.57947149691051
  0
LINE
  8
_0-3_A0
  6
CONTINUOUS
 62
    3
 10
55.677890525995309
 20
203.57947149691051
 11
55.719252543186939
 21
203.58334196596194
  0
LINE
  8
_0-3_A0
  6
CONTINUOUS
 62
    3
 10
55.719252543186939
 20
203.58334196596194
 11
55.758710776229804
 21
203.59093857057857
  0
LINE
  8
_0-3_A0
  6
CONTINUOUS
 62
    3
 10
55.758710776229804
 20
203.59093857057857
 11
55.7950663066797
 21
203.6020304917732
  0
LINE
  8
_0-3_A0
  6
CONTINUOUS
 62
    3
 10
55.7950663066797
 20
203.6020304917732
 11
55.827214490140704
 21
203.61628070713311
  0
LINE
  8
_0-3_A0
  6
CONTINUOUS
 62
    3
 10
55.827214490140704
 20
203.61628070713311
 11
55.854178520326115
 21
203.63325623107556
  0
LINE
  8
_0-3_A0
  6
CONTINUOUS
 62
    3
 10
55.854178520326115
 20
203.63325623107556
 11
55.875139108823191
 21
203.65244127089553
  0
LINE
  8
_0-3_A0
  6
CONTINUOUS
 62
    3
 10
55.875139108823191
 20
203.65244127089553
 11
55.889459378757067
 21
203.67325289886628
  0
LINE
  8
_0-3_A0
  6
CONTINUOUS
 62
    3
 10
55.889459378757067
 20
203.67325289886628
 11
55.896704215972164
 21
203.69505876420302
  0
LINE
  8
_0-3_A0
  6
CONTINUOUS
 62
    3
 10
55.896704215972164
 20
203.69505876420302
 11
55.896653489755777
 21
203.71719630672185
  0
LINE
  8
_0-3_A0
  6
CONTINUOUS
 62
    3
 10
55.896653489755777
 20
203.71719630672185
 11
55.889308741398338
 21
203.73899288839544
  0
LINE
  8
_0-3_A0
  6
CONTINUOUS
 62
    3
 10
55.889308741398338
 20
203.73899288839544
 11
55.874893137362022
 21
203.75978623111927
  0
LINE
  8
_0-3_A0
  6
CONTINUOUS
 62
    3
 10
55.874893137362022
 20
203.75978623111927
 11
55.853844688480876
 21
203.77894453969662
  0
LINE
  8
_0-3_A0
  6
CONTINUOUS
 62
    3
 10
55.853844688480876
 20
203.77894453969662
 11
55.826802941223093
 21
203.7958856986159
  0
LINE
  8
_0-3_A0
  6
CONTINUOUS
 62
    3
 10
55.826802941223093
 20
203.7958856986159
 11
55.794589545395325
 21
203.81009495933599
  0
LINE
  8
_0-3_A0
  6
CONTINUOUS
 62
    3
 10
55.794589545395325
 20
203.81009495933599
 11
55.758183288729043
 21
203.82114058066019
  0
LINE
  8
_0-3_A0
  6
CONTINUOUS
 62
    3
 10
55.758183288729043
 20
203.82114058066019
 11
55.718690356910599
 21
203.8286869469739
  0
LINE
  8
_0-3_A0
  6
CONTINUOUS
 62
    3
 10
55.718690356910599
 20
203.8286869469739
 11
55.677310722688872
 21
203.83250476575528
  0
LINE
  8
_0-3_A0
  6
CONTINUOUS
 62
    3
 10
55.677310722688872
 20
203.83250476575528
 11
55.635881486693648
 21
203.83250476566786
  0
LINE
  8
_0-3_A0
  6
CONTINUOUS
 62
    3
 10
50.159155394343088
 20
203.83250476566806
 11
50.117146356964411
 21
203.83247803460272
  0
LINE
  8
_0-3_A0
  6
CONTINUOUS
 62
    3
 10
50.117146356964411
 20
203.83247803460272
 11
50.075784339713948
 21
203.82860756572588
  0
LINE
  8
_0-3_A0
  6
CONTINUOUS
 62
    3
 10
50.075784339713948
 20
203.82860756572588
 11
50.036326106555605
 21
203.82101096127581
  0
LINE
  8
_0-3_A0
  6
CONTINUOUS
 62
    3
 10
50.036326106555605
 20
203.82101096127581
 11
49.999970575937084
 21
203.80991904023466
  0
LINE
  8
_0-3_A0
  6
CONTINUOUS
 62
    3
 10
49.999970575937084
 20
203.80991904023466
 11
49.967822392259478
 21
203.79566882501046
  0
LINE
  8
_0-3_A0
  6
CONTINUOUS
 62
    3
 10
49.967822392259478
 20
203.79566882501046
 11
49.940858361816026
 21
203.77869330118184
  0
LINE
  8
_0-3_A0
  6
CONTINUOUS
 62
    3
 10
49.940858361816026
 20
203.77869330118184
 11
49.919897773027287
 21
203.75950826145034
  0
LINE
  8
_0-3_A0
  6
CONTINUOUS
 62
    3
 10
49.919897773027287
 20
203.75950826145034
 11
49.905577502777049
 21
203.73869663354008
  0
LINE
  8
_0-3_A0
  6
CONTINUOUS
 62
    3
 10
49.905577502777049
 20
203.73869663354008
 11
49.898332665230498
 21
203.71689076823389
  0
LINE
  8
_0-3_A0
  6
CONTINUOUS
 62
    3
 10
49.898332665230498
 20
203.71689076823389
 11
49.898383391110343
 21
203.69475322571486
  0
LINE
  8
_0-3_A0
  6
CONTINUOUS
 62
    3
 10
49.898383391110343
 20
203.69475322571486
 11
49.905728139136471
 21
203.67295664401027
  0
LINE
  8
_0-3_A0
  6
CONTINUOUS
 62
    3
 10
49.905728139136471
 20
203.67295664401027
 11
49.92014374285668
 21
203.65216330122558
  0
LINE
  8
_0-3_A0
  6
CONTINUOUS
 62
    3
 10
49.92014374285668
 20
203.65216330122558
 11
49.941192191446589
 21
203.63300499255939
  0
LINE
  8
_0-3_A0
  6
CONTINUOUS
 62
    3
 10
49.941192191446589
 20
203.63300499255939
 11
49.968233938446843
 21
203.61606383352594
  0
LINE
  8
_0-3_A0
  6
CONTINUOUS
 62
    3
 10
49.968233938446843
 20
203.61606383352594
 11
50.000447334058605
 21
203.60185457266985
  0
LINE
  8
_0-3_A0
  6
CONTINUOUS
 62
    3
 10
50.000447334058605
 20
203.60185457266985
 11
50.036853590557001
 21
203.59080895119197
  0
LINE
  8
_0-3_A0
  6
CONTINUOUS
 62
    3
 10
50.036853590557001
 20
203.59080895119197
 11
50.076346522260735
 21
203.58326258471157
  0
LINE
  8
_0-3_A0
  6
CONTINUOUS
 62
    3
 10
50.076346522260735
 20
203.58326258471157
 11
50.117726156424396
 21
203.57944476575548
  0
LINE
  8
_0-3_A0
  6
CONTINUOUS
 62
    3
 10
50.117726156424396
 20
203.57944476575548
 11
50.15915539241962
 21
203.57944476566805
  0
LINE
  8
_0-3_A0
  6
CONTINUOUS
 62
    3
 10
55.635881486693619
 20
203.10495476474287
 11
55.677890524072296
 21
203.1049814958082
  0
LINE
  8
_0-3_A0
  6
CONTINUOUS
 62
    3
 10
55.677890524072296
 20
203.1049814958082
 11
55.719252541322759
 21
203.10885196468504
  0
LINE
  8
_0-3_A0
  6
CONTINUOUS
 62
    3
 10
55.719252541322759
 20
203.10885196468504
 11
55.758710774481102
 21
203.11644856913511
  0
LINE
  8
_0-3_A0
  6
CONTINUOUS
 62
    3
 10
55.758710774481102
 20
203.11644856913511
 11
55.795066305099624
 21
203.12754049017627
  0
LINE
  8
_0-3_A0
  6
CONTINUOUS
 62
    3
 10
55.795066305099624
 20
203.12754049017627
 11
55.827214488777229
 21
203.14179070540046
  0
LINE
  8
_0-3_A0
  6
CONTINUOUS
 62
    3
 10
55.827214488777229
 20
203.14179070540046
 11
55.854178519220681
 21
203.15876622922908
  0
LINE
  8
_0-3_A0
  6
CONTINUOUS
 62
    3
 10
55.854178519220681
 20
203.15876622922908
 11
55.87513910800942
 21
203.17795126896058
  0
LINE
  8
_0-3_A0
  6
CONTINUOUS
 62
    3
 10
55.87513910800942
 20
203.17795126896058
 11
55.889459378259658
 21
203.19876289687084
  0
LINE
  8
_0-3_A0
  6
CONTINUOUS
 62
    3
 10
55.889459378259658
 20
203.19876289687084
 11
55.896704215806209
 21
203.22056876217703
  0
LINE
  8
_0-3_A0
  6
CONTINUOUS
 62
    3
 10
55.896704215806209
 20
203.22056876217703
 11
55.896653489926364
 21
203.24270630469607
  0
LINE
  8
_0-3_A0
  6
CONTINUOUS
 62
    3
 10
55.896653489926364
 20
203.24270630469607
 11
55.889308741900237
 21
203.26450288640066
  0
LINE
  8
_0-3_A0
  6
CONTINUOUS
 62
    3
 10
55.889308741900237
 20
203.26450288640066
 11
55.874893138180027
 21
203.28529622918534
  0
LINE
  8
_0-3_A0
  6
CONTINUOUS
 62
    3
 10
55.874893138180027
 20
203.28529622918534
 11
55.853844689590118
 21
203.30445453785154
  0
LINE
  8
_0-3_A0
  6
CONTINUOUS
 62
    3
 10
55.853844689590118
 20
203.30445453785154
 11
55.826802942589836
 21
203.32139569688499
  0
LINE
  8
_0-3_A0
  6
CONTINUOUS
 62
    3
 10
55.826802942589836
 20
203.32139569688499
 11
55.794589546978102
 21
203.33560495774108
  0
LINE
  8
_0-3_A0
  6
CONTINUOUS
 62
    3
 10
55.794589546978102
 20
203.33560495774108
 11
55.758183290479706
 21
203.34665057921895
  0
LINE
  8
_0-3_A0
  6
CONTINUOUS
 62
    3
 10
55.758183290479706
 20
203.34665057921895
 11
55.718690358775972
 21
203.35419694569935
  0
LINE
  8
_0-3_A0
  6
CONTINUOUS
 62
    3
 10
55.718690358775972
 20
203.35419694569935
 11
55.677310724612311
 21
203.35801476465545
  0
LINE
  8
_0-3_A0
  6
CONTINUOUS
 62
    3
 10
55.677310724612311
 20
203.35801476465545
 11
55.635881488617087
 21
203.35801476474287
  0
LINE
  8
_0-3_A0
  6
CONTINUOUS
 62
    3
 10
50.117726135910402
 20
203.10495476567555
 11
55.677310724458152
 21
203.10495476473585
  0
LINE
  8
_0-3_A0
  6
CONTINUOUS
 62
    3
 10
50.159155392419648
 20
203.35801476474298
 11
50.117146355041398
 21
203.35798803350033
  0
LINE
  8
_0-3_A0
  6
CONTINUOUS
 62
    3
 10
50.117146355041398
 20
203.35798803350033
 11
50.075784337849768
 21
203.35411756444889
  0
LINE
  8
_0-3_A0
  6
CONTINUOUS
 62
    3
 10
50.075784337849768
 20
203.35411756444889
 11
50.036326104806903
 21
203.34652095983224
  0
LINE
  8
_0-3_A0
  6
CONTINUOUS
 62
    3
 10
50.036326104806903
 20
203.34652095983224
 11
49.999970574357007
 21
203.33542903863764
  0
LINE
  8
_0-3_A0
  6
CONTINUOUS
 62
    3
 10
49.999970574357007
 20
203.33542903863764
 11
49.967822390896003
 21
203.32117882327773
  0
LINE
  8
_0-3_A0
  6
CONTINUOUS
 62
    3
 10
49.967822390896003
 20
203.32117882327773
 11
49.940858360710592
 21
203.30420329933528
  0
LINE
  8
_0-3_A0
  6
CONTINUOUS
 62
    3
 10
49.940858360710592
 20
203.30420329933528
 11
49.919897772213516
 21
203.28501825951528
  0
LINE
  8
_0-3_A0
  6
CONTINUOUS
 62
    3
 10
49.919897772213516
 20
203.28501825951528
 11
49.905577502279641
 21
203.26420663154456
  0
LINE
  8
_0-3_A0
  6
CONTINUOUS
 62
    3
 10
49.905577502279641
 20
203.26420663154456
 11
49.898332665064543
 21
203.24240076620782
  0
LINE
  8
_0-3_A0
  6
CONTINUOUS
 62
    3
 10
49.898332665064543
 20
203.24240076620782
 11
49.89838339128093
 21
203.22026322368898
  0
LINE
  8
_0-3_A0
  6
CONTINUOUS
 62
    3
 10
49.89838339128093
 20
203.22026322368898
 11
49.90572813963837
 21
203.1984666420154
  0
LINE
  8
_0-3_A0
  6
CONTINUOUS
 62
    3
 10
49.90572813963837
 20
203.1984666420154
 11
49.920143743674685
 21
203.17767329929156
  0
LINE
  8
_0-3_A0
  6
CONTINUOUS
 62
    3
 10
49.920143743674685
 20
203.17767329929156
 11
49.941192192555831
 21
203.15851499071422
  0
LINE
  8
_0-3_A0
  6
CONTINUOUS
 62
    3
 10
49.941192192555831
 20
203.15851499071422
 11
49.968233939813615
 21
203.14157383179494
  0
LINE
  8
_0-3_A0
  6
CONTINUOUS
 62
    3
 10
49.968233939813615
 20
203.14157383179494
 11
50.000447335641382
 21
203.12736457107482
  0
LINE
  8
_0-3_A0
  6
CONTINUOUS
 62
    3
 10
50.000447335641382
 20
203.12736457107482
 11
50.036853592307664
 21
203.11631894975064
  0
LINE
  8
_0-3_A0
  6
CONTINUOUS
 62
    3
 10
50.036853592307664
 20
203.11631894975064
 11
50.076346524126108
 21
203.10877258343694
  0
LINE
  8
_0-3_A0
  6
CONTINUOUS
 62
    3
 10
50.076346524126108
 20
203.10877258343694
 11
50.117726158347835
 21
203.10495476465555
  0
LINE
  8
_0-3_A0
  6
CONTINUOUS
 62
    3
 10
50.117726158347835
 20
203.10495476465555
 11
50.159155394343059
 21
203.10495476474298
  0
LINE
  8
_0-3_A0
  6
CONTINUOUS
 62
    3
 10
50.117726178861744
 20
203.35801476567556
 11
55.67731072284306
 21
203.35801476473585
  0
LINE
  8
_0-3_A0
  6
CONTINUOUS
 62
    3
 10
63.177310745126476
 20
203.83250476473534
 11
57.617726156578754
 21
203.83250476567496
  0
LINE
  8
_0-3_A0
  6
CONTINUOUS
 62
    3
 10
63.177310702175134
 20
203.57944476473537
 11
57.617726158193875
 21
203.57944476567496
  0
LINE
  8
_0-3_A0
  6
CONTINUOUS
 62
    3
 10
57.659155394343343
 20
203.83250476566786
 11
57.617146356964667
 21
203.83247803460253
  0
LINE
  8
_0-3_A0
  6
CONTINUOUS
 62
    3
 10
57.617146356964667
 20
203.83247803460253
 11
57.575784339714203
 21
203.82860756572569
  0
LINE
  8
_0-3_A0
  6
CONTINUOUS
 62
    3
 10
57.575784339714203
 20
203.82860756572569
 11
57.536326106555861
 21
203.82101096127561
  0
LINE
  8
_0-3_A0
  6
CONTINUOUS
 62
    3
 10
57.536326106555861
 20
203.82101096127561
 11
57.499970575937368
 21
203.80991904023446
  0
LINE
  8
_0-3_A0
  6
CONTINUOUS
 62
    3
 10
57.499970575937368
 20
203.80991904023446
 11
57.467822392259733
 21
203.79566882501026
  0
LINE
  8
_0-3_A0
  6
CONTINUOUS
 62
    3
 10
57.467822392259733
 20
203.79566882501026
 11
57.440858361816282
 21
203.77869330118167
  0
LINE
  8
_0-3_A0
  6
CONTINUOUS
 62
    3
 10
57.440858361816282
 20
203.77869330118167
 11
57.419897773027543
 21
203.75950826145015
  0
LINE
  8
_0-3_A0
  6
CONTINUOUS
 62
    3
 10
57.419897773027543
 20
203.75950826145015
 11
57.405577502777305
 21
203.73869663353988
  0
LINE
  8
_0-3_A0
  6
CONTINUOUS
 62
    3
 10
57.405577502777305
 20
203.73869663353988
 11
57.398332665230725
 21
203.71689076823372
  0
LINE
  8
_0-3_A0
  6
CONTINUOUS
 62
    3
 10
57.398332665230725
 20
203.71689076823372
 11
57.398383391110598
 21
203.69475322571466
  0
LINE
  8
_0-3_A0
  6
CONTINUOUS
 62
    3
 10
57.398383391110598
 20
203.69475322571466
 11
57.405728139136726
 21
203.67295664401007
  0
LINE
  8
_0-3_A0
  6
CONTINUOUS
 62
    3
 10
57.405728139136726
 20
203.67295664401007
 11
57.420143742856936
 21
203.65216330122538
  0
LINE
  8
_0-3_A0
  6
CONTINUOUS
 62
    3
 10
57.420143742856936
 20
203.65216330122538
 11
57.441192191446845
 21
203.63300499255919
  0
LINE
  8
_0-3_A0
  6
CONTINUOUS
 62
    3
 10
57.441192191446845
 20
203.63300499255919
 11
57.468233938447099
 21
203.61606383352577
  0
LINE
  8
_0-3_A0
  6
CONTINUOUS
 62
    3
 10
57.468233938447099
 20
203.61606383352577
 11
57.500447334058861
 21
203.60185457266965
  0
LINE
  8
_0-3_A0
  6
CONTINUOUS
 62
    3
 10
57.500447334058861
 20
203.60185457266965
 11
57.536853590557257
 21
203.59080895119177
  0
LINE
  8
_0-3_A0
  6
CONTINUOUS
 62
    3
 10
57.536853590557257
 20
203.59080895119177
 11
57.57634652226099
 21
203.58326258471137
  0
LINE
  8
_0-3_A0
  6
CONTINUOUS
 62
    3
 10
57.57634652226099
 20
203.58326258471137
 11
57.617726156424652
 21
203.57944476575528
  0
LINE
  8
_0-3_A0
  6
CONTINUOUS
 62
    3
 10
57.617726156424652
 20
203.57944476575528
 11
57.659155392419904
 21
203.57944476566785
  0
LINE
  8
_0-3_A0
  6
CONTINUOUS
 62
    3
 10
63.135881488617286
 20
203.57944476566785
 11
63.177890525995536
 21
203.57947149691051
  0
LINE
  8
_0-3_A0
  6
CONTINUOUS
 62
    3
 10
63.177890525995536
 20
203.57947149691051
 11
63.219252543187167
 21
203.58334196596194
  0
LINE
  8
_0-3_A0
  6
CONTINUOUS
 62
    3
 10
63.219252543187167
 20
203.58334196596194
 11
63.258710776230032
 21
203.5909385705786
  0
LINE
  8
_0-3_A0
  6
CONTINUOUS
 62
    3
 10
63.258710776230032
 20
203.5909385705786
 11
63.295066306679927
 21
203.6020304917732
  0
LINE
  8
_0-3_A0
  6
CONTINUOUS
 62
    3
 10
63.295066306679927
 20
203.6020304917732
 11
63.327214490140931
 21
203.61628070713311
  0
LINE
  8
_0-3_A0
  6
CONTINUOUS
 62
    3
 10
63.327214490140931
 20
203.61628070713311
 11
63.354178520326343
 21
203.63325623107556
  0
LINE
  8
_0-3_A0
  6
CONTINUOUS
 62
    3
 10
63.354178520326343
 20
203.63325623107556
 11
63.375139108823418
 21
203.65244127089556
  0
LINE
  8
_0-3_A0
  6
CONTINUOUS
 62
    3
 10
63.375139108823418
 20
203.65244127089556
 11
63.389459378757294
 21
203.67325289886628
  0
LINE
  8
_0-3_A0
  6
CONTINUOUS
 62
    3
 10
63.389459378757294
 20
203.67325289886628
 11
63.396704215972391
 21
203.69505876420302
  0
LINE
  8
_0-3_A0
  6
CONTINUOUS
 62
    3
 10
63.396704215972391
 20
203.69505876420302
 11
63.396653489756005
 21
203.71719630672185
  0
LINE
  8
_0-3_A0
  6
CONTINUOUS
 62
    3
 10
63.396653489756005
 20
203.71719630672185
 11
63.389308741398565
 21
203.73899288839544
  0
LINE
  8
_0-3_A0
  6
CONTINUOUS
 62
    3
 10
63.389308741398565
 20
203.73899288839544
 11
63.374893137362249
 21
203.75978623111927
  0
LINE
  8
_0-3_A0
  6
CONTINUOUS
 62
    3
 10
63.374893137362249
 20
203.75978623111927
 11
63.353844688481103
 21
203.77894453969662
  0
LINE
  8
_0-3_A0
  6
CONTINUOUS
 62
    3
 10
63.353844688481103
 20
203.77894453969662
 11
63.32680294122332
 21
203.7958856986159
  0
LINE
  8
_0-3_A0
  6
CONTINUOUS
 62
    3
 10
63.32680294122332
 20
203.7958856986159
 11
63.294589545395552
 21
203.81009495933602
  0
LINE
  8
_0-3_A0
  6
CONTINUOUS
 62
    3
 10
63.294589545395552
 20
203.81009495933602
 11
63.25818328872927
 21
203.82114058066019
  0
LINE
  8
_0-3_A0
  6
CONTINUOUS
 62
    3
 10
63.25818328872927
 20
203.82114058066019
 11
63.218690356910826
 21
203.8286869469739
  0
LINE
  8
_0-3_A0
  6
CONTINUOUS
 62
    3
 10
63.218690356910826
 20
203.8286869469739
 11
63.177310722689099
 21
203.83250476575528
  0
LINE
  8
_0-3_A0
  6
CONTINUOUS
 62
    3
 10
63.177310722689099
 20
203.83250476575528
 11
63.135881486693875
 21
203.83250476566786
  0
LINE
  8
_0-3_A0
  6
CONTINUOUS
 62
    3
 10
57.659155392419904
 20
203.35801476474287
 11
57.617146355041654
 21
203.35798803350022
  0
LINE
  8
_0-3_A0
  6
CONTINUOUS
 62
    3
 10
57.617146355041654
 20
203.35798803350022
 11
57.575784337850024
 21
203.35411756444878
  0
LINE
  8
_0-3_A0
  6
CONTINUOUS
 62
    3
 10
57.575784337850024
 20
203.35411756444878
 11
57.536326104807159
 21
203.34652095983216
  0
LINE
  8
_0-3_A0
  6
CONTINUOUS
 62
    3
 10
57.536326104807159
 20
203.34652095983216
 11
57.499970574357263
 21
203.33542903863752
  0
LINE
  8
_0-3_A0
  6
CONTINUOUS
 62
    3
 10
57.499970574357263
 20
203.33542903863752
 11
57.467822390896259
 21
203.32117882327762
  0
LINE
  8
_0-3_A0
  6
CONTINUOUS
 62
    3
 10
57.467822390896259
 20
203.32117882327762
 11
57.440858360710848
 21
203.30420329933517
  0
LINE
  8
_0-3_A0
  6
CONTINUOUS
 62
    3
 10
57.440858360710848
 20
203.30420329933517
 11
57.419897772213744
 21
203.28501825951519
  0
LINE
  8
_0-3_A0
  6
CONTINUOUS
 62
    3
 10
57.419897772213744
 20
203.28501825951519
 11
57.405577502279896
 21
203.26420663154445
  0
LINE
  8
_0-3_A0
  6
CONTINUOUS
 62
    3
 10
57.405577502279896
 20
203.26420663154445
 11
57.398332665064799
 21
203.2424007662077
  0
LINE
  8
_0-3_A0
  6
CONTINUOUS
 62
    3
 10
57.398332665064799
 20
203.2424007662077
 11
57.398383391281186
 21
203.22026322368887
  0
LINE
  8
_0-3_A0
  6
CONTINUOUS
 62
    3
 10
57.398383391281186
 20
203.22026322368887
 11
57.405728139638654
 21
203.19846664201529
  0
LINE
  8
_0-3_A0
  6
CONTINUOUS
 62
    3
 10
57.405728139638654
 20
203.19846664201529
 11
57.420143743674941
 21
203.17767329929145
  0
LINE
  8
_0-3_A0
  6
CONTINUOUS
 62
    3
 10
57.420143743674941
 20
203.17767329929145
 11
57.441192192556087
 21
203.15851499071411
  0
LINE
  8
_0-3_A0
  6
CONTINUOUS
 62
    3
 10
57.441192192556087
 20
203.15851499071411
 11
57.46823393981387
 21
203.14157383179482
  0
LINE
  8
_0-3_A0
  6
CONTINUOUS
 62
    3
 10
57.46823393981387
 20
203.14157383179482
 11
57.500447335641638
 21
203.12736457107473
  0
LINE
  8
_0-3_A0
  6
CONTINUOUS
 62
    3
 10
57.500447335641638
 20
203.12736457107473
 11
57.53685359230792
 21
203.11631894975053
  0
LINE
  8
_0-3_A0
  6
CONTINUOUS
 62
    3
 10
57.53685359230792
 20
203.11631894975053
 11
57.576346524126392
 21
203.10877258343683
  0
LINE
  8
_0-3_A0
  6
CONTINUOUS
 62
    3
 10
57.576346524126392
 20
203.10877258343683
 11
57.617726158348091
 21
203.10495476465544
  0
LINE
  8
_0-3_A0
  6
CONTINUOUS
 62
    3
 10
57.617726158348091
 20
203.10495476465544
 11
57.659155394343315
 21
203.10495476474287
  0
LINE
  8
_0-3_A0
  6
CONTINUOUS
 62
    3
 10
63.177310745126419
 20
203.10495476567555
 11
57.617726156578726
 21
203.10495476473585
  0
LINE
  8
_0-3_A0
  6
CONTINUOUS
 62
    3
 10
63.135881486693847
 20
203.10495476474298
 11
63.177890524072523
 21
203.10498149580831
  0
LINE
  8
_0-3_A0
  6
CONTINUOUS
 62
    3
 10
63.177890524072523
 20
203.10498149580831
 11
63.219252541322987
 21
203.10885196468515
  0
LINE
  8
_0-3_A0
  6
CONTINUOUS
 62
    3
 10
63.219252541322987
 20
203.10885196468515
 11
63.258710774481329
 21
203.11644856913522
  0
LINE
  8
_0-3_A0
  6
CONTINUOUS
 62
    3
 10
63.258710774481329
 20
203.11644856913522
 11
63.295066305099851
 21
203.12754049017638
  0
LINE
  8
_0-3_A0
  6
CONTINUOUS
 62
    3
 10
63.295066305099851
 20
203.12754049017638
 11
63.327214488777457
 21
203.14179070540058
  0
LINE
  8
_0-3_A0
  6
CONTINUOUS
 62
    3
 10
63.327214488777457
 20
203.14179070540058
 11
63.354178519220909
 21
203.1587662292292
  0
LINE
  8
_0-3_A0
  6
CONTINUOUS
 62
    3
 10
63.354178519220909
 20
203.1587662292292
 11
63.375139108009648
 21
203.17795126896069
  0
LINE
  8
_0-3_A0
  6
CONTINUOUS
 62
    3
 10
63.375139108009648
 20
203.17795126896069
 11
63.389459378259886
 21
203.19876289687096
  0
LINE
  8
_0-3_A0
  6
CONTINUOUS
 62
    3
 10
63.389459378259886
 20
203.19876289687096
 11
63.396704215806437
 21
203.22056876217712
  0
LINE
  8
_0-3_A0
  6
CONTINUOUS
 62
    3
 10
63.396704215806437
 20
203.22056876217712
 11
63.396653489926592
 21
203.24270630469618
  0
LINE
  8
_0-3_A0
  6
CONTINUOUS
 62
    3
 10
63.396653489926592
 20
203.24270630469618
 11
63.389308741900464
 21
203.26450288640077
  0
LINE
  8
_0-3_A0
  6
CONTINUOUS
 62
    3
 10
63.389308741900464
 20
203.26450288640077
 11
63.374893138180254
 21
203.28529622918546
  0
LINE
  8
_0-3_A0
  6
CONTINUOUS
 62
    3
 10
63.374893138180254
 20
203.28529622918546
 11
63.353844689590346
 21
203.30445453785165
  0
LINE
  8
_0-3_A0
  6
CONTINUOUS
 62
    3
 10
63.353844689590346
 20
203.30445453785165
 11
63.326802942590092
 21
203.3213956968851
  0
LINE
  8
_0-3_A0
  6
CONTINUOUS
 62
    3
 10
63.326802942590092
 20
203.3213956968851
 11
63.294589546978329
 21
203.33560495774119
  0
LINE
  8
_0-3_A0
  6
CONTINUOUS
 62
    3
 10
63.294589546978329
 20
203.33560495774119
 11
63.258183290479934
 21
203.34665057921907
  0
LINE
  8
_0-3_A0
  6
CONTINUOUS
 62
    3
 10
63.258183290479934
 20
203.34665057921907
 11
63.2186903587762
 21
203.35419694569947
  0
LINE
  8
_0-3_A0
  6
CONTINUOUS
 62
    3
 10
63.2186903587762
 20
203.35419694569947
 11
63.177310724612539
 21
203.35801476465556
  0
LINE
  8
_0-3_A0
  6
CONTINUOUS
 62
    3
 10
63.177310724612539
 20
203.35801476465556
 11
63.135881488617314
 21
203.35801476474298
  0
LINE
  8
_0-3_A0
  6
CONTINUOUS
 62
    3
 10
63.177310702175134
 20
203.35801476567556
 11
57.617726158193818
 21
203.35801476473585
  0
LINE
  8
_0-3_A0
  6
CONTINUOUS
 62
    3
 10
65.117726135910402
 20
203.83250476473526
 11
70.677310724458152
 21
203.83250476567485
  0
LINE
  8
_0-3_A0
  6
CONTINUOUS
 62
    3
 10
65.117726178861744
 20
203.57944476473525
 11
70.67731072284306
 21
203.57944476567485
  0
LINE
  8
_0-3_A0
  6
CONTINUOUS
 62
    3
 10
70.635881488617059
 20
203.57944476566785
 11
70.677890525995309
 21
203.57947149691051
  0
LINE
  8
_0-3_A0
  6
CONTINUOUS
 62
    3
 10
70.677890525995309
 20
203.57947149691051
 11
70.719252543186939
 21
203.58334196596194
  0
LINE
  8
_0-3_A0
  6
CONTINUOUS
 62
    3
 10
70.719252543186939
 20
203.58334196596194
 11
70.758710776229804
 21
203.59093857057857
  0
LINE
  8
_0-3_A0
  6
CONTINUOUS
 62
    3
 10
70.758710776229804
 20
203.59093857057857
 11
70.7950663066797
 21
203.6020304917732
  0
LINE
  8
_0-3_A0
  6
CONTINUOUS
 62
    3
 10
70.7950663066797
 20
203.6020304917732
 11
70.827214490140704
 21
203.61628070713311
  0
LINE
  8
_0-3_A0
  6
CONTINUOUS
 62
    3
 10
70.827214490140704
 20
203.61628070713311
 11
70.854178520326115
 21
203.63325623107556
  0
LINE
  8
_0-3_A0
  6
CONTINUOUS
 62
    3
 10
70.854178520326115
 20
203.63325623107556
 11
70.875139108823191
 21
203.65244127089556
  0
LINE
  8
_0-3_A0
  6
CONTINUOUS
 62
    3
 10
70.875139108823191
 20
203.65244127089556
 11
70.889459378757067
 21
203.67325289886628
  0
LINE
  8
_0-3_A0
  6
CONTINUOUS
 62
    3
 10
70.889459378757067
 20
203.67325289886628
 11
70.896704215972164
 21
203.69505876420302
  0
LINE
  8
_0-3_A0
  6
CONTINUOUS
 62
    3
 10
70.896704215972164
 20
203.69505876420302
 11
70.896653489755777
 21
203.71719630672185
  0
LINE
  8
_0-3_A0
  6
CONTINUOUS
 62
    3
 10
70.896653489755777
 20
203.71719630672185
 11
70.889308741398338
 21
203.73899288839544
  0
LINE
  8
_0-3_A0
  6
CONTINUOUS
 62
    3
 10
70.889308741398338
 20
203.73899288839544
 11
70.874893137362022
 21
203.75978623111927
  0
LINE
  8
_0-3_A0
  6
CONTINUOUS
 62
    3
 10
70.874893137362022
 20
203.75978623111927
 11
70.853844688480876
 21
203.77894453969662
  0
LINE
  8
_0-3_A0
  6
CONTINUOUS
 62
    3
 10
70.853844688480876
 20
203.77894453969662
 11
70.826802941223093
 21
203.7958856986159
  0
LINE
  8
_0-3_A0
  6
CONTINUOUS
 62
    3
 10
70.826802941223093
 20
203.7958856986159
 11
70.794589545395325
 21
203.81009495933599
  0
LINE
  8
_0-3_A0
  6
CONTINUOUS
 62
    3
 10
70.794589545395325
 20
203.81009495933599
 11
70.758183288729043
 21
203.82114058066019
  0
LINE
  8
_0-3_A0
  6
CONTINUOUS
 62
    3
 10
70.758183288729043
 20
203.82114058066019
 11
70.718690356910599
 21
203.8286869469739
  0
LINE
  8
_0-3_A0
  6
CONTINUOUS
 62
    3
 10
70.718690356910599
 20
203.8286869469739
 11
70.677310722688872
 21
203.83250476575528
  0
LINE
  8
_0-3_A0
  6
CONTINUOUS
 62
    3
 10
70.677310722688872
 20
203.83250476575528
 11
70.635881486693676
 21
203.83250476566786
  0
LINE
  8
_0-3_A0
  6
CONTINUOUS
 62
    3
 10
65.159155394343088
 20
203.83250476566786
 11
65.11714635696444
 21
203.83247803460253
  0
LINE
  8
_0-3_A0
  6
CONTINUOUS
 62
    3
 10
65.11714635696444
 20
203.83247803460253
 11
65.075784339713976
 21
203.82860756572569
  0
LINE
  8
_0-3_A0
  6
CONTINUOUS
 62
    3
 10
65.075784339713976
 20
203.82860756572569
 11
65.036326106555634
 21
203.82101096127561
  0
LINE
  8
_0-3_A0
  6
CONTINUOUS
 62
    3
 10
65.036326106555634
 20
203.82101096127561
 11
64.99997057593714
 21
203.80991904023446
  0
LINE
  8
_0-3_A0
  6
CONTINUOUS
 62
    3
 10
64.99997057593714
 20
203.80991904023446
 11
64.967822392259506
 21
203.79566882501026
  0
LINE
  8
_0-3_A0
  6
CONTINUOUS
 62
    3
 10
64.967822392259506
 20
203.79566882501026
 11
64.940858361816026
 21
203.77869330118164
  0
LINE
  8
_0-3_A0
  6
CONTINUOUS
 62
    3
 10
64.940858361816026
 20
203.77869330118164
 11
64.919897773027315
 21
203.75950826145015
  0
LINE
  8
_0-3_A0
  6
CONTINUOUS
 62
    3
 10
64.919897773027315
 20
203.75950826145015
 11
64.905577502777077
 21
203.73869663353988
  0
LINE
  8
_0-3_A0
  6
CONTINUOUS
 62
    3
 10
64.905577502777077
 20
203.73869663353988
 11
64.898332665230498
 21
203.71689076823369
  0
LINE
  8
_0-3_A0
  6
CONTINUOUS
 62
    3
 10
64.898332665230498
 20
203.71689076823369
 11
64.898383391110371
 21
203.69475322571466
  0
LINE
  8
_0-3_A0
  6
CONTINUOUS
 62
    3
 10
64.898383391110371
 20
203.69475322571466
 11
64.905728139136499
 21
203.67295664401007
  0
LINE
  8
_0-3_A0
  6
CONTINUOUS
 62
    3
 10
64.905728139136499
 20
203.67295664401007
 11
64.920143742856708
 21
203.65216330122538
  0
LINE
  8
_0-3_A0
  6
CONTINUOUS
 62
    3
 10
64.920143742856708
 20
203.65216330122538
 11
64.941192191446646
 21
203.63300499255919
  0
LINE
  8
_0-3_A0
  6
CONTINUOUS
 62
    3
 10
64.941192191446646
 20
203.63300499255919
 11
64.968233938446871
 21
203.61606383352574
  0
LINE
  8
_0-3_A0
  6
CONTINUOUS
 62
    3
 10
64.968233938446871
 20
203.61606383352574
 11
65.000447334058662
 21
203.60185457266965
  0
LINE
  8
_0-3_A0
  6
CONTINUOUS
 62
    3
 10
65.000447334058662
 20
203.60185457266965
 11
65.036853590557029
 21
203.59080895119177
  0
LINE
  8
_0-3_A0
  6
CONTINUOUS
 62
    3
 10
65.036853590557029
 20
203.59080895119177
 11
65.076346522260763
 21
203.58326258471137
  0
LINE
  8
_0-3_A0
  6
CONTINUOUS
 62
    3
 10
65.076346522260763
 20
203.58326258471137
 11
65.117726156424453
 21
203.57944476575528
  0
LINE
  8
_0-3_A0
  6
CONTINUOUS
 62
    3
 10
65.117726156424453
 20
203.57944476575528
 11
65.159155392419677
 21
203.57944476566785
  0
LINE
  8
_0-3_A0
  6
CONTINUOUS
 62
    3
 10
70.635881486693619
 20
203.10495476474287
 11
70.677890524072267
 21
203.1049814958082
  0
LINE
  8
_0-3_A0
  6
CONTINUOUS
 62
    3
 10
70.677890524072267
 20
203.1049814958082
 11
70.719252541322759
 21
203.10885196468504
  0
LINE
  8
_0-3_A0
  6
CONTINUOUS
 62
    3
 10
70.719252541322759
 20
203.10885196468504
 11
70.758710774481102
 21
203.11644856913511
  0
LINE
  8
_0-3_A0
  6
CONTINUOUS
 62
    3
 10
70.758710774481102
 20
203.11644856913511
 11
70.795066305099624
 21
203.12754049017627
  0
LINE
  8
_0-3_A0
  6
CONTINUOUS
 62
    3
 10
70.795066305099624
 20
203.12754049017627
 11
70.827214488777229
 21
203.14179070540046
  0
LINE
  8
_0-3_A0
  6
CONTINUOUS
 62
    3
 10
70.827214488777229
 20
203.14179070540046
 11
70.854178519220681
 21
203.15876622922908
  0
LINE
  8
_0-3_A0
  6
CONTINUOUS
 62
    3
 10
70.854178519220681
 20
203.15876622922908
 11
70.87513910800942
 21
203.17795126896058
  0
LINE
  8
_0-3_A0
  6
CONTINUOUS
 62
    3
 10
70.87513910800942
 20
203.17795126896058
 11
70.889459378259658
 21
203.19876289687084
  0
LINE
  8
_0-3_A0
  6
CONTINUOUS
 62
    3
 10
70.889459378259658
 20
203.19876289687084
 11
70.896704215806209
 21
203.22056876217703
  0
LINE
  8
_0-3_A0
  6
CONTINUOUS
 62
    3
 10
70.896704215806209
 20
203.22056876217703
 11
70.896653489926336
 21
203.24270630469607
  0
LINE
  8
_0-3_A0
  6
CONTINUOUS
 62
    3
 10
70.896653489926336
 20
203.24270630469607
 11
70.889308741900237
 21
203.26450288640066
  0
LINE
  8
_0-3_A0
  6
CONTINUOUS
 62
    3
 10
70.889308741900237
 20
203.26450288640066
 11
70.874893138180027
 21
203.28529622918534
  0
LINE
  8
_0-3_A0
  6
CONTINUOUS
 62
    3
 10
70.874893138180027
 20
203.28529622918534
 11
70.853844689590118
 21
203.30445453785154
  0
LINE
  8
_0-3_A0
  6
CONTINUOUS
 62
    3
 10
70.853844689590118
 20
203.30445453785154
 11
70.826802942589836
 21
203.32139569688499
  0
LINE
  8
_0-3_A0
  6
CONTINUOUS
 62
    3
 10
70.826802942589836
 20
203.32139569688499
 11
70.794589546978102
 21
203.33560495774108
  0
LINE
  8
_0-3_A0
  6
CONTINUOUS
 62
    3
 10
70.794589546978102
 20
203.33560495774108
 11
70.758183290479706
 21
203.34665057921895
  0
LINE
  8
_0-3_A0
  6
CONTINUOUS
 62
    3
 10
70.758183290479706
 20
203.34665057921895
 11
70.718690358775972
 21
203.35419694569935
  0
LINE
  8
_0-3_A0
  6
CONTINUOUS
 62
    3
 10
70.718690358775972
 20
203.35419694569935
 11
70.677310724612311
 21
203.35801476465545
  0
LINE
  8
_0-3_A0
  6
CONTINUOUS
 62
    3
 10
70.677310724612311
 20
203.35801476465545
 11
70.635881488617087
 21
203.35801476474287
  0
LINE
  8
_0-3_A0
  6
CONTINUOUS
 62
    3
 10
65.117726135910402
 20
203.10495476567555
 11
70.677310724458152
 21
203.10495476473585
  0
LINE
  8
_0-3_A0
  6
CONTINUOUS
 62
    3
 10
65.159155392419677
 20
203.35801476474298
 11
65.117146355041427
 21
203.35798803350033
  0
LINE
  8
_0-3_A0
  6
CONTINUOUS
 62
    3
 10
65.117146355041427
 20
203.35798803350033
 11
65.075784337849768
 21
203.35411756444889
  0
LINE
  8
_0-3_A0
  6
CONTINUOUS
 62
    3
 10
65.075784337849768
 20
203.35411756444889
 11
65.036326104806931
 21
203.34652095983224
  0
LINE
  8
_0-3_A0
  6
CONTINUOUS
 62
    3
 10
65.036326104806931
 20
203.34652095983224
 11
64.999970574357035
 21
203.33542903863764
  0
LINE
  8
_0-3_A0
  6
CONTINUOUS
 62
    3
 10
64.999970574357035
 20
203.33542903863764
 11
64.967822390896031
 21
203.32117882327773
  0
LINE
  8
_0-3_A0
  6
CONTINUOUS
 62
    3
 10
64.967822390896031
 20
203.32117882327773
 11
64.94085836071062
 21
203.30420329933528
  0
LINE
  8
_0-3_A0
  6
CONTINUOUS
 62
    3
 10
64.94085836071062
 20
203.30420329933528
 11
64.919897772213516
 21
203.28501825951528
  0
LINE
  8
_0-3_A0
  6
CONTINUOUS
 62
    3
 10
64.919897772213516
 20
203.28501825951528
 11
64.905577502279669
 21
203.26420663154456
  0
LINE
  8
_0-3_A0
  6
CONTINUOUS
 62
    3
 10
64.905577502279669
 20
203.26420663154456
 11
64.898332665064572
 21
203.24240076620782
  0
LINE
  8
_0-3_A0
  6
CONTINUOUS
 62
    3
 10
64.898332665064572
 20
203.24240076620782
 11
64.898383391280958
 21
203.22026322368898
  0
LINE
  8
_0-3_A0
  6
CONTINUOUS
 62
    3
 10
64.898383391280958
 20
203.22026322368898
 11
64.905728139638426
 21
203.1984666420154
  0
LINE
  8
_0-3_A0
  6
CONTINUOUS
 62
    3
 10
64.905728139638426
 20
203.1984666420154
 11
64.920143743674714
 21
203.17767329929156
  0
LINE
  8
_0-3_A0
  6
CONTINUOUS
 62
    3
 10
64.920143743674714
 20
203.17767329929156
 11
64.941192192555888
 21
203.15851499071422
  0
LINE
  8
_0-3_A0
  6
CONTINUOUS
 62
    3
 10
64.941192192555888
 20
203.15851499071422
 11
64.968233939813643
 21
203.14157383179494
  0
LINE
  8
_0-3_A0
  6
CONTINUOUS
 62
    3
 10
64.968233939813643
 20
203.14157383179494
 11
65.00044733564141
 21
203.12736457107482
  0
LINE
  8
_0-3_A0
  6
CONTINUOUS
 62
    3
 10
65.00044733564141
 20
203.12736457107482
 11
65.036853592307693
 21
203.11631894975064
  0
LINE
  8
_0-3_A0
  6
CONTINUOUS
 62
    3
 10
65.036853592307693
 20
203.11631894975064
 11
65.076346524126165
 21
203.10877258343694
  0
LINE
  8
_0-3_A0
  6
CONTINUOUS
 62
    3
 10
65.076346524126165
 20
203.10877258343694
 11
65.117726158347863
 21
203.10495476465555
  0
LINE
  8
_0-3_A0
  6
CONTINUOUS
 62
    3
 10
65.117726158347863
 20
203.10495476465555
 11
65.159155394343088
 21
203.10495476474298
  0
LINE
  8
_0-3_A0
  6
CONTINUOUS
 62
    3
 10
65.117726178861744
 20
203.35801476567556
 11
70.67731072284306
 21
203.35801476473585
  0
LINE
  8
_0-3_A0
  6
CONTINUOUS
 62
    3
 10
75.397518440682915
 20
205.27108476900775
 11
104.19751844068294
 21
205.27108476900775
  0
LINE
  8
_0-3_A0
  6
CONTINUOUS
 62
    3
 10
105.19751844068294
 20
206.27108476900775
 11
105.19751844068294
 21
208.58108476649024
  0
LINE
  8
_0-3_A0
  6
CONTINUOUS
 62
    3
 10
103.69751844068294
 20
206.84179544711406
 11
103.69751844068294
 21
208.43108476900766
  0
LINE
  8
_0-3_A0
  6
CONTINUOUS
 62
    3
 10
103.59751844068294
 20
206.80037409087637
 11
103.59751844068294
 21
208.43108476900766
  0
LINE
  8
_0-3_A0
  6
CONTINUOUS
 62
    3
 10
103.59751844068304
 20
206.80037409087645
 11
104.66674259115335
 21
205.73114994041475
  0
LINE
  8
_0-3_A0
  6
CONTINUOUS
 62
    3
 10
103.69751844068314
 20
206.84179544711406
 11
104.73745326927235
 21
205.80186061853316
  0
ARC
  8
_0-3_A0
  6
CONTINUOUS
 62
    3
 10
104.19751844068294
 20
206.27108476900775
 40
1
 50
270.00000000057445
 51
359.99999999999994
  0
ARC
  8
_0-3_A0
  6
CONTINUOUS
 62
    3
 10
104.19751844068294
 20
206.27108476900775
 40
0.9399999999999999
 50
270.00000000057445
 51
359.99999999999994
  0
ARC
  8
_0-3_A0
  6
CONTINUOUS
 62
    3
 10
104.13751844068295
 20
206.33108476900767
 40
0.8
 50
318.58332169826917
 51
355.69877769532922
  0
ARC
  8
_0-3_A0
  6
CONTINUOUS
 62
    3
 10
104.13751844068295
 20
206.33108476900767
 40
0.8
 50
274.30122230467043
 51
311.4166783013253
  0
LINE
  8
_0-3_A0
  6
CONTINUOUS
 62
    3
 10
104.19751844068294
 20
205.33108476900767
 11
104.19751844068294
 21
205.53333794200045
  0
LINE
  8
_0-3_A0
  6
CONTINUOUS
 62
    3
 10
104.93526526768994
 20
206.27108476900775
 11
105.13751844068295
 21
206.27108476900775
  0
LINE
  8
_0-3_A0
  6
CONTINUOUS
 62
    3
 10
103.89751844068294
 20
208.63108476900765
 11
105.19751844068294
 21
208.63108476900765
  0
LINE
  8
_0-3_A0
  6
CONTINUOUS
 62
    3
 10
103.69751844068304
 20
208.43108476900775
 11
103.89751844068294
 21
208.63108476900777
  0
LINE
  8
_0-3_A0
  6
CONTINUOUS
 62
    3
 10
103.59751844068294
 20
208.43108476900766
 11
103.39751844068354
 21
208.63108476900765
  0
LINE
  8
_0-3_A0
  6
CONTINUOUS
 62
    3
 10
75.397518440682915
 20
205.27108476900775
 11
46.597518440682961
 21
205.27108476900767
  0
LINE
  8
_0-3_A0
  6
CONTINUOUS
 62
    3
 10
45.597518440682961
 20
206.27108476900775
 11
45.597518440682961
 21
208.58108475894866
  0
LINE
  8
_0-3_A0
  6
CONTINUOUS
 62
    3
 10
47.097518440682961
 20
206.84179544711395
 11
47.097518440682961
 21
208.43108476900775
  0
LINE
  8
_0-3_A0
  6
CONTINUOUS
 62
    3
 10
47.197518440682983
 20
206.80037409087637
 11
47.197518440682955
 21
208.43108476900766
  0
LINE
  8
_0-3_A0
  6
CONTINUOUS
 62
    3
 10
47.197518440682927
 20
206.80037409087645
 11
46.128294290212579
 21
205.73114994041475
  0
LINE
  8
_0-3_A0
  6
CONTINUOUS
 62
    3
 10
47.097518440682961
 20
206.84179544711406
 11
46.057583612093651
 21
205.80186061853305
  0
ARC
  8
_0-3_A0
  6
CONTINUOUS
 62
    3
 10
46.597518440682961
 20
206.27108476900767
 40
1
 50
180.00000000000679
 51
269.9999999994323
  0
ARC
  8
_0-3_A0
  6
CONTINUOUS
 62
    3
 10
46.597518440682961
 20
206.27108476900767
 40
0.9399999999999999
 50
180.00000000000679
 51
269.9999999994323
  0
ARC
  8
_0-3_A0
  6
CONTINUOUS
 62
    3
 10
46.657518440682963
 20
206.33108476900767
 40
0.8
 50
184.30122230467759
 51
221.41667830173759
  0
ARC
  8
_0-3_A0
  6
CONTINUOUS
 62
    3
 10
46.657518440682963
 20
206.33108476900767
 40
0.8
 50
228.58332169868151
 51
265.69877769533627
  0
LINE
  8
_0-3_A0
  6
CONTINUOUS
 62
    3
 10
46.597518440682961
 20
205.33108476900767
 11
46.597518440682961
 21
205.53333794200045
  0
LINE
  8
_0-3_A0
  6
CONTINUOUS
 62
    3
 10
45.859771613675945
 20
206.27108476900767
 11
45.657518440682963
 21
206.27108476900767
  0
LINE
  8
_0-3_A0
  6
CONTINUOUS
 62
    3
 10
46.897518440682972
 20
208.63108476900757
 11
45.597518440682961
 21
208.63108476900757
  0
LINE
  8
_0-3_A0
  6
CONTINUOUS
 62
    3
 10
47.097518440682904
 20
208.43108476900766
 11
46.897518440682915
 21
208.63108476900765
  0
LINE
  8
_0-3_A0
  6
CONTINUOUS
 62
    3
 10
47.197518440682955
 20
208.43108476900766
 11
47.397518440682404
 21
208.63108476900765
  0
LINE
  8
_0-3_A0
  6
CONTINUOUS
 62
    3
 10
45.447518443643332
 20
246.63108477068587
 11
105.34751844273424
 21
246.63108476647676
  0
LINE
  8
_0-3_A0
  6
CONTINUOUS
 62
    3
 10
46.94751844355926
 20
245.13108477060197
 11
103.84751844260745
 21
245.13108476660354
  0
LINE
  8
_0-3_A0
  6
CONTINUOUS
 62
    3
 10
45.547518438323152
 20
208.69108477572527
 11
105.24751844272235
 21
208.69108477153017
  0
LINE
  8
_0-3_A0
  6
CONTINUOUS
 62
    3
 10
47.397518440682404
 20
208.63108476900777
 11
104.15233701245745
 21
208.63108476900777
  0
LINE
  8
_0-3_A0
  6
CONTINUOUS
 62
    3
 10
49.14751843453223
 20
112.65265141124666
 11
103.74751842855214
 21
112.65265140902636
  0
LINE
  8
_0-3_A0
  6
CONTINUOUS
 62
    3
 10
45.497518434481492
 20
112.05265141155726
 11
105.29751843373094
 21
112.05265140902845
  0
LINE
  8
_0-3_A0
  6
PHANTOM
 62
    3
 10
181.11889472569913
 20
149.05265140231455
 11
181.11889472569913
 21
134.46686496603965
  0
LINE
  8
_0-3_A0
  6
PHANTOM
 62
    3
 10
179.70468116332614
 20
133.05265140366657
 11
165.11889472434717
 21
133.05265140366665
  0
LINE
  8
_0-3_A0
  6
PHANTOM
 62
    3
 10
180.82600150688574
 20
133.75975818485306
 11
180.41178794451263
 21
133.34554462248004
  0
ARC
  8
_0-3_A0
  6
PHANTOM
 62
    3
 10
179.70468116332614
 20
134.05265140366665
 40
1
 50
270
 51
315.00000000000011
  0
ARC
  8
_0-3_A0
  6
PHANTOM
 62
    3
 10
180.11889472569936
 20
134.46686496603976
 40
1
 50
315.00000000000011
 51
318.37797957385231
  0
ARC
  8
_0-3_A0
  6
PHANTOM
 62
    3
 10
180.11889472569936
 20
134.46686496603976
 40
1
 50
318.37797957385231
 51
350.54844813725179
  0
ARC
  8
_0-3_A0
  6
PHANTOM
 62
    3
 10
180.11889472569936
 20
134.46686496603976
 40
1
 50
350.54844813725179
 51
0.000000000000027
  0
LINE
  8
_0-3_A0
  6
CONTINUOUS
 62
    3
 10
47.047518434658911
 20
114.15265141142405
 11
47.047518434486534
 21
112.11265141142405
  0
LINE
  8
_0-3_A0
  6
CONTINUOUS
 62
    3
 10
47.147518434532145
 20
112.65265141141556
 11
47.087518434532171
 21
112.65265141142066
  0
LINE
  8
_0-3_A0
  6
CONTINUOUS
 62
    3
 10
47.147518434667404
 20
114.25265141141505
 11
47.047518434658883
 21
114.15265141142415
  0
LINE
  8
_0-3_A0
  6
CONTINUOUS
 62
    3
 10
47.087518434532171
 20
112.65265141142076
 11
47.087518434486554
 21
112.11265141142075
  0
LINE
  8
_0-3_A0
  6
CONTINUOUS
 62
    3
 10
47.087518434486526
 20
112.65265141155416
 11
47.047518434532179
 21
112.65265141155416
  0
LINE
  8
_0-3_A0
  6
CONTINUOUS
 62
    3
 10
47.047518434642029
 20
114.15265141155906
 11
47.047518434642029
 21
112.11265141155925
  0
LINE
  8
_0-3_A0
  6
CONTINUOUS
 62
    3
 10
47.147518434642051
 20
114.25265141155986
 11
47.047518434642029
 21
114.15265141155906
  0
LINE
  8
_0-3_A0
  6
CONTINUOUS
 62
    3
 10
47.087518434642049
 20
112.65265141155926
 11
47.087518434642049
 21
112.11265141155925
  0
LINE
  8
_0-3_A0
  6
CONTINUOUS
 62
    3
 10
47.89751843464387
 20
116.05265141155805
 11
48.497518434645883
 21
116.05265141155766
  0
LINE
  8
_0-3_A0
  6
CONTINUOUS
 62
    3
 10
47.397518434643245
 20
117.11265141155836
 11
47.897518434643245
 21
117.11265141155806
  0
LINE
  8
_0-3_A0
  6
CONTINUOUS
 62
    3
 10
47.297518434643166
 20
116.99265141155835
 11
47.997518434643154
 21
116.99265141155795
  0
LINE
  8
_0-3_A0
  6
CONTINUOUS
 62
    3
 10
47.897518434643188
 20
117.11265141155806
 11
47.897518434643131
 21
116.99265141155805
  0
LINE
  8
_0-3_A0
  6
CONTINUOUS
 62
    3
 10
47.397518434643188
 20
117.11265141155836
 11
47.397518434643131
 21
116.99265141155835
  0
LINE
  8
_0-3_A0
  6
CONTINUOUS
 62
    3
 10
48.097518434643546
 20
117.59265141155796
 11
48.097518434643177
 21
117.09265141155796
  0
LINE
  8
_0-3_A0
  6
CONTINUOUS
 62
    3
 10
47.397518434643757
 20
117.79265141155836
 11
47.897518434643757
 21
117.79265141155805
  0
LINE
  8
_0-3_A0
  6
CONTINUOUS
 62
    3
 10
47.197518434643541
 20
117.59265141155856
 11
47.197518434643143
 21
117.09265141155856
  0
ARC
  8
_0-3_A0
  6
CONTINUOUS
 62
    3
 10
47.897518434643586
 20
117.59265141155816
 40
0.2
 50
0
 51
90
  0
ARC
  8
_0-3_A0
  6
CONTINUOUS
 62
    3
 10
47.397518434643586
 20
117.59265141155846
 40
0.2
 50
90
 51
180
  0
ARC
  8
_0-3_A0
  6
CONTINUOUS
 62
    3
 10
47.297518434643222
 20
117.09265141155846
 40
0.1
 50
180
 51
270
  0
ARC
  8
_0-3_A0
  6
CONTINUOUS
 62
    3
 10
47.997518434643239
 20
117.09265141155806
 40
0.1
 50
270
 51
0
  0
LINE
  8
_0-3_A0
  6
CONTINUOUS
 62
    3
 10
48.097518434645735
 20
115.92915446068916
 11
48.397518434645803
 21
115.92915446068936
  0
LINE
  8
_0-3_A0
  6
CONTINUOUS
 62
    3
 10
48.097518434645621
 20
115.81308257372126
 11
48.397518434645689
 21
115.81308257372135
  0
LINE
  8
_0-3_A0
  6
CONTINUOUS
 62
    3
 10
48.397518434645803
 20
115.92915446068936
 11
48.380153616879113
 21
115.92941961398567
  0
LINE
  8
_0-3_A0
  6
CONTINUOUS
 62
    3
 10
48.380153616879113
 20
115.92941961398567
 11
48.363316420313253
 21
115.93020701732585
  0
LINE
  8
_0-3_A0
  6
CONTINUOUS
 62
    3
 10
48.363316420313253
 20
115.93020701732585
 11
48.347518434645792
 21
115.93149274585786
  0
LINE
  8
_0-3_A0
  6
CONTINUOUS
 62
    3
 10
48.347518434645792
 20
115.93149274585786
 11
48.333239673677155
 21
115.93323773337088
  0
LINE
  8
_0-3_A0
  6
CONTINUOUS
 62
    3
 10
48.333239673677155
 20
115.93323773337088
 11
48.320913990333906
 21
115.93538895930231
  0
LINE
  8
_0-3_A0
  6
CONTINUOUS
 62
    3
 10
48.320913990333906
 20
115.93538895930231
 11
48.310915894267367
 21
115.93788105974081
  0
LINE
  8
_0-3_A0
  6
CONTINUOUS
 62
    3
 10
48.310915894267367
 20
115.93788105974081
 11
48.303549172567215
 21
115.94063831347561
  0
LINE
  8
_0-3_A0
  6
CONTINUOUS
 62
    3
 10
48.303549172567215
 20
115.94063831347561
 11
48.299037659344577
 21
115.94357694274722
  0
LINE
  8
_0-3_A0
  6
CONTINUOUS
 62
    3
 10
48.299037659344577
 20
115.94357694274722
 11
48.297518434645809
 21
115.94660765879226
  0
LINE
  8
_0-3_A0
  6
CONTINUOUS
 62
    3
 10
48.297518434645809
 20
115.94660765879226
 11
48.299037659344577
 21
115.94963837483729
  0
LINE
  8
_0-3_A0
  6
CONTINUOUS
 62
    3
 10
48.299037659344577
 20
115.94963837483729
 11
48.303549172567215
 21
115.9525770041089
  0
LINE
  8
_0-3_A0
  6
CONTINUOUS
 62
    3
 10
48.303549172567215
 20
115.9525770041089
 11
48.310915894267367
 21
115.9553342578437
  0
LINE
  8
_0-3_A0
  6
CONTINUOUS
 62
    3
 10
48.310915894267367
 20
115.9553342578437
 11
48.320913990333906
 21
115.9578263582822
  0
LINE
  8
_0-3_A0
  6
CONTINUOUS
 62
    3
 10
48.320913990333906
 20
115.9578263582822
 11
48.333239673677155
 21
115.95997758421363
  0
LINE
  8
_0-3_A0
  6
CONTINUOUS
 62
    3
 10
48.333239673677155
 20
115.95997758421363
 11
48.347518434645792
 21
115.96172257172665
  0
LINE
  8
_0-3_A0
  6
CONTINUOUS
 62
    3
 10
48.347518434645792
 20
115.96172257172665
 11
48.363316420313253
 21
115.96300830025866
  0
LINE
  8
_0-3_A0
  6
CONTINUOUS
 62
    3
 10
48.363316420313253
 20
115.96300830025866
 11
48.380153616879113
 21
115.96379570359884
  0
LINE
  8
_0-3_A0
  6
CONTINUOUS
 62
    3
 10
48.380153616879113
 20
115.96379570359884
 11
48.397518434645803
 21
115.96406085689515
  0
LINE
  8
_0-3_A0
  6
CONTINUOUS
 62
    3
 10
48.397518434645803
 20
115.96406085689515
 11
48.414883252412494
 21
115.96379570359884
  0
LINE
  8
_0-3_A0
  6
CONTINUOUS
 62
    3
 10
48.414883252412494
 20
115.96379570359884
 11
48.431720448978353
 21
115.96300830025866
  0
LINE
  8
_0-3_A0
  6
CONTINUOUS
 62
    3
 10
48.431720448978353
 20
115.96300830025866
 11
48.447518434645814
 21
115.96172257172665
  0
LINE
  8
_0-3_A0
  6
CONTINUOUS
 62
    3
 10
48.447518434645814
 20
115.96172257172665
 11
48.461797195614451
 21
115.95997758421363
  0
LINE
  8
_0-3_A0
  6
CONTINUOUS
 62
    3
 10
48.461797195614451
 20
115.95997758421363
 11
48.4741228789577
 21
115.9578263582822
  0
LINE
  8
_0-3_A0
  6
CONTINUOUS
 62
    3
 10
48.4741228789577
 20
115.9578263582822
 11
48.484120975024239
 21
115.9553342578437
  0
LINE
  8
_0-3_A0
  6
CONTINUOUS
 62
    3
 10
48.484120975024239
 20
115.9553342578437
 11
48.491487696724391
 21
115.9525770041089
  0
LINE
  8
_0-3_A0
  6
CONTINUOUS
 62
    3
 10
48.491487696724391
 20
115.9525770041089
 11
48.495999209947029
 21
115.94963837483729
  0
LINE
  8
_0-3_A0
  6
CONTINUOUS
 62
    3
 10
48.495999209947029
 20
115.94963837483729
 11
48.497518434645797
 21
115.94660765879226
  0
LINE
  8
_0-3_A0
  6
CONTINUOUS
 62
    3
 10
48.397518434645689
 20
115.81308257372135
 11
48.380153616878999
 21
115.81334772701767
  0
LINE
  8
_0-3_A0
  6
CONTINUOUS
 62
    3
 10
48.380153616878999
 20
115.81334772701767
 11
48.36331642031314
 21
115.81413513035785
  0
LINE
  8
_0-3_A0
  6
CONTINUOUS
 62
    3
 10
48.36331642031314
 20
115.81413513035785
 11
48.347518434645678
 21
115.81542085888986
  0
LINE
  8
_0-3_A0
  6
CONTINUOUS
 62
    3
 10
48.347518434645678
 20
115.81542085888986
 11
48.333239673677041
 21
115.81716584640288
  0
LINE
  8
_0-3_A0
  6
CONTINUOUS
 62
    3
 10
48.333239673677041
 20
115.81716584640288
 11
48.320913990333792
 21
115.81931707233431
  0
LINE
  8
_0-3_A0
  6
CONTINUOUS
 62
    3
 10
48.320913990333792
 20
115.81931707233431
 11
48.310915894267253
 21
115.82180917277281
  0
LINE
  8
_0-3_A0
  6
CONTINUOUS
 62
    3
 10
48.310915894267253
 20
115.82180917277281
 11
48.303549172567102
 21
115.82456642650761
  0
LINE
  8
_0-3_A0
  6
CONTINUOUS
 62
    3
 10
48.303549172567102
 20
115.82456642650761
 11
48.299037659344463
 21
115.82750505577922
  0
LINE
  8
_0-3_A0
  6
CONTINUOUS
 62
    3
 10
48.299037659344463
 20
115.82750505577922
 11
48.297518434645695
 21
115.83053577182425
  0
LINE
  8
_0-3_A0
  6
CONTINUOUS
 62
    3
 10
48.297518434645695
 20
115.83053577182425
 11
48.299037659344463
 21
115.83356648786929
  0
LINE
  8
_0-3_A0
  6
CONTINUOUS
 62
    3
 10
48.299037659344463
 20
115.83356648786929
 11
48.303549172567102
 21
115.8365051171409
  0
LINE
  8
_0-3_A0
  6
CONTINUOUS
 62
    3
 10
48.303549172567102
 20
115.8365051171409
 11
48.310915894267253
 21
115.8392623708757
  0
LINE
  8
_0-3_A0
  6
CONTINUOUS
 62
    3
 10
48.310915894267253
 20
115.8392623708757
 11
48.320913990333792
 21
115.8417544713142
  0
LINE
  8
_0-3_A0
  6
CONTINUOUS
 62
    3
 10
48.320913990333792
 20
115.8417544713142
 11
48.333239673677041
 21
115.84390569724563
  0
LINE
  8
_0-3_A0
  6
CONTINUOUS
 62
    3
 10
48.333239673677041
 20
115.84390569724563
 11
48.347518434645678
 21
115.84565068475865
  0
LINE
  8
_0-3_A0
  6
CONTINUOUS
 62
    3
 10
48.347518434645678
 20
115.84565068475865
 11
48.36331642031314
 21
115.84693641329066
  0
LINE
  8
_0-3_A0
  6
CONTINUOUS
 62
    3
 10
48.36331642031314
 20
115.84693641329066
 11
48.380153616878999
 21
115.84772381663084
  0
LINE
  8
_0-3_A0
  6
CONTINUOUS
 62
    3
 10
48.380153616878999
 20
115.84772381663084
 11
48.397518434645689
 21
115.84798896992715
  0
LINE
  8
_0-3_A0
  6
CONTINUOUS
 62
    3
 10
48.397518434645689
 20
115.84798896992715
 11
48.41488325241238
 21
115.84772381663084
  0
LINE
  8
_0-3_A0
  6
CONTINUOUS
 62
    3
 10
48.41488325241238
 20
115.84772381663084
 11
48.431720448978239
 21
115.84693641329066
  0
LINE
  8
_0-3_A0
  6
CONTINUOUS
 62
    3
 10
48.431720448978239
 20
115.84693641329066
 11
48.447518434645701
 21
115.84565068475865
  0
LINE
  8
_0-3_A0
  6
CONTINUOUS
 62
    3
 10
48.447518434645701
 20
115.84565068475865
 11
48.461797195614337
 21
115.84390569724563
  0
LINE
  8
_0-3_A0
  6
CONTINUOUS
 62
    3
 10
48.461797195614337
 20
115.84390569724563
 11
48.474122878957587
 21
115.8417544713142
  0
LINE
  8
_0-3_A0
  6
CONTINUOUS
 62
    3
 10
48.474122878957587
 20
115.8417544713142
 11
48.484120975024126
 21
115.8392623708757
  0
LINE
  8
_0-3_A0
  6
CONTINUOUS
 62
    3
 10
48.484120975024126
 20
115.8392623708757
 11
48.491487696724277
 21
115.8365051171409
  0
LINE
  8
_0-3_A0
  6
CONTINUOUS
 62
    3
 10
48.491487696724277
 20
115.8365051171409
 11
48.495999209946916
 21
115.83356648786929
  0
LINE
  8
_0-3_A0
  6
CONTINUOUS
 62
    3
 10
48.495999209946916
 20
115.83356648786929
 11
48.497518434645684
 21
115.83053577182425
  0
LINE
  8
_0-3_A0
  6
CONTINUOUS
 62
    3
 10
47.997518434645712
 20
115.83053577182465
 11
47.997518434645854
 21
116.05265141155805
  0
LINE
  8
_0-3_A0
  6
CONTINUOUS
 62
    3
 10
47.997518434645797
 20
115.94660765879245
 11
47.999037659344566
 21
115.94963837483749
  0
LINE
  8
_0-3_A0
  6
CONTINUOUS
 62
    3
 10
47.999037659344566
 20
115.94963837483749
 11
48.003549172567204
 21
115.9525770041091
  0
LINE
  8
_0-3_A0
  6
CONTINUOUS
 62
    3
 10
48.003549172567204
 20
115.9525770041091
 11
48.010915894267355
 21
115.9553342578439
  0
LINE
  8
_0-3_A0
  6
CONTINUOUS
 62
    3
 10
48.010915894267355
 20
115.9553342578439
 11
48.020913990333895
 21
115.9578263582824
  0
LINE
  8
_0-3_A0
  6
CONTINUOUS
 62
    3
 10
48.020913990333895
 20
115.9578263582824
 11
48.033239673677144
 21
115.95997758421383
  0
LINE
  8
_0-3_A0
  6
CONTINUOUS
 62
    3
 10
48.033239673677144
 20
115.95997758421383
 11
48.04751843464578
 21
115.96172257172685
  0
LINE
  8
_0-3_A0
  6
CONTINUOUS
 62
    3
 10
48.04751843464578
 20
115.96172257172685
 11
48.063316420313242
 21
115.96300830025886
  0
LINE
  8
_0-3_A0
  6
CONTINUOUS
 62
    3
 10
48.063316420313242
 20
115.96300830025886
 11
48.080153616879101
 21
115.96379570359904
  0
LINE
  8
_0-3_A0
  6
CONTINUOUS
 62
    3
 10
48.080153616879101
 20
115.96379570359904
 11
48.097518434645792
 21
115.96406085689535
  0
LINE
  8
_0-3_A0
  6
CONTINUOUS
 62
    3
 10
48.097518434645792
 20
115.96406085689535
 11
48.114883252412482
 21
115.96379570359904
  0
LINE
  8
_0-3_A0
  6
CONTINUOUS
 62
    3
 10
48.114883252412482
 20
115.96379570359904
 11
48.131720448978342
 21
115.96300830025886
  0
LINE
  8
_0-3_A0
  6
CONTINUOUS
 62
    3
 10
48.131720448978342
 20
115.96300830025886
 11
48.147518434645803
 21
115.96172257172685
  0
LINE
  8
_0-3_A0
  6
CONTINUOUS
 62
    3
 10
48.147518434645803
 20
115.96172257172685
 11
48.16179719561444
 21
115.95997758421383
  0
LINE
  8
_0-3_A0
  6
CONTINUOUS
 62
    3
 10
48.16179719561444
 20
115.95997758421383
 11
48.174122878957689
 21
115.9578263582824
  0
LINE
  8
_0-3_A0
  6
CONTINUOUS
 62
    3
 10
48.174122878957689
 20
115.9578263582824
 11
48.184120975024228
 21
115.9553342578439
  0
LINE
  8
_0-3_A0
  6
CONTINUOUS
 62
    3
 10
48.184120975024228
 20
115.9553342578439
 11
48.191487696724379
 21
115.9525770041091
  0
LINE
  8
_0-3_A0
  6
CONTINUOUS
 62
    3
 10
48.191487696724379
 20
115.9525770041091
 11
48.195999209947018
 21
115.94963837483749
  0
LINE
  8
_0-3_A0
  6
CONTINUOUS
 62
    3
 10
48.195999209947018
 20
115.94963837483749
 11
48.197518434645786
 21
115.94660765879245
  0
LINE
  8
_0-3_A0
  6
CONTINUOUS
 62
    3
 10
48.197518434645786
 20
115.94660765879245
 11
48.195999209947018
 21
115.94357694274742
  0
LINE
  8
_0-3_A0
  6
CONTINUOUS
 62
    3
 10
48.195999209947018
 20
115.94357694274742
 11
48.191487696724379
 21
115.94063831347581
  0
LINE
  8
_0-3_A0
  6
CONTINUOUS
 62
    3
 10
48.191487696724379
 20
115.94063831347581
 11
48.184120975024228
 21
115.93788105974101
  0
LINE
  8
_0-3_A0
  6
CONTINUOUS
 62
    3
 10
48.184120975024228
 20
115.93788105974101
 11
48.174122878957689
 21
115.93538895930251
  0
LINE
  8
_0-3_A0
  6
CONTINUOUS
 62
    3
 10
48.174122878957689
 20
115.93538895930251
 11
48.16179719561444
 21
115.93323773337108
  0
LINE
  8
_0-3_A0
  6
CONTINUOUS
 62
    3
 10
48.16179719561444
 20
115.93323773337108
 11
48.147518434645803
 21
115.93149274585806
  0
LINE
  8
_0-3_A0
  6
CONTINUOUS
 62
    3
 10
48.147518434645803
 20
115.93149274585806
 11
48.131720448978342
 21
115.93020701732605
  0
LINE
  8
_0-3_A0
  6
CONTINUOUS
 62
    3
 10
48.131720448978342
 20
115.93020701732605
 11
48.114883252412482
 21
115.92941961398587
  0
LINE
  8
_0-3_A0
  6
CONTINUOUS
 62
    3
 10
48.114883252412482
 20
115.92941961398587
 11
48.097518434645792
 21
115.92915446068955
  0
LINE
  8
_0-3_A0
  6
CONTINUOUS
 62
    3
 10
47.997518434645684
 20
115.83053577733539
 11
47.999037664827397
 21
115.83356649329671
  0
LINE
  8
_0-3_A0
  6
CONTINUOUS
 62
    3
 10
47.999037664827397
 20
115.83356649329671
 11
48.003549183366374
 21
115.8365051223197
  0
LINE
  8
_0-3_A0
  6
CONTINUOUS
 62
    3
 10
48.003549183366374
 20
115.8365051223197
 11
48.010915910054734
 21
115.83926237564853
  0
LINE
  8
_0-3_A0
  6
CONTINUOUS
 62
    3
 10
48.010915910054734
 20
115.83926237564853
 11
48.020914010629809
 21
115.84175447553604
  0
LINE
  8
_0-3_A0
  6
CONTINUOUS
 62
    3
 10
48.020914010629809
 20
115.84175447553604
 11
48.033239697864871
 21
115.84390570078824
  0
LINE
  8
_0-3_A0
  6
CONTINUOUS
 62
    3
 10
48.033239697864871
 20
115.84390570078824
 11
48.047518461990421
 21
115.84565068751436
  0
LINE
  8
_0-3_A0
  6
CONTINUOUS
 62
    3
 10
48.047518461990421
 20
115.84565068751436
 11
48.063316449983915
 21
115.84693641517577
  0
LINE
  8
_0-3_A0
  6
CONTINUOUS
 62
    3
 10
48.063316449983915
 20
115.84693641517577
 11
48.08015364797427
 21
115.84772381758808
  0
LINE
  8
_0-3_A0
  6
CONTINUOUS
 62
    3
 10
48.08015364797427
 20
115.84772381758808
 11
48.097518466220662
 21
115.84798896992745
  0
LINE
  8
_0-3_A0
  6
CONTINUOUS
 62
    3
 10
48.097518466220662
 20
115.84798896992745
 11
48.11488328350768
 21
115.8477238156742
  0
LINE
  8
_0-3_A0
  6
CONTINUOUS
 62
    3
 10
48.11488328350768
 20
115.8477238156742
 11
48.131720478649015
 21
115.84693641140614
  0
LINE
  8
_0-3_A0
  6
CONTINUOUS
 62
    3
 10
48.131720478649015
 20
115.84693641140614
 11
48.147518461990415
 21
115.84565068200352
  0
LINE
  8
_0-3_A0
  6
CONTINUOUS
 62
    3
 10
48.147518461990415
 20
115.84565068200352
 11
48.161797219802167
 21
115.84390569370363
  0
LINE
  8
_0-3_A0
  6
CONTINUOUS
 62
    3
 10
48.161797219802167
 20
115.84390569370363
 11
48.174122899253575
 21
115.84175446709295
  0
LINE
  8
_0-3_A0
  6
CONTINUOUS
 62
    3
 10
48.174122899253575
 20
115.84175446709295
 11
48.184120990811607
 21
115.83926236610346
  0
LINE
  8
_0-3_A0
  6
CONTINUOUS
 62
    3
 10
48.184120990811607
 20
115.83926236610346
 11
48.191487707523549
 21
115.83650511196269
  0
LINE
  8
_0-3_A0
  6
CONTINUOUS
 62
    3
 10
48.191487707523549
 20
115.83650511196269
 11
48.195999215429822
 21
115.83356648244246
  0
LINE
  8
_0-3_A0
  6
CONTINUOUS
 62
    3
 10
48.195999215429822
 20
115.83356648244246
 11
48.197518434645672
 21
115.83053576631371
  0
LINE
  8
_0-3_A0
  6
CONTINUOUS
 62
    3
 10
48.197518434645672
 20
115.83053576631371
 11
48.195999204463959
 21
115.82750505035239
  0
LINE
  8
_0-3_A0
  6
CONTINUOUS
 62
    3
 10
48.195999204463959
 20
115.82750505035239
 11
48.191487685924982
 21
115.8245664213294
  0
LINE
  8
_0-3_A0
  6
CONTINUOUS
 62
    3
 10
48.191487685924982
 20
115.8245664213294
 11
48.184120959236622
 21
115.82180916800058
  0
LINE
  8
_0-3_A0
  6
CONTINUOUS
 62
    3
 10
48.184120959236622
 20
115.82180916800058
 11
48.174122858661547
 21
115.81931706811306
  0
LINE
  8
_0-3_A0
  6
CONTINUOUS
 62
    3
 10
48.174122858661547
 20
115.81931706811306
 11
48.161797171426485
 21
115.81716584286087
  0
LINE
  8
_0-3_A0
  6
CONTINUOUS
 62
    3
 10
48.161797171426485
 20
115.81716584286087
 11
48.147518407300935
 21
115.81542085613475
  0
LINE
  8
_0-3_A0
  6
CONTINUOUS
 62
    3
 10
48.147518407300935
 20
115.81542085613475
 11
48.131720419307441
 21
115.81413512847333
  0
LINE
  8
_0-3_A0
  6
CONTINUOUS
 62
    3
 10
48.131720419307441
 20
115.81413512847333
 11
48.114883221317086
 21
115.81334772606102
  0
LINE
  8
_0-3_A0
  6
CONTINUOUS
 62
    3
 10
48.114883221317086
 20
115.81334772606102
 11
48.097518434645678
 21
115.81308257372165
  0
ARC
  8
_0-3_A0
  6
CONTINUOUS
 62
    3
 10
47.897518434643188
 20
115.25265141155816
 40
0.8
 50
90
 51
159.63586519390401
  0
LINE
  8
_0-3_A0
  6
CONTINUOUS
 62
    3
 10
47.097518434633343
 20
112.65265141155425
 11
47.097518434639198
 21
114.20265141155665
  0
ARC
  8
_0-3_A0
  6
CONTINUOUS
 62
    3
 10
47.247518434642188
 20
121.30265141155045
 40
0.1499999999999999
 50
228.18968510396771
 51
270
  0
LINE
  8
_0-3_A0
  6
CONTINUOUS
 62
    3
 10
47.447518434637089
 20
118.50265141158035
 11
48.227518434626745
 21
118.50265141158006
  0
ARC
  8
_0-3_A0
  6
CONTINUOUS
 62
    3
 10
47.89751843463938
 20
121.25265141158025
 40
0.25
 50
0
 51
180
  0
LINE
  8
_0-3_A0
  6
CONTINUOUS
 62
    3
 10
47.247518434638266
 20
122.15265141158036
 11
48.627518434627063
 21
122.15265141157996
  0
ARC
  8
_0-3_A0
  6
CONTINUOUS
 62
    3
 10
47.447518434637174
 20
118.70265141158036
 40
0.2
 50
180
 51
270
  0
LINE
  8
_0-3_A0
  6
CONTINUOUS
 62
    3
 10
48.627518434627035
 20
122.15265141157996
 11
48.627518434626722
 21
119.45265141157996
  0
LINE
  8
_0-3_A0
  6
CONTINUOUS
 62
    3
 10
47.647518434638811
 20
120.55064638642116
 11
47.64751843463938
 21
121.25265141158025
  0
LINE
  8
_0-3_A0
  6
CONTINUOUS
 62
    3
 10
48.147518434638755
 20
120.55064638642456
 11
48.147518434639323
 21
121.25265141158016
  0
LINE
  8
_0-3_A0
  6
CONTINUOUS
 62
    3
 10
47.247518434638323
 20
122.23265141158046
 11
48.427518434627103
 21
122.23265141158006
  0
LINE
  8
_0-3_A0
  6
CONTINUOUS
 62
    3
 10
48.427518434627103
 20
122.23265141157996
 11
48.427518434627103
 21
122.15265141157996
  0
LINE
  8
_0-3_A0
  6
CONTINUOUS
 62
    3
 10
47.247518434637186
 20
118.85265141158035
 11
48.42751843462679
 21
118.85265141157995
  0
LINE
  8
_0-3_A0
  6
CONTINUOUS
 62
    3
 10
48.42751843462679
 20
119.35265141158005
 11
48.42751843462679
 21
118.70265141158006
  0
ARC
  8
_0-3_A0
  6
CONTINUOUS
 62
    3
 10
48.227518434626773
 20
118.70265141158006
 40
0.2
 50
270
 51
0
  0
LINE
  8
_0-3_A0
  6
CONTINUOUS
 62
    3
 10
48.527518434626784
 20
119.45265141158006
 11
48.627518434626779
 21
119.45265141158006
  0
ARC
  8
_0-3_A0
  6
CONTINUOUS
 62
    3
 10
48.527518434626756
 20
119.35265141158005
 40
0.1
 50
90
 51
180
  0
LINE
  8
_0-3_A0
  6
CONTINUOUS
 62
    3
 10
47.247518434637129
 20
118.70265141158036
 11
47.247518434638294
 21
122.23265141158046
  0
CIRCLE
  8
_0-3_A0
  6
CONTINUOUS
 62
    3
 10
47.897518434641426
 20
120.15265141158026
 40
0.4699999999999999
  0
CIRCLE
  8
_0-3_A0
  6
CONTINUOUS
 62
    3
 10
47.897518434641426
 20
120.15265141158026
 40
0.4699999999999999
  0
LINE
  8
_0-3_A0
  6
CONTINUOUS
 62
    3
 10
48.107518434641434
 20
120.21265141158025
 11
48.107518434641434
 21
120.09265141158026
  0
LINE
  8
_0-3_A0
  6
CONTINUOUS
 62
    3
 10
47.687518434641447
 20
120.21265141158025
 11
47.687518434641447
 21
120.09265141158026
  0
LINE
  8
_0-3_A0
  6
CONTINUOUS
 62
    3
 10
47.837518434641481
 20
120.36265141158025
 11
47.957518434641428
 21
120.36265141158025
  0
LINE
  8
_0-3_A0
  6
CONTINUOUS
 62
    3
 10
47.837518434641424
 20
119.94265141158025
 11
47.957518434641428
 21
119.94265141158025
  0
LINE
  8
_0-3_A0
  6
CONTINUOUS
 62
    3
 10
47.957518434641428
 20
119.99265141158025
 11
47.957518434641428
 21
119.94265141158025
  0
LINE
  8
_0-3_A0
  6
CONTINUOUS
 62
    3
 10
47.957518434641428
 20
120.36265141158025
 11
47.957518434641428
 21
120.31265141158026
  0
LINE
  8
_0-3_A0
  6
CONTINUOUS
 62
    3
 10
47.687518434641447
 20
120.21265141158025
 11
47.73751843464143
 21
120.21265141158025
  0
LINE
  8
_0-3_A0
  6
CONTINUOUS
 62
    3
 10
48.057518434641451
 20
120.21265141158025
 11
48.107518434641434
 21
120.21265141158025
  0
LINE
  8
_0-3_A0
  6
CONTINUOUS
 62
    3
 10
47.687518434641447
 20
120.09265141158026
 11
47.73751843464143
 21
120.09265141158026
  0
LINE
  8
_0-3_A0
  6
CONTINUOUS
 62
    3
 10
48.057518434641451
 20
120.09265141158026
 11
48.107518434641434
 21
120.09265141158026
  0
LINE
  8
_0-3_A0
  6
CONTINUOUS
 62
    3
 10
47.837518434641424
 20
119.99265141158025
 11
47.837518434641424
 21
119.94265141158025
  0
LINE
  8
_0-3_A0
  6
CONTINUOUS
 62
    3
 10
47.837518434641424
 20
120.36265141158025
 11
47.837518434641424
 21
120.31265141158026
  0
ARC
  8
_0-3_A0
  6
CONTINUOUS
 62
    3
 10
48.057518434641451
 20
120.31265141158026
 40
0.1
 50
179.99999999999639
 51
269.99999999999482
  0
ARC
  8
_0-3_A0
  6
CONTINUOUS
 62
    3
 10
48.057518434641451
 20
119.99265141158025
 40
0.1
 50
89.999999999425526
 51
179.99999999999639
  0
ARC
  8
_0-3_A0
  6
CONTINUOUS
 62
    3
 10
47.73751843464143
 20
119.99265141158025
 40
0.1
 50
0
 51
89.999999999425526
  0
ARC
  8
_0-3_A0
  6
CONTINUOUS
 62
    3
 10
47.73751843464143
 20
120.31265141158026
 40
0.1
 50
269.99999999999488
 51
359.99999999999346
  0
LINE
  8
_0-3_A0
  6
CONTINUOUS
 62
    3
 10
48.497518434645655
 20
115.83053577182435
 11
48.497518434648299
 21
119.44804533172856
  0
LINE
  8
_0-3_A0
  6
CONTINUOUS
 62
    3
 10
48.42751843462679
 20
119.35265141157836
 11
48.497518434648384
 21
119.35265141157836
  0
LINE
  8
_0-3_A0
  6
CONTINUOUS
 62
    3
 10
47.647518434639266
 20
121.15265141155096
 11
48.147518434639238
 21
121.15265141155155
  0
LINE
  8
_0-3_A0
  6
DASHED
 62
    3
 10
47.147518435311553
 20
121.87545447064336
 11
47.247518434638209
 21
121.87545447064336
  0
LINE
  8
_0-3_A0
  6
CONTINUOUS
 62
    3
 10
47.147518435305585
 20
121.80483945640615
 11
47.247518434638152
 21
121.80483945640615
  0
LINE
  8
_0-3_A0
  6
CONTINUOUS
 62
    3
 10
47.247518434638266
 20
122.15576310133816
 11
47.147518435335257
 21
122.15576310133816
  0
LINE
  8
_0-3_A0
  6
CONTINUOUS
 62
    3
 10
47.147518435340202
 20
122.21422530522396
 11
47.247518434638323
 21
122.21422530522396
  0
LINE
  8
_0-3_A0
  6
CONTINUOUS
 62
    3
 10
47.147518435300526
 20
121.74483945769445
 11
47.247518434638152
 21
121.74483945769325
  0
LINE
  8
_0-3_A0
  6
CONTINUOUS
 62
    3
 10
47.247518434638266
 20
122.09576310262525
 11
47.147518435330141
 21
122.09576310262646
  0
LINE
  8
_0-3_A0
  6
CONTINUOUS
 62
    3
 10
47.147518435335143
 20
122.15422530651225
 11
47.247518434638323
 21
122.15422530651096
  0
LINE
  8
_0-3_A0
  6
CONTINUOUS
 62
    3
 10
105.29751843995065
 20
208.69108477153005
 11
75.397518439950658
 21
208.69108477153005
  0
LINE
  8
_0-3_A0
  6
CONTINUOUS
 62
    3
 10
105.34751844135735
 20
230.33770117055675
 11
105.34751844273424
 21
246.63108476647687
  0
LINE
  8
_0-3_A0
  6
CONTINUOUS
 62
    3
 10
142.64653656189557
 20
171.95265128957535
 11
146.11889470816487
 21
171.95265128928866
  0
LINE
  8
_0-3_A0
  6
CONTINUOUS
 62
    3
 10
47.147518439184125
 20
167.70265141147456
 11
47.147518439365796
 21
169.85265141141616
  0
LINE
  8
_0-3_A0
  6
CONTINUOUS
 62
    3
 10
102.10751842920424
 20
118.42024831613336
 11
103.24751842916634
 21
118.42024831613336
  0
LINE
  8
_0-3_A0
  6
CONTINUOUS
 62
    6
 10
103.49751841640424
 20
118.05265140902845
 11
103.52751843414984
 21
118.05265140902845
  0
LINE
  8
_0-3_A0
  6
CONTINUOUS
 62
    3
 10
103.54751842916584
 20
117.96470124322105
 11
103.54751842917895
 21
118.12024831610806
  0
LINE
  8
_0-3_A0
  6
CONTINUOUS
 62
    3
 10
102.10751842920414
 20
118.42024831613336
 11
103.24751842916634
 21
118.42024831613336
  0
LINE
  8
_0-3_A0
  6
CONTINUOUS
 62
    3
 10
103.69751842916573
 20
117.96470124322105
 11
103.69751842916625
 21
117.97024831609546
  0
LINE
  8
_0-3_A0
  6
CONTINUOUS
 62
    3
 10
103.54751842916574
 20
117.96470124322095
 11
103.69751842916573
 21
117.91728556281955
  0
LINE
  8
_0-3_A0
  6
CONTINUOUS
 62
    3
 10
103.54751842916574
 20
117.96470124322105
 11
103.69751842916573
 21
117.96470124322105
  0
ARC
  8
_0-3_A0
  6
CONTINUOUS
 62
    3
 10
103.24751842916624
 20
117.97024831613336
 40
0.45
 50
0
 51
89.9999999999971
  0
ARC
  8
_0-3_A0
  6
CONTINUOUS
 62
    3
 10
103.24751842917885
 20
118.12024831613335
 40
0.2999999999999998
 50
0
 51
89.999999999425526
  0
LINE
  8
_0-3_A0
  6
CONTINUOUS
 62
    3
 10
102.84751843396654
 20
116.05265140953595
 11
102.24751843396454
 21
116.05265140953825
  0
LINE
  8
_0-3_A0
  6
CONTINUOUS
 62
    3
 10
103.34751843397204
 20
117.11265140953396
 11
102.84751843397204
 21
117.11265140953595
  0
LINE
  8
_0-3_A0
  6
CONTINUOUS
 62
    3
 10
103.44751843397155
 20
116.99265140953346
 11
102.74751843397154
 21
116.99265140953636
  0
LINE
  8
_0-3_A0
  6
CONTINUOUS
 62
    3
 10
102.84751843397204
 20
117.11265140953595
 11
102.84751843397154
 21
116.99265140953596
  0
LINE
  8
_0-3_A0
  6
CONTINUOUS
 62
    3
 10
103.34751843397204
 20
117.11265140953385
 11
103.34751843397154
 21
116.99265140953396
  0
LINE
  8
_0-3_A0
  6
CONTINUOUS
 62
    3
 10
102.64751843397344
 20
117.40265140955895
 11
102.64751843397215
 21
117.09265140953675
  0
LINE
  8
_0-3_A0
  6
CONTINUOUS
 62
    3
 10
103.54751843397394
 20
117.59265140953316
 11
103.54751843397194
 21
117.09265140953306
  0
ARC
  8
_0-3_A0
  6
CONTINUOUS
 62
    3
 10
103.34751843397394
 20
117.59265140953395
 40
0.2
 50
359.99999999973397
 51
41.409622104075914
  0
ARC
  8
_0-3_A0
  6
CONTINUOUS
 62
    3
 10
103.44751843397204
 20
117.09265140953345
 40
0.1
 50
269.99999999973397
 51
359.99999999973397
  0
ARC
  8
_0-3_A0
  6
CONTINUOUS
 62
    3
 10
102.74751843397194
 20
117.09265140953635
 40
0.1
 50
179.99999999973388
 51
269.99999999973397
  0
ARC
  8
_0-3_A0
  6
CONTINUOUS
 62
    3
 10
102.84751843396344
 20
115.25265140953595
 40
0.8
 50
359.99999999973397
 51
89.999999999733958
  0
LINE
  8
_0-3_A0
  6
CONTINUOUS
 62
    3
 10
102.24751843396414
 20
115.93265140953836
 11
102.24751843397365
 21
118.35265140956076
  0
LINE
  8
_0-3_A0
  6
CONTINUOUS
 62
    3
 10
102.84751843396604
 20
115.93265140953596
 11
102.24751843396404
 21
115.93265140953826
  0
LINE
  8
_0-3_A0
  6
CONTINUOUS
 62
    3
 10
102.84751843396884
 20
116.05265140953595
 11
102.84751843396834
 21
115.93265140953596
  0
LINE
  8
_0-3_A0
  6
CONTINUOUS
 62
    3
 10
102.74751843396884
 20
116.05265140953646
 11
102.74751843396835
 21
115.93265140953646
  0
LINE
  8
_0-3_A0
  6
CONTINUOUS
 62
    3
 10
103.29751843398474
 20
117.40265140955615
 11
102.51751843399505
 21
117.40265140955956
  0
ARC
  8
_0-3_A0
  6
CONTINUOUS
 62
    3
 10
103.29751843398554
 20
117.60265140955615
 40
0.2
 50
269.99999999973397
 51
359.99999999973397
  0
LINE
  8
_0-3_A0
  6
CONTINUOUS
 62
    3
 10
103.49751843398614
 20
117.75265140955525
 11
102.31751843399653
 21
117.75265140956035
  0
LINE
  8
_0-3_A0
  6
CONTINUOUS
 62
    3
 10
102.31751843399884
 20
118.25265140956035
 11
102.31751843399584
 21
117.60265140956036
  0
ARC
  8
_0-3_A0
  6
CONTINUOUS
 62
    3
 10
102.51751843399584
 20
117.60265140955955
 40
0.2
 50
179.99999999973388
 51
269.99999999973397
  0
LINE
  8
_0-3_A0
  6
CONTINUOUS
 62
    3
 10
102.21751843399934
 20
118.35265140956086
 11
102.11751843399935
 21
118.35265140956136
  0
ARC
  8
_0-3_A0
  6
CONTINUOUS
 62
    3
 10
102.21751843399894
 20
118.25265140956085
 40
0.1
 50
359.99999999973397
 51
89.999999999733958
  0
LINE
  8
_0-3_A0
  6
CONTINUOUS
 62
    3
 10
103.49751843398554
 20
117.60265140955526
 11
103.49751843398725
 21
118.28607954840225
  0
LINE
  8
_0-3_A0
  6
CONTINUOUS
 62
    3
 10
102.11751843399935
 20
118.35265140956136
 11
102.11751843399925
 21
118.42024831613336
  0
LINE
  8
_0-3_A0
  6
CONTINUOUS
 62
    3
 10
103.64751843373115
 20
117.93309078817705
 11
103.64751843373115
 21
112.65265140902846
  0
ARC
  8
_0-3_A0
  6
CONTINUOUS
 62
    3
 10
49.647518439956456
 20
169.48897879756196
 40
0.2
 50
180.00000000010498
 51
270.00000000010487
  0
ARC
  8
_0-3_A0
  6
CONTINUOUS
 62
    3
 10
50.247518439956422
 20
169.48897879756316
 40
0.2
 50
270.00000000010487
 51
0.0000000001048819
  0
ARC
  8
_0-3_A0
  6
CONTINUOUS
 62
    3
 10
50.24751843995665
 20
169.40412598382005
 40
0.2
 50
270.00000000010487
 51
0.0000000001048819
  0
ARC
  8
_0-3_A0
  6
CONTINUOUS
 62
    3
 10
49.647518439956684
 20
169.40412598381897
 40
0.2
 50
180.00000000010498
 51
270.00000000010487
  0
LINE
  8
_0-3_A0
  6
CONTINUOUS
 62
    3
 10
49.647518439931332
 20
170.65235703621854
 11
49.647518439930138
 21
169.70767666206955
  0
LINE
  8
_0-3_A0
  6
CONTINUOUS
 62
    3
 10
50.247518439931354
 20
170.65235703621885
 11
50.247518439930161
 21
169.70767666206924
  0
LINE
  8
_0-3_A0
  6
CONTINUOUS
 62
    3
 10
49.797518439931025
 20
170.80235703621826
 11
50.097518439931036
 21
170.80235703621886
  0
LINE
  8
_0-3_A0
  6
CONTINUOUS
 62
    3
 10
50.097518439930155
 20
169.55767666206935
 11
49.797518439930172
 21
169.55767666206935
  0
ARC
  8
_0-3_A0
  6
CONTINUOUS
 62
    3
 10
50.097518439930155
 20
169.70767666206936
 40
0.1499999999999999
 50
270
 51
0
  0
ARC
  8
_0-3_A0
  6
CONTINUOUS
 62
    3
 10
49.797518439930172
 20
169.70767666206936
 40
0.1499999999999999
 50
180
 51
270
  0
ARC
  8
_0-3_A0
  6
CONTINUOUS
 62
    3
 10
50.09751843993132
 20
170.65235703621885
 40
0.1499999999999999
 50
0
 51
90
  0
ARC
  8
_0-3_A0
  6
CONTINUOUS
 62
    3
 10
49.797518439931337
 20
170.65235703621826
 40
0.1499999999999999
 50
90
 51
180
  0
LINE
  8
_0-3_A0
  6
CONTINUOUS
 62
    3
 10
50.247518439930672
 20
170.10235703621916
 11
50.447518439963062
 21
170.10235703621947
  0
LINE
  8
_0-3_A0
  6
CONTINUOUS
 62
    3
 10
49.447518439963062
 20
170.10235703621765
 11
49.647518439930706
 21
170.10235703621805
  0
LINE
  8
_0-3_A0
  6
CONTINUOUS
 62
    3
 10
50.111479393859667
 20
170.13089360842485
 11
49.788170873632509
 21
170.13089360842425
  0
LINE
  8
_0-3_A0
  6
CONTINUOUS
 62
    3
 10
47.647518439964329
 20
169.55265140873626
 11
47.652828458293157
 21
169.55265140873626
  0
LINE
  8
_0-3_A0
  6
CONTINUOUS
 62
    3
 10
47.647518439968479
 20
167.95265140872305
 11
47.706264374713043
 21
167.95265140872317
  0
ARC
  8
_0-3_A0
  6
CONTINUOUS
 62
    3
 10
49.647518439956456
 20
169.48897879756196
 40
0.2
 50
180.00000000010498
 51
270.00000000010487
  0
ARC
  8
_0-3_A0
  6
CONTINUOUS
 62
    3
 10
50.247518439956422
 20
169.48897879756316
 40
0.2
 50
270.00000000010487
 51
0.0000000001048819
  0
ARC
  8
_0-3_A0
  6
CONTINUOUS
 62
    3
 10
50.24751843995665
 20
169.40412598382005
 40
0.2
 50
270.00000000010487
 51
0.0000000001048819
  0
ARC
  8
_0-3_A0
  6
CONTINUOUS
 62
    3
 10
49.647518439956684
 20
169.40412598381897
 40
0.2
 50
180.00000000010498
 51
270.00000000010487
  0
LINE
  8
_0-3_A0
  6
CONTINUOUS
 62
    3
 10
49.647518439931332
 20
170.65235703621854
 11
49.647518439930138
 21
169.70767666206955
  0
LINE
  8
_0-3_A0
  6
CONTINUOUS
 62
    3
 10
50.247518439931354
 20
170.65235703621885
 11
50.247518439930161
 21
169.70767666206924
  0
LINE
  8
_0-3_A0
  6
CONTINUOUS
 62
    3
 10
49.797518439931025
 20
170.80235703621826
 11
50.097518439931036
 21
170.80235703621886
  0
LINE
  8
_0-3_A0
  6
CONTINUOUS
 62
    3
 10
50.097518439930155
 20
169.55767666206935
 11
49.797518439930172
 21
169.55767666206935
  0
ARC
  8
_0-3_A0
  6
CONTINUOUS
 62
    3
 10
50.097518439930155
 20
169.70767666206936
 40
0.1499999999999999
 50
270
 51
0
  0
ARC
  8
_0-3_A0
  6
CONTINUOUS
 62
    3
 10
49.797518439930172
 20
169.70767666206936
 40
0.1499999999999999
 50
180
 51
270
  0
ARC
  8
_0-3_A0
  6
CONTINUOUS
 62
    3
 10
50.09751843993132
 20
170.65235703621885
 40
0.1499999999999999
 50
0
 51
90
  0
ARC
  8
_0-3_A0
  6
CONTINUOUS
 62
    3
 10
49.797518439931337
 20
170.65235703621826
 40
0.1499999999999999
 50
90
 51
180
  0
LINE
  8
_0-3_A0
  6
CONTINUOUS
 62
    3
 10
50.247518439930672
 20
170.10235703621916
 11
50.447518439963062
 21
170.10235703621947
  0
LINE
  8
_0-3_A0
  6
CONTINUOUS
 62
    3
 10
49.447518439963062
 20
170.10235703621765
 11
49.647518439930706
 21
170.10235703621805
  0
LINE
  8
_0-3_A0
  6
CONTINUOUS
 62
    3
 10
50.111479393859667
 20
170.13089360842485
 11
49.788170873632509
 21
170.13089360842425
  0
LINE
  8
_0-3_A0
  6
CONTINUOUS
 62
    3
 10
47.647518439964585
 20
169.55265140873615
 11
47.649905322916652
 21
169.55265140873615
  0
LINE
  8
_0-3_A0
  6
CONTINUOUS
 62
    3
 10
47.647518439957593
 20
167.95265140872317
 11
47.706264374713043
 21
167.95265140872285
  0
LINE
  8
_0-3_A0
  6
CONTINUOUS
 62
    3
 10
47.814121424664307
 20
169.95265140874624
 11
47.920748058249728
 21
169.95265140874565
  0
LINE
  8
_0-3_A0
  6
CONTINUOUS
 62
    3
 10
47.64751843995765
 20
167.95265140874295
 11
47.706264374713043
 21
167.95265140874255
  0
LINE
  8
_0-3_A0
  6
CONTINUOUS
 62
    3
 10
48.006264374723997
 20
169.75265140874594
 11
48.004965189722611
 21
169.78738104427932
  0
LINE
  8
_0-3_A0
  6
CONTINUOUS
 62
    3
 10
48.004965189722611
 20
169.78738104427932
 11
48.001107109797317
 21
169.8210554374111
  0
LINE
  8
_0-3_A0
  6
CONTINUOUS
 62
    3
 10
48.001107109797317
 20
169.8210554374111
 11
47.994807360754379
 21
169.85265140874597
  0
LINE
  8
_0-3_A0
  6
CONTINUOUS
 62
    3
 10
47.994807360754379
 20
169.85265140874597
 11
47.986257357280607
 21
169.88120893068327
  0
LINE
  8
_0-3_A0
  6
CONTINUOUS
 62
    3
 10
47.986257357280607
 20
169.88120893068327
 11
47.975716886905047
 21
169.90586029736977
  0
LINE
  8
_0-3_A0
  6
CONTINUOUS
 62
    3
 10
47.975716886905047
 20
169.90586029736977
 11
47.963506216486337
 21
169.92585648950284
  0
LINE
  8
_0-3_A0
  6
CONTINUOUS
 62
    3
 10
47.963506216486337
 20
169.92585648950284
 11
47.949996361066268
 21
169.94058993290315
  0
LINE
  8
_0-3_A0
  6
CONTINUOUS
 62
    3
 10
47.949996361066268
 20
169.94058993290315
 11
47.935597810765443
 21
169.94961295934842
  0
LINE
  8
_0-3_A0
  6
CONTINUOUS
 62
    3
 10
47.935597810765443
 20
169.94961295934842
 11
47.920748058248705
 21
169.95265140874596
  0
LINE
  8
_0-3_A0
  6
CONTINUOUS
 62
    3
 10
47.920748058248705
 20
169.95265140874596
 11
47.914339041553745
 21
169.95208894316323
  0
LINE
  8
_0-3_A0
  6
CONTINUOUS
 62
    3
 10
47.948308825136507
 20
169.75265140874614
 11
47.947009640135121
 21
169.78738104427952
  0
LINE
  8
_0-3_A0
  6
CONTINUOUS
 62
    3
 10
47.947009640135121
 20
169.78738104427952
 11
47.943151560209827
 21
169.8210554374113
  0
LINE
  8
_0-3_A0
  6
CONTINUOUS
 62
    3
 10
47.943151560209827
 20
169.8210554374113
 11
47.936851811166889
 21
169.85265140874616
  0
LINE
  8
_0-3_A0
  6
CONTINUOUS
 62
    3
 10
47.936851811166889
 20
169.85265140874616
 11
47.928301807693117
 21
169.88120893068347
  0
LINE
  8
_0-3_A0
  6
CONTINUOUS
 62
    3
 10
47.928301807693117
 20
169.88120893068347
 11
47.917761337317557
 21
169.90586029736996
  0
LINE
  8
_0-3_A0
  6
CONTINUOUS
 62
    3
 10
47.917761337317557
 20
169.90586029736996
 11
47.905550666898875
 21
169.92585648950304
  0
LINE
  8
_0-3_A0
  6
CONTINUOUS
 62
    3
 10
47.905550666898875
 20
169.92585648950304
 11
47.892040811478779
 21
169.94058993290335
  0
LINE
  8
_0-3_A0
  6
CONTINUOUS
 62
    3
 10
47.892040811478779
 20
169.94058993290335
 11
47.877642261177925
 21
169.94961295934862
  0
LINE
  8
_0-3_A0
  6
CONTINUOUS
 62
    3
 10
47.877642261177925
 20
169.94961295934862
 11
47.862792508661215
 21
169.95265140874616
  0
LINE
  8
_0-3_A0
  6
CONTINUOUS
 62
    3
 10
47.862792508661215
 20
169.95265140874616
 11
47.856383491966084
 21
169.9520889431634
  0
LINE
  8
_0-3_A0
  6
CONTINUOUS
 62
    3
 10
47.707518439957368
 20
167.85265140872576
 11
47.707518439957766
 21
167.95265140874255
  0
LINE
  8
_0-3_A0
  6
CONTINUOUS
 62
    3
 10
47.648308825130698
 20
167.95265140874286
 11
47.700403278430769
 21
167.9632859816343
  0
LINE
  8
_0-3_A0
  6
CONTINUOUS
 62
    3
 10
47.700403278430769
 20
167.9632859816343
 11
47.750914868128404
 21
167.99486657419271
  0
LINE
  8
_0-3_A0
  6
CONTINUOUS
 62
    3
 10
47.750914868128404
 20
167.99486657419271
 11
47.798308825130703
 21
168.04643362609374
  0
LINE
  8
_0-3_A0
  6
CONTINUOUS
 62
    3
 10
47.798308825130703
 20
168.04643362609374
 11
47.84114510803667
 21
168.11642029855957
  0
LINE
  8
_0-3_A0
  6
CONTINUOUS
 62
    3
 10
47.84114510803667
 20
168.11642029855957
 11
47.878122158066389
 21
168.20270008196229
  0
LINE
  8
_0-3_A0
  6
CONTINUOUS
 62
    3
 10
47.878122158066389
 20
168.20270008196229
 11
47.908116446266035
 21
168.30265140874286
  0
LINE
  8
_0-3_A0
  6
CONTINUOUS
 62
    3
 10
47.908116446266035
 20
168.30265140874286
 11
47.930216611366461
 21
168.41323730841489
  0
LINE
  8
_0-3_A0
  6
CONTINUOUS
 62
    3
 10
47.930216611366461
 20
168.41323730841489
 11
47.943751151034348
 21
168.53109768437599
  0
LINE
  8
_0-3_A0
  6
CONTINUOUS
 62
    3
 10
47.943751151034348
 20
168.53109768437599
 11
47.948308825130709
 21
168.65265140874285
  0
LINE
  8
_0-3_A0
  6
CONTINUOUS
 62
    3
 10
47.706264320702615
 20
167.95265140873948
 11
47.758358774823307
 21
167.963285959745
  0
LINE
  8
_0-3_A0
  6
CONTINUOUS
 62
    3
 10
47.758358774823307
 20
167.963285959745
 11
47.808870366957847
 21
167.99486653108249
  0
LINE
  8
_0-3_A0
  6
CONTINUOUS
 62
    3
 10
47.808870366957847
 20
167.99486653108249
 11
47.8562643279393
 21
168.04643356307238
  0
LINE
  8
_0-3_A0
  6
CONTINUOUS
 62
    3
 10
47.8562643279393
 20
168.04643356307238
 11
47.899100616245789
 21
168.11642021754181
  0
LINE
  8
_0-3_A0
  6
CONTINUOUS
 62
    3
 10
47.899100616245789
 20
168.11642021754181
 11
47.936077672933294
 21
168.20269998540973
  0
LINE
  8
_0-3_A0
  6
CONTINUOUS
 62
    3
 10
47.936077672933294
 20
168.20269998540973
 11
47.966071968845653
 21
168.30265129958911
  0
LINE
  8
_0-3_A0
  6
CONTINUOUS
 62
    3
 10
47.966071968845653
 20
168.30265129958911
 11
47.988172142479442
 21
168.41323718997642
  0
LINE
  8
_0-3_A0
  6
CONTINUOUS
 62
    3
 10
47.988172142479442
 20
168.41323718997642
 11
48.00170669124202
 21
168.53109756025139
  0
LINE
  8
_0-3_A0
  6
CONTINUOUS
 62
    3
 10
48.00170669124202
 20
168.53109756025139
 11
48.006264374718057
 21
168.65265128270348
  0
LINE
  8
_0-3_A0
  6
CONTINUOUS
 62
    3
 10
48.006264374718057
 20
168.65265128270348
 11
48.006264374718057
 21
168.65265140873947
  0
LINE
  8
_0-3_A0
  6
CONTINUOUS
 62
    3
 10
47.647518439964585
 20
169.55265140873626
 11
47.707518439962797
 21
169.55265140873595
  0
LINE
  8
_0-3_A0
  6
CONTINUOUS
 62
    3
 10
47.64751843995765
 20
167.95265140874295
 11
47.706264374713043
 21
167.95265140874255
  0
LINE
  8
_0-3_A0
  6
CONTINUOUS
 62
    3
 10
47.814121424664335
 20
169.95265140874624
 11
47.647518439963391
 21
169.21730403629234
  0
LINE
  8
_0-3_A0
  6
CONTINUOUS
 62
    3
 10
47.707518439957368
 20
167.85265140872576
 11
47.707518439957766
 21
167.95265140874255
  0
ARC
  8
_0-3_A0
  6
CONTINUOUS
 62
    3
 10
47.507518439957323
 20
167.85265140872655
 40
0.2
 50
269.99999999959072
 51
359.99999999959072
  0
ARC
  8
_0-3_A0
  6
CONTINUOUS
 62
    3
 10
47.507518439964485
 20
170.05265140885686
 40
0.2
 50
0
 51
90
  0
LINE
  8
_0-3_A0
  6
CONTINUOUS
 62
    3
 10
50.447518439956752
 20
169.40412598382064
 11
50.44751843995516
 21
170.20247600659504
  0
LINE
  8
_0-3_A0
  6
CONTINUOUS
 62
    3
 10
49.447518439956752
 20
169.40412598381857
 11
49.44751843995516
 21
170.20247600660417
  0
LINE
  8
_0-3_A0
  6
CONTINUOUS
 62
    3
 10
49.19751843995607
 20
170.35247600660446
 11
49.297518439956064
 21
170.35247600660386
  0
LINE
  8
_0-3_A0
  6
CONTINUOUS
 62
    3
 10
47.707518439962541
 20
169.48213027830607
 11
47.707518439964417
 21
170.05265140885705
  0
LINE
  8
_0-3_A0
  6
CONTINUOUS
 62
    3
 10
47.647518439957536
 20
167.95265140872305
 11
47.647518439964528
 21
169.55265140873626
  0
LINE
  8
_0-3_A0
  6
CONTINUOUS
 62
    3
 10
50.597518439955166
 20
170.35247600659536
 11
50.69751843995516
 21
170.35247600659536
  0
LINE
  8
_0-3_A0
  6
CONTINUOUS
 62
    3
 10
49.647518439956911
 20
169.28897879756206
 11
50.247518439956905
 21
169.28897879756314
  0
LINE
  8
_0-3_A0
  6
CONTINUOUS
 62
    3
 10
49.647518439957082
 20
169.20412598381895
 11
50.247518439957104
 21
169.20412598382006
  0
LINE
  8
_0-3_A0
  6
CONTINUOUS
 62
    3
 10
47.948308825130652
 20
168.65265140874075
 11
47.948308825136621
 21
169.75265140874574
  0
LINE
  8
_0-3_A0
  6
CONTINUOUS
 62
    3
 10
48.006264374718
 20
168.65265140873736
 11
48.006264374724139
 21
169.75265140874554
  0
ARC
  8
_0-3_A0
  6
CONTINUOUS
 62
    3
 10
48.007518439957891
 20
168.45265140933466
 40
0.2999999999999998
 50
359.99999999999511
 51
89.999999999995225
  0
ARC
  8
_0-3_A0
  6
CONTINUOUS
 62
    3
 10
48.007518439957834
 20
168.45265140934245
 40
0.2999999999999998
 50
269.99999999999511
 51
359.99999999999511
  0
LINE
  8
_0-3_A0
  6
CONTINUOUS
 62
    3
 10
48.007518439957948
 20
168.15265140934246
 11
47.916220638643778
 21
168.15265140934246
  0
LINE
  8
_0-3_A0
  6
CONTINUOUS
 62
    3
 10
49.047518439958423
 20
168.57235703621685
 11
49.047518439955126
 21
170.20247600660417
  0
LINE
  8
_0-3_A0
  6
CONTINUOUS
 62
    3
 10
50.847518439958463
 20
168.57235703622026
 11
50.847518439955166
 21
170.20247600659567
  0
LINE
  8
_0-3_A0
  6
CONTINUOUS
 62
    3
 10
49.197518439958741
 20
168.42235703621724
 11
50.697518439958798
 21
168.42235703622006
  0
ARC
  8
_0-3_A0
  6
CONTINUOUS
 62
    3
 10
49.19751843995516
 20
170.20247600660445
 40
0.1499999999999999
 50
90
 51
180
  0
ARC
  8
_0-3_A0
  6
CONTINUOUS
 62
    3
 10
49.297518439955183
 20
170.20247600660385
 40
0.1499999999999999
 50
0
 51
90
  0
ARC
  8
_0-3_A0
  6
CONTINUOUS
 62
    3
 10
50.597518439955166
 20
170.20247600659536
 40
0.1499999999999999
 50
90
 51
180
  0
ARC
  8
_0-3_A0
  6
CONTINUOUS
 62
    3
 10
50.69751843995516
 20
170.20247600659536
 40
0.1499999999999999
 50
0
 51
90
  0
ARC
  8
_0-3_A0
  6
CONTINUOUS
 62
    3
 10
50.697518439958457
 20
168.57235703621995
 40
0.1499999999999999
 50
270
 51
0
  0
ARC
  8
_0-3_A0
  6
CONTINUOUS
 62
    3
 10
49.197518439958457
 20
168.57235703621716
 40
0.1499999999999999
 50
180
 51
270
  0
LINE
  8
_0-3_A0
  6
CONTINUOUS
 62
    3
 10
47.047518439399595
 20
170.25265140885676
 11
47.507518439964371
 21
170.25265140885696
  0
LINE
  8
_0-3_A0
  6
CONTINUOUS
 62
    3
 10
47.147518439179862
 20
167.65265140872546
 11
47.507518439957379
 21
167.65265140872554
  0
LINE
  8
_0-3_A0
  6
CONTINUOUS
 62
    3
 10
47.147518439053101
 20
166.15265140902846
 11
75.397518437383126
 21
166.15265140902846
  0
LINE
  8
_0-3_A0
  6
CONTINUOUS
 62
    3
 10
103.74751842855204
 20
112.70265141419015
 11
103.74751842855245
 21
112.55265141401996
  0
LINE
  8
_0-3_A0
  6
PHANTOM
 62
    3
 10
75.397518435133036
 20
133.05265140852137
 11
60.811731999981304
 21
133.05265140852137
  0
ARC
  8
_0-3_A0
  6
PHANTOM
 62
    3
 10
60.811731999981304
 20
134.05265140852137
 40
1
 50
225.00000000000011
 51
270
  0
LINE
  8
_0-3_A0
  6
PHANTOM
 62
    3
 10
60.104625218794751
 20
133.34554462733476
 11
59.690411656421645
 21
133.75975818970786
  0
ARC
  8
_0-3_A0
  6
PHANTOM
 62
    3
 10
60.397518437608255
 20
134.46686497089444
 40
1
 50
180
 51
225.00000000000011
  0
LINE
  8
_0-3_A0
  6
PHANTOM
 62
    3
 10
59.397518437608198
 20
149.05265140987344
 11
59.397518437608226
 21
134.46686497089436
  0
LINE
  8
_0-3_A0
  6
CONTINUOUS
 62
    3
 10
101.64751843296035
 20
112.65265140767776
 11
101.84751843295015
 21
112.45265140766755
  0
LINE
  8
_0-3_A0
  6
CONTINUOUS
 62
    3
 10
101.84751843295005
 20
112.45265140766755
 11
101.84751843292944
 21
112.05265140766745
  0
LINE
  8
_0-3_A0
  6
CONTINUOUS
 62
    3
 10
103.84751844260745
 20
245.13108476660354
 11
103.84751844135735
 21
230.33770117055675
  0
LINE
  8
_0-3_A0
  6
PHANTOM
 62
    3
 10
75.397518437837163
 20
165.05265140852125
 11
60.811732002685459
 21
165.05265141098635
  0
ARC
  8
_0-3_A0
  6
PHANTOM
 62
    3
 10
60.811732002516464
 20
164.05265141098635
 40
1
 50
89.99999999031651
 51
134.99999999031641
  0
LINE
  8
_0-3_A0
  6
PHANTOM
 62
    3
 10
60.104625221449396
 20
164.75975819229236
 11
59.690411659006315
 21
164.34554462998926
  0
ARC
  8
_0-3_A0
  6
PHANTOM
 62
    3
 10
60.397518440073383
 20
163.63843784868325
 40
1
 50
134.99999999031641
 51
179.99999999031649
  0
LINE
  8
_0-3_A0
  6
PHANTOM
 62
    3
 10
59.397518437608198
 20
149.05265140987324
 11
59.397518440073326
 21
163.63843784885236
  0
ARC
  8
_0-3_A0
  6
CONTINUOUS
 62
    3
 10
45.647518440681949
 20
208.58108475894866
 40
0.05
 50
90
 51
180
  0
LINE
  8
_0-3_A0
  6
CONTINUOUS
 62
    3
 10
210.53002539460794
 20
172.05265141094645
 11
210.53002539460794
 21
112.05265141094676
  0
LINE
  8
_0-3_A0
  6
CONTINUOUS
 62
    3
 10
270.53002539460783
 20
172.05265141094645
 11
270.53002539460783
 21
112.05265141094646
  0
ARC
  8
_0-3_A0
  6
CONTINUOUS
 62
    3
 10
210.65002539460795
 20
152.22265140263516
 40
0.0699999999999998
 50
179.99999999999639
 51
269.99999999999482
  0
LINE
  8
_0-3_A0
  6
CONTINUOUS
 62
    3
 10
210.53002539460794
 20
172.05265140263554
 11
270.53002539460783
 21
172.05265140263554
  0
LINE
  8
_0-3_A0
  6
CONTINUOUS
 62
    3
 10
210.53002539460794
 20
112.05265141094676
 11
270.5300253946076
 21
112.05265141094646
  0
LINE
  8
_0-3_A0
  6
PHANTOM
 62
    3
 10
256.53002539460783
 20
163.63843784026195
 11
256.53002539460783
 21
134.46686496500836
  0
LINE
  8
_0-3_A0
  6
PHANTOM
 62
    3
 10
224.53002539460794
 20
163.63843784026207
 11
224.53002539460794
 21
134.46686496500836
  0
LINE
  8
_0-3_A0
  6
PHANTOM
 62
    3
 10
225.94423895698093
 20
165.05265140263514
 11
255.11581183223472
 21
165.05265140263514
  0
LINE
  8
_0-3_A0
  6
PHANTOM
 62
    3
 10
225.94423895698093
 20
133.05265140263514
 11
255.11581183223484
 21
133.05265140263514
  0
LINE
  8
_0-3_A0
  6
CENTER
 62
    3
 10
261.7196800368668
 20
167.05265140263554
 11
268.5926645870121
 21
167.05265140263554
  0
LINE
  8
_0-3_A0
  6
CENTER
 62
    3
 10
265.53002539460783
 20
168.94799113332916
 11
265.53002539460783
 21
130.22634614146116
  0
LINE
  8
_0-3_A0
  6
CENTER
 62
    3
 10
262.85254486762545
 20
132.05265140263554
 11
268.03984694399713
 21
132.05265140263554
  0
ARC
  8
_0-3_A0
  6
CONTINUOUS
 62
    3
 10
265.53002539460783
 20
167.05265140263554
 40
0.26
 50
0
 51
180
  0
LINE
  8
_0-3_A0
  6
CENTER
 62
    3
 10
264.08639590269342
 20
166.05265140263554
 11
266.96867651710624
 21
166.05265140263554
  0
LINE
  8
_0-3_A0
  6
CONTINUOUS
 62
    3
 10
265.79002539460793
 20
167.05265140263554
 11
265.79002539460793
 21
166.80922261541064
  0
LINE
  8
_0-3_A0
  6
CONTINUOUS
 62
    3
 10
265.27002539460795
 20
167.05265140263554
 11
265.27002539460795
 21
166.80922261541064
  0
ARC
  8
_0-3_A0
  6
CONTINUOUS
 62
    3
 10
265.53002539460783
 20
166.05265140263554
 40
0.8
 50
108.96557498884789
 51
71.034425011152052
  0
LINE
  8
_0-3_A0
  6
CENTER
 62
    3
 10
219.34037075234897
 20
167.05265140263554
 11
212.46738620220367
 21
167.05265140263554
  0
LINE
  8
_0-3_A0
  6
CENTER
 62
    3
 10
215.53002539460783
 20
168.94799113332916
 11
215.53002539460783
 21
130.22634614146116
  0
LINE
  8
_0-3_A0
  6
CENTER
 62
    3
 10
218.20750592159032
 20
132.05265140263554
 11
213.02020384521853
 21
132.05265140263554
  0
ARC
  8
_0-3_A0
  6
CONTINUOUS
 62
    3
 10
215.53002539460783
 20
167.05265140263554
 40
0.26
 50
0.0000000000000254
 51
180
  0
LINE
  8
_0-3_A0
  6
CENTER
 62
    3
 10
216.97365488652235
 20
166.05265140263554
 11
214.09137427210953
 21
166.05265140263554
  0
LINE
  8
_0-3_A0
  6
CONTINUOUS
 62
    3
 10
215.27002539460784
 20
167.05265140263554
 11
215.27002539460784
 21
166.80922261541064
  0
LINE
  8
_0-3_A0
  6
CONTINUOUS
 62
    3
 10
215.79002539460782
 20
167.05265140263554
 11
215.79002539460782
 21
166.80922261541064
  0
ARC
  8
_0-3_A0
  6
CONTINUOUS
 62
    3
 10
215.53002539460783
 20
166.05265140263554
 40
0.8
 50
108.96557498884789
 51
71.034425011152222
  0
LINE
  8
_0-3_A0
  6
PHANTOM
 62
    3
 10
255.8229186134211
 20
164.75975818382167
 11
256.23713217579421
 21
164.34554462144856
  0
LINE
  8
_0-3_A0
  6
PHANTOM
 62
    3
 10
256.23713217579455
 20
133.75975818382187
 11
255.82291861342145
 21
133.34554462144876
  0
LINE
  8
_0-3_A0
  6
PHANTOM
 62
    3
 10
225.23713217579432
 20
133.34554462144856
 11
224.82291861342122
 21
133.75975818382167
  0
LINE
  8
_0-3_A0
  6
PHANTOM
 62
    3
 10
224.82291861342133
 20
164.34554462144865
 11
225.23713217579432
 21
164.75975818382175
  0
ARC
  8
_0-3_A0
  6
PHANTOM
 62
    3
 10
255.11581183223472
 20
164.05265140263514
 40
1
 50
44.999999999999545
 51
90
  0
ARC
  8
_0-3_A0
  6
PHANTOM
 62
    3
 10
255.53002539460783
 20
163.63843784026195
 40
1
 50
0
 51
44.999999999999083
  0
ARC
  8
_0-3_A0
  6
PHANTOM
 62
    3
 10
255.53002539460783
 20
134.46686496500825
 40
1
 50
315.00000000000011
 51
0
  0
ARC
  8
_0-3_A0
  6
PHANTOM
 62
    3
 10
255.11581183223484
 20
134.05265140263514
 40
1
 50
270
 51
315
  0
ARC
  8
_0-3_A0
  6
PHANTOM
 62
    3
 10
225.94423895698093
 20
134.05265140263514
 40
1
 50
224.9999999999998
 51
270
  0
ARC
  8
_0-3_A0
  6
PHANTOM
 62
    3
 10
225.53002539460794
 20
134.46686496500825
 40
1
 50
180
 51
225
  0
ARC
  8
_0-3_A0
  6
PHANTOM
 62
    3
 10
225.53002539460794
 20
163.63843784026215
 40
1
 50
134.9999999999996
 51
180
  0
ARC
  8
_0-3_A0
  6
PHANTOM
 62
    3
 10
225.94423895698093
 20
164.05265140263514
 40
1
 50
90
 51
134.99999999999909
  0
INSERT
  2
-005-_D6
  8
_0-3_A0
 10
-5.6526534155057674
 20
3.0903027906900604
 41
1
 42
1
 50
0
  0
INSERT
  2
-006-_D7
  8
_0-3_A0
 10
-5.6526534155057674
 20
3.0903027906900604
 41
1
 42
1
 50
0
  0
INSERT
  2
-007-_D8
  8
_0-3_A0
 10
-5.6526534155057674
 20
3.0903027906900604
 41
1
 42
1
 50
0
  0
INSERT
  2
-008-_D9
  8
_0-3_A0
 10
-5.6526534155057674
 20
3.0903027906900604
 41
1
 42
1
 50
0
  0
INSERT
  2
-009-_D10
  8
_0-3_A0
 10
-5.6526534155057674
 20
3.0903027906900604
 41
1
 42
1
 50
0
  0
INSERT
  2
-010-_D11
  8
_0-3_A0
 10
-5.6526534155057674
 20
3.0903027906900604
 41
1
 42
1
 50
0
  0
LINE
  8
_0-3_A0
  6
CONTINUOUS
 62
    3
 10
125.01889472257253
 20
119.08847988684216
 11
146.11889472257394
 21
112.05265140527676
  0
LINE
  8
_0-3_A0
  6
CONTINUOUS
 62
    3
 10
125.11375968640693
 20
119.05684701411955
 11
142.75194955733167
 21
171.95265128956677
  0
LINE
  8
_0-3_A0
  6
PHANTOM
 62
    3
 10
149.11889472569924
 20
149.05265140501876
 11
149.11889472323412
 21
134.46686496874374
  0
LINE
  8
_0-3_A0
  6
PHANTOM
 62
    3
 10
150.53310828536814
 20
133.05265140613175
 11
165.11889472434717
 21
133.05265140366665
  0
LINE
  8
_0-3_A0
  6
PHANTOM
 62
    3
 10
149.41178794192796
 20
133.75975818750777
 11
149.82600150423104
 21
133.34554462506466
  0
ARC
  8
_0-3_A0
  6
PHANTOM
 62
    3
 10
150.53310828553725
 20
134.05265140613175
 40
1
 50
224.99999999031649
 51
269.9999999903166
  0
ARC
  8
_0-3_A0
  6
PHANTOM
 62
    3
 10
150.11889472323406
 20
134.46686496857486
 40
1
 50
221.62202041646429
 51
224.99999999031649
  0
ARC
  8
_0-3_A0
  6
PHANTOM
 62
    3
 10
150.11889472323406
 20
134.46686496857486
 40
1
 50
189.45155185306481
 51
221.62202041646429
  0
ARC
  8
_0-3_A0
  6
PHANTOM
 62
    3
 10
150.11889472323406
 20
134.46686496857486
 40
1
 50
179.9999999903166
 51
189.45155185306481
  0
LINE
  8
_0-3_A0
  6
PHANTOM
 62
    3
 10
181.11889472569924
 20
149.05265140231455
 11
181.11889472816432
 21
163.63843783858945
  0
LINE
  8
_0-3_A0
  6
PHANTOM
 62
    3
 10
179.70468116603024
 20
165.05265140120167
 11
165.11889472705126
 21
165.05265140366665
  0
LINE
  8
_0-3_A0
  6
PHANTOM
 62
    3
 10
180.82600150947024
 20
164.34554461982534
 11
180.41178794716716
 21
164.75975818226845
  0
ARC
  8
_0-3_A0
  6
PHANTOM
 62
    3
 10
179.70468116586124
 20
164.05265140120155
 40
1
 50
44.99999999031646
 51
89.999999990316567
  0
ARC
  8
_0-3_A0
  6
PHANTOM
 62
    3
 10
180.11889472816443
 20
163.63843783875844
 40
1
 50
41.62202041646428
 51
44.99999999031646
  0
ARC
  8
_0-3_A0
  6
PHANTOM
 62
    3
 10
180.11889472816443
 20
163.63843783875844
 40
1
 50
9.4515518530647391
 51
41.622020416464273
  0
ARC
  8
_0-3_A0
  6
PHANTOM
 62
    3
 10
180.11889472816443
 20
163.63843783875844
 40
1
 50
359.9999999903166
 51
9.4515518530648154
  0
LINE
  8
_0-3_A0
  6
PHANTOM
 62
    3
 10
149.11889472569924
 20
149.05265140501876
 11
149.11889472569924
 21
163.63843784129366
  0
LINE
  8
_0-3_A0
  6
PHANTOM
 62
    3
 10
150.53310828807224
 20
165.05265140366677
 11
165.11889472705132
 21
165.05265140366677
  0
LINE
  8
_0-3_A0
  6
PHANTOM
 62
    3
 10
149.41178794451252
 20
164.34554462248004
 11
149.82600150688563
 21
164.75975818485315
  0
ARC
  8
_0-3_A0
  6
PHANTOM
 62
    3
 10
150.53310828807235
 20
164.05265140366665
 40
1
 50
90
 51
135.00000000000011
  0
ARC
  8
_0-3_A0
  6
PHANTOM
 62
    3
 10
150.11889472569913
 20
163.63843784129355
 40
1
 50
135.00000000000011
 51
138.37797957385234
  0
ARC
  8
_0-3_A0
  6
PHANTOM
 62
    3
 10
150.11889472569913
 20
163.63843784129355
 40
1
 50
138.37797957385228
 51
170.54844813725179
  0
ARC
  8
_0-3_A0
  6
PHANTOM
 62
    3
 10
150.11889472569913
 20
163.63843784129355
 40
1
 50
170.54844813725179
 51
180
  0
LINE
  8
_0-3_A0
  6
CONTINUOUS
 62
    3
 10
146.11889472257246
 20
112.05265140527215
 11
146.11889470814077
 21
172.05265140527225
  0
INSERT
  2
-011-_D12
  8
_0-3_A0
 10
-5.6526534155057674
 20
3.0903027906900604
 41
1
 42
1
 50
0
  0
CIRCLE
  8
_0-3_A0
  6
CONTINUOUS
 62
    3
 10
265.53002539460783
 20
132.05265140263554
 40
0.5
  0
CIRCLE
  8
_0-3_A0
  6
CONTINUOUS
 62
    3
 10
215.53002539460783
 20
132.05265140263554
 40
0.5
  0
LINE
  8
_0-3_A0
  6
CENTER
 62
    3
 10
75.397518432792338
 20
98.619510246359112
 11
75.397518433161678
 21
104.05265140958596
  0
INSERT
  2
-012-_D13
  8
_0-3_A0
 10
-5.6526534155057674
 20
3.0903027906900604
 41
1
 42
1
 50
0
  0
INSERT
  2
-013-_D14
  8
_0-3_A0
 10
-5.6526534155057674
 20
3.0903027906900604
 41
1
 42
1
 50
0
  0
INSERT
  2
-014-_D15
  8
_0-3_A0
 10
-5.6526534155057674
 20
3.0903027906900604
 41
1
 42
1
 50
0
  0
INSERT
  2
-015-_D16
  8
_0-3_A0
 10
-5.6526534155057674
 20
3.0903027906900604
 41
1
 42
1
 50
0
  0
INSERT
  2
-016-_D17
  8
_0-3_A0
 10
-5.6526534155057674
 20
3.0903027906900604
 41
1
 42
1
 50
0
  0
INSERT
  2
-017-_D18
  8
_0-3_A0
 10
-5.6526534155057674
 20
3.0903027906900604
 41
1
 42
1
 50
0
  0
LINE
  8
_0-3_A0
  6
CENTER
 62
    3
 10
75.397518433494212
 20
108.94438924174636
 11
75.397518438292593
 21
179.53108476543854
  0
LINE
  8
_0-3_A0
  6
CENTER
 62
    3
 10
75.397518438645761
 20
184.72624215565366
 11
75.397518443240443
 21
252.31570209507864
  0
LINE
  8
_0-3_A0
  6
CENTER
 62
    3
 10
165.11889472831882
 20
180.05265140283586
 11
165.11889472416413
 21
130.88632838323266
  0
LINE
  8
_0-3_A0
  6
CENTER
 62
    3
 10
165.11889472887241
 20
186.60465579560556
 11
165.11889472870586
 21
184.63237550557485
  0
LINE
  8
_0-3_A0
  6
CENTER
 62
    3
 10
240.53002539460783
 20
180.05265140263554
 11
240.53002539460783
 21
105.70247204814606
  0
LINE
  8
_0-3_A0
  6
CENTER
 62
    3
 10
142.00954657141733
 20
149.05265140623055
 11
185.91285821260976
 21
149.05265140252055
  0
LINE
  8
_0-3_A0
  6
CONTINUOUS
 62
    3
 10
228.92784248783124
 20
133.05265140263514
 11
202.55742929933035
 21
88.574852024852646
  0
LINE
  8
_0-3_A0
  6
CONTINUOUS
 62
    3
 10
227.91397636254333
 20
130.16611792654245
 11
228.92784248783124
 21
133.05265140263514
  0
LINE
  8
_0-3_A0
  6
CONTINUOUS
 62
    3
 10
228.92784248783124
 20
133.05265140263514
 11
226.88176084661353
 21
130.77810750416188
  0
LINE
  8
_0-3_A0
  6
CONTINUOUS
 62
    3
 10
105.34751843952724
 20
208.68108476900366
 11
105.34751844273424
 21
246.63108476647687
  0
LINE
  8
_0-3_A0
  6
CONTINUOUS
 62
    3
 10
103.84751843954504
 20
208.89108476660416
 11
103.84751844260745
 21
245.13108476660366
  0
LINE
  8
_0-3_A0
  6
CONTINUOUS
 62
    3
 10
53.897518444605054
 20
242.13108477153005
 11
51.897518444605054
 21
242.13108477153005
  0
LINE
  8
_0-3_A0
  6
CENTER
 62
    3
 10
52.897518444605054
 20
242.63108477153005
 11
52.897518444605054
 21
238.88341237886845
  0
LINE
  8
_0-3_A0
  6
CONTINUOUS
 62
    3
 10
51.897518444605054
 20
242.13108477153005
 11
51.897518444605054
 21
239.13108477153005
  0
LINE
  8
_0-3_A0
  6
CENTER
 62
    3
 10
54.133987970001498
 20
240.63108477153016
 11
51.239224816462126
 21
240.63108477153016
  0
LINE
  8
_0-3_A0
  6
CONTINUOUS
 62
    3
 10
53.897518444605054
 20
239.13108477153005
 11
53.897518444605054
 21
242.13108477153005
  0
LINE
  8
_0-3_A0
  6
CONTINUOUS
 62
    3
 10
51.897518444605054
 20
239.13108477153005
 11
53.897518444605054
 21
239.13108477153005
  0
LINE
  8
_0-3_A0
  6
CONTINUOUS
 62
    3
 10
96.897518444256448
 20
242.13108476860696
 11
98.897518444256448
 21
242.13108476833505
  0
LINE
  8
_0-3_A0
  6
CONTINUOUS
 62
    3
 10
98.897518444256448
 20
242.13108476833505
 11
98.897518443848539
 21
239.13108476833505
  0
LINE
  8
_0-3_A0
  6
CENTER
 62
    3
 10
96.39751844405255
 20
240.63108476867495
 11
99.55581207219545
 21
240.63108476824555
  0
LINE
  8
_0-3_A0
  6
CONTINUOUS
 62
    3
 10
96.897518443848539
 20
239.13108476860696
 11
96.897518444256448
 21
242.13108476860696
  0
LINE
  8
_0-3_A0
  6
CENTER
 62
    3
 10
97.897518444324447
 20
242.63108476847105
 11
97.897518443814846
 21
238.88341237580945
  0
LINE
  8
_0-3_A0
  6
CONTINUOUS
 62
    3
 10
98.897518443848539
 20
239.13108476833505
 11
96.897518443848539
 21
239.13108476860696
  0
INSERT
  2
-020-_D19
  8
_0-3_A0
 10
-5.6526534155057674
 20
3.0903027906900604
 41
1
 42
1
 50
0
  0
INSERT
  2
-021-_D20
  8
_0-3_A0
 10
-5.6526534155057674
 20
3.0903027906900604
 41
1
 42
1
 50
0
  0
INSERT
  2
-022-_D21
  8
_0-3_A0
 10
-5.6526534155057674
 20
3.0903027906900604
 41
1
 42
1
 50
0
  0
INSERT
  2
-023-_D22
  8
_0-3_A0
 10
-5.6526534155057674
 20
3.0903027906900604
 41
1
 42
1
 50
0
  0
INSERT
  2
-024-_D23
  8
_0-3_A0
 10
-5.6526534155057674
 20
3.0903027906900604
 41
1
 42
1
 50
0
  0
LINE
  8
_0-3_A0
  6
CENTER
 62
    3
 10
190.80821369354987
 20
149.05265140210684
 11
263.61094094513924
 21
149.05265139595476
  0
LINE
  8
_0-3_A0
  6
CONTINUOUS
 62
    3
 10
96.537518442570245
 20
226.99108477109555
 11
96.487518442570248
 21
227.04108477109556
  0
LINE
  8
_0-3_A0
  6
CONTINUOUS
 62
    3
 10
96.487518442570248
 20
227.14108477109544
 11
96.537518442570245
 21
227.19108477109554
  0
LINE
  8
_0-3_A0
  6
CONTINUOUS
 62
    3
 10
96.792518442570241
 20
227.14108477109556
 11
96.792518442570241
 21
227.04108477109556
  0
LINE
  8
_0-3_A0
  6
CONTINUOUS
 62
    3
 10
96.63751844257024
 20
226.88608477109556
 11
96.537518442570245
 21
226.88608477109556
  0
LINE
  8
_0-3_A0
  6
CONTINUOUS
 62
    3
 10
96.382518442570244
 20
227.04108477109556
 11
96.382518442570244
 21
227.14108477109556
  0
LINE
  8
_0-3_A0
  6
CONTINUOUS
 62
    3
 10
96.537518442570245
 20
227.29608477109556
 11
96.63751844257024
 21
227.29608477109556
  0
LINE
  8
_0-3_A0
  6
CONTINUOUS
 62
    3
 10
96.792518442570241
 20
227.14108477109556
 11
96.687518442570251
 21
227.14108477109556
  0
LINE
  8
_0-3_A0
  6
CONTINUOUS
 62
    3
 10
96.792518442570241
 20
227.04108477109556
 11
96.687518442570251
 21
227.04108477109556
  0
LINE
  8
_0-3_A0
  6
CONTINUOUS
 62
    3
 10
96.63751844257024
 20
226.99108477109555
 11
96.63751844257024
 21
226.88608477109556
  0
LINE
  8
_0-3_A0
  6
CONTINUOUS
 62
    3
 10
96.537518442570245
 20
226.88608477109556
 11
96.537518442570245
 21
226.99108477109555
  0
LINE
  8
_0-3_A0
  6
CONTINUOUS
 62
    3
 10
96.382518442570244
 20
227.04108477109556
 11
96.487518442570248
 21
227.04108477109556
  0
LINE
  8
_0-3_A0
  6
CONTINUOUS
 62
    3
 10
96.487518442570248
 20
227.14108477109556
 11
96.382518442570244
 21
227.14108477109556
  0
LINE
  8
_0-3_A0
  6
CONTINUOUS
 62
    3
 10
96.537518442570245
 20
227.19108477109554
 11
96.537518442570245
 21
227.29608477109556
  0
LINE
  8
_0-3_A0
  6
CONTINUOUS
 62
    3
 10
96.63751844257024
 20
227.29608477109556
 11
96.63751844257024
 21
227.19108477109554
  0
LINE
  8
_0-3_A0
  6
CONTINUOUS
 62
    3
 10
96.687518442570251
 20
227.04108477109556
 11
96.63751844257024
 21
226.99108477109547
  0
LINE
  8
_0-3_A0
  6
CONTINUOUS
 62
    3
 10
96.63751844257024
 20
227.19108477109554
 11
96.687518442570251
 21
227.14108477109556
  0
CIRCLE
  8
_0-3_A0
  6
CONTINUOUS
 62
    3
 10
96.587518442570342
 20
227.09108477109566
 40
0.45
  0
POINT
  8
_0-3_A0
 62
    7
 10
96.587518442570342
 20
227.09108477109566
  0
LINE
  8
_0-3_A0
  6
CENTER
 62
    3
 10
94.946473479866043
 20
227.09108477109566
 11
98.228563405274641
 21
227.09108477109566
  0
LINE
  8
_0-3_A0
  6
CENTER
 62
    3
 10
96.587518442570342
 20
225.45003980839135
 11
96.587518442570342
 21
228.73212973379995
  0
CIRCLE
  8
_0-3_A0
  6
PHANTOM
 62
    3
 10
51.291423312635856
 20
117.65939642175835
 40
10.644284385536119
  0
CIRCLE
  8
_0-3_A0
  6
PHANTOM
 62
    3
 10
36.71703481770703
 20
89.244689841424047
 40
10.644284385536119
  0
LINE
  8
_0-3_A0
  6
CONTINUOUS
 62
    6
 10
45.764973834611907
 20
83.637944829695896
 11
30.923129938605313
 21
83.637944832204254
  0
LINE
  8
_0-3_A0
  6
CONTINUOUS
 62
    6
 10
46.11029274385379
 20
84.237944829637541
 11
32.423129943719686
 21
84.237944831950727
  0
LINE
  8
_0-3_A0
  6
CONTINUOUS
 62
    6
 10
30.873129938613743
 20
83.687944832212707
 11
30.873129941056447
 21
98.141294017896541
  0
LINE
  8
_0-3_A0
  6
CONTINUOUS
 62
    3
 10
31.023129944013078
 20
83.637944836022171
 11
31.023129945246807
 21
98.238033901535487
  0
LINE
  8
_0-3_A0
  6
CONTINUOUS
 62
    3
 10
34.023129944411323
 20
88.350727074680122
 11
34.023129945357055
 21
99.54244040253674
  0
LINE
  8
_0-3_A0
  6
CONTINUOUS
 62
    3
 10
47.287444922636154
 20
87.992803147757172
 11
34.023129944407742
 21
87.992803149998934
  0
LINE
  8
_0-3_A0
  6
CONTINUOUS
 62
    3
 10
47.328572001899658
 20
88.410382542723567
 11
34.023129944421384
 21
88.410382544972293
  0
ARC
  8
_0-3_A0
  6
CONTINUOUS
 62
    6
 10
30.923129938613783
 20
83.687944832204266
 40
0.05
 50
179.99999999032016
 51
269.99999999031871
  0
LINE
  8
_0-3_A0
  6
CONTINUOUS
 62
    6
 10
30.87312993861542
 20
83.697944832212726
 11
32.513129938615406
 21
83.697944831935558
  0
LINE
  8
_0-3_A0
  6
CONTINUOUS
 62
    6
 10
32.573129938706699
 20
84.237944831925403
 11
32.513129938706697
 21
84.23794483193555
  0
LINE
  8
_0-3_A0
  6
DASHED
 62
    6
 10
32.523129939272848
 20
87.587944831933825
 11
32.523129939239026
 21
87.387944831933822
  0
LINE
  8
_0-3_A0
  6
CONTINUOUS
 62
    6
 10
33.123129939269489
 20
87.567944825999475
 11
33.117053034619402
 21
87.555789453652437
  0
LINE
  8
_0-3_A0
  6
CONTINUOUS
 62
    6
 10
33.117053034619402
 20
87.555789453652437
 11
33.099006976051782
 21
87.544003416322524
  0
LINE
  8
_0-3_A0
  6
CONTINUOUS
 62
    6
 10
33.099006976051782
 20
87.544003416322524
 11
33.069540083924522
 21
87.53294482679
  0
LINE
  8
_0-3_A0
  6
CONTINUOUS
 62
    6
 10
33.069540083924522
 20
87.53294482679
 11
33.029547694843898
 21
87.522949694701893
  0
LINE
  8
_0-3_A0
  6
CONTINUOUS
 62
    6
 10
33.029547694843898
 20
87.522949694701893
 11
32.980244957314994
 21
87.514321717088904
  0
LINE
  8
_0-3_A0
  6
CONTINUOUS
 62
    6
 10
32.980244957314994
 20
87.514321717088904
 11
32.923129910069292
 21
87.507323050684846
  0
LINE
  8
_0-3_A0
  6
CONTINUOUS
 62
    6
 10
32.923129910069292
 20
87.507323050684846
 11
32.859937964915673
 21
87.502166346426918
  0
LINE
  8
_0-3_A0
  6
CONTINUOUS
 62
    6
 10
32.859937964915673
 20
87.502166346426918
 11
32.79258917713102
 21
87.49900828816456
  0
LINE
  8
_0-3_A0
  6
CONTINUOUS
 62
    6
 10
32.79258917713102
 20
87.49900828816456
 11
32.723129905552013
 21
87.497944831900042
  0
LINE
  8
_0-3_A0
  6
CONTINUOUS
 62
    6
 10
32.723129905552013
 20
87.497944831900042
 11
32.653670634997467
 21
87.499008290213808
  0
LINE
  8
_0-3_A0
  6
CONTINUOUS
 62
    6
 10
32.653670634997467
 20
87.499008290213808
 11
32.58632185025516
 21
87.502166350463127
  0
LINE
  8
_0-3_A0
  6
CONTINUOUS
 62
    6
 10
32.58632185025516
 20
87.502166350463127
 11
32.523129910069286
 21
87.507323056585406
  0
LINE
  8
_0-3_A0
  6
CONTINUOUS
 62
    6
 10
32.523129910069286
 20
87.507323056585406
 11
32.466014869565782
 21
87.514321724674516
  0
LINE
  8
_0-3_A0
  6
CONTINUOUS
 62
    6
 10
32.466014869565782
 20
87.514321724674516
 11
32.416712140348721
 21
87.522949703742071
  0
LINE
  8
_0-3_A0
  6
CONTINUOUS
 62
    6
 10
32.416712140348721
 20
87.522949703742071
 11
32.376719760896975
 21
87.532944837010063
  0
LINE
  8
_0-3_A0
  6
CONTINUOUS
 62
    6
 10
32.376719760896975
 20
87.532944837010063
 11
32.347252879423081
 21
87.544003427411951
  0
LINE
  8
_0-3_A0
  6
CONTINUOUS
 62
    6
 10
32.347252879423081
 20
87.544003427411951
 11
32.329206832209621
 21
87.555789465274273
  0
LINE
  8
_0-3_A0
  6
CONTINUOUS
 62
    6
 10
32.329206832209621
 20
87.555789465274273
 11
32.323129939269477
 21
87.567944837800595
  0
LINE
  8
_0-3_A0
  6
CONTINUOUS
 62
    6
 10
32.323129939269477
 20
87.567944837800595
 11
32.329206843919564
 21
87.580100210147634
  0
LINE
  8
_0-3_A0
  6
CONTINUOUS
 62
    6
 10
32.329206843919564
 20
87.580100210147634
 11
32.347252902487184
 21
87.591886247477546
  0
LINE
  8
_0-3_A0
  6
CONTINUOUS
 62
    6
 10
32.347252902487184
 20
87.591886247477546
 11
32.376719794614444
 21
87.60294483701007
  0
LINE
  8
_0-3_A0
  6
CONTINUOUS
 62
    6
 10
32.376719794614444
 20
87.60294483701007
 11
32.416712183695068
 21
87.612939969098178
  0
LINE
  8
_0-3_A0
  6
CONTINUOUS
 62
    6
 10
32.416712183695068
 20
87.612939969098178
 11
32.466014921223973
 21
87.621567946711166
  0
LINE
  8
_0-3_A0
  6
CONTINUOUS
 62
    6
 10
32.466014921223973
 20
87.621567946711166
 11
32.523129968469675
 21
87.628566613115225
  0
LINE
  8
_0-3_A0
  6
CONTINUOUS
 62
    6
 10
32.523129968469675
 20
87.628566613115225
 11
32.586321913623294
 21
87.633723317373153
  0
LINE
  8
_0-3_A0
  6
CONTINUOUS
 62
    6
 10
32.586321913623294
 20
87.633723317373153
 11
32.653670701407946
 21
87.63688137563551
  0
LINE
  8
_0-3_A0
  6
CONTINUOUS
 62
    6
 10
32.653670701407946
 20
87.63688137563551
 11
32.723129939269483
 21
87.637944831900028
  0
LINE
  8
_0-3_A0
  6
CONTINUOUS
 62
    6
 10
32.723129939250839
 20
87.387944831900028
 11
32.792589210317601
 21
87.389008289189163
  0
LINE
  8
_0-3_A0
  6
CONTINUOUS
 62
    6
 10
32.792589210317601
 20
87.389008289189163
 11
32.859937996581095
 21
87.392166348445002
  0
LINE
  8
_0-3_A0
  6
CONTINUOUS
 62
    6
 10
32.859937996581095
 20
87.392166348445002
 11
32.923129939250827
 21
87.397323053635105
  0
LINE
  8
_0-3_A0
  6
CONTINUOUS
 62
    6
 10
32.923129939250827
 20
87.397323053635105
 11
32.980244983125459
 21
87.404321720881696
  0
LINE
  8
_0-3_A0
  6
CONTINUOUS
 62
    6
 10
32.980244983125459
 20
87.404321720881696
 11
33.029547716498427
 21
87.412949699221968
  0
LINE
  8
_0-3_A0
  6
CONTINUOUS
 62
    6
 10
33.029547716498427
 20
87.412949699221968
 11
33.069540100764612
 21
87.422944831900025
  0
LINE
  8
_0-3_A0
  6
CONTINUOUS
 62
    6
 10
33.069540100764612
 20
87.422944831900025
 11
33.099006987565189
 21
87.434003421867231
  0
LINE
  8
_0-3_A0
  6
CONTINUOUS
 62
    6
 10
33.099006987565189
 20
87.434003421867231
 11
33.117053040455715
 21
87.445789459463341
  0
LINE
  8
_0-3_A0
  6
CONTINUOUS
 62
    6
 10
33.117053040455715
 20
87.445789459463341
 11
33.123129939250844
 21
87.457944825999462
  0
LINE
  8
_0-3_A0
  6
CONTINUOUS
 62
    6
 10
32.723129939233956
 20
87.287944831900034
 11
32.792589210300718
 21
87.289008289189169
  0
LINE
  8
_0-3_A0
  6
CONTINUOUS
 62
    6
 10
32.792589210300718
 20
87.289008289189169
 11
32.859937996564212
 21
87.292166348445007
  0
LINE
  8
_0-3_A0
  6
CONTINUOUS
 62
    6
 10
32.859937996564212
 20
87.292166348445007
 11
32.923129939233945
 21
87.297323053635111
  0
LINE
  8
_0-3_A0
  6
CONTINUOUS
 62
    6
 10
32.923129939233945
 20
87.297323053635111
 11
32.980244983108576
 21
87.304321720881702
  0
LINE
  8
_0-3_A0
  6
CONTINUOUS
 62
    6
 10
32.980244983108576
 20
87.304321720881702
 11
33.029547716481545
 21
87.312949699221974
  0
LINE
  8
_0-3_A0
  6
CONTINUOUS
 62
    6
 10
33.029547716481545
 20
87.312949699221974
 11
33.06954010074773
 21
87.322944831900031
  0
LINE
  8
_0-3_A0
  6
CONTINUOUS
 62
    6
 10
33.06954010074773
 20
87.322944831900031
 11
33.099006987548307
 21
87.334003421867237
  0
LINE
  8
_0-3_A0
  6
CONTINUOUS
 62
    6
 10
33.099006987548307
 20
87.334003421867237
 11
33.117053040438833
 21
87.345789459463347
  0
LINE
  8
_0-3_A0
  6
CONTINUOUS
 62
    6
 10
33.117053040438833
 20
87.345789459463347
 11
33.123129939233962
 21
87.357944831900027
  0
LINE
  8
_0-3_A0
  6
CONTINUOUS
 62
    6
 10
32.72312995660792
 20
87.637944831900028
 11
32.623129939281284
 21
87.637944831916925
  0
LINE
  8
_0-3_A0
  6
DASHED
 62
    6
 10
32.523129939281261
 20
87.637944831933822
 11
32.523129939272848
 21
87.587944831933825
  0
LINE
  8
_0-3_A0
  6
CONTINUOUS
 62
    6
 10
33.123129939233933
 20
87.357944831832284
 11
33.12312993926946
 21
87.567944831832335
  0
LINE
  8
_0-3_A0
  6
CONTINUOUS
 62
    6
 10
32.623129939272871
 20
87.587944831916928
 11
32.57312993927286
 21
87.587944831925383
  0
LINE
  8
_0-3_A0
  6
DASHED
 62
    6
 10
32.57312993927286
 20
87.587944831925383
 11
32.523129939272848
 21
87.587944831933825
  0
LINE
  8
_0-3_A0
  6
CONTINUOUS
 62
    6
 10
32.72312995533997
 20
87.387944831900028
 11
32.573129939239038
 21
87.387944831925381
  0
LINE
  8
_0-3_A0
  6
DASHED
 62
    6
 10
32.573129939239095
 20
87.387944831925381
 11
32.523129939239026
 21
87.387944831933822
  0
LINE
  8
_0-3_A0
  6
CONTINUOUS
 62
    6
 10
32.723129955323088
 20
87.287944831900034
 11
32.573129939222212
 21
87.287944831925386
  0
LINE
  8
_0-3_A0
  6
DASHED
 62
    6
 10
32.573129939222155
 20
87.287944831925386
 11
32.523129939222144
 21
87.287944831933828
  0
ARC
  8
_0-3_A0
  6
CONTINUOUS
 62
    3
 10
38.37312993860192
 20
83.617944830945162
 40
0.1
 50
179.99999999032328
 51
269.99999999032132
  0
LINE
  8
_0-3_A0
  6
CONTINUOUS
 62
    3
 10
38.273129938605279
 20
83.637944830962055
 11
38.273129938601925
 21
83.617944830962073
  0
LINE
  8
_0-3_A0
  6
CONTINUOUS
 62
    3
 10
38.873129938585009
 20
83.51794483086067
 11
38.373129938585009
 21
83.517944830945197
  0
LINE
  8
_0-3_A0
  6
CONTINUOUS
 62
    3
 10
38.873129938585009
 20
83.51794483086067
 11
39.373129938585009
 21
83.517944830776173
  0
ARC
  8
_0-3_A0
  6
CONTINUOUS
 62
    3
 10
39.37312993860192
 20
83.617944830776167
 40
0.1
 50
269.99999999031848
 51
359.9999999903166
  0
LINE
  8
_0-3_A0
  6
CONTINUOUS
 62
    3
 10
39.473129938605268
 20
83.637944830759266
 11
39.473129938601914
 21
83.617944830759284
  0
LINE
  8
_0-6_A50
  6
CONTINUOUS
 62
    3
 10
32.493129938691708
 20
83.659542790513427
 11
31.053129938691711
 21
83.659542790634958
  0
ARC
  8
_0-6_A50
  6
CONTINUOUS
 62
    3
 10
31.053129938694269
 20
83.689542790634988
 40
0.0299999999999998
 50
179.99999999516489
 51
269.99999999516489
  0
ARC
  8
_0-6_A50
  6
CONTINUOUS
 62
    3
 10
32.493129938694266
 20
83.689542790513456
 40
0.0299999999999998
 50
269.99999999516489
 51
359.99999999516461
  0
LINE
  8
_0-3_A0
  6
CONTINUOUS
 62
    3
 10
32.623129939302515
 20
87.763365806700335
 11
32.623129939272871
 21
87.587944831916928
  0
LINE
  8
_0-5_A30
  6
CONTINUOUS
 62
    3
 10
32.473129943668936
 20
83.637944836933826
 11
31.073129943668902
 21
83.637944837052401
  0
LINE
  8
_0-5_A30
  6
CONTINUOUS
 62
    3
 10
32.523129943711239
 20
84.137944836929563
 11
32.523129943673154
 21
83.687944836929574
  0
LINE
  8
_0-5_A30
  6
CONTINUOUS
 62
    3
 10
32.523129943711239
 20
84.137944836929563
 11
32.473129943711285
 21
84.137944836933826
  0
LINE
  8
_0-5_A30
  6
CONTINUOUS
 62
    3
 10
32.473129943711256
 20
84.137944836933826
 11
32.473129943673143
 21
83.687944836933809
  0
LINE
  8
_0-5_A30
  6
CONTINUOUS
 62
    3
 10
32.423129943719743
 20
84.237944836938055
 11
32.423129943673131
 21
83.687944836938044
  0
LINE
  8
_0-5_A30
  6
CONTINUOUS
 62
    3
 10
32.523129943728179
 20
84.337944836929551
 11
32.423129943719686
 21
84.237944836938027
  0
LINE
  8
_0-5_A30
  6
CONTINUOUS
 62
    3
 10
32.473129943673143
 20
83.687944836933809
 11
32.423129943673131
 21
83.687944836938044
  0
LINE
  8
_0-5_A30
  6
CONTINUOUS
 62
    3
 10
32.423129943673131
 20
83.687944836938044
 11
31.023129943673154
 21
83.687944837056619
  0
ARC
  8
_0-5_A30
  6
CONTINUOUS
 62
    3
 10
32.473129943673143
 20
83.687944836933809
 40
0.05
 50
269.99999999517132
 51
359.99999999574208
  0
ARC
  8
_0-5_A30
  6
CONTINUOUS
 62
    3
 10
31.073129943673109
 20
83.687944837052356
 40
0.05
 50
179.99999999517442
 51
269.99999999517137
  0
LINE
  8
_0-5_A30
  6
CONTINUOUS
 62
    3
 10
31.02312994419276
 20
89.822332237537452
 11
31.023129944260489
 21
90.622332237604908
  0
LINE
  8
_0-3_A0
  6
CONTINUOUS
 62
    3
 10
32.523129944350841
 20
87.634861828457559
 11
32.523129944072252
 21
84.337944837273681
  0
LINE
  8
_0-3_A0
  6
CONTINUOUS
 62
    3
 10
34.023129944350841
 20
88.350731416871283
 11
33.502185411350069
 21
88.339855743020137
  0
LINE
  8
_0-3_A0
  6
CONTINUOUS
 62
    3
 10
33.502185411350069
 20
88.339855743020137
 11
32.997069514373833
 21
88.307559173313293
  0
LINE
  8
_0-3_A0
  6
CONTINUOUS
 62
    3
 10
32.997069514373833
 20
88.307559173313293
 11
32.523129944350841
 21
88.254823022678451
  0
LINE
  8
_0-3_A0
  6
CONTINUOUS
 62
    3
 10
32.523129944350841
 20
88.254823022678451
 11
32.094767115291233
 21
88.183249652366868
  0
LINE
  8
_0-3_A0
  6
CONTINUOUS
 62
    3
 10
32.094767115291233
 20
88.183249652366868
 11
31.724996614993926
 21
88.095013783017591
  0
LINE
  8
_0-3_A0
  6
CONTINUOUS
 62
    3
 10
31.724996614993926
 20
88.095013783017591
 11
31.425053732997525
 21
87.992796416871286
  0
LINE
  8
_0-3_A0
  6
CONTINUOUS
 62
    3
 10
31.425053732997525
 20
87.992796416871286
 11
31.204052081993125
 21
87.879703376873834
  0
LINE
  8
_0-3_A0
  6
CONTINUOUS
 62
    3
 10
31.204052081993125
 20
87.879703376873834
 11
31.068706685314225
 21
87.759170937817714
  0
LINE
  8
_0-3_A0
  6
CONTINUOUS
 62
    3
 10
31.068706685314225
 20
87.759170937817714
 11
31.023129944350841
 21
87.634861416871288
  0
LINE
  8
_0-3_A0
  6
CONTINUOUS
 62
    3
 10
34.023129944350841
 20
87.992801416871287
 11
33.762657677850455
 21
87.987363503984482
  0
LINE
  8
_0-3_A0
  6
CONTINUOUS
 62
    3
 10
33.762657677850455
 20
87.987363503984482
 11
33.510099729362337
 21
87.971214993555392
  0
LINE
  8
_0-3_A0
  6
CONTINUOUS
 62
    3
 10
33.510099729362337
 20
87.971214993555392
 11
33.273129944350841
 21
87.944846549901896
  0
LINE
  8
_0-3_A0
  6
CONTINUOUS
 62
    3
 10
33.273129944350841
 20
87.944846549901896
 11
33.058948529821037
 21
87.909059364841297
  0
LINE
  8
_0-3_A0
  6
CONTINUOUS
 62
    3
 10
33.058948529821037
 20
87.909059364841297
 11
32.874063279672384
 21
87.864940813882483
  0
LINE
  8
_0-3_A0
  6
CONTINUOUS
 62
    3
 10
32.874063279672384
 20
87.864940813882483
 11
32.724091838674183
 21
87.813831416871295
  0
LINE
  8
_0-3_A0
  6
CONTINUOUS
 62
    3
 10
32.724091838674183
 20
87.813831416871295
 11
32.613591013171969
 21
87.757284106973273
  0
LINE
  8
_0-3_A0
  6
CONTINUOUS
 62
    3
 10
32.613591013171969
 20
87.757284106973273
 11
32.545918314832533
 21
87.697017045585383
  0
LINE
  8
_0-3_A0
  6
CONTINUOUS
 62
    3
 10
32.545918314832533
 20
87.697017045585383
 11
32.523129944350841
 21
87.634861416871288
  0
POINT
  8
_0-3_A0
 62
    7
 10
35.523129944572019
 20
90.252607664170326
  0
LINE
  8
_0-3_A0
  6
CONTINUOUS
 62
    3
 10
35.723129944572008
 20
90.252607664170326
 11
39.923129944572025
 21
90.252607664170326
  0
LINE
  8
_0-3_A0
  6
CONTINUOUS
 62
    3
 10
35.723129944572008
 20
91.252607664170326
 11
39.923129944572025
 21
91.252607664170326
  0
LINE
  8
_0-3_A0
  6
CONTINUOUS
 62
    3
 10
40.123129944572042
 20
91.052607664170324
 11
40.123129944572042
 21
90.452607664170329
  0
LINE
  8
_0-3_A0
  6
CONTINUOUS
 62
    3
 10
35.523129944572019
 20
91.052607664170324
 11
35.523129944572019
 21
90.452607664170329
  0
ARC
  8
_0-3_A0
  6
CONTINUOUS
 62
    3
 10
35.723129944572008
 20
91.052607664170324
 40
0.2
 50
90
 51
180
  0
ARC
  8
_0-3_A0
  6
CONTINUOUS
 62
    3
 10
35.723129944572008
 20
90.452607664170329
 40
0.2
 50
180
 51
270
  0
ARC
  8
_0-3_A0
  6
CONTINUOUS
 62
    3
 10
39.923129944572025
 20
90.452607664170329
 40
0.2
 50
270
 51
0
  0
ARC
  8
_0-3_A0
  6
CONTINUOUS
 62
    3
 10
39.923129944572025
 20
91.052607664170324
 40
0.2
 50
0
 51
90
  0
LINE
  8
_0-4_A2
  6
CONTINUOUS
 62
    7
 10
36.797440955276158
 20
91.006388112791114
 11
36.933283552693183
 21
91.006388112791114
  0
LINE
  8
_0-4_A2
  6
CONTINUOUS
 62
    7
 10
37.225845530904848
 20
91.006388112791114
 11
37.307940440199729
 21
91.006388112791114
  0
LINE
  8
_0-4_A2
  6
CONTINUOUS
 62
    7
 10
37.899244915995097
 20
90.514529648936033
 11
38.034051991037159
 21
90.514529648936033
  0
LINE
  8
_0-4_A2
  6
CONTINUOUS
 62
    7
 10
38.034051991037159
 20
90.514529648936033
 11
38.034051991037159
 21
91.006388112791114
  0
LINE
  8
_0-4_A2
  6
CONTINUOUS
 62
    7
 10
38.034051991037159
 20
91.006388112791114
 11
37.899244915995097
 21
91.006388112791114
  0
LINE
  8
_0-4_A2
  6
CONTINUOUS
 62
    7
 10
37.899244915995097
 20
91.006388112791114
 11
37.899244915995097
 21
90.514529648936033
  0
LINE
  8
_0-4_A2
  6
CONTINUOUS
 62
    7
 10
37.374031228883154
 20
90.557781870425699
 11
37.374031228883154
 21
90.500976536060392
  0
LINE
  8
_0-4_A2
  6
CONTINUOUS
 62
    7
 10
37.745597856703625
 20
91.006388112791114
 11
37.609771566725555
 21
91.006388112791114
  0
LINE
  8
_0-4_A2
  6
CONTINUOUS
 62
    7
 10
36.698991315431896
 20
90.942671685613021
 11
36.698991315431896
 21
91.006388112791114
  0
LINE
  8
_0-4_A2
  6
CONTINUOUS
 62
    7
 10
36.698991315431896
 20
91.006388112791114
 11
36.208685332192743
 21
91.006388112791114
  0
LINE
  8
_0-4_A2
  6
CONTINUOUS
 62
    7
 10
36.208685332192743
 20
91.006388112791114
 11
36.208685332192743
 21
90.793620058859744
  0
LINE
  8
_0-4_A2
  6
CONTINUOUS
 62
    7
 10
36.208685332192743
 20
90.793620058859744
 11
36.298121850514746
 21
90.793620058859744
  0
LINE
  8
_0-4_A2
  6
CONTINUOUS
 62
    7
 10
36.298121850514746
 20
90.793620058859744
 11
36.298121850514746
 21
90.732594359180737
  0
LINE
  8
_0-4_A2
  6
CONTINUOUS
 62
    7
 10
36.298121850514746
 20
90.732594359180737
 11
36.208685332192743
 21
90.732594359180737
  0
LINE
  8
_0-4_A2
  6
CONTINUOUS
 62
    7
 10
36.208685332192743
 20
90.732594359180737
 11
36.208685332192743
 21
90.512427619998874
  0
LINE
  8
_0-4_A2
  6
CONTINUOUS
 62
    7
 10
36.208685332192743
 20
90.512427619998874
 11
36.350212702836984
 21
90.512427619998874
  0
LINE
  8
_0-4_A2
  6
CONTINUOUS
 62
    7
 10
36.350212702836984
 20
90.512427619998874
 11
36.350212702836984
 21
90.732594359180737
  0
LINE
  8
_0-4_A2
  6
CONTINUOUS
 62
    7
 10
36.350212702836984
 20
90.732594359180737
 11
36.643061691974651
 21
90.732594359180737
  0
LINE
  8
_0-4_A2
  6
CONTINUOUS
 62
    7
 10
36.643061691974651
 20
90.732594359180737
 11
36.643061691974651
 21
90.793620058859744
  0
LINE
  8
_0-4_A2
  6
CONTINUOUS
 62
    7
 10
36.643061691974651
 20
90.793620058859744
 11
36.350212702836984
 21
90.793620058859744
  0
LINE
  8
_0-4_A2
  6
CONTINUOUS
 62
    7
 10
36.350212702836984
 20
90.793620058859744
 11
36.350212702836984
 21
90.942671685613021
  0
LINE
  8
_0-4_A2
  6
CONTINUOUS
 62
    7
 10
36.350212702836984
 20
90.942671685613021
 11
36.698991315431896
 21
90.942671685613021
  0
LINE
  8
_0-4_A2
  6
CONTINUOUS
 62
    7
 10
39.873129944572895
 20
90.793620058859744
 11
39.516595514000812
 21
90.793620058859744
  0
LINE
  8
_0-4_A2
  6
CONTINUOUS
 62
    7
 10
39.516595514000812
 20
90.793620058859744
 11
39.516595514000812
 21
90.732594359180737
  0
LINE
  8
_0-4_A2
  6
CONTINUOUS
 62
    7
 10
39.516595514000812
 20
90.732594359180737
 11
39.873129944572895
 21
90.732594359180737
  0
LINE
  8
_0-4_A2
  6
CONTINUOUS
 62
    7
 10
39.873129944572895
 20
90.732594359180737
 11
39.873129944572895
 21
90.793620058859744
  0
LINE
  8
_0-4_A2
  6
CONTINUOUS
 62
    7
 10
36.129680682583909
 20
90.793620058859744
 11
35.773129944572872
 21
90.793620058859744
  0
LINE
  8
_0-4_A2
  6
CONTINUOUS
 62
    7
 10
35.773129944572872
 20
90.793620058859744
 11
35.773129944572872
 21
90.732594359180737
  0
LINE
  8
_0-4_A2
  6
CONTINUOUS
 62
    7
 10
35.773129944572872
 20
90.732594359180737
 11
36.129680682583909
 21
90.732594359180737
  0
LINE
  8
_0-4_A2
  6
CONTINUOUS
 62
    7
 10
36.129680682583909
 20
90.732594359180737
 11
36.129680682583909
 21
90.793620058859744
  0
LINE
  8
_0-4_A2
  6
CONTINUOUS
 62
    7
 10
39.437590864392007
 20
90.793620058859744
 11
39.437590864392007
 21
91.006388112791114
  0
LINE
  8
_0-4_A2
  6
CONTINUOUS
 62
    7
 10
39.437590864392007
 20
91.006388112791114
 11
39.296063493747766
 21
91.006388112791114
  0
LINE
  8
_0-4_A2
  6
CONTINUOUS
 62
    7
 10
39.296063493747766
 20
91.006388112791114
 11
39.296063493747766
 21
90.793620058859744
  0
LINE
  8
_0-4_A2
  6
CONTINUOUS
 62
    7
 10
39.296063493747766
 20
90.793620058859744
 11
39.034904750772909
 21
90.793620058859744
  0
LINE
  8
_0-4_A2
  6
CONTINUOUS
 62
    7
 10
39.034904750772909
 20
90.793620058859744
 11
39.034904750772909
 21
91.006388112791114
  0
LINE
  8
_0-4_A2
  6
CONTINUOUS
 62
    7
 10
39.034904750772909
 20
91.006388112791114
 11
38.899301872708804
 21
91.006388112791114
  0
LINE
  8
_0-4_A2
  6
CONTINUOUS
 62
    7
 10
38.899301872708804
 20
91.006388112791114
 11
38.899301872708804
 21
90.514529648936033
  0
LINE
  8
_0-4_A2
  6
CONTINUOUS
 62
    7
 10
38.899301872708804
 20
90.514529648936033
 11
39.034904750772909
 21
90.514529648936033
  0
LINE
  8
_0-4_A2
  6
CONTINUOUS
 62
    7
 10
39.034904750772909
 20
90.514529648936033
 11
39.034904750772909
 21
90.732594359180737
  0
LINE
  8
_0-4_A2
  6
CONTINUOUS
 62
    7
 10
39.034904750772909
 20
90.732594359180737
 11
39.296063493747766
 21
90.732594359180737
  0
LINE
  8
_0-4_A2
  6
CONTINUOUS
 62
    7
 10
39.296063493747766
 20
90.732594359180737
 11
39.296063493747766
 21
90.514529648936033
  0
LINE
  8
_0-4_A2
  6
CONTINUOUS
 62
    7
 10
39.296063493747766
 20
90.514529648936033
 11
39.437590864392007
 21
90.514529648936033
  0
LINE
  8
_0-4_A2
  6
CONTINUOUS
 62
    7
 10
39.437590864392007
 20
90.514529648936033
 11
39.437590864392007
 21
90.732594359180737
  0
LINE
  8
_0-4_A2
  6
CONTINUOUS
 62
    7
 10
39.437590864392007
 20
90.732594359180737
 11
39.348154346069975
 21
90.732594359180737
  0
LINE
  8
_0-4_A2
  6
CONTINUOUS
 62
    7
 10
39.348154346069975
 20
90.732594359180737
 11
39.348154346069975
 21
90.793620058859744
  0
LINE
  8
_0-4_A2
  6
CONTINUOUS
 62
    7
 10
39.348154346069975
 20
90.793620058859744
 11
39.437590864392007
 21
90.793620058859744
  0
POINT
  8
_0-3_A0
 62
    7
 10
35.523129944572019
 20
90.252607664170326
  0
TEXT
  8
_0-1_H0
 62
    7
 10
298.04734658449422
 20
286.11030279069007
 40
2.9599999999999999
 41
1
 50
0
  1
主　要　部　品　一　覧　表
  0
TEXT
  8
_0-1_H0
 62
    7
 10
259.35225636437348
 20
280.60512749716906
 40
3.56
 41
1
 50
0
  1
品番
  0
TEXT
  8
_0-1_H0
 62
    7
 10
274.80734658449415
 20
280.75030279069005
 40
3.6800000000000001
 41
1
 50
0
  1
部　品　名
  0
TEXT
  8
_0-1_H0
 62
    7
 10
312.56734658449425
 20
280.75030279069005
 40
3.6800000000000001
 41
1
 50
0
  1
材　　質
  0
TEXT
  8
_0-1_H0
 62
    7
 10
347.06059435769105
 20
280.75927220365997
 40
3.7200000000000001
 41
1
 50
0
  1
表面処理
  0
TEXT
  8
_0-1_H0
 62
    7
 10
381.06734658449425
 20
280.75030279069005
 40
3.6800000000000001
 41
1
 50
0
  1
色調
  0
TEXT
  8
_0-1_H0
 62
    7
 10
272.82734658449413
 20
275.96280279069003
 40
3.2550000000000003
 41
1
 50
0
  1
本　　体
  0
TEXT
  8
_0-1_H0
 62
    7
 10
273.6410965844941
 20
270.96280279069003
 40
3.2550000000000003
 41
1
 50
0
  1
前　　板
  0
TEXT
  8
_0-1_H0
 62
    7
 10
308.67856244145895
 20
276.13493100893316
 40
2.3599999999999998
 41
1
 50
0
  1
亜鉛めっき鋼板　注）3
  0
TEXT
  8
_0-1_H0
 62
    7
 10
308.52441773496803
 20
271.51058981420641
 40
2.3599999999999998
 41
1
 50
0
  1
亜鉛めっき鋼板　
  0
TEXT
  8
_0-1_H0
 62
    7
 10
345.67329199927303
 20
275.98078630244231
 40
2.8799999999999998
 41
1
 50
0
  1
ポリエステル塗装
  0
TEXT
  8
_0-1_H0
 62
    7
 10
345.82743670576394
 20
271.04815569473373
 40
2.8799999999999998
 41
1
 50
0
  1
ポリエステル塗装
  0
TEXT
  8
_0-1_H0
 62
    7
 10
375.04734658449422
 20
276.23030279069007
 40
3.3599999999999998
 41
1
 50
0
  1
表題欄による
  0
TEXT
  8
_0-1_H0
 62
    7
 10
375.73150976499698
 20
271.35644510771555
 40
3.3599999999999998
 41
1
 50
0
  1
表題欄による
  0
TEXT
  8
_0-1_H0
 62
    7
 10
257.92275229423773
 20
265.04692501157035
 40
2.56
 41
1
 50
0
  1
注）１．
  0
TEXT
  8
_0-1_H0
 62
    7
 10
271.99212229662663
 20
265.49894626106163
 40
2.9599999999999999
 41
1
 50
0
  1
本製品は換気扇用フードで換気扇は別手配とする。
  0
TEXT
  8
_0-1_H0
 62
    7
 10
264.96728700039392
 20
259.04692501157035
 40
2.2000000000000001
 41
1
 50
0
  1
２．
  0
TEXT
  8
_0-1_H0
 62
    7
 10
264.96728700039392
 20
253.04692501157035
 40
2.2000000000000001
 41
1
 50
0
  1
３．
  0
TEXT
  8
_0-1_H0
 62
    7
 10
271.99212229662663
 20
259.94973682738952
 40
2.9199999999999999
 41
1
 50
0
  1
換気扇は２５ｃｍの金属製を使用する。
  0
TEXT
  8
_0-1_H0
 62
    7
 10
271.58142008653703
 20
254.16692501157035
 40
2.8799999999999998
 41
1
 50
0
  1
本体の材質は亜鉛めっき鋼板またはカラー鋼板のいずれかとする。
  0
TEXT
  8
_0-1_H0
 62
    7
 10
271.58142008653703
 20
248.66692501157035
 40
2.8799999999999998
 41
1
 50
0
  1
材質がカラー鋼板の場合は製品の色調にかかわらず本体の天板は黒色とする。
  0
TEXT
  8
_0-1_H0
 62
    7
 10
345.91857181648333
 20
231.18422767032785
 40
3.2200000000000001
 41
1
 50
0
  1
付　属　品
  0
TEXT
  8
_0-1_H0
 62
    7
 10
330.38489441256251
 20
226.14922767032788
 40
3.29
 41
1
 50
0
  1
座付ねじ（φ５．１×４５）
  0
TEXT
  8
_0-1_H0
 62
    7
 10
385.75091568690498
 20
225.57546727992058
 40
3.1150000000000002
 41
1
 50
0
  1
４個
  0
LINE
  8
_0-0_0
  6
CONTINUOUS
 62
    7
 10
119.6462473981838
 20
217.81540919891691
 11
99.650760282930249
 21
237.95792195472378
  0
LINE
  8
_0-0_0
  6
CONTINUOUS
 62
    7
 10
99.650760282930249
 20
237.95792195472378
 11
102.24332459585734
 21
236.44841531898583
  0
LINE
  8
_0-0_0
  6
CONTINUOUS
 62
    7
 10
99.650760282930249
 20
237.95792195472378
 11
101.14123352100108
 21
235.35436870453
  0
LINE
  8
_0-0_0
  6
CONTINUOUS
 62
    7
 10
119.6462473981838
 20
217.81540919891691
 11
159.19614470703089
 21
217.81540919891691
  0
TEXT
  8
_0-0_0
 62
    7
 10
121.26352944427048
 20
218.99161432334358
 40
1.7979999446868892
 41
1
 50
0
  1
電源コード取出口ハーフカット（２０×３０）
  0
LINE
  8
_0-0_0
  6
CONTINUOUS
 62
    7
 10
117.94687708459289
 20
205.12673061420792
 11
97.951389969339345
 21
225.2692433700148
  0
LINE
  8
_0-0_0
  6
CONTINUOUS
 62
    7
 10
97.951389969339345
 20
225.2692433700148
 11
100.54395428226644
 21
223.75973673427688
  0
LINE
  8
_0-0_0
  6
CONTINUOUS
 62
    7
 10
97.951389969339345
 20
225.2692433700148
 11
99.441863207410179
 21
222.66569011982102
  0
TEXT
  8
_0-0_0
 62
    7
 10
119.56415913067958
 20
206.30293573863463
 40
1.7979999446868892
 41
1
 50
0
  1
アース端子
  0
LINE
  8
_0-0_0
  6
CONTINUOUS
 62
    7
 10
117.94687708459289
 20
205.12673061420792
 11
128.17373455027723
 21
205.12673061420792
  0
TEXT
  8
_0-3_A0
 62
    7
 10
33.948652927305317
 20
125.56431141221736
 40
3.6
 41
1
 50
0
  1
イ部
  0
TEXT
  8
_0-3_A0
 62
    7
 10
24.280675000129747
 20
72.023955905301562
 40
3.7599999999999997
 41
1
 50
0
  1
イ部（前板取付状態）
  0
TEXT
  8
_0-1_H0
 62
    7
 10
22.612719802009905
 20
61.240486518773707
 40
2.3559999704360961
 41
1
 50
0
  1
型　　名
  0
TEXT
  8
_0-1_H0
 62
    7
 10
44.821719799387295
 20
63.664486519727375
 40
2.5079999685287477
 41
1
 50
0
  1
質　　量
  0
TEXT
  8
_0-3_A0
 62
    7
 10
140.84871244635192
 20
88.908798283261802
 40
3.3599999999999998
 41
1
 50
0
  1
換気扇取付用ハーフカット（３か所）
  0
LINE
  8
_0-3_A0
  6
CONTINUOUS
 62
    3
 10
202.55742929933035
 20
88.574852024852646
 11
140.12245040611762
 21
88.574852024852646
  0
LINE
  8
_0-3_A0
  6
CONTINUOUS
 62
    3
 10
266.6041877728453
 20
129.86945790123229
 11
269.16491706314889
 21
128.30655499260953
  0
LINE
  8
_0-3_A0
  6
CONTINUOUS
 62
    3
 10
266.6041877728453
 20
129.86945790123229
 11
268.0403929361517
 21
127.23557963356462
  0
LINE
  8
_0-3_A0
  6
CONTINUOUS
 62
    3
 10
281.7636481444519
 20
113.95202451104537
 11
266.6041877728453
 21
129.86945790123229
  0
TEXT
  8
_0-3_A0
 62
    7
 10
284.24863231962274
 20
115.14364327948571
 40
3.3599999999999998
 41
1
 50
0
  1
２－φ６
  0
LINE
  8
_0-3_A0
  6
CONTINUOUS
 62
    3
 10
281.7636481444519
 20
113.95202451104537
 11
296.85180699589238
 21
113.95202451104537
  0
TEXT
  8
_0-3_A0
 62
    7
 10
279.60535743889187
 20
109.43904842601631
 40
3.3599999999999998
 41
1
 50
0
  1
（本体取付穴）
  0
TEXT
  8
_0-1_H0
 62
    7
 10
302.68906684595407
 20
128.01214794893994
 40
3.3599999999999998
 41
1
 50
0
  1
だるま穴詳細（２か所）
  0
LINE
  8
_0-1_H0
  6
CONTINUOUS
 62
    7
 10
319.3921693193875
 20
154.64008296766516
 11
321.12776426055501
 21
156.57598332672117
  0
INSERT
  2
-000-_OPEN
  8
_0-1_H0
 10
321.12776426055501
 20
156.57598332672117
 41
3
 42
3
 50
228.12278454073754
  0
LINE
  8
_0-1_H0
  6
CONTINUOUS
 62
    7
 10
323.13037380805621
 20
158.80971451024726
 11
331.00910834523205
 21
167.59773564216186
  0
LINE
  8
_0-1_H0
  6
CONTINUOUS
 62
    7
 10
319.39216931938761
 20
144.64008296766525
 11
315.68958522773101
 21
141.27989382950477
  0
INSERT
  2
-000-_OPEN
  8
_0-1_H0
 10
313.46803477273715
 20
139.26378034660845
 41
3
 42
3
 50
222.2245408130264
  0
LINE
  8
_0-1_H0
  6
CONTINUOUS
 62
    7
 10
313.46803477273715
 20
139.26378034660845
 11
308.56852572681805
 21
134.81735140107406
  0
TEXT
  8
_0-1_H0
 62
    7
 10
323.06695583403688
 20
159.48800014787056
 40
4
 41
1
 50
48.122784540000054
  1
R2.6
  0
TEXT
  8
_0-1_H0
 62
    7
 10
307.24761954490162
 20
134.29379959049592
 40
4
 41
1
 50
42.224540810000021
  1
R8
  0
TEXT
  8
_0-1_H0
 62
    7
 10
315.34734658449423
 20
53.670302790690072
 40
1.84
 41
1
 50
0
  1
ブラック（ブラックＦＪ）
  0
TEXT
  8
_0-1_H0
 62
    7
 10
315.34734658449423
 20
58.670302790690072
 40
1.84
 41
1
 50
0
  1
ホワイト（Ｃ－２０２）
  0
TEXT
  8
_0-1_H0
 62
    7
 10
315.64050551509137
 20
48.820794480714667
 40
1.84
 41
1
 50
0
  1
ホワイト（Ｃ－２０２）
  0
TEXT
  8
_0-1_H0
 62
    7
 10
315.97145817897137
 20
43.702186814108571
 40
1.84
 41
1
 50
0
  1
ブラック（ブラックＦＪ）
  0
TEXT
  8
_0-1_H0
 62
    7
 10
257.28734658449423
 20
38.350302790689994
 40
2.4799999999999999
 41
1
 50
0
  1
型　　　名
  0
TEXT
  8
_0-1_H0
 62
    7
 10
293.92184507416368
 20
38.28636185709692
 40
2.4799999999999999
 41
1
 50
0
  1
製品コード
  0
TEXT
  8
_0-1_H0
 62
    7
 10
327.90734658449412
 20
38.350302790690051
 40
2.4799999999999999
 41
1
 50
0
  1
色　　調
  0
TEXT
  8
_0-1_H0
 62
    7
 10
386.87734658449426
 20
37.930302790690063
 40
3.3199999999999998
 41
1
 50
0
  1
区分Ｎｏ
  0
TEXT
  8
_0-1_H0
 62
    7
 10
313.99560330486082
 20
15.36430009366569
 40
1.9219999408721921
 41
1
 50
0
  1
尺度
  0
TEXT
  8
_0-1_H0
 62
    7
 10
329.05092197788371
 20
30.96215277292363
 40
1.9219999408721921
 41
1
 50
0
  1
型名
  0
TEXT
  8
_0-1_H0
 62
    7
 10
335.3473465843823
 20
27.390302790690071
 40
2.9139999103546134
 41
1
 50
0
  1
ワンド株式会社殿向け
  0
TEXT
  8
_0-1_H0
 62
    7
 10
338.15734658449412
 20
20.800302790690068
 40
5.58
 41
1
 50
0
  1
１７９０３０４
  0
TEXT
  8
_0-1_H0
 62
    7
 10
329.32218898100126
 20
22.959776180956509
 40
1.9219999408721921
 41
1
 50
0
  1
図番
  0
TEXT
  8
_0-1_H0
 62
    7
 10
328.50838797164863
 20
15.635567096783205
 40
1.9219999408721921
 41
1
 50
0
  1
図名
  0
TEXT
  8
_0-1_H0
 62
    7
 10
341.9223465844941
 20
13.800302790690068
 40
5.58
 41
1
 50
0
  1
製品姿図
  0
TEXT
  8
_0-1_H0
 62
    7
 10
215.66131467475639
 20
28.927650249542153
 40
3.7199999999999997
 41
1
 50
0
  1
Ｂ寸法
  0
TEXT
  8
_0-1_H0
 62
    7
 10
232.07296836336692
 20
28.792016747983396
 40
3.7199999999999997
 41
1
 50
0
  1
Ａ寸法
  0
TEXT
  8
_0-1_H0
 62
    7
 10
214.28734658449411
 20
16.219542381976765
 40
2.1600000000000001
 41
1
 50
0
  1
（前板寸法）
  0
TEXT
  8
_0-1_H0
 62
    7
 10
230.71663334777929
 20
16.04246760145952
 40
2.1600000000000001
 41
1
 50
0
  1
（本体寸法）
  0
INSERT
  2
-019-$$BALLOON$$1
  8
_0-3_A0
 10
137.96372728976788
 20
128.73689022341528
 41
1
 42
1
 50
0
  0
INSERT
  2
-018-$$BALLOON$$0
  8
_0-3_A0
 10
218.86997916865607
 20
124.08478074037921
 41
1
 42
1
 50
0
  0
LINE
  8
_0-3_A0
  6
CONTINUOUS
 62
    7
 10
45.597518442368254
 20
188.34108474726434
 11
45.597518442368254
 21
178.53108476543854
  0
LINE
  8
_0-3_A0
  6
CONTINUOUS
 62
    7
 10
48.597518442368254
 20
179.53108476543854
 11
102.19751844236783
 21
179.53108476543854
  0
INSERT
  2
-000-_OPEN
  8
_0-3_A0
 10
45.597518442368254
 20
179.53108476543854
 41
3
 42
3
 50
180
  0
INSERT
  2
-000-_OPEN
  8
_0-3_A0
 10
105.19751844236783
 20
179.53108476543854
 41
3
 42
3
 50
0
  0
LINE
  8
_0-3_A0
  6
CONTINUOUS
 62
    7
 10
105.19751844236783
 20
188.34108475230405
 11
105.19751844236783
 21
178.53108476543854
  0
LINE
  8
_0-3_A0
  6
CONTINUOUS
 62
    7
 10
45.44751843467452
 20
111.80265139963836
 11
45.447518440181028
 21
103.05265140958599
  0
LINE
  8
_0-3_A0
  6
CONTINUOUS
 62
    7
 10
48.447518439551714
 20
104.05265140958596
 11
102.34751843373103
 21
104.05265140958596
  0
INSERT
  2
-000-_OPEN
  8
_0-3_A0
 10
45.447518439551714
 20
104.05265140958596
 41
3
 42
3
 50
180
  0
INSERT
  2
-000-_OPEN
  8
_0-3_A0
 10
105.34751843373103
 20
104.05265140958596
 41
3
 42
3
 50
0
  0
LINE
  8
_0-3_A0
  6
CONTINUOUS
 62
    7
 10
105.34751843373103
 20
111.80265139710756
 11
105.34751843373103
 21
103.05265140958599
  0
TEXT
  8
_0-0_0
 62
    7
 10
73.401927238945205
 20
179.82762571783678
 40
4.5
 41
0.6666666666666666
 50
0
  1
Ｂ
  0
TEXT
  8
_0-3_A0
 62
    7
 10
72.397518436641348
 20
104.55265140958596
 40
4
 41
1
 50
0
  1
Ａ
  0
ENDSEC
  0
EOF
