  0
SECTION
  2
HEADER
  9
$ACADVER
  1
AC1009
  9
$INSBASE
 10
0
 20
0
 30
0
  9
$EXTMIN
 10
0
 20
0
  9
$EXTMAX
 10
630
 20
445.5
  9
$LIMMIN
 10
0
 20
0
  9
$LIMMAX
 10
630
 20
445.5
  9
$LTSCALE
 40
1.5
  0
ENDSEC
  0
SECTION
  2
TABLES
  0
TABLE
  2
LTYPE
 70
     9
  0
LTYPE
  2
CONTINUOUS
 70
    64
  3
実線
 72
    65
 73
     0
 40
0.0
  0
LTYPE
  2
DASHED1
 70
    64
  3
--  --  --  --  --  --  --  --  
 72
    65
 73
     2
 40
2.5
 49
1.25
 49
-1.25
  0
LTYPE
  2
DASHED2
 70
    64
  3
----    ----    ----    ----    
 72
    65
 73
     2
 40
5.0
 49
2.5
 49
-2.5
  0
LTYPE
  2
DASHED3
 70
    64
  3
------  ------  ------  ------  
 72
    65
 73
     2
 40
5.0
 49
3.75
 49
-1.25
  0
LTYPE
  2
CENTER1
 70
    64
  3
----- - ----- - ----- - ----- - 
 72
    65
 73
     4
 40
10.0
 49
6.25
 49
-1.25
 49
1.25
 49
-1.25
  0
LTYPE
  2
CENTER2
 70
    64
  3
----------  --  ----------  --  
 72
    65
 73
     4
 40
20.0
 49
12.5
 49
-2.5
 49
2.5
 49
-2.5
  0
LTYPE
  2
PHANTOM1
 70
    64
  3
--- - - --- - - --- - - --- - - 
 72
    65
 73
     6
 40
10.0
 49
3.25
 49
-1.25
 49
1.25
 49
-1.25
 49
1.25
 49
-1.25
  0
LTYPE
  2
PHANTOM2
 70
    64
  3
--------  -  -  --------  -  -  
 72
    65
 73
     6
 40
20.0
 49
10.0
 49
-2.5
 49
1.25
 49
-2.5
 49
1.25
 49
-2.5
  0
LTYPE
  2
DOT
 70
    64
  3
-   -   -   -   -   -   -   -   
 72
    65
 73
     2
 40
2.5
 49
0.625
 49
-1.875
  0
LTYPE
  2
DUMMY
 70
    64
  3
ダミー
 72
    65
 73
     0
 40
0.0
  0
LTYPE
  2
RAND1
 70
    64
  3
ランダム線1
 72
    65
 73
     4
 40
10.0
 49
1.0
 49
-2.0
 49
3.0
 49
-4.0
  0
LTYPE
  2
RAND2
 70
    64
  3
ランダム線2
 72
    65
 73
     4
 40
14.0
 49
2.0
 49
-3.0
 49
4.0
 49
-5.0
  0
LTYPE
  2
RAND3
 70
    64
  3
ランダム線3
 72
    65
 73
     4
 40
18.0
 49
3.0
 49
-4.0
 49
5.0
 49
-6.0
  0
LTYPE
  2
RAND4
 70
    64
  3
ランダム線4
 72
    65
 73
     4
 40
22.0
 49
4.0
 49
-5.0
 49
6.0
 49
-7.0
  0
LTYPE
  2
RAND5
 70
    64
  3
ランダム線5
 72
    65
 73
     4
 40
26.0
 49
5.0
 49
-6.0
 49
7.0
 49
-8.0
  0
LTYPE
  2
LONG1
 70
    64
  3
----------  --  ----------  --  
 72
    65
 73
     4
 40
40.0
 49
32.5
 49
-2.5
 49
2.5
 49
-2.5
  0
LTYPE
  2
LONG2
 70
    64
  3
--------  -  -  --------  -  -  
 72
    65
 73
     6
 40
40.0
 49
30.0
 49
-2.5
 49
1.25
 49
-2.5
 49
1.25
 49
-2.5
  0
LTYPE
  2
LONG3
 70
    64
  3
+++++++++++++++..+++++++++++++++
 72
    65
 73
     2
 40
40.0
 49
37.5
 49
-2.5
  0
LTYPE
  2
LONG4
 70
    64
  3
+++++++++++++++..+++++++++++++++
 72
    65
 73
     2
 40
80.0
 49
75.0
 49
-5.0
  0
LTYPE
  2
LONG5
 70
    64
  3
----------  --  ----------  --  
 72
    65
 73
     4
 40
60.0
 49
37.5
 49
-7.5
 49
7.5
 49
-7.5
  0
LTYPE
  2
dashed
 70
   64
  3
-------   -------------   ------
 72
   65
 73
    2
 40
7.5
 49
6
 49
-1.5
  0
LTYPE
  2
dashed_spaced
 70
   64
  3
----        --------        ----
 72
   65
 73
    2
 40
12
 49
6
 49
-6
  0
LTYPE
  2
long_dashed_dotted
 70
   64
  3
------------- --- --------------
 72
   65
 73
    4
 40
15.25
 49
12
 49
-1.5
 49
0.25
 49
-1.5
  0
LTYPE
  2
long_dashed_double-dotted
 70
   64
  3
----------- --- --- ------------
 72
   65
 73
    6
 40
17
 49
12
 49
-1.5
 49
0.25
 49
-1.5
 49
0.25
 49
-1.5
  0
LTYPE
  2
long_dashed_triplicate-dotted
 70
   64
  3
--------- --- --- --- ----------
 72
   65
 73
    8
 40
18.75
 49
12
 49
-1.5
 49
0.25
 49
-1.5
 49
0.25
 49
-1.5
 49
0.25
 49
-1.5
  0
LTYPE
  2
dotted
 70
   64
  3
   -       -       -       -    
 72
   65
 73
    2
 40
1.75
 49
0.25
 49
-1.5
  0
LTYPE
  2
chain
 70
   64
  3
-------------- -- --------------
 72
   65
 73
    4
 40
18.5
 49
12
 49
-1.5
 49
3.5
 49
-1.5
  0
LTYPE
  2
chain_double_dash
 70
   64
  3
------------ -- -- -------------
 72
   65
 73
    6
 40
23.5
 49
12
 49
-1.5
 49
3.5
 49
-1.5
 49
3.5
 49
-1.5
  0
LTYPE
  2
dashed_dotted
 70
   64
  3
-----------     -     ----------
 72
   65
 73
    4
 40
9.25
 49
6
 49
-1.5
 49
0.25
 49
-1.5
  0
LTYPE
  2
double-dashed_dotted
 70
   64
  3
------   -----------   -   -----
 72
   65
 73
    6
 40
16.75
 49
6
 49
-1.5
 49
6
 49
-1.5
 49
0.25
 49
-1.5
  0
LTYPE
  2
dashed_double-dotted
 70
   64
  3
---------    -    -    ---------
 72
   65
 73
    6
 40
11
 49
6
 49
-1.5
 49
0.25
 49
-1.5
 49
0.25
 49
-1.5
  0
LTYPE
  2
double-dashed_double-dotted
 70
   64
  3
-----   ---------   -   -   ----
 72
   65
 73
    8
 40
18.5
 49
6
 49
-1.5
 49
6
 49
-1.5
 49
0.25
 49
-1.5
 49
0.25
 49
-1.5
  0
LTYPE
  2
dashed_triplicate-dotted
 70
   64
  3
-------    -    -    -    ------
 72
   65
 73
    8
 40
12.75
 49
6
 49
-1.5
 49
0.25
 49
-1.5
 49
0.25
 49
-1.5
 49
0.25
 49
-1.5
  0
LTYPE
  2
double-dashed_triplicate-dotted
 70
   64
  3
-----  ---------  -  -  -  -----
 72
   65
 73
   10
 40
20.25
 49
6
 49
-1.5
 49
6
 49
-1.5
 49
0.25
 49
-1.5
 49
0.25
 49
-1.5
 49
0.25
 49
-1.5
  0
LTYPE
  2
undefined
 70
   64
  3
--------------------------------
 72
   65
 73
    0
 40
0
  0
LTYPE
  2
DASHED
 70
   64
  3
------     -----------     -----
 72
   65
 73
    2
 40
19.049999999999997
 49
12.699999999999999
 49
-6.3499999999999996
  0
LTYPE
  2
CENTER
 70
   64
  3
----------    ----    ----------
 72
   65
 73
    4
 40
50.800000000000004
 49
31.75
 49
-6.3499999999999996
 49
6.3499999999999996
 49
-6.3499999999999996
  0
LTYPE
  2
HIDDEN
 70
   64
  3
------     -----------     -----
 72
   65
 73
    2
 40
9.5249999999999985
 49
6.3499999999999996
 49
-3.1749999999999998
  0
LTYPE
  2
PHANTOM
 70
   64
  3
---------   ---   ---   --------
 72
   65
 73
    6
 40
63.500000000000007
 49
31.75
 49
-6.3499999999999996
 49
6.3499999999999996
 49
-6.3499999999999996
 49
6.3499999999999996
 49
-6.3499999999999996
  0
LTYPE
  2
_
 70
   64
  3
                                
 72
   65
 73
    0
 40
0
  0
LTYPE
  2
__22
 70
   64
  3
                                
 72
   65
 73
    0
 40
0
  0
LTYPE
  2
__23
 70
   64
  3
                                
 72
   65
 73
    0
 40
0
  0
LTYPE
  2
__24
 70
   64
  3
                                
 72
   65
 73
    0
 40
0
  0
LTYPE
  2
__25
 70
   64
  3
                                
 72
   65
 73
    0
 40
0
  0
LTYPE
  2
__26
 70
   64
  3
                                
 72
   65
 73
    0
 40
0
  0
LTYPE
  2
__27
 70
   64
  3
                                
 72
   65
 73
    0
 40
0
  0
LTYPE
  2
__28
 70
   64
  3
                                
 72
   65
 73
    0
 40
0
  0
LTYPE
  2
__29
 70
   64
  3
                                
 72
   65
 73
    0
 40
0
  0
LTYPE
  2
__30
 70
   64
  3
                                
 72
   65
 73
    0
 40
0
  0
LTYPE
  2
__31
 70
   64
  3
                                
 72
   65
 73
    0
 40
0
  0
LTYPE
  2
__32
 70
   64
  3
                                
 72
   65
 73
    0
 40
0
  0
ENDTAB
  0
TABLE
  2
STYLE
  5
3
100
AcDbSymbolTable
 70
     1
  0
STYLE
  5
10
100
AcDbSymbolTableRecord
100
AcDbTextStyleTableRecord
  2
STANDARD
 70
     0
 40
0.0
 41
1.0
 50
0.0
 71
     0
 42
0.2
  3
txt
  4
bigfont.shx
  0
STYLE
  5
26
100
AcDbSymbolTableRecord
100
AcDbTextStyleTableRecord
  2
TATEGAKI
 70
    68
 40
0.0
 41
1.0
 50
0.0
 71
     0
 42
1.0
  3
txt
  4
bigfont.shx
  0
ENDTAB
  0
TABLE
  2
LAYER
 70
    3
  0
LAYER
  2
_0-3_A1
 70
   64
 62
    7
  6
CONTINUOUS
  0
LAYER
  2
_0-4_A2
 70
   64
 62
    7
  6
CONTINUOUS
  0
LAYER
  2
ADD_LINE
 70
   64
 62
    7
  6
CONTINUOUS
  0
ENDTAB
  0
ENDSEC
  0
SECTION
  2
BLOCKS
  0
BLOCK
  2
-000-_DOTSMALL
 70
   64
 10
0
 20
0
 30
0
  0
CIRCLE
  8
_0-0_0
  6
CONTINUOUS
 62
    7
 10
0
 20
0
 40
0.09375
  0
LINE
  8
_0-0_0
  6
CONTINUOUS
 62
    7
 10
0.09375
 20
0
 11
-0.09375
 21
0
  0
ENDBLK
  0
ENDSEC
  0
SECTION
  2
ENTITIES
  0
LINE
  8
_0-3_A1
  6
CONTINUOUS
 62
    7
 10
53.414501000000001
 20
418.60857599999997
 11
597.85858599999994
 21
418.60857599999997
  0
LINE
  8
_0-3_A1
  6
CONTINUOUS
 62
    7
 10
196.95019600000003
 20
56.164071000000014
 11
196.95019600000003
 21
27.881244000000023
  0
LINE
  8
_0-3_A1
  6
CONTINUOUS
 62
    7
 10
493.91919499999994
 20
56.164071000000014
 11
493.91919499999994
 21
27.881244000000023
  0
LINE
  8
_0-3_A1
  6
CONTINUOUS
 62
    7
 10
409.77778299999999
 20
56.164071000000014
 11
409.77778299999999
 21
27.881244000000023
  0
LINE
  8
_0-3_A1
  6
CONTINUOUS
 62
    7
 10
261.29293799999999
 20
56.164071000000014
 11
261.29293799999999
 21
27.881244000000023
  0
LINE
  8
_0-3_A1
  6
CONTINUOUS
 62
    7
 10
53.414501000000001
 20
26.891414000000025
 11
597.85858599999994
 21
26.891414000000025
  0
LINE
  8
_0-3_A1
  6
CONTINUOUS
 62
    7
 10
53.414501000000001
 20
27.881244000000023
 11
597.85858599999994
 21
27.881244000000023
  0
LINE
  8
_0-3_A1
  6
CONTINUOUS
 62
    7
 10
53.414501000000001
 20
27.386156000000013
 11
597.85858599999994
 21
27.386156000000013
  0
LINE
  8
_0-3_A1
  6
CONTINUOUS
 62
    7
 10
53.414501000000001
 20
56.164071000000014
 11
597.85858599999994
 21
56.164071000000014
  0
LINE
  8
_0-3_A1
  6
CONTINUOUS
 62
    7
 10
53.414501000000001
 20
57.15390099999999
 11
597.85858599999994
 21
57.15390099999999
  0
LINE
  8
_0-3_A1
  6
CONTINUOUS
 62
    7
 10
53.414501000000001
 20
56.65881400000002
 11
597.85858599999994
 21
56.65881400000002
  0
LINE
  8
_0-3_A1
  6
CONTINUOUS
 62
    7
 10
493.42410699999993
 20
56.164071000000014
 11
493.42410699999993
 21
27.881244000000023
  0
LINE
  8
_0-3_A1
  6
CONTINUOUS
 62
    7
 10
492.92901999999992
 20
56.164071000000014
 11
492.92901999999992
 21
27.881244000000023
  0
LINE
  8
_0-3_A1
  6
CONTINUOUS
 62
    7
 10
409.28269499999998
 20
56.164071000000014
 11
409.28269499999998
 21
27.881244000000023
  0
LINE
  8
_0-3_A1
  6
CONTINUOUS
 62
    7
 10
408.78760800000003
 20
56.164071000000014
 11
408.78760800000003
 21
27.881244000000023
  0
LINE
  8
_0-3_A1
  6
CONTINUOUS
 62
    7
 10
260.79784999999998
 20
56.164071000000014
 11
260.79784999999998
 21
27.881244000000023
  0
LINE
  8
_0-3_A1
  6
CONTINUOUS
 62
    7
 10
260.30276300000002
 20
56.164071000000014
 11
260.30276300000002
 21
27.881244000000023
  0
LINE
  8
_0-3_A1
  6
CONTINUOUS
 62
    7
 10
196.45510800000002
 20
56.164071000000014
 11
196.45510800000002
 21
27.881244000000023
  0
LINE
  8
_0-3_A1
  6
CONTINUOUS
 62
    7
 10
195.96002100000001
 20
56.164071000000014
 11
195.96002100000001
 21
27.881244000000023
  0
LINE
  8
_0-3_A1
  6
CONTINUOUS
 62
    7
 10
53.414501000000001
 20
418.60857599999997
 11
53.414501000000001
 21
26.891414000000025
  0
LINE
  8
_0-3_A1
  6
CONTINUOUS
 62
    7
 10
597.85858599999994
 20
418.60857599999997
 11
597.85858599999994
 21
26.891414000000025
  0
ARC
  8
_0-4_A2
  6
CONTINUOUS
 62
    7
 10
442.052254
 20
295.03432399999996
 40
2
 50
168.78772900000001
 51
191.21227099999998
  0
ARC
  8
_0-4_A2
  6
CONTINUOUS
 62
    7
 10
440.45225400000003
 20
294.27432399999997
 40
0.0399999999999999
 50
180
 51
270
  0
ARC
  8
_0-4_A2
  6
CONTINUOUS
 62
    7
 10
440.492254
 20
294.27432399999997
 40
0.0399999999999999
 50
270
 51
0
  0
LINE
  8
_0-4_A2
  6
CONTINUOUS
 62
    7
 10
440.28660899999999
 20
294.48432400000001
 11
440.41225399999996
 21
294.48432400000001
  0
LINE
  8
_0-4_A2
  6
CONTINUOUS
 62
    7
 10
440.45225400000003
 20
294.23432400000001
 11
440.492254
 21
294.23432400000001
  0
LINE
  8
_0-4_A2
  6
CONTINUOUS
 62
    7
 10
440.53225400000002
 20
294.23432400000001
 11
440.73225400000001
 21
294.23432400000001
  0
ARC
  8
_0-4_A2
  6
CONTINUOUS
 62
    7
 10
440.28660899999999
 20
294.68432399999994
 40
0.2
 50
191.21227099999998
 51
270
  0
ARC
  8
_0-4_A2
  6
CONTINUOUS
 62
    7
 10
440.45225400000003
 20
295.79432399999996
 40
0.0399999999999999
 50
90
 51
180
  0
ARC
  8
_0-4_A2
  6
CONTINUOUS
 62
    7
 10
440.492254
 20
295.79432399999996
 40
0.0399999999999999
 50
0
 51
90
  0
LINE
  8
_0-4_A2
  6
CONTINUOUS
 62
    7
 10
440.28660899999999
 20
295.58432399999998
 11
440.41225399999996
 21
295.58432399999998
  0
LINE
  8
_0-4_A2
  6
CONTINUOUS
 62
    7
 10
440.45225400000003
 20
295.83432399999992
 11
440.492254
 21
295.83432399999992
  0
LINE
  8
_0-4_A2
  6
CONTINUOUS
 62
    7
 10
440.53225400000002
 20
295.83432399999992
 11
440.73225400000001
 21
295.83432399999992
  0
LINE
  8
_0-4_A2
  6
CONTINUOUS
 62
    7
 10
440.73225400000001
 20
294.23432400000001
 11
440.73225400000001
 21
295.83432399999992
  0
LINE
  8
_0-4_A2
  6
CONTINUOUS
 62
    7
 10
440.41225399999996
 20
294.27432399999997
 11
440.41225399999996
 21
295.79432399999996
  0
LINE
  8
_0-4_A2
  6
CONTINUOUS
 62
    7
 10
440.53225400000002
 20
294.23432400000001
 11
440.53225400000002
 21
295.83432399999992
  0
ARC
  8
_0-4_A2
  6
CONTINUOUS
 62
    7
 10
440.28660899999999
 20
295.38432399999999
 40
0.2
 50
90
 51
168.78772900000001
  0
ARC
  8
_0-4_A2
  6
CONTINUOUS
 62
    7
 10
442.052254
 20
301.43432399999994
 40
2
 50
168.78772900000001
 51
191.21227099999998
  0
ARC
  8
_0-4_A2
  6
CONTINUOUS
 62
    7
 10
440.45225400000003
 20
300.67432399999995
 40
0.0399999999999999
 50
180
 51
270
  0
ARC
  8
_0-4_A2
  6
CONTINUOUS
 62
    7
 10
440.492254
 20
300.67432399999995
 40
0.0399999999999999
 50
270
 51
0
  0
LINE
  8
_0-4_A2
  6
CONTINUOUS
 62
    7
 10
440.28660899999999
 20
300.88432399999999
 11
440.41225399999996
 21
300.88432399999999
  0
LINE
  8
_0-4_A2
  6
CONTINUOUS
 62
    7
 10
440.45225400000003
 20
300.63432399999999
 11
440.492254
 21
300.63432399999999
  0
LINE
  8
_0-4_A2
  6
CONTINUOUS
 62
    7
 10
440.53225400000002
 20
300.63432399999999
 11
440.73225400000001
 21
300.63432399999999
  0
ARC
  8
_0-4_A2
  6
CONTINUOUS
 62
    7
 10
440.28660899999999
 20
301.08432399999992
 40
0.2
 50
191.21227099999998
 51
270
  0
ARC
  8
_0-4_A2
  6
CONTINUOUS
 62
    7
 10
440.45225400000003
 20
302.19432399999993
 40
0.0399999999999999
 50
90
 51
180
  0
ARC
  8
_0-4_A2
  6
CONTINUOUS
 62
    7
 10
440.492254
 20
302.19432399999993
 40
0.0399999999999999
 50
0
 51
90
  0
LINE
  8
_0-4_A2
  6
CONTINUOUS
 62
    7
 10
440.28660899999999
 20
301.98432400000001
 11
440.41225399999996
 21
301.98432400000001
  0
LINE
  8
_0-4_A2
  6
CONTINUOUS
 62
    7
 10
440.45225400000003
 20
302.23432400000001
 11
440.492254
 21
302.23432400000001
  0
LINE
  8
_0-4_A2
  6
CONTINUOUS
 62
    7
 10
440.53225400000002
 20
302.23432400000001
 11
440.73225400000001
 21
302.23432400000001
  0
LINE
  8
_0-4_A2
  6
CONTINUOUS
 62
    7
 10
440.73225400000001
 20
300.63432399999999
 11
440.73225400000001
 21
302.23432400000001
  0
LINE
  8
_0-4_A2
  6
CONTINUOUS
 62
    7
 10
440.41225399999996
 20
300.67432399999995
 11
440.41225399999996
 21
302.19432399999993
  0
LINE
  8
_0-4_A2
  6
CONTINUOUS
 62
    7
 10
440.53225400000002
 20
300.63432399999999
 11
440.53225400000002
 21
302.23432400000001
  0
ARC
  8
_0-4_A2
  6
CONTINUOUS
 62
    7
 10
440.28660899999999
 20
301.78432399999996
 40
0.2
 50
90
 51
168.78772900000001
  0
ARC
  8
_0-4_A2
  6
CONTINUOUS
 62
    7
 10
443.53225300000002
 20
303.03432400000002
 40
0.1
 50
90
 51
180
  0
ARC
  8
_0-4_A2
  6
CONTINUOUS
 62
    7
 10
443.53225400000002
 20
303.03432400000002
 40
0.2
 50
90
 51
180
  0
ARC
  8
_0-4_A2
  6
CONTINUOUS
 62
    7
 10
443.53225400000002
 20
293.434324
 40
0.2
 50
180
 51
270
  0
ARC
  8
_0-4_A2
  6
CONTINUOUS
 62
    7
 10
443.53225300000002
 20
293.434324
 40
0.1
 50
180
 51
270
  0
LINE
  8
_0-4_A2
  6
CONTINUOUS
 62
    7
 10
443.82661899999999
 20
299.23432400000001
 11
443.68370299999997
 21
299.23432400000001
  0
LINE
  8
_0-4_A2
  6
CONTINUOUS
 62
    7
 10
443.43225399999994
 20
299.42291099999999
 11
443.68370299999997
 21
299.23432400000001
  0
LINE
  8
_0-4_A2
  6
CONTINUOUS
 62
    7
 10
443.68370299999997
 20
299.23432400000001
 11
443.43225399999994
 21
299.04573699999991
  0
LINE
  8
_0-4_A2
  6
CONTINUOUS
 62
    7
 10
443.68370299999997
 20
299.23432400000001
 11
443.43225399999994
 21
299.23432400000001
  0
LINE
  8
_0-4_A2
  6
CONTINUOUS
 62
    7
 10
443.82661899999999
 20
299.23432400000001
 11
443.43225399999994
 21
299.530098
  0
LINE
  8
_0-4_A2
  6
CONTINUOUS
 62
    7
 10
443.43225399999994
 20
298.93855000000002
 11
443.82661899999999
 21
299.23432400000001
  0
LINE
  8
_0-4_A2
  6
CONTINUOUS
 62
    7
 10
443.82661899999999
 20
297.23432400000001
 11
443.68370299999997
 21
297.23432400000001
  0
LINE
  8
_0-4_A2
  6
CONTINUOUS
 62
    7
 10
443.68370299999997
 20
297.23432400000001
 11
443.43225399999994
 21
297.04573699999997
  0
LINE
  8
_0-4_A2
  6
CONTINUOUS
 62
    7
 10
443.43225399999994
 20
297.42291099999999
 11
443.68370299999997
 21
297.23432400000001
  0
LINE
  8
_0-4_A2
  6
CONTINUOUS
 62
    7
 10
443.68370299999997
 20
297.23432400000001
 11
443.43225399999994
 21
297.23432400000001
  0
LINE
  8
_0-4_A2
  6
CONTINUOUS
 62
    7
 10
443.43225399999994
 20
296.93855000000002
 11
443.82661899999999
 21
297.23432400000001
  0
LINE
  8
_0-4_A2
  6
CONTINUOUS
 62
    7
 10
443.82661899999999
 20
297.23432400000001
 11
443.43225399999994
 21
297.530098
  0
CIRCLE
  8
_0-4_A2
  6
CONTINUOUS
 62
    7
 10
443.43225299999994
 20
295.03432399999996
 40
0.0199999999999999
  0
LINE
  8
_0-4_A2
  6
CONTINUOUS
 62
    7
 10
443.33225400000003
 20
303.03432400000002
 11
443.33225400000003
 21
298.23432400000001
  0
LINE
  8
_0-4_A2
  6
CONTINUOUS
 62
    7
 10
443.43225299999994
 20
303.03432400000002
 11
443.43225299999994
 21
298.23432400000001
  0
LINE
  8
_0-4_A2
  6
CONTINUOUS
 62
    7
 10
443.43225299999994
 20
298.684324
 11
443.53225300000002
 21
298.684324
  0
LINE
  8
_0-4_A2
  6
CONTINUOUS
 62
    7
 10
443.53225300000002
 20
297.78432400000002
 11
443.43225299999994
 21
297.78432400000002
  0
LINE
  8
_0-4_A2
  6
CONTINUOUS
 62
    7
 10
447.30656800000002
 20
303.23432400000001
 11
447.30656800000002
 21
303.13432399999999
  0
LINE
  8
_0-4_A2
  6
CONTINUOUS
 62
    7
 10
443.33225400000003
 20
293.434324
 11
443.33225400000003
 21
298.23432400000001
  0
LINE
  8
_0-4_A2
  6
CONTINUOUS
 62
    7
 10
447.30656800000002
 20
293.33432399999998
 11
447.30656800000002
 21
293.23432400000001
  0
LINE
  8
_0-4_A2
  6
CONTINUOUS
 62
    7
 10
443.43225299999994
 20
293.434324
 11
443.43225299999994
 21
298.23432400000001
  0
LINE
  8
_0-4_A2
  6
CONTINUOUS
 62
    7
 10
447.30656800000002
 20
293.33432399999998
 11
443.53225300000002
 21
293.33432399999998
  0
LINE
  8
_0-4_A2
  6
CONTINUOUS
 62
    7
 10
443.53225300000002
 20
303.13432399999999
 11
447.30656800000002
 21
303.13432399999999
  0
LINE
  8
_0-4_A2
  6
CONTINUOUS
 62
    7
 10
447.30656800000002
 20
293.23432400000001
 11
443.53225400000002
 21
293.23432400000001
  0
LINE
  8
_0-4_A2
  6
CONTINUOUS
 62
    7
 10
443.53225400000002
 20
303.23432400000001
 11
447.30656800000002
 21
303.23432400000001
  0
LINE
  8
_0-4_A2
  6
CONTINUOUS
 62
    7
 10
447.58941100000004
 20
293.23432400000001
 11
447.58941100000004
 21
293.33432399999998
  0
LINE
  8
_0-4_A2
  6
CONTINUOUS
 62
    7
 10
447.58941100000004
 20
293.33432399999998
 11
447.30656800000002
 21
293.33432399999998
  0
LINE
  8
_0-4_A2
  6
CONTINUOUS
 62
    7
 10
447.30656800000002
 20
293.23432400000001
 11
447.58941100000004
 21
293.23432400000001
  0
LINE
  8
_0-4_A2
  6
CONTINUOUS
 62
    7
 10
447.58941100000004
 20
303.13432399999999
 11
447.58941100000004
 21
303.23432400000001
  0
LINE
  8
_0-4_A2
  6
CONTINUOUS
 62
    7
 10
447.30656800000002
 20
303.13432399999999
 11
447.58941100000004
 21
303.13432399999999
  0
LINE
  8
_0-4_A2
  6
CONTINUOUS
 62
    7
 10
447.58941100000004
 20
303.23432400000001
 11
447.30656800000002
 21
303.23432400000001
  0
LINE
  8
_0-4_A2
  6
DASHED
 62
    7
 10
450.35509599999994
 20
293.33432399999998
 11
450.35509599999994
 21
293.23432400000001
  0
LINE
  8
_0-4_A2
  6
DASHED
 62
    7
 10
450.35509599999994
 20
293.33432399999998
 11
449.47225300000002
 21
293.33432399999998
  0
LINE
  8
_0-4_A2
  6
CONTINUOUS
 62
    7
 10
447.58941100000004
 20
293.23432400000001
 11
449.47225300000002
 21
293.23432400000001
  0
LINE
  8
_0-4_A2
  6
DASHED
 62
    7
 10
450.35509599999994
 20
303.23432400000001
 11
450.35509599999994
 21
303.13432399999999
  0
LINE
  8
_0-4_A2
  6
CONTINUOUS
 62
    7
 10
447.58941100000004
 20
303.13432399999999
 11
449.47225300000002
 21
303.13432399999999
  0
LINE
  8
_0-4_A2
  6
DASHED
 62
    7
 10
450.35509599999994
 20
303.23432400000001
 11
449.47225300000002
 21
303.23432400000001
  0
LINE
  8
_0-4_A2
  6
CONTINUOUS
 62
    7
 10
443.53225300000002
 20
298.23432400000001
 11
443.53225300000002
 21
298.684324
  0
LINE
  8
_0-4_A2
  6
CONTINUOUS
 62
    7
 10
443.53225300000002
 20
297.78432400000002
 11
443.53225300000002
 21
298.23432400000001
  0
LINE
  8
_0-4_A2
  6
DASHED
 62
    7
 10
450.47225300000002
 20
293.23432400000001
 11
450.47225300000002
 21
293.33432399999998
  0
LINE
  8
_0-4_A2
  6
DASHED
 62
    7
 10
450.47225300000002
 20
293.33432399999998
 11
450.35509599999994
 21
293.33432399999998
  0
LINE
  8
_0-4_A2
  6
DASHED
 62
    7
 10
450.35509599999994
 20
293.23432400000001
 11
450.47225300000002
 21
293.23432400000001
  0
LINE
  8
_0-4_A2
  6
DASHED
 62
    7
 10
450.47225300000002
 20
303.13432399999999
 11
450.47225300000002
 21
303.23432400000001
  0
LINE
  8
_0-4_A2
  6
DASHED
 62
    7
 10
450.35509599999994
 20
303.13432399999999
 11
450.47225300000002
 21
303.13432399999999
  0
LINE
  8
_0-4_A2
  6
DASHED
 62
    7
 10
450.47225300000002
 20
303.23432400000001
 11
450.35509599999994
 21
303.23432400000001
  0
LINE
  8
_0-4_A2
  6
CONTINUOUS
 62
    7
 10
443.43225299999994
 20
294.79290300000002
 11
443.43225299999994
 21
294.934324
  0
LINE
  8
_0-4_A2
  6
CONTINUOUS
 62
    7
 10
443.73515300000002
 20
299.30292399999996
 11
443.43225299999994
 21
299.30292399999996
  0
LINE
  8
_0-4_A2
  6
CONTINUOUS
 62
    7
 10
443.43225299999994
 20
299.165725
 11
443.73515300000002
 21
299.165725
  0
LINE
  8
_0-4_A2
  6
CONTINUOUS
 62
    7
 10
443.73515215108545
 20
299.16572454471497
 11
443.73515215108545
 21
299.16572454471497
  0
LINE
  8
_0-4_A2
  6
CONTINUOUS
 62
    7
 10
443.73515215108545
 20
299.16572454471497
 11
443.75043522949005
 21
299.17940148928477
  0
LINE
  8
_0-4_A2
  6
CONTINUOUS
 62
    7
 10
443.75043522949005
 20
299.17940148928477
 11
443.76212740065471
 21
299.19474722655053
  0
LINE
  8
_0-4_A2
  6
CONTINUOUS
 62
    7
 10
443.76212740065471
 20
299.19474722655053
 11
443.76987340387512
 21
299.2112954840507
  0
LINE
  8
_0-4_A2
  6
CONTINUOUS
 62
    7
 10
443.76987340387512
 20
299.2112954840507
 11
443.77343788076302
 21
299.22854345135505
  0
LINE
  8
_0-4_A2
  6
CONTINUOUS
 62
    7
 10
443.77343788076302
 20
299.22854345135505
 11
443.77271252649194
 21
299.24596705770483
  0
LINE
  8
_0-4_A2
  6
CONTINUOUS
 62
    7
 10
443.77271252649194
 20
299.24596705770483
 11
443.76771938058436
 21
299.26303689563792
  0
LINE
  8
_0-4_A2
  6
CONTINUOUS
 62
    7
 10
443.76771938058436
 20
299.26303689563792
 11
443.758610157252
 21
299.27923430676651
  0
LINE
  8
_0-4_A2
  6
CONTINUOUS
 62
    7
 10
443.758610157252
 20
299.27923430676651
 11
443.74566163563639
 21
299.29406714094972
  0
LINE
  8
_0-4_A2
  6
CONTINUOUS
 62
    7
 10
443.74566163563639
 20
299.29406714094972
 11
443.7351521510854
 21
299.30292345528505
  0
LINE
  8
_0-4_A2
  6
CONTINUOUS
 62
    7
 10
443.73515300000002
 20
297.30292400000001
 11
443.43225299999994
 21
297.30292400000001
  0
LINE
  8
_0-4_A2
  6
CONTINUOUS
 62
    7
 10
443.43225299999994
 20
297.16572499999995
 11
443.73515300000002
 21
297.16572499999995
  0
LINE
  8
_0-4_A2
  6
CONTINUOUS
 62
    7
 10
443.73515215108545
 20
297.16572454471497
 11
443.73515215108545
 21
297.16572454471497
  0
LINE
  8
_0-4_A2
  6
CONTINUOUS
 62
    7
 10
443.73515215108545
 20
297.16572454471497
 11
443.75043522949005
 21
297.17940148928477
  0
LINE
  8
_0-4_A2
  6
CONTINUOUS
 62
    7
 10
443.75043522949005
 20
297.17940148928477
 11
443.76212740065471
 21
297.19474722655053
  0
LINE
  8
_0-4_A2
  6
CONTINUOUS
 62
    7
 10
443.76212740065471
 20
297.19474722655053
 11
443.76987340387512
 21
297.2112954840507
  0
LINE
  8
_0-4_A2
  6
CONTINUOUS
 62
    7
 10
443.76987340387512
 20
297.2112954840507
 11
443.77343788076302
 21
297.22854345135505
  0
LINE
  8
_0-4_A2
  6
CONTINUOUS
 62
    7
 10
443.77343788076302
 20
297.22854345135505
 11
443.77271252649194
 21
297.24596705770483
  0
LINE
  8
_0-4_A2
  6
CONTINUOUS
 62
    7
 10
443.77271252649194
 20
297.24596705770483
 11
443.76771938058436
 21
297.26303689563792
  0
LINE
  8
_0-4_A2
  6
CONTINUOUS
 62
    7
 10
443.76771938058436
 20
297.26303689563792
 11
443.758610157252
 21
297.27923430676651
  0
LINE
  8
_0-4_A2
  6
CONTINUOUS
 62
    7
 10
443.758610157252
 20
297.27923430676651
 11
443.74566163563639
 21
297.29406714094972
  0
LINE
  8
_0-4_A2
  6
CONTINUOUS
 62
    7
 10
443.74566163563639
 20
297.29406714094972
 11
443.73515215108545
 21
297.30292345528505
  0
LINE
  8
_0-4_A2
  6
CONTINUOUS
 62
    7
 10
443.73515300000002
 20
299.30292399999996
 11
443.43225299999994
 21
299.530098
  0
LINE
  8
_0-4_A2
  6
CONTINUOUS
 62
    7
 10
443.73515300000002
 20
297.16572499999995
 11
443.43225299999994
 21
296.93855000000002
  0
LINE
  8
_0-4_A2
  6
CONTINUOUS
 62
    7
 10
443.43225299999994
 20
297.530098
 11
443.73515300000002
 21
297.30292400000001
  0
LINE
  8
_0-4_A2
  6
CONTINUOUS
 62
    7
 10
443.43225299999994
 20
298.93855000000002
 11
443.73515300000002
 21
299.165725
  0
LINE
  8
_0-4_A2
  6
CONTINUOUS
 62
    7
 10
443.43225299999994
 20
296.23432400000001
 11
449.47225300000002
 21
296.23432400000001
  0
LINE
  8
_0-4_A2
  6
CONTINUOUS
 62
    7
 10
443.43225299999994
 20
300.23432400000001
 11
449.47225300000002
 21
300.23432400000001
  0
LINE
  8
_0-4_A2
  6
DASHED
 62
    7
 10
450.47225300000002
 20
296.23432400000001
 11
450.47225300000002
 21
300.23432400000001
  0
LINE
  8
_0-4_A2
  6
DASHED
 62
    7
 10
450.47225300000002
 20
300.23432400000001
 11
450.07225299999993
 21
300.23432400000001
  0
LINE
  8
_0-4_A2
  6
DASHED
 62
    7
 10
450.07225299999993
 20
296.23432400000001
 11
450.47225300000002
 21
296.23432400000001
  0
CIRCLE
  8
_0-4_A2
  6
CONTINUOUS
 62
    7
 10
441.93225299999994
 20
300.63432399999999
 40
0.0199999999999999
  0
CIRCLE
  8
_0-4_A2
  6
CONTINUOUS
 62
    7
 10
441.93225299999994
 20
295.83432399999992
 40
0.0199999999999999
  0
LINE
  8
_0-4_A2
  6
CONTINUOUS
 62
    7
 10
443.33225400000003
 20
293.63432399999999
 11
443.33225400000003
 21
293.73432400000001
  0
LINE
  8
_0-4_A2
  6
CENTER
 62
    7
 10
442.93225299999994
 20
301.43432399999994
 11
439.84211699999997
 21
301.43432399999994
  0
LINE
  8
_0-4_A2
  6
CONTINUOUS
 62
    7
 10
441.93225299999994
 20
298.23432400000001
 11
441.93225299999994
 21
295.33569499999998
  0
LINE
  8
_0-4_A2
  6
CONTINUOUS
 62
    7
 10
441.93225299999994
 20
301.50350500000001
 11
441.93225299999994
 21
301.13295299999992
  0
LINE
  8
_0-4_A2
  6
CONTINUOUS
 62
    7
 10
441.93225299999994
 20
295.33569499999998
 11
441.93225299999994
 21
294.96514300000001
  0
LINE
  8
_0-4_A2
  6
CONTINUOUS
 62
    7
 10
442.93225399999994
 20
293.73432400000001
 11
442.93225399999994
 21
293.63432399999999
  0
ARC
  8
_0-4_A2
  6
CONTINUOUS
 62
    7
 10
442.13225299999993
 20
302.63432399999999
 40
0.2
 50
90
 51
180
  0
ARC
  8
_0-4_A2
  6
CONTINUOUS
 62
    7
 10
442.13225299999993
 20
302.63432399999999
 40
0.1
 50
90
 51
180
  0
LINE
  8
_0-4_A2
  6
CONTINUOUS
 62
    7
 10
441.93225299999994
 20
302.63432399999999
 11
441.93225299999994
 21
298.23432400000001
  0
ARC
  8
_0-4_A2
  6
CONTINUOUS
 62
    7
 10
442.13225299999993
 20
293.83432399999998
 40
0.2
 50
180
 51
270
  0
ARC
  8
_0-4_A2
  6
CONTINUOUS
 62
    7
 10
442.13225299999993
 20
293.83432399999998
 40
0.1
 50
180
 51
270
  0
LINE
  8
_0-4_A2
  6
CONTINUOUS
 62
    7
 10
442.13225399999993
 20
293.73432400000001
 11
443.33225400000003
 21
293.73432400000001
  0
LINE
  8
_0-4_A2
  6
CONTINUOUS
 62
    7
 10
442.13225399999993
 20
293.63432399999999
 11
443.33225400000003
 21
293.63432399999999
  0
LINE
  8
_0-4_A2
  6
CONTINUOUS
 62
    7
 10
441.93225299999994
 20
294.96514300000001
 11
441.93225299999994
 21
293.83432399999998
  0
LINE
  8
_0-4_A2
  6
DASHED
 62
    7
 10
442.13225399999993
 20
295.38432399999999
 11
442.03225300000002
 21
295.38432399999999
  0
LINE
  8
_0-4_A2
  6
CENTER
 62
    7
 10
443.03225299999996
 20
295.03432399999996
 11
439.84211699999997
 21
295.03432399999996
  0
ARC
  8
_0-4_A2
  6
CONTINUOUS
 62
    7
 10
441.93225299999994
 20
295.97432400000002
 40
0.2
 50
90
 51
180
  0
ARC
  8
_0-4_A2
  6
CONTINUOUS
 62
    7
 10
441.93225299999994
 20
295.85432400000001
 40
0.2
 50
180
 51
270
  0
LINE
  8
_0-4_A2
  6
CONTINUOUS
 62
    7
 10
441.73225299999995
 20
295.97432400000002
 11
441.73225299999995
 21
295.85432400000001
  0
ARC
  8
_0-4_A2
  6
CONTINUOUS
 62
    7
 10
441.93225299999994
 20
300.494324
 40
0.2
 50
180
 51
270
  0
ARC
  8
_0-4_A2
  6
CONTINUOUS
 62
    7
 10
441.93225299999994
 20
300.61432400000001
 40
0.2
 50
90
 51
180
  0
LINE
  8
_0-4_A2
  6
CONTINUOUS
 62
    7
 10
441.73225299999995
 20
300.61432400000001
 11
441.73225299999995
 21
300.494324
  0
LINE
  8
_0-4_A2
  6
CONTINUOUS
 62
    7
 10
443.33225300000003
 20
298.23432400000001
 11
443.33225300000003
 21
293.83432399999998
  0
LINE
  8
_0-4_A2
  6
CONTINUOUS
 62
    7
 10
443.23225299999995
 20
302.63432399999999
 11
443.23225299999995
 21
293.83432399999998
  0
LINE
  8
_0-4_A2
  6
CONTINUOUS
 62
    7
 10
443.33225300000003
 20
298.23432400000001
 11
443.33225300000003
 21
302.63432399999999
  0
LINE
  8
_0-4_A2
  6
CONTINUOUS
 62
    7
 10
442.13225399999993
 20
302.83432399999998
 11
443.33225400000003
 21
302.83432399999998
  0
LINE
  8
_0-4_A2
  6
CONTINUOUS
 62
    7
 10
442.93225399999994
 20
302.73432400000001
 11
442.93225399999994
 21
302.83432399999998
  0
LINE
  8
_0-4_A2
  6
CONTINUOUS
 62
    7
 10
443.33225400000003
 20
302.83432399999998
 11
443.33225400000003
 21
302.73432400000001
  0
LINE
  8
_0-4_A2
  6
CONTINUOUS
 62
    7
 10
442.13225399999993
 20
302.73432400000001
 11
443.33225400000003
 21
302.73432400000001
  0
LINE
  8
_0-4_A2
  6
DASHED
 62
    7
 10
441.71071199999994
 20
294.11430699999999
 11
441.89225299999998
 21
294.11430699999999
  0
LINE
  8
_0-4_A2
  6
DASHED
 62
    7
 10
441.89225299999998
 20
295.15430700000001
 11
441.71071199999994
 21
295.15430700000001
  0
LINE
  8
_0-4_A2
  6
DASHED
 62
    7
 10
441.71071199999994
 20
301.51432499999998
 11
441.89225299999998
 21
301.51432499999998
  0
LINE
  8
_0-4_A2
  6
DASHED
 62
    7
 10
441.89225299999998
 20
302.55432399999995
 11
441.71071199999994
 21
302.55432399999995
  0
LINE
  8
_0-4_A2
  6
CONTINUOUS
 62
    7
 10
441.53225299999996
 20
293.374324
 11
441.89225299999998
 21
293.374324
  0
LINE
  8
_0-4_A2
  6
CONTINUOUS
 62
    7
 10
441.89225299999998
 20
303.09432399999997
 11
441.53225299999996
 21
303.09432399999997
  0
LINE
  8
_0-4_A2
  6
HIDDEN
 62
    7
 10
441.73225399999995
 20
297.23432400000001
 11
441.89225299999998
 21
297.23432400000001
  0
LINE
  8
_0-4_A2
  6
HIDDEN
 62
    7
 10
441.89225299999998
 20
299.23432400000001
 11
441.73225399999995
 21
299.23432400000001
  0
LINE
  8
_0-4_A2
  6
HIDDEN
 62
    7
 10
441.73225399999995
 20
295.73432400000001
 11
441.89225299999998
 21
295.73432400000001
  0
LINE
  8
_0-4_A2
  6
HIDDEN
 62
    7
 10
441.89225299999998
 20
296.23432400000001
 11
441.73225399999995
 21
296.23432400000001
  0
LINE
  8
_0-4_A2
  6
HIDDEN
 62
    7
 10
441.73225399999995
 20
300.23432400000001
 11
441.89225299999998
 21
300.23432400000001
  0
LINE
  8
_0-4_A2
  6
HIDDEN
 62
    7
 10
441.73225399999995
 20
300.73432400000001
 11
441.89225299999998
 21
300.73432400000001
  0
LINE
  8
_0-4_A2
  6
HIDDEN
 62
    7
 10
441.93225299999994
 20
295.73432400000001
 11
441.73225399999995
 21
295.73432400000001
  0
LINE
  8
_0-4_A2
  6
HIDDEN
 62
    7
 10
441.93225299999994
 20
296.33432399999998
 11
441.73225399999995
 21
296.33432399999998
  0
LINE
  8
_0-4_A2
  6
HIDDEN
 62
    7
 10
441.93225299999994
 20
300.73432400000001
 11
441.73225399999995
 21
300.73432400000001
  0
LINE
  8
_0-4_A2
  6
HIDDEN
 62
    7
 10
441.93225299999994
 20
296.23432400000001
 11
441.73225399999995
 21
296.23432400000001
  0
LINE
  8
_0-4_A2
  6
HIDDEN
 62
    7
 10
441.93225299999994
 20
300.23432400000001
 11
441.73225399999995
 21
300.23432400000001
  0
LINE
  8
_0-4_A2
  6
HIDDEN
 62
    7
 10
441.93225299999994
 20
300.13432399999999
 11
441.73225399999995
 21
300.13432399999999
  0
LINE
  8
_0-4_A2
  6
HIDDEN
 62
    7
 10
441.93225299999994
 20
299.23432400000001
 11
441.73225399999995
 21
299.23432400000001
  0
LINE
  8
_0-4_A2
  6
HIDDEN
 62
    7
 10
441.73225399999995
 20
297.23432400000001
 11
441.93225299999994
 21
297.23432400000001
  0
LINE
  8
_0-4_A2
  6
HIDDEN
 62
    7
 10
441.73225399999995
 20
296.65432399999997
 11
441.93225299999994
 21
296.65432399999997
  0
LINE
  8
_0-4_A2
  6
HIDDEN
 62
    7
 10
441.93225299999994
 20
299.81432399999999
 11
441.73225399999995
 21
299.81432399999999
  0
LINE
  8
_0-4_A2
  6
HIDDEN
 62
    7
 10
441.73225399999995
 20
296.65432399999997
 11
441.93225299999994
 21
296.65432399999997
  0
LINE
  8
_0-4_A2
  6
HIDDEN
 62
    7
 10
441.73225399999995
 20
297.23432400000001
 11
441.73225399999995
 21
296.23432400000001
  0
LINE
  8
_0-4_A2
  6
HIDDEN
 62
    7
 10
441.73225399999995
 20
300.23432400000001
 11
441.73225399999995
 21
299.23432400000001
  0
LINE
  8
_0-4_A2
  6
HIDDEN
 62
    7
 10
441.73225399999995
 20
296.33432399999998
 11
441.73225399999995
 21
296.65432399999997
  0
LINE
  8
_0-4_A2
  6
HIDDEN
 62
    7
 10
441.73225399999995
 20
300.13432399999999
 11
441.73225399999995
 21
299.81432399999999
  0
LINE
  8
_0-4_A2
  6
HIDDEN
 62
    7
 10
441.73225399999995
 20
300.73432400000001
 11
441.73225399999995
 21
300.13432399999999
  0
LINE
  8
_0-4_A2
  6
HIDDEN
 62
    7
 10
441.73225399999995
 20
296.33432399999998
 11
441.73225399999995
 21
296.65432399999997
  0
LINE
  8
_0-4_A2
  6
HIDDEN
 62
    7
 10
441.73225399999995
 20
296.33432399999998
 11
441.73225399999995
 21
295.73432400000001
  0
LINE
  8
_0-4_A2
  6
HIDDEN
 62
    7
 10
441.73225399999995
 20
299.38432399999999
 11
441.73225399999995
 21
299.78432400000002
  0
LINE
  8
_0-4_A2
  6
HIDDEN
 62
    7
 10
441.33225399999997
 20
299.78432400000002
 11
441.73225399999995
 21
299.78432400000002
  0
LINE
  8
_0-4_A2
  6
HIDDEN
 62
    7
 10
441.33225399999997
 20
299.38432399999999
 11
441.73225399999995
 21
299.38432399999999
  0
LINE
  8
_0-4_A2
  6
HIDDEN
 62
    7
 10
441.33225399999997
 20
299.38432399999999
 11
441.33225399999997
 21
299.78432400000002
  0
LINE
  8
_0-4_A2
  6
HIDDEN
 62
    7
 10
441.73225399999995
 20
297.08432399999998
 11
441.73225399999995
 21
296.684324
  0
LINE
  8
_0-4_A2
  6
PHANTOM
 62
    7
 10
441.33225399999997
 20
296.684324
 11
441.73225399999995
 21
296.684324
  0
LINE
  8
_0-4_A2
  6
HIDDEN
 62
    7
 10
441.33225399999997
 20
297.08432399999998
 11
441.33225399999997
 21
296.684324
  0
LINE
  8
_0-4_A2
  6
HIDDEN
 62
    7
 10
441.33225399999997
 20
297.08432399999998
 11
441.73225399999995
 21
297.08432399999998
  0
LINE
  8
_0-4_A2
  6
HIDDEN
 62
    7
 10
441.73225399999995
 20
297.934324
 11
441.73225399999995
 21
298.53432400000002
  0
LINE
  8
_0-4_A2
  6
HIDDEN
 62
    7
 10
441.53225299999996
 20
297.934324
 11
441.73225399999995
 21
297.934324
  0
LINE
  8
_0-4_A2
  6
HIDDEN
 62
    7
 10
441.53225299999996
 20
297.934324
 11
441.53225299999996
 21
298.53432400000002
  0
LINE
  8
_0-4_A2
  6
HIDDEN
 62
    7
 10
441.53225299999996
 20
298.53432400000002
 11
441.73225399999995
 21
298.53432400000002
  0
LINE
  8
_0-4_A2
  6
HIDDEN
 62
    7
 10
441.73225399999995
 20
297.23432400000001
 11
441.73225399999995
 21
296.23432400000001
  0
LINE
  8
_0-4_A2
  6
HIDDEN
 62
    7
 10
441.73225399999995
 20
300.73432400000001
 11
441.73225399999995
 21
300.23432400000001
  0
LINE
  8
_0-4_A2
  6
HIDDEN
 62
    7
 10
441.73225399999995
 20
300.23432400000001
 11
441.73225399999995
 21
299.23432400000001
  0
LINE
  8
_0-4_A2
  6
HIDDEN
 62
    7
 10
441.73225399999995
 20
296.23432400000001
 11
441.73225399999995
 21
295.73432400000001
  0
LINE
  8
_0-4_A2
  6
HIDDEN
 62
    7
 10
441.73225399999995
 20
299.23432400000001
 11
441.73225399999995
 21
297.23432400000001
  0
ARC
  8
_0-4_A2
  6
CONTINUOUS
 62
    7
 10
443.45225300000004
 20
298.23432400000001
 40
3.5599999999999996
 50
140.39807300000001
 51
219.60192699999998
  0
ARC
  8
_0-4_A2
  6
CONTINUOUS
 62
    7
 10
441.45611400000001
 20
301.29112699999996
 40
1.08529
 50
226.51838799999998
 51
231.65881200000004
  0
ARC
  8
_0-4_A2
  6
CONTINUOUS
 62
    7
 10
440.63225299999993
 20
300.56739099999998
 40
0.1
 50
320.39807300000001
 51
0
  0
ARC
  8
_0-4_A2
  6
CONTINUOUS
 62
    7
 10
440.83225300000003
 20
303.697247
 40
0.1
 50
91.999999999999985
 51
180
  0
LINE
  8
_0-4_A2
  6
CONTINUOUS
 62
    7
 10
440.73225400000001
 20
295.90125699999998
 11
440.73225400000001
 21
292.77140100000002
  0
LINE
  8
_0-4_A2
  6
CONTINUOUS
 62
    7
 10
440.82876300000003
 20
292.77140100000002
 11
440.73225400000001
 21
292.77140100000002
  0
ARC
  8
_0-4_A2
  6
CONTINUOUS
 62
    7
 10
440.83225300000003
 20
292.77140100000002
 40
0.1
 50
180
 51
268
  0
LINE
  8
_0-4_A2
  6
CONTINUOUS
 62
    7
 10
440.73225400000001
 20
303.697247
 11
440.73225400000001
 21
300.56739099999998
  0
LINE
  8
_0-4_A2
  6
CONTINUOUS
 62
    7
 10
440.73225400000001
 20
303.697247
 11
440.82876300000003
 21
303.697247
  0
LINE
  8
_0-4_A2
  6
CONTINUOUS
 62
    7
 10
440.82876300000003
 20
300.56739099999998
 11
440.73225400000001
 21
300.56739099999998
  0
LINE
  8
_0-4_A2
  6
CONTINUOUS
 62
    7
 10
440.82876300000003
 20
295.90125699999998
 11
440.73225400000001
 21
295.90125699999998
  0
ARC
  8
_0-4_A2
  6
CONTINUOUS
 62
    7
 10
440.63225299999993
 20
295.90125699999998
 40
0.1
 50
0
 51
39.601927000000003
  0
ARC
  8
_0-4_A2
  6
CONTINUOUS
 62
    7
 10
441.45611400000001
 20
295.17752099999995
 40
1.08529
 50
128.34118799999998
 51
133.48161200000004
  0
LINE
  8
_0-4_A2
  6
CONTINUOUS
 62
    7
 10
441.53225299999996
 20
303.72181299999999
 11
441.53225299999996
 21
303.821753
  0
ARC
  8
_0-4_A2
  6
CONTINUOUS
 62
    7
 10
441.54571099999998
 20
303.74721699999997
 40
0.7186869999999999
 50
176.013067
 51
183.98693299999999
  0
LINE
  8
_0-4_A2
  6
CONTINUOUS
 62
    7
 10
441.53225299999996
 20
303.821753
 11
440.82876300000003
 21
303.79718600000001
  0
LINE
  8
_0-4_A2
  6
CONTINUOUS
 62
    7
 10
441.53225299999996
 20
292.74683499999997
 11
441.53225299999996
 21
292.64689600000002
  0
LINE
  8
_0-4_A2
  6
CONTINUOUS
 62
    7
 10
440.82876300000003
 20
292.67146200000001
 11
441.53225299999996
 21
292.64689600000002
  0
ARC
  8
_0-4_A2
  6
CONTINUOUS
 62
    7
 10
441.54571099999998
 20
292.72143199999999
 40
0.7186869999999999
 50
176.013067
 51
183.98693299999999
  0
LINE
  8
_0-4_A2
  6
CONTINUOUS
 62
    7
 10
441.53225299999996
 20
293.374324
 11
441.53225299999996
 21
292.74683499999997
  0
LINE
  8
_0-4_A2
  6
CONTINUOUS
 62
    7
 10
441.53225299999996
 20
292.74683499999997
 11
440.82876300000003
 21
292.77140100000002
  0
LINE
  8
_0-4_A2
  6
CONTINUOUS
 62
    7
 10
440.82876300000003
 20
292.77140100000002
 11
440.82876300000003
 21
295.90125699999998
  0
ARC
  8
_0-4_A2
  6
CONTINUOUS
 62
    7
 10
440.62876399999993
 20
295.90125699999998
 40
0.2
 50
0
 51
39.601927000000003
  0
ARC
  8
_0-4_A2
  6
CONTINUOUS
 62
    7
 10
443.44876400000003
 20
298.23432400000001
 40
3.4599999999999999
 50
140.39807300000001
 51
219.60192699999998
  0
ARC
  8
_0-4_A2
  6
CONTINUOUS
 62
    7
 10
440.62876399999993
 20
300.56739099999998
 40
0.2
 50
320.39807300000001
 51
0
  0
LINE
  8
_0-4_A2
  6
CONTINUOUS
 62
    7
 10
440.82876300000003
 20
300.56739099999998
 11
440.82876300000003
 21
303.697247
  0
LINE
  8
_0-4_A2
  6
CONTINUOUS
 62
    7
 10
440.82876300000003
 20
303.697247
 11
441.53225299999996
 21
303.72181299999999
  0
LINE
  8
_0-4_A2
  6
CONTINUOUS
 62
    7
 10
441.53225299999996
 20
303.09432399999997
 11
441.53225299999996
 21
303.72181299999999
  0
LINE
  8
_0-4_A2
  6
DASHED
 62
    7
 10
441.527377
 20
301.81219599999997
 11
441.51607699999999
 21
301.81219599999997
  0
LINE
  8
_0-4_A2
  6
DASHED
 62
    7
 10
441.52732599999995
 20
301.68924500000002
 11
441.52732599999995
 21
301.70313599999997
  0
LINE
  8
_0-4_A2
  6
DASHED
 62
    7
 10
441.52732599999995
 20
302.29868199999998
 11
441.52732599999995
 21
302.37940400000002
  0
LINE
  8
_0-4_A2
  6
DASHED
 62
    7
 10
441.52732599999995
 20
302.29868199999998
 11
441.53059199999995
 21
302.30947099999997
  0
LINE
  8
_0-4_A2
  6
DASHED
 62
    7
 10
441.53059199999995
 20
302.14203799999995
 11
441.52732599999995
 21
302.13124800000002
  0
LINE
  8
_0-4_A2
  6
DASHED
 62
    7
 10
441.52732599999995
 20
301.81252499999999
 11
441.52732599999995
 21
302.13124800000002
  0
ARC
  8
_0-4_A2
  6
DASHED
 62
    7
 10
443.51225299999998
 20
301.934324
 40
2
 50
183.66698599999998
 51
187.03869700000001
  0
ARC
  8
_0-4_A2
  6
DASHED
 62
    7
 10
443.51225299999998
 20
302.13432399999999
 40
2
 50
172.96130299999998
 51
177.19381899999999
  0
ARC
  8
_0-4_A2
  6
DASHED
 62
    7
 10
441.725819
 20
302.35489599999999
 40
0.2
 50
94.332055999999994
 51
172.96130299999998
  0
ARC
  8
_0-4_A2
  6
DASHED
 62
    7
 10
441.725819
 20
301.71375299999999
 40
0.2
 50
187.03869700000001
 51
265.66794399999997
  0
ARC
  8
_0-4_A2
  6
DASHED
 62
    7
 10
441.725819
 20
294.313735
 40
0.2
 50
187.03869700000001
 51
265.66794399999997
  0
ARC
  8
_0-4_A2
  6
DASHED
 62
    7
 10
441.725819
 20
294.954878
 40
0.2
 50
94.332055999999994
 51
172.96130299999998
  0
ARC
  8
_0-4_A2
  6
DASHED
 62
    7
 10
443.51225299999998
 20
294.73430699999994
 40
2
 50
172.96130299999998
 51
177.19381899999999
  0
ARC
  8
_0-4_A2
  6
DASHED
 62
    7
 10
443.51225299999998
 20
294.53430700000001
 40
2
 50
183.66698599999998
 51
187.03869700000001
  0
LINE
  8
_0-4_A2
  6
DASHED
 62
    7
 10
441.52732599999995
 20
294.412508
 11
441.52732599999995
 21
294.73122999999998
  0
LINE
  8
_0-4_A2
  6
DASHED
 62
    7
 10
441.53059199999995
 20
294.74202000000002
 11
441.52732599999995
 21
294.73122999999998
  0
LINE
  8
_0-4_A2
  6
DASHED
 62
    7
 10
441.52732599999995
 20
294.89866399999999
 11
441.53059199999995
 21
294.90945399999998
  0
LINE
  8
_0-4_A2
  6
DASHED
 62
    7
 10
441.52732599999995
 20
294.89866399999999
 11
441.52732599999995
 21
294.97938699999997
  0
LINE
  8
_0-4_A2
  6
DASHED
 62
    7
 10
441.52732599999995
 20
294.28922699999998
 11
441.52732599999995
 21
294.30311799999992
  0
LINE
  8
_0-4_A2
  6
DASHED
 62
    7
 10
441.527377
 20
294.41217799999998
 11
441.51607699999999
 21
294.41217799999998
  0
LINE
  8
_0-4_A2
  6
CONTINUOUS
 62
    7
 10
441.89225299999998
 20
293.374324
 11
441.89225299999998
 21
303.09432399999997
  0
ARC
  8
_0-4_A2
  6
CONTINUOUS
 62
    7
 10
441.89225299999998
 20
294.15430700000001
 40
0.0399999999999999
 50
270
 51
0
  0
ARC
  8
_0-4_A2
  6
CONTINUOUS
 62
    7
 10
441.89225299999998
 20
295.11430699999993
 40
0.0399999999999999
 50
0
 51
90
  0
ARC
  8
_0-4_A2
  6
CONTINUOUS
 62
    7
 10
441.89225299999998
 20
301.554324
 40
0.0399999999999999
 50
270
 51
0
  0
ARC
  8
_0-4_A2
  6
CONTINUOUS
 62
    7
 10
441.89225299999998
 20
302.51432399999998
 40
0.0399999999999999
 50
0
 51
90
  0
LINE
  8
_0-4_A2
  6
CONTINUOUS
 62
    7
 10
442.03225300000002
 20
297.83432399999998
 11
441.93225299999994
 21
297.83432399999998
  0
LINE
  8
_0-4_A2
  6
DASHED
 62
    7
 10
443.33225400000003
 20
293.76619399999998
 11
442.03225300000002
 21
293.83432399999998
  0
LINE
  8
_0-4_A2
  6
CONTINUOUS
 62
    7
 10
443.43225299999994
 20
294.63432399999999
 11
447.23487099999994
 21
294.63432399999999
  0
LINE
  8
_0-4_A2
  6
CONTINUOUS
 62
    7
 10
447.73225299999995
 20
296.23432400000001
 11
447.73225299999995
 21
294.08099900000001
  0
LINE
  8
_0-4_A2
  6
CONTINUOUS
 62
    7
 10
447.33225299999998
 20
296.23432400000001
 11
447.33225299999998
 21
294.63432399999999
  0
LINE
  8
_0-4_A2
  6
CONTINUOUS
 62
    7
 10
447.23487099999994
 20
293.56166699999999
 11
443.43225299999994
 21
293.76095299999997
  0
LINE
  8
_0-4_A2
  6
CONTINUOUS
 62
    7
 10
447.33225299999998
 20
294.09812299999998
 11
447.33225299999998
 21
293.55656299999998
  0
LINE
  8
_0-4_A2
  6
CONTINUOUS
 62
    7
 10
447.33225299999998
 20
293.55656299999998
 11
447.33039499999995
 21
293.55666000000002
  0
LINE
  8
_0-4_A2
  6
CONTINUOUS
 62
    7
 10
447.33039499999995
 20
293.55666000000002
 11
447.32488999999998
 21
293.55694899999997
  0
LINE
  8
_0-4_A2
  6
CONTINUOUS
 62
    7
 10
447.32488999999998
 20
293.55694899999997
 11
447.31594199999994
 21
293.55741699999998
  0
LINE
  8
_0-4_A2
  6
CONTINUOUS
 62
    7
 10
447.31594199999994
 20
293.55741699999998
 11
447.30388399999998
 21
293.55804999999998
  0
LINE
  8
_0-4_A2
  6
CONTINUOUS
 62
    7
 10
447.30388399999998
 20
293.55804999999998
 11
447.28916299999997
 21
293.55882100000002
  0
LINE
  8
_0-4_A2
  6
CONTINUOUS
 62
    7
 10
447.28916299999997
 20
293.55882100000002
 11
447.27232800000001
 21
293.55970300000001
  0
LINE
  8
_0-4_A2
  6
CONTINUOUS
 62
    7
 10
447.27232800000001
 20
293.55970300000001
 11
447.254004
 21
293.56066399999997
  0
LINE
  8
_0-4_A2
  6
CONTINUOUS
 62
    7
 10
447.254004
 20
293.56066399999997
 11
447.23487099999994
 21
293.56166699999999
  0
LINE
  8
_0-4_A2
  6
CONTINUOUS
 62
    7
 10
447.33225299999998
 20
294.09812299999998
 11
447.33225299999998
 21
294.29805399999997
  0
LINE
  8
_0-4_A2
  6
CONTINUOUS
 62
    7
 10
447.33225299999998
 20
294.63432399999999
 11
447.33225299999998
 21
294.29805399999997
  0
LINE
  8
_0-4_A2
  6
CONTINUOUS
 62
    7
 10
447.23487099999994
 20
294.63432399999999
 11
447.33225299999998
 21
294.63432399999999
  0
ARC
  8
_0-4_A2
  6
CONTINUOUS
 62
    7
 10
447.43225299999994
 20
293.87569399999995
 40
0.1
 50
91.5
 51
180
  0
LINE
  8
_0-4_A2
  6
CONTINUOUS
 62
    7
 10
447.63487099999997
 20
293.98103400000002
 11
447.42963600000001
 21
293.97565899999995
  0
ARC
  8
_0-4_A2
  6
CONTINUOUS
 62
    7
 10
447.63225299999999
 20
294.08099900000001
 40
0.1
 50
271.5
 51
0
  0
LINE
  8
_0-4_A2
  6
DASHED
 62
    7
 10
442.76945399999993
 20
297.74399899999997
 11
442.03225300000002
 21
297.73756500000001
  0
LINE
  8
_0-4_A2
  6
DASHED
 62
    7
 10
442.82534900000001
 20
297.46201999999999
 11
442.03225300000002
 21
297.434324
  0
LINE
  8
_0-4_A2
  6
DASHED
 62
    7
 10
442.03225300000002
 20
297.931083
 11
442.74702199999995
 21
297.924845
  0
LINE
  8
_0-4_A2
  6
DASHED
 62
    7
 10
442.77247099999999
 20
298.74402500000002
 11
442.03225300000002
 21
298.73756500000001
  0
LINE
  8
_0-4_A2
  6
DASHED
 62
    7
 10
442.03225300000002
 20
298.931083
 11
442.80634499999996
 21
298.924327
  0
LINE
  8
_0-4_A2
  6
DASHED
 62
    7
 10
443.23225299999995
 20
299.70293500000002
 11
442.03225300000002
 21
299.73435799999998
  0
LINE
  8
_0-4_A2
  6
DASHED
 62
    7
 10
442.03225300000002
 20
299.83432399999998
 11
443.23225299999995
 21
299.80290100000001
  0
LINE
  8
_0-4_A2
  6
DASHED
 62
    7
 10
442.73225300000001
 20
295.33432399999998
 11
442.73225300000001
 21
294.73432400000001
  0
LINE
  8
_0-4_A2
  6
DASHED
 62
    7
 10
442.13225399999993
 20
295.23432400000001
 11
442.90545800000001
 21
295.23432400000001
  0
LINE
  8
_0-4_A2
  6
DASHED
 62
    7
 10
442.13225399999993
 20
295.33432399999998
 11
442.73225300000001
 21
295.33432399999998
  0
ARC
  8
_0-4_A2
  6
DASHED
 62
    7
 10
442.73225300000001
 20
295.13432399999999
 40
0.2
 50
0
 51
90
  0
LINE
  8
_0-4_A2
  6
DASHED
 62
    7
 10
442.93225299999994
 20
295.13432399999999
 11
442.93225299999994
 21
294.934324
  0
LINE
  8
_0-4_A2
  6
DASHED
 62
    7
 10
442.03225300000002
 20
302.33432399999998
 11
443.13225299999999
 21
302.33432399999998
  0
LINE
  8
_0-4_A2
  6
CENTER
 62
    7
 10
443.23225399999995
 20
302.03432400000002
 11
442.03225300000002
 21
302.03432400000002
  0
LINE
  8
_0-4_A2
  6
DASHED
 62
    7
 10
442.13225399999993
 20
301.73432400000001
 11
443.03225299999996
 21
301.73432400000001
  0
LINE
  8
_0-4_A2
  6
DASHED
 62
    7
 10
443.13225299999999
 20
302.33432399999998
 11
443.13225299999999
 21
301.73432400000001
  0
LINE
  8
_0-4_A2
  6
DASHED
 62
    7
 10
443.03225299999996
 20
301.73432400000001
 11
443.13225299999999
 21
301.73432400000001
  0
LINE
  8
_0-4_A2
  6
CONTINUOUS
 62
    7
 10
443.33225400000003
 20
301.23432400000001
 11
442.90545800000001
 21
301.23432400000001
  0
LINE
  8
_0-4_A2
  6
CONTINUOUS
 62
    7
 10
443.33225400000003
 20
301.43432399999994
 11
442.93225299999994
 21
301.43432399999994
  0
LINE
  8
_0-4_A2
  6
DASHED
 62
    7
 10
450.23225300000001
 20
301.23432400000001
 11
450.23225300000001
 21
300.934324
  0
LINE
  8
_0-4_A2
  6
CONTINUOUS
 62
    7
 10
444.93225299999994
 20
301.23432400000001
 11
444.93225299999994
 21
300.23432400000001
  0
LINE
  8
_0-4_A2
  6
DASHED
 62
    7
 10
449.93225699999999
 20
301.23432400000001
 11
449.93225699999999
 21
300.23432400000001
  0
LINE
  8
_0-4_A2
  6
CENTER
 62
    7
 10
447.33225299999998
 20
301.861243
 11
447.33225299999998
 21
300.23432400000001
  0
LINE
  8
_0-4_A2
  6
DASHED
 62
    7
 10
449.73225300000001
 20
301.43432399999994
 11
449.47225300000002
 21
301.43432399999994
  0
LINE
  8
_0-4_A2
  6
DASHED
 62
    7
 10
450.23225300000001
 20
301.23432400000001
 11
449.47225300000002
 21
301.23432400000001
  0
LINE
  8
_0-4_A2
  6
DASHED
 62
    7
 10
449.73225300000001
 20
301.43432399999994
 11
449.73225300000001
 21
301.23432400000001
  0
LINE
  8
_0-4_A2
  6
CONTINUOUS
 62
    7
 10
447.03225299999996
 20
301.73432400000001
 11
447.63225299999999
 21
301.73432400000001
  0
LINE
  8
_0-4_A2
  6
CONTINUOUS
 62
    7
 10
447.03225299999996
 20
301.43432399999994
 11
447.03225299999996
 21
301.73432400000001
  0
LINE
  8
_0-4_A2
  6
CONTINUOUS
 62
    7
 10
447.63225299999999
 20
301.43432399999994
 11
447.63225299999999
 21
301.73432400000001
  0
LINE
  8
_0-4_A2
  6
DASHED
 62
    7
 10
450.23225300000001
 20
300.934324
 11
449.93225699999999
 21
300.934324
  0
LINE
  8
_0-4_A2
  6
DASHED
 62
    7
 10
443.33225400000003
 20
294.63432399999999
 11
442.04727499999995
 21
294.63432399999999
  0
LINE
  8
_0-4_A2
  6
DASHED
 62
    7
 10
442.03225300000002
 20
298.23432400000001
 11
442.03225300000002
 21
293.83432399999998
  0
LINE
  8
_0-4_A2
  6
CONTINUOUS
 62
    7
 10
443.34563100000002
 20
303.10627999999996
 11
443.07367499999998
 21
302.83432399999998
  0
LINE
  8
_0-4_A2
  6
CONTINUOUS
 62
    7
 10
443.27367500000002
 20
303.175746
 11
443.00296400000001
 21
302.90503499999999
  0
ARC
  8
_0-4_A2
  6
CONTINUOUS
 62
    7
 10
443.41509599999994
 20
303.03432400000002
 40
0.2
 50
90
 51
135
  0
LINE
  8
_0-4_A2
  6
CONTINUOUS
 62
    7
 10
443.07367499999998
 20
302.83432399999998
 11
443.00296400000001
 21
302.90503499999999
  0
LINE
  8
_0-4_A2
  6
CONTINUOUS
 62
    7
 10
443.41509599999994
 20
303.23432400000001
 11
443.53225400000002
 21
303.23432400000001
  0
LINE
  8
_0-4_A2
  6
CENTER
 62
    7
 10
451.81137000000001
 20
298.23432400000001
 11
438.78727600000001
 21
298.23432400000001
  0
LINE
  8
_0-4_A2
  6
CONTINUOUS
 62
    7
 10
443.23225299999995
 20
297.36432400000001
 11
443.23225299999995
 21
299.10432400000001
  0
LINE
  8
_0-4_A2
  6
CONTINUOUS
 62
    7
 10
442.83225299999998
 20
298.35432400000001
 11
442.83225299999998
 21
299.03432400000002
  0
LINE
  8
_0-4_A2
  6
CONTINUOUS
 62
    7
 10
442.83225299999998
 20
299.03432400000002
 11
443.23225299999995
 21
299.10432400000001
  0
LINE
  8
_0-4_A2
  6
CONTINUOUS
 62
    7
 10
442.83225299999998
 20
297.434324
 11
443.23225299999995
 21
297.36432400000001
  0
ARC
  8
_0-4_A2
  6
CONTINUOUS
 62
    7
 10
445.98225300000001
 20
298.23432400000001
 40
3.25
 50
165.74996699999999
 51
177.883983
  0
LINE
  8
_0-4_A2
  6
CONTINUOUS
 62
    7
 10
442.91225299999996
 20
298.11432400000001
 11
442.91225299999996
 21
298.35432400000001
  0
LINE
  8
_0-4_A2
  6
CONTINUOUS
 62
    7
 10
442.91225299999996
 20
298.35432400000001
 11
442.73446899999993
 21
298.35432400000001
  0
LINE
  8
_0-4_A2
  6
CONTINUOUS
 62
    7
 10
442.91225299999996
 20
298.11432400000001
 11
442.73446899999993
 21
298.11432400000001
  0
ARC
  8
_0-4_A2
  6
CONTINUOUS
 62
    7
 10
445.98225300000001
 20
298.23432400000001
 40
3.25
 50
182.11601699999999
 51
194.250033
  0
LINE
  8
_0-4_A2
  6
CONTINUOUS
 62
    7
 10
442.83225299999998
 20
298.11432400000001
 11
442.83225299999998
 21
297.434324
  0
LINE
  8
_0-4_A2
  6
CONTINUOUS
 62
    7
 10
444.43225299999994
 20
297.83432399999998
 11
444.43225299999994
 21
298.63432399999999
  0
LINE
  8
_0-4_A2
  6
CONTINUOUS
 62
    7
 10
444.43225299999994
 20
298.63432399999999
 11
443.53225300000002
 21
298.63432399999999
  0
LINE
  8
_0-4_A2
  6
CONTINUOUS
 62
    7
 10
444.43225299999994
 20
297.83432399999998
 11
443.53225300000002
 21
297.83432399999998
  0
LINE
  8
_0-4_A2
  6
CONTINUOUS
 62
    7
 10
444.43225299999994
 20
298.494324
 11
443.53225300000002
 21
298.494324
  0
LINE
  8
_0-4_A2
  6
CONTINUOUS
 62
    7
 10
444.43225299999994
 20
297.97432400000002
 11
443.53225300000002
 21
297.97432400000002
  0
LINE
  8
_0-4_A2
  6
DASHED
 62
    7
 10
442.13225399999993
 20
295.38432399999999
 11
442.13225399999993
 21
294.68432399999994
  0
LINE
  8
_0-4_A2
  6
DASHED
 62
    7
 10
442.13225399999993
 20
294.83432399999998
 11
442.90545800000001
 21
294.83432399999998
  0
LINE
  8
_0-4_A2
  6
DASHED
 62
    7
 10
442.13225399999993
 20
294.73432400000001
 11
442.73225300000001
 21
294.73432400000001
  0
ARC
  8
_0-4_A2
  6
DASHED
 62
    7
 10
442.73225300000001
 20
294.934324
 40
0.2
 50
270
 51
0
  0
LINE
  8
_0-4_A2
  6
CONTINUOUS
 62
    7
 10
441.93225299999994
 20
293.83432399999998
 11
443.33225400000003
 21
293.83432399999998
  0
LINE
  8
_0-4_A2
  6
CONTINUOUS
 62
    7
 10
441.93225299999994
 20
302.63432399999999
 11
443.33225400000003
 21
302.63432399999999
  0
LINE
  8
_0-4_A2
  6
DASHED
 62
    7
 10
442.03225300000002
 20
298.23432400000001
 11
442.03225300000002
 21
302.63432399999999
  0
LINE
  8
_0-4_A2
  6
DASHED
 62
    7
 10
442.73225300000001
 20
301.13432399999999
 11
442.73225300000001
 21
301.73432400000001
  0
LINE
  8
_0-4_A2
  6
DASHED
 62
    7
 10
442.13225399999993
 20
301.08432399999992
 11
442.13225399999993
 21
301.78432399999996
  0
ARC
  8
_0-4_A2
  6
DASHED
 62
    7
 10
442.73225300000001
 20
301.53432400000002
 40
0.2
 50
0
 51
90
  0
LINE
  8
_0-4_A2
  6
DASHED
 62
    7
 10
442.13225399999993
 20
301.78432399999996
 11
442.03225300000002
 21
301.78432399999996
  0
LINE
  8
_0-4_A2
  6
DASHED
 62
    7
 10
442.13225399999993
 20
301.73432400000001
 11
442.73225300000001
 21
301.73432400000001
  0
LINE
  8
_0-4_A2
  6
DASHED
 62
    7
 10
442.13225399999993
 20
301.63432399999999
 11
442.90545800000001
 21
301.63432399999999
  0
LINE
  8
_0-4_A2
  6
DASHED
 62
    7
 10
442.93225299999994
 20
301.33432399999998
 11
442.93225299999994
 21
301.53432400000002
  0
ARC
  8
_0-4_A2
  6
DASHED
 62
    7
 10
442.73225300000001
 20
301.33432399999998
 40
0.2
 50
270
 51
0
  0
LINE
  8
_0-4_A2
  6
DASHED
 62
    7
 10
442.13225399999993
 20
301.13432399999999
 11
442.73225300000001
 21
301.13432399999999
  0
LINE
  8
_0-4_A2
  6
DASHED
 62
    7
 10
442.13225399999993
 20
301.23432400000001
 11
442.90545800000001
 21
301.23432400000001
  0
LINE
  8
_0-4_A2
  6
CONTINUOUS
 62
    7
 10
442.03225300000002
 20
298.63432399999999
 11
441.93225299999994
 21
298.63432399999999
  0
LINE
  8
_0-4_A2
  6
DASHED
 62
    7
 10
442.13225399999993
 20
301.08432399999992
 11
442.03225300000002
 21
301.08432399999992
  0
LINE
  8
_0-4_A2
  6
DASHED
 62
    7
 10
442.13225399999993
 20
294.68432399999994
 11
442.03225300000002
 21
294.68432399999994
  0
ARC
  8
_0-4_A2
  6
PHANTOM
 62
    7
 10
441.69225299999999
 20
295.85432400000001
 40
0.0399999999999999
 50
270
 51
0
  0
ARC
  8
_0-4_A2
  6
PHANTOM
 62
    7
 10
441.52581900000001
 20
296.013753
 40
0.2
 50
188.46139699999997
 51
265.66794399999992
  0
ARC
  8
_0-4_A2
  6
PHANTOM
 62
    7
 10
441.52581900000001
 20
296.654896
 40
0.2
 50
94.332055999999994
 51
171.53860300000002
  0
ARC
  8
_0-4_A2
  6
PHANTOM
 62
    7
 10
441.69225299999999
 20
296.81432399999999
 40
0.0399999999999999
 50
0
 51
90
  0
LINE
  8
_0-4_A2
  6
PHANTOM
 62
    7
 10
441.51071099999995
 20
295.81432399999994
 11
441.69225399999999
 21
295.81432399999994
  0
LINE
  8
_0-4_A2
  6
PHANTOM
 62
    7
 10
441.612253
 20
295.98432400000001
 11
441.32799599999998
 21
295.98432400000001
  0
LINE
  8
_0-4_A2
  6
PHANTOM
 62
    7
 10
441.612253
 20
296.684324
 11
441.612253
 21
295.98432400000001
  0
LINE
  8
_0-4_A2
  6
PHANTOM
 62
    7
 10
441.32799599999998
 20
296.684324
 11
441.612253
 21
296.684324
  0
LINE
  8
_0-4_A2
  6
PHANTOM
 62
    7
 10
441.69225399999999
 20
296.85432400000001
 11
441.51071099999995
 21
296.85432400000001
  0
LINE
  8
_0-4_A2
  6
PHANTOM
 62
    7
 10
441.612253
 20
296.13432399999999
 11
441.31607699999995
 21
296.13432399999999
  0
LINE
  8
_0-4_A2
  6
PHANTOM
 62
    7
 10
441.612253
 20
296.23432400000001
 11
441.31607699999995
 21
296.23432400000001
  0
LINE
  8
_0-4_A2
  6
PHANTOM
 62
    7
 10
441.612253
 20
296.53432399999996
 11
441.31607699999995
 21
296.53432399999996
  0
LINE
  8
_0-4_A2
  6
PHANTOM
 62
    7
 10
441.612253
 20
296.434324
 11
441.31607699999995
 21
296.434324
  0
LINE
  8
_0-4_A2
  6
PHANTOM
 62
    7
 10
441.73225299999995
 20
296.03432400000002
 11
442.93225299999994
 21
296.03432400000002
  0
LINE
  8
_0-4_A2
  6
PHANTOM
 62
    7
 10
442.93225299999994
 20
296.63432399999999
 11
441.73225299999995
 21
296.63432399999999
  0
LINE
  8
_0-4_A2
  6
PHANTOM
 62
    7
 10
442.93225299999994
 20
296.63432399999999
 11
442.93225299999994
 21
296.03432400000002
  0
ARC
  8
_0-4_A2
  6
CONTINUOUS
 62
    7
 10
439.82876499999997
 20
297.77452599999998
 40
0.0771919999999999
 50
187.613168
 51
262.67268999999998
  0
LINE
  8
_0-4_A2
  6
CONTINUOUS
 62
    7
 10
439.84353799999996
 20
297.43669499999998
 11
439.84353799999996
 21
297.42633799999998
  0
LINE
  8
_0-4_A2
  6
CONTINUOUS
 62
    7
 10
439.84369500000002
 20
297.43623300000001
 11
439.84353799999996
 21
297.43669499999998
  0
LINE
  8
_0-4_A2
  6
CONTINUOUS
 62
    7
 10
439.75225299999999
 20
297.525957
 11
439.75225299999999
 21
297.53503799999998
  0
ARC
  8
_0-4_A2
  6
CONTINUOUS
 62
    7
 10
439.81579099999993
 20
297.55799999999999
 40
0.14
 50
17.836241999999998
 51
88.719406000000006
  0
ARC
  8
_0-4_A2
  6
CONTINUOUS
 62
    7
 10
439.85225299999996
 20
297.525957
 40
0.1
 50
180
 51
265
  0
ARC
  8
_0-4_A2
  6
CONTINUOUS
 62
    7
 10
439.85225399999995
 20
297.53331600000001
 40
0.1
 50
179.99947299999999
 51
263.34605200000004
  0
ARC
  8
_0-4_A2
  6
CONTINUOUS
 62
    7
 10
439.85225399999995
 20
298.93533200000001
 40
0.1
 50
96.653947999999999
 51
180.00052700000003
  0
ARC
  8
_0-4_A2
  6
CONTINUOUS
 62
    7
 10
439.85225299999996
 20
298.94269100000002
 40
0.1
 50
95
 51
180
  0
ARC
  8
_0-4_A2
  6
CONTINUOUS
 62
    7
 10
439.81579099999993
 20
298.91064799999992
 40
0.14
 50
271.28059400000006
 51
342.16375799999997
  0
LINE
  8
_0-4_A2
  6
CONTINUOUS
 62
    7
 10
439.75225299999999
 20
298.94269100000002
 11
439.75225299999999
 21
298.93361099999992
  0
LINE
  8
_0-4_A2
  6
CONTINUOUS
 62
    7
 10
439.84369500000002
 20
299.03241500000001
 11
439.84353799999996
 21
299.03195299999993
  0
LINE
  8
_0-4_A2
  6
CONTINUOUS
 62
    7
 10
439.84353799999996
 20
299.03195299999993
 11
439.84353799999996
 21
299.04230999999998
  0
ARC
  8
_0-4_A2
  6
CONTINUOUS
 62
    7
 10
439.82876499999997
 20
298.69412199999999
 40
0.0771919999999999
 50
97.327309999999982
 51
172.38683199999999
  0
LINE
  8
_0-4_A2
  6
DASHED
 62
    7
 10
449.47225300000002
 20
303.13432399999999
 11
450.35509599999994
 21
303.13432399999999
  0
LINE
  8
_0-4_A2
  6
CONTINUOUS
 62
    7
 10
449.47225300000002
 20
303.23432400000001
 11
447.58941100000004
 21
303.23432400000001
  0
LINE
  8
_0-4_A2
  6
CONTINUOUS
 62
    7
 10
449.47225300000002
 20
301.43432399999994
 11
443.43225299999994
 21
301.43432399999994
  0
LINE
  8
_0-4_A2
  6
CONTINUOUS
 62
    7
 10
449.47225300000002
 20
301.23432400000001
 11
443.43225299999994
 21
301.23432400000001
  0
LINE
  8
_0-4_A2
  6
DASHED
 62
    7
 10
449.47225300000002
 20
300.23432400000001
 11
450.07225299999993
 21
300.23432400000001
  0
LINE
  8
_0-4_A2
  6
CONTINUOUS
 62
    7
 10
449.47225300000002
 20
293.33432399999998
 11
447.58941100000004
 21
293.33432399999998
  0
LINE
  8
_0-4_A2
  6
DASHED
 62
    7
 10
449.47225300000002
 20
293.23432400000001
 11
450.35509599999994
 21
293.23432400000001
  0
LINE
  8
_0-4_A2
  6
DASHED
 62
    7
 10
449.47225300000002
 20
296.23432400000001
 11
450.07225299999993
 21
296.23432400000001
  0
LINE
  8
_0-4_A2
  6
CONTINUOUS
 62
    7
 10
422.60393099999998
 20
238.23433799999997
 11
422.60393099999998
 21
245.73433799999997
  0
LINE
  8
_0-4_A2
  6
CONTINUOUS
 62
    7
 10
422.60393099999998
 20
245.73433799999997
 11
422.60393099999998
 21
265.81749100000001
  0
LINE
  8
_0-4_A2
  6
CONTINUOUS
 62
    7
 10
434.30926299999993
 20
238.23433799999997
 11
421.46093099999995
 21
238.23433799999997
  0
LINE
  8
_0-4_A2
  6
CONTINUOUS
 62
    7
 10
434.49163899999996
 20
245.73433799999997
 11
421.46093099999995
 21
245.73433799999997
  0
LINE
  8
_0-4_A2
  6
CONTINUOUS
 62
    7
 10
422.60393099999998
 20
238.23433799999997
 11
422.60393099999998
 21
235.69433800000001
  0
LINE
  8
_0-4_A2
  6
CONTINUOUS
 62
    7
 10
422.60393099999998
 20
245.73433799999997
 11
422.60393099999998
 21
248.274338
  0
INSERT
  2
-000-_DOTSMALL
  8
_0-4_A2
 10
422.60393099999998
 20
238.23433799999997
 41
1.2373333333333333
 42
1.2373333333333333
 50
90
  0
INSERT
  2
-000-_DOTSMALL
  8
_0-4_A2
 10
422.60393099999998
 20
245.73433799999997
 41
1.2373333333333333
 42
1.2373333333333333
 50
270
  0
LINE
  8
_0-4_A2
  6
CONTINUOUS
 62
    7
 10
339.91007799999999
 20
378.540163
 11
339.91007799999999
 21
364.318802
  0
LINE
  8
_0-4_A2
  6
CONTINUOUS
 62
    7
 10
323.24406599999997
 20
378.540163
 11
341.05307800000002
 21
378.540163
  0
LINE
  8
_0-4_A2
  6
CONTINUOUS
 62
    7
 10
322.144066
 20
364.318802
 11
341.05307800000002
 21
364.318802
  0
INSERT
  2
-000-_DOTSMALL
  8
_0-4_A2
 10
339.91007799999999
 20
378.540163
 41
1.2373333333333333
 42
1.2373333333333333
 50
90
  0
INSERT
  2
-000-_DOTSMALL
  8
_0-4_A2
 10
339.91007799999999
 20
364.318802
 41
1.2373333333333333
 42
1.2373333333333333
 50
270
  0
LINE
  8
_0-4_A2
  6
CONTINUOUS
 62
    7
 10
283.41798099999999
 20
364.318802
 11
283.41798099999999
 21
387.318802
  0
LINE
  8
_0-4_A2
  6
CONTINUOUS
 62
    7
 10
283.41798099999999
 20
349.292056
 11
283.41798099999999
 21
364.318802
  0
LINE
  8
_0-4_A2
  6
CONTINUOUS
 62
    7
 10
295.20407099999999
 20
364.318802
 11
282.27498100000002
 21
364.318802
  0
LINE
  8
_0-4_A2
  6
CONTINUOUS
 62
    7
 10
301.61913900000001
 20
387.318802
 11
282.27498100000002
 21
387.318802
  0
INSERT
  2
-000-_DOTSMALL
  8
_0-4_A2
 10
283.41798099999999
 20
364.318802
 41
1.2373333333333333
 42
1.2373333333333333
 50
270
  0
INSERT
  2
-000-_DOTSMALL
  8
_0-4_A2
 10
283.41798099999999
 20
387.318802
 41
1.2373333333333333
 42
1.2373333333333333
 50
90
  0
LINE
  8
_0-4_A2
  6
CONTINUOUS
 62
    7
 10
321.97406599999999
 20
347.69048399999996
 11
295.37407100000001
 21
347.69048399999996
  0
LINE
  8
_0-4_A2
  6
CONTINUOUS
 62
    7
 10
321.97406599999999
 20
364.14880099999999
 11
321.97406599999999
 21
346.54748399999999
  0
LINE
  8
_0-4_A2
  6
CONTINUOUS
 62
    7
 10
295.37407100000001
 20
364.14880099999999
 11
295.37407100000001
 21
346.54748399999999
  0
INSERT
  2
-000-_DOTSMALL
  8
_0-4_A2
 10
321.97406599999999
 20
347.69048399999996
 41
1.2373333333333333
 42
1.2373333333333333
 50
0
  0
INSERT
  2
-000-_DOTSMALL
  8
_0-4_A2
 10
295.37407100000001
 20
347.69048399999996
 41
1.2373333333333333
 42
1.2373333333333333
 50
180
  0
TEXT
  8
_0-4_A2
 62
    7
 10
423.89835874999999
 20
317.435134
 40
4.5
 41
0.733333
 50
0
  1
５
  0
CIRCLE
  8
_0-4_A2
  6
CONTINUOUS
 62
    7
 10
425.54835799999995
 20
319.685134
 40
3
  0
TEXT
  8
_0-4_A2
 62
    7
 10
334.69674674999998
 20
246.02904699999999
 40
4.5
 41
0.733333
 50
0
  1
４
  0
CIRCLE
  8
_0-4_A2
  6
CONTINUOUS
 62
    7
 10
336.34674599999999
 20
248.27904699999999
 40
3
  0
TEXT
  8
_0-4_A2
 62
    7
 10
188.62360374999997
 20
252.51158300000003
 40
4.5
 41
0.733333
 50
0
  1
３
  0
CIRCLE
  8
_0-4_A2
  6
CONTINUOUS
 62
    7
 10
190.27360299999998
 20
254.76158300000003
 40
3
  0
TEXT
  8
_0-4_A2
 62
    7
 10
187.75926475000002
 20
318.63344999999998
 40
4.5
 41
0.733333
 50
0
  1
２
  0
CIRCLE
  8
_0-4_A2
  6
CONTINUOUS
 62
    7
 10
189.409264
 20
320.88344999999998
 40
3
  0
TEXT
  8
_0-4_A2
 62
    7
 10
244.03553375000001
 20
319.82780400000001
 40
4.5
 41
0.733333
 50
0
  1
１
  0
CIRCLE
  8
_0-4_A2
  6
CONTINUOUS
 62
    7
 10
245.68553300000004
 20
322.07780400000001
 40
3
  0
LINE
  8
_0-4_A2
  6
DASHED
 62
    3
 10
450.47225300000002
 20
300.25433499999996
 11
451.47796800000003
 21
301.26004899999998
  0
LINE
  8
_0-4_A2
  6
DASHED
 62
    3
 10
450.06178800000003
 20
291.74461400000001
 11
456.90194199999996
 21
291.86401
  0
LINE
  8
_0-4_A2
  6
DASHED
 62
    3
 10
450.06178800000003
 20
304.72403400000001
 11
456.90193699999997
 21
304.60463900000002
  0
LINE
  8
_0-4_A2
  6
DASHED
 62
    3
 10
450.64744599999994
 20
295.31242800000001
 11
458.47224399999993
 21
294.33432800000002
  0
LINE
  8
_0-4_A2
  6
DASHED
 62
    3
 10
458.472217
 20
302.13432999999997
 11
451.47796800000003
 21
301.26004899999998
  0
LINE
  8
_0-4_A2
  6
DASHED
 62
    3
 10
458.472259
 20
293.434324
 11
458.472259
 21
294.33432599999991
  0
LINE
  8
_0-4_A2
  6
DASHED
 62
    3
 10
456.90194199999996
 20
291.86401
 11
458.47225800000001
 21
293.43432599999999
  0
LINE
  8
_0-4_A2
  6
DASHED
 62
    3
 10
458.472259
 20
303.03432400000002
 11
458.472259
 21
302.13433599999996
  0
LINE
  8
_0-4_A2
  6
DASHED
 62
    3
 10
456.90193699999997
 20
304.60463900000002
 11
458.47225500000001
 21
303.03431999999997
  0
ARC
  8
_0-4_A2
  6
DASHED
 62
    3
 10
450.07225900000003
 20
305.32394199999998
 40
0.5999999999999999
 50
180
 51
269
  0
ARC
  8
_0-4_A2
  6
DASHED
 62
    3
 10
450.07225900000003
 20
291.14470599999998
 40
0.5999999999999999
 50
91
 51
180
  0
ARC
  8
_0-4_A2
  6
DASHED
 62
    3
 10
450.67225300000001
 20
295.51088299999997
 40
0.2
 50
180
 51
262.87498399999998
  0
LINE
  8
_0-4_A2
  6
PHANTOM
 62
    7
 10
459.44948199999998
 20
162.13433800000001
 11
457.97215900000003
 21
162.13433800000001
  0
LINE
  8
_0-4_A2
  6
PHANTOM
 62
    7
 10
460.87225899999998
 20
163.334338
 11
459.39142999999995
 21
163.334338
  0
LINE
  8
_0-4_A2
  6
PHANTOM
 62
    7
 10
459.44956899999999
 20
162.13433800000001
 11
459.41455499999995
 21
158.12212099999999
  0
LINE
  8
_0-4_A2
  6
PHANTOM
 62
    7
 10
458.86598000000003
 20
164.670073
 11
458.624097
 21
164.03788199999999
  0
LINE
  8
_0-4_A2
  6
PHANTOM
 62
    7
 10
458.59661199999993
 20
162.73433800000003
 11
458.57215899999994
 21
162.73433800000003
  0
LINE
  8
_0-4_A2
  6
PHANTOM
 62
    7
 10
458.48447899999996
 20
163.234338
 11
457.97215900000003
 21
163.234338
  0
LINE
  8
_0-4_A2
  6
PHANTOM
 62
    7
 10
458.58447899999998
 20
163.82347300000003
 11
458.58447899999998
 21
163.334338
  0
LINE
  8
_0-4_A2
  6
PHANTOM
 62
    7
 10
459.47005899999993
 20
164.48215600000003
 11
459.44956899999999
 21
162.13433800000001
  0
LINE
  8
_0-4_A2
  6
PHANTOM
 62
    7
 10
459.39142999999995
 20
164.734338
 11
459.39142999999995
 21
163.334338
  0
LINE
  8
_0-4_A2
  6
PHANTOM
 62
    7
 10
457.97215900000003
 20
163.234338
 11
457.97215900000003
 21
162.13433800000001
  0
LINE
  8
_0-4_A2
  6
PHANTOM
 62
    7
 10
459.19661200000001
 20
164.734338
 11
459.19661200000001
 21
163.334338
  0
LINE
  8
_0-4_A2
  6
PHANTOM
 62
    7
 10
458.014609
 20
156.73433800000003
 11
437.16536200000001
 21
156.73433800000003
  0
LINE
  8
_0-4_A2
  6
PHANTOM
 62
    7
 10
460.87225899999998
 20
164.63433800000001
 11
460.87225899999998
 21
163.334338
  0
LINE
  8
_0-4_A2
  6
PHANTOM
 62
    7
 10
459.59493699999995
 20
164.63433800000001
 11
459.59493699999995
 21
163.334338
  0
LINE
  8
_0-4_A2
  6
PHANTOM
 62
    7
 10
460.77225900000001
 20
164.734338
 11
435.76163999999994
 21
164.734338
  0
LINE
  8
_0-4_A2
  6
PHANTOM
 62
    7
 10
450.50944900000001
 20
164.734338
 11
450.50944900000001
 21
156.73433800000003
  0
LINE
  8
_0-4_A2
  6
PHANTOM
 62
    7
 10
435.51164899999997
 20
164.48215600000003
 11
435.56542199999995
 21
158.32037500000001
  0
ARC
  8
_0-4_A2
  6
PHANTOM
 62
    7
 10
459.07137099999999
 20
164.63433800000001
 40
0.1
 50
90
 51
179.5
  0
ARC
  8
_0-4_A2
  6
PHANTOM
 62
    7
 10
435.91033700000002
 20
164.63433800000001
 40
0.1
 50
0.5
 51
90
  0
ARC
  8
_0-4_A2
  6
PHANTOM
 62
    7
 10
437.16536200000001
 20
158.334338
 40
1.6
 50
180.5
 51
270
  0
ARC
  8
_0-4_A2
  6
PHANTOM
 62
    7
 10
460.77225900000001
 20
164.63433800000001
 40
0.1
 50
0
 51
90
  0
ARC
  8
_0-4_A2
  6
PHANTOM
 62
    7
 10
459.49493699999993
 20
164.63433800000001
 40
0.1
 50
0
 51
90
  0
ARC
  8
_0-4_A2
  6
PHANTOM
 62
    7
 10
460.073935
 20
163.334338
 40
0.5999999999999999
 50
270
 51
0
  0
ARC
  8
_0-4_A2
  6
PHANTOM
 62
    7
 10
460.04948200000001
 20
162.13433800000001
 40
0.5999999999999999
 50
90
 51
180
  0
ARC
  8
_0-4_A2
  6
PHANTOM
 62
    7
 10
459.18447899999995
 20
163.82347300000003
 40
0.5999999999999999
 50
159.062555
 51
180
  0
ARC
  8
_0-4_A2
  6
PHANTOM
 62
    7
 10
458.95937700000001
 20
164.63433800000001
 40
0.1
 50
90
 51
159.06255499999997
  0
ARC
  8
_0-4_A2
  6
PHANTOM
 62
    7
 10
458.59661199999993
 20
163.334338
 40
0.5999999999999999
 50
270
 51
0
  0
ARC
  8
_0-4_A2
  6
PHANTOM
 62
    7
 10
458.48447899999996
 20
163.334338
 40
0.1
 50
270
 51
0
  0
ARC
  8
_0-4_A2
  6
PHANTOM
 62
    7
 10
458.57215899999994
 20
162.13433800000001
 40
0.5999999999999999
 50
90
 51
180
  0
ARC
  8
_0-4_A2
  6
PHANTOM
 62
    7
 10
459.22006799999996
 20
164.484338
 40
0.25
 50
359.5
 51
89.999999999999971
  0
ARC
  8
_0-4_A2
  6
PHANTOM
 62
    7
 10
458.014609
 20
158.13433800000001
 40
1.3999999999999999
 50
270
 51
359.5
  0
ARC
  8
_0-4_A2
  6
PHANTOM
 62
    7
 10
435.76163999999994
 20
164.484338
 40
0.25
 50
90
 51
180.5
  0
LINE
  8
_0-4_A2
  6
PHANTOM
 62
    7
 10
459.44948199999998
 20
210.13433800000001
 11
457.97215900000003
 21
210.13433800000001
  0
LINE
  8
_0-4_A2
  6
PHANTOM
 62
    7
 10
460.87225899999998
 20
211.334338
 11
459.39142999999995
 21
211.334338
  0
LINE
  8
_0-4_A2
  6
PHANTOM
 62
    7
 10
459.44956899999999
 20
210.13433800000001
 11
459.41455499999995
 21
206.12212099999999
  0
LINE
  8
_0-4_A2
  6
PHANTOM
 62
    7
 10
458.86598000000003
 20
212.670073
 11
458.624097
 21
212.03788199999999
  0
LINE
  8
_0-4_A2
  6
PHANTOM
 62
    7
 10
458.59661199999993
 20
210.73433800000003
 11
458.57215899999994
 21
210.73433800000003
  0
LINE
  8
_0-4_A2
  6
PHANTOM
 62
    7
 10
458.48447899999996
 20
211.23433799999997
 11
457.97215900000003
 21
211.23433799999997
  0
LINE
  8
_0-4_A2
  6
PHANTOM
 62
    7
 10
458.58447899999998
 20
211.82347300000003
 11
458.58447899999998
 21
211.334338
  0
LINE
  8
_0-4_A2
  6
PHANTOM
 62
    7
 10
459.47005899999993
 20
212.48215600000003
 11
459.44956899999999
 21
210.13433800000001
  0
LINE
  8
_0-4_A2
  6
PHANTOM
 62
    7
 10
459.39142999999995
 20
212.73433799999997
 11
459.39142999999995
 21
211.334338
  0
LINE
  8
_0-4_A2
  6
PHANTOM
 62
    7
 10
457.97215900000003
 20
211.23433799999997
 11
457.97215900000003
 21
210.13433800000001
  0
LINE
  8
_0-4_A2
  6
PHANTOM
 62
    7
 10
459.19661200000001
 20
212.73433799999997
 11
459.19661200000001
 21
211.334338
  0
LINE
  8
_0-4_A2
  6
PHANTOM
 62
    7
 10
458.014609
 20
204.73433800000003
 11
437.16536200000001
 21
204.73433800000003
  0
LINE
  8
_0-4_A2
  6
PHANTOM
 62
    7
 10
460.87225899999998
 20
212.63433800000001
 11
460.87225899999998
 21
211.334338
  0
LINE
  8
_0-4_A2
  6
PHANTOM
 62
    7
 10
459.59493699999995
 20
212.63433800000001
 11
459.59493699999995
 21
211.334338
  0
LINE
  8
_0-4_A2
  6
PHANTOM
 62
    7
 10
460.77225900000001
 20
212.73433799999997
 11
435.76163999999994
 21
212.73433799999997
  0
LINE
  8
_0-4_A2
  6
PHANTOM
 62
    7
 10
450.50944900000001
 20
212.73433799999997
 11
450.50944900000001
 21
204.73433800000003
  0
LINE
  8
_0-4_A2
  6
PHANTOM
 62
    7
 10
435.51164899999997
 20
212.48215600000003
 11
435.56542199999995
 21
206.32037500000001
  0
ARC
  8
_0-4_A2
  6
PHANTOM
 62
    7
 10
459.07137099999999
 20
212.63433800000001
 40
0.1
 50
90
 51
179.5
  0
ARC
  8
_0-4_A2
  6
PHANTOM
 62
    7
 10
435.91033700000002
 20
212.63433800000001
 40
0.1
 50
0.5
 51
90
  0
ARC
  8
_0-4_A2
  6
PHANTOM
 62
    7
 10
437.16536200000001
 20
206.334338
 40
1.6
 50
180.5
 51
270
  0
ARC
  8
_0-4_A2
  6
PHANTOM
 62
    7
 10
460.77225900000001
 20
212.63433800000001
 40
0.1
 50
0
 51
90
  0
ARC
  8
_0-4_A2
  6
PHANTOM
 62
    7
 10
459.49493699999993
 20
212.63433800000001
 40
0.1
 50
0
 51
90
  0
ARC
  8
_0-4_A2
  6
PHANTOM
 62
    7
 10
460.073935
 20
211.334338
 40
0.5999999999999999
 50
270
 51
0
  0
ARC
  8
_0-4_A2
  6
PHANTOM
 62
    7
 10
460.04948200000001
 20
210.13433800000001
 40
0.5999999999999999
 50
90
 51
180
  0
ARC
  8
_0-4_A2
  6
PHANTOM
 62
    7
 10
459.18447899999995
 20
211.82347300000003
 40
0.5999999999999999
 50
159.062555
 51
180
  0
ARC
  8
_0-4_A2
  6
PHANTOM
 62
    7
 10
458.95937700000001
 20
212.63433800000001
 40
0.1
 50
90
 51
159.06255499999997
  0
ARC
  8
_0-4_A2
  6
PHANTOM
 62
    7
 10
458.59661199999993
 20
211.334338
 40
0.5999999999999999
 50
270
 51
0
  0
ARC
  8
_0-4_A2
  6
PHANTOM
 62
    7
 10
458.48447899999996
 20
211.334338
 40
0.1
 50
270
 51
0
  0
ARC
  8
_0-4_A2
  6
PHANTOM
 62
    7
 10
458.57215899999994
 20
210.13433800000001
 40
0.5999999999999999
 50
90
 51
180
  0
ARC
  8
_0-4_A2
  6
PHANTOM
 62
    7
 10
459.22006799999996
 20
212.484338
 40
0.25
 50
359.5
 51
89.999999999999971
  0
ARC
  8
_0-4_A2
  6
PHANTOM
 62
    7
 10
458.014609
 20
206.13433800000001
 40
1.3999999999999999
 50
270
 51
359.5
  0
ARC
  8
_0-4_A2
  6
PHANTOM
 62
    7
 10
435.76163999999994
 20
212.484338
 40
0.25
 50
90
 51
180.5
  0
LINE
  8
_0-4_A2
  6
PHANTOM
 62
    7
 10
459.44948199999998
 20
243.13433800000001
 11
457.97215900000003
 21
243.13433800000001
  0
LINE
  8
_0-4_A2
  6
PHANTOM
 62
    7
 10
460.87225899999998
 20
244.334338
 11
459.39142999999995
 21
244.334338
  0
LINE
  8
_0-4_A2
  6
PHANTOM
 62
    7
 10
459.44956899999999
 20
243.13433800000001
 11
459.41455499999995
 21
239.12212099999999
  0
LINE
  8
_0-4_A2
  6
PHANTOM
 62
    7
 10
458.86598000000003
 20
245.670073
 11
458.624097
 21
245.03788199999999
  0
LINE
  8
_0-4_A2
  6
PHANTOM
 62
    7
 10
458.59661199999993
 20
243.73433800000003
 11
458.57215899999994
 21
243.73433800000003
  0
LINE
  8
_0-4_A2
  6
PHANTOM
 62
    7
 10
458.48447899999996
 20
244.23433799999997
 11
457.97215900000003
 21
244.23433799999997
  0
LINE
  8
_0-4_A2
  6
PHANTOM
 62
    7
 10
458.58447899999998
 20
244.82347300000003
 11
458.58447899999998
 21
244.334338
  0
LINE
  8
_0-4_A2
  6
PHANTOM
 62
    7
 10
459.47005899999993
 20
245.48215600000003
 11
459.44956899999999
 21
243.13433800000001
  0
LINE
  8
_0-4_A2
  6
PHANTOM
 62
    7
 10
459.39142999999995
 20
245.73433799999997
 11
459.39142999999995
 21
244.334338
  0
LINE
  8
_0-4_A2
  6
PHANTOM
 62
    7
 10
457.97215900000003
 20
244.23433799999997
 11
457.97215900000003
 21
243.13433800000001
  0
LINE
  8
_0-4_A2
  6
PHANTOM
 62
    7
 10
459.19661200000001
 20
245.73433799999997
 11
459.19661200000001
 21
244.334338
  0
LINE
  8
_0-4_A2
  6
PHANTOM
 62
    7
 10
458.014609
 20
237.73433800000003
 11
437.16536200000001
 21
237.73433800000003
  0
LINE
  8
_0-4_A2
  6
PHANTOM
 62
    7
 10
460.87225899999998
 20
245.63433800000001
 11
460.87225899999998
 21
244.334338
  0
LINE
  8
_0-4_A2
  6
PHANTOM
 62
    7
 10
459.59493699999995
 20
245.63433800000001
 11
459.59493699999995
 21
244.334338
  0
LINE
  8
_0-4_A2
  6
PHANTOM
 62
    7
 10
460.77225900000001
 20
245.73433799999997
 11
435.76163999999994
 21
245.73433799999997
  0
LINE
  8
_0-4_A2
  6
PHANTOM
 62
    7
 10
450.50944900000001
 20
245.73433799999997
 11
450.50944900000001
 21
237.73433800000003
  0
LINE
  8
_0-4_A2
  6
PHANTOM
 62
    7
 10
435.51164899999997
 20
245.48215600000003
 11
435.56542199999995
 21
239.32037500000001
  0
ARC
  8
_0-4_A2
  6
PHANTOM
 62
    7
 10
459.07137099999999
 20
245.63433800000001
 40
0.1
 50
90
 51
179.5
  0
ARC
  8
_0-4_A2
  6
PHANTOM
 62
    7
 10
435.91033700000002
 20
245.63433800000001
 40
0.1
 50
0.5
 51
90
  0
ARC
  8
_0-4_A2
  6
PHANTOM
 62
    7
 10
437.16536200000001
 20
239.334338
 40
1.6
 50
180.5
 51
270
  0
ARC
  8
_0-4_A2
  6
PHANTOM
 62
    7
 10
460.77225900000001
 20
245.63433800000001
 40
0.1
 50
0
 51
90
  0
ARC
  8
_0-4_A2
  6
PHANTOM
 62
    7
 10
459.49493699999993
 20
245.63433800000001
 40
0.1
 50
0
 51
90
  0
ARC
  8
_0-4_A2
  6
PHANTOM
 62
    7
 10
460.073935
 20
244.334338
 40
0.5999999999999999
 50
270
 51
0
  0
ARC
  8
_0-4_A2
  6
PHANTOM
 62
    7
 10
460.04948200000001
 20
243.13433800000001
 40
0.5999999999999999
 50
90
 51
180
  0
ARC
  8
_0-4_A2
  6
PHANTOM
 62
    7
 10
459.18447899999995
 20
244.82347300000003
 40
0.5999999999999999
 50
159.062555
 51
180
  0
ARC
  8
_0-4_A2
  6
PHANTOM
 62
    7
 10
458.95937700000001
 20
245.63433800000001
 40
0.1
 50
90
 51
159.06255499999997
  0
ARC
  8
_0-4_A2
  6
PHANTOM
 62
    7
 10
458.59661199999993
 20
244.334338
 40
0.5999999999999999
 50
270
 51
0
  0
ARC
  8
_0-4_A2
  6
PHANTOM
 62
    7
 10
458.48447899999996
 20
244.334338
 40
0.1
 50
270
 51
0
  0
ARC
  8
_0-4_A2
  6
PHANTOM
 62
    7
 10
458.57215899999994
 20
243.13433800000001
 40
0.5999999999999999
 50
90
 51
180
  0
ARC
  8
_0-4_A2
  6
PHANTOM
 62
    7
 10
459.22006799999996
 20
245.484338
 40
0.25
 50
359.5
 51
89.999999999999971
  0
ARC
  8
_0-4_A2
  6
PHANTOM
 62
    7
 10
458.014609
 20
239.13433800000001
 40
1.3999999999999999
 50
270
 51
359.5
  0
ARC
  8
_0-4_A2
  6
PHANTOM
 62
    7
 10
435.76163999999994
 20
245.484338
 40
0.25
 50
90
 51
180.5
  0
LINE
  8
_0-4_A2
  6
CONTINUOUS
 62
    3
 10
204.27314499999999
 20
378.812745
 11
322.67498699999998
 21
378.812745
  0
LINE
  8
_0-4_A2
  6
CONTINUOUS
 62
    3
 10
319.759295
 20
378.51274499999999
 11
295.18883599999998
 21
378.51274499999999
  0
LINE
  8
_0-4_A2
  6
CONTINUOUS
 62
    3
 10
323.27489500000001
 20
379.40227299999997
 11
323.47406599999999
 21
390.812745
  0
LINE
  8
_0-4_A2
  6
CONTINUOUS
 62
    3
 10
203.67323599999997
 20
379.40227299999997
 11
203.47406600000002
 21
390.812745
  0
LINE
  8
_0-4_A2
  6
CONTINUOUS
 62
    3
 10
203.47406600000002
 20
390.812745
 11
323.47406599999999
 21
390.812745
  0
ARC
  8
_0-4_A2
  6
CONTINUOUS
 62
    3
 10
204.27314499999999
 20
379.41274499999997
 40
0.5999999999999999
 50
181
 51
270
  0
ARC
  8
_0-4_A2
  6
CONTINUOUS
 62
    3
 10
322.67498699999998
 20
379.41274499999997
 40
0.5999999999999999
 50
270
 51
359
  0
ARC
  8
_0-4_A2
  6
CONTINUOUS
 62
    3
 10
319.759295
 20
379.11274500000001
 40
0.5999999999999999
 50
269.99992699999995
 51
330
  0
ARC
  8
_0-4_A2
  6
CONTINUOUS
 62
    3
 10
295.18883599999998
 20
379.11274500000001
 40
0.5999999999999999
 50
210.00000000000002
 51
269.99998199999998
  0
LINE
  8
_0-4_A2
  6
PHANTOM
 62
    7
 10
303.95441199999999
 20
368.11274500000001
 11
302.99371999999999
 21
368.11274500000001
  0
LINE
  8
_0-4_A2
  6
PHANTOM
 62
    7
 10
302.973723
 20
368.13239499999997
 11
302.78729700000002
 21
378.812745
  0
LINE
  8
_0-4_A2
  6
PHANTOM
 62
    7
 10
303.97440899999998
 20
368.13239499999997
 11
304.16083500000002
 21
378.812745
  0
LINE
  8
_0-4_A2
  6
PHANTOM
 62
    7
 10
222.97372300000003
 20
368.13239499999997
 11
222.78729700000005
 21
378.812745
  0
LINE
  8
_0-4_A2
  6
PHANTOM
 62
    7
 10
223.97440899999998
 20
368.13239499999997
 11
224.16083500000002
 21
378.812745
  0
LINE
  8
_0-4_A2
  6
PHANTOM
 62
    7
 10
222.99372000000002
 20
368.11274500000001
 11
223.95441199999999
 21
368.11274500000001
  0
LINE
  8
_0-4_A2
  6
PHANTOM
 62
    7
 10
206.22711399999997
 20
366.11274500000001
 11
320.72101800000001
 21
366.11274500000001
  0
LINE
  8
_0-4_A2
  6
PHANTOM
 62
    7
 10
205.07406600000001
 20
378.812745
 11
205.82785999999998
 21
366.48832499999991
  0
LINE
  8
_0-4_A2
  6
PHANTOM
 62
    7
 10
321.87406600000002
 20
378.812745
 11
321.12027199999999
 21
366.48832499999991
  0
LINE
  8
_0-4_A2
  6
PHANTOM
 62
    7
 10
205.07406600000001
 20
378.812745
 11
321.87406600000002
 21
378.812745
  0
LINE
  8
_0-4_A2
  6
CENTER
 62
    7
 10
263.47406599999999
 20
381.17193899999995
 11
263.47406599999999
 21
358.30557199999998
  0
ARC
  8
_0-4_A2
  6
PHANTOM
 62
    7
 10
302.99371999999999
 20
368.13274499999999
 40
0.0199999999999999
 50
181
 51
270
  0
ARC
  8
_0-4_A2
  6
PHANTOM
 62
    7
 10
303.95441199999999
 20
368.13274499999999
 40
0.0199999999999999
 50
270
 51
359
  0
ARC
  8
_0-4_A2
  6
PHANTOM
 62
    7
 10
223.95441199999999
 20
368.13274499999999
 40
0.0199999999999999
 50
270
 51
359
  0
ARC
  8
_0-4_A2
  6
PHANTOM
 62
    7
 10
222.99372000000002
 20
368.13274499999999
 40
0.0199999999999999
 50
181
 51
270
  0
ARC
  8
_0-4_A2
  6
PHANTOM
 62
    7
 10
320.72101800000001
 20
366.51274499999999
 40
0.4
 50
270
 51
356.5
  0
ARC
  8
_0-4_A2
  6
PHANTOM
 62
    7
 10
206.22711399999997
 20
366.51274499999999
 40
0.4
 50
183.5
 51
270
  0
LINE
  8
_0-4_A2
  6
PHANTOM
 62
    7
 10
230.47406100000003
 20
364.318802
 11
206.07406600000004
 21
364.318802
  0
LINE
  8
_0-4_A2
  6
PHANTOM
 62
    7
 10
230.47406100000003
 20
363.818802
 11
206.07406600000004
 21
363.818802
  0
LINE
  8
_0-4_A2
  6
PHANTOM
 62
    7
 10
215.07406099999997
 20
386.969266
 11
215.07406099999997
 21
386.81968699999993
  0
LINE
  8
_0-4_A2
  6
PHANTOM
 62
    7
 10
227.07406099999997
 20
388.65013099999998
 11
227.07406099999997
 21
388.510715
  0
LINE
  8
_0-4_A2
  6
PHANTOM
 62
    7
 10
214.07406099999997
 20
386.32346399999994
 11
214.07406099999997
 21
385.06990399999995
  0
LINE
  8
_0-4_A2
  6
PHANTOM
 62
    7
 10
228.074061
 20
388.03355899999996
 11
228.074061
 21
386.73828299999996
  0
LINE
  8
_0-4_A2
  6
PHANTOM
 62
    7
 10
204.97406600000002
 20
378.540163
 11
204.97406600000002
 21
365.41880200000002
  0
LINE
  8
_0-4_A2
  6
PHANTOM
 62
    7
 10
204.47406599999999
 20
378.540163
 11
204.47406599999999
 21
365.41880200000002
  0
LINE
  8
_0-4_A2
  6
PHANTOM
 62
    7
 10
232.07406099999997
 20
379.64585799999997
 11
232.07406099999997
 21
365.41880200000002
  0
LINE
  8
_0-4_A2
  6
PHANTOM
 62
    7
 10
231.57406099999997
 20
379.737639
 11
231.57406099999997
 21
365.41880200000002
  0
ARC
  8
_0-4_A2
  6
PHANTOM
 62
    7
 10
230.47406100000003
 20
365.41880200000002
 40
1.6
 50
270
 51
0
  0
ARC
  8
_0-4_A2
  6
PHANTOM
 62
    7
 10
230.47406100000003
 20
365.41880200000002
 40
1.1
 50
270
 51
0
  0
ARC
  8
_0-4_A2
  6
PHANTOM
 62
    7
 10
206.07406600000004
 20
365.41880200000002
 40
1.1
 50
180
 51
270
  0
ARC
  8
_0-4_A2
  6
PHANTOM
 62
    7
 10
206.07406600000004
 20
365.41880200000002
 40
1.6
 50
180
 51
270
  0
ARC
  8
_0-4_A2
  6
PHANTOM
 62
    7
 10
223.07406099999997
 20
379.64585799999997
 40
9
 50
2.457602
 51
6.7250110000000002
  0
ARC
  8
_0-4_A2
  6
PHANTOM
 62
    7
 10
215.17406099999999
 20
386.969266
 40
0.1
 50
112.36729099999998
 51
180
  0
ARC
  8
_0-4_A2
  6
PHANTOM
 62
    7
 10
226.974061
 20
388.65013099999998
 40
0.1
 50
0
 51
71.732840999999993
  0
ARC
  8
_0-4_A2
  6
PHANTOM
 62
    7
 10
230.89046600000003
 20
348.77653700000001
 40
41.399999999999998
 50
107.55088999999999
 51
112.36729099999999
  0
ARC
  8
_0-4_A2
  6
PHANTOM
 62
    7
 10
224.85941000000002
 20
367.84552599999994
 40
21.399999999999998
 50
93.824551999999997
 51
107.550897
  0
ARC
  8
_0-4_A2
  6
PHANTOM
 62
    7
 10
224.05899299999998
 20
379.818802
 40
9.4000000000000003
 50
71.732840999999993
 51
93.824551999999997
  0
ARC
  8
_0-4_A2
  6
PHANTOM
 62
    7
 10
227.974061
 20
388.03355899999996
 40
0.1
 50
0
 51
64.518014999999991
  0
ARC
  8
_0-4_A2
  6
PHANTOM
 62
    7
 10
214.17406100000002
 20
386.32346399999994
 40
0.1
 50
113.99928199999999
 51
180
  0
ARC
  8
_0-4_A2
  6
PHANTOM
 62
    7
 10
224.05899299999998
 20
379.818802
 40
8.9000000000000003
 50
63.183711000000002
 51
93.824551999999997
  0
ARC
  8
_0-4_A2
  6
PHANTOM
 62
    7
 10
224.85941000000002
 20
367.84552599999994
 40
20.899999999999998
 50
93.824551999999997
 51
107.550897
  0
ARC
  8
_0-4_A2
  6
PHANTOM
 62
    7
 10
230.89046600000003
 20
348.77653700000001
 40
40.899999999999998
 50
107.55088999999999
 51
114.27766599999999
  0
ARC
  8
_0-4_A2
  6
PHANTOM
 62
    7
 10
224.05899299999998
 20
379.818802
 40
9.1999999999999992
 50
64.518014999999991
 51
93.824551999999982
  0
ARC
  8
_0-4_A2
  6
PHANTOM
 62
    7
 10
224.85941000000002
 20
367.84552599999994
 40
21.199999999999999
 50
93.824551999999997
 51
107.550897
  0
ARC
  8
_0-4_A2
  6
PHANTOM
 62
    7
 10
230.89046600000003
 20
348.77653700000001
 40
41.200000000000002
 50
107.55088999999999
 51
113.99928199999999
  0
ARC
  8
_0-4_A2
  6
PHANTOM
 62
    7
 10
224.05899299999998
 20
379.818802
 40
8.5999999999999978
 50
62.168790000000001
 51
93.824551999999997
  0
ARC
  8
_0-4_A2
  6
PHANTOM
 62
    7
 10
224.85941000000002
 20
367.84552599999994
 40
20.600000000000001
 50
93.824551999999997
 51
107.550897
  0
ARC
  8
_0-4_A2
  6
PHANTOM
 62
    7
 10
230.89046600000003
 20
348.77653700000001
 40
40.600000000000001
 50
107.55088999999999
 51
114.46876899999999
  0
ARC
  8
_0-4_A2
  6
PHANTOM
 62
    7
 10
223.07406099999997
 20
379.64585799999997
 40
8.5
 50
0
 51
9.9590340000000008
  0
ARC
  8
_0-4_A2
  6
PHANTOM
 62
    7
 10
224.05899299999998
 20
379.818802
 40
7.5
 50
9.9590340000000008
 51
93.824551999999982
  0
ARC
  8
_0-4_A2
  6
PHANTOM
 62
    7
 10
224.85941000000002
 20
367.84552599999994
 40
19.5
 50
93.824551999999997
 51
107.550897
  0
ARC
  8
_0-4_A2
  6
PHANTOM
 62
    7
 10
230.89046600000003
 20
348.77653700000001
 40
39.5
 50
107.55088999999999
 51
130.93774300000001
  0
ARC
  8
_0-4_A2
  6
PHANTOM
 62
    7
 10
223.07406099999997
 20
379.64585799999997
 40
9
 50
0
 51
9.9590390000000006
  0
ARC
  8
_0-4_A2
  6
PHANTOM
 62
    7
 10
205.07406600000001
 20
378.540163
 40
0.1
 50
130.93774300000001
 51
180
  0
ARC
  8
_0-4_A2
  6
PHANTOM
 62
    7
 10
205.07406600000001
 20
378.540163
 40
0.5999999999999999
 50
130.93774300000001
 51
180
  0
ARC
  8
_0-4_A2
  6
PHANTOM
 62
    7
 10
230.89046600000003
 20
348.77653700000001
 40
40
 50
107.55088999999999
 51
130.93774300000001
  0
ARC
  8
_0-4_A2
  6
PHANTOM
 62
    7
 10
224.05899299999998
 20
379.818802
 40
8
 50
10.267739
 51
93.824551999999982
  0
ARC
  8
_0-4_A2
  6
PHANTOM
 62
    7
 10
224.85941000000002
 20
367.84552599999994
 40
20
 50
93.824551999999997
 51
107.550897
  0
LINE
  8
_0-4_A2
  6
PHANTOM
 62
    7
 10
296.47407099999998
 20
364.318802
 11
320.87406600000002
 21
364.318802
  0
LINE
  8
_0-4_A2
  6
PHANTOM
 62
    7
 10
296.47407099999998
 20
363.818802
 11
320.87406600000002
 21
363.818802
  0
LINE
  8
_0-4_A2
  6
PHANTOM
 62
    7
 10
311.87407100000001
 20
386.969266
 11
311.87407100000001
 21
386.81968699999993
  0
LINE
  8
_0-4_A2
  6
PHANTOM
 62
    7
 10
299.87407100000001
 20
388.65013099999998
 11
299.87407100000001
 21
388.510715
  0
LINE
  8
_0-4_A2
  6
PHANTOM
 62
    7
 10
312.87407100000001
 20
386.32346399999994
 11
312.87407100000001
 21
385.06990399999995
  0
LINE
  8
_0-4_A2
  6
PHANTOM
 62
    7
 10
298.87407100000001
 20
388.03355899999996
 11
298.87407100000001
 21
386.73828299999996
  0
LINE
  8
_0-4_A2
  6
PHANTOM
 62
    7
 10
321.97406599999999
 20
378.540163
 11
321.97406599999999
 21
365.41880200000002
  0
LINE
  8
_0-4_A2
  6
PHANTOM
 62
    7
 10
322.47406599999999
 20
378.540163
 11
322.47406599999999
 21
365.41880200000002
  0
LINE
  8
_0-4_A2
  6
PHANTOM
 62
    7
 10
294.87407100000001
 20
379.64585799999997
 11
294.87407100000001
 21
365.41880200000002
  0
LINE
  8
_0-4_A2
  6
PHANTOM
 62
    7
 10
295.37407100000001
 20
379.737639
 11
295.37407100000001
 21
365.41880200000002
  0
ARC
  8
_0-4_A2
  6
PHANTOM
 62
    7
 10
296.47407099999998
 20
365.41880200000002
 40
1.6
 50
180
 51
270
  0
ARC
  8
_0-4_A2
  6
PHANTOM
 62
    7
 10
296.47407099999998
 20
365.41880200000002
 40
1.1
 50
180
 51
270
  0
ARC
  8
_0-4_A2
  6
PHANTOM
 62
    7
 10
320.87406600000002
 20
365.41880200000002
 40
1.1
 50
270
 51
0
  0
ARC
  8
_0-4_A2
  6
PHANTOM
 62
    7
 10
320.87406600000002
 20
365.41880200000002
 40
1.6
 50
270
 51
0
  0
ARC
  8
_0-4_A2
  6
PHANTOM
 62
    7
 10
303.87407100000001
 20
379.64585799999997
 40
9
 50
173.274989
 51
177.54239799999999
  0
ARC
  8
_0-4_A2
  6
PHANTOM
 62
    7
 10
311.77407099999999
 20
386.969266
 40
0.1
 50
0
 51
67.632709000000005
  0
ARC
  8
_0-4_A2
  6
PHANTOM
 62
    7
 10
299.97407099999998
 20
388.65013099999998
 40
0.1
 50
108.267159
 51
180
  0
ARC
  8
_0-4_A2
  6
PHANTOM
 62
    7
 10
296.05766599999998
 20
348.77653700000001
 40
41.399999999999998
 50
67.632709000000005
 51
72.449110000000004
  0
ARC
  8
_0-4_A2
  6
PHANTOM
 62
    7
 10
302.08872200000001
 20
367.84552599999994
 40
21.399999999999998
 50
72.449102999999993
 51
86.175448000000017
  0
ARC
  8
_0-4_A2
  6
PHANTOM
 62
    7
 10
302.889139
 20
379.818802
 40
9.4000000000000003
 50
86.175448000000002
 51
108.26715899999999
  0
ARC
  8
_0-4_A2
  6
PHANTOM
 62
    7
 10
298.97407099999998
 20
388.03355899999996
 40
0.1
 50
115.48198499999998
 51
179.99999999999997
  0
ARC
  8
_0-4_A2
  6
PHANTOM
 62
    7
 10
312.77407099999999
 20
386.32346399999994
 40
0.1
 50
0
 51
66.000718000000006
  0
ARC
  8
_0-4_A2
  6
PHANTOM
 62
    7
 10
302.889139
 20
379.818802
 40
8.9000000000000003
 50
86.175448000000002
 51
116.81628899999999
  0
ARC
  8
_0-4_A2
  6
PHANTOM
 62
    7
 10
302.08872200000001
 20
367.84552599999994
 40
20.899999999999998
 50
72.449102999999993
 51
86.175448000000017
  0
ARC
  8
_0-4_A2
  6
PHANTOM
 62
    7
 10
296.05766599999998
 20
348.77653700000001
 40
40.899999999999998
 50
65.722334000000003
 51
72.449110000000004
  0
ARC
  8
_0-4_A2
  6
PHANTOM
 62
    7
 10
302.889139
 20
379.818802
 40
9.1999999999999992
 50
86.175448000000002
 51
115.48198499999998
  0
ARC
  8
_0-4_A2
  6
PHANTOM
 62
    7
 10
302.08872200000001
 20
367.84552599999994
 40
21.199999999999999
 50
72.449102999999993
 51
86.175448000000017
  0
ARC
  8
_0-4_A2
  6
PHANTOM
 62
    7
 10
296.05766599999998
 20
348.77653700000001
 40
41.200000000000002
 50
66.000718000000006
 51
72.449110000000004
  0
ARC
  8
_0-4_A2
  6
PHANTOM
 62
    7
 10
302.889139
 20
379.818802
 40
8.5999999999999978
 50
86.175448000000002
 51
117.83120999999999
  0
ARC
  8
_0-4_A2
  6
PHANTOM
 62
    7
 10
302.08872200000001
 20
367.84552599999994
 40
20.600000000000001
 50
72.449102999999993
 51
86.175448000000017
  0
ARC
  8
_0-4_A2
  6
PHANTOM
 62
    7
 10
296.05766599999998
 20
348.77653700000001
 40
40.600000000000001
 50
65.531231000000005
 51
72.449110000000004
  0
ARC
  8
_0-4_A2
  6
PHANTOM
 62
    7
 10
303.87407100000001
 20
379.64585799999997
 40
8.5
 50
170.04096599999999
 51
180
  0
ARC
  8
_0-4_A2
  6
PHANTOM
 62
    7
 10
302.889139
 20
379.818802
 40
7.5
 50
86.175448000000002
 51
170.04096599999999
  0
ARC
  8
_0-4_A2
  6
PHANTOM
 62
    7
 10
302.08872200000001
 20
367.84552599999994
 40
19.5
 50
72.449102999999993
 51
86.175448000000017
  0
ARC
  8
_0-4_A2
  6
PHANTOM
 62
    7
 10
296.05766599999998
 20
348.77653700000001
 40
39.5
 50
49.062257000000002
 51
72.449110000000004
  0
ARC
  8
_0-4_A2
  6
PHANTOM
 62
    7
 10
303.87407100000001
 20
379.64585799999997
 40
9
 50
170.04096100000001
 51
180
  0
ARC
  8
_0-4_A2
  6
PHANTOM
 62
    7
 10
321.87406600000002
 20
378.540163
 40
0.1
 50
0
 51
49.062257000000002
  0
ARC
  8
_0-4_A2
  6
PHANTOM
 62
    7
 10
321.87406600000002
 20
378.540163
 40
0.5999999999999999
 50
0
 51
49.062257000000002
  0
ARC
  8
_0-4_A2
  6
PHANTOM
 62
    7
 10
296.05766599999998
 20
348.77653700000001
 40
40
 50
49.062257000000002
 51
72.449110000000004
  0
ARC
  8
_0-4_A2
  6
PHANTOM
 62
    7
 10
302.889139
 20
379.818802
 40
8
 50
86.175448000000002
 51
169.73226099999999
  0
ARC
  8
_0-4_A2
  6
PHANTOM
 62
    7
 10
302.08872200000001
 20
367.84552599999994
 40
20
 50
72.449102999999993
 51
86.175448000000017
  0
LINE
  8
_0-4_A2
  6
CENTER
 62
    7
 10
263.47406599999999
 20
395.07743999999996
 11
263.47406599999999
 21
360.70662199999992
  0
LINE
  8
_0-4_A2
  6
CONTINUOUS
 62
    7
 10
461.472259
 20
132.844039
 11
455.57225899999997
 21
132.844039
  0
LINE
  8
_0-4_A2
  6
CONTINUOUS
 62
    7
 10
476.57325000000003
 20
132.844039
 11
461.472259
 21
132.844039
  0
LINE
  8
_0-4_A2
  6
CONTINUOUS
 62
    7
 10
461.472259
 20
132.844039
 11
464.01225899999997
 21
132.844039
  0
LINE
  8
_0-4_A2
  6
CONTINUOUS
 62
    7
 10
455.57225899999997
 20
132.844039
 11
453.03225899999995
 21
132.844039
  0
INSERT
  2
-000-_DOTSMALL
  8
_0-4_A2
 10
461.472259
 20
132.844039
 41
1.2373333333333333
 42
1.2373333333333333
 50
180
  0
INSERT
  2
-000-_DOTSMALL
  8
_0-4_A2
 10
455.57225899999997
 20
132.844039
 41
1.2373333333333333
 42
1.2373333333333333
 50
0
  0
LINE
  8
_0-4_A2
  6
CONTINUOUS
 62
    7
 10
173.47223500000001
 20
168.33434500000004
 11
173.47223500000001
 21
286.53433899999998
  0
LINE
  8
_0-4_A2
  6
CONTINUOUS
 62
    7
 10
232.202235
 20
168.33434500000004
 11
171.18623500000001
 21
168.33434500000004
  0
LINE
  8
_0-4_A2
  6
CONTINUOUS
 62
    7
 10
232.202235
 20
286.53433899999998
 11
171.18623500000001
 21
286.53433899999998
  0
INSERT
  2
-000-_DOTSMALL
  8
_0-4_A2
 10
173.47223500000001
 20
168.33434500000004
 41
1.5466666666666664
 42
1.5466666666666664
 50
270
  0
INSERT
  2
-000-_DOTSMALL
  8
_0-4_A2
 10
173.47223500000001
 20
286.53433899999998
 41
1.5466666666666664
 42
1.5466666666666664
 50
90
  0
LINE
  8
_0-4_A2
  6
CONTINUOUS
 62
    7
 10
353.47223500000001
 20
308.93433900000002
 11
353.47223500000001
 21
287.33433899999999
  0
LINE
  8
_0-4_A2
  6
CONTINUOUS
 62
    7
 10
324.74589700000001
 20
308.93433900000002
 11
355.75223499999998
 21
308.93433900000002
  0
LINE
  8
_0-4_A2
  6
CONTINUOUS
 62
    7
 10
323.93641200000001
 20
287.33433899999999
 11
355.75223499999998
 21
287.33433899999999
  0
INSERT
  2
-000-_DOTSMALL
  8
_0-4_A2
 10
353.47223500000001
 20
308.93433900000002
 41
1.5466666666666664
 42
1.5466666666666664
 50
90
  0
INSERT
  2
-000-_DOTSMALL
  8
_0-4_A2
 10
353.47223500000001
 20
287.33433899999999
 41
1.5466666666666664
 42
1.5466666666666664
 50
270
  0
LINE
  8
_0-4_A2
  6
CONTINUOUS
 62
    7
 10
353.47223500000001
 20
156.934345
 11
353.47223500000001
 21
109.73434299999999
  0
LINE
  8
_0-4_A2
  6
CONTINUOUS
 62
    7
 10
323.74589700000001
 20
109.73434299999999
 11
354.38663500000001
 21
109.73434299999999
  0
INSERT
  2
-000-_DOTSMALL
  8
_0-4_A2
 10
353.47223500000001
 20
156.934345
 41
1.5466666666666664
 42
1.5466666666666664
 50
90
  0
INSERT
  2
-000-_DOTSMALL
  8
_0-4_A2
 10
353.47223500000001
 20
109.73434299999999
 41
1.5466666666666664
 42
1.5466666666666664
 50
270
  0
LINE
  8
_0-4_A2
  6
CONTINUOUS
 62
    7
 10
449.472259
 20
328.478135
 11
461.472259
 21
328.478135
  0
LINE
  8
_0-4_A2
  6
CONTINUOUS
 62
    7
 10
449.472259
 20
309.20526699999999
 11
449.472259
 21
330.76413500000001
  0
INSERT
  2
-000-_DOTSMALL
  8
_0-4_A2
 10
449.472259
 20
328.478135
 41
1.5466666666666664
 42
1.5466666666666664
 50
180
  0
INSERT
  2
-000-_DOTSMALL
  8
_0-4_A2
 10
461.472259
 20
328.478135
 41
1.5466666666666664
 42
1.5466666666666664
 50
0
  0
LINE
  8
_0-4_A2
  6
CONTINUOUS
 62
    7
 10
233.47406600000002
 20
328.478135
 11
293.47406599999999
 21
328.478135
  0
LINE
  8
_0-4_A2
  6
CONTINUOUS
 62
    7
 10
233.47406600000002
 20
308.00433900000001
 11
233.47406600000002
 21
330.76413500000001
  0
LINE
  8
_0-4_A2
  6
CONTINUOUS
 62
    7
 10
293.47406599999999
 20
308.00433900000001
 11
293.47406599999999
 21
330.76413500000001
  0
INSERT
  2
-000-_DOTSMALL
  8
_0-4_A2
 10
233.47406600000002
 20
328.478135
 41
1.5466666666666664
 42
1.5466666666666664
 50
180
  0
INSERT
  2
-000-_DOTSMALL
  8
_0-4_A2
 10
293.47406599999999
 20
328.478135
 41
1.5466666666666664
 42
1.5466666666666664
 50
0
  0
LINE
  8
_0-4_A2
  6
CONTINUOUS
 62
    7
 10
436.77225900000001
 20
337.80614400000001
 11
461.47223999999994
 21
337.80614400000001
  0
LINE
  8
_0-4_A2
  6
CONTINUOUS
 62
    7
 10
436.77225900000001
 20
310.204339
 11
436.77225900000001
 21
340.09214399999996
  0
LINE
  8
_0-4_A2
  6
CONTINUOUS
 62
    7
 10
461.47223999999994
 20
310.204339
 11
461.47223999999994
 21
340.09214399999996
  0
INSERT
  2
-000-_DOTSMALL
  8
_0-4_A2
 10
436.77225900000001
 20
337.80614400000001
 41
1.5466666666666664
 42
1.5466666666666664
 50
180
  0
INSERT
  2
-000-_DOTSMALL
  8
_0-4_A2
 10
461.47223999999994
 20
337.80614400000001
 41
1.5466666666666664
 42
1.5466666666666664
 50
0
  0
LINE
  8
_0-4_A2
  6
CONTINUOUS
 62
    7
 10
461.472259
 20
78.734344000000007
 11
435.43225899999993
 21
78.734344000000007
  0
LINE
  8
_0-4_A2
  6
CONTINUOUS
 62
    7
 10
461.472259
 20
107.36432900000001
 11
461.472259
 21
76.448344000000005
  0
LINE
  8
_0-4_A2
  6
CONTINUOUS
 62
    7
 10
435.43225899999993
 20
154.78415000000001
 11
435.43225899999993
 21
76.448344000000005
  0
INSERT
  2
-000-_DOTSMALL
  8
_0-4_A2
 10
461.472259
 20
78.734344000000007
 41
1.5466666666666664
 42
1.5466666666666664
 50
0
  0
INSERT
  2
-000-_DOTSMALL
  8
_0-4_A2
 10
435.43225899999993
 20
78.734344000000007
 41
1.5466666666666664
 42
1.5466666666666664
 50
180
  0
LINE
  8
_0-4_A2
  6
CONTINUOUS
 62
    7
 10
353.47223500000001
 20
287.33433899999999
 11
353.47223500000001
 21
237.934345
  0
LINE
  8
_0-4_A2
  6
CONTINUOUS
 62
    7
 10
323.93641200000001
 20
287.33433899999999
 11
354.38663500000001
 21
287.33433899999999
  0
LINE
  8
_0-4_A2
  6
CONTINUOUS
 62
    7
 10
323.74587300000001
 20
237.934345
 11
354.38663500000001
 21
237.934345
  0
INSERT
  2
-000-_DOTSMALL
  8
_0-4_A2
 10
353.47223500000001
 20
287.33433899999999
 41
1.5466666666666664
 42
1.5466666666666664
 50
90
  0
INSERT
  2
-000-_DOTSMALL
  8
_0-4_A2
 10
353.47223500000001
 20
237.934345
 41
1.5466666666666664
 42
1.5466666666666664
 50
270
  0
LINE
  8
_0-4_A2
  6
CONTINUOUS
 62
    7
 10
203.47223500000004
 20
337.80614400000001
 11
323.47223500000001
 21
337.80614400000001
  0
LINE
  8
_0-4_A2
  6
CONTINUOUS
 62
    7
 10
203.47223500000004
 20
311.20433300000001
 11
203.47223500000004
 21
340.09214399999996
  0
LINE
  8
_0-4_A2
  6
CONTINUOUS
 62
    7
 10
323.47223500000001
 20
311.20433300000001
 11
323.47223500000001
 21
340.09214399999996
  0
INSERT
  2
-000-_DOTSMALL
  8
_0-4_A2
 10
203.47223500000004
 20
337.80614400000001
 41
1.5466666666666664
 42
1.5466666666666664
 50
180
  0
INSERT
  2
-000-_DOTSMALL
  8
_0-4_A2
 10
323.47223500000001
 20
337.80614400000001
 41
1.5466666666666664
 42
1.5466666666666664
 50
0
  0
LINE
  8
_0-4_A2
  6
CONTINUOUS
 62
    7
 10
353.47223500000001
 20
204.934345
 11
353.47223500000001
 21
156.934345
  0
LINE
  8
_0-4_A2
  6
CONTINUOUS
 62
    7
 10
323.74587300000001
 20
156.934345
 11
354.38663500000001
 21
156.934345
  0
INSERT
  2
-000-_DOTSMALL
  8
_0-4_A2
 10
353.47223500000001
 20
204.934345
 41
1.5466666666666664
 42
1.5466666666666664
 50
90
  0
INSERT
  2
-000-_DOTSMALL
  8
_0-4_A2
 10
353.47223500000001
 20
156.934345
 41
1.5466666666666664
 42
1.5466666666666664
 50
270
  0
LINE
  8
_0-4_A2
  6
CONTINUOUS
 62
    7
 10
353.47223500000001
 20
237.934345
 11
353.47223500000001
 21
204.934345
  0
LINE
  8
_0-4_A2
  6
CONTINUOUS
 62
    7
 10
323.74587300000001
 20
204.934345
 11
354.38663500000001
 21
204.934345
  0
INSERT
  2
-000-_DOTSMALL
  8
_0-4_A2
 10
353.47223500000001
 20
237.934345
 41
1.5466666666666664
 42
1.5466666666666664
 50
90
  0
INSERT
  2
-000-_DOTSMALL
  8
_0-4_A2
 10
353.47223500000001
 20
204.934345
 41
1.5466666666666664
 42
1.5466666666666664
 50
270
  0
LINE
  8
_0-4_A2
  6
CONTINUOUS
 62
    7
 10
368.47223500000001
 20
308.93433900000002
 11
368.47223500000001
 21
109.73434299999999
  0
LINE
  8
_0-4_A2
  6
CONTINUOUS
 62
    7
 10
324.74225899999999
 20
308.93433900000002
 11
369.38663500000001
 21
308.93433900000002
  0
INSERT
  2
-000-_DOTSMALL
  8
_0-4_A2
 10
368.47223500000001
 20
308.93433900000002
 41
1.5466666666666664
 42
1.5466666666666664
 50
90
  0
INSERT
  2
-000-_DOTSMALL
  8
_0-4_A2
 10
368.47223500000001
 20
109.73434299999999
 41
1.5466666666666664
 42
1.5466666666666664
 50
270
  0
LINE
  8
_0-4_A2
  6
CONTINUOUS
 62
    7
 10
368.47223500000001
 20
109.73434299999999
 11
368.47223500000001
 21
108.734344
  0
LINE
  8
_0-4_A2
  6
CONTINUOUS
 62
    7
 10
368.47223500000001
 20
108.734344
 11
368.47223500000001
 21
99.206418000000013
  0
LINE
  8
_0-4_A2
  6
CONTINUOUS
 62
    7
 10
323.74225899999999
 20
109.73434299999999
 11
370.75823500000001
 21
109.73434299999999
  0
LINE
  8
_0-4_A2
  6
CONTINUOUS
 62
    7
 10
323.74225899999999
 20
108.734344
 11
370.75823500000001
 21
108.734344
  0
INSERT
  2
-000-_DOTSMALL
  8
_0-4_A2
 10
368.47223500000001
 20
109.73434299999999
 41
1.5466666666666664
 42
1.5466666666666664
 50
90
  0
INSERT
  2
-000-_DOTSMALL
  8
_0-4_A2
 10
368.47223500000001
 20
108.734344
 41
1.5466666666666664
 42
1.5466666666666664
 50
270
  0
ARC
  8
_0-4_A2
  6
PHANTOM
 62
    7
 10
320.81632200000001
 20
239.33434499999998
 40
1.6
 50
270
 51
359.5
  0
ARC
  8
_0-4_A2
  6
PHANTOM
 62
    7
 10
295.53683699999999
 20
238.33434500000001
 40
0.5999999999999999
 50
180.5
 51
270
  0
ARC
  8
_0-4_A2
  6
PHANTOM
 62
    7
 10
295.12442600000002
 20
245.48434499999999
 40
0.25
 50
90
 51
180.5
  0
ARC
  8
_0-4_A2
  6
PHANTOM
 62
    7
 10
322.22004399999997
 20
245.48434499999999
 40
0.25
 50
359.5
 51
89.999999999999971
  0
LINE
  8
_0-4_A2
  6
PHANTOM
 62
    7
 10
295.53683699999999
 20
237.73434500000001
 11
320.81632200000001
 21
237.73434500000001
  0
LINE
  8
_0-4_A2
  6
PHANTOM
 62
    7
 10
295.12442600000002
 20
245.73434499999996
 11
322.22004399999997
 21
245.73434499999996
  0
LINE
  8
_0-4_A2
  6
PHANTOM
 62
    7
 10
294.874436
 20
245.48216300000001
 11
294.93685900000002
 21
238.32910899999995
  0
LINE
  8
_0-4_A2
  6
PHANTOM
 62
    7
 10
322.47003399999999
 20
245.48216300000001
 11
322.41626100000001
 21
239.32038199999999
  0
ARC
  8
_0-4_A2
  6
PHANTOM
 62
    7
 10
320.81632200000001
 20
158.33434500000001
 40
1.6
 50
270
 51
359.5
  0
ARC
  8
_0-4_A2
  6
PHANTOM
 62
    7
 10
295.53683699999999
 20
157.33434500000001
 40
0.5999999999999999
 50
180.5
 51
270
  0
ARC
  8
_0-4_A2
  6
PHANTOM
 62
    7
 10
295.12442600000002
 20
164.48434499999999
 40
0.25
 50
90
 51
180.5
  0
ARC
  8
_0-4_A2
  6
PHANTOM
 62
    7
 10
322.22004399999997
 20
164.48434499999999
 40
0.25
 50
359.5
 51
89.999999999999971
  0
LINE
  8
_0-4_A2
  6
PHANTOM
 62
    7
 10
295.53683699999999
 20
156.73434500000001
 11
320.81632200000001
 21
156.73434500000001
  0
LINE
  8
_0-4_A2
  6
PHANTOM
 62
    7
 10
295.12442600000002
 20
164.73434499999999
 11
322.22004399999997
 21
164.73434499999999
  0
LINE
  8
_0-4_A2
  6
PHANTOM
 62
    7
 10
294.874436
 20
164.48216300000001
 11
294.93685900000002
 21
157.32910899999998
  0
LINE
  8
_0-4_A2
  6
PHANTOM
 62
    7
 10
322.47003399999999
 20
164.48216300000001
 11
322.41626100000001
 21
158.32038199999999
  0
ARC
  8
_0-4_A2
  6
PHANTOM
 62
    7
 10
206.12814800000001
 20
239.33434499999998
 40
1.6
 50
180.5
 51
270
  0
ARC
  8
_0-4_A2
  6
PHANTOM
 62
    7
 10
231.40763299999997
 20
238.33434500000001
 40
0.5999999999999999
 50
270
 51
359.5
  0
ARC
  8
_0-4_A2
  6
PHANTOM
 62
    7
 10
231.82004399999999
 20
245.48434499999999
 40
0.25
 50
359.5
 51
89.999999999999971
  0
ARC
  8
_0-4_A2
  6
PHANTOM
 62
    7
 10
204.72442600000002
 20
245.48434499999999
 40
0.25
 50
90
 51
180.5
  0
LINE
  8
_0-4_A2
  6
PHANTOM
 62
    7
 10
231.40763299999997
 20
237.73434500000001
 11
206.12814800000001
 21
237.73434500000001
  0
LINE
  8
_0-4_A2
  6
PHANTOM
 62
    7
 10
231.82004399999999
 20
245.73434499999996
 11
204.72442600000002
 21
245.73434499999996
  0
LINE
  8
_0-4_A2
  6
PHANTOM
 62
    7
 10
232.07003400000004
 20
245.48216300000001
 11
232.00760999999999
 21
238.32910899999995
  0
LINE
  8
_0-4_A2
  6
PHANTOM
 62
    7
 10
204.47443600000005
 20
245.48216300000001
 11
204.52820900000003
 21
239.32038199999999
  0
ARC
  8
_0-4_A2
  6
PHANTOM
 62
    7
 10
206.12814800000001
 20
206.33434499999998
 40
1.6
 50
180.5
 51
270
  0
ARC
  8
_0-4_A2
  6
PHANTOM
 62
    7
 10
231.40763299999997
 20
205.33434500000001
 40
0.5999999999999999
 50
270
 51
359.5
  0
ARC
  8
_0-4_A2
  6
PHANTOM
 62
    7
 10
231.82004399999999
 20
212.48434499999999
 40
0.25
 50
359.5
 51
89.999999999999971
  0
ARC
  8
_0-4_A2
  6
PHANTOM
 62
    7
 10
204.72442600000002
 20
212.48434499999999
 40
0.25
 50
90
 51
180.5
  0
LINE
  8
_0-4_A2
  6
PHANTOM
 62
    7
 10
231.40763299999997
 20
204.73434500000001
 11
206.12814800000001
 21
204.73434500000001
  0
LINE
  8
_0-4_A2
  6
PHANTOM
 62
    7
 10
231.82004399999999
 20
212.73434499999996
 11
204.72442600000002
 21
212.73434499999996
  0
LINE
  8
_0-4_A2
  6
PHANTOM
 62
    7
 10
232.07003400000004
 20
212.48216300000001
 11
232.00760999999999
 21
205.32910899999995
  0
LINE
  8
_0-4_A2
  6
PHANTOM
 62
    7
 10
204.47443600000005
 20
212.48216300000001
 11
204.52820900000003
 21
206.32038199999999
  0
ARC
  8
_0-4_A2
  6
PHANTOM
 62
    7
 10
206.12814800000001
 20
158.33434500000001
 40
1.6
 50
180.5
 51
270
  0
ARC
  8
_0-4_A2
  6
PHANTOM
 62
    7
 10
231.40763299999997
 20
157.33434500000001
 40
0.5999999999999999
 50
270
 51
359.5
  0
ARC
  8
_0-4_A2
  6
PHANTOM
 62
    7
 10
231.82004399999999
 20
164.48434499999999
 40
0.25
 50
359.5
 51
89.999999999999971
  0
ARC
  8
_0-4_A2
  6
PHANTOM
 62
    7
 10
204.72442600000002
 20
164.48434499999999
 40
0.25
 50
90
 51
180.5
  0
LINE
  8
_0-4_A2
  6
PHANTOM
 62
    7
 10
231.40763299999997
 20
156.73434500000001
 11
206.12814800000001
 21
156.73434500000001
  0
LINE
  8
_0-4_A2
  6
PHANTOM
 62
    7
 10
231.82004399999999
 20
164.73434499999999
 11
204.72442600000002
 21
164.73434499999999
  0
LINE
  8
_0-4_A2
  6
PHANTOM
 62
    7
 10
232.07003400000004
 20
164.48216300000001
 11
232.00760999999999
 21
157.32910899999998
  0
LINE
  8
_0-4_A2
  6
PHANTOM
 62
    7
 10
204.47443600000005
 20
164.48216300000001
 11
204.52820900000003
 21
158.32038199999999
  0
ARC
  8
_0-4_A2
  6
CONTINUOUS
 62
    3
 10
302.52223500000002
 20
228.34347000000002
 40
0.1
 50
264.99999200000002
 51
0.0000360000000278
  0
ARC
  8
_0-4_A2
  6
CONTINUOUS
 62
    3
 10
301.57223499999997
 20
229.33002099999998
 40
1
 50
179.999964
 51
264.99986499999999
  0
ARC
  8
_0-4_A2
  6
CONTINUOUS
 62
    3
 10
302.52223500000002
 20
231.12520599999999
 40
0.1
 50
359.99998099999999
 51
95.000007999999994
  0
ARC
  8
_0-4_A2
  6
CONTINUOUS
 62
    3
 10
301.57223499999997
 20
230.138654
 40
1
 50
95.000007999999994
 51
179.999964
  0
ARC
  8
_0-4_A2
  6
CONTINUOUS
 62
    3
 10
303.422235
 20
228.34347000000002
 40
0.1
 50
179.999964
 51
275.00002699999998
  0
ARC
  8
_0-4_A2
  6
CONTINUOUS
 62
    3
 10
304.37223499999998
 20
229.33002099999998
 40
1
 50
275.00009899999997
 51
0.0000100000000013
  0
ARC
  8
_0-4_A2
  6
CONTINUOUS
 62
    3
 10
303.422235
 20
231.12520599999999
 40
0.1
 50
84.999955999999997
 51
180.000019
  0
ARC
  8
_0-4_A2
  6
CONTINUOUS
 62
    3
 10
304.37223499999998
 20
230.138654
 40
1
 50
359.99999000000002
 51
84.999955999999983
  0
ARC
  8
_0-4_A2
  6
CONTINUOUS
 62
    3
 10
305.672235
 20
227.55433999999996
 40
0.1
 50
270.00001800000001
 51
0.0000000000000127
  0
ARC
  8
_0-4_A2
  6
CONTINUOUS
 62
    3
 10
300.27223500000002
 20
231.91433699999998
 40
0.1
 50
89.999982000000002
 51
179.999964
  0
ARC
  8
_0-4_A2
  6
CONTINUOUS
 62
    3
 10
300.27223500000002
 20
227.55433999999996
 40
0.1
 50
179.999964
 51
270.00000099999999
  0
ARC
  8
_0-4_A2
  6
CONTINUOUS
 62
    3
 10
305.672235
 20
231.91433699999998
 40
0.1
 50
0
 51
89.999982000000002
  0
ARC
  8
_0-4_A2
  6
CONTINUOUS
 62
    3
 10
313.03194300000001
 20
229.35434
 40
0.2
 50
179.999964
 51
0
  0
ARC
  8
_0-4_A2
  6
CONTINUOUS
 62
    3
 10
313.03194300000001
 20
230.114337
 40
0.2
 50
0
 51
179.999964
  0
ARC
  8
_0-4_A2
  6
CONTINUOUS
 62
    3
 10
313.03194300000001
 20
230.114337
 40
0.2999999999999999
 50
0
 51
179.999964
  0
ARC
  8
_0-4_A2
  6
CONTINUOUS
 62
    3
 10
313.03194300000001
 20
229.35434
 40
0.2999999999999999
 50
179.999964
 51
0
  0
ARC
  8
_0-4_A2
  6
CONTINUOUS
 62
    3
 10
314.672235
 20
227.55433999999996
 40
0.1
 50
270.00001800000001
 51
0.0000000000000127
  0
ARC
  8
_0-4_A2
  6
CONTINUOUS
 62
    3
 10
309.27223500000002
 20
231.91433699999998
 40
0.1
 50
89.999982000000002
 51
179.999964
  0
ARC
  8
_0-4_A2
  6
CONTINUOUS
 62
    3
 10
309.27223500000002
 20
227.55433999999996
 40
0.1
 50
179.999964
 51
270.00000099999999
  0
ARC
  8
_0-4_A2
  6
CONTINUOUS
 62
    3
 10
314.672235
 20
231.91433699999998
 40
0.1
 50
0
 51
89.999982000000002
  0
ARC
  8
_0-4_A2
  6
CONTINUOUS
 62
    3
 10
295.27223500000002
 20
232.43433899999996
 40
0.5999999999999999
 50
89.999982000000002
 51
179.999964
  0
ARC
  8
_0-4_A2
  6
CONTINUOUS
 62
    3
 10
295.27223500000002
 20
227.03433899999998
 40
0.5999999999999999
 50
179.999964
 51
270.00000099999999
  0
ARC
  8
_0-4_A2
  6
CONTINUOUS
 62
    3
 10
319.672235
 20
227.03433899999998
 40
0.5999999999999999
 50
270.00001800000001
 51
0.0000000000000127
  0
ARC
  8
_0-4_A2
  6
CONTINUOUS
 62
    3
 10
319.672235
 20
232.43433899999996
 40
0.5999999999999999
 50
0
 51
89.999982000000002
  0
ARC
  8
_0-4_A2
  6
CONTINUOUS
 62
    3
 10
295.27223500000002
 20
227.03433899999998
 40
0.8
 50
179.999964
 51
270.00000099999999
  0
ARC
  8
_0-4_A2
  6
CONTINUOUS
 62
    3
 10
295.27223500000002
 20
232.43433899999996
 40
0.8
 50
89.999982000000002
 51
179.999964
  0
ARC
  8
_0-4_A2
  6
CONTINUOUS
 62
    3
 10
319.672235
 20
227.03433899999998
 40
0.8
 50
270.00001800000001
 51
0.0000000000000127
  0
ARC
  8
_0-4_A2
  6
CONTINUOUS
 62
    3
 10
319.672235
 20
232.43433899999996
 40
0.8
 50
0
 51
89.999982000000002
  0
LINE
  8
_0-4_A2
  6
CONTINUOUS
 62
    3
 10
302.51352000000002
 20
228.243852
 11
301.48507999999998
 21
228.333829
  0
LINE
  8
_0-4_A2
  6
CONTINUOUS
 62
    3
 10
301.48507899999998
 20
231.134849
 11
302.51351899999997
 21
231.224826
  0
LINE
  8
_0-4_A2
  6
CONTINUOUS
 62
    3
 10
300.57223499999997
 20
229.33002099999998
 11
300.57223499999997
 21
230.138654
  0
LINE
  8
_0-4_A2
  6
CONTINUOUS
 62
    3
 10
302.62223499999998
 20
228.34347000000002
 11
302.62223499999998
 21
231.12520599999999
  0
LINE
  8
_0-4_A2
  6
CONTINUOUS
 62
    3
 10
304.45938999999998
 20
228.33382800000001
 11
303.43094999999999
 21
228.243852
  0
LINE
  8
_0-4_A2
  6
CONTINUOUS
 62
    3
 10
303.43094999999999
 20
231.224826
 11
304.45938999999998
 21
231.134849
  0
LINE
  8
_0-4_A2
  6
CONTINUOUS
 62
    3
 10
305.37223499999998
 20
230.138654
 11
305.37223499999998
 21
229.33002099999998
  0
LINE
  8
_0-4_A2
  6
CONTINUOUS
 62
    3
 10
303.32223499999997
 20
231.12520599999999
 11
303.32223499999997
 21
228.34347000000002
  0
LINE
  8
_0-4_A2
  6
CONTINUOUS
 62
    3
 10
301.52223500000002
 20
228.88433900000001
 11
301.922235
 21
228.88433900000001
  0
LINE
  8
_0-4_A2
  6
CONTINUOUS
 62
    3
 10
301.52223500000002
 20
230.584337
 11
301.922235
 21
230.584337
  0
LINE
  8
_0-4_A2
  6
CONTINUOUS
 62
    3
 10
301.52223500000002
 20
228.88433900000001
 11
301.52223500000002
 21
230.584337
  0
LINE
  8
_0-4_A2
  6
CONTINUOUS
 62
    3
 10
301.922235
 20
228.88433900000001
 11
301.922235
 21
230.584337
  0
LINE
  8
_0-4_A2
  6
CONTINUOUS
 62
    3
 10
304.02223500000002
 20
229.03433899999998
 11
304.422235
 21
229.03433899999998
  0
LINE
  8
_0-4_A2
  6
CONTINUOUS
 62
    3
 10
304.02223500000002
 20
230.43433700000002
 11
304.422235
 21
230.43433700000002
  0
LINE
  8
_0-4_A2
  6
CONTINUOUS
 62
    3
 10
304.422235
 20
230.43433700000002
 11
304.422235
 21
229.03433899999998
  0
LINE
  8
_0-4_A2
  6
CONTINUOUS
 62
    3
 10
304.02223500000002
 20
230.43433700000002
 11
304.02223500000002
 21
229.03433899999998
  0
LINE
  8
_0-4_A2
  6
CONTINUOUS
 62
    3
 10
300.27223500000002
 20
227.45434
 11
305.672235
 21
227.45434
  0
LINE
  8
_0-4_A2
  6
CONTINUOUS
 62
    3
 10
300.27223500000002
 20
232.01433700000001
 11
305.672235
 21
232.01433700000001
  0
LINE
  8
_0-4_A2
  6
CONTINUOUS
 62
    3
 10
300.172235
 20
231.91433699999998
 11
300.172235
 21
227.55433999999996
  0
LINE
  8
_0-4_A2
  6
CONTINUOUS
 62
    3
 10
305.77223500000002
 20
231.91433699999998
 11
305.77223500000002
 21
227.55433999999996
  0
LINE
  8
_0-4_A2
  6
CONTINUOUS
 62
    3
 10
312.83194300000002
 20
230.114337
 11
312.83194300000002
 21
229.35434
  0
LINE
  8
_0-4_A2
  6
CONTINUOUS
 62
    3
 10
313.231943
 20
230.114337
 11
313.231943
 21
229.35434
  0
LINE
  8
_0-4_A2
  6
CONTINUOUS
 62
    3
 10
312.731943
 20
230.114337
 11
312.731943
 21
229.35434
  0
LINE
  8
_0-4_A2
  6
CONTINUOUS
 62
    3
 10
313.33194300000002
 20
230.114337
 11
313.33194300000002
 21
229.35434
  0
LINE
  8
_0-4_A2
  6
CONTINUOUS
 62
    3
 10
313.731943
 20
231.214337
 11
313.731943
 21
228.25434000000001
  0
LINE
  8
_0-4_A2
  6
CONTINUOUS
 62
    3
 10
314.172235
 20
231.214337
 11
314.172235
 21
228.25434000000001
  0
LINE
  8
_0-4_A2
  6
CONTINUOUS
 62
    3
 10
309.77223500000002
 20
228.25434000000001
 11
314.172235
 21
228.25434000000001
  0
LINE
  8
_0-4_A2
  6
CONTINUOUS
 62
    3
 10
309.77223500000002
 20
231.214337
 11
314.172235
 21
231.214337
  0
LINE
  8
_0-4_A2
  6
CONTINUOUS
 62
    3
 10
309.77223500000002
 20
231.214337
 11
309.77223500000002
 21
228.25434000000001
  0
LINE
  8
_0-4_A2
  6
CONTINUOUS
 62
    3
 10
309.672235
 20
231.31433699999996
 11
309.672235
 21
228.15433999999999
  0
LINE
  8
_0-4_A2
  6
CONTINUOUS
 62
    3
 10
314.27223500000002
 20
231.31433699999996
 11
314.27223500000002
 21
228.15433999999999
  0
LINE
  8
_0-4_A2
  6
CONTINUOUS
 62
    3
 10
309.672235
 20
228.15433999999999
 11
314.27223500000002
 21
228.15433999999999
  0
LINE
  8
_0-4_A2
  6
CONTINUOUS
 62
    3
 10
309.672235
 20
231.31433699999996
 11
314.27223500000002
 21
231.31433699999996
  0
LINE
  8
_0-4_A2
  6
CONTINUOUS
 62
    3
 10
309.27223500000002
 20
227.45434
 11
314.672235
 21
227.45434
  0
LINE
  8
_0-4_A2
  6
CONTINUOUS
 62
    3
 10
309.27223500000002
 20
232.01433700000001
 11
314.672235
 21
232.01433700000001
  0
LINE
  8
_0-4_A2
  6
CONTINUOUS
 62
    3
 10
309.172235
 20
231.91433699999998
 11
309.172235
 21
227.55433999999996
  0
LINE
  8
_0-4_A2
  6
CONTINUOUS
 62
    3
 10
314.77223500000002
 20
231.91433699999998
 11
314.77223500000002
 21
227.55433999999996
  0
LINE
  8
_0-4_A2
  6
CONTINUOUS
 62
    3
 10
320.27223500000002
 20
232.43433899999996
 11
320.27223500000002
 21
227.03433899999998
  0
LINE
  8
_0-4_A2
  6
CONTINUOUS
 62
    3
 10
295.27223500000002
 20
226.43433899999996
 11
319.672235
 21
226.43433899999996
  0
LINE
  8
_0-4_A2
  6
CONTINUOUS
 62
    3
 10
294.672235
 20
232.43433899999996
 11
294.672235
 21
227.03433899999998
  0
LINE
  8
_0-4_A2
  6
CONTINUOUS
 62
    3
 10
295.27223500000002
 20
233.03433899999998
 11
319.672235
 21
233.03433899999998
  0
LINE
  8
_0-4_A2
  6
CONTINUOUS
 62
    3
 10
309.12223499999998
 20
227.41433699999998
 11
314.82223499999997
 21
227.41433699999998
  0
LINE
  8
_0-4_A2
  6
CONTINUOUS
 62
    3
 10
309.12223499999998
 20
232.05433699999997
 11
314.82223499999997
 21
232.05433699999997
  0
LINE
  8
_0-4_A2
  6
CONTINUOUS
 62
    3
 10
314.82223499999997
 20
232.05433699999997
 11
314.82223499999997
 21
227.41433699999998
  0
LINE
  8
_0-4_A2
  6
CONTINUOUS
 62
    3
 10
309.12223499999998
 20
232.05433699999997
 11
309.12223499999998
 21
227.41433699999998
  0
LINE
  8
_0-4_A2
  6
CONTINUOUS
 62
    3
 10
300.12223499999998
 20
227.41433699999998
 11
305.82223499999997
 21
227.41433699999998
  0
LINE
  8
_0-4_A2
  6
CONTINUOUS
 62
    3
 10
300.12223499999998
 20
232.05433699999997
 11
305.82223499999997
 21
232.05433699999997
  0
LINE
  8
_0-4_A2
  6
CONTINUOUS
 62
    3
 10
305.82223499999997
 20
232.05433699999997
 11
305.82223499999997
 21
227.41433699999998
  0
LINE
  8
_0-4_A2
  6
CONTINUOUS
 62
    3
 10
300.12223499999998
 20
232.05433699999997
 11
300.12223499999998
 21
227.41433699999998
  0
LINE
  8
_0-4_A2
  6
CONTINUOUS
 62
    3
 10
294.47223500000001
 20
232.43433899999996
 11
294.47223500000001
 21
227.03433899999998
  0
LINE
  8
_0-4_A2
  6
CONTINUOUS
 62
    3
 10
320.47223500000001
 20
232.43433899999996
 11
320.47223500000001
 21
227.03433899999998
  0
LINE
  8
_0-4_A2
  6
CONTINUOUS
 62
    3
 10
295.27223500000002
 20
226.23433899999997
 11
319.672235
 21
226.23433899999997
  0
LINE
  8
_0-4_A2
  6
CONTINUOUS
 62
    3
 10
295.27223500000002
 20
233.23433900000003
 11
319.672235
 21
233.23433900000003
  0
ARC
  8
_0-4_A2
  6
CONTINUOUS
 62
    3
 10
238.57222300000003
 20
169.03435099999998
 40
0.1
 50
89.999995999999995
 51
179.99999099999999
  0
ARC
  8
_0-4_A2
  6
CONTINUOUS
 62
    3
 10
240.97224700000001
 20
169.03435099999998
 40
0.1
 50
0.000003
 51
90.000002999999992
  0
LINE
  8
_0-4_A2
  6
CONTINUOUS
 62
    3
 10
238.57222300000003
 20
169.13435699999999
 11
240.97224700000001
 21
169.13435699999999
  0
LINE
  8
_0-4_A2
  6
CONTINUOUS
 62
    3
 10
241.072223
 20
169.03435099999998
 11
241.072223
 21
167.934345
  0
LINE
  8
_0-4_A2
  6
CONTINUOUS
 62
    3
 10
238.47224699999998
 20
169.03435099999998
 11
238.47224699999998
 21
167.934345
  0
ARC
  8
_0-4_A2
  6
CONTINUOUS
 62
    3
 10
288.37224700000001
 20
169.03435099999998
 40
0.1
 50
0.000009
 51
90.000003999999989
  0
ARC
  8
_0-4_A2
  6
CONTINUOUS
 62
    3
 10
285.97222299999998
 20
169.03435099999998
 40
0.1
 50
89.999996999999993
 51
179.999997
  0
LINE
  8
_0-4_A2
  6
CONTINUOUS
 62
    3
 10
288.37224700000001
 20
169.13435699999999
 11
285.97222299999998
 21
169.13435699999999
  0
LINE
  8
_0-4_A2
  6
CONTINUOUS
 62
    3
 10
285.87224700000001
 20
169.03435099999998
 11
285.87224700000001
 21
167.934345
  0
LINE
  8
_0-4_A2
  6
CONTINUOUS
 62
    3
 10
288.47222299999998
 20
169.03435099999998
 11
288.47222299999998
 21
167.934345
  0
ARC
  8
_0-4_A2
  6
PHANTOM
 62
    7
 10
320.81632200000001
 20
206.33434499999998
 40
1.6
 50
270
 51
359.5
  0
ARC
  8
_0-4_A2
  6
PHANTOM
 62
    7
 10
295.53683699999999
 20
205.33434500000001
 40
0.5999999999999999
 50
180.5
 51
270
  0
ARC
  8
_0-4_A2
  6
PHANTOM
 62
    7
 10
295.12442600000002
 20
212.48434499999999
 40
0.25
 50
90
 51
180.5
  0
ARC
  8
_0-4_A2
  6
PHANTOM
 62
    7
 10
322.22004399999997
 20
212.48434499999999
 40
0.25
 50
359.5
 51
89.999999999999971
  0
LINE
  8
_0-4_A2
  6
PHANTOM
 62
    7
 10
295.53683699999999
 20
204.73434500000001
 11
320.81632200000001
 21
204.73434500000001
  0
LINE
  8
_0-4_A2
  6
PHANTOM
 62
    7
 10
295.12442600000002
 20
212.73434499999996
 11
322.22004399999997
 21
212.73434499999996
  0
LINE
  8
_0-4_A2
  6
PHANTOM
 62
    7
 10
294.874436
 20
212.48216300000001
 11
294.93685900000002
 21
205.32910899999995
  0
LINE
  8
_0-4_A2
  6
PHANTOM
 62
    7
 10
322.47003399999999
 20
212.48216300000001
 11
322.41626100000001
 21
206.32038199999999
  0
ARC
  8
_0-4_A2
  6
CONTINUOUS
 62
    3
 10
240.97224700000001
 20
285.74234000000001
 40
0.1
 50
269.99999600000001
 51
359.99999100000007
  0
ARC
  8
_0-4_A2
  6
CONTINUOUS
 62
    3
 10
238.57222300000003
 20
285.74234000000001
 40
0.1
 50
180.00000300000002
 51
270.00000299999999
  0
LINE
  8
_0-4_A2
  6
CONTINUOUS
 62
    3
 10
240.97224700000001
 20
285.642334
 11
238.57222300000003
 21
285.642334
  0
LINE
  8
_0-4_A2
  6
CONTINUOUS
 62
    3
 10
238.47224699999998
 20
285.74234000000001
 11
238.47224699999998
 21
286.84234700000001
  0
LINE
  8
_0-4_A2
  6
CONTINUOUS
 62
    3
 10
241.072223
 20
285.74234000000001
 11
241.072223
 21
286.84234700000001
  0
ARC
  8
_0-4_A2
  6
CONTINUOUS
 62
    3
 10
285.97222299999998
 20
285.74234000000001
 40
0.1
 50
180.00000900000003
 51
270.00000399999998
  0
ARC
  8
_0-4_A2
  6
CONTINUOUS
 62
    3
 10
288.37224700000001
 20
285.74234000000001
 40
0.1
 50
269.999997
 51
359.999997
  0
LINE
  8
_0-4_A2
  6
CONTINUOUS
 62
    3
 10
285.97222299999998
 20
285.642334
 11
288.37224700000001
 21
285.642334
  0
LINE
  8
_0-4_A2
  6
CONTINUOUS
 62
    3
 10
288.47222299999998
 20
285.74234000000001
 11
288.47222299999998
 21
286.84234700000001
  0
LINE
  8
_0-4_A2
  6
CONTINUOUS
 62
    3
 10
285.87224700000001
 20
285.74234000000001
 11
285.87224700000001
 21
286.84234700000001
  0
ARC
  8
_0-4_A2
  6
CONTINUOUS
 62
    7
 10
321.47224099999999
 20
306.83439999999995
 40
0.4
 50
0
 51
90.000003000000006
  0
ARC
  8
_0-4_A2
  6
CONTINUOUS
 62
    7
 10
321.47224099999999
 20
289.03433899999993
 40
0.4
 50
269.999997
 51
0
  0
ARC
  8
_0-4_A2
  6
CONTINUOUS
 62
    7
 10
205.47223500000001
 20
306.83439999999995
 40
0.4
 50
90.000003000000006
 51
180.00000499999998
  0
ARC
  8
_0-4_A2
  6
CONTINUOUS
 62
    7
 10
205.47223500000001
 20
289.03433899999993
 40
0.4
 50
179.99999500000001
 51
269.99999699999995
  0
ARC
  8
_0-4_A2
  6
CONTINUOUS
 62
    7
 10
206.24900500000003
 20
289.81110899999998
 40
0.4
 50
179.99999500000001
 51
269.99999699999995
  0
ARC
  8
_0-4_A2
  6
CONTINUOUS
 62
    7
 10
206.24900500000003
 20
306.05801999999999
 40
0.4
 50
90.000003000000006
 51
180.00000499999998
  0
ARC
  8
_0-4_A2
  6
CONTINUOUS
 62
    7
 10
320.69547699999998
 20
289.81110899999998
 40
0.4
 50
269.999997
 51
0
  0
ARC
  8
_0-4_A2
  6
CONTINUOUS
 62
    7
 10
320.69547699999998
 20
306.05801999999999
 40
0.4
 50
0
 51
90.000003000000006
  0
LINE
  8
_0-4_A2
  6
CONTINUOUS
 62
    7
 10
220.37496900000002
 20
307.24487299999998
 11
226.56951299999997
 21
307.24487299999998
  0
LINE
  8
_0-4_A2
  6
CONTINUOUS
 62
    7
 10
226.572235
 20
307.23439999999993
 11
300.37224099999997
 21
307.23439999999993
  0
LINE
  8
_0-4_A2
  6
CONTINUOUS
 62
    7
 10
228.57223499999997
 20
288.63433899999995
 11
298.37224099999997
 21
288.63433899999995
  0
LINE
  8
_0-4_A2
  6
CONTINUOUS
 62
    7
 10
304.57224100000001
 20
288.63433899999995
 11
321.47224099999999
 21
288.63433899999995
  0
LINE
  8
_0-4_A2
  6
CONTINUOUS
 62
    7
 10
306.57224100000001
 20
307.23439999999993
 11
321.47224099999999
 21
307.23439999999993
  0
LINE
  8
_0-4_A2
  6
CONTINUOUS
 62
    7
 10
304.56951299999997
 20
288.623871
 11
298.37496299999997
 21
288.623871
  0
LINE
  8
_0-4_A2
  6
CONTINUOUS
 62
    7
 10
304.56951299999997
 20
288.03300200000001
 11
298.37496299999997
 21
288.03300200000001
  0
LINE
  8
_0-4_A2
  6
CONTINUOUS
 62
    7
 10
304.57224200000001
 20
288.63433899999995
 11
304.56951600000002
 21
288.62386700000001
  0
LINE
  8
_0-4_A2
  6
CONTINUOUS
 62
    7
 10
304.56951299999997
 20
288.03300200000001
 11
304.56951299999997
 21
288.623871
  0
LINE
  8
_0-4_A2
  6
CONTINUOUS
 62
    7
 10
298.37223799999998
 20
288.63434099999994
 11
298.37496399999997
 21
288.62386800000001
  0
LINE
  8
_0-4_A2
  6
CONTINUOUS
 62
    7
 10
298.37496299999997
 20
288.03300200000001
 11
298.37496299999997
 21
288.623871
  0
LINE
  8
_0-4_A2
  6
CONTINUOUS
 62
    7
 10
306.56951299999997
 20
307.83574299999997
 11
306.56951299999997
 21
307.24487299999998
  0
LINE
  8
_0-4_A2
  6
CONTINUOUS
 62
    7
 10
306.57224200000001
 20
307.23439699999994
 11
306.56951400000002
 21
307.24487599999997
  0
LINE
  8
_0-4_A2
  6
CONTINUOUS
 62
    7
 10
306.56951299999997
 20
307.24487299999998
 11
300.37496299999997
 21
307.24487299999998
  0
LINE
  8
_0-4_A2
  6
CONTINUOUS
 62
    7
 10
306.56951299999997
 20
307.83574299999997
 11
300.37496299999997
 21
307.83574299999997
  0
LINE
  8
_0-4_A2
  6
CONTINUOUS
 62
    7
 10
300.37224200000002
 20
307.23440299999992
 11
300.37496800000002
 21
307.24487599999997
  0
LINE
  8
_0-4_A2
  6
CONTINUOUS
 62
    7
 10
300.37496299999997
 20
307.83574299999997
 11
300.37496299999997
 21
307.24487299999998
  0
LINE
  8
_0-4_A2
  6
CONTINUOUS
 62
    7
 10
226.56951299999997
 20
307.83574299999997
 11
226.56951299999997
 21
307.24487299999998
  0
LINE
  8
_0-4_A2
  6
CONTINUOUS
 62
    7
 10
226.572235
 20
307.23440299999992
 11
226.56950999999997
 21
307.24486999999999
  0
LINE
  8
_0-4_A2
  6
CONTINUOUS
 62
    7
 10
220.37496900000002
 20
307.83574299999997
 11
226.56951299999997
 21
307.83574299999997
  0
LINE
  8
_0-4_A2
  6
CONTINUOUS
 62
    7
 10
220.37224600000001
 20
307.23440299999992
 11
220.37497200000001
 21
307.24487599999997
  0
LINE
  8
_0-4_A2
  6
CONTINUOUS
 62
    7
 10
220.37496900000002
 20
307.83574299999997
 11
220.37496900000002
 21
307.24487299999998
  0
LINE
  8
_0-4_A2
  6
CONTINUOUS
 62
    7
 10
228.56951299999997
 20
288.03300200000001
 11
228.56951299999997
 21
288.623871
  0
LINE
  8
_0-4_A2
  6
CONTINUOUS
 62
    7
 10
228.57224500000003
 20
288.63434199999994
 11
228.56951900000001
 21
288.62386900000001
  0
LINE
  8
_0-4_A2
  6
CONTINUOUS
 62
    7
 10
222.37496900000002
 20
288.03300200000001
 11
222.37496900000002
 21
288.623871
  0
LINE
  8
_0-4_A2
  6
CONTINUOUS
 62
    7
 10
222.37224200000005
 20
288.63433599999996
 11
222.374966
 21
288.62386900000001
  0
LINE
  8
_0-4_A2
  6
CONTINUOUS
 62
    7
 10
222.37496900000002
 20
288.03300200000001
 11
228.56951299999997
 21
288.03300200000001
  0
LINE
  8
_0-4_A2
  6
CONTINUOUS
 62
    7
 10
222.37496900000002
 20
288.623871
 11
228.56951299999997
 21
288.623871
  0
LINE
  8
_0-4_A2
  6
CONTINUOUS
 62
    7
 10
205.47223500000001
 20
288.63433899999995
 11
222.37223499999998
 21
288.63433899999995
  0
LINE
  8
_0-4_A2
  6
CONTINUOUS
 62
    7
 10
321.87224099999997
 20
289.03433899999993
 11
321.87224099999997
 21
306.83439999999995
  0
LINE
  8
_0-4_A2
  6
CONTINUOUS
 62
    7
 10
205.07223499999997
 20
289.03433899999993
 11
205.07223499999997
 21
306.83439999999995
  0
LINE
  8
_0-4_A2
  6
CONTINUOUS
 62
    7
 10
206.24900500000003
 20
289.41110900000001
 11
320.69547699999998
 21
289.41110900000001
  0
LINE
  8
_0-4_A2
  6
CONTINUOUS
 62
    7
 10
205.47223500000001
 20
307.23439999999993
 11
220.37223500000001
 21
307.23439999999993
  0
LINE
  8
_0-4_A2
  6
CONTINUOUS
 62
    7
 10
206.24900500000003
 20
306.45801999999997
 11
320.69547699999998
 21
306.45801999999997
  0
LINE
  8
_0-4_A2
  6
CONTINUOUS
 62
    7
 10
321.09547700000001
 20
289.81110899999998
 11
321.09547700000001
 21
306.05801999999999
  0
LINE
  8
_0-4_A2
  6
CONTINUOUS
 62
    7
 10
205.84900499999997
 20
289.81110899999998
 11
205.84900499999997
 21
306.05801999999999
  0
ARC
  8
_0-4_A2
  6
CONTINUOUS
 62
    7
 10
204.67099000000004
 20
157.73434499999999
 40
1
 50
180
 51
270
  0
ARC
  8
_0-4_A2
  6
CONTINUOUS
 62
    7
 10
231.97223500000004
 20
157.73434499999999
 40
1
 50
270
 51
0
  0
ARC
  8
_0-4_A2
  6
CONTINUOUS
 62
    7
 10
322.66277400000001
 20
307.92487799999997
 40
0.5999999999999999
 50
0
 51
90
  0
ARC
  8
_0-4_A2
  6
CONTINUOUS
 62
    7
 10
293.27223500000002
 20
286.53432700000001
 40
0.5999999999999999
 50
0
 51
90
  0
ARC
  8
_0-4_A2
  6
CONTINUOUS
 62
    7
 10
233.67223500000002
 20
286.53432700000001
 40
0.5999999999999999
 50
90
 51
180
  0
ARC
  8
_0-4_A2
  6
CONTINUOUS
 62
    7
 10
293.27223500000002
 20
286.34185200000001
 40
0.5999999999999999
 50
0
 51
90
  0
ARC
  8
_0-4_A2
  6
CONTINUOUS
 62
    7
 10
233.67223500000002
 20
286.34185200000001
 40
0.5999999999999999
 50
90
 51
180
  0
ARC
  8
_0-4_A2
  6
CONTINUOUS
 62
    7
 10
204.27098999999998
 20
287.69922200000002
 40
0.5999999999999999
 50
180
 51
266.53899500000005
  0
ARC
  8
_0-4_A2
  6
CONTINUOUS
 62
    7
 10
322.67345599999998
 20
287.69922000000002
 40
0.5999999999999999
 50
273.46100000000001
 51
0.0000000000000127
  0
ARC
  8
_0-4_A2
  6
CONTINUOUS
 62
    7
 10
204.28169600000001
 20
287.734327
 40
0.5999999999999999
 50
180
 51
270
  0
ARC
  8
_0-4_A2
  6
CONTINUOUS
 62
    7
 10
322.66277400000001
 20
287.734327
 40
0.5999999999999999
 50
270
 51
0
  0
ARC
  8
_0-4_A2
  6
CONTINUOUS
 62
    7
 10
204.28169600000001
 20
307.92488100000002
 40
0.5999999999999999
 50
90
 51
180
  0
ARC
  8
_0-4_A2
  6
CONTINUOUS
 62
    7
 10
293.97223500000001
 20
308.44234699999992
 40
0.1
 50
90
 51
180
  0
ARC
  8
_0-4_A2
  6
CONTINUOUS
 62
    7
 10
232.97223500000001
 20
308.44234699999992
 40
0.1
 50
0
 51
90
  0
ARC
  8
_0-4_A2
  6
CONTINUOUS
 62
    7
 10
322.87223499999998
 20
308.13433899999995
 40
0.5999999999999999
 50
0
 51
90.000003000000006
  0
ARC
  8
_0-4_A2
  6
CONTINUOUS
 62
    7
 10
204.07220999999998
 20
308.13433899999995
 40
0.5999999999999999
 50
90.000003000000006
 51
180.00000499999998
  0
ARC
  8
_0-4_A2
  6
CONTINUOUS
 62
    7
 10
229.75673199999999
 20
235.33433899999999
 40
1
 50
0
 51
90.000003000000006
  0
ARC
  8
_0-4_A2
  6
DASHED
 62
    7
 10
229.75673199999999
 20
238.734339
 40
1
 50
269.999997
 51
0
  0
ARC
  8
_0-4_A2
  6
CONTINUOUS
 62
    7
 10
205.25385099999999
 20
238.734339
 40
1
 50
179.99999500000001
 51
269.99999699999995
  0
CIRCLE
  8
_0-4_A2
  6
CONTINUOUS
 62
    7
 10
306.47223500000001
 20
275.73433899999997
 40
1.25
  0
ARC
  8
_0-4_A2
  6
CONTINUOUS
 62
    7
 10
294.97223500000001
 20
157.73434499999999
 40
1
 50
180
 51
270
  0
ARC
  8
_0-4_A2
  6
CONTINUOUS
 62
    7
 10
322.27345600000001
 20
238.734339
 40
1
 50
270
 51
0
  0
ARC
  8
_0-4_A2
  6
DASHED
 62
    7
 10
322.47223500000001
 20
110.534343
 40
1
 50
270
 51
0
  0
ARC
  8
_0-4_A2
  6
DASHED
 62
    7
 10
204.47221000000004
 20
110.534343
 40
1
 50
180
 51
270
  0
CIRCLE
  8
_0-4_A2
  6
CONTINUOUS
 62
    7
 10
306.47223500000001
 20
170.73434499999999
 40
1.5
  0
CIRCLE
  8
_0-4_A2
  6
CONTINUOUS
 62
    7
 10
306.47223500000001
 20
170.73434499999999
 40
1.25
  0
CIRCLE
  8
_0-4_A2
  6
CONTINUOUS
 62
    7
 10
220.47223500000001
 20
170.734339
 40
1.5
  0
CIRCLE
  8
_0-4_A2
  6
CONTINUOUS
 62
    7
 10
220.47223500000001
 20
275.73433899999997
 40
1.5
  0
CIRCLE
  8
_0-4_A2
  6
CONTINUOUS
 62
    7
 10
306.47223500000001
 20
275.73433899999997
 40
1.5
  0
CIRCLE
  8
_0-4_A2
  6
CONTINUOUS
 62
    7
 10
220.47223500000001
 20
170.734339
 40
1.25
  0
ARC
  8
_0-4_A2
  6
CONTINUOUS
 62
    7
 10
204.07220999999998
 20
154.77417000000002
 40
0.5999999999999999
 50
180
 51
270
  0
ARC
  8
_0-4_A2
  6
CONTINUOUS
 62
    7
 10
322.87223499999998
 20
154.77417000000002
 40
0.5999999999999999
 50
270
 51
0
  0
ARC
  8
_0-4_A2
  6
CONTINUOUS
 62
    7
 10
322.27345600000001
 20
157.73434499999999
 40
1
 50
270
 51
0
  0
ARC
  8
_0-4_A2
  6
CONTINUOUS
 62
    7
 10
293.97223500000001
 20
308.44234699999992
 40
0.1
 50
90
 51
180
  0
ARC
  8
_0-4_A2
  6
CONTINUOUS
 62
    7
 10
232.97223500000001
 20
308.44234699999992
 40
0.1
 50
0
 51
90
  0
ARC
  8
_0-4_A2
  6
CONTINUOUS
 62
    7
 10
322.27345600000001
 20
224.73433899999997
 40
1
 50
0
 51
90
  0
ARC
  8
_0-4_A2
  6
CONTINUOUS
 62
    7
 10
205.25385099999999
 20
202.33433899999999
 40
1
 50
90.000003000000006
 51
180.00000499999998
  0
ARC
  8
_0-4_A2
  6
CONTINUOUS
 62
    7
 10
297.18773800000002
 20
202.33433899999999
 40
1
 50
89.999996999999993
 51
180
  0
ARC
  8
_0-4_A2
  6
CONTINUOUS
 62
    7
 10
321.69061900000002
 20
202.33433899999999
 40
1
 50
359.99999500000001
 51
89.999996999999993
  0
ARC
  8
_0-4_A2
  6
CONTINUOUS
 62
    7
 10
321.69061900000002
 20
205.734339
 40
1
 50
270.00000299999999
 51
0.0000049999999688
  0
ARC
  8
_0-4_A2
  6
DASHED
 62
    7
 10
297.18773800000002
 20
205.734339
 40
1
 50
180
 51
270.00000299999999
  0
ARC
  8
_0-4_A2
  6
CONTINUOUS
 62
    7
 10
283.77223500000002
 20
168.13434499999999
 40
0.2
 50
0
 51
90.000003000000006
  0
ARC
  8
_0-4_A2
  6
CONTINUOUS
 62
    7
 10
243.172235
 20
168.13434499999999
 40
0.2
 50
90.000003000000006
 51
180.00000499999998
  0
ARC
  8
_0-4_A2
  6
CONTINUOUS
 62
    7
 10
281.172235
 20
168.13434499999999
 40
0.2
 50
90.000003000000006
 51
180.00000499999998
  0
ARC
  8
_0-4_A2
  6
CONTINUOUS
 62
    7
 10
245.77223500000002
 20
168.13434499999999
 40
0.2
 50
0
 51
90.000003000000006
  0
ARC
  8
_0-4_A2
  6
CONTINUOUS
 62
    7
 10
293.27223500000002
 20
168.53434500000003
 40
0.5999999999999999
 50
269.999997
 51
0
  0
ARC
  8
_0-4_A2
  6
CONTINUOUS
 62
    7
 10
233.67223500000002
 20
168.53434500000003
 40
0.5999999999999999
 50
179.99999500000001
 51
269.99999699999995
  0
ARC
  8
_0-4_A2
  6
CONTINUOUS
 62
    7
 10
322.47223500000001
 20
109.73434299999999
 40
1
 50
269.999997
 51
0
  0
ARC
  8
_0-4_A2
  6
CONTINUOUS
 62
    7
 10
204.47221000000004
 20
109.73434299999999
 40
1
 50
179.99999500000001
 51
269.99999699999995
  0
ARC
  8
_0-4_A2
  6
CONTINUOUS
 62
    7
 10
322.87223499999998
 20
308.13433899999995
 40
0.5999999999999999
 50
0
 51
90.000003000000006
  0
ARC
  8
_0-4_A2
  6
CONTINUOUS
 62
    7
 10
204.07220999999998
 20
308.13433899999995
 40
0.5999999999999999
 50
90.000003000000006
 51
180.00000499999998
  0
CIRCLE
  8
_0-4_A2
  6
CONTINUOUS
 62
    7
 10
220.47223500000001
 20
275.73433899999997
 40
1.25
  0
ARC
  8
_0-4_A2
  6
CONTINUOUS
 62
    7
 10
205.25385099999999
 20
205.734339
 40
1
 50
179.99999500000001
 51
269.99999699999995
  0
ARC
  8
_0-4_A2
  6
DASHED
 62
    7
 10
229.75673199999999
 20
205.734339
 40
1
 50
269.999997
 51
0
  0
ARC
  8
_0-4_A2
  6
CONTINUOUS
 62
    7
 10
229.75673199999999
 20
202.33433899999999
 40
1
 50
0
 51
90.000003000000006
  0
ARC
  8
_0-4_A2
  6
CONTINUOUS
 62
    7
 10
205.25385099999999
 20
235.33433899999999
 40
1
 50
90.000003000000006
 51
180.00000499999998
  0
LINE
  8
_0-4_A2
  6
CONTINUOUS
 62
    7
 10
241.07223499999997
 20
168.33434500000004
 11
285.87223499999998
 21
168.33434500000004
  0
LINE
  8
_0-4_A2
  6
CONTINUOUS
 62
    7
 10
293.97223500000001
 20
154.17417
 11
322.87223499999998
 21
154.17417
  0
LINE
  8
_0-4_A2
  6
CONTINUOUS
 62
    7
 10
204.07220999999998
 20
154.17417
 11
232.97223500000001
 21
154.17417
  0
LINE
  8
_0-4_A2
  6
CONTINUOUS
 62
    7
 10
232.97223500000001
 20
154.73434499999999
 11
293.97223500000001
 21
154.73434499999999
  0
LINE
  8
_0-4_A2
  6
CONTINUOUS
 62
    7
 10
232.97223500000001
 20
157.73434499999999
 11
293.97223500000001
 21
157.73434499999999
  0
LINE
  8
_0-4_A2
  6
CONTINUOUS
 62
    7
 10
228.63974200000001
 20
237.73433900000003
 11
228.63974200000001
 21
236.33433899999999
  0
LINE
  8
_0-4_A2
  6
CONTINUOUS
 62
    7
 10
209.29090200000001
 20
237.73433900000003
 11
209.29090200000001
 21
236.33433899999999
  0
LINE
  8
_0-4_A2
  6
CONTINUOUS
 62
    7
 10
298.30472800000001
 20
204.73433900000003
 11
298.30472800000001
 21
203.33433899999999
  0
LINE
  8
_0-4_A2
  6
CONTINUOUS
 62
    7
 10
317.653568
 20
204.73433900000003
 11
317.653568
 21
203.33433899999999
  0
LINE
  8
_0-4_A2
  6
CONTINUOUS
 62
    7
 10
209.29090200000001
 20
204.73433900000003
 11
209.29090200000001
 21
203.33433899999999
  0
LINE
  8
_0-4_A2
  6
CONTINUOUS
 62
    7
 10
228.63974200000001
 20
204.73433900000003
 11
228.63974200000001
 21
203.33433899999999
  0
LINE
  8
_0-4_A2
  6
CONTINUOUS
 62
    7
 10
218.72410500000003
 20
236.33433899999999
 11
205.25385099999999
 21
236.33433899999999
  0
LINE
  8
_0-4_A2
  6
CONTINUOUS
 62
    7
 10
323.27345600000001
 20
224.73433899999997
 11
323.27345600000001
 21
157.73434499999999
  0
LINE
  8
_0-4_A2
  6
CONTINUOUS
 62
    7
 10
293.97223500000001
 20
237.73433900000003
 11
322.27345600000001
 21
237.73433900000003
  0
LINE
  8
_0-4_A2
  6
CONTINUOUS
 62
    7
 10
293.97223500000001
 20
225.73433900000003
 11
322.27345600000001
 21
225.73433900000003
  0
LINE
  8
_0-4_A2
  6
CONTINUOUS
 62
    7
 10
218.72410500000003
 20
237.73433900000003
 11
205.25385099999999
 21
237.73433900000003
  0
LINE
  8
_0-4_A2
  6
CONTINUOUS
 62
    7
 10
229.75673199999999
 20
236.33433899999999
 11
222.509003
 21
236.33433899999999
  0
LINE
  8
_0-4_A2
  6
CONTINUOUS
 62
    7
 10
229.75673199999999
 20
237.73433900000003
 11
222.509003
 21
237.73433900000003
  0
LINE
  8
_0-4_A2
  6
CONTINUOUS
 62
    7
 10
218.72410500000003
 20
203.33433899999999
 11
205.25385099999999
 21
203.33433899999999
  0
LINE
  8
_0-4_A2
  6
CONTINUOUS
 62
    7
 10
218.72410500000003
 20
204.73433900000003
 11
205.25385099999999
 21
204.73433900000003
  0
LINE
  8
_0-4_A2
  6
CONTINUOUS
 62
    7
 10
229.75673199999999
 20
203.33433899999999
 11
222.509003
 21
203.33433899999999
  0
LINE
  8
_0-4_A2
  6
CONTINUOUS
 62
    7
 10
229.75673199999999
 20
204.73433900000003
 11
222.509003
 21
204.73433900000003
  0
LINE
  8
_0-4_A2
  6
CONTINUOUS
 62
    7
 10
297.18773800000002
 20
204.73433900000003
 11
305.25256000000001
 21
204.73433900000003
  0
LINE
  8
_0-4_A2
  6
CONTINUOUS
 62
    7
 10
297.18773800000002
 20
203.33433899999999
 11
305.25256000000001
 21
203.33433899999999
  0
LINE
  8
_0-4_A2
  6
PHANTOM
 62
    7
 10
232.97223500000001
 20
286.94185399999992
 11
232.97223500000001
 21
154.17417
  0
LINE
  8
_0-4_A2
  6
PHANTOM
 62
    7
 10
293.97223500000001
 20
286.94185399999992
 11
293.97223500000001
 21
154.17417
  0
LINE
  8
_0-4_A2
  6
CONTINUOUS
 62
    7
 10
308.22036500000001
 20
204.73433900000003
 11
321.69061900000002
 21
204.73433900000003
  0
LINE
  8
_0-4_A2
  6
CONTINUOUS
 62
    7
 10
308.22036500000001
 20
203.33433899999999
 11
321.69061900000002
 21
203.33433899999999
  0
LINE
  8
_0-4_A2
  6
CONTINUOUS
 62
    7
 10
323.27345600000001
 20
287.69922000000002
 11
323.27345600000001
 21
238.734339
  0
LINE
  8
_0-4_A2
  6
CONTINUOUS
 62
    7
 10
294.97223500000001
 20
156.73434500000001
 11
322.27345600000001
 21
156.73434500000001
  0
LINE
  8
_0-4_A2
  6
CONTINUOUS
 62
    7
 10
204.67099000000004
 20
156.73434500000001
 11
231.97223500000004
 21
156.73434500000001
  0
LINE
  8
_0-4_A2
  6
CONTINUOUS
 62
    7
 10
232.97223500000001
 20
154.73434499999999
 11
293.53742599999998
 21
154.73434499999999
  0
LINE
  8
_0-4_A2
  6
CONTINUOUS
 62
    7
 10
293.47223500000001
 20
168.33434500000004
 11
288.47223500000001
 21
168.33434500000004
  0
LINE
  8
_0-4_A2
  6
CONTINUOUS
 62
    7
 10
280.97223500000001
 20
168.13434499999999
 11
280.97223500000001
 21
167.934345
  0
LINE
  8
_0-4_A2
  6
CONTINUOUS
 62
    7
 10
283.97223500000001
 20
168.13434499999999
 11
283.97223500000001
 21
167.934345
  0
LINE
  8
_0-4_A2
  6
CONTINUOUS
 62
    7
 10
242.97223500000001
 20
168.13434499999999
 11
242.97223500000001
 21
167.934345
  0
LINE
  8
_0-4_A2
  6
CONTINUOUS
 62
    7
 10
245.97223500000001
 20
168.13434499999999
 11
245.97223500000001
 21
167.934345
  0
LINE
  8
_0-4_A2
  6
CONTINUOUS
 62
    7
 10
281.172235
 20
168.33434500000004
 11
283.77223500000002
 21
168.33434500000004
  0
LINE
  8
_0-4_A2
  6
CONTINUOUS
 62
    7
 10
243.172235
 20
168.33434500000004
 11
245.77223500000002
 21
168.33434500000004
  0
LINE
  8
_0-4_A2
  6
CONTINUOUS
 62
    7
 10
293.47223500000001
 20
286.53433899999998
 11
288.47223500000001
 21
286.53433899999998
  0
LINE
  8
_0-4_A2
  6
CONTINUOUS
 62
    7
 10
233.67223500000002
 20
167.934345
 11
293.27223500000002
 21
167.934345
  0
LINE
  8
_0-4_A2
  6
CONTINUOUS
 62
    7
 10
233.47223500000004
 20
168.33434500000004
 11
238.47223500000001
 21
168.33434500000004
  0
LINE
  8
_0-4_A2
  6
CONTINUOUS
 62
    7
 10
256.48180000000002
 20
207.22850600000003
 11
270.46265299999998
 21
231.44405399999999
  0
LINE
  8
_0-4_A2
  6
CONTINUOUS
 62
    7
 10
256.48180200000001
 20
223.224603
 11
270.462307
 21
247.43954899999999
  0
LINE
  8
_0-4_A2
  6
CONTINUOUS
 62
    7
 10
256.48179700000002
 20
215.22654899999997
 11
270.46267199999999
 21
239.44213400000001
  0
LINE
  8
_0-4_A2
  6
CONTINUOUS
 62
    7
 10
233.47223500000004
 20
286.53433899999998
 11
233.47223500000004
 21
168.33434500000004
  0
LINE
  8
_0-4_A2
  6
CONTINUOUS
 62
    7
 10
293.47223500000001
 20
286.53433899999998
 11
293.47223500000001
 21
168.33434500000004
  0
LINE
  8
_0-4_A2
  6
CONTINUOUS
 62
    7
 10
203.67099000000001
 20
287.69922200000002
 11
203.67099000000001
 21
157.73434499999999
  0
LINE
  8
_0-4_A2
  6
CONTINUOUS
 62
    7
 10
238.471698
 20
286.84234700000001
 11
241.07193800000001
 21
286.84234700000001
  0
LINE
  8
_0-4_A2
  6
CONTINUOUS
 62
    7
 10
293.87223499999998
 20
286.53432700000001
 11
293.87223499999998
 21
168.53434500000003
  0
LINE
  8
_0-4_A2
  6
CONTINUOUS
 62
    7
 10
233.07223499999997
 20
286.53432700000001
 11
233.07223499999997
 21
168.53434500000003
  0
LINE
  8
_0-4_A2
  6
CONTINUOUS
 62
    7
 10
204.07220999999998
 20
308.73433899999997
 11
322.87223499999998
 21
308.73433899999997
  0
LINE
  8
_0-4_A2
  6
CONTINUOUS
 62
    7
 10
204.47221000000004
 20
108.734344
 11
322.47223500000001
 21
108.734344
  0
LINE
  8
_0-4_A2
  6
DASHED
 62
    7
 10
204.47221000000004
 20
109.534343
 11
322.47223500000001
 21
109.534343
  0
LINE
  8
_0-4_A2
  6
CONTINUOUS
 62
    7
 10
204.07220999999998
 20
308.73433899999997
 11
322.87223499999998
 21
308.73433899999997
  0
LINE
  8
_0-4_A2
  6
CONTINUOUS
 62
    7
 10
203.47221000000001
 20
308.13433899999995
 11
203.47221000000001
 21
109.73434299999999
  0
LINE
  8
_0-4_A2
  6
CONTINUOUS
 62
    7
 10
323.47223500000001
 20
308.13433899999995
 11
323.47223500000001
 21
109.73434299999999
  0
LINE
  8
_0-4_A2
  6
CONTINUOUS
 62
    7
 10
285.86157100000002
 20
286.84234700000001
 11
288.47173500000002
 21
286.84234700000001
  0
LINE
  8
_0-4_A2
  6
CONTINUOUS
 62
    7
 10
204.07220999999998
 20
308.73433899999997
 11
322.87223499999998
 21
308.73433899999997
  0
LINE
  8
_0-4_A2
  6
CONTINUOUS
 62
    7
 10
204.07220999999998
 20
308.73433899999997
 11
322.87223499999998
 21
308.73433899999997
  0
LINE
  8
_0-4_A2
  6
CONTINUOUS
 62
    7
 10
238.672235
 20
286.84234700000001
 11
240.87223499999998
 21
286.84234700000001
  0
LINE
  8
_0-4_A2
  6
CONTINUOUS
 62
    7
 10
203.68169600000001
 20
307.92488100000002
 11
203.68169600000001
 21
287.734327
  0
LINE
  8
_0-4_A2
  6
CONTINUOUS
 62
    7
 10
323.26277399999997
 20
307.92487799999997
 11
323.26277399999997
 21
287.734327
  0
LINE
  8
_0-4_A2
  6
CONTINUOUS
 62
    7
 10
204.28169600000001
 20
287.13432699999998
 11
322.66277400000001
 21
287.13432699999998
  0
LINE
  8
_0-4_A2
  6
CONTINUOUS
 62
    7
 10
286.07223499999997
 20
286.84234700000001
 11
288.27223500000002
 21
286.84234700000001
  0
LINE
  8
_0-4_A2
  6
CONTINUOUS
 62
    7
 10
233.67223500000002
 20
286.94185199999992
 11
293.27223500000002
 21
286.94185199999992
  0
LINE
  8
_0-4_A2
  6
CONTINUOUS
 62
    7
 10
204.279727
 20
308.52487799999994
 11
322.66277400000001
 21
308.52487799999994
  0
LINE
  8
_0-4_A2
  6
CONTINUOUS
 62
    7
 10
233.47223500000004
 20
286.53433899999998
 11
238.47223500000001
 21
286.53433899999998
  0
LINE
  8
_0-4_A2
  6
CONTINUOUS
 62
    7
 10
241.07223499999997
 20
286.53433899999998
 11
285.87223499999998
 21
286.53433899999998
  0
ARC
  8
_0-4_A2
  6
CONTINUOUS
 62
    7
 10
456.17225899999993
 20
109.134336
 40
0.5999999999999999
 50
179.99999500000001
 51
269.99999699999995
  0
ARC
  8
_0-4_A2
  6
CONTINUOUS
 62
    7
 10
451.57224699999994
 20
148.520845
 40
4
 50
0
 51
55
  0
ARC
  8
_0-4_A2
  6
CONTINUOUS
 62
    7
 10
451.07225899999997
 20
154.48650400000002
 40
0.5999999999999999
 50
180
 51
235
  0
ARC
  8
_0-4_A2
  6
CONTINUOUS
 62
    7
 10
460.67225899999993
 20
229.24604299999998
 40
0.4
 50
108.434949
 51
180
  0
ARC
  8
_0-4_A2
  6
CONTINUOUS
 62
    7
 10
460.67225899999993
 20
228.22264999999998
 40
0.4
 50
180
 51
251.56505100000001
  0
ARC
  8
_0-4_A2
  6
CONTINUOUS
 62
    7
 10
449.97225899999995
 20
230.63433600000001
 40
0.1
 50
89.999982000000002
 51
179.999964
  0
ARC
  8
_0-4_A2
  6
CONTINUOUS
 62
    7
 10
449.97225899999995
 20
228.834336
 40
0.1
 50
179.999964
 51
270.00000099999999
  0
ARC
  8
_0-4_A2
  6
CONTINUOUS
 62
    7
 10
449.77225899999996
 20
226.94908199999997
 40
0.5999999999999999
 50
180.00025499999998
 51
261.25387899999998
  0
ARC
  8
_0-4_A2
  6
CONTINUOUS
 62
    7
 10
449.77225899999996
 20
232.51957999999996
 40
0.5999999999999999
 50
98.746121000000002
 51
180.00001900000003
  0
ARC
  8
_0-4_A2
  6
CONTINUOUS
 62
    7
 10
450.07225900000003
 20
287.68412999999998
 40
0.5999999999999999
 50
180
 51
265
  0
ARC
  8
_0-4_A2
  6
CONTINUOUS
 62
    7
 10
450.07225900000003
 20
307.935268
 40
0.5999999999999999
 50
91
 51
180
  0
ARC
  8
_0-4_A2
  6
CONTINUOUS
 62
    7
 10
450.37225899999998
 20
286.95520999999996
 40
0.1
 50
0
 51
84.999999999999985
  0
ARC
  8
_0-4_A2
  6
CONTINUOUS
 62
    7
 10
456.17225899999993
 20
109.134336
 40
0.5999999999999999
 50
179.99999500000001
 51
269.99999699999995
  0
ARC
  8
_0-4_A2
  6
CONTINUOUS
 62
    7
 10
451.57224699999994
 20
148.520845
 40
4
 50
0
 51
55
  0
ARC
  8
_0-4_A2
  6
CONTINUOUS
 62
    7
 10
451.07225899999997
 20
154.48650400000002
 40
0.5999999999999999
 50
180
 51
235
  0
ARC
  8
_0-4_A2
  6
CONTINUOUS
 62
    7
 10
460.67225899999993
 20
229.24604299999998
 40
0.4
 50
108.434949
 51
180
  0
ARC
  8
_0-4_A2
  6
CONTINUOUS
 62
    7
 10
460.67225899999993
 20
228.22264999999998
 40
0.4
 50
180
 51
251.56505100000001
  0
ARC
  8
_0-4_A2
  6
CONTINUOUS
 62
    7
 10
449.97225899999995
 20
230.63433600000001
 40
0.1
 50
89.999982000000002
 51
179.999964
  0
ARC
  8
_0-4_A2
  6
CONTINUOUS
 62
    7
 10
449.97225899999995
 20
228.834336
 40
0.1
 50
179.999964
 51
270.00000099999999
  0
ARC
  8
_0-4_A2
  6
CONTINUOUS
 62
    7
 10
449.77225899999996
 20
226.94908199999997
 40
0.5999999999999999
 50
180.00025499999998
 51
261.25387899999998
  0
ARC
  8
_0-4_A2
  6
CONTINUOUS
 62
    7
 10
449.77225899999996
 20
232.51957999999996
 40
0.5999999999999999
 50
98.746121000000002
 51
180.00001900000003
  0
ARC
  8
_0-4_A2
  6
CONTINUOUS
 62
    7
 10
450.07225900000003
 20
287.68412999999998
 40
0.5999999999999999
 50
180
 51
265
  0
ARC
  8
_0-4_A2
  6
CONTINUOUS
 62
    7
 10
450.07225900000003
 20
307.935268
 40
0.5999999999999999
 50
91
 51
180
  0
ARC
  8
_0-4_A2
  6
CONTINUOUS
 62
    7
 10
450.37225899999998
 20
286.95520999999996
 40
0.1
 50
0
 51
84.999999999999985
  0
ARC
  8
_0-4_A2
  6
CONTINUOUS
 62
    3
 10
438.76363800000001
 20
306.35308299999996
 40
0.0199999999999999
 50
92.999999000000002
 51
182.50000499999998
  0
ARC
  8
_0-4_A2
  6
CONTINUOUS
 62
    3
 10
438.726022
 20
306.29747400000002
 40
0.0199999999999999
 50
273.499998
 51
2.5000000000000226
  0
ARC
  8
_0-4_A2
  6
CONTINUOUS
 62
    3
 10
437.172256
 20
289.48731099999997
 40
0.4
 50
179.99999500000001
 51
266.49999699999995
  0
ARC
  8
_0-4_A2
  6
CONTINUOUS
 62
    3
 10
437.172256
 20
305.78165999999998
 40
0.4
 50
93.500003000000006
 51
180.00000499999998
  0
LINE
  8
_0-4_A2
  6
CENTER
 62
    7
 10
263.47406599999999
 20
316.06592
 11
263.47406599999999
 21
104.97507100000001
  0
LINE
  8
_0-4_A2
  6
CONTINUOUS
 62
    7
 10
461.472259
 20
308.73434700000001
 11
461.472259
 21
229.934347
  0
LINE
  8
_0-4_A2
  6
CONTINUOUS
 62
    7
 10
456.27225900000001
 20
109.48895799999999
 11
461.472259
 21
109.53433699999999
  0
LINE
  8
_0-4_A2
  6
CONTINUOUS
 62
    7
 10
456.27225900000001
 20
109.48895799999999
 11
456.27225900000001
 21
108.53433699999999
  0
LINE
  8
_0-4_A2
  6
CONTINUOUS
 62
    7
 10
456.27225900000001
 20
108.53433699999999
 11
456.17225899999993
 21
108.53433699999999
  0
LINE
  8
_0-4_A2
  6
CONTINUOUS
 62
    7
 10
455.57225899999997
 20
148.520845
 11
455.57225899999997
 21
109.134336
  0
LINE
  8
_0-4_A2
  6
CONTINUOUS
 62
    7
 10
450.472259
 20
286.95520999999996
 11
450.472259
 21
237.534332
  0
LINE
  8
_0-4_A2
  6
CONTINUOUS
 62
    7
 10
450.472259
 20
156.73433800000003
 11
450.472259
 21
154.48650400000002
  0
LINE
  8
_0-4_A2
  6
CONTINUOUS
 62
    7
 10
450.472259
 20
212.73433199999999
 11
450.472259
 21
156.73433800000003
  0
LINE
  8
_0-4_A2
  6
CONTINUOUS
 62
    7
 10
450.472259
 20
237.534332
 11
450.472259
 21
212.73433199999999
  0
LINE
  8
_0-4_A2
  6
CONTINUOUS
 62
    7
 10
450.728113
 20
153.995012
 11
453.86655299999995
 21
151.79745299999999
  0
LINE
  8
_0-4_A2
  6
CONTINUOUS
 62
    7
 10
460.54576799999995
 20
229.625516
 11
461.472259
 21
229.934347
  0
LINE
  8
_0-4_A2
  6
CONTINUOUS
 62
    7
 10
461.472259
 20
227.53434699999996
 11
460.54576799999995
 21
227.84317700000002
  0
LINE
  8
_0-4_A2
  6
CONTINUOUS
 62
    7
 10
460.27225899999996
 20
229.24604299999998
 11
460.27225899999996
 21
228.22264999999998
  0
LINE
  8
_0-4_A2
  6
CONTINUOUS
 62
    7
 10
461.472259
 20
227.53434699999996
 11
461.472259
 21
109.53433699999999
  0
LINE
  8
_0-4_A2
  6
CONTINUOUS
 62
    7
 10
450.06178800000003
 20
308.53517599999997
 11
461.47223999999994
 21
308.73434600000001
  0
LINE
  8
_0-4_A2
  6
CONTINUOUS
 62
    7
 10
449.17225899999999
 20
232.51957999999996
 11
449.17225899999999
 21
226.94908199999997
  0
LINE
  8
_0-4_A2
  6
CONTINUOUS
 62
    7
 10
450.472259
 20
233.23433600000004
 11
450.472259
 21
230.73433599999998
  0
LINE
  8
_0-4_A2
  6
CONTINUOUS
 62
    7
 10
449.68102099999993
 20
233.11260199999998
 11
450.47225600000001
 21
233.23433099999999
  0
LINE
  8
_0-4_A2
  6
CONTINUOUS
 62
    7
 10
449.68102299999998
 20
226.35606100000001
 11
450.47225100000002
 21
226.23433299999999
  0
LINE
  8
_0-4_A2
  6
CONTINUOUS
 62
    7
 10
449.87225900000004
 20
230.63433600000001
 11
449.87225900000004
 21
228.834336
  0
LINE
  8
_0-4_A2
  6
CONTINUOUS
 62
    7
 10
449.97225899999995
 20
230.73433599999998
 11
450.472259
 21
230.73433599999998
  0
LINE
  8
_0-4_A2
  6
CONTINUOUS
 62
    7
 10
449.97225899999995
 20
228.73433600000004
 11
450.472259
 21
228.73433600000004
  0
LINE
  8
_0-4_A2
  6
CONTINUOUS
 62
    7
 10
450.472259
 20
228.73433600000004
 11
450.472259
 21
226.23433599999998
  0
LINE
  8
_0-4_A2
  6
CONTINUOUS
 62
    7
 10
460.27225899999996
 20
109.523865
 11
460.27225899999996
 21
108.43433699999999
  0
LINE
  8
_0-4_A2
  6
CONTINUOUS
 62
    7
 10
458.87225900000004
 20
109.511648
 11
458.87225900000004
 21
108.43433699999999
  0
LINE
  8
_0-4_A2
  6
CONTINUOUS
 62
    7
 10
458.87225900000004
 20
108.43433699999999
 11
460.27225899999996
 21
108.43433699999999
  0
LINE
  8
_0-4_A2
  6
CONTINUOUS
 62
    7
 10
450.01996599999995
 20
287.08641399999999
 11
450.38097500000003
 21
287.05482899999998
  0
LINE
  8
_0-4_A2
  6
CONTINUOUS
 62
    7
 10
461.472259
 20
308.73434700000001
 11
461.472259
 21
229.934347
  0
LINE
  8
_0-4_A2
  6
CONTINUOUS
 62
    7
 10
456.27225900000001
 20
109.48895799999999
 11
461.472259
 21
109.53433699999999
  0
LINE
  8
_0-4_A2
  6
CONTINUOUS
 62
    7
 10
456.27225900000001
 20
109.48895799999999
 11
456.27225900000001
 21
108.53433699999999
  0
LINE
  8
_0-4_A2
  6
CONTINUOUS
 62
    7
 10
456.27225900000001
 20
108.53433699999999
 11
456.17225899999993
 21
108.53433699999999
  0
LINE
  8
_0-4_A2
  6
CONTINUOUS
 62
    7
 10
455.57225899999997
 20
148.520845
 11
455.57225899999997
 21
109.134336
  0
LINE
  8
_0-4_A2
  6
CONTINUOUS
 62
    7
 10
450.472259
 20
286.95520999999996
 11
450.472259
 21
237.534332
  0
LINE
  8
_0-4_A2
  6
CONTINUOUS
 62
    7
 10
450.472259
 20
156.73433800000003
 11
450.472259
 21
154.48650400000002
  0
LINE
  8
_0-4_A2
  6
CONTINUOUS
 62
    7
 10
450.472259
 20
212.73433199999999
 11
450.472259
 21
156.73433800000003
  0
LINE
  8
_0-4_A2
  6
CONTINUOUS
 62
    7
 10
450.472259
 20
237.534332
 11
450.472259
 21
212.73433199999999
  0
LINE
  8
_0-4_A2
  6
CONTINUOUS
 62
    7
 10
450.728113
 20
153.995012
 11
453.86655299999995
 21
151.79745299999999
  0
LINE
  8
_0-4_A2
  6
CONTINUOUS
 62
    7
 10
460.54576799999995
 20
229.625516
 11
461.472259
 21
229.934347
  0
LINE
  8
_0-4_A2
  6
CONTINUOUS
 62
    7
 10
461.472259
 20
227.53434699999996
 11
460.54576799999995
 21
227.84317700000002
  0
LINE
  8
_0-4_A2
  6
CONTINUOUS
 62
    7
 10
460.27225899999996
 20
229.24604299999998
 11
460.27225899999996
 21
228.22264999999998
  0
LINE
  8
_0-4_A2
  6
CONTINUOUS
 62
    7
 10
461.472259
 20
227.53434699999996
 11
461.472259
 21
109.53433699999999
  0
LINE
  8
_0-4_A2
  6
CONTINUOUS
 62
    7
 10
450.06178800000003
 20
308.53517599999997
 11
461.47223999999994
 21
308.73434600000001
  0
LINE
  8
_0-4_A2
  6
CONTINUOUS
 62
    7
 10
449.17225899999999
 20
232.51957999999996
 11
449.17225899999999
 21
226.94908199999997
  0
LINE
  8
_0-4_A2
  6
CONTINUOUS
 62
    7
 10
450.472259
 20
233.23433600000004
 11
450.472259
 21
230.73433599999998
  0
LINE
  8
_0-4_A2
  6
CONTINUOUS
 62
    7
 10
449.68102099999993
 20
233.11260199999998
 11
450.47225600000001
 21
233.23433099999999
  0
LINE
  8
_0-4_A2
  6
CONTINUOUS
 62
    7
 10
449.68102299999998
 20
226.35606100000001
 11
450.47225100000002
 21
226.23433299999999
  0
LINE
  8
_0-4_A2
  6
CONTINUOUS
 62
    7
 10
449.87225900000004
 20
230.63433600000001
 11
449.87225900000004
 21
228.834336
  0
LINE
  8
_0-4_A2
  6
CONTINUOUS
 62
    7
 10
449.97225899999995
 20
230.73433599999998
 11
450.472259
 21
230.73433599999998
  0
LINE
  8
_0-4_A2
  6
CONTINUOUS
 62
    7
 10
449.97225899999995
 20
228.73433600000004
 11
450.472259
 21
228.73433600000004
  0
LINE
  8
_0-4_A2
  6
CONTINUOUS
 62
    7
 10
450.472259
 20
228.73433600000004
 11
450.472259
 21
226.23433599999998
  0
LINE
  8
_0-4_A2
  6
CONTINUOUS
 62
    7
 10
460.27225899999996
 20
109.523865
 11
460.27225899999996
 21
108.73433700000001
  0
LINE
  8
_0-4_A2
  6
CONTINUOUS
 62
    7
 10
458.87225900000004
 20
109.511648
 11
458.87225900000004
 21
108.73433700000001
  0
LINE
  8
_0-4_A2
  6
CONTINUOUS
 62
    7
 10
449.472259
 20
307.935268
 11
449.472259
 21
287.68412999999998
  0
LINE
  8
_0-4_A2
  6
CONTINUOUS
 62
    7
 10
450.01996599999995
 20
287.08641399999999
 11
450.38097500000003
 21
287.05482899999998
  0
LINE
  8
_0-4_A2
  6
CONTINUOUS
 62
    3
 10
449.44161000000002
 20
306.93283100000002
 11
437.14783799999997
 21
306.18091199999997
  0
LINE
  8
_0-4_A2
  6
CONTINUOUS
 62
    3
 10
436.77225600000002
 20
305.78165999999998
 11
436.77225600000002
 21
289.48731099999997
  0
LINE
  8
_0-4_A2
  6
CONTINUOUS
 62
    3
 10
449.47226
 20
288.33426200000002
 11
437.14784199999996
 21
289.08805599999999
  0
LINE
  8
_0-4_A2
  6
PHANTOM
 62
    7
 10
450.47244900000004
 20
164.73419699999999
 11
450.47244900000004
 21
156.73419699999999
  0
LINE
  8
_0-4_A2
  6
PHANTOM
 62
    7
 10
450.47244900000004
 20
245.73420299999997
 11
450.47244900000004
 21
237.73420300000003
  0
LINE
  8
_0-4_A2
  6
PHANTOM
 62
    7
 10
450.47244900000004
 20
212.73419699999999
 11
450.47244900000004
 21
204.73419699999999
  0
TEXT
  8
_0-3_A1
 62
    7
 10
489.22845219698814
 20
381.79985599999997
 40
4.5
 41
0.86951
 50
0
  1
ＬＥＤ照明
  0
TEXT
  8
_0-3_A1
 62
    7
 10
489.22845219698814
 20
387.79985599999997
 40
4.5
 41
0.86951
 50
0
  1
コンセント
  0
TEXT
  8
_0-3_A1
 62
    7
 10
502.92323469698817
 20
405.79985599999997
 40
4.5
 41
0.86951
 50
0
  1
鏡
  0
TEXT
  8
_0-3_A1
 62
    7
 10
543.27035425889334
 20
381.05031400000001
 40
4.5
 41
0.790598
 50
0
  1
消費電力
  0
TEXT
  8
_0-3_A1
 62
    7
 10
529.55154397199009
 20
381.79985599999997
 40
4.5
 41
0.733333
 50
0
  1
１
  0
TEXT
  8
_0-3_A1
 62
    7
 10
529.55154397199009
 20
387.79985599999997
 40
4.5
 41
0.733333
 50
0
  1
１
  0
TEXT
  8
_0-3_A1
 62
    7
 10
529.55154397199009
 20
393.79985599999997
 40
4.5
 41
0.733333
 50
0
  1
６
  0
TEXT
  8
_0-3_A1
 62
    7
 10
529.55154397199009
 20
399.79985599999997
 40
4.5
 41
0.733333
 50
0
  1
１
  0
TEXT
  8
_0-3_A1
 62
    7
 10
529.55154397199009
 20
405.79985599999997
 40
4.5
 41
0.733333
 50
0
  1
１
  0
TEXT
  8
_0-3_A1
 62
    7
 10
477.61843559649315
 20
381.79985599999997
 40
4.5
 41
0.86951
 50
0
  1
５
  0
TEXT
  8
_0-3_A1
 62
    7
 10
477.61843559649315
 20
387.79985599999997
 40
4.5
 41
0.86951
 50
0
  1
４
  0
TEXT
  8
_0-3_A1
 62
    7
 10
477.61843559649315
 20
393.79985599999997
 40
4.5
 41
0.86951
 50
0
  1
３
  0
TEXT
  8
_0-3_A1
 62
    7
 10
477.61843559649315
 20
399.79985599999997
 40
4.5
 41
0.86951
 50
0
  1
２
  0
TEXT
  8
_0-3_A1
 62
    7
 10
477.61843559649315
 20
405.79985599999997
 40
4.5
 41
0.86951
 50
0
  1
１
  0
LINE
  8
_0-3_A1
  6
CONTINUOUS
 62
    7
 10
474.40675209649305
 20
417.05003900000002
 11
596.40673064525049
 21
417.05003900000002
  0
LINE
  8
_0-3_A1
  6
CONTINUOUS
 62
    7
 10
474.40675209649305
 20
375.05049699999995
 11
596.40673064525049
 21
375.05049699999995
  0
LINE
  8
_0-3_A1
  6
CONTINUOUS
 62
    7
 10
474.40675209649305
 20
405.04985599999997
 11
596.40673064525049
 21
405.04985599999997
  0
LINE
  8
_0-3_A1
  6
CONTINUOUS
 62
    7
 10
474.40675209649305
 20
399.04994699999991
 11
596.40673064525049
 21
399.04994699999991
  0
LINE
  8
_0-3_A1
  6
CONTINUOUS
 62
    7
 10
474.40675209649305
 20
411.04985599999997
 11
596.40673064525049
 21
411.04985599999997
  0
LINE
  8
_0-3_A1
  6
CONTINUOUS
 62
    7
 10
474.40675209649305
 20
387.05013099999996
 11
596.40673064525049
 21
387.05013099999996
  0
LINE
  8
_0-3_A1
  6
CONTINUOUS
 62
    7
 10
474.40675209649305
 20
393.05003900000002
 11
596.40673064525049
 21
393.05003900000002
  0
TEXT
  8
_0-4_A2
 62
    7
 10
340.16007799999999
 20
368.02472456249995
 40
7.5
 41
1
 50
90
  1
71
  0
TEXT
  8
_0-4_A2
 62
    7
 10
303.25037337499998
 20
347.44048400000002
 40
7.5
 41
1
 50
0
  1
130
  0
TEXT
  8
_0-4_A2
 62
    7
 10
283.66798099999999
 20
348.368360375
 40
7.5
 41
1
 50
90
  1
115
  0
TEXT
  8
_0-4_A2
 62
    7
 10
259.06037131250002
 20
337.55614400000001
 40
7.5
 41
1
 50
0
  1
600
  0
TEXT
  8
_0-4_A2
 62
    7
 10
243.98742553124998
 20
328.228135
 40
7.5
 41
1
 50
0
  1
300（鏡寸法）
  0
TEXT
  8
_0-4_A2
 62
    7
 10
173.72223500000001
 20
201.36559621874999
 40
7.5
 41
1
 50
90
  1
589.5（鏡寸法）
  0
TEXT
  8
_0-4_A2
 62
    7
 10
353.72223500000001
 20
293.24684031250001
 40
7.5
 41
1
 50
90
  1
108
  0
TEXT
  8
_0-4_A2
 62
    7
 10
353.72223500000001
 20
257.7468433125
 40
7.5
 41
1
 50
90
  1
247
  0
TEXT
  8
_0-4_A2
 62
    7
 10
353.72223500000001
 20
216.5468463125
 40
7.5
 41
1
 50
90
  1
165
  0
TEXT
  8
_0-4_A2
 62
    7
 10
353.72223500000001
 20
176.0468463125
 40
7.5
 41
1
 50
90
  1
240
  0
TEXT
  8
_0-4_A2
 62
    7
 10
353.72223500000001
 20
128.44684431249999
 40
7.5
 41
1
 50
90
  1
236
  0
TEXT
  8
_0-4_A2
 62
    7
 10
368.72223499999995
 20
204.4468403125
 40
7.5
 41
1
 50
90
  1
996
  0
TEXT
  8
_0-4_A2
 62
    7
 10
440.613919
 20
337.55614400000001
 40
7.5
 41
1
 50
0
  1
123.5
  0
TEXT
  8
_0-4_A2
 62
    7
 10
452.39517646875003
 20
328.228135
 40
7.5
 41
1
 50
0
  1
60
  0
TEXT
  8
_0-4_A2
 62
    7
 10
422.85393099999993
 20
252.37485818749999
 40
7.5
 41
1
 50
90
  1
37.5
  0
TEXT
  8
_0-4_A2
 62
    7
 10
470.49616746874994
 20
132.594039
 40
7.5
 41
1
 50
0
  1
30
  0
TEXT
  8
_0-4_A2
 62
    7
 10
434.25114318738599
 20
78.484343999999993
 40
7.5
 41
1
 50
0
  1
（130）
  0
TEXT
  8
_0-4_A2
 62
    7
 10
368.72223499999995
 20
99.439751625000013
 40
7.5
 41
1
 50
90
  1
5
  0
LINE
  8
_0-3_A1
  6
CONTINUOUS
 62
    7
 10
474.40675209649305
 20
369.050589
 11
596.40673064525049
 21
369.050589
  0
LINE
  8
_0-3_A1
  6
CONTINUOUS
 62
    7
 10
474.40675209649305
 20
375.05049699999995
 11
596.40673064525049
 21
375.05049699999995
  0
LINE
  8
_0-3_A1
  6
CONTINUOUS
 62
    7
 10
474.40675209649305
 20
417.05003900000002
 11
474.40675209649305
 21
369.050589
  0
LINE
  8
_0-3_A1
  6
CONTINUOUS
 62
    7
 10
596.40673064525049
 20
417.05003900000002
 11
596.40673064525049
 21
369.050589
  0
LINE
  8
_0-3_A1
  6
CONTINUOUS
 62
    7
 10
537.05487672199012
 20
369.050589
 11
537.05487672199012
 21
417.05003900000002
  0
LINE
  8
_0-3_A1
  6
CONTINUOUS
 62
    7
 10
525.05487672199012
 20
369.050589
 11
525.05487672199012
 21
417.05003900000002
  0
LINE
  8
_0-3_A1
  6
CONTINUOUS
 62
    7
 10
484.40673709649314
 20
369.050589
 11
484.40673709649314
 21
417.05003900000002
  0
TEXT
  8
_0-3_A1
 62
    7
 10
477.61843559649315
 20
369.87897889842628
 40
4.5
 41
0.86951
 50
0
  1
６
  0
TEXT
  8
_0-3_A1
 62
    7
 10
489.22845219698814
 20
369.44868785765379
 40
4.5
 41
0.86951
 50
0
  1
電源コード
  0
TEXT
  8
_0-3_A1
 62
    7
 10
529.55154397199009
 20
369.73554855150212
 40
4.5
 41
0.733333
 50
0
  1
１
  0
LINE
  8
_0-3_A1
  6
CONTINUOUS
 62
    7
 10
499.40692264525046
 20
367.12623543061516
 11
596.40673064525049
 21
367.12623543061516
  0
LINE
  8
_0-3_A1
  6
CONTINUOUS
 62
    7
 10
499.40692264525046
 20
361.12623543061516
 11
596.40673064525049
 21
361.12623543061516
  0
LINE
  8
_0-3_A1
  6
CONTINUOUS
 62
    7
 10
499.40692264525046
 20
355.12623543061516
 11
596.40673064525049
 21
355.12623543061516
  0
LINE
  8
_0-3_A1
  6
CONTINUOUS
 62
    7
 10
499.40692264525046
 20
345.12623543061516
 11
596.40673064525049
 21
345.12623543061516
  0
LINE
  8
_0-3_A1
  6
CONTINUOUS
 62
    7
 10
531.40692264525046
 20
361.12623543061516
 11
531.40692264525046
 21
345.12623543061516
  0
LINE
  8
_0-3_A1
  6
CONTINUOUS
 62
    7
 10
596.40673064525049
 20
367.12623543061516
 11
596.40673064525049
 21
345.12623543061516
  0
LINE
  8
_0-3_A1
  6
CONTINUOUS
 62
    7
 10
499.40692264525046
 20
367.12623543061516
 11
499.40692264525046
 21
345.12623543061516
  0
TEXT
  8
_0-3_A1
 62
    7
 10
537.05349514525039
 20
361.87623543061516
 40
4.5
 41
0.733333
 50
0
  1
仕　　　　様
  0
TEXT
  8
_0-3_A1
 62
    7
 10
510.87738227025039
 20
349.87623543061516
 40
4.5
 41
0.86951
 50
0
  1
電源
  0
TEXT
  8
_0-3_A1
 62
    7
 10
537.2600134101176
 20
387.85176368025753
 40
4.5
 41
0.790598
 50
0
  1
１口／個
  0
ARC
  8
_0-4_A2
  6
CONTINUOUS
 62
    7
 10
327.09625800000003
 20
98.967015500000016
 40
1.8499979999999998
 50
161.075422
 51
198.92466999999999
  0
ARC
  8
_0-4_A2
  6
CONTINUOUS
 62
    7
 10
328.95758599999999
 20
102.5451405
 40
0.1999989999999999
 50
265.91441700000001
 51
355.91436499999997
  0
ARC
  8
_0-4_A2
  6
CONTINUOUS
 62
    7
 10
331.34821099999999
 20
102.33676650000001
 40
0.1999989999999999
 50
184.08563699999999
 51
245.51728700000001
  0
ARC
  8
_0-4_A2
  6
CONTINUOUS
 62
    7
 10
331.100164
 20
101.79062350000002
 40
0.3999989999999999
 50
8.2518860000000007
 51
85.914381000000005
  0
ARC
  8
_0-4_A2
  6
CONTINUOUS
 62
    7
 10
331.100164
 20
97.743260500000019
 40
0.3999989999999999
 50
274.085619
 51
351.74838699999997
  0
ARC
  8
_0-4_A2
  6
CONTINUOUS
 62
    7
 10
317.14606300000002
 20
99.766942499999998
 40
14.499976999999997
 50
351.74824
 51
8.2518860000000202
  0
ARC
  8
_0-4_A2
  6
CONTINUOUS
 62
    7
 10
330.65973500000001
 20
106.3670395
 40
0.1999989999999999
 50
4.085634999999999
 51
90.00003700000002
  0
ARC
  8
_0-4_A2
  6
CONTINUOUS
 62
    7
 10
329.63239099999998
 20
106.3670395
 40
0.1999989999999999
 50
89.999926999999985
 51
175.914363
  0
LINE
  8
_0-4_A2
  6
CONTINUOUS
 62
    7
 10
331.13979899999998
 20
97.344698500000006
 11
328.65686700000003
 21
97.16734550000001
  0
LINE
  8
_0-4_A2
  6
CONTINUOUS
 62
    7
 10
328.66446000000001
 20
102.36498250000001
 11
331.14739200000002
 21
102.18763050000001
  0
LINE
  8
_0-4_A2
  6
CONTINUOUS
 62
    7
 10
328.647039
 20
102.36703950000001
 11
328.647039
 21
97.1669665
  0
LINE
  8
_0-4_A2
  6
CONTINUOUS
 62
    7
 10
329.17646100000001
 20
102.52887250000001
 11
329.45148199999999
 21
106.37916950000001
  0
LINE
  8
_0-4_A2
  6
CONTINUOUS
 62
    7
 10
330.87026400000002
 20
106.38157150000002
 11
331.16017399999998
 21
102.3228205
  0
LINE
  8
_0-4_A2
  6
CONTINUOUS
 62
    7
 10
330.66071099999999
 20
106.5669905
 11
329.63336700000002
 21
106.5669905
  0
LINE
  8
_0-4_A2
  6
CONTINUOUS
 62
    7
 10
328.647039
 20
98.367039500000004
 11
325.34723500000001
 21
98.367039500000004
  0
LINE
  8
_0-4_A2
  6
CONTINUOUS
 62
    7
 10
328.647039
 20
99.566990500000002
 11
325.34723500000001
 21
99.566990500000002
  0
ARC
  8
_0-4_A2
  6
CONTINUOUS
 62
    7
 10
325.64606300000002
 20
131.07420050000001
 40
4.9999770000000003
 50
0.000036
 51
89.999982000000002
  0
ARC
  8
_0-4_A2
  6
CONTINUOUS
 62
    7
 10
325.64606300000002
 20
131.07420050000001
 40
3.9999769999999998
 50
0.000036
 51
89.999982000000002
  0
LINE
  8
_0-4_A2
  6
CONTINUOUS
 62
    7
 10
323.47223500000001
 20
136.0741395
 11
325.64606300000002
 21
136.0741395
  0
LINE
  8
_0-4_A2
  6
CONTINUOUS
 62
    7
 10
323.47223500000001
 20
135.07420050000001
 11
325.64606300000002
 21
135.07420050000001
  0
LINE
  8
_0-4_A2
  6
CONTINUOUS
 62
    7
 10
329.647039
 20
131.07420050000001
 11
329.647039
 21
106.5669905
  0
LINE
  8
_0-4_A2
  6
CONTINUOUS
 62
    7
 10
330.647039
 20
131.07420050000001
 11
330.647039
 21
106.5669905
  0
TEXT
  8
_0-3_A1
 62
    7
 10
286.00697424892706
 20
37.186695278969949
 40
7.5
 41
1
 50
0
  1
品　番：ＷＳＲ－６０ＭＫ
  0
TEXT
  8
_0-3_A1
 62
    7
 10
476.86710367489268
 20
411.42500799999993
 40
4.5
 41
0.6666666666666666
 50
0
  1
ＮＯ
  0
TEXT
  8
_0-3_A1
 62
    7
 10
490.00085619698819
 20
411.42500799999993
 40
4.5
 41
0.6666666666666666
 50
0
  1
部　材　名
  0
TEXT
  8
_0-3_A1
 62
    7
 10
525.77041328449013
 20
411.42500799999993
 40
4.5
 41
0.6666666666666666
 50
0
  1
数量
  0
TEXT
  8
_0-3_A1
 62
    7
 10
557.32078394639324
 20
411.42479399999996
 40
4.5
 41
0.6666666666666666
 50
0
  1
備考
  0
TEXT
  8
_0-3_A1
 62
    7
 10
489.41084361587991
 20
393.79985599999997
 40
4.5
 41
0.86951
 50
0
  1
着脱トレイ
  0
TEXT
  8
_0-3_A1
 62
    7
 10
485.60008717811166
 20
399.79985599999997
 40
4.5
 41
0.6666666666666666
 50
0
  1
ミラーキャビネット
  0
TEXT
  8
_0-3_A1
 62
    7
 10
538.88708388389329
 20
405.79996199999993
 40
4.5
 41
0.6666666666666666
 50
0
  1
くもりシャットなし
  0
TEXT
  8
_0-3_A1
 62
    7
 10
540.06214793454944
 20
393.79996299999993
 40
4.5
 41
0.5
 50
0
  1
収納重量（耐荷重）各１ｋｇ
  0
TEXT
  8
_0-3_A1
 62
    7
 10
545.77828259120178
 20
376.55031400000001
 40
4.5
 41
0.6666666666666666
 50
0
  1
　Ｗ６００：　９．５Ｗ
  0
TEXT
  8
_0-3_A1
 62
    7
 10
546.09584562768247
 20
355.7627214306151
 40
4.5
 41
0.8333329999999999
 50
0
  1
１口合計　１２００Ｗ
  0
TEXT
  8
_0-3_A1
 62
    7
 10
502.38418723175971
 20
355.87623543061516
 40
4.5
 41
0.6666666666666666
 50
0
  1
コンセント
  0
TEXT
  8
_0-3_A1
 62
    7
 10
544.19115477467812
 20
349.7627214306151
 40
4.5
 41
0.8333329999999999
 50
0
  1
直結配線仕様
  0
TEXT
  8
_0-3_A1
 62
    7
 10
535.36950107296138
 20
345.2627214306151
 40
4.5
 41
0.5
 50
0
  1
ＡＣ１００Ｖ（５０Ｈｚ／６０Ｈｚ共用）
  0
ENDSEC
  0
EOF
