  0
SECTION
  2
HEADER
  9
$ACADVER
  1
AC1009
  9
$INSBASE
 10
0
 20
0
 30
0
  9
$EXTMIN
 10
0
 20
0
  9
$EXTMAX
 10
630
 20
445.5
  9
$LIMMIN
 10
0
 20
0
  9
$LIMMAX
 10
630
 20
445.5
  9
$LTSCALE
 40
1.5
  0
ENDSEC
  0
SECTION
  2
TABLES
  0
TABLE
  2
LTYPE
 70
     9
  0
LTYPE
  2
CONTINUOUS
 70
    64
  3
実線
 72
    65
 73
     0
 40
0.0
  0
LTYPE
  2
DASHED1
 70
    64
  3
--  --  --  --  --  --  --  --  
 72
    65
 73
     2
 40
2.5
 49
1.25
 49
-1.25
  0
LTYPE
  2
DASHED2
 70
    64
  3
----    ----    ----    ----    
 72
    65
 73
     2
 40
5.0
 49
2.5
 49
-2.5
  0
LTYPE
  2
DASHED3
 70
    64
  3
------  ------  ------  ------  
 72
    65
 73
     2
 40
5.0
 49
3.75
 49
-1.25
  0
LTYPE
  2
CENTER1
 70
    64
  3
----- - ----- - ----- - ----- - 
 72
    65
 73
     4
 40
10.0
 49
6.25
 49
-1.25
 49
1.25
 49
-1.25
  0
LTYPE
  2
CENTER2
 70
    64
  3
----------  --  ----------  --  
 72
    65
 73
     4
 40
20.0
 49
12.5
 49
-2.5
 49
2.5
 49
-2.5
  0
LTYPE
  2
PHANTOM1
 70
    64
  3
--- - - --- - - --- - - --- - - 
 72
    65
 73
     6
 40
10.0
 49
3.25
 49
-1.25
 49
1.25
 49
-1.25
 49
1.25
 49
-1.25
  0
LTYPE
  2
PHANTOM2
 70
    64
  3
--------  -  -  --------  -  -  
 72
    65
 73
     6
 40
20.0
 49
10.0
 49
-2.5
 49
1.25
 49
-2.5
 49
1.25
 49
-2.5
  0
LTYPE
  2
DOT
 70
    64
  3
-   -   -   -   -   -   -   -   
 72
    65
 73
     2
 40
2.5
 49
0.625
 49
-1.875
  0
LTYPE
  2
DUMMY
 70
    64
  3
ダミー
 72
    65
 73
     0
 40
0.0
  0
LTYPE
  2
RAND1
 70
    64
  3
ランダム線1
 72
    65
 73
     4
 40
10.0
 49
1.0
 49
-2.0
 49
3.0
 49
-4.0
  0
LTYPE
  2
RAND2
 70
    64
  3
ランダム線2
 72
    65
 73
     4
 40
14.0
 49
2.0
 49
-3.0
 49
4.0
 49
-5.0
  0
LTYPE
  2
RAND3
 70
    64
  3
ランダム線3
 72
    65
 73
     4
 40
18.0
 49
3.0
 49
-4.0
 49
5.0
 49
-6.0
  0
LTYPE
  2
RAND4
 70
    64
  3
ランダム線4
 72
    65
 73
     4
 40
22.0
 49
4.0
 49
-5.0
 49
6.0
 49
-7.0
  0
LTYPE
  2
RAND5
 70
    64
  3
ランダム線5
 72
    65
 73
     4
 40
26.0
 49
5.0
 49
-6.0
 49
7.0
 49
-8.0
  0
LTYPE
  2
LONG1
 70
    64
  3
----------  --  ----------  --  
 72
    65
 73
     4
 40
40.0
 49
32.5
 49
-2.5
 49
2.5
 49
-2.5
  0
LTYPE
  2
LONG2
 70
    64
  3
--------  -  -  --------  -  -  
 72
    65
 73
     6
 40
40.0
 49
30.0
 49
-2.5
 49
1.25
 49
-2.5
 49
1.25
 49
-2.5
  0
LTYPE
  2
LONG3
 70
    64
  3
+++++++++++++++..+++++++++++++++
 72
    65
 73
     2
 40
40.0
 49
37.5
 49
-2.5
  0
LTYPE
  2
LONG4
 70
    64
  3
+++++++++++++++..+++++++++++++++
 72
    65
 73
     2
 40
80.0
 49
75.0
 49
-5.0
  0
LTYPE
  2
LONG5
 70
    64
  3
----------  --  ----------  --  
 72
    65
 73
     4
 40
60.0
 49
37.5
 49
-7.5
 49
7.5
 49
-7.5
  0
LTYPE
  2
dashed
 70
   64
  3
-------   -------------   ------
 72
   65
 73
    2
 40
7.5
 49
6
 49
-1.5
  0
LTYPE
  2
dashed_spaced
 70
   64
  3
----        --------        ----
 72
   65
 73
    2
 40
12
 49
6
 49
-6
  0
LTYPE
  2
long_dashed_dotted
 70
   64
  3
------------- --- --------------
 72
   65
 73
    4
 40
15.25
 49
12
 49
-1.5
 49
0.25
 49
-1.5
  0
LTYPE
  2
long_dashed_double-dotted
 70
   64
  3
----------- --- --- ------------
 72
   65
 73
    6
 40
17
 49
12
 49
-1.5
 49
0.25
 49
-1.5
 49
0.25
 49
-1.5
  0
LTYPE
  2
long_dashed_triplicate-dotted
 70
   64
  3
--------- --- --- --- ----------
 72
   65
 73
    8
 40
18.75
 49
12
 49
-1.5
 49
0.25
 49
-1.5
 49
0.25
 49
-1.5
 49
0.25
 49
-1.5
  0
LTYPE
  2
dotted
 70
   64
  3
   -       -       -       -    
 72
   65
 73
    2
 40
1.75
 49
0.25
 49
-1.5
  0
LTYPE
  2
chain
 70
   64
  3
-------------- -- --------------
 72
   65
 73
    4
 40
18.5
 49
12
 49
-1.5
 49
3.5
 49
-1.5
  0
LTYPE
  2
chain_double_dash
 70
   64
  3
------------ -- -- -------------
 72
   65
 73
    6
 40
23.5
 49
12
 49
-1.5
 49
3.5
 49
-1.5
 49
3.5
 49
-1.5
  0
LTYPE
  2
dashed_dotted
 70
   64
  3
-----------     -     ----------
 72
   65
 73
    4
 40
9.25
 49
6
 49
-1.5
 49
0.25
 49
-1.5
  0
LTYPE
  2
double-dashed_dotted
 70
   64
  3
------   -----------   -   -----
 72
   65
 73
    6
 40
16.75
 49
6
 49
-1.5
 49
6
 49
-1.5
 49
0.25
 49
-1.5
  0
LTYPE
  2
dashed_double-dotted
 70
   64
  3
---------    -    -    ---------
 72
   65
 73
    6
 40
11
 49
6
 49
-1.5
 49
0.25
 49
-1.5
 49
0.25
 49
-1.5
  0
LTYPE
  2
double-dashed_double-dotted
 70
   64
  3
-----   ---------   -   -   ----
 72
   65
 73
    8
 40
18.5
 49
6
 49
-1.5
 49
6
 49
-1.5
 49
0.25
 49
-1.5
 49
0.25
 49
-1.5
  0
LTYPE
  2
dashed_triplicate-dotted
 70
   64
  3
-------    -    -    -    ------
 72
   65
 73
    8
 40
12.75
 49
6
 49
-1.5
 49
0.25
 49
-1.5
 49
0.25
 49
-1.5
 49
0.25
 49
-1.5
  0
LTYPE
  2
double-dashed_triplicate-dotted
 70
   64
  3
-----  ---------  -  -  -  -----
 72
   65
 73
   10
 40
20.25
 49
6
 49
-1.5
 49
6
 49
-1.5
 49
0.25
 49
-1.5
 49
0.25
 49
-1.5
 49
0.25
 49
-1.5
  0
LTYPE
  2
undefined
 70
   64
  3
--------------------------------
 72
   65
 73
    0
 40
0
  0
LTYPE
  2
PHANTOM
 70
   64
  3
---------   ---   ---   --------
 72
   65
 73
    6
 40
63.500000000000007
 49
31.75
 49
-6.3499999999999996
 49
6.3499999999999996
 49
-6.3499999999999996
 49
6.3499999999999996
 49
-6.3499999999999996
  0
LTYPE
  2
CENTER
 70
   64
  3
----------    ----    ----------
 72
   65
 73
    4
 40
50.800000000000004
 49
31.75
 49
-6.3499999999999996
 49
6.3499999999999996
 49
-6.3499999999999996
  0
LTYPE
  2
DASHED
 70
   64
  3
------     -----------     -----
 72
   65
 73
    2
 40
19.049999999999997
 49
12.699999999999999
 49
-6.3499999999999996
  0
LTYPE
  2
HIDDEN
 70
   64
  3
------     -----------     -----
 72
   65
 73
    2
 40
9.5249999999999985
 49
6.3499999999999996
 49
-3.1749999999999998
  0
LTYPE
  2
_
 70
   64
  3
                                
 72
   65
 73
    0
 40
0
  0
LTYPE
  2
__22
 70
   64
  3
                                
 72
   65
 73
    0
 40
0
  0
LTYPE
  2
__23
 70
   64
  3
                                
 72
   65
 73
    0
 40
0
  0
LTYPE
  2
__24
 70
   64
  3
                                
 72
   65
 73
    0
 40
0
  0
LTYPE
  2
__25
 70
   64
  3
                                
 72
   65
 73
    0
 40
0
  0
LTYPE
  2
__26
 70
   64
  3
                                
 72
   65
 73
    0
 40
0
  0
LTYPE
  2
__27
 70
   64
  3
                                
 72
   65
 73
    0
 40
0
  0
LTYPE
  2
__28
 70
   64
  3
                                
 72
   65
 73
    0
 40
0
  0
LTYPE
  2
__29
 70
   64
  3
                                
 72
   65
 73
    0
 40
0
  0
LTYPE
  2
__30
 70
   64
  3
                                
 72
   65
 73
    0
 40
0
  0
LTYPE
  2
__31
 70
   64
  3
                                
 72
   65
 73
    0
 40
0
  0
LTYPE
  2
__32
 70
   64
  3
                                
 72
   65
 73
    0
 40
0
  0
ENDTAB
  0
TABLE
  2
STYLE
  5
3
100
AcDbSymbolTable
 70
     1
  0
STYLE
  5
10
100
AcDbSymbolTableRecord
100
AcDbTextStyleTableRecord
  2
STANDARD
 70
     0
 40
0.0
 41
1.0
 50
0.0
 71
     0
 42
0.2
  3
txt
  4
bigfont.shx
  0
STYLE
  5
26
100
AcDbSymbolTableRecord
100
AcDbTextStyleTableRecord
  2
TATEGAKI
 70
    68
 40
0.0
 41
1.0
 50
0.0
 71
     0
 42
1.0
  3
txt
  4
bigfont.shx
  0
ENDTAB
  0
TABLE
  2
LAYER
 70
    4
  0
LAYER
  2
_0-0_0
 70
   64
 62
    7
  6
CONTINUOUS
  0
LAYER
  2
_0-3_A1
 70
   64
 62
    7
  6
CONTINUOUS
  0
LAYER
  2
_0-4_A2
 70
   64
 62
    7
  6
CONTINUOUS
  0
LAYER
  2
ADD_LINE
 70
   64
 62
    7
  6
CONTINUOUS
  0
ENDTAB
  0
ENDSEC
  0
SECTION
  2
BLOCKS
  0
BLOCK
  2
-000-_DOTSMALL
 70
   64
 10
0
 20
0
 30
0
  0
CIRCLE
  8
_0-0_0
  6
CONTINUOUS
 62
    7
 10
0
 20
0
 40
0.09375
  0
LINE
  8
_0-0_0
  6
CONTINUOUS
 62
    7
 10
0.09375
 20
0
 11
-0.09375
 21
0
  0
ENDBLK
  0
ENDSEC
  0
SECTION
  2
ENTITIES
  0
LINE
  8
_0-3_A1
  6
CONTINUOUS
 62
    7
 10
53.414501000000001
 20
418.60857599999997
 11
597.85858599999994
 21
418.60857599999997
  0
LINE
  8
_0-3_A1
  6
CONTINUOUS
 62
    7
 10
196.95019600000003
 20
56.164071000000014
 11
196.95019600000003
 21
27.881244000000023
  0
LINE
  8
_0-3_A1
  6
CONTINUOUS
 62
    7
 10
493.91919499999994
 20
56.164071000000014
 11
493.91919499999994
 21
27.881244000000023
  0
LINE
  8
_0-3_A1
  6
CONTINUOUS
 62
    7
 10
409.77778299999999
 20
56.164071000000014
 11
409.77778299999999
 21
27.881244000000023
  0
LINE
  8
_0-3_A1
  6
CONTINUOUS
 62
    7
 10
261.29293799999999
 20
56.164071000000014
 11
261.29293799999999
 21
27.881244000000023
  0
LINE
  8
_0-3_A1
  6
CONTINUOUS
 62
    7
 10
53.414501000000001
 20
26.891414000000025
 11
597.85858599999994
 21
26.891414000000025
  0
LINE
  8
_0-3_A1
  6
CONTINUOUS
 62
    7
 10
53.414501000000001
 20
27.881244000000023
 11
597.85858599999994
 21
27.881244000000023
  0
LINE
  8
_0-3_A1
  6
CONTINUOUS
 62
    7
 10
53.414501000000001
 20
27.386156000000013
 11
597.85858599999994
 21
27.386156000000013
  0
LINE
  8
_0-3_A1
  6
CONTINUOUS
 62
    7
 10
53.414501000000001
 20
56.164071000000014
 11
597.85858599999994
 21
56.164071000000014
  0
LINE
  8
_0-3_A1
  6
CONTINUOUS
 62
    7
 10
53.414501000000001
 20
57.15390099999999
 11
597.85858599999994
 21
57.15390099999999
  0
LINE
  8
_0-3_A1
  6
CONTINUOUS
 62
    7
 10
53.414501000000001
 20
56.65881400000002
 11
597.85858599999994
 21
56.65881400000002
  0
LINE
  8
_0-3_A1
  6
CONTINUOUS
 62
    7
 10
493.42410699999993
 20
56.164071000000014
 11
493.42410699999993
 21
27.881244000000023
  0
LINE
  8
_0-3_A1
  6
CONTINUOUS
 62
    7
 10
492.92901999999992
 20
56.164071000000014
 11
492.92901999999992
 21
27.881244000000023
  0
LINE
  8
_0-3_A1
  6
CONTINUOUS
 62
    7
 10
409.28269499999998
 20
56.164071000000014
 11
409.28269499999998
 21
27.881244000000023
  0
LINE
  8
_0-3_A1
  6
CONTINUOUS
 62
    7
 10
408.78760800000003
 20
56.164071000000014
 11
408.78760800000003
 21
27.881244000000023
  0
LINE
  8
_0-3_A1
  6
CONTINUOUS
 62
    7
 10
260.79784999999998
 20
56.164071000000014
 11
260.79784999999998
 21
27.881244000000023
  0
LINE
  8
_0-3_A1
  6
CONTINUOUS
 62
    7
 10
260.30276300000002
 20
56.164071000000014
 11
260.30276300000002
 21
27.881244000000023
  0
LINE
  8
_0-3_A1
  6
CONTINUOUS
 62
    7
 10
196.45510800000002
 20
56.164071000000014
 11
196.45510800000002
 21
27.881244000000023
  0
LINE
  8
_0-3_A1
  6
CONTINUOUS
 62
    7
 10
195.96002100000001
 20
56.164071000000014
 11
195.96002100000001
 21
27.881244000000023
  0
LINE
  8
_0-3_A1
  6
CONTINUOUS
 62
    7
 10
53.414501000000001
 20
418.60857599999997
 11
53.414501000000001
 21
26.891414000000025
  0
LINE
  8
_0-3_A1
  6
CONTINUOUS
 62
    7
 10
597.85858599999994
 20
418.60857599999997
 11
597.85858599999994
 21
26.891414000000025
  0
LINE
  8
_0-4_A2
  6
PHANTOM
 62
    7
 10
391.23624999999998
 20
201.80628799999999
 11
391.23624999999998
 21
193.80628799999999
  0
LINE
  8
_0-4_A2
  6
PHANTOM
 62
    7
 10
391.23624999999998
 20
234.806294
 11
391.23624999999998
 21
226.80629399999997
  0
LINE
  8
_0-4_A2
  6
PHANTOM
 62
    7
 10
391.23624999999998
 20
153.80628799999999
 11
391.23624999999998
 21
145.80628799999999
  0
LINE
  8
_0-4_A2
  6
CONTINUOUS
 62
    3
 10
390.236061
 20
277.40635299999996
 11
377.91164299999996
 21
278.16014599999994
  0
LINE
  8
_0-4_A2
  6
CONTINUOUS
 62
    3
 10
377.53605799999996
 20
294.85374999999999
 11
377.53605799999996
 21
278.55940199999997
  0
LINE
  8
_0-4_A2
  6
CONTINUOUS
 62
    3
 10
390.20541199999996
 20
296.00492199999996
 11
377.91163999999997
 21
295.25300299999997
  0
LINE
  8
_0-4_A2
  6
CONTINUOUS
 62
    7
 10
390.78376700000001
 20
276.15850399999999
 11
391.14477600000003
 21
276.12691999999998
  0
LINE
  8
_0-4_A2
  6
CONTINUOUS
 62
    7
 10
390.236061
 20
297.00735800000001
 11
390.236061
 21
276.75622099999998
  0
LINE
  8
_0-4_A2
  6
CONTINUOUS
 62
    7
 10
399.63606099999998
 20
98.58373800000001
 11
399.63606099999998
 21
97.806427999999996
  0
LINE
  8
_0-4_A2
  6
CONTINUOUS
 62
    7
 10
401.03606100000001
 20
98.595956000000001
 11
401.03606100000001
 21
97.806427999999996
  0
LINE
  8
_0-4_A2
  6
CONTINUOUS
 62
    7
 10
391.23606100000006
 20
217.80642599999998
 11
391.23606100000006
 21
215.30642599999998
  0
LINE
  8
_0-4_A2
  6
CONTINUOUS
 62
    7
 10
390.73606099999994
 20
217.80642599999998
 11
391.23606100000006
 21
217.80642599999998
  0
LINE
  8
_0-4_A2
  6
CONTINUOUS
 62
    7
 10
390.73606099999994
 20
219.80642599999998
 11
391.23606100000006
 21
219.80642599999998
  0
LINE
  8
_0-4_A2
  6
CONTINUOUS
 62
    7
 10
390.63606099999998
 20
219.70642599999996
 11
390.63606099999998
 21
217.90642600000001
  0
LINE
  8
_0-4_A2
  6
CONTINUOUS
 62
    7
 10
390.44482400000003
 20
215.42815100000001
 11
391.23605299999996
 21
215.30642399999999
  0
LINE
  8
_0-4_A2
  6
CONTINUOUS
 62
    7
 10
390.44482300000004
 20
222.184693
 11
391.23605699999995
 21
222.306421
  0
LINE
  8
_0-4_A2
  6
CONTINUOUS
 62
    7
 10
391.23606100000006
 20
222.30642599999998
 11
391.23606100000006
 21
219.80642599999998
  0
LINE
  8
_0-4_A2
  6
CONTINUOUS
 62
    7
 10
389.93606099999999
 20
221.59167099999999
 11
389.93606099999999
 21
216.021172
  0
LINE
  8
_0-4_A2
  6
CONTINUOUS
 62
    7
 10
390.82558899999997
 20
297.60726699999997
 11
402.23604199999999
 21
297.80643699999995
  0
LINE
  8
_0-4_A2
  6
CONTINUOUS
 62
    7
 10
402.236061
 20
216.60643699999999
 11
402.236061
 21
98.606427999999993
  0
LINE
  8
_0-4_A2
  6
CONTINUOUS
 62
    7
 10
401.03606100000001
 20
218.31813299999998
 11
401.03606100000001
 21
217.29474099999998
  0
LINE
  8
_0-4_A2
  6
CONTINUOUS
 62
    7
 10
402.236061
 20
216.60643699999999
 11
401.30957
 21
216.91526799999996
  0
LINE
  8
_0-4_A2
  6
CONTINUOUS
 62
    7
 10
401.30957
 20
218.697607
 11
402.236061
 21
219.006437
  0
LINE
  8
_0-4_A2
  6
CONTINUOUS
 62
    7
 10
391.49191500000006
 20
143.06710300000003
 11
394.63035400000001
 21
140.86954399999999
  0
LINE
  8
_0-4_A2
  6
CONTINUOUS
 62
    7
 10
391.23606100000006
 20
226.606422
 11
391.23606100000006
 21
201.80642199999999
  0
LINE
  8
_0-4_A2
  6
CONTINUOUS
 62
    7
 10
391.23606100000006
 20
201.80642199999999
 11
391.23606100000006
 21
145.80642800000001
  0
LINE
  8
_0-4_A2
  6
CONTINUOUS
 62
    7
 10
391.23606100000006
 20
145.80642800000001
 11
391.23606100000006
 21
143.55859399999999
  0
LINE
  8
_0-4_A2
  6
CONTINUOUS
 62
    7
 10
391.23606100000006
 20
276.02730000000002
 11
391.23606100000006
 21
226.606422
  0
LINE
  8
_0-4_A2
  6
CONTINUOUS
 62
    7
 10
396.33606099999997
 20
137.592936
 11
396.33606099999997
 21
98.206427000000019
  0
LINE
  8
_0-4_A2
  6
CONTINUOUS
 62
    7
 10
397.03606099999996
 20
97.606428000000008
 11
396.93606099999999
 21
97.606428000000008
  0
LINE
  8
_0-4_A2
  6
CONTINUOUS
 62
    7
 10
397.03606099999996
 20
98.561048000000013
 11
397.03606099999996
 21
97.606428000000008
  0
LINE
  8
_0-4_A2
  6
CONTINUOUS
 62
    7
 10
397.03606099999996
 20
98.561048000000013
 11
402.236061
 21
98.606427999999993
  0
LINE
  8
_0-4_A2
  6
CONTINUOUS
 62
    7
 10
402.236061
 20
297.80643699999995
 11
402.236061
 21
219.006437
  0
LINE
  8
_0-4_A2
  6
CONTINUOUS
 62
    7
 10
390.78376700000001
 20
276.15850399999999
 11
391.14477600000003
 21
276.12691999999998
  0
LINE
  8
_0-4_A2
  6
CONTINUOUS
 62
    7
 10
399.63606099999998
 20
97.506428000000013
 11
401.03606100000001
 21
97.506428000000013
  0
LINE
  8
_0-4_A2
  6
CONTINUOUS
 62
    7
 10
399.63606099999998
 20
98.58373800000001
 11
399.63606099999998
 21
97.506428000000013
  0
LINE
  8
_0-4_A2
  6
CONTINUOUS
 62
    7
 10
401.03606100000001
 20
98.595956000000001
 11
401.03606100000001
 21
97.506428000000013
  0
LINE
  8
_0-4_A2
  6
CONTINUOUS
 62
    7
 10
391.23606100000006
 20
217.80642599999998
 11
391.23606100000006
 21
215.30642599999998
  0
LINE
  8
_0-4_A2
  6
CONTINUOUS
 62
    7
 10
390.73606099999994
 20
217.80642599999998
 11
391.23606100000006
 21
217.80642599999998
  0
LINE
  8
_0-4_A2
  6
CONTINUOUS
 62
    7
 10
390.73606099999994
 20
219.80642599999998
 11
391.23606100000006
 21
219.80642599999998
  0
LINE
  8
_0-4_A2
  6
CONTINUOUS
 62
    7
 10
390.63606099999998
 20
219.70642599999996
 11
390.63606099999998
 21
217.90642600000001
  0
LINE
  8
_0-4_A2
  6
CONTINUOUS
 62
    7
 10
390.44482400000003
 20
215.42815100000001
 11
391.23605299999996
 21
215.30642399999999
  0
LINE
  8
_0-4_A2
  6
CONTINUOUS
 62
    7
 10
390.44482300000004
 20
222.184693
 11
391.23605699999995
 21
222.306421
  0
LINE
  8
_0-4_A2
  6
CONTINUOUS
 62
    7
 10
391.23606100000006
 20
222.30642599999998
 11
391.23606100000006
 21
219.80642599999998
  0
LINE
  8
_0-4_A2
  6
CONTINUOUS
 62
    7
 10
389.93606099999999
 20
221.59167099999999
 11
389.93606099999999
 21
216.021172
  0
LINE
  8
_0-4_A2
  6
CONTINUOUS
 62
    7
 10
390.82558899999997
 20
297.60726699999997
 11
402.23604199999999
 21
297.80643699999995
  0
LINE
  8
_0-4_A2
  6
CONTINUOUS
 62
    7
 10
402.236061
 20
216.60643699999999
 11
402.236061
 21
98.606427999999993
  0
LINE
  8
_0-4_A2
  6
CONTINUOUS
 62
    7
 10
401.03606100000001
 20
218.31813299999998
 11
401.03606100000001
 21
217.29474099999998
  0
LINE
  8
_0-4_A2
  6
CONTINUOUS
 62
    7
 10
402.236061
 20
216.60643699999999
 11
401.30957
 21
216.91526799999996
  0
LINE
  8
_0-4_A2
  6
CONTINUOUS
 62
    7
 10
401.30957
 20
218.697607
 11
402.236061
 21
219.006437
  0
LINE
  8
_0-4_A2
  6
CONTINUOUS
 62
    7
 10
391.49191500000006
 20
143.06710300000003
 11
394.63035400000001
 21
140.86954399999999
  0
LINE
  8
_0-4_A2
  6
CONTINUOUS
 62
    7
 10
391.23606100000006
 20
226.606422
 11
391.23606100000006
 21
201.80642199999999
  0
LINE
  8
_0-4_A2
  6
CONTINUOUS
 62
    7
 10
391.23606100000006
 20
201.80642199999999
 11
391.23606100000006
 21
145.80642800000001
  0
LINE
  8
_0-4_A2
  6
CONTINUOUS
 62
    7
 10
391.23606100000006
 20
145.80642800000001
 11
391.23606100000006
 21
143.55859399999999
  0
LINE
  8
_0-4_A2
  6
CONTINUOUS
 62
    7
 10
391.23606100000006
 20
276.02730000000002
 11
391.23606100000006
 21
226.606422
  0
LINE
  8
_0-4_A2
  6
CONTINUOUS
 62
    7
 10
396.33606099999997
 20
137.592936
 11
396.33606099999997
 21
98.206427000000019
  0
LINE
  8
_0-4_A2
  6
CONTINUOUS
 62
    7
 10
397.03606099999996
 20
97.606428000000008
 11
396.93606099999999
 21
97.606428000000008
  0
LINE
  8
_0-4_A2
  6
CONTINUOUS
 62
    7
 10
397.03606099999996
 20
98.561048000000013
 11
397.03606099999996
 21
97.606428000000008
  0
LINE
  8
_0-4_A2
  6
CONTINUOUS
 62
    7
 10
397.03606099999996
 20
98.561048000000013
 11
402.236061
 21
98.606427999999993
  0
LINE
  8
_0-4_A2
  6
CONTINUOUS
 62
    7
 10
402.236061
 20
297.80643699999995
 11
402.236061
 21
219.006437
  0
LINE
  8
_0-4_A2
  6
CENTER
 62
    7
 10
191.35009500000001
 20
305.13801
 11
191.35009500000001
 21
94.047161000000031
  0
ARC
  8
_0-4_A2
  6
CONTINUOUS
 62
    3
 10
377.936058
 20
294.85374999999999
 40
0.4
 50
93.500003000000006
 51
180.00000499999998
  0
ARC
  8
_0-4_A2
  6
CONTINUOUS
 62
    3
 10
377.936058
 20
278.55940199999997
 40
0.4
 50
179.99999500000001
 51
266.49999699999995
  0
ARC
  8
_0-4_A2
  6
CONTINUOUS
 62
    3
 10
379.48982399999999
 20
295.36956400000002
 40
0.0199999999999999
 50
273.499998
 51
2.5000000000000226
  0
ARC
  8
_0-4_A2
  6
CONTINUOUS
 62
    3
 10
379.52743899999995
 20
295.42517299999997
 40
0.0199999999999999
 50
92.999999000000002
 51
182.50000499999998
  0
ARC
  8
_0-4_A2
  6
CONTINUOUS
 62
    7
 10
391.13606100000004
 20
276.02730000000002
 40
0.1
 50
0
 51
84.999999999999985
  0
ARC
  8
_0-4_A2
  6
CONTINUOUS
 62
    7
 10
390.83606099999997
 20
297.00735800000001
 40
0.5999999999999999
 50
91
 51
180
  0
ARC
  8
_0-4_A2
  6
CONTINUOUS
 62
    7
 10
390.83606099999997
 20
276.75622099999998
 40
0.5999999999999999
 50
180
 51
265
  0
ARC
  8
_0-4_A2
  6
CONTINUOUS
 62
    7
 10
390.53606100000001
 20
221.59167099999999
 40
0.5999999999999999
 50
98.746121000000002
 51
180.00001900000003
  0
ARC
  8
_0-4_A2
  6
CONTINUOUS
 62
    7
 10
390.53606100000001
 20
216.021172
 40
0.5999999999999999
 50
180.00025499999998
 51
261.25387899999998
  0
ARC
  8
_0-4_A2
  6
CONTINUOUS
 62
    7
 10
390.73606099999994
 20
217.90642600000001
 40
0.1
 50
179.999964
 51
270.00000099999999
  0
ARC
  8
_0-4_A2
  6
CONTINUOUS
 62
    7
 10
390.73606099999994
 20
219.70642599999996
 40
0.1
 50
89.999982000000002
 51
179.999964
  0
ARC
  8
_0-4_A2
  6
CONTINUOUS
 62
    7
 10
401.43606099999999
 20
217.29474099999998
 40
0.4
 50
180
 51
251.56505100000001
  0
ARC
  8
_0-4_A2
  6
CONTINUOUS
 62
    7
 10
401.43606099999999
 20
218.31813299999998
 40
0.4
 50
108.434949
 51
180
  0
ARC
  8
_0-4_A2
  6
CONTINUOUS
 62
    7
 10
391.83606099999997
 20
143.55859399999999
 40
0.5999999999999999
 50
180
 51
235
  0
ARC
  8
_0-4_A2
  6
CONTINUOUS
 62
    7
 10
392.336049
 20
137.592936
 40
4
 50
0
 51
55
  0
ARC
  8
_0-4_A2
  6
CONTINUOUS
 62
    7
 10
396.93606099999999
 20
98.206427000000019
 40
0.5999999999999999
 50
179.99999500000001
 51
269.99999699999995
  0
ARC
  8
_0-4_A2
  6
CONTINUOUS
 62
    7
 10
391.13606100000004
 20
276.02730000000002
 40
0.1
 50
0
 51
84.999999999999985
  0
ARC
  8
_0-4_A2
  6
CONTINUOUS
 62
    7
 10
390.83606099999997
 20
297.00735800000001
 40
0.5999999999999999
 50
91
 51
180
  0
ARC
  8
_0-4_A2
  6
CONTINUOUS
 62
    7
 10
390.83606099999997
 20
276.75622099999998
 40
0.5999999999999999
 50
180
 51
265
  0
ARC
  8
_0-4_A2
  6
CONTINUOUS
 62
    7
 10
390.53606100000001
 20
221.59167099999999
 40
0.5999999999999999
 50
98.746121000000002
 51
180.00001900000003
  0
ARC
  8
_0-4_A2
  6
CONTINUOUS
 62
    7
 10
390.53606100000001
 20
216.021172
 40
0.5999999999999999
 50
180.00025499999998
 51
261.25387899999998
  0
ARC
  8
_0-4_A2
  6
CONTINUOUS
 62
    7
 10
390.73606099999994
 20
217.90642600000001
 40
0.1
 50
179.999964
 51
270.00000099999999
  0
ARC
  8
_0-4_A2
  6
CONTINUOUS
 62
    7
 10
390.73606099999994
 20
219.70642599999996
 40
0.1
 50
89.999982000000002
 51
179.999964
  0
ARC
  8
_0-4_A2
  6
CONTINUOUS
 62
    7
 10
401.43606099999999
 20
217.29474099999998
 40
0.4
 50
180
 51
251.56505100000001
  0
ARC
  8
_0-4_A2
  6
CONTINUOUS
 62
    7
 10
401.43606099999999
 20
218.31813299999998
 40
0.4
 50
108.434949
 51
180
  0
ARC
  8
_0-4_A2
  6
CONTINUOUS
 62
    7
 10
391.83606099999997
 20
143.55859399999999
 40
0.5999999999999999
 50
180
 51
235
  0
ARC
  8
_0-4_A2
  6
CONTINUOUS
 62
    7
 10
392.336049
 20
137.592936
 40
4
 50
0
 51
55
  0
ARC
  8
_0-4_A2
  6
CONTINUOUS
 62
    7
 10
396.93606099999999
 20
98.206427000000019
 40
0.5999999999999999
 50
179.99999500000001
 51
269.99999699999995
  0
LINE
  8
_0-4_A2
  6
CONTINUOUS
 62
    7
 10
221.35010699999997
 20
275.80642899999998
 11
216.350107
 21
275.80642899999998
  0
LINE
  8
_0-4_A2
  6
CONTINUOUS
 62
    7
 10
168.950107
 20
157.606435
 11
213.75010700000001
 21
157.606435
  0
LINE
  8
_0-4_A2
  6
CONTINUOUS
 62
    7
 10
156.49639300000001
 20
194.00642899999996
 11
156.49639300000001
 21
192.60642899999999
  0
LINE
  8
_0-4_A2
  6
CONTINUOUS
 62
    7
 10
124.28936499999997
 20
194.00642899999996
 11
124.28936499999997
 21
192.60642899999999
  0
LINE
  8
_0-4_A2
  6
CONTINUOUS
 62
    7
 10
124.28936499999997
 20
227.00642899999996
 11
124.28936499999997
 21
225.60642899999999
  0
LINE
  8
_0-4_A2
  6
CONTINUOUS
 62
    7
 10
156.49639300000001
 20
227.00642899999996
 11
156.49639300000001
 21
225.60642899999999
  0
LINE
  8
_0-4_A2
  6
CONTINUOUS
 62
    7
 10
221.85010699999997
 20
143.44626099999999
 11
265.75010700000001
 21
143.44626099999999
  0
LINE
  8
_0-4_A2
  6
CONTINUOUS
 62
    7
 10
116.950082
 20
143.44626099999999
 11
160.85010699999997
 21
143.44626099999999
  0
LINE
  8
_0-4_A2
  6
CONTINUOUS
 62
    7
 10
160.85010699999997
 20
144.00643500000001
 11
221.85010699999997
 21
144.00643500000001
  0
LINE
  8
_0-4_A2
  6
CONTINUOUS
 62
    7
 10
160.85010699999997
 20
147.00643500000001
 11
221.85010699999997
 21
147.00643500000001
  0
LINE
  8
_0-4_A2
  6
CONTINUOUS
 62
    7
 10
134.01817699999998
 20
225.60642899999999
 11
118.13172300000003
 21
225.60642899999999
  0
LINE
  8
_0-4_A2
  6
CONTINUOUS
 62
    7
 10
134.01817699999998
 20
227.00642899999996
 11
118.13172300000003
 21
227.00642899999996
  0
LINE
  8
_0-4_A2
  6
CONTINUOUS
 62
    7
 10
157.63460400000002
 20
225.60642899999999
 11
148.15362099999998
 21
225.60642899999999
  0
LINE
  8
_0-4_A2
  6
CONTINUOUS
 62
    7
 10
157.63460400000002
 20
227.00642899999996
 11
148.15362099999998
 21
227.00642899999996
  0
LINE
  8
_0-4_A2
  6
CONTINUOUS
 62
    7
 10
134.01817699999998
 20
192.60642899999999
 11
118.13172300000003
 21
192.60642899999999
  0
LINE
  8
_0-4_A2
  6
CONTINUOUS
 62
    7
 10
134.01817699999998
 20
194.00642899999996
 11
118.13172300000003
 21
194.00642899999996
  0
LINE
  8
_0-4_A2
  6
CONTINUOUS
 62
    7
 10
157.63460400000002
 20
192.60642899999999
 11
148.15362099999998
 21
192.60642899999999
  0
LINE
  8
_0-4_A2
  6
CONTINUOUS
 62
    7
 10
157.63460400000002
 20
194.00642899999996
 11
148.15362099999998
 21
194.00642899999996
  0
LINE
  8
_0-4_A2
  6
CONTINUOUS
 62
    7
 10
258.41084899999998
 20
194.00642899999996
 11
258.41084899999998
 21
192.60642899999999
  0
LINE
  8
_0-4_A2
  6
CONTINUOUS
 62
    7
 10
225.06561000000002
 20
194.00642899999996
 11
234.546593
 21
194.00642899999996
  0
LINE
  8
_0-4_A2
  6
CONTINUOUS
 62
    7
 10
225.06561000000002
 20
192.60642899999999
 11
234.546593
 21
192.60642899999999
  0
LINE
  8
_0-4_A2
  6
CONTINUOUS
 62
    7
 10
248.68203600000001
 20
192.60642899999999
 11
264.56849099999999
 21
192.60642899999999
  0
LINE
  8
_0-4_A2
  6
CONTINUOUS
 62
    7
 10
248.68203600000001
 20
194.00642899999996
 11
264.56849099999999
 21
194.00642899999996
  0
LINE
  8
_0-4_A2
  6
CONTINUOUS
 62
    7
 10
226.203821
 20
194.00642899999996
 11
226.203821
 21
192.60642899999999
  0
LINE
  8
_0-4_A2
  6
CONTINUOUS
 62
    7
 10
266.15132699999998
 20
214.00642899999999
 11
266.15132699999998
 21
147.00643500000001
  0
LINE
  8
_0-4_A2
  6
CONTINUOUS
 62
    7
 10
221.85010699999997
 20
227.00642899999996
 11
265.15132699999998
 21
227.00642899999996
  0
LINE
  8
_0-4_A2
  6
CONTINUOUS
 62
    7
 10
221.85010699999997
 20
215.00642899999996
 11
265.15132699999998
 21
215.00642899999996
  0
LINE
  8
_0-4_A2
  6
PHANTOM
 62
    7
 10
160.85010699999997
 20
276.39445599999999
 11
160.85010699999997
 21
143.44626099999999
  0
LINE
  8
_0-4_A2
  6
PHANTOM
 62
    7
 10
221.85010699999997
 20
276.39445599999999
 11
221.85010699999997
 21
143.60643500000003
  0
LINE
  8
_0-4_A2
  6
CONTINUOUS
 62
    7
 10
266.15132699999998
 20
276.972936
 11
266.15132699999998
 21
228.00642900000002
  0
LINE
  8
_0-4_A2
  6
CONTINUOUS
 62
    7
 10
222.85010699999997
 20
146.00643500000001
 11
265.15132699999998
 21
146.00643500000001
  0
LINE
  8
_0-4_A2
  6
CONTINUOUS
 62
    7
 10
117.54886199999998
 20
146.00643500000001
 11
159.85010699999997
 21
146.00643500000001
  0
LINE
  8
_0-4_A2
  6
CONTINUOUS
 62
    7
 10
160.85010699999997
 20
144.00643500000001
 11
221.41529800000003
 21
144.00643500000001
  0
LINE
  8
_0-4_A2
  6
CONTINUOUS
 62
    7
 10
221.35010699999997
 20
157.606435
 11
216.350107
 21
157.606435
  0
LINE
  8
_0-4_A2
  6
CONTINUOUS
 62
    7
 10
208.850107
 20
157.40643499999998
 11
208.850107
 21
157.20643499999999
  0
LINE
  8
_0-4_A2
  6
CONTINUOUS
 62
    7
 10
211.850107
 20
157.40643499999998
 11
211.850107
 21
157.20643499999999
  0
LINE
  8
_0-4_A2
  6
CONTINUOUS
 62
    7
 10
170.85010699999997
 20
157.40643499999998
 11
170.85010699999997
 21
157.20643499999999
  0
LINE
  8
_0-4_A2
  6
CONTINUOUS
 62
    7
 10
173.85010699999997
 20
157.40643499999998
 11
173.85010699999997
 21
157.20643499999999
  0
LINE
  8
_0-4_A2
  6
CONTINUOUS
 62
    7
 10
209.05010700000002
 20
157.606435
 11
211.65010700000001
 21
157.606435
  0
LINE
  8
_0-4_A2
  6
CONTINUOUS
 62
    7
 10
171.05010700000002
 20
157.606435
 11
173.65010699999999
 21
157.606435
  0
LINE
  8
_0-4_A2
  6
CONTINUOUS
 62
    7
 10
161.55010700000002
 20
157.20643499999999
 11
221.15010699999999
 21
157.20643499999999
  0
LINE
  8
_0-4_A2
  6
CONTINUOUS
 62
    7
 10
161.35010699999997
 20
157.606435
 11
166.35010699999997
 21
157.606435
  0
LINE
  8
_0-4_A2
  6
CONTINUOUS
 62
    7
 10
161.35010699999997
 20
275.80642899999998
 11
161.35010699999997
 21
157.606435
  0
LINE
  8
_0-4_A2
  6
CONTINUOUS
 62
    7
 10
221.35010699999997
 20
275.80642899999998
 11
221.35010699999997
 21
157.606435
  0
LINE
  8
_0-4_A2
  6
CONTINUOUS
 62
    7
 10
116.54886199999999
 20
276.97834899999998
 11
116.54886199999999
 21
147.00643500000001
  0
LINE
  8
_0-4_A2
  6
CONTINUOUS
 62
    7
 10
166.34523599999999
 20
276.114437
 11
168.97327799999999
 21
276.114437
  0
LINE
  8
_0-4_A2
  6
CONTINUOUS
 62
    7
 10
221.75010700000004
 20
275.80642899999998
 11
221.75010700000004
 21
157.80643499999999
  0
LINE
  8
_0-4_A2
  6
CONTINUOUS
 62
    7
 10
160.950107
 20
275.80642899999998
 11
160.950107
 21
157.80643499999999
  0
LINE
  8
_0-4_A2
  6
CONTINUOUS
 62
    7
 10
116.950082
 20
298.00642900000002
 11
265.75010700000001
 21
298.00642900000002
  0
LINE
  8
_0-4_A2
  6
CONTINUOUS
 62
    7
 10
117.35008199999998
 20
97.806434999999993
 11
265.35010699999997
 21
97.806434999999993
  0
LINE
  8
_0-4_A2
  6
DASHED
 62
    7
 10
117.35008199999998
 20
98.80643400000001
 11
265.35010699999997
 21
98.80643400000001
  0
LINE
  8
_0-4_A2
  6
CONTINUOUS
 62
    7
 10
116.950082
 20
298.00642900000002
 11
265.75010700000001
 21
298.00642900000002
  0
LINE
  8
_0-4_A2
  6
CONTINUOUS
 62
    7
 10
116.350082
 20
297.406429
 11
116.350082
 21
98.80643400000001
  0
LINE
  8
_0-4_A2
  6
CONTINUOUS
 62
    7
 10
266.35010699999997
 20
297.406429
 11
266.35010699999997
 21
98.80643400000001
  0
LINE
  8
_0-4_A2
  6
CONTINUOUS
 62
    7
 10
116.950082
 20
298.00642900000002
 11
265.75010700000001
 21
298.00642900000002
  0
LINE
  8
_0-4_A2
  6
CONTINUOUS
 62
    7
 10
116.950082
 20
298.00642900000002
 11
265.75010700000001
 21
298.00642900000002
  0
LINE
  8
_0-4_A2
  6
CONTINUOUS
 62
    7
 10
161.55010700000002
 20
276.21443699999997
 11
221.15010699999999
 21
276.21443699999997
  0
LINE
  8
_0-4_A2
  6
CONTINUOUS
 62
    7
 10
266.140646
 20
297.19698299999998
 11
266.140646
 21
277.00642900000002
  0
LINE
  8
_0-4_A2
  6
CONTINUOUS
 62
    7
 10
265.54064599999998
 20
276.406429
 11
150.063106
 21
276.406429
  0
LINE
  8
_0-4_A2
  6
CONTINUOUS
 62
    7
 10
116.55956800000004
 20
297.19698299999998
 11
116.55956800000004
 21
277.00642900000002
  0
LINE
  8
_0-4_A2
  6
CONTINUOUS
 62
    7
 10
117.159568
 20
276.406429
 11
232.63710800000001
 21
276.406429
  0
LINE
  8
_0-4_A2
  6
CONTINUOUS
 62
    7
 10
117.159568
 20
297.79698299999995
 11
265.54064599999998
 21
297.79698299999995
  0
LINE
  8
_0-4_A2
  6
CONTINUOUS
 62
    7
 10
213.725074
 20
276.114437
 11
216.34685900000002
 21
276.114437
  0
LINE
  8
_0-4_A2
  6
CONTINUOUS
 62
    7
 10
161.35010699999997
 20
275.80642899999998
 11
166.35010699999997
 21
275.80642899999998
  0
LINE
  8
_0-4_A2
  6
CONTINUOUS
 62
    7
 10
168.950107
 20
275.80642899999998
 11
213.75010700000001
 21
275.80642899999998
  0
LINE
  8
_0-4_A2
  6
CONTINUOUS
 62
    7
 10
184.35967099999999
 20
196.50059599999997
 11
198.34052500000001
 21
220.71614500000003
  0
LINE
  8
_0-4_A2
  6
CONTINUOUS
 62
    7
 10
184.35967299999998
 20
212.49669399999999
 11
198.340179
 21
236.71163899999999
  0
LINE
  8
_0-4_A2
  6
CONTINUOUS
 62
    7
 10
184.35966899999999
 20
204.49863999999999
 11
198.34054400000002
 21
228.71422499999999
  0
CIRCLE
  8
_0-4_A2
  6
CONTINUOUS
 62
    7
 10
243.350107
 20
265.00642900000002
 40
1.25
  0
ARC
  8
_0-4_A2
  6
CONTINUOUS
 62
    7
 10
222.85010699999997
 20
147.00643500000001
 40
1
 50
180
 51
270
  0
ARC
  8
_0-4_A2
  6
CONTINUOUS
 62
    7
 10
265.15132699999998
 20
228.00642900000002
 40
1
 50
270
 51
0
  0
ARC
  8
_0-4_A2
  6
DASHED
 62
    7
 10
265.35010699999997
 20
99.806433999999995
 40
1
 50
270
 51
0
  0
ARC
  8
_0-4_A2
  6
DASHED
 62
    7
 10
117.35008199999998
 20
99.806433999999995
 40
1
 50
180
 51
270
  0
CIRCLE
  8
_0-4_A2
  6
CONTINUOUS
 62
    7
 10
243.350107
 20
160.00643500000001
 40
1.5
  0
CIRCLE
  8
_0-4_A2
  6
CONTINUOUS
 62
    7
 10
243.350107
 20
160.00643500000001
 40
1.25
  0
CIRCLE
  8
_0-4_A2
  6
CONTINUOUS
 62
    7
 10
139.35010699999997
 20
160.00642899999999
 40
1.5
  0
CIRCLE
  8
_0-4_A2
  6
CONTINUOUS
 62
    7
 10
139.35010699999997
 20
265.00642900000002
 40
1.5
  0
CIRCLE
  8
_0-4_A2
  6
CONTINUOUS
 62
    7
 10
243.350107
 20
265.00642900000002
 40
1.5
  0
CIRCLE
  8
_0-4_A2
  6
CONTINUOUS
 62
    7
 10
139.35010699999997
 20
265.00642900000002
 40
1.25
  0
CIRCLE
  8
_0-4_A2
  6
CONTINUOUS
 62
    7
 10
139.35010699999997
 20
160.00642899999999
 40
1.25
  0
ARC
  8
_0-4_A2
  6
CONTINUOUS
 62
    7
 10
116.950082
 20
144.04626099999998
 40
0.5999999999999999
 50
180
 51
270
  0
ARC
  8
_0-4_A2
  6
CONTINUOUS
 62
    7
 10
265.75010700000001
 20
144.04626099999998
 40
0.5999999999999999
 50
270
 51
0
  0
ARC
  8
_0-4_A2
  6
CONTINUOUS
 62
    7
 10
265.15132699999998
 20
147.00643500000001
 40
1
 50
270
 51
0
  0
ARC
  8
_0-4_A2
  6
CONTINUOUS
 62
    7
 10
118.13172300000003
 20
228.00642900000002
 40
1
 50
179.99999500000001
 51
269.99999699999995
  0
ARC
  8
_0-4_A2
  6
CONTINUOUS
 62
    7
 10
221.85010699999997
 20
297.71443699999997
 40
0.1
 50
90
 51
180
  0
ARC
  8
_0-4_A2
  6
CONTINUOUS
 62
    7
 10
160.85010699999997
 20
297.71443699999997
 40
0.1
 50
0
 51
90
  0
ARC
  8
_0-4_A2
  6
CONTINUOUS
 62
    7
 10
157.63460400000002
 20
224.60642899999999
 40
1
 50
0
 51
90.000003000000006
  0
ARC
  8
_0-4_A2
  6
DASHED
 62
    7
 10
157.63460400000002
 20
228.00642900000002
 40
1
 50
269.999997
 51
0
  0
ARC
  8
_0-4_A2
  6
CONTINUOUS
 62
    7
 10
118.13172300000003
 20
224.60642899999999
 40
1
 50
90.000003000000006
 51
180.00000499999998
  0
ARC
  8
_0-4_A2
  6
DASHED
 62
    7
 10
157.63460400000002
 20
195.00642900000002
 40
1
 50
269.999997
 51
0
  0
ARC
  8
_0-4_A2
  6
CONTINUOUS
 62
    7
 10
157.63460400000002
 20
191.60642899999999
 40
1
 50
0
 51
90.000003000000006
  0
ARC
  8
_0-4_A2
  6
CONTINUOUS
 62
    7
 10
118.13172300000003
 20
195.00642900000002
 40
1
 50
179.99999500000001
 51
269.99999699999995
  0
ARC
  8
_0-4_A2
  6
CONTINUOUS
 62
    7
 10
225.06561000000002
 20
191.60642899999999
 40
1
 50
89.999996999999993
 51
180
  0
ARC
  8
_0-4_A2
  6
CONTINUOUS
 62
    7
 10
118.13172300000003
 20
191.60642899999999
 40
1
 50
90.000003000000006
 51
180.00000499999998
  0
ARC
  8
_0-4_A2
  6
CONTINUOUS
 62
    7
 10
264.56849099999999
 20
191.60642899999999
 40
1
 50
359.99999500000001
 51
89.999996999999993
  0
ARC
  8
_0-4_A2
  6
CONTINUOUS
 62
    7
 10
264.56849099999999
 20
195.00642900000002
 40
1
 50
270.00000299999999
 51
0.0000049999999688
  0
ARC
  8
_0-4_A2
  6
DASHED
 62
    7
 10
225.06561000000002
 20
195.00642900000002
 40
1
 50
180
 51
270.00000299999999
  0
ARC
  8
_0-4_A2
  6
CONTINUOUS
 62
    7
 10
265.15132699999998
 20
214.00642899999999
 40
1
 50
0
 51
90
  0
ARC
  8
_0-4_A2
  6
CONTINUOUS
 62
    7
 10
211.65010700000001
 20
157.40643499999998
 40
0.2
 50
0
 51
90.000003000000006
  0
ARC
  8
_0-4_A2
  6
CONTINUOUS
 62
    7
 10
171.05010700000002
 20
157.40643499999998
 40
0.2
 50
90.000003000000006
 51
180.00000499999998
  0
ARC
  8
_0-4_A2
  6
CONTINUOUS
 62
    7
 10
209.05010700000002
 20
157.40643499999998
 40
0.2
 50
90.000003000000006
 51
180.00000499999998
  0
ARC
  8
_0-4_A2
  6
CONTINUOUS
 62
    7
 10
173.65010699999999
 20
157.40643499999998
 40
0.2
 50
0
 51
90.000003000000006
  0
ARC
  8
_0-4_A2
  6
CONTINUOUS
 62
    7
 10
221.15010699999999
 20
157.80643499999999
 40
0.5999999999999999
 50
269.999997
 51
0
  0
ARC
  8
_0-4_A2
  6
CONTINUOUS
 62
    7
 10
161.55010700000002
 20
157.80643499999999
 40
0.5999999999999999
 50
179.99999500000001
 51
269.99999699999995
  0
ARC
  8
_0-4_A2
  6
CONTINUOUS
 62
    7
 10
265.35010699999997
 20
98.80643400000001
 40
1
 50
269.999997
 51
0
  0
ARC
  8
_0-4_A2
  6
CONTINUOUS
 62
    7
 10
117.35008199999998
 20
98.80643400000001
 40
1
 50
179.99999500000001
 51
269.99999699999995
  0
ARC
  8
_0-4_A2
  6
CONTINUOUS
 62
    7
 10
265.75010700000001
 20
297.406429
 40
0.5999999999999999
 50
0
 51
90.000003000000006
  0
ARC
  8
_0-4_A2
  6
CONTINUOUS
 62
    7
 10
116.950082
 20
297.406429
 40
0.5999999999999999
 50
90.000003000000006
 51
180.00000499999998
  0
ARC
  8
_0-4_A2
  6
CONTINUOUS
 62
    7
 10
116.950082
 20
297.406429
 40
0.5999999999999999
 50
90.000003000000006
 51
180.00000499999998
  0
ARC
  8
_0-4_A2
  6
CONTINUOUS
 62
    7
 10
265.75010700000001
 20
297.406429
 40
0.5999999999999999
 50
0
 51
90.000003000000006
  0
ARC
  8
_0-4_A2
  6
CONTINUOUS
 62
    7
 10
161.55010700000002
 20
275.61443699999995
 40
0.5999999999999999
 50
90.000003000000006
 51
180.00000499999998
  0
ARC
  8
_0-4_A2
  6
CONTINUOUS
 62
    7
 10
221.15010699999999
 20
275.61443699999995
 40
0.5999999999999999
 50
0
 51
90.000003000000006
  0
ARC
  8
_0-4_A2
  6
CONTINUOUS
 62
    7
 10
265.55135200000006
 20
276.97834899999998
 40
0.5999999999999999
 50
272.75727899999998
 51
0
  0
ARC
  8
_0-4_A2
  6
CONTINUOUS
 62
    7
 10
221.15010699999999
 20
275.80642899999998
 40
0.5999999999999999
 50
0
 51
90
  0
ARC
  8
_0-4_A2
  6
CONTINUOUS
 62
    7
 10
265.54064599999998
 20
277.00642900000002
 40
0.5999999999999999
 50
270
 51
0
  0
ARC
  8
_0-4_A2
  6
CONTINUOUS
 62
    7
 10
117.159568
 20
297.19698299999998
 40
0.5999999999999999
 50
90
 51
180
  0
ARC
  8
_0-4_A2
  6
CONTINUOUS
 62
    7
 10
117.148862
 20
276.97834899999998
 40
0.5999999999999999
 50
180
 51
267.24273199999998
  0
ARC
  8
_0-4_A2
  6
CONTINUOUS
 62
    7
 10
161.55010700000002
 20
275.80642899999998
 40
0.5999999999999999
 50
90
 51
180
  0
ARC
  8
_0-4_A2
  6
CONTINUOUS
 62
    7
 10
117.159568
 20
277.00642900000002
 40
0.5999999999999999
 50
180
 51
270
  0
ARC
  8
_0-4_A2
  6
CONTINUOUS
 62
    7
 10
265.54064599999998
 20
297.19698299999998
 40
0.5999999999999999
 50
0
 51
90
  0
ARC
  8
_0-4_A2
  6
CONTINUOUS
 62
    7
 10
159.85010699999997
 20
147.00643500000001
 40
1
 50
270
 51
0
  0
ARC
  8
_0-4_A2
  6
CONTINUOUS
 62
    7
 10
117.54886199999998
 20
147.00643500000001
 40
1
 50
180
 51
270
  0
LINE
  8
_0-4_A2
  6
CONTINUOUS
 62
    7
 10
136.85283299999997
 20
296.51696299999997
 11
143.04738099999997
 21
296.51696299999997
  0
LINE
  8
_0-4_A2
  6
CONTINUOUS
 62
    7
 10
143.05010700000002
 20
296.50648999999998
 11
239.65010699999999
 21
296.50648999999998
  0
LINE
  8
_0-4_A2
  6
CONTINUOUS
 62
    7
 10
144.450107
 20
277.906429
 11
238.25010700000004
 21
277.906429
  0
LINE
  8
_0-4_A2
  6
CONTINUOUS
 62
    7
 10
244.45010700000003
 20
277.906429
 11
264.35010699999997
 21
277.906429
  0
LINE
  8
_0-4_A2
  6
CONTINUOUS
 62
    7
 10
245.85010699999997
 20
296.50648999999998
 11
264.35010699999997
 21
296.50648999999998
  0
LINE
  8
_0-4_A2
  6
CONTINUOUS
 62
    7
 10
244.447381
 20
277.89595600000001
 11
238.252833
 21
277.89595600000001
  0
LINE
  8
_0-4_A2
  6
CONTINUOUS
 62
    7
 10
244.447381
 20
277.30508700000001
 11
238.252833
 21
277.30508700000001
  0
LINE
  8
_0-4_A2
  6
CONTINUOUS
 62
    7
 10
244.45010700000003
 20
277.906429
 11
244.447381
 21
277.89595600000001
  0
LINE
  8
_0-4_A2
  6
CONTINUOUS
 62
    7
 10
244.447381
 20
277.30508700000001
 11
244.447381
 21
277.89595600000001
  0
LINE
  8
_0-4_A2
  6
CONTINUOUS
 62
    7
 10
238.25010700000004
 20
277.906429
 11
238.252833
 21
277.89595600000001
  0
LINE
  8
_0-4_A2
  6
CONTINUOUS
 62
    7
 10
238.252833
 20
277.30508700000001
 11
238.252833
 21
277.89595600000001
  0
LINE
  8
_0-4_A2
  6
CONTINUOUS
 62
    7
 10
245.84738100000001
 20
297.10783199999997
 11
245.84738100000001
 21
296.51696299999997
  0
LINE
  8
_0-4_A2
  6
CONTINUOUS
 62
    7
 10
245.85010699999997
 20
296.50648999999998
 11
245.84738100000001
 21
296.51696299999997
  0
LINE
  8
_0-4_A2
  6
CONTINUOUS
 62
    7
 10
245.84738100000001
 20
296.51696299999997
 11
239.65283299999998
 21
296.51696299999997
  0
LINE
  8
_0-4_A2
  6
CONTINUOUS
 62
    7
 10
245.84738100000001
 20
297.10783199999997
 11
239.65283299999998
 21
297.10783199999997
  0
LINE
  8
_0-4_A2
  6
CONTINUOUS
 62
    7
 10
239.65010699999999
 20
296.50648999999998
 11
239.65283299999998
 21
296.51696299999997
  0
LINE
  8
_0-4_A2
  6
CONTINUOUS
 62
    7
 10
239.65283299999998
 20
297.10783199999997
 11
239.65283299999998
 21
296.51696299999997
  0
LINE
  8
_0-4_A2
  6
CONTINUOUS
 62
    7
 10
143.04738099999997
 20
297.10783199999997
 11
143.04738099999997
 21
296.51696299999997
  0
LINE
  8
_0-4_A2
  6
CONTINUOUS
 62
    7
 10
143.05010700000002
 20
296.50648999999998
 11
143.04738099999997
 21
296.51696299999997
  0
LINE
  8
_0-4_A2
  6
CONTINUOUS
 62
    7
 10
136.85283299999997
 20
297.10783199999997
 11
143.04738099999997
 21
297.10783199999997
  0
LINE
  8
_0-4_A2
  6
CONTINUOUS
 62
    7
 10
136.85010699999997
 20
296.50648999999998
 11
136.85283299999997
 21
296.51696299999997
  0
LINE
  8
_0-4_A2
  6
CONTINUOUS
 62
    7
 10
136.85283299999997
 20
297.10783199999997
 11
136.85283299999997
 21
296.51696299999997
  0
LINE
  8
_0-4_A2
  6
CONTINUOUS
 62
    7
 10
144.447381
 20
277.30508700000001
 11
144.447381
 21
277.89595600000001
  0
LINE
  8
_0-4_A2
  6
CONTINUOUS
 62
    7
 10
144.450107
 20
277.906429
 11
144.447381
 21
277.89595600000001
  0
LINE
  8
_0-4_A2
  6
CONTINUOUS
 62
    7
 10
138.252833
 20
277.30508700000001
 11
138.252833
 21
277.89595600000001
  0
LINE
  8
_0-4_A2
  6
CONTINUOUS
 62
    7
 10
138.25010700000001
 20
277.906429
 11
138.252833
 21
277.89595600000001
  0
LINE
  8
_0-4_A2
  6
CONTINUOUS
 62
    7
 10
138.252833
 20
277.30508700000001
 11
144.447381
 21
277.30508700000001
  0
LINE
  8
_0-4_A2
  6
CONTINUOUS
 62
    7
 10
138.252833
 20
277.89595600000001
 11
144.447381
 21
277.89595600000001
  0
LINE
  8
_0-4_A2
  6
CONTINUOUS
 62
    7
 10
118.35010699999999
 20
277.906429
 11
138.25010700000001
 21
277.906429
  0
LINE
  8
_0-4_A2
  6
CONTINUOUS
 62
    7
 10
264.75010700000001
 20
278.30642899999998
 11
264.75010700000001
 21
296.10649
  0
LINE
  8
_0-4_A2
  6
CONTINUOUS
 62
    7
 10
117.95010700000001
 20
278.30642899999998
 11
117.95010700000001
 21
296.10649
  0
LINE
  8
_0-4_A2
  6
CONTINUOUS
 62
    7
 10
119.12687199999999
 20
278.68319399999995
 11
263.57334100000002
 21
278.68319399999995
  0
LINE
  8
_0-4_A2
  6
CONTINUOUS
 62
    7
 10
118.35010699999999
 20
296.50648999999998
 11
136.85010699999997
 21
296.50648999999998
  0
LINE
  8
_0-4_A2
  6
CONTINUOUS
 62
    7
 10
119.12687199999999
 20
295.73010799999997
 11
263.57334100000002
 21
295.73010799999997
  0
LINE
  8
_0-4_A2
  6
CONTINUOUS
 62
    7
 10
263.973341
 20
279.08319399999993
 11
263.973341
 21
295.33010799999999
  0
LINE
  8
_0-4_A2
  6
CONTINUOUS
 62
    7
 10
118.72687200000001
 20
279.08319399999993
 11
118.72687200000001
 21
295.33010799999999
  0
ARC
  8
_0-4_A2
  6
CONTINUOUS
 62
    7
 10
264.35010699999997
 20
296.10649
 40
0.4
 50
0
 51
90
  0
ARC
  8
_0-4_A2
  6
CONTINUOUS
 62
    7
 10
264.35010699999997
 20
278.30642899999998
 40
0.4
 50
270
 51
0
  0
ARC
  8
_0-4_A2
  6
CONTINUOUS
 62
    7
 10
118.35010699999999
 20
296.10649
 40
0.4
 50
90
 51
180
  0
ARC
  8
_0-4_A2
  6
CONTINUOUS
 62
    7
 10
118.35010699999999
 20
278.30642899999998
 40
0.4
 50
180
 51
270
  0
ARC
  8
_0-4_A2
  6
CONTINUOUS
 62
    7
 10
119.12687199999999
 20
279.08319399999993
 40
0.4
 50
180
 51
270
  0
ARC
  8
_0-4_A2
  6
CONTINUOUS
 62
    7
 10
119.12687199999999
 20
295.33010799999999
 40
0.4
 50
90
 51
180
  0
ARC
  8
_0-4_A2
  6
CONTINUOUS
 62
    7
 10
263.57334100000002
 20
279.08319399999993
 40
0.4
 50
270
 51
0
  0
ARC
  8
_0-4_A2
  6
CONTINUOUS
 62
    7
 10
263.57334100000002
 20
295.33010799999999
 40
0.4
 50
0
 51
90
  0
LINE
  8
_0-4_A2
  6
CONTINUOUS
 62
    3
 10
213.75011899999998
 20
275.014431
 11
213.75011899999998
 21
276.114437
  0
LINE
  8
_0-4_A2
  6
CONTINUOUS
 62
    3
 10
216.35009500000003
 20
275.014431
 11
216.35009500000003
 21
276.114437
  0
LINE
  8
_0-4_A2
  6
CONTINUOUS
 62
    3
 10
213.85009500000001
 20
274.91442499999993
 11
216.25011899999998
 21
274.91442499999993
  0
ARC
  8
_0-4_A2
  6
CONTINUOUS
 62
    3
 10
216.25011899999998
 20
275.014431
 40
0.1
 50
269.999997
 51
359.999997
  0
ARC
  8
_0-4_A2
  6
CONTINUOUS
 62
    3
 10
213.85009500000001
 20
275.014431
 40
0.1
 50
180.00000900000003
 51
270.00000399999998
  0
LINE
  8
_0-4_A2
  6
CONTINUOUS
 62
    3
 10
168.95009499999997
 20
275.014431
 11
168.95009499999997
 21
276.114437
  0
LINE
  8
_0-4_A2
  6
CONTINUOUS
 62
    3
 10
166.350119
 20
275.014431
 11
166.350119
 21
276.114437
  0
LINE
  8
_0-4_A2
  6
CONTINUOUS
 62
    3
 10
168.850119
 20
274.91442499999993
 11
166.45009499999997
 21
274.91442499999993
  0
ARC
  8
_0-4_A2
  6
CONTINUOUS
 62
    3
 10
166.45009499999997
 20
275.014431
 40
0.1
 50
180.00000300000002
 51
270.00000299999999
  0
ARC
  8
_0-4_A2
  6
CONTINUOUS
 62
    3
 10
168.850119
 20
275.014431
 40
0.1
 50
269.99999600000001
 51
359.99999100000007
  0
LINE
  8
_0-4_A2
  6
PHANTOM
 62
    7
 10
265.34790600000007
 20
201.754254
 11
265.29413299999998
 21
195.59247299999998
  0
LINE
  8
_0-4_A2
  6
PHANTOM
 62
    7
 10
222.75230699999997
 20
201.754254
 11
222.81473100000002
 21
194.601199
  0
LINE
  8
_0-4_A2
  6
PHANTOM
 62
    7
 10
223.00229800000002
 20
202.00643500000001
 11
265.097915
 21
202.00643500000001
  0
LINE
  8
_0-4_A2
  6
PHANTOM
 62
    7
 10
223.41470800000004
 20
194.00643500000001
 11
263.69419400000003
 21
194.00643500000001
  0
ARC
  8
_0-4_A2
  6
PHANTOM
 62
    7
 10
265.097915
 20
201.75643500000001
 40
0.25
 50
359.5
 51
89.999999999999971
  0
ARC
  8
_0-4_A2
  6
PHANTOM
 62
    7
 10
223.00229800000002
 20
201.75643500000001
 40
0.25
 50
90
 51
180.5
  0
ARC
  8
_0-4_A2
  6
PHANTOM
 62
    7
 10
223.41470800000004
 20
194.60643500000003
 40
0.5999999999999999
 50
180.5
 51
270
  0
ARC
  8
_0-4_A2
  6
PHANTOM
 62
    7
 10
263.69419400000003
 20
195.606435
 40
1.6
 50
270
 51
359.5
  0
LINE
  8
_0-4_A2
  6
CONTINUOUS
 62
    3
 10
216.35009500000003
 20
158.306441
 11
216.35009500000003
 21
157.20643499999999
  0
LINE
  8
_0-4_A2
  6
CONTINUOUS
 62
    3
 10
213.75011899999998
 20
158.306441
 11
213.75011899999998
 21
157.20643499999999
  0
LINE
  8
_0-4_A2
  6
CONTINUOUS
 62
    3
 10
216.25011899999998
 20
158.40644700000001
 11
213.85009500000001
 21
158.40644700000001
  0
ARC
  8
_0-4_A2
  6
CONTINUOUS
 62
    3
 10
213.85009500000001
 20
158.306441
 40
0.1
 50
89.999996999999993
 51
179.999997
  0
ARC
  8
_0-4_A2
  6
CONTINUOUS
 62
    3
 10
216.25011899999998
 20
158.306441
 40
0.1
 50
0.000009
 51
90.000003999999989
  0
LINE
  8
_0-4_A2
  6
CONTINUOUS
 62
    3
 10
166.350119
 20
158.306441
 11
166.350119
 21
157.20643499999999
  0
LINE
  8
_0-4_A2
  6
CONTINUOUS
 62
    3
 10
168.95009499999997
 20
158.306441
 11
168.95009499999997
 21
157.20643499999999
  0
LINE
  8
_0-4_A2
  6
CONTINUOUS
 62
    3
 10
166.45009499999997
 20
158.40644700000001
 11
168.850119
 21
158.40644700000001
  0
ARC
  8
_0-4_A2
  6
CONTINUOUS
 62
    3
 10
168.850119
 20
158.306441
 40
0.1
 50
0.000003
 51
90.000002999999992
  0
ARC
  8
_0-4_A2
  6
CONTINUOUS
 62
    3
 10
166.45009499999997
 20
158.306441
 40
0.1
 50
89.999995999999995
 51
179.99999099999999
  0
LINE
  8
_0-4_A2
  6
CONTINUOUS
 62
    3
 10
223.15010699999999
 20
222.50642899999996
 11
247.55010700000002
 21
222.50642899999996
  0
LINE
  8
_0-4_A2
  6
CONTINUOUS
 62
    3
 10
223.15010699999999
 20
215.50642899999999
 11
247.55010700000002
 21
215.50642899999999
  0
LINE
  8
_0-4_A2
  6
CONTINUOUS
 62
    3
 10
248.35010699999997
 20
221.70642900000001
 11
248.35010699999997
 21
216.30642899999998
  0
LINE
  8
_0-4_A2
  6
CONTINUOUS
 62
    3
 10
222.350107
 20
221.70642900000001
 11
222.350107
 21
216.30642899999998
  0
LINE
  8
_0-4_A2
  6
CONTINUOUS
 62
    3
 10
228.00010700000001
 20
221.32642699999999
 11
228.00010700000001
 21
216.68642799999997
  0
LINE
  8
_0-4_A2
  6
CONTINUOUS
 62
    3
 10
233.700107
 20
221.32642699999999
 11
233.700107
 21
216.68642799999997
  0
LINE
  8
_0-4_A2
  6
CONTINUOUS
 62
    3
 10
228.00010700000001
 20
221.32642699999999
 11
233.700107
 21
221.32642699999999
  0
LINE
  8
_0-4_A2
  6
CONTINUOUS
 62
    3
 10
228.00010700000001
 20
216.68642799999997
 11
233.700107
 21
216.68642799999997
  0
LINE
  8
_0-4_A2
  6
CONTINUOUS
 62
    3
 10
237.00010700000001
 20
221.32642699999999
 11
237.00010700000001
 21
216.68642799999997
  0
LINE
  8
_0-4_A2
  6
CONTINUOUS
 62
    3
 10
242.700107
 20
221.32642699999999
 11
242.700107
 21
216.68642799999997
  0
LINE
  8
_0-4_A2
  6
CONTINUOUS
 62
    3
 10
237.00010700000001
 20
221.32642699999999
 11
242.700107
 21
221.32642699999999
  0
LINE
  8
_0-4_A2
  6
CONTINUOUS
 62
    3
 10
237.00010700000001
 20
216.68642799999997
 11
242.700107
 21
216.68642799999997
  0
LINE
  8
_0-4_A2
  6
CONTINUOUS
 62
    3
 10
223.15010699999999
 20
222.30642899999998
 11
247.55010700000002
 21
222.30642899999998
  0
LINE
  8
_0-4_A2
  6
CONTINUOUS
 62
    3
 10
222.55010700000002
 20
221.70642900000001
 11
222.55010700000002
 21
216.30642899999998
  0
LINE
  8
_0-4_A2
  6
CONTINUOUS
 62
    3
 10
223.15010699999999
 20
215.70642900000001
 11
247.55010700000002
 21
215.70642900000001
  0
LINE
  8
_0-4_A2
  6
CONTINUOUS
 62
    3
 10
248.15010699999999
 20
221.70642900000001
 11
248.15010699999999
 21
216.30642899999998
  0
LINE
  8
_0-4_A2
  6
CONTINUOUS
 62
    3
 10
242.65010699999999
 20
221.18642799999997
 11
242.65010699999999
 21
216.82643100000001
  0
LINE
  8
_0-4_A2
  6
CONTINUOUS
 62
    3
 10
237.05010700000002
 20
221.18642799999997
 11
237.05010700000002
 21
216.82643100000001
  0
LINE
  8
_0-4_A2
  6
CONTINUOUS
 62
    3
 10
237.15010700000001
 20
221.286428
 11
242.55010700000005
 21
221.286428
  0
LINE
  8
_0-4_A2
  6
CONTINUOUS
 62
    3
 10
237.15010700000001
 20
216.72643099999999
 11
242.55010700000005
 21
216.72643099999999
  0
LINE
  8
_0-4_A2
  6
CONTINUOUS
 62
    3
 10
237.55010700000002
 20
220.58642800000001
 11
242.15010699999999
 21
220.58642800000001
  0
LINE
  8
_0-4_A2
  6
CONTINUOUS
 62
    3
 10
237.55010700000002
 20
217.42643099999997
 11
242.15010699999999
 21
217.42643099999997
  0
LINE
  8
_0-4_A2
  6
CONTINUOUS
 62
    3
 10
242.15010699999999
 20
220.58642800000001
 11
242.15010699999999
 21
217.42643099999997
  0
LINE
  8
_0-4_A2
  6
CONTINUOUS
 62
    3
 10
237.55010700000002
 20
220.58642800000001
 11
237.55010700000002
 21
217.42643099999997
  0
LINE
  8
_0-4_A2
  6
CONTINUOUS
 62
    3
 10
237.65010699999999
 20
220.48642799999998
 11
237.65010699999999
 21
217.526431
  0
LINE
  8
_0-4_A2
  6
CONTINUOUS
 62
    3
 10
237.65010699999999
 20
220.48642799999998
 11
242.05010700000002
 21
220.48642799999998
  0
LINE
  8
_0-4_A2
  6
CONTINUOUS
 62
    3
 10
237.65010699999999
 20
217.526431
 11
242.05010700000002
 21
217.526431
  0
LINE
  8
_0-4_A2
  6
CONTINUOUS
 62
    3
 10
242.05010700000002
 20
220.48642799999998
 11
242.05010700000002
 21
217.526431
  0
LINE
  8
_0-4_A2
  6
CONTINUOUS
 62
    3
 10
241.60981399999997
 20
220.48642799999998
 11
241.60981399999997
 21
217.526431
  0
LINE
  8
_0-4_A2
  6
CONTINUOUS
 62
    3
 10
241.20981399999999
 20
219.38642800000002
 11
241.20981399999999
 21
218.62643100000002
  0
LINE
  8
_0-4_A2
  6
CONTINUOUS
 62
    3
 10
240.609814
 20
219.38642800000002
 11
240.609814
 21
218.62643100000002
  0
LINE
  8
_0-4_A2
  6
CONTINUOUS
 62
    3
 10
241.10981399999997
 20
219.38642800000002
 11
241.10981399999997
 21
218.62643100000002
  0
LINE
  8
_0-4_A2
  6
CONTINUOUS
 62
    3
 10
240.70981399999999
 20
219.38642800000002
 11
240.70981399999999
 21
218.62643100000002
  0
LINE
  8
_0-4_A2
  6
CONTINUOUS
 62
    3
 10
233.65010699999999
 20
221.18642799999997
 11
233.65010699999999
 21
216.82643100000001
  0
LINE
  8
_0-4_A2
  6
CONTINUOUS
 62
    3
 10
228.05010700000002
 20
221.18642799999997
 11
228.05010700000002
 21
216.82643100000001
  0
LINE
  8
_0-4_A2
  6
CONTINUOUS
 62
    3
 10
228.15010700000001
 20
221.286428
 11
233.55010700000005
 21
221.286428
  0
LINE
  8
_0-4_A2
  6
CONTINUOUS
 62
    3
 10
228.15010700000001
 20
216.72643099999999
 11
233.55010700000005
 21
216.72643099999999
  0
LINE
  8
_0-4_A2
  6
CONTINUOUS
 62
    3
 10
231.90010700000001
 20
219.70642799999995
 11
231.90010700000001
 21
218.306429
  0
LINE
  8
_0-4_A2
  6
CONTINUOUS
 62
    3
 10
232.30010700000002
 20
219.70642799999995
 11
232.30010700000002
 21
218.306429
  0
LINE
  8
_0-4_A2
  6
CONTINUOUS
 62
    3
 10
231.90010700000001
 20
219.70642799999995
 11
232.30010700000002
 21
219.70642799999995
  0
LINE
  8
_0-4_A2
  6
CONTINUOUS
 62
    3
 10
231.90010700000001
 20
218.306429
 11
232.30010700000002
 21
218.306429
  0
LINE
  8
_0-4_A2
  6
CONTINUOUS
 62
    3
 10
229.80010700000005
 20
218.156429
 11
229.80010700000005
 21
219.85642799999999
  0
LINE
  8
_0-4_A2
  6
CONTINUOUS
 62
    3
 10
229.40010699999999
 20
218.156429
 11
229.40010699999999
 21
219.85642799999999
  0
LINE
  8
_0-4_A2
  6
CONTINUOUS
 62
    3
 10
229.40010699999999
 20
219.85642799999999
 11
229.80010700000005
 21
219.85642799999999
  0
LINE
  8
_0-4_A2
  6
CONTINUOUS
 62
    3
 10
229.40010699999999
 20
218.156429
 11
229.80010700000005
 21
218.156429
  0
LINE
  8
_0-4_A2
  6
CONTINUOUS
 62
    3
 10
231.200107
 20
220.397297
 11
231.200107
 21
217.61555999999995
  0
LINE
  8
_0-4_A2
  6
CONTINUOUS
 62
    3
 10
233.25010700000001
 20
219.41074500000001
 11
233.25010700000001
 21
218.60211100000003
  0
LINE
  8
_0-4_A2
  6
CONTINUOUS
 62
    3
 10
231.30882200000004
 20
220.49691599999999
 11
232.337262
 21
220.40694000000002
  0
LINE
  8
_0-4_A2
  6
CONTINUOUS
 62
    3
 10
232.337262
 20
217.60591900000002
 11
231.30882200000004
 21
217.51594199999999
  0
LINE
  8
_0-4_A2
  6
CONTINUOUS
 62
    3
 10
230.50010700000001
 20
217.61555999999995
 11
230.50010700000001
 21
220.397297
  0
LINE
  8
_0-4_A2
  6
CONTINUOUS
 62
    3
 10
228.450107
 20
218.60211100000003
 11
228.450107
 21
219.41074500000001
  0
LINE
  8
_0-4_A2
  6
CONTINUOUS
 62
    3
 10
229.362951
 20
220.40693900000002
 11
230.39139100000002
 21
220.49691599999999
  0
LINE
  8
_0-4_A2
  6
CONTINUOUS
 62
    3
 10
230.39139200000002
 20
217.51594199999999
 11
229.362952
 21
217.60591900000002
  0
ARC
  8
_0-4_A2
  6
CONTINUOUS
 62
    3
 10
247.55010700000002
 20
221.70642900000001
 40
0.8
 50
0
 51
89.999982000000002
  0
ARC
  8
_0-4_A2
  6
CONTINUOUS
 62
    3
 10
247.55010700000002
 20
216.30642899999998
 40
0.8
 50
270.00001800000001
 51
0.0000000000000127
  0
ARC
  8
_0-4_A2
  6
CONTINUOUS
 62
    3
 10
223.15010699999999
 20
221.70642900000001
 40
0.8
 50
89.999982000000002
 51
179.999964
  0
ARC
  8
_0-4_A2
  6
CONTINUOUS
 62
    3
 10
223.15010699999999
 20
216.30642899999998
 40
0.8
 50
179.999964
 51
270.00000099999999
  0
ARC
  8
_0-4_A2
  6
CONTINUOUS
 62
    3
 10
247.55010700000002
 20
221.70642900000001
 40
0.5999999999999999
 50
0
 51
89.999982000000002
  0
ARC
  8
_0-4_A2
  6
CONTINUOUS
 62
    3
 10
247.55010700000002
 20
216.30642899999998
 40
0.5999999999999999
 50
270.00001800000001
 51
0.0000000000000127
  0
ARC
  8
_0-4_A2
  6
CONTINUOUS
 62
    3
 10
223.15010699999999
 20
216.30642899999998
 40
0.5999999999999999
 50
179.999964
 51
270.00000099999999
  0
ARC
  8
_0-4_A2
  6
CONTINUOUS
 62
    3
 10
223.15010699999999
 20
221.70642900000001
 40
0.5999999999999999
 50
89.999982000000002
 51
179.999964
  0
ARC
  8
_0-4_A2
  6
CONTINUOUS
 62
    3
 10
242.55010700000005
 20
221.18642799999997
 40
0.1
 50
0
 51
89.999982000000002
  0
ARC
  8
_0-4_A2
  6
CONTINUOUS
 62
    3
 10
237.15010700000001
 20
216.82643100000001
 40
0.1
 50
179.999964
 51
270.00000099999999
  0
ARC
  8
_0-4_A2
  6
CONTINUOUS
 62
    3
 10
237.15010700000001
 20
221.18642799999997
 40
0.1
 50
89.999982000000002
 51
179.999964
  0
ARC
  8
_0-4_A2
  6
CONTINUOUS
 62
    3
 10
242.55010700000005
 20
216.82643100000001
 40
0.1
 50
270.00001800000001
 51
0.0000000000000127
  0
ARC
  8
_0-4_A2
  6
CONTINUOUS
 62
    3
 10
240.90981399999998
 20
218.62643100000002
 40
0.2999999999999999
 50
179.999964
 51
0
  0
ARC
  8
_0-4_A2
  6
CONTINUOUS
 62
    3
 10
240.90981399999998
 20
219.38642800000002
 40
0.2999999999999999
 50
0
 51
179.999964
  0
ARC
  8
_0-4_A2
  6
CONTINUOUS
 62
    3
 10
240.90981399999998
 20
219.38642800000002
 40
0.2
 50
0
 51
179.999964
  0
ARC
  8
_0-4_A2
  6
CONTINUOUS
 62
    3
 10
240.90981399999998
 20
218.62643100000002
 40
0.2
 50
179.999964
 51
0
  0
ARC
  8
_0-4_A2
  6
CONTINUOUS
 62
    3
 10
233.55010700000005
 20
221.18642799999997
 40
0.1
 50
0
 51
89.999982000000002
  0
ARC
  8
_0-4_A2
  6
CONTINUOUS
 62
    3
 10
228.15010700000001
 20
216.82643100000001
 40
0.1
 50
179.999964
 51
270.00000099999999
  0
ARC
  8
_0-4_A2
  6
CONTINUOUS
 62
    3
 10
228.15010700000001
 20
221.18642799999997
 40
0.1
 50
89.999982000000002
 51
179.999964
  0
ARC
  8
_0-4_A2
  6
CONTINUOUS
 62
    3
 10
233.55010700000005
 20
216.82643100000001
 40
0.1
 50
270.00001800000001
 51
0.0000000000000127
  0
ARC
  8
_0-4_A2
  6
CONTINUOUS
 62
    3
 10
232.25010700000004
 20
219.41074500000001
 40
1
 50
359.99999000000002
 51
84.999955999999983
  0
ARC
  8
_0-4_A2
  6
CONTINUOUS
 62
    3
 10
231.30010700000005
 20
220.397297
 40
0.1
 50
84.999955999999997
 51
180.000019
  0
ARC
  8
_0-4_A2
  6
CONTINUOUS
 62
    3
 10
232.25010700000004
 20
218.60211100000003
 40
1
 50
275.00009899999997
 51
0.0000100000000013
  0
ARC
  8
_0-4_A2
  6
CONTINUOUS
 62
    3
 10
231.30010700000005
 20
217.61555999999995
 40
0.1
 50
179.999964
 51
275.00002699999998
  0
ARC
  8
_0-4_A2
  6
CONTINUOUS
 62
    3
 10
229.45010700000003
 20
219.41074500000001
 40
1
 50
95.000007999999994
 51
179.999964
  0
ARC
  8
_0-4_A2
  6
CONTINUOUS
 62
    3
 10
230.40010700000001
 20
220.397297
 40
0.1
 50
359.99998099999999
 51
95.000007999999994
  0
ARC
  8
_0-4_A2
  6
CONTINUOUS
 62
    3
 10
229.45010700000003
 20
218.60211100000003
 40
1
 50
179.999964
 51
264.99986499999999
  0
ARC
  8
_0-4_A2
  6
CONTINUOUS
 62
    3
 10
230.40010700000001
 20
217.61555999999995
 40
0.1
 50
264.99999200000002
 51
0.0000360000000278
  0
LINE
  8
_0-4_A2
  6
PHANTOM
 62
    7
 10
117.35230699999999
 20
153.754254
 11
117.40608099999997
 21
147.59247300000001
  0
LINE
  8
_0-4_A2
  6
PHANTOM
 62
    7
 10
159.94790599999998
 20
153.754254
 11
159.88548200000002
 21
146.601199
  0
LINE
  8
_0-4_A2
  6
PHANTOM
 62
    7
 10
159.69791500000002
 20
154.00643500000001
 11
117.60229800000004
 21
154.00643500000001
  0
LINE
  8
_0-4_A2
  6
PHANTOM
 62
    7
 10
159.285505
 20
146.00643500000001
 11
119.00601999999999
 21
146.00643500000001
  0
ARC
  8
_0-4_A2
  6
PHANTOM
 62
    7
 10
117.60229800000004
 20
153.75643500000001
 40
0.25
 50
90
 51
180.5
  0
ARC
  8
_0-4_A2
  6
PHANTOM
 62
    7
 10
159.69791500000002
 20
153.75643500000001
 40
0.25
 50
359.5
 51
89.999999999999971
  0
ARC
  8
_0-4_A2
  6
PHANTOM
 62
    7
 10
159.285505
 20
146.60643500000003
 40
0.5999999999999999
 50
270
 51
359.5
  0
ARC
  8
_0-4_A2
  6
PHANTOM
 62
    7
 10
119.00601999999999
 20
147.606435
 40
1.6
 50
180.5
 51
270
  0
LINE
  8
_0-4_A2
  6
PHANTOM
 62
    7
 10
117.35230699999999
 20
201.754254
 11
117.40608099999997
 21
195.59247299999998
  0
LINE
  8
_0-4_A2
  6
PHANTOM
 62
    7
 10
159.94790599999998
 20
201.754254
 11
159.88548200000002
 21
194.601199
  0
LINE
  8
_0-4_A2
  6
PHANTOM
 62
    7
 10
159.69791500000002
 20
202.00643500000001
 11
117.60229800000004
 21
202.00643500000001
  0
LINE
  8
_0-4_A2
  6
PHANTOM
 62
    7
 10
159.285505
 20
194.00643500000001
 11
119.00601999999999
 21
194.00643500000001
  0
ARC
  8
_0-4_A2
  6
PHANTOM
 62
    7
 10
117.60229800000004
 20
201.75643500000001
 40
0.25
 50
90
 51
180.5
  0
ARC
  8
_0-4_A2
  6
PHANTOM
 62
    7
 10
159.69791500000002
 20
201.75643500000001
 40
0.25
 50
359.5
 51
89.999999999999971
  0
ARC
  8
_0-4_A2
  6
PHANTOM
 62
    7
 10
159.285505
 20
194.60643500000003
 40
0.5999999999999999
 50
270
 51
359.5
  0
ARC
  8
_0-4_A2
  6
PHANTOM
 62
    7
 10
119.00601999999999
 20
195.606435
 40
1.6
 50
180.5
 51
270
  0
LINE
  8
_0-4_A2
  6
PHANTOM
 62
    7
 10
117.35230699999999
 20
234.754254
 11
117.40608099999997
 21
228.59247299999998
  0
LINE
  8
_0-4_A2
  6
PHANTOM
 62
    7
 10
159.94790599999998
 20
234.754254
 11
159.88548200000002
 21
227.601199
  0
LINE
  8
_0-4_A2
  6
PHANTOM
 62
    7
 10
159.69791500000002
 20
235.00643500000001
 11
117.60229800000004
 21
235.00643500000001
  0
LINE
  8
_0-4_A2
  6
PHANTOM
 62
    7
 10
159.285505
 20
227.00643500000001
 11
119.00601999999999
 21
227.00643500000001
  0
ARC
  8
_0-4_A2
  6
PHANTOM
 62
    7
 10
117.60229800000004
 20
234.75643500000001
 40
0.25
 50
90
 51
180.5
  0
ARC
  8
_0-4_A2
  6
PHANTOM
 62
    7
 10
159.69791500000002
 20
234.75643500000001
 40
0.25
 50
359.5
 51
89.999999999999971
  0
ARC
  8
_0-4_A2
  6
PHANTOM
 62
    7
 10
159.285505
 20
227.60643500000003
 40
0.5999999999999999
 50
270
 51
359.5
  0
ARC
  8
_0-4_A2
  6
PHANTOM
 62
    7
 10
119.00601999999999
 20
228.606435
 40
1.6
 50
180.5
 51
270
  0
LINE
  8
_0-4_A2
  6
PHANTOM
 62
    7
 10
265.34790600000007
 20
153.754254
 11
265.29413299999998
 21
147.59247300000001
  0
LINE
  8
_0-4_A2
  6
PHANTOM
 62
    7
 10
222.75230699999997
 20
153.754254
 11
222.81473100000002
 21
146.601199
  0
LINE
  8
_0-4_A2
  6
PHANTOM
 62
    7
 10
223.00229800000002
 20
154.00643500000001
 11
265.097915
 21
154.00643500000001
  0
LINE
  8
_0-4_A2
  6
PHANTOM
 62
    7
 10
223.41470800000004
 20
146.00643500000001
 11
263.69419400000003
 21
146.00643500000001
  0
ARC
  8
_0-4_A2
  6
PHANTOM
 62
    7
 10
265.097915
 20
153.75643500000001
 40
0.25
 50
359.5
 51
89.999999999999971
  0
ARC
  8
_0-4_A2
  6
PHANTOM
 62
    7
 10
223.00229800000002
 20
153.75643500000001
 40
0.25
 50
90
 51
180.5
  0
ARC
  8
_0-4_A2
  6
PHANTOM
 62
    7
 10
223.41470800000004
 20
146.60643500000003
 40
0.5999999999999999
 50
180.5
 51
270
  0
ARC
  8
_0-4_A2
  6
PHANTOM
 62
    7
 10
263.69419400000003
 20
147.606435
 40
1.6
 50
270
 51
359.5
  0
LINE
  8
_0-4_A2
  6
PHANTOM
 62
    7
 10
265.34790600000007
 20
234.754254
 11
265.29413299999998
 21
228.59247299999998
  0
LINE
  8
_0-4_A2
  6
PHANTOM
 62
    7
 10
222.75230699999997
 20
234.754254
 11
222.81473100000002
 21
227.601199
  0
LINE
  8
_0-4_A2
  6
PHANTOM
 62
    7
 10
223.00229800000002
 20
235.00643500000001
 11
265.097915
 21
235.00643500000001
  0
LINE
  8
_0-4_A2
  6
PHANTOM
 62
    7
 10
223.41470800000004
 20
227.00643500000001
 11
263.69419400000003
 21
227.00643500000001
  0
ARC
  8
_0-4_A2
  6
PHANTOM
 62
    7
 10
265.097915
 20
234.75643500000001
 40
0.25
 50
359.5
 51
89.999999999999971
  0
ARC
  8
_0-4_A2
  6
PHANTOM
 62
    7
 10
223.00229800000002
 20
234.75643500000001
 40
0.25
 50
90
 51
180.5
  0
ARC
  8
_0-4_A2
  6
PHANTOM
 62
    7
 10
223.41470800000004
 20
227.60643500000003
 40
0.5999999999999999
 50
180.5
 51
270
  0
ARC
  8
_0-4_A2
  6
PHANTOM
 62
    7
 10
263.69419400000003
 20
228.606435
 40
1.6
 50
270
 51
359.5
  0
LINE
  8
_0-4_A2
  6
CONTINUOUS
 62
    7
 10
402.236061
 20
67.806434999999993
 11
376.19606099999998
 21
67.806434999999993
  0
LINE
  8
_0-4_A2
  6
CONTINUOUS
 62
    7
 10
402.236061
 20
96.436419
 11
402.236061
 21
65.520434999999991
  0
LINE
  8
_0-4_A2
  6
CONTINUOUS
 62
    7
 10
376.19606099999998
 20
143.85624000000001
 11
376.19606099999998
 21
65.520434999999991
  0
INSERT
  2
-000-_DOTSMALL
  8
_0-4_A2
 10
402.236061
 20
67.806434999999993
 41
1.5466666666666664
 42
1.5466666666666664
 50
0
  0
INSERT
  2
-000-_DOTSMALL
  8
_0-4_A2
 10
376.19606099999998
 20
67.806434999999993
 41
1.5466666666666664
 42
1.5466666666666664
 50
180
  0
LINE
  8
_0-4_A2
  6
CONTINUOUS
 62
    7
 10
377.53606099999996
 20
328.95018700000002
 11
402.23604199999999
 21
328.95018700000002
  0
LINE
  8
_0-4_A2
  6
CONTINUOUS
 62
    7
 10
377.53606099999996
 20
299.276428
 11
377.53606099999996
 21
331.23618699999997
  0
LINE
  8
_0-4_A2
  6
CONTINUOUS
 62
    7
 10
402.23604199999999
 20
299.276428
 11
402.23604199999999
 21
331.23618699999997
  0
INSERT
  2
-000-_DOTSMALL
  8
_0-4_A2
 10
377.53606099999996
 20
328.95018700000002
 41
1.5466666666666664
 42
1.5466666666666664
 50
180
  0
INSERT
  2
-000-_DOTSMALL
  8
_0-4_A2
 10
402.23604199999999
 20
328.95018700000002
 41
1.5466666666666664
 42
1.5466666666666664
 50
0
  0
LINE
  8
_0-4_A2
  6
CONTINUOUS
 62
    7
 10
116.350082
 20
328.95018700000002
 11
266.35010699999997
 21
328.95018700000002
  0
LINE
  8
_0-4_A2
  6
CONTINUOUS
 62
    7
 10
116.350082
 20
299.27642200000002
 11
116.350082
 21
331.23618699999997
  0
LINE
  8
_0-4_A2
  6
CONTINUOUS
 62
    7
 10
266.35010699999997
 20
299.27642200000002
 11
266.35010699999997
 21
331.23618699999997
  0
INSERT
  2
-000-_DOTSMALL
  8
_0-4_A2
 10
116.350082
 20
328.95018700000002
 41
1.5466666666666664
 42
1.5466666666666664
 50
180
  0
INSERT
  2
-000-_DOTSMALL
  8
_0-4_A2
 10
266.35010699999997
 20
328.95018700000002
 41
1.5466666666666664
 42
1.5466666666666664
 50
0
  0
LINE
  8
_0-4_A2
  6
CONTINUOUS
 62
    7
 10
390.236061
 20
319.95382399999999
 11
402.236061
 21
319.95382399999999
  0
LINE
  8
_0-4_A2
  6
CONTINUOUS
 62
    7
 10
390.236061
 20
298.27735699999993
 11
390.236061
 21
322.23982399999999
  0
INSERT
  2
-000-_DOTSMALL
  8
_0-4_A2
 10
390.236061
 20
319.95382399999999
 41
1.5466666666666664
 42
1.5466666666666664
 50
180
  0
INSERT
  2
-000-_DOTSMALL
  8
_0-4_A2
 10
402.236061
 20
319.95382399999999
 41
1.5466666666666664
 42
1.5466666666666664
 50
0
  0
LINE
  8
_0-4_A2
  6
CONTINUOUS
 62
    7
 10
161.35009500000001
 20
319.95382399999999
 11
221.35009500000001
 21
319.95382399999999
  0
LINE
  8
_0-4_A2
  6
CONTINUOUS
 62
    7
 10
161.35009500000001
 20
297.07642899999996
 11
161.35009500000001
 21
322.23982399999999
  0
LINE
  8
_0-4_A2
  6
CONTINUOUS
 62
    7
 10
221.35009500000001
 20
297.07642899999996
 11
221.35009500000001
 21
322.23982399999999
  0
INSERT
  2
-000-_DOTSMALL
  8
_0-4_A2
 10
161.35009500000001
 20
319.95382399999999
 41
1.5466666666666664
 42
1.5466666666666664
 50
180
  0
INSERT
  2
-000-_DOTSMALL
  8
_0-4_A2
 10
221.35009500000001
 20
319.95382399999999
 41
1.5466666666666664
 42
1.5466666666666664
 50
0
  0
LINE
  8
_0-4_A2
  6
CONTINUOUS
 62
    7
 10
86.350082000000043
 20
157.40643
 11
86.350082000000043
 21
275.606424
  0
LINE
  8
_0-4_A2
  6
CONTINUOUS
 62
    7
 10
145.080082
 20
157.40643
 11
84.064081999999999
 21
157.40643
  0
LINE
  8
_0-4_A2
  6
CONTINUOUS
 62
    7
 10
145.080082
 20
275.606424
 11
84.064081999999999
 21
275.606424
  0
INSERT
  2
-000-_DOTSMALL
  8
_0-4_A2
 10
86.350082000000043
 20
157.40643
 41
1.5466666666666664
 42
1.5466666666666664
 50
270
  0
INSERT
  2
-000-_DOTSMALL
  8
_0-4_A2
 10
86.350082000000043
 20
275.606424
 41
1.5466666666666664
 42
1.5466666666666664
 50
90
  0
LINE
  8
_0-4_A2
  6
CONTINUOUS
 62
    7
 10
296.35010699999997
 20
276.40642400000001
 11
296.35010699999997
 21
227.00642999999996
  0
LINE
  8
_0-4_A2
  6
CONTINUOUS
 62
    7
 10
266.81428400000004
 20
276.40642400000001
 11
297.26450699999998
 21
276.40642400000001
  0
LINE
  8
_0-4_A2
  6
CONTINUOUS
 62
    7
 10
266.62374399999998
 20
227.00642999999996
 11
297.26450699999998
 21
227.00642999999996
  0
INSERT
  2
-000-_DOTSMALL
  8
_0-4_A2
 10
296.35010699999997
 20
276.40642400000001
 41
1.5466666666666664
 42
1.5466666666666664
 50
90
  0
INSERT
  2
-000-_DOTSMALL
  8
_0-4_A2
 10
296.35010699999997
 20
227.00642999999996
 41
1.5466666666666664
 42
1.5466666666666664
 50
270
  0
LINE
  8
_0-4_A2
  6
CONTINUOUS
 62
    7
 10
296.35010699999997
 20
298.00642399999998
 11
296.35010699999997
 21
276.40642400000001
  0
LINE
  8
_0-4_A2
  6
CONTINUOUS
 62
    7
 10
267.62376899999998
 20
298.00642399999998
 11
298.630107
 21
298.00642399999998
  0
LINE
  8
_0-4_A2
  6
CONTINUOUS
 62
    7
 10
266.81428400000004
 20
276.40642400000001
 11
298.630107
 21
276.40642400000001
  0
INSERT
  2
-000-_DOTSMALL
  8
_0-4_A2
 10
296.35010699999997
 20
298.00642399999998
 41
1.5466666666666664
 42
1.5466666666666664
 50
90
  0
INSERT
  2
-000-_DOTSMALL
  8
_0-4_A2
 10
296.35010699999997
 20
276.40642400000001
 41
1.5466666666666664
 42
1.5466666666666664
 50
270
  0
LINE
  8
_0-4_A2
  6
CONTINUOUS
 62
    7
 10
296.35010699999997
 20
146.00642999999999
 11
296.35010699999997
 21
98.806428000000011
  0
LINE
  8
_0-4_A2
  6
CONTINUOUS
 62
    7
 10
266.62376899999998
 20
98.806428000000011
 11
297.26450699999998
 21
98.806428000000011
  0
INSERT
  2
-000-_DOTSMALL
  8
_0-4_A2
 10
296.35010699999997
 20
146.00642999999999
 41
1.5466666666666664
 42
1.5466666666666664
 50
90
  0
INSERT
  2
-000-_DOTSMALL
  8
_0-4_A2
 10
296.35010699999997
 20
98.806428000000011
 41
1.5466666666666664
 42
1.5466666666666664
 50
270
  0
LINE
  8
_0-4_A2
  6
CONTINUOUS
 62
    7
 10
296.35010699999997
 20
194.00642999999996
 11
296.35010699999997
 21
146.00642999999999
  0
LINE
  8
_0-4_A2
  6
CONTINUOUS
 62
    7
 10
266.62374399999998
 20
146.00642999999999
 11
297.26450699999998
 21
146.00642999999999
  0
INSERT
  2
-000-_DOTSMALL
  8
_0-4_A2
 10
296.35010699999997
 20
194.00642999999996
 41
1.5466666666666664
 42
1.5466666666666664
 50
90
  0
INSERT
  2
-000-_DOTSMALL
  8
_0-4_A2
 10
296.35010699999997
 20
146.00642999999999
 41
1.5466666666666664
 42
1.5466666666666664
 50
270
  0
LINE
  8
_0-4_A2
  6
CONTINUOUS
 62
    7
 10
296.35010699999997
 20
227.00642999999996
 11
296.35010699999997
 21
194.00642999999996
  0
LINE
  8
_0-4_A2
  6
CONTINUOUS
 62
    7
 10
266.62374399999998
 20
194.00642999999996
 11
297.26450699999998
 21
194.00642999999996
  0
INSERT
  2
-000-_DOTSMALL
  8
_0-4_A2
 10
296.35010699999997
 20
227.00642999999996
 41
1.5466666666666664
 42
1.5466666666666664
 50
90
  0
INSERT
  2
-000-_DOTSMALL
  8
_0-4_A2
 10
296.35010699999997
 20
194.00642999999996
 41
1.5466666666666664
 42
1.5466666666666664
 50
270
  0
LINE
  8
_0-4_A2
  6
CONTINUOUS
 62
    7
 10
311.35010699999997
 20
298.00642399999998
 11
311.35010699999997
 21
98.806428000000011
  0
LINE
  8
_0-4_A2
  6
CONTINUOUS
 62
    7
 10
267.62013100000001
 20
298.00642399999998
 11
312.26450699999998
 21
298.00642399999998
  0
INSERT
  2
-000-_DOTSMALL
  8
_0-4_A2
 10
311.35010699999997
 20
298.00642399999998
 41
1.5466666666666664
 42
1.5466666666666664
 50
90
  0
INSERT
  2
-000-_DOTSMALL
  8
_0-4_A2
 10
311.35010699999997
 20
98.806428000000011
 41
1.5466666666666664
 42
1.5466666666666664
 50
270
  0
LINE
  8
_0-4_A2
  6
CONTINUOUS
 62
    7
 10
311.35010699999997
 20
98.806428000000011
 11
311.35010699999997
 21
97.806428999999994
  0
LINE
  8
_0-4_A2
  6
CONTINUOUS
 62
    7
 10
311.35010699999997
 20
97.806428999999994
 11
311.35010699999997
 21
88.278508999999999
  0
LINE
  8
_0-4_A2
  6
CONTINUOUS
 62
    7
 10
266.62013100000001
 20
98.806428000000011
 11
313.63610699999998
 21
98.806428000000011
  0
LINE
  8
_0-4_A2
  6
CONTINUOUS
 62
    7
 10
266.62013100000001
 20
97.806428999999994
 11
313.63610699999998
 21
97.806428999999994
  0
INSERT
  2
-000-_DOTSMALL
  8
_0-4_A2
 10
311.35010699999997
 20
98.806428000000011
 41
1.5466666666666664
 42
1.5466666666666664
 50
90
  0
INSERT
  2
-000-_DOTSMALL
  8
_0-4_A2
 10
311.35010699999997
 20
97.806428999999994
 41
1.5466666666666664
 42
1.5466666666666664
 50
270
  0
LINE
  8
_0-4_A2
  6
CONTINUOUS
 62
    7
 10
402.236061
 20
121.91613
 11
396.33606099999997
 21
121.91613
  0
LINE
  8
_0-4_A2
  6
CONTINUOUS
 62
    7
 10
417.33705199999997
 20
121.91613
 11
402.236061
 21
121.91613
  0
LINE
  8
_0-4_A2
  6
CONTINUOUS
 62
    7
 10
402.236061
 20
121.91613
 11
404.77606100000002
 21
121.91613
  0
LINE
  8
_0-4_A2
  6
CONTINUOUS
 62
    7
 10
396.33606099999997
 20
121.91613
 11
393.796061
 21
121.91613
  0
INSERT
  2
-000-_DOTSMALL
  8
_0-4_A2
 10
402.236061
 20
121.91613
 41
1.2373333333333333
 42
1.2373333333333333
 50
180
  0
INSERT
  2
-000-_DOTSMALL
  8
_0-4_A2
 10
396.33606099999997
 20
121.91613
 41
1.2373333333333333
 42
1.2373333333333333
 50
0
  0
LINE
  8
_0-4_A2
  6
CENTER
 62
    7
 10
191.35009500000001
 20
408.88483499999995
 11
191.35009500000001
 21
390.08483499999999
  0
ARC
  8
_0-4_A2
  6
CONTINUOUS
 62
    7
 10
159.95008899999999
 20
395.80367199999994
 40
0.0500000000000113
 50
180
 51
0
  0
ARC
  8
_0-4_A2
  6
CONTINUOUS
 62
    7
 10
159.95008899999999
 20
395.80367199999994
 40
0.0500000000000113
 50
0
 51
180
  0
ARC
  8
_0-4_A2
  6
PHANTOM
 62
    7
 10
151.95008899999999
 20
395.80367199999994
 40
8
 50
0
 51
83.332384000000004
  0
ARC
  8
_0-4_A2
  6
PHANTOM
 62
    7
 10
154.377115
 20
324.00658299999997
 40
80
 50
93.650622999999995
 51
117.13175599999998
  0
ARC
  8
_0-4_A2
  6
PHANTOM
 62
    7
 10
150.55677700000001
 20
383.884835
 40
20
 50
83.332382999999992
 51
93.650622999999995
  0
ARC
  8
_0-4_A2
  6
PHANTOM
 62
    7
 10
154.377115
 20
324.00658299999997
 40
79.5
 50
93.650622999999995
 51
117.13175599999998
  0
ARC
  8
_0-4_A2
  6
PHANTOM
 62
    7
 10
151.95008899999999
 20
395.80367199999994
 40
7.5
 50
0
 51
83.332384000000004
  0
ARC
  8
_0-4_A2
  6
PHANTOM
 62
    7
 10
150.55677700000001
 20
383.884835
 40
19.5
 50
83.332382999999992
 51
93.650622999999995
  0
ARC
  8
_0-4_A2
  6
PHANTOM
 62
    7
 10
154.377115
 20
324.00658299999997
 40
80.599999999999994
 50
93.650622999999995
 51
101.469508
  0
ARC
  8
_0-4_A2
  6
PHANTOM
 62
    7
 10
150.55677700000001
 20
383.884835
 40
20.600000000000001
 50
85.005836999999999
 51
93.650622999999995
  0
ARC
  8
_0-4_A2
  6
PHANTOM
 62
    7
 10
150.55677700000001
 20
383.884835
 40
20.899999999999998
 50
85.077702000000002
 51
93.650622999999995
  0
ARC
  8
_0-4_A2
  6
PHANTOM
 62
    7
 10
154.377115
 20
324.00658299999997
 40
80.900000000000005
 50
93.650622999999995
 51
101.42640199999999
  0
ARC
  8
_0-4_A2
  6
PHANTOM
 62
    7
 10
154.377115
 20
324.00658299999997
 40
81.200000000000002
 50
93.650622999999995
 51
101.32578499999999
  0
ARC
  8
_0-4_A2
  6
PHANTOM
 62
    7
 10
150.55677700000001
 20
383.884835
 40
21.199999999999999
 50
85.396947999999994
 51
93.650622999999995
  0
ARC
  8
_0-4_A2
  6
PHANTOM
 62
    7
 10
154.377115
 20
324.00658299999997
 40
81.400000000000005
 50
93.650622999999995
 51
100.57976399999999
  0
ARC
  8
_0-4_A2
  6
PHANTOM
 62
    7
 10
150.55677700000001
 20
383.884835
 40
21.399999999999998
 50
88.134686000000002
 51
93.650622999999995
  0
ARC
  8
_0-4_A2
  6
PHANTOM
 62
    7
 10
152.25009499999998
 20
404.91677900000001
 40
0.1
 50
0
 51
85.396947999999994
  0
ARC
  8
_0-4_A2
  6
PHANTOM
 62
    7
 10
151.25009499999998
 20
405.17354799999992
 40
0.1
 50
0
 51
88.134686000000002
  0
ARC
  8
_0-4_A2
  6
PHANTOM
 62
    7
 10
139.45009499999997
 20
403.92450400000001
 40
0.1
 50
100.57976399999999
 51
180
  0
ARC
  8
_0-4_A2
  6
PHANTOM
 62
    7
 10
138.45009499999997
 20
403.52727299999992
 40
0.1
 50
101.32578499999999
 51
180
  0
ARC
  8
_0-4_A2
  6
PHANTOM
 62
    7
 10
158.35009500000001
 20
381.44483500000001
 40
1.6
 50
270
 51
0
  0
ARC
  8
_0-4_A2
  6
PHANTOM
 62
    7
 10
158.35009500000001
 20
381.44483500000001
 40
1.1
 50
270
 51
0
  0
ARC
  8
_0-4_A2
  6
PHANTOM
 62
    7
 10
118.95009499999999
 20
381.44483500000001
 40
1.1
 50
180
 51
270
  0
ARC
  8
_0-4_A2
  6
PHANTOM
 62
    7
 10
118.95009499999999
 20
381.44483500000001
 40
1.6
 50
180
 51
270
  0
ARC
  8
_0-4_A2
  6
PHANTOM
 62
    7
 10
118.35009500000002
 20
394.31343800000001
 40
1
 50
117.131756
 51
180.00000000000002
  0
ARC
  8
_0-4_A2
  6
PHANTOM
 62
    7
 10
118.35009500000002
 20
394.31343800000001
 40
0.5
 50
117.131756
 51
180.00000000000002
  0
ARC
  8
_0-4_A2
  6
PHANTOM
 62
    7
 10
118.35009500000002
 20
394.31343800000001
 40
1
 50
117.131756
 51
180.00000000000002
  0
LINE
  8
_0-4_A2
  6
PHANTOM
 62
    7
 10
159.95009499999997
 20
395.80367199999994
 11
159.95009499999997
 21
381.44483500000001
  0
LINE
  8
_0-4_A2
  6
PHANTOM
 62
    7
 10
117.35009500000003
 20
394.31343800000001
 11
117.35009500000003
 21
381.44483500000001
  0
LINE
  8
_0-4_A2
  6
PHANTOM
 62
    7
 10
152.35009500000001
 20
404.91677900000001
 11
152.35009500000001
 21
403.80427300000002
  0
LINE
  8
_0-4_A2
  6
PHANTOM
 62
    7
 10
138.35009500000001
 20
403.52727299999992
 11
138.35009500000001
 21
402.38473499999997
  0
LINE
  8
_0-4_A2
  6
PHANTOM
 62
    7
 10
117.85009500000001
 20
394.31343800000001
 11
117.85009500000001
 21
381.44483500000001
  0
LINE
  8
_0-4_A2
  6
PHANTOM
 62
    7
 10
159.45009499999997
 20
395.80367199999994
 11
159.45009499999997
 21
381.44483500000001
  0
LINE
  8
_0-4_A2
  6
PHANTOM
 62
    7
 10
139.35009500000001
 20
403.92450400000001
 11
139.35009500000001
 21
403.80400600000001
  0
LINE
  8
_0-4_A2
  6
PHANTOM
 62
    7
 10
151.35009500000001
 20
405.17354799999992
 11
151.35009500000001
 21
405.06998699999996
  0
LINE
  8
_0-4_A2
  6
PHANTOM
 62
    7
 10
158.35009500000001
 20
379.84483499999998
 11
118.95009499999999
 21
379.84483499999998
  0
LINE
  8
_0-4_A2
  6
PHANTOM
 62
    7
 10
158.35009500000001
 20
380.34483499999998
 11
118.95009499999999
 21
380.34483499999998
  0
ARC
  8
_0-4_A2
  6
CONTINUOUS
 62
    7
 10
222.7501
 20
395.80367199999994
 40
0.0499999999999829
 50
180
 51
0
  0
ARC
  8
_0-4_A2
  6
CONTINUOUS
 62
    7
 10
222.7501
 20
395.80367199999994
 40
0.0499999999999829
 50
0
 51
180
  0
ARC
  8
_0-4_A2
  6
PHANTOM
 62
    7
 10
230.75009999999997
 20
395.80367199999994
 40
8
 50
96.667616000000009
 51
180
  0
ARC
  8
_0-4_A2
  6
PHANTOM
 62
    7
 10
228.32307400000004
 20
324.00658299999997
 40
80
 50
62.868243999999997
 51
86.349377000000004
  0
ARC
  8
_0-4_A2
  6
PHANTOM
 62
    7
 10
232.14341200000001
 20
383.884835
 40
20
 50
86.349377000000004
 51
96.667617000000007
  0
ARC
  8
_0-4_A2
  6
PHANTOM
 62
    7
 10
228.32307400000004
 20
324.00658299999997
 40
79.5
 50
62.868243999999997
 51
86.349377000000004
  0
ARC
  8
_0-4_A2
  6
PHANTOM
 62
    7
 10
230.75009999999997
 20
395.80367199999994
 40
7.5
 50
96.667616000000009
 51
180
  0
ARC
  8
_0-4_A2
  6
PHANTOM
 62
    7
 10
232.14341200000001
 20
383.884835
 40
19.5
 50
86.349377000000004
 51
96.667617000000007
  0
ARC
  8
_0-4_A2
  6
PHANTOM
 62
    7
 10
228.32307400000004
 20
324.00658299999997
 40
80.599999999999994
 50
78.530491999999995
 51
86.349377000000004
  0
ARC
  8
_0-4_A2
  6
PHANTOM
 62
    7
 10
232.14341200000001
 20
383.884835
 40
20.600000000000001
 50
86.349377000000004
 51
94.994162999999986
  0
ARC
  8
_0-4_A2
  6
PHANTOM
 62
    7
 10
232.14341200000001
 20
383.884835
 40
20.899999999999998
 50
86.349377000000004
 51
94.922297999999997
  0
ARC
  8
_0-4_A2
  6
PHANTOM
 62
    7
 10
228.32307400000004
 20
324.00658299999997
 40
80.900000000000005
 50
78.573598000000004
 51
86.349377000000004
  0
ARC
  8
_0-4_A2
  6
PHANTOM
 62
    7
 10
228.32307400000004
 20
324.00658299999997
 40
81.200000000000002
 50
78.674215000000003
 51
86.349377000000004
  0
ARC
  8
_0-4_A2
  6
PHANTOM
 62
    7
 10
232.14341200000001
 20
383.884835
 40
21.199999999999999
 50
86.349377000000004
 51
94.603052000000005
  0
ARC
  8
_0-4_A2
  6
PHANTOM
 62
    7
 10
228.32307400000004
 20
324.00658299999997
 40
81.400000000000005
 50
79.420236000000002
 51
86.349377000000004
  0
ARC
  8
_0-4_A2
  6
PHANTOM
 62
    7
 10
232.14341200000001
 20
383.884835
 40
21.399999999999998
 50
86.349377000000004
 51
91.865313999999997
  0
ARC
  8
_0-4_A2
  6
PHANTOM
 62
    7
 10
230.450095
 20
404.91677900000001
 40
0.1
 50
94.603052000000005
 51
180
  0
ARC
  8
_0-4_A2
  6
PHANTOM
 62
    7
 10
231.45009499999997
 20
405.17354799999992
 40
0.1
 50
91.865313999999997
 51
180
  0
ARC
  8
_0-4_A2
  6
PHANTOM
 62
    7
 10
243.25009499999998
 20
403.92450400000001
 40
0.1
 50
0
 51
79.420236000000002
  0
ARC
  8
_0-4_A2
  6
PHANTOM
 62
    7
 10
244.25009499999998
 20
403.52727299999992
 40
0.1
 50
0
 51
78.674215000000003
  0
ARC
  8
_0-4_A2
  6
PHANTOM
 62
    7
 10
224.35009500000001
 20
381.44483500000001
 40
1.6
 50
180
 51
270
  0
ARC
  8
_0-4_A2
  6
PHANTOM
 62
    7
 10
224.35009500000001
 20
381.44483500000001
 40
1.1
 50
180
 51
270
  0
ARC
  8
_0-4_A2
  6
PHANTOM
 62
    7
 10
263.75009499999998
 20
381.44483500000001
 40
1.1
 50
270
 51
0
  0
ARC
  8
_0-4_A2
  6
PHANTOM
 62
    7
 10
263.75009499999998
 20
381.44483500000001
 40
1.6
 50
270
 51
0
  0
ARC
  8
_0-4_A2
  6
PHANTOM
 62
    7
 10
264.35009500000001
 20
394.31343800000001
 40
1
 50
0
 51
62.868243999999997
  0
ARC
  8
_0-4_A2
  6
PHANTOM
 62
    7
 10
264.35009500000001
 20
394.31343800000001
 40
0.5
 50
0
 51
62.868243999999997
  0
ARC
  8
_0-4_A2
  6
PHANTOM
 62
    7
 10
264.35009500000001
 20
394.31343800000001
 40
1
 50
0
 51
62.868243999999997
  0
LINE
  8
_0-4_A2
  6
PHANTOM
 62
    7
 10
222.75009500000001
 20
395.80367199999994
 11
222.75009500000001
 21
381.44483500000001
  0
LINE
  8
_0-4_A2
  6
PHANTOM
 62
    7
 10
265.35009500000001
 20
394.31343800000001
 11
265.35009500000001
 21
381.44483500000001
  0
LINE
  8
_0-4_A2
  6
PHANTOM
 62
    7
 10
230.35009500000001
 20
404.91677900000001
 11
230.35009500000001
 21
403.80427300000002
  0
LINE
  8
_0-4_A2
  6
PHANTOM
 62
    7
 10
244.35009500000001
 20
403.52727299999992
 11
244.35009500000001
 21
402.38473499999997
  0
LINE
  8
_0-4_A2
  6
PHANTOM
 62
    7
 10
264.85009500000001
 20
394.31343800000001
 11
264.85009500000001
 21
381.44483500000001
  0
LINE
  8
_0-4_A2
  6
PHANTOM
 62
    7
 10
223.25009499999998
 20
395.80367199999994
 11
223.25009499999998
 21
381.44483500000001
  0
LINE
  8
_0-4_A2
  6
PHANTOM
 62
    7
 10
243.35009500000003
 20
403.92450400000001
 11
243.35009500000003
 21
403.80400600000001
  0
LINE
  8
_0-4_A2
  6
PHANTOM
 62
    7
 10
231.35009500000003
 20
405.17354799999992
 11
231.35009500000003
 21
405.06998699999996
  0
LINE
  8
_0-4_A2
  6
PHANTOM
 62
    7
 10
224.35009500000001
 20
379.84483499999998
 11
263.75009499999998
 21
379.84483499999998
  0
LINE
  8
_0-4_A2
  6
PHANTOM
 62
    7
 10
224.35009500000001
 20
380.34483499999998
 11
263.75009499999998
 21
380.34483499999998
  0
ARC
  8
_0-4_A2
  6
PHANTOM
 62
    7
 10
119.103142
 20
381.58483499999999
 40
0.4
 50
183.5
 51
270
  0
ARC
  8
_0-4_A2
  6
PHANTOM
 62
    7
 10
263.59704699999997
 20
381.58483499999999
 40
0.4
 50
270
 51
356.5
  0
ARC
  8
_0-4_A2
  6
PHANTOM
 62
    7
 10
139.46974799999998
 20
383.204835
 40
0.0199999999999999
 50
181
 51
270
  0
ARC
  8
_0-4_A2
  6
PHANTOM
 62
    7
 10
140.43044099999997
 20
383.204835
 40
0.0199999999999999
 50
270
 51
359
  0
ARC
  8
_0-4_A2
  6
PHANTOM
 62
    7
 10
243.23044099999998
 20
383.204835
 40
0.0199999999999999
 50
270
 51
359
  0
ARC
  8
_0-4_A2
  6
PHANTOM
 62
    7
 10
242.26974800000002
 20
383.204835
 40
0.0199999999999999
 50
181
 51
270
  0
LINE
  8
_0-4_A2
  6
CENTER
 62
    7
 10
191.35009500000001
 20
396.24402900000001
 11
191.35009500000001
 21
373.37766199999998
  0
LINE
  8
_0-4_A2
  6
PHANTOM
 62
    7
 10
117.950095
 20
393.88483499999995
 11
264.75009499999998
 21
393.88483499999995
  0
LINE
  8
_0-4_A2
  6
PHANTOM
 62
    7
 10
264.75009499999998
 20
393.88483499999995
 11
263.99630100000001
 21
381.56041599999997
  0
LINE
  8
_0-4_A2
  6
PHANTOM
 62
    7
 10
117.950095
 20
393.88483499999995
 11
118.70388800000002
 21
381.56041599999997
  0
LINE
  8
_0-4_A2
  6
PHANTOM
 62
    7
 10
119.103142
 20
381.18483500000002
 11
263.59704699999997
 21
381.18483500000002
  0
LINE
  8
_0-4_A2
  6
PHANTOM
 62
    7
 10
139.46974799999998
 20
383.18483500000002
 11
140.43044099999997
 21
383.18483500000002
  0
LINE
  8
_0-4_A2
  6
PHANTOM
 62
    7
 10
140.45043800000001
 20
383.20448599999997
 11
140.636864
 21
393.88483499999995
  0
LINE
  8
_0-4_A2
  6
PHANTOM
 62
    7
 10
139.44975199999998
 20
383.20448599999997
 11
139.263325
 21
393.88483499999995
  0
LINE
  8
_0-4_A2
  6
PHANTOM
 62
    7
 10
243.25043799999997
 20
383.20448599999997
 11
243.43686400000001
 21
393.88483499999995
  0
LINE
  8
_0-4_A2
  6
PHANTOM
 62
    7
 10
242.24975200000002
 20
383.20448599999997
 11
242.06332500000004
 21
393.88483499999995
  0
LINE
  8
_0-4_A2
  6
PHANTOM
 62
    7
 10
243.23044099999998
 20
383.18483500000002
 11
242.26974800000002
 21
383.18483500000002
  0
ARC
  8
_0-4_A2
  6
PHANTOM
 62
    7
 10
119.103142
 20
381.58483499999999
 40
0.4
 50
183.5
 51
270
  0
ARC
  8
_0-4_A2
  6
PHANTOM
 62
    7
 10
263.59704699999997
 20
381.58483499999999
 40
0.4
 50
270
 51
356.5
  0
ARC
  8
_0-4_A2
  6
PHANTOM
 62
    7
 10
139.46974799999998
 20
383.204835
 40
0.0199999999999999
 50
181
 51
270
  0
ARC
  8
_0-4_A2
  6
PHANTOM
 62
    7
 10
140.43044099999997
 20
383.204835
 40
0.0199999999999999
 50
270
 51
359
  0
ARC
  8
_0-4_A2
  6
PHANTOM
 62
    7
 10
243.23044099999998
 20
383.204835
 40
0.0199999999999999
 50
270
 51
359
  0
ARC
  8
_0-4_A2
  6
PHANTOM
 62
    7
 10
242.26974800000002
 20
383.204835
 40
0.0199999999999999
 50
181
 51
270
  0
LINE
  8
_0-4_A2
  6
CENTER
 62
    7
 10
191.35009500000001
 20
396.24402900000001
 11
191.35009500000001
 21
373.37766199999998
  0
LINE
  8
_0-4_A2
  6
PHANTOM
 62
    7
 10
117.950095
 20
393.88483499999995
 11
264.75009499999998
 21
393.88483499999995
  0
LINE
  8
_0-4_A2
  6
PHANTOM
 62
    7
 10
264.75009499999998
 20
393.88483499999995
 11
263.99630100000001
 21
381.56041599999997
  0
LINE
  8
_0-4_A2
  6
PHANTOM
 62
    7
 10
117.950095
 20
393.88483499999995
 11
118.70388800000002
 21
381.56041599999997
  0
LINE
  8
_0-4_A2
  6
PHANTOM
 62
    7
 10
119.103142
 20
381.18483500000002
 11
263.59704699999997
 21
381.18483500000002
  0
LINE
  8
_0-4_A2
  6
PHANTOM
 62
    7
 10
139.46974799999998
 20
383.18483500000002
 11
140.43044099999997
 21
383.18483500000002
  0
LINE
  8
_0-4_A2
  6
PHANTOM
 62
    7
 10
140.45043800000001
 20
383.20448599999997
 11
140.636864
 21
393.88483499999995
  0
LINE
  8
_0-4_A2
  6
PHANTOM
 62
    7
 10
139.44975199999998
 20
383.20448599999997
 11
139.263325
 21
393.88483499999995
  0
LINE
  8
_0-4_A2
  6
PHANTOM
 62
    7
 10
243.25043799999997
 20
383.20448599999997
 11
243.43686400000001
 21
393.88483499999995
  0
LINE
  8
_0-4_A2
  6
PHANTOM
 62
    7
 10
242.24975200000002
 20
383.20448599999997
 11
242.06332500000004
 21
393.88483499999995
  0
LINE
  8
_0-4_A2
  6
PHANTOM
 62
    7
 10
243.23044099999998
 20
383.18483500000002
 11
242.26974800000002
 21
383.18483500000002
  0
ARC
  8
_0-4_A2
  6
CONTINUOUS
 62
    3
 10
265.551015
 20
394.48483499999991
 40
0.5999999999999999
 50
270
 51
359
  0
ARC
  8
_0-4_A2
  6
CONTINUOUS
 62
    3
 10
117.14917400000003
 20
394.48483499999991
 40
0.5999999999999999
 50
181
 51
270
  0
ARC
  8
_0-4_A2
  6
CONTINUOUS
 62
    3
 10
223.06486499999999
 20
394.18483500000002
 40
0.5999999999999999
 50
210.00000000000002
 51
269.99998199999998
  0
ARC
  8
_0-4_A2
  6
CONTINUOUS
 62
    3
 10
247.63532400000002
 20
394.18483500000002
 40
0.5999999999999999
 50
269.99992699999995
 51
330
  0
LINE
  8
_0-4_A2
  6
CONTINUOUS
 62
    3
 10
116.35009500000001
 20
405.88483499999995
 11
266.35009500000001
 21
405.88483499999995
  0
LINE
  8
_0-4_A2
  6
CONTINUOUS
 62
    3
 10
116.549265
 20
394.47436399999992
 11
116.35009500000001
 21
405.88483499999995
  0
LINE
  8
_0-4_A2
  6
CONTINUOUS
 62
    3
 10
266.15092399999997
 20
394.47436399999992
 11
266.35009500000001
 21
405.88483499999995
  0
LINE
  8
_0-4_A2
  6
CONTINUOUS
 62
    3
 10
117.14917400000003
 20
393.88483499999995
 11
265.551015
 21
393.88483499999995
  0
LINE
  8
_0-4_A2
  6
CONTINUOUS
 62
    3
 10
247.63532400000002
 20
393.58483499999999
 11
223.06486499999999
 21
393.58483499999999
  0
ARC
  8
_0-4_A2
  6
PHANTOM
 62
    7
 10
376.525441
 20
234.55642800000003
 40
0.25
 50
90
 51
180.5
  0
ARC
  8
_0-4_A2
  6
PHANTOM
 62
    7
 10
398.77841
 20
228.20642800000001
 40
1.3999999999999999
 50
270
 51
359.5
  0
ARC
  8
_0-4_A2
  6
PHANTOM
 62
    7
 10
399.98386900000002
 20
234.55642800000003
 40
0.25
 50
359.5
 51
89.999999999999971
  0
ARC
  8
_0-4_A2
  6
PHANTOM
 62
    7
 10
399.33596
 20
232.20642799999998
 40
0.5999999999999999
 50
90
 51
180
  0
ARC
  8
_0-4_A2
  6
PHANTOM
 62
    7
 10
399.24828100000001
 20
233.406428
 40
0.1
 50
270
 51
0
  0
ARC
  8
_0-4_A2
  6
PHANTOM
 62
    7
 10
399.36041299999999
 20
233.406428
 40
0.5999999999999999
 50
270
 51
0
  0
ARC
  8
_0-4_A2
  6
PHANTOM
 62
    7
 10
399.72317900000001
 20
234.70642799999995
 40
0.1
 50
90
 51
159.06255499999997
  0
ARC
  8
_0-4_A2
  6
PHANTOM
 62
    7
 10
399.94828099999995
 20
233.89556399999997
 40
0.5999999999999999
 50
159.062555
 51
180
  0
ARC
  8
_0-4_A2
  6
PHANTOM
 62
    7
 10
400.81328300000006
 20
232.20642799999998
 40
0.5999999999999999
 50
90
 51
180
  0
ARC
  8
_0-4_A2
  6
PHANTOM
 62
    7
 10
400.83773600000006
 20
233.406428
 40
0.5999999999999999
 50
270
 51
0
  0
ARC
  8
_0-4_A2
  6
PHANTOM
 62
    7
 10
400.25873799999999
 20
234.70642799999995
 40
0.1
 50
0
 51
90
  0
ARC
  8
_0-4_A2
  6
PHANTOM
 62
    7
 10
401.53606099999996
 20
234.70642799999995
 40
0.1
 50
0
 51
90
  0
ARC
  8
_0-4_A2
  6
PHANTOM
 62
    7
 10
377.92916299999995
 20
228.406428
 40
1.6
 50
180.5
 51
270
  0
ARC
  8
_0-4_A2
  6
PHANTOM
 62
    7
 10
376.67413799999997
 20
234.70642799999995
 40
0.1
 50
0.5
 51
90
  0
ARC
  8
_0-4_A2
  6
PHANTOM
 62
    7
 10
399.83517299999999
 20
234.70642799999995
 40
0.1
 50
90
 51
179.5
  0
LINE
  8
_0-4_A2
  6
PHANTOM
 62
    7
 10
376.27545099999997
 20
234.55424699999997
 11
376.32922399999995
 21
228.39246600000001
  0
LINE
  8
_0-4_A2
  6
PHANTOM
 62
    7
 10
391.27325000000001
 20
234.80642800000001
 11
391.27325000000001
 21
226.80642799999998
  0
LINE
  8
_0-4_A2
  6
PHANTOM
 62
    7
 10
401.53606099999996
 20
234.80642800000001
 11
376.525441
 21
234.80642800000001
  0
LINE
  8
_0-4_A2
  6
PHANTOM
 62
    7
 10
400.35873800000001
 20
234.70642799999995
 11
400.35873800000001
 21
233.406428
  0
LINE
  8
_0-4_A2
  6
PHANTOM
 62
    7
 10
401.63606100000004
 20
234.70642799999995
 11
401.63606100000004
 21
233.406428
  0
LINE
  8
_0-4_A2
  6
PHANTOM
 62
    7
 10
398.77841
 20
226.80642799999998
 11
377.92916299999995
 21
226.80642799999998
  0
LINE
  8
_0-4_A2
  6
PHANTOM
 62
    7
 10
399.96041299999995
 20
234.80642800000001
 11
399.96041299999995
 21
233.406428
  0
LINE
  8
_0-4_A2
  6
PHANTOM
 62
    7
 10
398.73596000000003
 20
233.30642800000001
 11
398.73596000000003
 21
232.20642799999998
  0
LINE
  8
_0-4_A2
  6
PHANTOM
 62
    7
 10
400.15523199999995
 20
234.80642800000001
 11
400.15523199999995
 21
233.406428
  0
LINE
  8
_0-4_A2
  6
PHANTOM
 62
    7
 10
400.23385999999993
 20
234.55424699999997
 11
400.21337100000005
 21
232.20642799999998
  0
LINE
  8
_0-4_A2
  6
PHANTOM
 62
    7
 10
399.34828100000004
 20
233.89556399999997
 11
399.34828100000004
 21
233.406428
  0
LINE
  8
_0-4_A2
  6
PHANTOM
 62
    7
 10
399.24828100000001
 20
233.30642800000001
 11
398.73596000000003
 21
233.30642800000001
  0
LINE
  8
_0-4_A2
  6
PHANTOM
 62
    7
 10
399.36041299999999
 20
232.80642799999998
 11
399.33596
 21
232.80642799999998
  0
LINE
  8
_0-4_A2
  6
PHANTOM
 62
    7
 10
399.62978199999997
 20
234.742163
 11
399.387898
 21
234.10997300000002
  0
LINE
  8
_0-4_A2
  6
PHANTOM
 62
    7
 10
400.21337100000005
 20
232.20642799999998
 11
400.178357
 21
228.19421099999999
  0
LINE
  8
_0-4_A2
  6
PHANTOM
 62
    7
 10
401.63606100000004
 20
233.406428
 11
400.15523199999995
 21
233.406428
  0
LINE
  8
_0-4_A2
  6
PHANTOM
 62
    7
 10
400.21328299999998
 20
232.20642799999998
 11
398.73596000000003
 21
232.20642799999998
  0
ARC
  8
_0-4_A2
  6
PHANTOM
 62
    7
 10
376.525441
 20
201.55642800000003
 40
0.25
 50
90
 51
180.5
  0
ARC
  8
_0-4_A2
  6
PHANTOM
 62
    7
 10
398.77841
 20
195.20642800000001
 40
1.3999999999999999
 50
270
 51
359.5
  0
ARC
  8
_0-4_A2
  6
PHANTOM
 62
    7
 10
399.98386900000002
 20
201.55642800000003
 40
0.25
 50
359.5
 51
89.999999999999971
  0
ARC
  8
_0-4_A2
  6
PHANTOM
 62
    7
 10
399.33596
 20
199.20642799999998
 40
0.5999999999999999
 50
90
 51
180
  0
ARC
  8
_0-4_A2
  6
PHANTOM
 62
    7
 10
399.24828100000001
 20
200.406428
 40
0.1
 50
270
 51
0
  0
ARC
  8
_0-4_A2
  6
PHANTOM
 62
    7
 10
399.36041299999999
 20
200.406428
 40
0.5999999999999999
 50
270
 51
0
  0
ARC
  8
_0-4_A2
  6
PHANTOM
 62
    7
 10
399.72317900000001
 20
201.70642799999995
 40
0.1
 50
90
 51
159.06255499999997
  0
ARC
  8
_0-4_A2
  6
PHANTOM
 62
    7
 10
399.94828099999995
 20
200.89556399999997
 40
0.5999999999999999
 50
159.062555
 51
180
  0
ARC
  8
_0-4_A2
  6
PHANTOM
 62
    7
 10
400.81328300000006
 20
199.20642799999998
 40
0.5999999999999999
 50
90
 51
180
  0
ARC
  8
_0-4_A2
  6
PHANTOM
 62
    7
 10
400.83773600000006
 20
200.406428
 40
0.5999999999999999
 50
270
 51
0
  0
ARC
  8
_0-4_A2
  6
PHANTOM
 62
    7
 10
400.25873799999999
 20
201.70642799999995
 40
0.1
 50
0
 51
90
  0
ARC
  8
_0-4_A2
  6
PHANTOM
 62
    7
 10
401.53606099999996
 20
201.70642799999995
 40
0.1
 50
0
 51
90
  0
ARC
  8
_0-4_A2
  6
PHANTOM
 62
    7
 10
377.92916299999995
 20
195.406428
 40
1.6
 50
180.5
 51
270
  0
ARC
  8
_0-4_A2
  6
PHANTOM
 62
    7
 10
376.67413799999997
 20
201.70642799999995
 40
0.1
 50
0.5
 51
90
  0
ARC
  8
_0-4_A2
  6
PHANTOM
 62
    7
 10
399.83517299999999
 20
201.70642799999995
 40
0.1
 50
90
 51
179.5
  0
LINE
  8
_0-4_A2
  6
PHANTOM
 62
    7
 10
376.27545099999997
 20
201.55424699999997
 11
376.32922399999995
 21
195.39246600000001
  0
LINE
  8
_0-4_A2
  6
PHANTOM
 62
    7
 10
391.27325000000001
 20
201.80642800000001
 11
391.27325000000001
 21
193.80642799999998
  0
LINE
  8
_0-4_A2
  6
PHANTOM
 62
    7
 10
401.53606099999996
 20
201.80642800000001
 11
376.525441
 21
201.80642800000001
  0
LINE
  8
_0-4_A2
  6
PHANTOM
 62
    7
 10
400.35873800000001
 20
201.70642799999995
 11
400.35873800000001
 21
200.406428
  0
LINE
  8
_0-4_A2
  6
PHANTOM
 62
    7
 10
401.63606100000004
 20
201.70642799999995
 11
401.63606100000004
 21
200.406428
  0
LINE
  8
_0-4_A2
  6
PHANTOM
 62
    7
 10
398.77841
 20
193.80642799999998
 11
377.92916299999995
 21
193.80642799999998
  0
LINE
  8
_0-4_A2
  6
PHANTOM
 62
    7
 10
399.96041299999995
 20
201.80642800000001
 11
399.96041299999995
 21
200.406428
  0
LINE
  8
_0-4_A2
  6
PHANTOM
 62
    7
 10
398.73596000000003
 20
200.30642800000001
 11
398.73596000000003
 21
199.20642799999998
  0
LINE
  8
_0-4_A2
  6
PHANTOM
 62
    7
 10
400.15523199999995
 20
201.80642800000001
 11
400.15523199999995
 21
200.406428
  0
LINE
  8
_0-4_A2
  6
PHANTOM
 62
    7
 10
400.23385999999993
 20
201.55424699999997
 11
400.21337100000005
 21
199.20642799999998
  0
LINE
  8
_0-4_A2
  6
PHANTOM
 62
    7
 10
399.34828100000004
 20
200.89556399999997
 11
399.34828100000004
 21
200.406428
  0
LINE
  8
_0-4_A2
  6
PHANTOM
 62
    7
 10
399.24828100000001
 20
200.30642800000001
 11
398.73596000000003
 21
200.30642800000001
  0
LINE
  8
_0-4_A2
  6
PHANTOM
 62
    7
 10
399.36041299999999
 20
199.80642799999998
 11
399.33596
 21
199.80642799999998
  0
LINE
  8
_0-4_A2
  6
PHANTOM
 62
    7
 10
399.62978199999997
 20
201.742163
 11
399.387898
 21
201.10997300000002
  0
LINE
  8
_0-4_A2
  6
PHANTOM
 62
    7
 10
400.21337100000005
 20
199.20642799999998
 11
400.178357
 21
195.19421099999999
  0
LINE
  8
_0-4_A2
  6
PHANTOM
 62
    7
 10
401.63606100000004
 20
200.406428
 11
400.15523199999995
 21
200.406428
  0
LINE
  8
_0-4_A2
  6
PHANTOM
 62
    7
 10
400.21328299999998
 20
199.20642799999998
 11
398.73596000000003
 21
199.20642799999998
  0
ARC
  8
_0-4_A2
  6
PHANTOM
 62
    7
 10
376.525441
 20
153.55642800000003
 40
0.25
 50
90
 51
180.5
  0
ARC
  8
_0-4_A2
  6
PHANTOM
 62
    7
 10
398.77841
 20
147.20642800000001
 40
1.3999999999999999
 50
270
 51
359.5
  0
ARC
  8
_0-4_A2
  6
PHANTOM
 62
    7
 10
399.98386900000002
 20
153.55642800000003
 40
0.25
 50
359.5
 51
89.999999999999971
  0
ARC
  8
_0-4_A2
  6
PHANTOM
 62
    7
 10
399.33596
 20
151.20642799999998
 40
0.5999999999999999
 50
90
 51
180
  0
ARC
  8
_0-4_A2
  6
PHANTOM
 62
    7
 10
399.24828100000001
 20
152.406428
 40
0.1
 50
270
 51
0
  0
ARC
  8
_0-4_A2
  6
PHANTOM
 62
    7
 10
399.36041299999999
 20
152.406428
 40
0.5999999999999999
 50
270
 51
0
  0
ARC
  8
_0-4_A2
  6
PHANTOM
 62
    7
 10
399.72317900000001
 20
153.70642799999998
 40
0.1
 50
90
 51
159.06255499999997
  0
ARC
  8
_0-4_A2
  6
PHANTOM
 62
    7
 10
399.94828099999995
 20
152.895564
 40
0.5999999999999999
 50
159.062555
 51
180
  0
ARC
  8
_0-4_A2
  6
PHANTOM
 62
    7
 10
400.81328300000006
 20
151.20642799999998
 40
0.5999999999999999
 50
90
 51
180
  0
ARC
  8
_0-4_A2
  6
PHANTOM
 62
    7
 10
400.83773600000006
 20
152.406428
 40
0.5999999999999999
 50
270
 51
0
  0
ARC
  8
_0-4_A2
  6
PHANTOM
 62
    7
 10
400.25873799999999
 20
153.70642799999998
 40
0.1
 50
0
 51
90
  0
ARC
  8
_0-4_A2
  6
PHANTOM
 62
    7
 10
401.53606099999996
 20
153.70642799999998
 40
0.1
 50
0
 51
90
  0
ARC
  8
_0-4_A2
  6
PHANTOM
 62
    7
 10
377.92916299999995
 20
147.406428
 40
1.6
 50
180.5
 51
270
  0
ARC
  8
_0-4_A2
  6
PHANTOM
 62
    7
 10
376.67413799999997
 20
153.70642799999998
 40
0.1
 50
0.5
 51
90
  0
ARC
  8
_0-4_A2
  6
PHANTOM
 62
    7
 10
399.83517299999999
 20
153.70642799999998
 40
0.1
 50
90
 51
179.5
  0
LINE
  8
_0-4_A2
  6
PHANTOM
 62
    7
 10
376.27545099999997
 20
153.554247
 11
376.32922399999995
 21
147.39246600000001
  0
LINE
  8
_0-4_A2
  6
PHANTOM
 62
    7
 10
391.27325000000001
 20
153.80642800000001
 11
391.27325000000001
 21
145.80642800000001
  0
LINE
  8
_0-4_A2
  6
PHANTOM
 62
    7
 10
401.53606099999996
 20
153.80642800000001
 11
376.525441
 21
153.80642800000001
  0
LINE
  8
_0-4_A2
  6
PHANTOM
 62
    7
 10
400.35873800000001
 20
153.70642799999998
 11
400.35873800000001
 21
152.406428
  0
LINE
  8
_0-4_A2
  6
PHANTOM
 62
    7
 10
401.63606100000004
 20
153.70642799999998
 11
401.63606100000004
 21
152.406428
  0
LINE
  8
_0-4_A2
  6
PHANTOM
 62
    7
 10
398.77841
 20
145.80642800000001
 11
377.92916299999995
 21
145.80642800000001
  0
LINE
  8
_0-4_A2
  6
PHANTOM
 62
    7
 10
399.96041299999995
 20
153.80642800000001
 11
399.96041299999995
 21
152.406428
  0
LINE
  8
_0-4_A2
  6
PHANTOM
 62
    7
 10
398.73596000000003
 20
152.30642800000001
 11
398.73596000000003
 21
151.20642799999998
  0
LINE
  8
_0-4_A2
  6
PHANTOM
 62
    7
 10
400.15523199999995
 20
153.80642800000001
 11
400.15523199999995
 21
152.406428
  0
LINE
  8
_0-4_A2
  6
PHANTOM
 62
    7
 10
400.23385999999993
 20
153.554247
 11
400.21337100000005
 21
151.20642799999998
  0
LINE
  8
_0-4_A2
  6
PHANTOM
 62
    7
 10
399.34828100000004
 20
152.895564
 11
399.34828100000004
 21
152.406428
  0
LINE
  8
_0-4_A2
  6
PHANTOM
 62
    7
 10
399.24828100000001
 20
152.30642800000001
 11
398.73596000000003
 21
152.30642800000001
  0
LINE
  8
_0-4_A2
  6
PHANTOM
 62
    7
 10
399.36041299999999
 20
151.80642800000001
 11
399.33596
 21
151.80642800000001
  0
LINE
  8
_0-4_A2
  6
PHANTOM
 62
    7
 10
399.62978199999997
 20
153.742163
 11
399.387898
 21
153.10997300000002
  0
LINE
  8
_0-4_A2
  6
PHANTOM
 62
    7
 10
400.21337100000005
 20
151.20642799999998
 11
400.178357
 21
147.19421099999999
  0
LINE
  8
_0-4_A2
  6
PHANTOM
 62
    7
 10
401.63606100000004
 20
152.406428
 11
400.15523199999995
 21
152.406428
  0
LINE
  8
_0-4_A2
  6
PHANTOM
 62
    7
 10
400.21328299999998
 20
151.20642799999998
 11
398.73596000000003
 21
151.20642799999998
  0
ARC
  8
_0-4_A2
  6
DASHED
 62
    3
 10
391.43605500000001
 20
284.58297399999992
 40
0.2
 50
180
 51
262.87498399999998
  0
ARC
  8
_0-4_A2
  6
DASHED
 62
    3
 10
390.83606099999997
 20
280.21679599999998
 40
0.5999999999999999
 50
91
 51
180
  0
ARC
  8
_0-4_A2
  6
DASHED
 62
    3
 10
390.83606099999997
 20
294.39603299999998
 40
0.5999999999999999
 50
180
 51
269
  0
LINE
  8
_0-4_A2
  6
DASHED
 62
    3
 10
397.66573800000003
 20
293.67672900000002
 11
399.23605700000001
 21
292.10641099999998
  0
LINE
  8
_0-4_A2
  6
DASHED
 62
    3
 10
399.236061
 20
292.10641399999997
 11
399.236061
 21
291.20642600000002
  0
LINE
  8
_0-4_A2
  6
DASHED
 62
    3
 10
397.66574300000002
 20
280.93610000000001
 11
399.23606
 21
282.50641699999994
  0
LINE
  8
_0-4_A2
  6
DASHED
 62
    3
 10
399.236061
 20
282.50641499999994
 11
399.236061
 21
283.40641599999997
  0
LINE
  8
_0-4_A2
  6
DASHED
 62
    3
 10
399.23601900000005
 20
291.20642099999997
 11
392.24176899999997
 21
290.33213999999998
  0
LINE
  8
_0-4_A2
  6
DASHED
 62
    3
 10
391.411248
 20
284.38451799999995
 11
399.23604499999999
 21
283.40641799999997
  0
LINE
  8
_0-4_A2
  6
DASHED
 62
    3
 10
390.82558899999997
 20
293.79612399999996
 11
397.66573800000003
 21
293.67672900000002
  0
LINE
  8
_0-4_A2
  6
DASHED
 62
    3
 10
390.82558899999997
 20
280.81670500000001
 11
397.66574300000002
 21
280.93610000000001
  0
LINE
  8
_0-4_A2
  6
DASHED
 62
    3
 10
391.23605499999996
 20
289.32642499999997
 11
392.24176899999997
 21
290.33213999999998
  0
TEXT
  8
_0-4_A2
 62
    7
 10
173.24898575
 20
310.51674600000001
 40
4.5
 41
0.733333
 50
0
  1
１
  0
CIRCLE
  8
_0-4_A2
  6
CONTINUOUS
 62
    7
 10
174.89898499999998
 20
312.76674600000001
 40
3
  0
TEXT
  8
_0-4_A2
 62
    7
 10
100.14167675000001
 20
244.88025699999997
 40
4.5
 41
0.733333
 50
0
  1
３
  0
CIRCLE
  8
_0-4_A2
  6
CONTINUOUS
 62
    7
 10
101.791676
 20
247.13025699999997
 40
3
  0
TEXT
  8
_0-4_A2
 62
    7
 10
101.31939975
 20
308.45377100000001
 40
4.5
 41
0.733333
 50
0
  1
２
  0
CIRCLE
  8
_0-4_A2
  6
CONTINUOUS
 62
    7
 10
102.96939900000003
 20
310.70377100000001
 40
3
  0
TEXT
  8
_0-4_A2
 62
    7
 10
275.77437974999998
 20
235.60379799999998
 40
4.5
 41
0.733333
 50
0
  1
４
  0
CIRCLE
  8
_0-4_A2
  6
CONTINUOUS
 62
    7
 10
277.42437899999998
 20
237.85379799999998
 40
3
  0
TEXT
  8
_0-4_A2
 62
    7
 10
364.66215975
 20
306.50722499999994
 40
4.5
 41
0.733333
 50
0
  1
５
  0
CIRCLE
  8
_0-4_A2
  6
CONTINUOUS
 62
    7
 10
366.31215899999995
 20
308.75722499999994
 40
3
  0
LINE
  8
_0-4_A2
  6
CONTINUOUS
 62
    7
 10
264.85009500000001
 20
362.76257399999997
 11
223.25009499999998
 21
362.76257399999997
  0
LINE
  8
_0-4_A2
  6
CONTINUOUS
 62
    7
 10
264.85009500000001
 20
380.17483499999997
 11
264.85009500000001
 21
361.619574
  0
LINE
  8
_0-4_A2
  6
CONTINUOUS
 62
    7
 10
223.25009499999998
 20
380.17483499999997
 11
223.25009499999998
 21
361.619574
  0
INSERT
  2
-000-_DOTSMALL
  8
_0-4_A2
 10
264.85009500000001
 20
362.76257399999997
 41
1.2373333333333333
 42
1.2373333333333333
 50
0
  0
INSERT
  2
-000-_DOTSMALL
  8
_0-4_A2
 10
223.25009499999998
 20
362.76257399999997
 41
1.2373333333333333
 42
1.2373333333333333
 50
180
  0
LINE
  8
_0-4_A2
  6
CONTINUOUS
 62
    7
 10
210.11169999999998
 20
380.34483499999998
 11
210.11169999999998
 21
403.30367199999994
  0
LINE
  8
_0-4_A2
  6
CONTINUOUS
 62
    7
 10
210.11169999999998
 20
365.11678299999994
 11
210.11169999999998
 21
380.34483499999998
  0
LINE
  8
_0-4_A2
  6
CONTINUOUS
 62
    7
 10
223.08009499999997
 20
380.34483499999998
 11
208.96870000000004
 21
380.34483499999998
  0
LINE
  8
_0-4_A2
  6
CONTINUOUS
 62
    7
 10
229.48010000000002
 20
403.30367199999994
 11
208.96870000000004
 21
403.30367199999994
  0
INSERT
  2
-000-_DOTSMALL
  8
_0-4_A2
 10
210.11169999999998
 20
380.34483499999998
 41
1.2373333333333333
 42
1.2373333333333333
 50
270
  0
INSERT
  2
-000-_DOTSMALL
  8
_0-4_A2
 10
210.11169999999998
 20
403.30367199999994
 41
1.2373333333333333
 42
1.2373333333333333
 50
90
  0
LINE
  8
_0-4_A2
  6
CONTINUOUS
 62
    7
 10
282.78610700000001
 20
394.56619599999999
 11
282.78610700000001
 21
380.34483499999998
  0
LINE
  8
_0-4_A2
  6
CONTINUOUS
 62
    7
 10
266.12009399999999
 20
394.56619599999999
 11
283.92910699999998
 21
394.56619599999999
  0
LINE
  8
_0-4_A2
  6
CONTINUOUS
 62
    7
 10
265.02009399999997
 20
380.34483499999998
 11
283.92910699999998
 21
380.34483499999998
  0
INSERT
  2
-000-_DOTSMALL
  8
_0-4_A2
 10
282.78610700000001
 20
394.56619599999999
 41
1.2373333333333333
 42
1.2373333333333333
 50
90
  0
INSERT
  2
-000-_DOTSMALL
  8
_0-4_A2
 10
282.78610700000001
 20
380.34483499999998
 41
1.2373333333333333
 42
1.2373333333333333
 50
270
  0
LINE
  8
_0-4_A2
  6
CONTINUOUS
 62
    7
 10
363.36773199999998
 20
227.30642800000001
 11
363.36773199999998
 21
234.80642800000001
  0
LINE
  8
_0-4_A2
  6
CONTINUOUS
 62
    7
 10
363.36773199999998
 20
234.80642800000001
 11
363.36773199999998
 21
254.88958100000002
  0
LINE
  8
_0-4_A2
  6
CONTINUOUS
 62
    7
 10
375.07306499999998
 20
227.30642800000001
 11
362.22473199999996
 21
227.30642800000001
  0
LINE
  8
_0-4_A2
  6
CONTINUOUS
 62
    7
 10
375.25544099999996
 20
234.80642800000001
 11
362.22473199999996
 21
234.80642800000001
  0
LINE
  8
_0-4_A2
  6
CONTINUOUS
 62
    7
 10
363.36773199999998
 20
227.30642800000001
 11
363.36773199999998
 21
224.76642799999996
  0
LINE
  8
_0-4_A2
  6
CONTINUOUS
 62
    7
 10
363.36773199999998
 20
234.80642800000001
 11
363.36773199999998
 21
237.346428
  0
INSERT
  2
-000-_DOTSMALL
  8
_0-4_A2
 10
363.36773199999998
 20
227.30642800000001
 41
1.2373333333333333
 42
1.2373333333333333
 50
90
  0
INSERT
  2
-000-_DOTSMALL
  8
_0-4_A2
 10
363.36773199999998
 20
234.80642800000001
 41
1.2373333333333333
 42
1.2373333333333333
 50
270
  0
LINE
  8
_0-4_A2
  6
DASHED
 62
    7
 10
390.23605500000002
 20
285.30641500000001
 11
390.83605499999998
 21
285.30641500000001
  0
LINE
  8
_0-4_A2
  6
DASHED
 62
    7
 10
390.23605500000002
 20
282.30641500000001
 11
391.11889799999994
 21
282.30641500000001
  0
LINE
  8
_0-4_A2
  6
CONTINUOUS
 62
    7
 10
390.23605500000002
 20
282.40641499999998
 11
388.35321200000004
 21
282.40641499999998
  0
LINE
  8
_0-4_A2
  6
DASHED
 62
    7
 10
390.23605500000002
 20
289.30641500000001
 11
390.83605499999998
 21
289.30641500000001
  0
LINE
  8
_0-4_A2
  6
CONTINUOUS
 62
    7
 10
390.23605500000002
 20
290.30641500000001
 11
384.196055
 21
290.30641500000001
  0
LINE
  8
_0-4_A2
  6
CONTINUOUS
 62
    7
 10
390.23605500000002
 20
290.506415
 11
384.196055
 21
290.506415
  0
LINE
  8
_0-4_A2
  6
CONTINUOUS
 62
    7
 10
390.23605500000002
 20
292.30641500000001
 11
388.35321200000004
 21
292.30641500000001
  0
LINE
  8
_0-4_A2
  6
DASHED
 62
    7
 10
390.23605500000002
 20
292.20641499999999
 11
391.11889799999994
 21
292.20641499999999
  0
ARC
  8
_0-4_A2
  6
CONTINUOUS
 62
    7
 10
380.59256599999997
 20
287.76621199999999
 40
0.0771919999999999
 50
97.327309999999982
 51
172.38683199999999
  0
LINE
  8
_0-4_A2
  6
CONTINUOUS
 62
    7
 10
380.60733900000002
 20
288.10404399999998
 11
380.60733900000002
 21
288.11440099999992
  0
LINE
  8
_0-4_A2
  6
CONTINUOUS
 62
    7
 10
380.60749599999996
 20
288.10450600000001
 11
380.60733900000002
 21
288.10404399999998
  0
LINE
  8
_0-4_A2
  6
CONTINUOUS
 62
    7
 10
380.51605499999999
 20
288.01478200000002
 11
380.51605499999999
 21
288.00570099999998
  0
ARC
  8
_0-4_A2
  6
CONTINUOUS
 62
    7
 10
380.57959299999993
 20
287.98273899999998
 40
0.14
 50
271.28059400000006
 51
342.16375799999997
  0
ARC
  8
_0-4_A2
  6
CONTINUOUS
 62
    7
 10
380.61605499999996
 20
288.01478200000002
 40
0.1
 50
95
 51
180
  0
ARC
  8
_0-4_A2
  6
CONTINUOUS
 62
    7
 10
380.61605499999996
 20
288.00742300000001
 40
0.1
 50
96.653947999999999
 51
180.00052700000003
  0
ARC
  8
_0-4_A2
  6
CONTINUOUS
 62
    7
 10
380.61605499999996
 20
286.60540700000001
 40
0.1
 50
179.99947299999999
 51
263.34605200000004
  0
ARC
  8
_0-4_A2
  6
CONTINUOUS
 62
    7
 10
380.61605499999996
 20
286.59804799999994
 40
0.1
 50
180
 51
265
  0
ARC
  8
_0-4_A2
  6
CONTINUOUS
 62
    7
 10
380.57959299999993
 20
286.63009099999999
 40
0.14
 50
17.836241999999998
 51
88.719406000000006
  0
LINE
  8
_0-4_A2
  6
CONTINUOUS
 62
    7
 10
380.51605499999999
 20
286.59804799999994
 11
380.51605499999999
 21
286.60712799999998
  0
LINE
  8
_0-4_A2
  6
CONTINUOUS
 62
    7
 10
380.60749599999996
 20
286.50832400000001
 11
380.60733900000002
 21
286.50878599999998
  0
LINE
  8
_0-4_A2
  6
CONTINUOUS
 62
    7
 10
380.60733900000002
 20
286.50878599999998
 11
380.60733900000002
 21
286.49842799999998
  0
ARC
  8
_0-4_A2
  6
CONTINUOUS
 62
    7
 10
380.59256599999997
 20
286.84661699999992
 40
0.0771919999999999
 50
187.613168
 51
262.67268999999998
  0
LINE
  8
_0-4_A2
  6
PHANTOM
 62
    7
 10
383.696055
 20
285.70641499999999
 11
383.696055
 21
285.10641499999996
  0
LINE
  8
_0-4_A2
  6
PHANTOM
 62
    7
 10
383.696055
 20
285.70641499999999
 11
382.49605499999995
 21
285.70641499999999
  0
LINE
  8
_0-4_A2
  6
PHANTOM
 62
    7
 10
382.49605499999995
 20
285.10641499999996
 11
383.696055
 21
285.10641499999996
  0
LINE
  8
_0-4_A2
  6
PHANTOM
 62
    7
 10
382.37605400000001
 20
285.50641499999994
 11
382.079878
 21
285.50641499999994
  0
LINE
  8
_0-4_A2
  6
PHANTOM
 62
    7
 10
382.37605400000001
 20
285.60641500000002
 11
382.079878
 21
285.60641500000002
  0
LINE
  8
_0-4_A2
  6
PHANTOM
 62
    7
 10
382.37605400000001
 20
285.30641500000001
 11
382.079878
 21
285.30641500000001
  0
LINE
  8
_0-4_A2
  6
PHANTOM
 62
    7
 10
382.37605400000001
 20
285.20641499999999
 11
382.079878
 21
285.20641499999999
  0
LINE
  8
_0-4_A2
  6
PHANTOM
 62
    7
 10
382.45605499999999
 20
285.92641500000001
 11
382.27451299999995
 21
285.92641500000001
  0
LINE
  8
_0-4_A2
  6
PHANTOM
 62
    7
 10
382.09179700000004
 20
285.756415
 11
382.37605400000001
 21
285.756415
  0
LINE
  8
_0-4_A2
  6
PHANTOM
 62
    7
 10
382.37605400000001
 20
285.756415
 11
382.37605400000001
 21
285.05641500000001
  0
LINE
  8
_0-4_A2
  6
PHANTOM
 62
    7
 10
382.37605400000001
 20
285.05641500000001
 11
382.09179700000004
 21
285.05641500000001
  0
LINE
  8
_0-4_A2
  6
PHANTOM
 62
    7
 10
382.27451299999995
 20
284.88641499999999
 11
382.45605499999999
 21
284.88641499999999
  0
ARC
  8
_0-4_A2
  6
PHANTOM
 62
    7
 10
382.45605499999999
 20
285.88641499999994
 40
0.0399999999999999
 50
0
 51
90
  0
ARC
  8
_0-4_A2
  6
PHANTOM
 62
    7
 10
382.28962000000001
 20
285.72698600000001
 40
0.2
 50
94.332055999999994
 51
171.53860300000002
  0
ARC
  8
_0-4_A2
  6
PHANTOM
 62
    7
 10
382.28962000000001
 20
285.08584300000001
 40
0.2
 50
188.46139699999997
 51
265.66794399999992
  0
ARC
  8
_0-4_A2
  6
PHANTOM
 62
    7
 10
382.45605499999999
 20
284.92641500000001
 40
0.0399999999999999
 50
270
 51
0
  0
LINE
  8
_0-4_A2
  6
DASHED
 62
    7
 10
382.89605499999993
 20
283.756414
 11
382.79605499999996
 21
283.756414
  0
LINE
  8
_0-4_A2
  6
DASHED
 62
    7
 10
382.89605499999993
 20
290.15641499999998
 11
382.79605499999996
 21
290.15641499999998
  0
LINE
  8
_0-4_A2
  6
CONTINUOUS
 62
    7
 10
382.79605499999996
 20
287.70641499999999
 11
382.696055
 21
287.70641499999999
  0
LINE
  8
_0-4_A2
  6
DASHED
 62
    7
 10
382.89605499999993
 20
290.30641500000001
 11
383.66926
 21
290.30641500000001
  0
LINE
  8
_0-4_A2
  6
DASHED
 62
    7
 10
382.89605499999993
 20
290.20641499999999
 11
383.49605399999995
 21
290.20641499999999
  0
ARC
  8
_0-4_A2
  6
DASHED
 62
    7
 10
383.49605399999995
 20
290.40641499999992
 40
0.2
 50
270
 51
0
  0
LINE
  8
_0-4_A2
  6
DASHED
 62
    7
 10
383.696054
 20
290.40641499999992
 11
383.696054
 21
290.60641500000002
  0
LINE
  8
_0-4_A2
  6
DASHED
 62
    7
 10
382.89605499999993
 20
290.70641499999999
 11
383.66926
 21
290.70641499999999
  0
LINE
  8
_0-4_A2
  6
DASHED
 62
    7
 10
382.89605499999993
 20
290.80641500000001
 11
383.49605399999995
 21
290.80641500000001
  0
LINE
  8
_0-4_A2
  6
DASHED
 62
    7
 10
382.89605499999993
 20
290.85641500000002
 11
382.79605499999996
 21
290.85641500000002
  0
ARC
  8
_0-4_A2
  6
DASHED
 62
    7
 10
383.49605399999995
 20
290.60641500000002
 40
0.2
 50
0
 51
90
  0
LINE
  8
_0-4_A2
  6
DASHED
 62
    7
 10
382.89605499999993
 20
290.15641499999998
 11
382.89605499999993
 21
290.85641500000002
  0
LINE
  8
_0-4_A2
  6
DASHED
 62
    7
 10
383.49605399999995
 20
290.20641499999999
 11
383.49605399999995
 21
290.80641500000001
  0
LINE
  8
_0-4_A2
  6
DASHED
 62
    7
 10
382.79605499999996
 20
287.30641500000001
 11
382.79605499999996
 21
291.70641499999999
  0
LINE
  8
_0-4_A2
  6
CONTINUOUS
 62
    7
 10
382.696055
 20
291.70641499999999
 11
384.09605499999997
 21
291.70641499999999
  0
LINE
  8
_0-4_A2
  6
CONTINUOUS
 62
    7
 10
382.696055
 20
282.90641499999992
 11
384.09605499999997
 21
282.90641499999992
  0
ARC
  8
_0-4_A2
  6
DASHED
 62
    7
 10
383.49605399999995
 20
284.00641399999994
 40
0.2
 50
270
 51
0
  0
LINE
  8
_0-4_A2
  6
DASHED
 62
    7
 10
382.89605499999993
 20
283.80641400000001
 11
383.49605399999995
 21
283.80641400000001
  0
LINE
  8
_0-4_A2
  6
DASHED
 62
    7
 10
382.89605499999993
 20
283.90641399999998
 11
383.66926
 21
283.90641399999998
  0
LINE
  8
_0-4_A2
  6
DASHED
 62
    7
 10
382.89605499999993
 20
284.45641499999999
 11
382.89605499999993
 21
283.756414
  0
LINE
  8
_0-4_A2
  6
CONTINUOUS
 62
    7
 10
385.196055
 20
287.04641500000002
 11
384.29605399999996
 21
287.04641500000002
  0
LINE
  8
_0-4_A2
  6
CONTINUOUS
 62
    7
 10
385.196055
 20
287.566415
 11
384.29605399999996
 21
287.566415
  0
LINE
  8
_0-4_A2
  6
CONTINUOUS
 62
    7
 10
385.196055
 20
286.90641499999998
 11
384.29605399999996
 21
286.90641499999998
  0
LINE
  8
_0-4_A2
  6
CONTINUOUS
 62
    7
 10
385.196055
 20
287.70641499999999
 11
384.29605399999996
 21
287.70641499999999
  0
LINE
  8
_0-4_A2
  6
CONTINUOUS
 62
    7
 10
385.196055
 20
286.90641499999998
 11
385.196055
 21
287.70641499999999
  0
LINE
  8
_0-4_A2
  6
CONTINUOUS
 62
    7
 10
383.59605499999997
 20
287.18641500000001
 11
383.59605499999997
 21
286.506415
  0
ARC
  8
_0-4_A2
  6
CONTINUOUS
 62
    7
 10
386.74605500000006
 20
287.30641500000001
 40
3.25
 50
182.11601699999999
 51
194.250033
  0
LINE
  8
_0-4_A2
  6
CONTINUOUS
 62
    7
 10
383.67605499999996
 20
287.18641500000001
 11
383.49827099999993
 21
287.18641500000001
  0
LINE
  8
_0-4_A2
  6
CONTINUOUS
 62
    7
 10
383.67605499999996
 20
287.42641500000001
 11
383.49827099999993
 21
287.42641500000001
  0
LINE
  8
_0-4_A2
  6
CONTINUOUS
 62
    7
 10
383.67605499999996
 20
287.18641500000001
 11
383.67605499999996
 21
287.42641500000001
  0
ARC
  8
_0-4_A2
  6
CONTINUOUS
 62
    7
 10
386.74605500000006
 20
287.30641500000001
 40
3.25
 50
165.74996699999999
 51
177.883983
  0
LINE
  8
_0-4_A2
  6
CONTINUOUS
 62
    7
 10
383.59605499999997
 20
286.506415
 11
383.99605499999995
 21
286.43641500000001
  0
LINE
  8
_0-4_A2
  6
CONTINUOUS
 62
    7
 10
383.59605499999997
 20
288.10641499999996
 11
383.99605499999995
 21
288.17641500000001
  0
LINE
  8
_0-4_A2
  6
CONTINUOUS
 62
    7
 10
383.59605499999997
 20
287.42641500000001
 11
383.59605499999997
 21
288.10641499999996
  0
LINE
  8
_0-4_A2
  6
CONTINUOUS
 62
    7
 10
383.99605499999995
 20
286.43641500000001
 11
383.99605499999995
 21
288.17641500000001
  0
LINE
  8
_0-4_A2
  6
CENTER
 62
    7
 10
392.57517200000006
 20
287.30641500000001
 11
379.55107699999996
 21
287.30641500000001
  0
LINE
  8
_0-4_A2
  6
CONTINUOUS
 62
    7
 10
384.178898
 20
292.30641500000001
 11
384.29605499999996
 21
292.30641500000001
  0
LINE
  8
_0-4_A2
  6
CONTINUOUS
 62
    7
 10
383.83747599999998
 20
291.90641499999992
 11
383.76676599999996
 21
291.977125
  0
ARC
  8
_0-4_A2
  6
CONTINUOUS
 62
    7
 10
384.178898
 20
292.10641500000002
 40
0.2
 50
90
 51
135
  0
LINE
  8
_0-4_A2
  6
CONTINUOUS
 62
    7
 10
384.03747600000002
 20
292.247836
 11
383.76676599999996
 21
291.977125
  0
LINE
  8
_0-4_A2
  6
CONTINUOUS
 62
    7
 10
384.10943199999996
 20
292.17836999999997
 11
383.83747599999998
 21
291.90641499999992
  0
LINE
  8
_0-4_A2
  6
DASHED
 62
    7
 10
382.79605499999996
 20
287.30641500000001
 11
382.79605499999996
 21
282.90641499999992
  0
LINE
  8
_0-4_A2
  6
DASHED
 62
    7
 10
384.09605499999997
 20
283.70641499999999
 11
382.81107699999995
 21
283.70641499999999
  0
LINE
  8
_0-4_A2
  6
DASHED
 62
    7
 10
390.99605500000001
 20
290.00641499999994
 11
390.69605799999999
 21
290.00641499999994
  0
LINE
  8
_0-4_A2
  6
CONTINUOUS
 62
    7
 10
388.39605499999998
 20
290.506415
 11
388.39605499999998
 21
290.80641500000001
  0
LINE
  8
_0-4_A2
  6
CONTINUOUS
 62
    7
 10
387.79605500000002
 20
290.506415
 11
387.79605500000002
 21
290.80641500000001
  0
LINE
  8
_0-4_A2
  6
CONTINUOUS
 62
    7
 10
387.79605500000002
 20
290.80641500000001
 11
388.39605499999998
 21
290.80641500000001
  0
LINE
  8
_0-4_A2
  6
DASHED
 62
    7
 10
390.49605500000006
 20
290.506415
 11
390.49605500000006
 21
290.30641500000001
  0
LINE
  8
_0-4_A2
  6
DASHED
 62
    7
 10
390.99605500000001
 20
290.30641500000001
 11
390.23605500000002
 21
290.30641500000001
  0
LINE
  8
_0-4_A2
  6
DASHED
 62
    7
 10
390.49605500000006
 20
290.506415
 11
390.23605500000002
 21
290.506415
  0
LINE
  8
_0-4_A2
  6
CENTER
 62
    7
 10
388.09605499999997
 20
290.933334
 11
388.09605499999997
 21
289.30641500000001
  0
LINE
  8
_0-4_A2
  6
DASHED
 62
    7
 10
390.69605799999999
 20
290.30641500000001
 11
390.69605799999999
 21
289.30641500000001
  0
LINE
  8
_0-4_A2
  6
CONTINUOUS
 62
    7
 10
385.696055
 20
290.30641500000001
 11
385.696055
 21
289.30641500000001
  0
LINE
  8
_0-4_A2
  6
DASHED
 62
    7
 10
390.99605500000001
 20
290.30641500000001
 11
390.99605500000001
 21
290.00641499999994
  0
LINE
  8
_0-4_A2
  6
CONTINUOUS
 62
    7
 10
384.09605499999997
 20
290.506415
 11
383.696054
 21
290.506415
  0
LINE
  8
_0-4_A2
  6
CONTINUOUS
 62
    7
 10
384.09605499999997
 20
290.30641500000001
 11
383.66926
 21
290.30641500000001
  0
LINE
  8
_0-4_A2
  6
DASHED
 62
    7
 10
383.79605500000002
 20
290.80641500000001
 11
383.89605499999998
 21
290.80641500000001
  0
LINE
  8
_0-4_A2
  6
DASHED
 62
    7
 10
383.89605499999998
 20
291.40641499999998
 11
383.89605499999998
 21
290.80641500000001
  0
LINE
  8
_0-4_A2
  6
DASHED
 62
    7
 10
382.89605499999993
 20
290.80641500000001
 11
383.79605500000002
 21
290.80641500000001
  0
LINE
  8
_0-4_A2
  6
CENTER
 62
    7
 10
383.99605499999995
 20
291.10641499999996
 11
382.79605499999996
 21
291.10641499999996
  0
LINE
  8
_0-4_A2
  6
DASHED
 62
    7
 10
382.79605499999996
 20
291.40641499999998
 11
383.89605499999998
 21
291.40641499999998
  0
LINE
  8
_0-4_A2
  6
DASHED
 62
    7
 10
383.696054
 20
284.20641499999999
 11
383.696054
 21
284.00641499999994
  0
ARC
  8
_0-4_A2
  6
DASHED
 62
    7
 10
383.49605399999995
 20
284.20641499999999
 40
0.2
 50
0
 51
90
  0
LINE
  8
_0-4_A2
  6
DASHED
 62
    7
 10
382.89605499999993
 20
284.40641499999992
 11
383.49605399999995
 21
284.40641499999992
  0
LINE
  8
_0-4_A2
  6
DASHED
 62
    7
 10
382.89605499999993
 20
284.30641500000001
 11
383.66926
 21
284.30641500000001
  0
LINE
  8
_0-4_A2
  6
DASHED
 62
    7
 10
383.49605399999995
 20
284.40641499999992
 11
383.49605399999995
 21
283.80641500000001
  0
LINE
  8
_0-4_A2
  6
DASHED
 62
    7
 10
382.79605499999996
 20
288.90641499999992
 11
383.99605499999995
 21
288.87499100000002
  0
LINE
  8
_0-4_A2
  6
DASHED
 62
    7
 10
383.99605499999995
 20
288.77502600000002
 11
382.79605499999996
 21
288.80644899999992
  0
LINE
  8
_0-4_A2
  6
DASHED
 62
    7
 10
382.79605499999996
 20
288.003173
 11
383.57014599999996
 21
287.996418
  0
LINE
  8
_0-4_A2
  6
DASHED
 62
    7
 10
383.53627199999999
 20
287.81611599999996
 11
382.79605499999996
 21
287.80965600000001
  0
LINE
  8
_0-4_A2
  6
DASHED
 62
    7
 10
382.79605499999996
 20
287.00317299999994
 11
383.51082299999995
 21
286.996936
  0
LINE
  8
_0-4_A2
  6
DASHED
 62
    7
 10
383.58914999999996
 20
286.53410999999999
 11
382.79605499999996
 21
286.506415
  0
LINE
  8
_0-4_A2
  6
DASHED
 62
    7
 10
383.53325499999994
 20
286.81608899999991
 11
382.79605499999996
 21
286.80965600000001
  0
ARC
  8
_0-4_A2
  6
CONTINUOUS
 62
    7
 10
388.39605499999998
 20
283.15309000000002
 40
0.1
 50
271.5
 51
0
  0
LINE
  8
_0-4_A2
  6
CONTINUOUS
 62
    7
 10
388.39867200000003
 20
283.05312400000002
 11
388.19343699999996
 21
283.04775
  0
ARC
  8
_0-4_A2
  6
CONTINUOUS
 62
    7
 10
388.196055
 20
282.94778400000001
 40
0.1
 50
91.5
 51
180
  0
LINE
  8
_0-4_A2
  6
CONTINUOUS
 62
    7
 10
387.99867299999993
 20
283.70641499999999
 11
388.09605499999997
 21
283.70641499999999
  0
LINE
  8
_0-4_A2
  6
CONTINUOUS
 62
    7
 10
388.09605499999997
 20
283.70641499999999
 11
388.09605499999997
 21
283.37014499999997
  0
LINE
  8
_0-4_A2
  6
CONTINUOUS
 62
    7
 10
388.09605499999997
 20
283.17021299999998
 11
388.09605499999997
 21
283.37014499999997
  0
LINE
  8
_0-4_A2
  6
CONTINUOUS
 62
    7
 10
388.09605499999997
 20
282.62865399999998
 11
388.094197
 21
282.62875100000002
  0
LINE
  8
_0-4_A2
  6
CONTINUOUS
 62
    7
 10
388.094197
 20
282.62875100000002
 11
388.08869100000003
 21
282.62903899999997
  0
LINE
  8
_0-4_A2
  6
CONTINUOUS
 62
    7
 10
388.08869100000003
 20
282.62903899999997
 11
388.079743
 21
282.62950799999998
  0
LINE
  8
_0-4_A2
  6
CONTINUOUS
 62
    7
 10
388.079743
 20
282.62950799999998
 11
388.06768499999998
 21
282.63013999999998
  0
LINE
  8
_0-4_A2
  6
CONTINUOUS
 62
    7
 10
388.06768499999998
 20
282.63013999999998
 11
388.05296499999997
 21
282.63091200000002
  0
LINE
  8
_0-4_A2
  6
CONTINUOUS
 62
    7
 10
388.05296499999997
 20
282.63091200000002
 11
388.03613000000007
 21
282.63179400000001
  0
LINE
  8
_0-4_A2
  6
CONTINUOUS
 62
    7
 10
388.03613000000007
 20
282.63179400000001
 11
388.017805
 21
282.63275399999997
  0
LINE
  8
_0-4_A2
  6
CONTINUOUS
 62
    7
 10
388.017805
 20
282.63275399999997
 11
387.99867299999993
 21
282.633757
  0
LINE
  8
_0-4_A2
  6
CONTINUOUS
 62
    7
 10
388.09605499999997
 20
283.17021299999998
 11
388.09605499999997
 21
282.62865399999998
  0
LINE
  8
_0-4_A2
  6
CONTINUOUS
 62
    7
 10
387.99867299999993
 20
282.633757
 11
384.196055
 21
282.83304399999997
  0
LINE
  8
_0-4_A2
  6
CONTINUOUS
 62
    7
 10
388.09605499999997
 20
285.30641500000001
 11
388.09605499999997
 21
283.70641499999999
  0
LINE
  8
_0-4_A2
  6
CONTINUOUS
 62
    7
 10
388.49605499999995
 20
285.30641500000001
 11
388.49605499999995
 21
283.15309000000002
  0
LINE
  8
_0-4_A2
  6
CONTINUOUS
 62
    7
 10
384.196055
 20
283.70641499999999
 11
387.99867299999993
 21
283.70641499999999
  0
LINE
  8
_0-4_A2
  6
DASHED
 62
    7
 10
384.09605499999997
 20
282.83828499999998
 11
382.79605499999996
 21
282.90641499999992
  0
LINE
  8
_0-4_A2
  6
CONTINUOUS
 62
    7
 10
382.79605499999996
 20
286.90641499999998
 11
382.696055
 21
286.90641499999998
  0
ARC
  8
_0-4_A2
  6
CONTINUOUS
 62
    7
 10
382.65605500000003
 20
291.58641499999998
 40
0.0399999999999999
 50
0
 51
90
  0
ARC
  8
_0-4_A2
  6
CONTINUOUS
 62
    7
 10
382.65605500000003
 20
290.626415
 40
0.0399999999999999
 50
270
 51
0
  0
ARC
  8
_0-4_A2
  6
CONTINUOUS
 62
    7
 10
382.65605500000003
 20
284.18639699999999
 40
0.0399999999999999
 50
0
 51
90
  0
ARC
  8
_0-4_A2
  6
CONTINUOUS
 62
    7
 10
382.65605500000003
 20
283.22639700000001
 40
0.0399999999999999
 50
270
 51
0
  0
LINE
  8
_0-4_A2
  6
CONTINUOUS
 62
    7
 10
382.65605500000003
 20
282.446415
 11
382.65605500000003
 21
292.16641499999997
  0
LINE
  8
_0-4_A2
  6
DASHED
 62
    7
 10
382.291178
 20
283.48426899999998
 11
382.27987799999999
 21
283.48426899999998
  0
LINE
  8
_0-4_A2
  6
DASHED
 62
    7
 10
382.29112799999995
 20
283.36131799999998
 11
382.29112799999995
 21
283.37520899999998
  0
LINE
  8
_0-4_A2
  6
DASHED
 62
    7
 10
382.29112799999995
 20
283.97075499999994
 11
382.29112799999995
 21
284.05147699999997
  0
LINE
  8
_0-4_A2
  6
DASHED
 62
    7
 10
382.29112799999995
 20
283.97075499999994
 11
382.29439400000001
 21
283.98154499999998
  0
LINE
  8
_0-4_A2
  6
DASHED
 62
    7
 10
382.29439400000001
 20
283.81411100000002
 11
382.29112799999995
 21
283.80332099999998
  0
LINE
  8
_0-4_A2
  6
DASHED
 62
    7
 10
382.29112799999995
 20
283.484598
 11
382.29112799999995
 21
283.80332099999998
  0
ARC
  8
_0-4_A2
  6
DASHED
 62
    7
 10
384.27605499999998
 20
283.60639700000001
 40
2
 50
183.66698599999998
 51
187.03869700000001
  0
ARC
  8
_0-4_A2
  6
DASHED
 62
    7
 10
384.27605499999998
 20
283.806397
 40
2
 50
172.96130299999998
 51
177.19381899999999
  0
ARC
  8
_0-4_A2
  6
DASHED
 62
    7
 10
382.48962
 20
284.026969
 40
0.2
 50
94.332055999999994
 51
172.96130299999998
  0
ARC
  8
_0-4_A2
  6
DASHED
 62
    7
 10
382.48962
 20
283.38582599999995
 40
0.2
 50
187.03869700000001
 51
265.66794399999997
  0
ARC
  8
_0-4_A2
  6
DASHED
 62
    7
 10
382.48962
 20
290.78584299999999
 40
0.2
 50
187.03869700000001
 51
265.66794399999997
  0
ARC
  8
_0-4_A2
  6
DASHED
 62
    7
 10
382.48962
 20
291.42698599999994
 40
0.2
 50
94.332055999999994
 51
172.96130299999998
  0
ARC
  8
_0-4_A2
  6
DASHED
 62
    7
 10
384.27605499999998
 20
291.20641499999999
 40
2
 50
172.96130299999998
 51
177.19381899999999
  0
ARC
  8
_0-4_A2
  6
DASHED
 62
    7
 10
384.27605499999998
 20
291.006415
 40
2
 50
183.66698599999998
 51
187.03869700000001
  0
LINE
  8
_0-4_A2
  6
DASHED
 62
    7
 10
382.29112799999995
 20
290.88461599999993
 11
382.29112799999995
 21
291.20333799999997
  0
LINE
  8
_0-4_A2
  6
DASHED
 62
    7
 10
382.29439400000001
 20
291.21412800000001
 11
382.29112799999995
 21
291.20333799999997
  0
LINE
  8
_0-4_A2
  6
DASHED
 62
    7
 10
382.29112799999995
 20
291.37077199999998
 11
382.29439400000001
 21
291.38156199999997
  0
LINE
  8
_0-4_A2
  6
DASHED
 62
    7
 10
382.29112799999995
 20
291.37077199999998
 11
382.29112799999995
 21
291.45149500000002
  0
LINE
  8
_0-4_A2
  6
DASHED
 62
    7
 10
382.29112799999995
 20
290.76133499999997
 11
382.29112799999995
 21
290.77522599999997
  0
LINE
  8
_0-4_A2
  6
DASHED
 62
    7
 10
382.291178
 20
290.88428599999997
 11
382.27987799999999
 21
290.88428599999997
  0
LINE
  8
_0-4_A2
  6
CONTINUOUS
 62
    7
 10
382.29605500000002
 20
292.16641499999997
 11
382.29605500000002
 21
292.79390399999999
  0
LINE
  8
_0-4_A2
  6
CONTINUOUS
 62
    7
 10
381.59256499999997
 20
292.76933799999994
 11
382.29605500000002
 21
292.79390399999999
  0
LINE
  8
_0-4_A2
  6
CONTINUOUS
 62
    7
 10
381.59256499999997
 20
289.63948099999998
 11
381.59256499999997
 21
292.76933799999994
  0
ARC
  8
_0-4_A2
  6
CONTINUOUS
 62
    7
 10
381.39256499999999
 20
289.63948099999998
 40
0.2
 50
320.39807300000001
 51
0
  0
ARC
  8
_0-4_A2
  6
CONTINUOUS
 62
    7
 10
384.21256499999998
 20
287.30641500000001
 40
3.4599999999999999
 50
140.39807300000001
 51
219.60192699999998
  0
ARC
  8
_0-4_A2
  6
CONTINUOUS
 62
    7
 10
381.39256499999999
 20
284.97334799999998
 40
0.2
 50
0
 51
39.601927000000003
  0
LINE
  8
_0-4_A2
  6
CONTINUOUS
 62
    7
 10
381.59256499999997
 20
281.84349200000002
 11
381.59256499999997
 21
284.97334799999998
  0
LINE
  8
_0-4_A2
  6
CONTINUOUS
 62
    7
 10
382.29605500000002
 20
281.81892499999997
 11
381.59256499999997
 21
281.84349200000002
  0
LINE
  8
_0-4_A2
  6
CONTINUOUS
 62
    7
 10
382.29605500000002
 20
282.446415
 11
382.29605500000002
 21
281.81892499999997
  0
ARC
  8
_0-4_A2
  6
CONTINUOUS
 62
    7
 10
382.30951299999998
 20
281.79352199999999
 40
0.7186869999999999
 50
176.013067
 51
183.98693299999999
  0
LINE
  8
_0-4_A2
  6
CONTINUOUS
 62
    7
 10
381.59256499999997
 20
281.74355300000001
 11
382.29605500000002
 21
281.71898599999997
  0
LINE
  8
_0-4_A2
  6
CONTINUOUS
 62
    7
 10
382.29605500000002
 20
281.81892499999997
 11
382.29605500000002
 21
281.71898599999997
  0
LINE
  8
_0-4_A2
  6
CONTINUOUS
 62
    7
 10
382.29605500000002
 20
292.893843
 11
381.59256499999997
 21
292.86927700000001
  0
ARC
  8
_0-4_A2
  6
CONTINUOUS
 62
    7
 10
382.30951299999998
 20
292.81930699999998
 40
0.7186869999999999
 50
176.013067
 51
183.98693299999999
  0
LINE
  8
_0-4_A2
  6
CONTINUOUS
 62
    7
 10
382.29605500000002
 20
292.79390399999999
 11
382.29605500000002
 21
292.893843
  0
ARC
  8
_0-4_A2
  6
CONTINUOUS
 62
    7
 10
382.21991499999995
 20
284.24961200000001
 40
1.08529
 50
128.34118799999998
 51
133.48161200000004
  0
ARC
  8
_0-4_A2
  6
CONTINUOUS
 62
    7
 10
381.39605499999993
 20
284.97334799999998
 40
0.1
 50
0
 51
39.601927000000003
  0
LINE
  8
_0-4_A2
  6
CONTINUOUS
 62
    7
 10
381.59256499999997
 20
284.97334799999998
 11
381.49605500000001
 21
284.97334799999998
  0
LINE
  8
_0-4_A2
  6
CONTINUOUS
 62
    7
 10
381.59256499999997
 20
289.63948099999998
 11
381.49605500000001
 21
289.63948099999998
  0
LINE
  8
_0-4_A2
  6
CONTINUOUS
 62
    7
 10
381.49605500000001
 20
292.76933799999994
 11
381.59256499999997
 21
292.76933799999994
  0
LINE
  8
_0-4_A2
  6
CONTINUOUS
 62
    7
 10
381.49605500000001
 20
292.76933799999994
 11
381.49605500000001
 21
289.63948099999998
  0
ARC
  8
_0-4_A2
  6
CONTINUOUS
 62
    7
 10
381.59605499999997
 20
281.84349200000002
 40
0.1
 50
180
 51
268
  0
LINE
  8
_0-4_A2
  6
CONTINUOUS
 62
    7
 10
381.59256499999997
 20
281.84349200000002
 11
381.49605500000001
 21
281.84349200000002
  0
LINE
  8
_0-4_A2
  6
CONTINUOUS
 62
    7
 10
381.49605500000001
 20
284.97334799999998
 11
381.49605500000001
 21
281.84349200000002
  0
ARC
  8
_0-4_A2
  6
CONTINUOUS
 62
    7
 10
381.59605499999997
 20
292.76933799999994
 40
0.1
 50
91.999999999999985
 51
180
  0
ARC
  8
_0-4_A2
  6
CONTINUOUS
 62
    7
 10
381.39605499999993
 20
289.63948099999998
 40
0.1
 50
320.39807300000001
 51
0
  0
ARC
  8
_0-4_A2
  6
CONTINUOUS
 62
    7
 10
382.21991499999995
 20
290.36321800000001
 40
1.08529
 50
226.51838799999998
 51
231.65881200000004
  0
ARC
  8
_0-4_A2
  6
CONTINUOUS
 62
    7
 10
384.21605500000003
 20
287.30641500000001
 40
3.5599999999999996
 50
140.39807300000001
 51
219.60192699999998
  0
LINE
  8
_0-4_A2
  6
HIDDEN
 62
    7
 10
382.49605499999995
 20
288.30641500000001
 11
382.49605499999995
 21
286.30641500000001
  0
LINE
  8
_0-4_A2
  6
HIDDEN
 62
    7
 10
382.49605499999995
 20
285.30641500000001
 11
382.49605499999995
 21
284.80641500000001
  0
LINE
  8
_0-4_A2
  6
HIDDEN
 62
    7
 10
382.49605499999995
 20
289.30641500000001
 11
382.49605499999995
 21
288.30641500000001
  0
LINE
  8
_0-4_A2
  6
HIDDEN
 62
    7
 10
382.49605499999995
 20
289.80641500000001
 11
382.49605499999995
 21
289.30641500000001
  0
LINE
  8
_0-4_A2
  6
HIDDEN
 62
    7
 10
382.49605499999995
 20
286.30641500000001
 11
382.49605499999995
 21
285.30641500000001
  0
LINE
  8
_0-4_A2
  6
HIDDEN
 62
    7
 10
382.29605500000002
 20
287.60641500000002
 11
382.49605499999995
 21
287.60641500000002
  0
LINE
  8
_0-4_A2
  6
HIDDEN
 62
    7
 10
382.29605500000002
 20
287.00641499999994
 11
382.29605500000002
 21
287.60641500000002
  0
LINE
  8
_0-4_A2
  6
HIDDEN
 62
    7
 10
382.29605500000002
 20
287.00641499999994
 11
382.49605499999995
 21
287.00641499999994
  0
LINE
  8
_0-4_A2
  6
HIDDEN
 62
    7
 10
382.49605499999995
 20
287.00641499999994
 11
382.49605499999995
 21
287.60641500000002
  0
LINE
  8
_0-4_A2
  6
HIDDEN
 62
    7
 10
382.09605499999997
 20
286.15641499999998
 11
382.49605499999995
 21
286.15641499999998
  0
LINE
  8
_0-4_A2
  6
HIDDEN
 62
    7
 10
382.09605499999997
 20
286.15641499999998
 11
382.09605499999997
 21
285.756415
  0
LINE
  8
_0-4_A2
  6
PHANTOM
 62
    7
 10
382.09605499999997
 20
285.756415
 11
382.49605499999995
 21
285.756415
  0
LINE
  8
_0-4_A2
  6
HIDDEN
 62
    7
 10
382.49605499999995
 20
286.15641499999998
 11
382.49605499999995
 21
285.756415
  0
LINE
  8
_0-4_A2
  6
HIDDEN
 62
    7
 10
382.09605499999997
 20
288.45641499999999
 11
382.09605499999997
 21
288.85641499999996
  0
LINE
  8
_0-4_A2
  6
HIDDEN
 62
    7
 10
382.09605499999997
 20
288.45641499999999
 11
382.49605499999995
 21
288.45641499999999
  0
LINE
  8
_0-4_A2
  6
HIDDEN
 62
    7
 10
382.09605499999997
 20
288.85641499999996
 11
382.49605499999995
 21
288.85641499999996
  0
LINE
  8
_0-4_A2
  6
HIDDEN
 62
    7
 10
382.49605499999995
 20
288.45641499999999
 11
382.49605499999995
 21
288.85641499999996
  0
LINE
  8
_0-4_A2
  6
HIDDEN
 62
    7
 10
382.49605499999995
 20
285.40641499999998
 11
382.49605499999995
 21
284.80641500000001
  0
LINE
  8
_0-4_A2
  6
HIDDEN
 62
    7
 10
382.49605499999995
 20
285.40641499999998
 11
382.49605499999995
 21
285.72641499999997
  0
LINE
  8
_0-4_A2
  6
HIDDEN
 62
    7
 10
382.49605499999995
 20
289.80641500000001
 11
382.49605499999995
 21
289.20641499999999
  0
LINE
  8
_0-4_A2
  6
HIDDEN
 62
    7
 10
382.49605499999995
 20
289.20641499999999
 11
382.49605499999995
 21
288.88641499999994
  0
LINE
  8
_0-4_A2
  6
HIDDEN
 62
    7
 10
382.49605499999995
 20
285.40641499999998
 11
382.49605499999995
 21
285.72641499999997
  0
LINE
  8
_0-4_A2
  6
HIDDEN
 62
    7
 10
382.49605499999995
 20
289.30641500000001
 11
382.49605499999995
 21
288.30641500000001
  0
LINE
  8
_0-4_A2
  6
HIDDEN
 62
    7
 10
382.49605499999995
 20
286.30641500000001
 11
382.49605499999995
 21
285.30641500000001
  0
LINE
  8
_0-4_A2
  6
HIDDEN
 62
    7
 10
382.49605499999995
 20
285.72641499999997
 11
382.696055
 21
285.72641499999997
  0
LINE
  8
_0-4_A2
  6
HIDDEN
 62
    7
 10
382.696055
 20
288.88641499999994
 11
382.49605499999995
 21
288.88641499999994
  0
LINE
  8
_0-4_A2
  6
HIDDEN
 62
    7
 10
382.49605499999995
 20
285.72641499999997
 11
382.696055
 21
285.72641499999997
  0
LINE
  8
_0-4_A2
  6
HIDDEN
 62
    7
 10
382.49605499999995
 20
286.30641500000001
 11
382.696055
 21
286.30641500000001
  0
LINE
  8
_0-4_A2
  6
HIDDEN
 62
    7
 10
382.696055
 20
288.30641500000001
 11
382.49605499999995
 21
288.30641500000001
  0
LINE
  8
_0-4_A2
  6
HIDDEN
 62
    7
 10
382.696055
 20
289.20641499999999
 11
382.49605499999995
 21
289.20641499999999
  0
LINE
  8
_0-4_A2
  6
HIDDEN
 62
    7
 10
382.696055
 20
289.30641500000001
 11
382.49605499999995
 21
289.30641500000001
  0
LINE
  8
_0-4_A2
  6
HIDDEN
 62
    7
 10
382.696055
 20
285.30641500000001
 11
382.49605499999995
 21
285.30641500000001
  0
LINE
  8
_0-4_A2
  6
HIDDEN
 62
    7
 10
382.696055
 20
289.80641500000001
 11
382.49605499999995
 21
289.80641500000001
  0
LINE
  8
_0-4_A2
  6
HIDDEN
 62
    7
 10
382.696055
 20
285.40641499999998
 11
382.49605499999995
 21
285.40641499999998
  0
LINE
  8
_0-4_A2
  6
HIDDEN
 62
    7
 10
382.696055
 20
284.80641500000001
 11
382.49605499999995
 21
284.80641500000001
  0
LINE
  8
_0-4_A2
  6
HIDDEN
 62
    7
 10
382.49605499999995
 20
289.80641500000001
 11
382.65605500000003
 21
289.80641500000001
  0
LINE
  8
_0-4_A2
  6
HIDDEN
 62
    7
 10
382.49605499999995
 20
289.30641500000001
 11
382.65605500000003
 21
289.30641500000001
  0
LINE
  8
_0-4_A2
  6
HIDDEN
 62
    7
 10
382.65605500000003
 20
285.30641500000001
 11
382.49605499999995
 21
285.30641500000001
  0
LINE
  8
_0-4_A2
  6
HIDDEN
 62
    7
 10
382.49605499999995
 20
284.80641500000001
 11
382.65605500000003
 21
284.80641500000001
  0
LINE
  8
_0-4_A2
  6
HIDDEN
 62
    7
 10
382.65605500000003
 20
288.30641500000001
 11
382.49605499999995
 21
288.30641500000001
  0
LINE
  8
_0-4_A2
  6
HIDDEN
 62
    7
 10
382.49605499999995
 20
286.30641500000001
 11
382.65605500000003
 21
286.30641500000001
  0
LINE
  8
_0-4_A2
  6
CONTINUOUS
 62
    7
 10
382.65605500000003
 20
292.16641499999997
 11
382.29605500000002
 21
292.16641499999997
  0
LINE
  8
_0-4_A2
  6
CONTINUOUS
 62
    7
 10
382.29605500000002
 20
282.446415
 11
382.65605500000003
 21
282.446415
  0
LINE
  8
_0-4_A2
  6
DASHED
 62
    7
 10
382.65605500000003
 20
291.626415
 11
382.474513
 21
291.626415
  0
LINE
  8
_0-4_A2
  6
DASHED
 62
    7
 10
382.474513
 20
290.58641499999998
 11
382.65605500000003
 21
290.58641499999998
  0
LINE
  8
_0-4_A2
  6
DASHED
 62
    7
 10
382.65605500000003
 20
284.22639800000001
 11
382.474513
 21
284.22639800000001
  0
LINE
  8
_0-4_A2
  6
DASHED
 62
    7
 10
382.474513
 20
283.18639799999999
 11
382.65605500000003
 21
283.18639799999999
  0
LINE
  8
_0-4_A2
  6
CONTINUOUS
 62
    7
 10
382.89605499999993
 20
291.80641500000001
 11
384.09605499999997
 21
291.80641500000001
  0
LINE
  8
_0-4_A2
  6
CONTINUOUS
 62
    7
 10
384.09605499999997
 20
291.90641499999992
 11
384.09605499999997
 21
291.80641500000001
  0
LINE
  8
_0-4_A2
  6
CONTINUOUS
 62
    7
 10
383.696055
 20
291.80641500000001
 11
383.696055
 21
291.90641499999992
  0
LINE
  8
_0-4_A2
  6
CONTINUOUS
 62
    7
 10
382.89605499999993
 20
291.90641499999992
 11
384.09605499999997
 21
291.90641499999992
  0
LINE
  8
_0-4_A2
  6
CONTINUOUS
 62
    7
 10
384.09605499999997
 20
287.30641500000001
 11
384.09605499999997
 21
291.70641499999999
  0
LINE
  8
_0-4_A2
  6
CONTINUOUS
 62
    7
 10
383.99605499999995
 20
291.70641499999999
 11
383.99605499999995
 21
282.90641499999992
  0
LINE
  8
_0-4_A2
  6
CONTINUOUS
 62
    7
 10
384.09605499999997
 20
287.30641500000001
 11
384.09605499999997
 21
282.90641499999992
  0
LINE
  8
_0-4_A2
  6
CONTINUOUS
 62
    7
 10
382.49605499999995
 20
289.68641500000001
 11
382.49605499999995
 21
289.566415
  0
ARC
  8
_0-4_A2
  6
CONTINUOUS
 62
    7
 10
382.696055
 20
289.68641500000001
 40
0.2
 50
90
 51
180
  0
ARC
  8
_0-4_A2
  6
CONTINUOUS
 62
    7
 10
382.696055
 20
289.566415
 40
0.2
 50
180
 51
270
  0
LINE
  8
_0-4_A2
  6
CONTINUOUS
 62
    7
 10
382.49605499999995
 20
285.04641500000002
 11
382.49605499999995
 21
284.92641500000001
  0
ARC
  8
_0-4_A2
  6
CONTINUOUS
 62
    7
 10
382.696055
 20
284.92641500000001
 40
0.2
 50
180
 51
270
  0
ARC
  8
_0-4_A2
  6
CONTINUOUS
 62
    7
 10
382.696055
 20
285.04641500000002
 40
0.2
 50
90
 51
180
  0
LINE
  8
_0-4_A2
  6
CENTER
 62
    7
 10
383.79605500000002
 20
284.10641500000002
 11
380.60591799999997
 21
284.10641500000002
  0
LINE
  8
_0-4_A2
  6
DASHED
 62
    7
 10
382.89605499999993
 20
284.45641499999999
 11
382.79605499999996
 21
284.45641499999999
  0
LINE
  8
_0-4_A2
  6
CONTINUOUS
 62
    7
 10
382.696055
 20
284.03723400000001
 11
382.696055
 21
282.90641499999992
  0
LINE
  8
_0-4_A2
  6
CONTINUOUS
 62
    7
 10
382.89605499999993
 20
282.70641499999999
 11
384.09605499999997
 21
282.70641499999999
  0
LINE
  8
_0-4_A2
  6
CONTINUOUS
 62
    7
 10
382.89605499999993
 20
282.80641500000001
 11
384.09605499999997
 21
282.80641500000001
  0
ARC
  8
_0-4_A2
  6
CONTINUOUS
 62
    7
 10
382.89605499999993
 20
282.90641499999992
 40
0.1
 50
180
 51
270
  0
ARC
  8
_0-4_A2
  6
CONTINUOUS
 62
    7
 10
382.89605499999993
 20
282.90641499999992
 40
0.2
 50
180
 51
270
  0
LINE
  8
_0-4_A2
  6
CONTINUOUS
 62
    7
 10
382.696055
 20
291.70641499999999
 11
382.696055
 21
287.30641500000001
  0
ARC
  8
_0-4_A2
  6
CONTINUOUS
 62
    7
 10
382.89605499999993
 20
291.70641499999999
 40
0.1
 50
90
 51
180
  0
ARC
  8
_0-4_A2
  6
CONTINUOUS
 62
    7
 10
382.89605499999993
 20
291.70641499999999
 40
0.2
 50
90
 51
180
  0
LINE
  8
_0-4_A2
  6
CONTINUOUS
 62
    7
 10
383.696055
 20
282.80641500000001
 11
383.696055
 21
282.70641499999999
  0
LINE
  8
_0-4_A2
  6
CONTINUOUS
 62
    7
 10
382.696055
 20
284.40778599999998
 11
382.696055
 21
284.03723400000001
  0
LINE
  8
_0-4_A2
  6
CONTINUOUS
 62
    7
 10
382.696055
 20
290.57559500000002
 11
382.696055
 21
290.20504399999998
  0
LINE
  8
_0-4_A2
  6
CONTINUOUS
 62
    7
 10
382.696055
 20
287.30641500000001
 11
382.696055
 21
284.40778599999998
  0
LINE
  8
_0-4_A2
  6
CENTER
 62
    7
 10
383.696054
 20
290.506415
 11
380.60591799999997
 21
290.506415
  0
LINE
  8
_0-4_A2
  6
CONTINUOUS
 62
    7
 10
384.09605499999997
 20
282.70641499999999
 11
384.09605499999997
 21
282.80641500000001
  0
CIRCLE
  8
_0-4_A2
  6
CONTINUOUS
 62
    7
 10
382.696055
 20
284.90641499999998
 40
0.0199999999999999
  0
CIRCLE
  8
_0-4_A2
  6
CONTINUOUS
 62
    7
 10
382.696055
 20
289.70641499999999
 40
0.0199999999999999
  0
LINE
  8
_0-4_A2
  6
DASHED
 62
    7
 10
390.83605499999998
 20
285.30641500000001
 11
391.23605499999996
 21
285.30641500000001
  0
LINE
  8
_0-4_A2
  6
DASHED
 62
    7
 10
391.23605499999996
 20
289.30641500000001
 11
390.83605499999998
 21
289.30641500000001
  0
LINE
  8
_0-4_A2
  6
DASHED
 62
    7
 10
391.23605499999996
 20
285.30641500000001
 11
391.23605499999996
 21
289.30641500000001
  0
LINE
  8
_0-4_A2
  6
CONTINUOUS
 62
    7
 10
384.196055
 20
289.30641500000001
 11
390.23605500000002
 21
289.30641500000001
  0
LINE
  8
_0-4_A2
  6
CONTINUOUS
 62
    7
 10
384.196055
 20
285.30641500000001
 11
390.23605500000002
 21
285.30641500000001
  0
LINE
  8
_0-4_A2
  6
CONTINUOUS
 62
    7
 10
384.196055
 20
288.01064099999996
 11
384.49895399999996
 21
288.23781500000001
  0
LINE
  8
_0-4_A2
  6
CONTINUOUS
 62
    7
 10
384.196055
 20
286.60218800000001
 11
384.49895399999996
 21
286.37501399999996
  0
LINE
  8
_0-4_A2
  6
CONTINUOUS
 62
    7
 10
384.49895399999996
 20
286.23781500000001
 11
384.196055
 21
286.01064100000002
  0
LINE
  8
_0-4_A2
  6
CONTINUOUS
 62
    7
 10
384.49895399999996
 20
288.37501400000002
 11
384.196055
 21
288.60218799999995
  0
LINE
  8
_0-4_A2
  6
CONTINUOUS
 62
    7
 10
384.49895415108545
 20
286.23781554471497
 11
384.49895415108545
 21
286.23781554471497
  0
LINE
  8
_0-4_A2
  6
CONTINUOUS
 62
    7
 10
384.49895415108545
 20
286.23781554471497
 11
384.51423722949004
 21
286.25149248928477
  0
LINE
  8
_0-4_A2
  6
CONTINUOUS
 62
    7
 10
384.51423722949004
 20
286.25149248928477
 11
384.52592940065471
 21
286.26683822655053
  0
LINE
  8
_0-4_A2
  6
CONTINUOUS
 62
    7
 10
384.52592940065471
 20
286.26683822655053
 11
384.53367540387512
 21
286.2833864840507
  0
LINE
  8
_0-4_A2
  6
CONTINUOUS
 62
    7
 10
384.53367540387512
 20
286.2833864840507
 11
384.53723988076302
 21
286.30063445135505
  0
LINE
  8
_0-4_A2
  6
CONTINUOUS
 62
    7
 10
384.53723988076302
 20
286.30063445135505
 11
384.53651452649194
 21
286.31805805770483
  0
LINE
  8
_0-4_A2
  6
CONTINUOUS
 62
    7
 10
384.53651452649194
 20
286.31805805770483
 11
384.53152138058436
 21
286.33512789563792
  0
LINE
  8
_0-4_A2
  6
CONTINUOUS
 62
    7
 10
384.53152138058436
 20
286.33512789563792
 11
384.522412157252
 21
286.35132530676651
  0
LINE
  8
_0-4_A2
  6
CONTINUOUS
 62
    7
 10
384.522412157252
 20
286.35132530676651
 11
384.50946363563639
 21
286.36615814094972
  0
LINE
  8
_0-4_A2
  6
CONTINUOUS
 62
    7
 10
384.50946363563639
 20
286.36615814094972
 11
384.49895415108545
 21
286.37501445528505
  0
LINE
  8
_0-4_A2
  6
CONTINUOUS
 62
    7
 10
384.196055
 20
286.23781500000001
 11
384.49895399999996
 21
286.23781500000001
  0
LINE
  8
_0-4_A2
  6
CONTINUOUS
 62
    7
 10
384.49895399999996
 20
286.37501399999996
 11
384.196055
 21
286.37501399999996
  0
LINE
  8
_0-4_A2
  6
CONTINUOUS
 62
    7
 10
384.49895415108545
 20
288.23781554471497
 11
384.49895415108545
 21
288.23781554471497
  0
LINE
  8
_0-4_A2
  6
CONTINUOUS
 62
    7
 10
384.49895415108545
 20
288.23781554471497
 11
384.51423722949004
 21
288.25149248928477
  0
LINE
  8
_0-4_A2
  6
CONTINUOUS
 62
    7
 10
384.51423722949004
 20
288.25149248928477
 11
384.52592940065471
 21
288.26683822655053
  0
LINE
  8
_0-4_A2
  6
CONTINUOUS
 62
    7
 10
384.52592940065471
 20
288.26683822655053
 11
384.53367540387512
 21
288.2833864840507
  0
LINE
  8
_0-4_A2
  6
CONTINUOUS
 62
    7
 10
384.53367540387512
 20
288.2833864840507
 11
384.53723988076302
 21
288.30063445135505
  0
LINE
  8
_0-4_A2
  6
CONTINUOUS
 62
    7
 10
384.53723988076302
 20
288.30063445135505
 11
384.53651452649194
 21
288.31805805770483
  0
LINE
  8
_0-4_A2
  6
CONTINUOUS
 62
    7
 10
384.53651452649194
 20
288.31805805770483
 11
384.53152138058436
 21
288.33512789563792
  0
LINE
  8
_0-4_A2
  6
CONTINUOUS
 62
    7
 10
384.53152138058436
 20
288.33512789563792
 11
384.522412157252
 21
288.35132530676651
  0
LINE
  8
_0-4_A2
  6
CONTINUOUS
 62
    7
 10
384.522412157252
 20
288.35132530676651
 11
384.50946363563639
 21
288.36615814094972
  0
LINE
  8
_0-4_A2
  6
CONTINUOUS
 62
    7
 10
384.50946363563639
 20
288.36615814094972
 11
384.49895415108539
 21
288.37501445528505
  0
LINE
  8
_0-4_A2
  6
CONTINUOUS
 62
    7
 10
384.196055
 20
288.23781500000001
 11
384.49895399999996
 21
288.23781500000001
  0
LINE
  8
_0-4_A2
  6
CONTINUOUS
 62
    7
 10
384.49895399999996
 20
288.37501400000002
 11
384.196055
 21
288.37501400000002
  0
LINE
  8
_0-4_A2
  6
CONTINUOUS
 62
    7
 10
384.196055
 20
283.86499300000002
 11
384.196055
 21
284.00641499999994
  0
LINE
  8
_0-4_A2
  6
DASHED
 62
    7
 10
391.23605499999996
 20
292.30641500000001
 11
391.11889799999994
 21
292.30641500000001
  0
LINE
  8
_0-4_A2
  6
DASHED
 62
    7
 10
391.11889799999994
 20
292.20641499999999
 11
391.23605499999996
 21
292.20641499999999
  0
LINE
  8
_0-4_A2
  6
DASHED
 62
    7
 10
391.23605499999996
 20
292.20641499999999
 11
391.23605499999996
 21
292.30641500000001
  0
LINE
  8
_0-4_A2
  6
DASHED
 62
    7
 10
391.11889799999994
 20
282.30641500000001
 11
391.23605499999996
 21
282.30641500000001
  0
LINE
  8
_0-4_A2
  6
DASHED
 62
    7
 10
391.23605499999996
 20
282.40641499999998
 11
391.11889799999994
 21
282.40641499999998
  0
LINE
  8
_0-4_A2
  6
DASHED
 62
    7
 10
391.23605499999996
 20
282.30641500000001
 11
391.23605499999996
 21
282.40641499999998
  0
LINE
  8
_0-4_A2
  6
CONTINUOUS
 62
    7
 10
384.29605399999996
 20
286.85641500000002
 11
384.29605399999996
 21
287.30641500000001
  0
LINE
  8
_0-4_A2
  6
CONTINUOUS
 62
    7
 10
384.29605399999996
 20
287.30641500000001
 11
384.29605399999996
 21
287.75641499999994
  0
LINE
  8
_0-4_A2
  6
DASHED
 62
    7
 10
391.11889799999994
 20
292.30641500000001
 11
390.23605500000002
 21
292.30641500000001
  0
LINE
  8
_0-4_A2
  6
CONTINUOUS
 62
    7
 10
388.35321200000004
 20
292.20641499999999
 11
390.23605500000002
 21
292.20641499999999
  0
LINE
  8
_0-4_A2
  6
DASHED
 62
    7
 10
391.11889799999994
 20
292.30641500000001
 11
391.11889799999994
 21
292.20641499999999
  0
LINE
  8
_0-4_A2
  6
CONTINUOUS
 62
    7
 10
388.35321200000004
 20
282.30641500000001
 11
390.23605500000002
 21
282.30641500000001
  0
LINE
  8
_0-4_A2
  6
DASHED
 62
    7
 10
391.11889799999994
 20
282.40641499999998
 11
390.23605500000002
 21
282.40641499999998
  0
LINE
  8
_0-4_A2
  6
DASHED
 62
    7
 10
391.11889799999994
 20
282.40641499999998
 11
391.11889799999994
 21
282.30641500000001
  0
LINE
  8
_0-4_A2
  6
CONTINUOUS
 62
    7
 10
388.35321200000004
 20
292.30641500000001
 11
388.07036899999997
 21
292.30641500000001
  0
LINE
  8
_0-4_A2
  6
CONTINUOUS
 62
    7
 10
388.07036899999997
 20
292.20641499999999
 11
388.35321200000004
 21
292.20641499999999
  0
LINE
  8
_0-4_A2
  6
CONTINUOUS
 62
    7
 10
388.35321200000004
 20
292.20641499999999
 11
388.35321200000004
 21
292.30641500000001
  0
LINE
  8
_0-4_A2
  6
CONTINUOUS
 62
    7
 10
388.07036899999997
 20
282.30641500000001
 11
388.35321200000004
 21
282.30641500000001
  0
LINE
  8
_0-4_A2
  6
CONTINUOUS
 62
    7
 10
388.35321200000004
 20
282.40641499999998
 11
388.07036899999997
 21
282.40641499999998
  0
LINE
  8
_0-4_A2
  6
CONTINUOUS
 62
    7
 10
388.35321200000004
 20
282.30641500000001
 11
388.35321200000004
 21
282.40641499999998
  0
LINE
  8
_0-4_A2
  6
CONTINUOUS
 62
    7
 10
384.29605499999996
 20
292.30641500000001
 11
388.07036899999997
 21
292.30641500000001
  0
LINE
  8
_0-4_A2
  6
CONTINUOUS
 62
    7
 10
388.07036899999997
 20
282.30641500000001
 11
384.29605499999996
 21
282.30641500000001
  0
LINE
  8
_0-4_A2
  6
CONTINUOUS
 62
    7
 10
384.29605499999996
 20
292.20641499999999
 11
388.07036899999997
 21
292.20641499999999
  0
LINE
  8
_0-4_A2
  6
CONTINUOUS
 62
    7
 10
388.07036899999997
 20
282.40641499999998
 11
384.29605499999996
 21
282.40641499999998
  0
LINE
  8
_0-4_A2
  6
CONTINUOUS
 62
    7
 10
384.196055
 20
282.50641499999994
 11
384.196055
 21
287.30641500000001
  0
LINE
  8
_0-4_A2
  6
CONTINUOUS
 62
    7
 10
388.07036899999997
 20
282.40641499999998
 11
388.07036899999997
 21
282.30641500000001
  0
LINE
  8
_0-4_A2
  6
CONTINUOUS
 62
    7
 10
384.09605499999997
 20
282.50641499999994
 11
384.09605499999997
 21
287.30641500000001
  0
LINE
  8
_0-4_A2
  6
CONTINUOUS
 62
    7
 10
388.07036899999997
 20
292.30641500000001
 11
388.07036899999997
 21
292.20641499999999
  0
LINE
  8
_0-4_A2
  6
CONTINUOUS
 62
    7
 10
384.29605399999996
 20
286.85641500000002
 11
384.196055
 21
286.85641500000002
  0
LINE
  8
_0-4_A2
  6
CONTINUOUS
 62
    7
 10
384.196055
 20
287.75641499999994
 11
384.29605399999996
 21
287.75641499999994
  0
LINE
  8
_0-4_A2
  6
CONTINUOUS
 62
    7
 10
384.196055
 20
292.10641500000002
 11
384.196055
 21
287.30641500000001
  0
LINE
  8
_0-4_A2
  6
CONTINUOUS
 62
    7
 10
384.09605499999997
 20
292.10641500000002
 11
384.09605499999997
 21
287.30641500000001
  0
CIRCLE
  8
_0-4_A2
  6
CONTINUOUS
 62
    7
 10
384.196055
 20
284.10641500000002
 40
0.0199999999999999
  0
LINE
  8
_0-4_A2
  6
CONTINUOUS
 62
    7
 10
384.59041999999999
 20
286.30641500000001
 11
384.196055
 21
286.60218800000001
  0
LINE
  8
_0-4_A2
  6
CONTINUOUS
 62
    7
 10
384.196055
 20
286.01064100000002
 11
384.59041999999999
 21
286.30641500000001
  0
LINE
  8
_0-4_A2
  6
CONTINUOUS
 62
    7
 10
384.44750499999997
 20
286.30641500000001
 11
384.196055
 21
286.30641500000001
  0
LINE
  8
_0-4_A2
  6
CONTINUOUS
 62
    7
 10
384.196055
 20
286.49500199999999
 11
384.44750499999997
 21
286.30641500000001
  0
LINE
  8
_0-4_A2
  6
CONTINUOUS
 62
    7
 10
384.44750499999997
 20
286.30641500000001
 11
384.196055
 21
286.11782799999991
  0
LINE
  8
_0-4_A2
  6
CONTINUOUS
 62
    7
 10
384.59041999999999
 20
286.30641500000001
 11
384.44750499999997
 21
286.30641500000001
  0
LINE
  8
_0-4_A2
  6
CONTINUOUS
 62
    7
 10
384.196055
 20
288.01064099999996
 11
384.59041999999999
 21
288.30641500000001
  0
LINE
  8
_0-4_A2
  6
CONTINUOUS
 62
    7
 10
384.59041999999999
 20
288.30641500000001
 11
384.196055
 21
288.60218799999995
  0
LINE
  8
_0-4_A2
  6
CONTINUOUS
 62
    7
 10
384.44750499999997
 20
288.30641500000001
 11
384.196055
 21
288.30641500000001
  0
LINE
  8
_0-4_A2
  6
CONTINUOUS
 62
    7
 10
384.44750499999997
 20
288.30641500000001
 11
384.196055
 21
288.11782799999997
  0
LINE
  8
_0-4_A2
  6
CONTINUOUS
 62
    7
 10
384.196055
 20
288.49500199999999
 11
384.44750499999997
 21
288.30641500000001
  0
LINE
  8
_0-4_A2
  6
CONTINUOUS
 62
    7
 10
384.59041999999999
 20
288.30641500000001
 11
384.44750499999997
 21
288.30641500000001
  0
ARC
  8
_0-4_A2
  6
CONTINUOUS
 62
    7
 10
384.29605499999996
 20
282.50641499999994
 40
0.1
 50
180
 51
270
  0
ARC
  8
_0-4_A2
  6
CONTINUOUS
 62
    7
 10
384.29605499999996
 20
282.50641499999994
 40
0.2
 50
180
 51
270
  0
ARC
  8
_0-4_A2
  6
CONTINUOUS
 62
    7
 10
384.29605499999996
 20
292.10641500000002
 40
0.2
 50
90
 51
180
  0
ARC
  8
_0-4_A2
  6
CONTINUOUS
 62
    7
 10
384.29605499999996
 20
292.10641500000002
 40
0.1
 50
90
 51
180
  0
ARC
  8
_0-4_A2
  6
CONTINUOUS
 62
    7
 10
381.05041099999999
 20
290.85641500000002
 40
0.2
 50
90
 51
168.78772900000001
  0
LINE
  8
_0-4_A2
  6
CONTINUOUS
 62
    7
 10
381.29605499999996
 20
289.70641499999999
 11
381.29605499999996
 21
291.30641500000001
  0
LINE
  8
_0-4_A2
  6
CONTINUOUS
 62
    7
 10
381.17605500000001
 20
289.74641500000001
 11
381.17605500000001
 21
291.26641499999999
  0
LINE
  8
_0-4_A2
  6
CONTINUOUS
 62
    7
 10
381.49605500000001
 20
289.70641499999999
 11
381.49605500000001
 21
291.30641500000001
  0
LINE
  8
_0-4_A2
  6
CONTINUOUS
 62
    7
 10
381.29605499999996
 20
291.30641500000001
 11
381.49605500000001
 21
291.30641500000001
  0
LINE
  8
_0-4_A2
  6
CONTINUOUS
 62
    7
 10
381.21605499999998
 20
291.30641500000001
 11
381.256055
 21
291.30641500000001
  0
LINE
  8
_0-4_A2
  6
CONTINUOUS
 62
    7
 10
381.05041099999999
 20
291.05641500000001
 11
381.17605500000001
 21
291.05641500000001
  0
ARC
  8
_0-4_A2
  6
CONTINUOUS
 62
    7
 10
381.256055
 20
291.26641499999999
 40
0.0399999999999999
 50
0
 51
90
  0
ARC
  8
_0-4_A2
  6
CONTINUOUS
 62
    7
 10
381.21605499999998
 20
291.26641499999999
 40
0.0399999999999999
 50
90
 51
180
  0
ARC
  8
_0-4_A2
  6
CONTINUOUS
 62
    7
 10
381.05041099999999
 20
290.15641499999998
 40
0.2
 50
191.21227099999998
 51
270
  0
LINE
  8
_0-4_A2
  6
CONTINUOUS
 62
    7
 10
381.29605499999996
 20
289.70641499999999
 11
381.49605500000001
 21
289.70641499999999
  0
LINE
  8
_0-4_A2
  6
CONTINUOUS
 62
    7
 10
381.21605499999998
 20
289.70641499999999
 11
381.256055
 21
289.70641499999999
  0
LINE
  8
_0-4_A2
  6
CONTINUOUS
 62
    7
 10
381.05041099999999
 20
289.95641499999999
 11
381.17605500000001
 21
289.95641499999999
  0
ARC
  8
_0-4_A2
  6
CONTINUOUS
 62
    7
 10
381.256055
 20
289.74641500000001
 40
0.0399999999999999
 50
270
 51
0
  0
ARC
  8
_0-4_A2
  6
CONTINUOUS
 62
    7
 10
381.21605499999998
 20
289.74641500000001
 40
0.0399999999999999
 50
180
 51
270
  0
ARC
  8
_0-4_A2
  6
CONTINUOUS
 62
    7
 10
382.816055
 20
290.506415
 40
2
 50
168.78772900000001
 51
191.21227099999998
  0
ARC
  8
_0-4_A2
  6
CONTINUOUS
 62
    7
 10
381.05041099999999
 20
284.45641499999999
 40
0.2
 50
90
 51
168.78772900000001
  0
LINE
  8
_0-4_A2
  6
CONTINUOUS
 62
    7
 10
381.29605499999996
 20
283.30641500000001
 11
381.29605499999996
 21
284.90641499999998
  0
LINE
  8
_0-4_A2
  6
CONTINUOUS
 62
    7
 10
381.17605500000001
 20
283.34641499999997
 11
381.17605500000001
 21
284.86641500000001
  0
LINE
  8
_0-4_A2
  6
CONTINUOUS
 62
    7
 10
381.49605500000001
 20
283.30641500000001
 11
381.49605500000001
 21
284.90641499999998
  0
LINE
  8
_0-4_A2
  6
CONTINUOUS
 62
    7
 10
381.29605499999996
 20
284.90641499999998
 11
381.49605500000001
 21
284.90641499999998
  0
LINE
  8
_0-4_A2
  6
CONTINUOUS
 62
    7
 10
381.21605499999998
 20
284.90641499999998
 11
381.256055
 21
284.90641499999998
  0
LINE
  8
_0-4_A2
  6
CONTINUOUS
 62
    7
 10
381.05041099999999
 20
284.65641499999998
 11
381.17605500000001
 21
284.65641499999998
  0
ARC
  8
_0-4_A2
  6
CONTINUOUS
 62
    7
 10
381.256055
 20
284.86641500000001
 40
0.0399999999999999
 50
0
 51
90
  0
ARC
  8
_0-4_A2
  6
CONTINUOUS
 62
    7
 10
381.21605499999998
 20
284.86641500000001
 40
0.0399999999999999
 50
90
 51
180
  0
ARC
  8
_0-4_A2
  6
CONTINUOUS
 62
    7
 10
381.05041099999999
 20
283.756415
 40
0.2
 50
191.21227099999998
 51
270
  0
LINE
  8
_0-4_A2
  6
CONTINUOUS
 62
    7
 10
381.29605499999996
 20
283.30641500000001
 11
381.49605500000001
 21
283.30641500000001
  0
LINE
  8
_0-4_A2
  6
CONTINUOUS
 62
    7
 10
381.21605499999998
 20
283.30641500000001
 11
381.256055
 21
283.30641500000001
  0
LINE
  8
_0-4_A2
  6
CONTINUOUS
 62
    7
 10
381.05041099999999
 20
283.55641500000001
 11
381.17605500000001
 21
283.55641500000001
  0
ARC
  8
_0-4_A2
  6
CONTINUOUS
 62
    7
 10
381.256055
 20
283.34641499999997
 40
0.0399999999999999
 50
270
 51
0
  0
ARC
  8
_0-4_A2
  6
CONTINUOUS
 62
    7
 10
381.21605499999998
 20
283.34641499999997
 40
0.0399999999999999
 50
180
 51
270
  0
ARC
  8
_0-4_A2
  6
CONTINUOUS
 62
    7
 10
382.816055
 20
284.10641500000002
 40
2
 50
168.78772900000001
 51
191.21227099999998
  0
TEXT
  8
_0-4_A2
 62
    7
 10
283.03610700000001
 20
384.37843346875001
 40
7.5
 41
1
 50
90
  1
71
  0
TEXT
  8
_0-4_A2
 62
    7
 10
210.36169999999998
 20
364.72928431249999
 40
7.5
 41
1
 50
90
  1
115
  0
TEXT
  8
_0-4_A2
 62
    7
 10
239.16259631250002
 20
362.51257399999997
 40
7.5
 41
1
 50
0
  1
205
  0
TEXT
  8
_0-4_A2
 62
    7
 10
187.07530637500002
 20
328.70018700000002
 40
7.5
 41
1
 50
0
  1
750
  0
TEXT
  8
_0-4_A2
 62
    7
 10
162.69957443750001
 20
319.70382399999994
 40
7.5
 41
1
 50
0
  1
300（鏡寸法）
  0
TEXT
  8
_0-4_A2
 62
    7
 10
86.600082000000071
 20
187.48859806250001
 40
7.5
 41
1
 50
90
  1
589.5（鏡寸法）
  0
TEXT
  8
_0-4_A2
 62
    7
 10
296.60010699999997
 20
281.78272837500003
 40
7.5
 41
1
 50
90
  1
108
  0
TEXT
  8
_0-4_A2
 62
    7
 10
296.60010699999997
 20
246.28273137500002
 40
7.5
 41
1
 50
90
  1
247
  0
TEXT
  8
_0-4_A2
 62
    7
 10
296.60010699999997
 20
205.082734375
 40
7.5
 41
1
 50
90
  1
165
  0
TEXT
  8
_0-4_A2
 62
    7
 10
296.60010699999997
 20
164.582734375
 40
7.5
 41
1
 50
90
  1
240
  0
TEXT
  8
_0-4_A2
 62
    7
 10
296.60010699999997
 20
116.98273237500002
 40
7.5
 41
1
 50
90
  1
236
  0
TEXT
  8
_0-4_A2
 62
    7
 10
311.60010699999997
 20
192.98272837499996
 40
7.5
 41
1
 50
90
  1
996
  0
TEXT
  8
_0-4_A2
 62
    7
 10
311.60010699999997
 20
88.392687750000007
 40
7.5
 41
1
 50
90
  1
5
  0
TEXT
  8
_0-4_A2
 62
    7
 10
380.42448200000001
 20
328.70018700000002
 40
7.5
 41
1
 50
0
  1
123.5
  0
TEXT
  8
_0-4_A2
 62
    7
 10
392.83130256250001
 20
319.70382399999994
 40
7.5
 41
1
 50
0
  1
60
  0
TEXT
  8
_0-4_A2
 62
    7
 10
410.93229356250003
 20
121.66613
 40
7.5
 41
1
 50
0
  1
30
  0
TEXT
  8
_0-4_A2
 62
    7
 10
376.34973256249998
 20
67.556434999999993
 40
7.5
 41
1
 50
0
  1
（130）
  0
TEXT
  8
_0-4_A2
 62
    7
 10
363.61773199999993
 20
238.08825107296138
 40
7.5
 41
1
 50
90
  1
37.5
  0
LINE
  8
_0-0_0
  6
CONTINUOUS
 62
    7
 10
487.91707932941943
 20
372.27036388007132
 11
584.9168873294194
 21
372.27036388007132
  0
LINE
  8
_0-0_0
  6
CONTINUOUS
 62
    7
 10
487.91707932941943
 20
364.27045588007138
 11
584.9168873294194
 21
364.27045588007138
  0
LINE
  8
_0-0_0
  6
CONTINUOUS
 62
    7
 10
487.91707932941943
 20
358.27045588007138
 11
584.9168873294194
 21
358.27045588007138
  0
LINE
  8
_0-0_0
  6
CONTINUOUS
 62
    7
 10
487.91707932941943
 20
352.27045588007138
 11
584.9168873294194
 21
352.27045588007138
  0
LINE
  8
_0-0_0
  6
CONTINUOUS
 62
    7
 10
487.91707932941943
 20
342.27045588007132
 11
584.9168873294194
 21
342.27045588007132
  0
LINE
  8
_0-0_0
  6
CONTINUOUS
 62
    7
 10
584.9168873294194
 20
364.27045588007138
 11
584.9168873294194
 21
342.27045588007132
  0
LINE
  8
_0-0_0
  6
CONTINUOUS
 62
    7
 10
487.91707932941943
 20
364.27045588007138
 11
487.91707932941943
 21
342.27045588007132
  0
LINE
  8
_0-0_0
  6
CONTINUOUS
 62
    7
 10
487.91707932941943
 20
402.26972288007129
 11
584.9168873294194
 21
402.26972288007129
  0
LINE
  8
_0-0_0
  6
CONTINUOUS
 62
    7
 10
544.91688032941942
 20
366.27045588007132
 11
544.91688032941942
 21
414.26990588007134
  0
LINE
  8
_0-0_0
  6
CONTINUOUS
 62
    7
 10
497.91706432941941
 20
366.27045588007132
 11
497.91706432941941
 21
414.26990588007134
  0
LINE
  8
_0-0_0
  6
CONTINUOUS
 62
    7
 10
487.91707932941943
 20
396.26981388007129
 11
584.9168873294194
 21
396.26981388007129
  0
LINE
  8
_0-0_0
  6
CONTINUOUS
 62
    7
 10
487.91707932941943
 20
414.26990588007134
 11
487.91707932941943
 21
366.27045588007132
  0
LINE
  8
_0-0_0
  6
CONTINUOUS
 62
    7
 10
487.91707932941943
 20
408.26972288007129
 11
584.9168873294194
 21
408.26972288007129
  0
LINE
  8
_0-0_0
  6
CONTINUOUS
 62
    7
 10
532.91688032941942
 20
366.27045588007132
 11
532.91688032941942
 21
414.26990588007134
  0
LINE
  8
_0-0_0
  6
CONTINUOUS
 62
    7
 10
487.91707932941943
 20
384.2699978800714
 11
584.9168873294194
 21
384.2699978800714
  0
LINE
  8
_0-0_0
  6
CONTINUOUS
 62
    7
 10
487.91707932941943
 20
414.26990588007134
 11
584.9168873294194
 21
414.26990588007134
  0
LINE
  8
_0-0_0
  6
CONTINUOUS
 62
    7
 10
584.9168873294194
 20
414.26990588007134
 11
584.9168873294194
 21
366.27045588007132
  0
LINE
  8
_0-0_0
  6
CONTINUOUS
 62
    7
 10
487.91707932941943
 20
390.26990588007134
 11
584.9168873294194
 21
390.26990588007134
  0
LINE
  8
_0-0_0
  6
CONTINUOUS
 62
    7
 10
487.91707932941943
 20
366.27045588007132
 11
584.9168873294194
 21
366.27045588007132
  0
TEXT
  8
_0-0_0
 62
    7
 10
537.4135475794194
 20
367.02018088007133
 40
4.5
 41
0.733333
 50
0
  1
１
  0
TEXT
  8
_0-0_0
 62
    7
 10
491.12876282941942
 20
367.02027288007138
 40
4.5
 41
0.86951
 50
0
  1
６
  0
LINE
  8
_0-0_0
  6
CONTINUOUS
 62
    7
 10
519.91707932941949
 20
358.27045588007138
 11
519.91707932941949
 21
342.27045588007132
  0
TEXT
  8
_0-0_0
 62
    7
 10
523.5011527669194
 20
359.02045588007138
 40
4.5
 41
0.733333
 50
0
  1
仕　　　　様
  0
TEXT
  8
_0-0_0
 62
    7
 10
537.4135475794194
 20
379.01972288007129
 40
4.5
 41
0.733333
 50
0
  1
１
  0
TEXT
  8
_0-0_0
 62
    7
 10
491.12876282941942
 20
379.01972288007129
 40
4.5
 41
0.86951
 50
0
  1
５
  0
TEXT
  8
_0-0_0
 62
    7
 10
537.4135475794194
 20
385.01972288007129
 40
4.5
 41
0.733333
 50
0
  1
１
  0
TEXT
  8
_0-0_0
 62
    7
 10
491.12876282941942
 20
385.01972288007129
 40
4.5
 41
0.86951
 50
0
  1
４
  0
TEXT
  8
_0-0_0
 62
    7
 10
537.4135475794194
 20
391.01972288007129
 40
4.5
 41
0.733333
 50
0
  1
６
  0
TEXT
  8
_0-0_0
 62
    7
 10
491.12876282941942
 20
391.01972288007129
 40
4.5
 41
0.86951
 50
0
  1
３
  0
TEXT
  8
_0-0_0
 62
    7
 10
537.4135475794194
 20
397.01972288007129
 40
4.5
 41
0.733333
 50
0
  1
１
  0
TEXT
  8
_0-0_0
 62
    7
 10
491.12876282941942
 20
397.01972288007129
 40
4.5
 41
0.86951
 50
0
  1
２
  0
TEXT
  8
_0-0_0
 62
    7
 10
537.4135475794194
 20
403.01972288007129
 40
4.5
 41
0.733333
 50
0
  1
１
  0
TEXT
  8
_0-0_0
 62
    7
 10
491.12876282941942
 20
403.01972288007129
 40
4.5
 41
0.86951
 50
0
  1
１
  0
TEXT
  8
_0-0_0
 62
    7
 10
487.63259989191942
 20
408.64487488007137
 40
4.5
 41
0.6666666666666666
 50
0
  1
ＮＯ
  0
TEXT
  8
_0-0_0
 62
    7
 10
513.24704935622321
 20
403.17247854077254
 40
4.5
 41
0.6666666666666666
 50
0
  1
鏡
  0
TEXT
  8
_0-0_0
 62
    7
 10
500.53819632941946
 20
408.64487488007137
 40
4.5
 41
0.6666666666666666
 50
0
  1
部　材　名
  0
TEXT
  8
_0-0_0
 62
    7
 10
533.63241689191954
 20
408.64487488007137
 40
4.5
 41
0.6666666666666666
 50
0
  1
数量
  0
TEXT
  8
_0-0_0
 62
    7
 10
559.63242389191941
 20
408.64466088007134
 40
4.5
 41
0.6666666666666666
 50
0
  1
備考
  0
TEXT
  8
_0-0_0
 62
    7
 10
498.28527360515022
 20
396.56773068669525
 40
4.5
 41
0.6666666666666666
 50
0
  1
ミラーキャビネット
  0
TEXT
  8
_0-0_0
 62
    7
 10
499.76579232941941
 20
391.01972288007129
 40
4.5
 41
0.6666666666666666
 50
0
  1
着脱トレイ
  0
TEXT
  8
_0-0_0
 62
    7
 10
546.40557939914162
 20
402.90289699570814
 40
4.5
 41
0.6666666666666666
 50
0
  1
くもりシャットなし
  0
TEXT
  8
_0-0_0
 62
    7
 10
499.76579232941941
 20
385.01972288007129
 40
4.5
 41
0.6666666666666666
 50
0
  1
コンセント
  0
TEXT
  8
_0-0_0
 62
    7
 10
499.49839055793995
 20
378.50576716738203
 40
4.5
 41
0.6666666666666666
 50
0
  1
ＬＥＤ照明
  0
TEXT
  8
_0-0_0
 62
    7
 10
499.76579232941941
 20
367.02027288007138
 40
4.5
 41
0.6666666666666666
 50
0
  1
電源コード
  0
TEXT
  8
_0-0_0
 62
    7
 10
545.5819942044194
 20
378.27018088007133
 40
4.5
 41
0.6666666666666666
 50
0
  1
消費電力
  0
TEXT
  8
_0-0_0
 62
    7
 10
543.17060085836908
 20
372.70976394849787
 40
4.5
 41
0.6666666666666666
 50
0
  1
　Ｗ７５０：１１．２Ｗ
  0
TEXT
  8
_0-0_0
 62
    7
 10
551.39283798283258
 20
384.975724248927
 40
4.5
 41
0.6666666666666666
 50
0
  1
１口／個
  0
TEXT
  8
_0-0_0
 62
    7
 10
491.16384332941947
 20
353.02045588007138
 40
4.5
 41
0.6666666666666666
 50
0
  1
コンセント
  0
TEXT
  8
_0-0_0
 62
    7
 10
524.8390557939914
 20
353.03031115879832
 40
4.5
 41
0.6666666666666666
 50
0
  1
１口合計　１２００Ｗ
  0
TEXT
  8
_0-0_0
 62
    7
 10
499.38753895441948
 20
347.02045588007138
 40
4.5
 41
0.6666666666666666
 50
0
  1
電源
  0
TEXT
  8
_0-0_0
 62
    7
 10
521.87365879828325
 20
346.82993562231757
 40
4.5
 41
0.3333333333333333
 50
0
  1
横型プラグ付電源コード（直結配線可能）
  0
TEXT
  8
_0-0_0
 62
    7
 10
522.0084495708154
 20
342.65142167381975
 40
4.5
 41
0.3333333333333333
 50
0
  1
ＡＣ１００Ｖ（５０Ｈｚ／６０Ｈｚ共用）
  0
TEXT
  8
_0-0_0
 62
    7
 10
545.59683476394843
 20
390.9065182403433
 40
4.5
 41
0.3333333333333333
 50
0
  1
収納重量（耐荷重）各１ｋｇ
  0
TEXT
  8
_0-3_A1
 62
    7
 10
283.59375
 20
37.125
 40
7.5
 41
1
 50
0
  1
品　番：ＷＳＲ－７５ＭＫ
  0
LINE
  8
_0-4_A2
  6
CONTINUOUS
 62
    7
 10
271.65275288812654
 20
88.839082500000003
 11
268.35294888812649
 21
88.839082500000003
  0
LINE
  8
_0-4_A2
  6
CONTINUOUS
 62
    7
 10
271.65275288812654
 20
87.63913149999999
 11
268.35294888812649
 21
87.63913149999999
  0
LINE
  8
_0-4_A2
  6
CONTINUOUS
 62
    7
 10
273.66642488812652
 20
95.839082499999989
 11
272.6390808881265
 21
95.839082499999989
  0
LINE
  8
_0-4_A2
  6
CONTINUOUS
 62
    7
 10
273.8759768881265
 20
95.653662499999995
 11
274.16588788812657
 21
91.594911500000009
  0
LINE
  8
_0-4_A2
  6
CONTINUOUS
 62
    7
 10
272.18217488812649
 20
91.800963499999994
 11
272.45719588812653
 21
95.651261499999989
  0
LINE
  8
_0-4_A2
  6
CONTINUOUS
 62
    7
 10
271.65275288812654
 20
91.63913149999999
 11
271.65275288812654
 21
86.439057499999989
  0
LINE
  8
_0-4_A2
  6
CONTINUOUS
 62
    7
 10
271.67017388812655
 20
91.637074499999982
 11
274.1531058881265
 21
91.459722500000012
  0
LINE
  8
_0-4_A2
  6
CONTINUOUS
 62
    7
 10
274.14551288812651
 20
86.616789499999981
 11
271.66258088812651
 21
86.439437500000011
  0
ARC
  8
_0-4_A2
  6
CONTINUOUS
 62
    7
 10
272.63810488812652
 20
95.639131500000004
 40
0.1999989999999999
 50
89.999926999999985
 51
175.914363
  0
ARC
  8
_0-4_A2
  6
CONTINUOUS
 62
    7
 10
273.66544788812649
 20
95.639131500000004
 40
0.1999989999999999
 50
4.085634999999999
 51
90.00003700000002
  0
ARC
  8
_0-4_A2
  6
CONTINUOUS
 62
    7
 10
260.1517768881265
 20
89.039033499999987
 40
14.499976999999997
 50
351.74824
 51
8.2518860000000202
  0
ARC
  8
_0-4_A2
  6
CONTINUOUS
 62
    7
 10
274.10587788812654
 20
87.015351500000008
 40
0.3999989999999999
 50
274.085619
 51
351.74838699999997
  0
ARC
  8
_0-4_A2
  6
CONTINUOUS
 62
    7
 10
274.10587788812654
 20
91.062715499999995
 40
0.3999989999999999
 50
8.2518860000000007
 51
85.914381000000005
  0
ARC
  8
_0-4_A2
  6
CONTINUOUS
 62
    7
 10
274.35392488812658
 20
91.608857500000013
 40
0.1999989999999999
 50
184.08563699999999
 51
245.51728700000001
  0
ARC
  8
_0-4_A2
  6
CONTINUOUS
 62
    7
 10
271.96329988812658
 20
91.817231500000005
 40
0.1999989999999999
 50
265.91441700000001
 51
355.91436499999997
  0
ARC
  8
_0-4_A2
  6
CONTINUOUS
 62
    7
 10
270.10197188812651
 20
88.239106499999991
 40
1.8499979999999998
 50
161.075422
 51
198.92466999999999
  0
ARC
  8
_0-4_A2
  6
CONTINUOUS
 62
    7
 10
268.6517768881265
 20
120.34629149999997
 40
3.9999769999999998
 50
0.000036
 51
89.999982000000002
  0
ARC
  8
_0-4_A2
  6
CONTINUOUS
 62
    7
 10
268.6517768881265
 20
120.34629149999997
 40
4.9999770000000003
 50
0.000036
 51
89.999982000000002
  0
LINE
  8
_0-4_A2
  6
CONTINUOUS
 62
    7
 10
266.47794888812649
 20
125.34623049999999
 11
268.6517768881265
 21
125.34623049999999
  0
LINE
  8
_0-4_A2
  6
CONTINUOUS
 62
    7
 10
266.47794888812649
 20
124.34629149999999
 11
268.6517768881265
 21
124.34629149999999
  0
LINE
  8
_0-4_A2
  6
CONTINUOUS
 62
    7
 10
272.65275288812654
 20
120.34629149999997
 11
272.65275288812654
 21
95.839082499999989
  0
LINE
  8
_0-4_A2
  6
CONTINUOUS
 62
    7
 10
273.65275288812654
 20
120.34629149999997
 11
273.65275288812654
 21
95.839082499999989
  0
ENDSEC
  0
EOF
