  0
SECTION
  2
HEADER
  9
$ACADVER
  1
AC1009
  9
$INSBASE
 10
0
 20
0
 30
0
  9
$EXTMIN
 10
0
 20
0
  9
$EXTMAX
 10
4200
 20
2970
  9
$LIMMIN
 10
0
 20
0
  9
$LIMMAX
 10
4200
 20
2970
  9
$LTSCALE
 40
10
  0
ENDSEC
  0
SECTION
  2
TABLES
  0
TABLE
  2
LTYPE
 70
     9
  0
LTYPE
  2
CONTINUOUS
 70
    64
  3
実線
 72
    65
 73
     0
 40
0.0
  0
LTYPE
  2
DASHED1
 70
    64
  3
--  --  --  --  --  --  --  --  
 72
    65
 73
     2
 40
2.5
 49
1.25
 49
-1.25
  0
LTYPE
  2
DASHED2
 70
    64
  3
----    ----    ----    ----    
 72
    65
 73
     2
 40
5.0
 49
2.5
 49
-2.5
  0
LTYPE
  2
DASHED3
 70
    64
  3
------  ------  ------  ------  
 72
    65
 73
     2
 40
5.0
 49
3.75
 49
-1.25
  0
LTYPE
  2
CENTER1
 70
    64
  3
----- - ----- - ----- - ----- - 
 72
    65
 73
     4
 40
10.0
 49
6.25
 49
-1.25
 49
1.25
 49
-1.25
  0
LTYPE
  2
CENTER2
 70
    64
  3
----------  --  ----------  --  
 72
    65
 73
     4
 40
20.0
 49
12.5
 49
-2.5
 49
2.5
 49
-2.5
  0
LTYPE
  2
PHANTOM1
 70
    64
  3
--- - - --- - - --- - - --- - - 
 72
    65
 73
     6
 40
10.0
 49
3.25
 49
-1.25
 49
1.25
 49
-1.25
 49
1.25
 49
-1.25
  0
LTYPE
  2
PHANTOM2
 70
    64
  3
--------  -  -  --------  -  -  
 72
    65
 73
     6
 40
20.0
 49
10.0
 49
-2.5
 49
1.25
 49
-2.5
 49
1.25
 49
-2.5
  0
LTYPE
  2
DOT
 70
    64
  3
-   -   -   -   -   -   -   -   
 72
    65
 73
     2
 40
2.5
 49
0.625
 49
-1.875
  0
LTYPE
  2
DUMMY
 70
    64
  3
ダミー
 72
    65
 73
     0
 40
0.0
  0
LTYPE
  2
RAND1
 70
    64
  3
ランダム線1
 72
    65
 73
     4
 40
10.0
 49
1.0
 49
-2.0
 49
3.0
 49
-4.0
  0
LTYPE
  2
RAND2
 70
    64
  3
ランダム線2
 72
    65
 73
     4
 40
14.0
 49
2.0
 49
-3.0
 49
4.0
 49
-5.0
  0
LTYPE
  2
RAND3
 70
    64
  3
ランダム線3
 72
    65
 73
     4
 40
18.0
 49
3.0
 49
-4.0
 49
5.0
 49
-6.0
  0
LTYPE
  2
RAND4
 70
    64
  3
ランダム線4
 72
    65
 73
     4
 40
22.0
 49
4.0
 49
-5.0
 49
6.0
 49
-7.0
  0
LTYPE
  2
RAND5
 70
    64
  3
ランダム線5
 72
    65
 73
     4
 40
26.0
 49
5.0
 49
-6.0
 49
7.0
 49
-8.0
  0
LTYPE
  2
LONG1
 70
    64
  3
----------  --  ----------  --  
 72
    65
 73
     4
 40
40.0
 49
32.5
 49
-2.5
 49
2.5
 49
-2.5
  0
LTYPE
  2
LONG2
 70
    64
  3
--------  -  -  --------  -  -  
 72
    65
 73
     6
 40
40.0
 49
30.0
 49
-2.5
 49
1.25
 49
-2.5
 49
1.25
 49
-2.5
  0
LTYPE
  2
LONG3
 70
    64
  3
+++++++++++++++..+++++++++++++++
 72
    65
 73
     2
 40
40.0
 49
37.5
 49
-2.5
  0
LTYPE
  2
LONG4
 70
    64
  3
+++++++++++++++..+++++++++++++++
 72
    65
 73
     2
 40
80.0
 49
75.0
 49
-5.0
  0
LTYPE
  2
LONG5
 70
    64
  3
----------  --  ----------  --  
 72
    65
 73
     4
 40
60.0
 49
37.5
 49
-7.5
 49
7.5
 49
-7.5
  0
LTYPE
  2
dashed
 70
   64
  3
-------   -------------   ------
 72
   65
 73
    2
 40
7.5
 49
6
 49
-1.5
  0
LTYPE
  2
dashed_spaced
 70
   64
  3
----        --------        ----
 72
   65
 73
    2
 40
12
 49
6
 49
-6
  0
LTYPE
  2
long_dashed_dotted
 70
   64
  3
------------- --- --------------
 72
   65
 73
    4
 40
15.25
 49
12
 49
-1.5
 49
0.25
 49
-1.5
  0
LTYPE
  2
long_dashed_double-dotted
 70
   64
  3
----------- --- --- ------------
 72
   65
 73
    6
 40
17
 49
12
 49
-1.5
 49
0.25
 49
-1.5
 49
0.25
 49
-1.5
  0
LTYPE
  2
long_dashed_triplicate-dotted
 70
   64
  3
--------- --- --- --- ----------
 72
   65
 73
    8
 40
18.75
 49
12
 49
-1.5
 49
0.25
 49
-1.5
 49
0.25
 49
-1.5
 49
0.25
 49
-1.5
  0
LTYPE
  2
dotted
 70
   64
  3
   -       -       -       -    
 72
   65
 73
    2
 40
1.75
 49
0.25
 49
-1.5
  0
LTYPE
  2
chain
 70
   64
  3
-------------- -- --------------
 72
   65
 73
    4
 40
18.5
 49
12
 49
-1.5
 49
3.5
 49
-1.5
  0
LTYPE
  2
chain_double_dash
 70
   64
  3
------------ -- -- -------------
 72
   65
 73
    6
 40
23.5
 49
12
 49
-1.5
 49
3.5
 49
-1.5
 49
3.5
 49
-1.5
  0
LTYPE
  2
dashed_dotted
 70
   64
  3
-----------     -     ----------
 72
   65
 73
    4
 40
9.25
 49
6
 49
-1.5
 49
0.25
 49
-1.5
  0
LTYPE
  2
double-dashed_dotted
 70
   64
  3
------   -----------   -   -----
 72
   65
 73
    6
 40
16.75
 49
6
 49
-1.5
 49
6
 49
-1.5
 49
0.25
 49
-1.5
  0
LTYPE
  2
dashed_double-dotted
 70
   64
  3
---------    -    -    ---------
 72
   65
 73
    6
 40
11
 49
6
 49
-1.5
 49
0.25
 49
-1.5
 49
0.25
 49
-1.5
  0
LTYPE
  2
double-dashed_double-dotted
 70
   64
  3
-----   ---------   -   -   ----
 72
   65
 73
    8
 40
18.5
 49
6
 49
-1.5
 49
6
 49
-1.5
 49
0.25
 49
-1.5
 49
0.25
 49
-1.5
  0
LTYPE
  2
dashed_triplicate-dotted
 70
   64
  3
-------    -    -    -    ------
 72
   65
 73
    8
 40
12.75
 49
6
 49
-1.5
 49
0.25
 49
-1.5
 49
0.25
 49
-1.5
 49
0.25
 49
-1.5
  0
LTYPE
  2
double-dashed_triplicate-dotted
 70
   64
  3
-----  ---------  -  -  -  -----
 72
   65
 73
   10
 40
20.25
 49
6
 49
-1.5
 49
6
 49
-1.5
 49
0.25
 49
-1.5
 49
0.25
 49
-1.5
 49
0.25
 49
-1.5
  0
LTYPE
  2
undefined
 70
   64
  3
--------------------------------
 72
   65
 73
    0
 40
0
  0
LTYPE
  2
_
 70
   64
  3
                                
 72
   65
 73
    0
 40
0
  0
LTYPE
  2
__18
 70
   64
  3
                                
 72
   65
 73
    0
 40
0
  0
LTYPE
  2
__19
 70
   64
  3
                                
 72
   65
 73
    0
 40
0
  0
LTYPE
  2
__20
 70
   64
  3
                                
 72
   65
 73
    0
 40
0
  0
LTYPE
  2
__21
 70
   64
  3
                                
 72
   65
 73
    0
 40
0
  0
LTYPE
  2
__22
 70
   64
  3
                                
 72
   65
 73
    0
 40
0
  0
LTYPE
  2
__23
 70
   64
  3
                                
 72
   65
 73
    0
 40
0
  0
LTYPE
  2
__24
 70
   64
  3
                                
 72
   65
 73
    0
 40
0
  0
LTYPE
  2
__25
 70
   64
  3
                                
 72
   65
 73
    0
 40
0
  0
LTYPE
  2
__26
 70
   64
  3
                                
 72
   65
 73
    0
 40
0
  0
LTYPE
  2
__27
 70
   64
  3
                                
 72
   65
 73
    0
 40
0
  0
LTYPE
  2
__28
 70
   64
  3
                                
 72
   65
 73
    0
 40
0
  0
LTYPE
  2
__29
 70
   64
  3
                                
 72
   65
 73
    0
 40
0
  0
LTYPE
  2
__30
 70
   64
  3
                                
 72
   65
 73
    0
 40
0
  0
LTYPE
  2
__31
 70
   64
  3
                                
 72
   65
 73
    0
 40
0
  0
LTYPE
  2
__32
 70
   64
  3
                                
 72
   65
 73
    0
 40
0
  0
ENDTAB
  0
TABLE
  2
STYLE
  5
3
100
AcDbSymbolTable
 70
     1
  0
STYLE
  5
10
100
AcDbSymbolTableRecord
100
AcDbTextStyleTableRecord
  2
STANDARD
 70
     0
 40
0.0
 41
1.0
 50
0.0
 71
     0
 42
0.2
  3
txt
  4
bigfont.shx
  0
STYLE
  5
26
100
AcDbSymbolTableRecord
100
AcDbTextStyleTableRecord
  2
TATEGAKI
 70
    68
 40
0.0
 41
1.0
 50
0.0
 71
     0
 42
1.0
  3
txt
  4
bigfont.shx
  0
ENDTAB
  0
TABLE
  2
LAYER
 70
   15
  0
LAYER
  2
_0-0_立面本体
 70
   64
 62
    7
  6
CONTINUOUS
  0
LAYER
  2
_0-3_断面__扉
 70
   64
 62
    7
  6
CONTINUOUS
  0
LAYER
  2
_0-4_背面本体
 70
   64
 62
    7
  6
CONTINUOUS
  0
LAYER
  2
_0-5_平面本体
 70
   64
 62
    7
  6
CONTINUOUS
  0
LAYER
  2
_0-6_平面扉
 70
   64
 62
    7
  6
CONTINUOUS
  0
LAYER
  2
_0-8_ラッチ立面__受け
 70
   64
 62
    7
  6
CONTINUOUS
  0
LAYER
  2
_0-9_ラッチ断面__受け
 70
   64
 62
    7
  6
CONTINUOUS
  0
LAYER
  2
_0-a_ラッチ平面受け
 70
   64
 62
    7
  6
CONTINUOUS
  0
LAYER
  2
_0-b_ラッチ断面__扉側
 70
   64
 62
    7
  6
CONTINUOUS
  0
LAYER
  2
_0-d_ラッチ平面__扉側
 70
   64
 62
    7
  6
CONTINUOUS
  0
LAYER
  2
_0-f_基準線
 70
   64
 62
    7
  6
CONTINUOUS
  0
LAYER
  2
_e-0_
 70
   64
 62
    7
  6
CONTINUOUS
  0
LAYER
  2
_f-0_
 70
   64
 62
    7
  6
CONTINUOUS
  0
LAYER
  2
_f-8_
 70
   64
 62
    7
  6
CONTINUOUS
  0
LAYER
  2
ADD_LINE
 70
   64
 62
    7
  6
CONTINUOUS
  0
ENDTAB
  0
ENDSEC
  0
SECTION
  2
BLOCKS
  0
ENDSEC
  0
SECTION
  2
ENTITIES
  0
LINE
  8
_0-4_背面本体
  6
CONTINUOUS
 62
    3
 10
670.82476271240261
 20
1340.2410513398288
 11
670.82476271240261
 21
730.24105133983016
  0
LINE
  8
_0-4_背面本体
  6
CONTINUOUS
 62
    3
 10
671.82476271240318
 20
1340.2410513398288
 11
1015.824762712403
 21
1340.2410513398288
  0
LINE
  8
_0-3_断面__扉
  6
CONTINUOUS
 62
    4
 10
322.82476271240255
 20
2545.7744603287765
 11
1372.8247627124028
 21
2545.7744603287765
  0
LINE
  8
_0-9_ラッチ断面__受け
  6
DASHED1
 62
    9
 10
2614.4728900719342
 20
1431.6985915197665
 11
2614.4728900719342
 21
1345.2410513398299
  0
LINE
  8
ADD_LINE
  6
DOT
 62
  250
 10
105.14567635813222
 20
20.517589292836078
 11
4205.1456763581327
 21
20.517589292836078
  0
LINE
  8
ADD_LINE
  6
DOT
 62
  250
 10
4205.1456763581327
 20
20.517589292836078
 11
4205.1456763581327
 21
2880.5175892928359
  0
LINE
  8
_0-f_基準線
  6
CONTINUOUS
 62
    4
 10
4127.7167019027483
 20
48.763213530655491
 11
87.716701902748468
 21
48.763213530655491
  0
LINE
  8
ADD_LINE
  6
DOT
 62
  250
 10
4127.7167019027483
 20
2880.5175892928359
 11
105.14567635813222
 21
2880.5175892928359
  0
LINE
  8
_0-f_基準線
  6
CONTINUOUS
 62
    4
 10
4127.7167019027483
 20
48.763213530655491
 11
4127.7167019027483
 21
2868.7632135306557
  0
LINE
  8
_0-f_基準線
  6
CONTINUOUS
 62
    4
 10
87.716701902748468
 20
2868.7632135306557
 11
4127.7167019027483
 21
2868.7632135306557
  0
LINE
  8
_0-f_基準線
  6
CONTINUOUS
 62
    4
 10
87.716701902748468
 20
2868.7632135306557
 11
87.716701902748468
 21
48.763213530655775
  0
LINE
  8
_0-3_断面__扉
  6
CONTINUOUS
 62
    4
 10
322.82476271240255
 20
2545.7744603287765
 11
322.82476271240255
 21
2204.2744603287765
  0
LINE
  8
_0-3_断面__扉
  6
CONTINUOUS
 62
    4
 10
334.82476271240216
 20
2545.7744603287765
 11
334.82476271240216
 21
2204.2744603287765
  0
LINE
  8
_0-3_断面__扉
  6
CONTINUOUS
 62
    4
 10
322.82476271240255
 20
1345.2410513398288
 11
322.82476271240255
 21
745.24105133982857
  0
LINE
  8
_0-3_断面__扉
  6
DASHED1
 62
    2
 10
334.82476271240216
 20
1345.2410513398288
 11
334.82476271240216
 21
745.24105133982857
  0
LINE
  8
_0-3_断面__扉
  6
CONTINUOUS
 62
    4
 10
322.82476271240255
 20
745.24105133982857
 11
328.32476271240267
 21
745.24105133982857
  0
LINE
  8
_0-3_断面__扉
  6
CONTINUOUS
 62
    4
 10
1372.8247627124028
 20
2204.2744603287765
 11
1372.8247627124028
 21
2545.7744603287765
  0
LINE
  8
_0-3_断面__扉
  6
CONTINUOUS
 62
    4
 10
1360.8247627124032
 20
2204.2744603287765
 11
1360.8247627124032
 21
2545.7744603287765
  0
LINE
  8
_0-3_断面__扉
  6
CONTINUOUS
 62
    4
 10
1372.8247627124026
 20
745.24105133982857
 11
1372.8247627124026
 21
1345.2410513398288
  0
LINE
  8
_0-3_断面__扉
  6
DASHED1
 62
    2
 10
1360.8247627124028
 20
745.24105133982857
 11
1360.8247627124028
 21
1345.2410513398288
  0
LINE
  8
_0-3_断面__扉
  6
CONTINUOUS
 62
    4
 10
1367.8247627124023
 20
745.24105133982857
 11
1372.8247627124026
 21
745.24105133982857
  0
LINE
  8
_0-3_断面__扉
  6
CONTINUOUS
 62
    4
 10
322.82476271240255
 20
2204.2744603287765
 11
1372.8247627124028
 21
2204.2744603287765
  0
LINE
  8
_0-3_断面__扉
  6
CONTINUOUS
 62
    4
 10
1372.8247627124026
 20
1345.2410513398288
 11
322.82476271240255
 21
1345.2410513398288
  0
LINE
  8
_0-3_断面__扉
  6
DASHED1
 62
    2
 10
1360.8247627124028
 20
1330.741051339829
 11
334.82476271240216
 21
1330.741051339829
  0
LINE
  8
_0-3_断面__扉
  6
DASHED1
 62
    2
 10
334.82476271240216
 20
760.24105133982857
 11
1360.8247627124028
 21
760.24105133982857
  0
LINE
  8
_0-3_断面__扉
  6
DASHED1
 62
    2
 10
328.32476271240267
 20
745.24105133982857
 11
1367.8247627124023
 21
745.24105133982857
  0
LINE
  8
_0-3_断面__扉
  6
CONTINUOUS
 62
    5
 10
2804.8913935730729
 20
1345.241051339829
 11
2804.8913935730729
 21
745.2410513398288
  0
LINE
  8
_0-3_断面__扉
  6
CONTINUOUS
 62
    5
 10
2816.8913935730729
 20
1345.241051339829
 11
2816.8913935730729
 21
745.2410513398288
  0
LINE
  8
_0-3_断面__扉
  6
CONTINUOUS
 62
    5
 10
3842.8913935730724
 20
1345.241051339829
 11
3842.8913935730724
 21
745.2410513398288
  0
LINE
  8
_0-3_断面__扉
  6
CONTINUOUS
 62
    5
 10
3854.8913935730729
 20
1345.241051339829
 11
3854.8913935730729
 21
745.2410513398288
  0
LINE
  8
_0-3_断面__扉
  6
CONTINUOUS
 62
    5
 10
2804.8913935730729
 20
1345.241051339829
 11
3854.8913935730729
 21
1345.241051339829
  0
LINE
  8
_0-3_断面__扉
  6
CONTINUOUS
 62
    2
 10
2816.8913935730729
 20
1260.241051339829
 11
3842.8913935730724
 21
1260.241051339829
  0
LINE
  8
_0-3_断面__扉
  6
CONTINUOUS
 62
    2
 10
2816.8913935730729
 20
797.2410513398288
 11
3842.8913935730724
 21
797.2410513398288
  0
LINE
  8
_0-3_断面__扉
  6
CONTINUOUS
 62
    4
 10
2816.8913935730729
 20
752.2410513398288
 11
3842.8913935730724
 21
752.2410513398288
  0
LINE
  8
_0-3_断面__扉
  6
CONTINUOUS
 62
    5
 10
2804.8913935730729
 20
745.2410513398288
 11
3854.8913935730729
 21
745.2410513398288
  0
LINE
  8
_0-a_ラッチ平面受け
  6
CONTINUOUS
 62
    4
 10
3826.8557674147045
 20
1260.2410513398313
 11
3842.8913935730702
 21
1276.2766774981967
  0
LINE
  8
_0-a_ラッチ平面受け
  6
CONTINUOUS
 62
    4
 10
3798.5714961672301
 20
1260.2410513398233
 11
3842.8913935730765
 21
1304.5609487456699
  0
LINE
  8
_0-a_ラッチ平面受け
  6
CONTINUOUS
 62
    4
 10
3770.2872249197662
 20
1260.2410513398258
 11
3842.8913935730729
 21
1332.8452199931327
  0
LINE
  8
_0-a_ラッチ平面受け
  6
CONTINUOUS
 62
    4
 10
3742.0029536723213
 20
1260.2410513398294
 11
3827.0029536723186
 21
1345.2410513398274
  0
LINE
  8
_0-a_ラッチ平面受け
  6
CONTINUOUS
 62
    4
 10
3713.7186824248565
 20
1260.2410513398317
 11
3798.7186824248551
 21
1345.2410513398299
  0
LINE
  8
_0-a_ラッチ平面受け
  6
CONTINUOUS
 62
    4
 10
3685.4344111773825
 20
1260.2410513398244
 11
3770.4344111773853
 21
1345.2410513398274
  0
LINE
  8
_0-a_ラッチ平面受け
  6
CONTINUOUS
 62
    4
 10
3657.1501399299186
 20
1260.2410513398272
 11
3742.1501399299213
 21
1345.2410513398297
  0
LINE
  8
_0-a_ラッチ平面受け
  6
CONTINUOUS
 62
    4
 10
3628.8658686824728
 20
1260.2410513398299
 11
3713.865868682471
 21
1345.2410513398281
  0
LINE
  8
_0-a_ラッチ平面受け
  6
CONTINUOUS
 62
    4
 10
3600.581597435008
 20
1260.2410513398322
 11
3685.5815974350066
 21
1345.2410513398303
  0
LINE
  8
_0-a_ラッチ平面受け
  6
CONTINUOUS
 62
    4
 10
3572.2973261875354
 20
1260.2410513398256
 11
3657.2973261875381
 21
1345.2410513398283
  0
LINE
  8
_0-a_ラッチ平面受け
  6
CONTINUOUS
 62
    4
 10
3544.0130549400805
 20
1260.2410513398288
 11
3629.0130549400782
 21
1345.2410513398262
  0
LINE
  8
_0-a_ラッチ平面受け
  6
CONTINUOUS
 62
    4
 10
3515.7287836926248
 20
1260.2410513398303
 11
3600.7287836926229
 21
1345.2410513398281
  0
LINE
  8
_0-a_ラッチ平面受け
  6
CONTINUOUS
 62
    4
 10
3487.4445124451608
 20
1260.2410513398328
 11
3572.4445124451585
 21
1345.2410513398308
  0
LINE
  8
_0-a_ラッチ平面受け
  6
CONTINUOUS
 62
    4
 10
3459.1602411976873
 20
1260.2410513398265
 11
3544.1602411976909
 21
1345.241051339829
  0
LINE
  8
_0-a_ラッチ平面受け
  6
CONTINUOUS
 62
    4
 10
3430.8759699502411
 20
1260.2410513398283
 11
3515.8759699502388
 21
1345.2410513398262
  0
LINE
  8
_0-a_ラッチ平面受け
  6
CONTINUOUS
 62
    4
 10
3402.5916987027767
 20
1260.2410513398308
 11
3487.5916987027744
 21
1345.2410513398288
  0
LINE
  8
_0-a_ラッチ平面受け
  6
CONTINUOUS
 62
    4
 10
3374.3074274553046
 20
1260.2410513398249
 11
3459.3074274553073
 21
1345.2410513398276
  0
LINE
  8
_0-a_ラッチ平面受け
  6
CONTINUOUS
 62
    4
 10
3346.0231562078397
 20
1260.2410513398274
 11
3431.0231562078433
 21
1345.2410513398303
  0
LINE
  8
_0-a_ラッチ平面受け
  6
CONTINUOUS
 62
    4
 10
3317.7388849603926
 20
1260.2410513398288
 11
3402.7388849603908
 21
1345.2410513398267
  0
LINE
  8
_0-a_ラッチ平面受け
  6
CONTINUOUS
 62
    4
 10
3289.4546137129286
 20
1260.2410513398313
 11
3374.4546137129273
 21
1345.241051339829
  0
LINE
  8
_0-a_ラッチ平面受け
  6
CONTINUOUS
 62
    4
 10
3261.1703424654569
 20
1260.241051339826
 11
3346.1703424654597
 21
1345.2410513398288
  0
LINE
  8
_0-a_ラッチ平面受け
  6
CONTINUOUS
 62
    4
 10
3232.8860712179925
 20
1260.2410513398285
 11
3317.8860712179953
 21
1345.2410513398313
  0
LINE
  8
_0-a_ラッチ平面受け
  6
CONTINUOUS
 62
    4
 10
3204.6017999705454
 20
1260.2410513398292
 11
3289.6017999705427
 21
1345.2410513398274
  0
LINE
  8
_0-a_ラッチ平面受け
  6
CONTINUOUS
 62
    4
 10
3176.3175287230806
 20
1260.2410513398317
 11
3261.3175287230787
 21
1345.2410513398297
  0
LINE
  8
_0-a_ラッチ平面受け
  6
CONTINUOUS
 62
    4
 10
3148.0332574756093
 20
1260.2410513398272
 11
3233.0332574756121
 21
1345.2410513398299
  0
LINE
  8
_0-a_ラッチ平面受け
  6
CONTINUOUS
 62
    4
 10
3119.7489862281454
 20
1260.2410513398297
 11
3204.7489862281481
 21
1345.2410513398326
  0
LINE
  8
_0-a_ラッチ平面受け
  6
CONTINUOUS
 62
    4
 10
3091.4647149806969
 20
1260.2410513398297
 11
3176.4647149806942
 21
1345.2410513398276
  0
LINE
  8
_0-a_ラッチ平面受け
  6
CONTINUOUS
 62
    4
 10
3063.180443733232
 20
1260.2410513398322
 11
3148.1804437332307
 21
1345.2410513398303
  0
LINE
  8
_0-a_ラッチ平面受け
  6
CONTINUOUS
 62
    4
 10
3034.8961724857617
 20
1260.2410513398281
 11
3119.8961724857645
 21
1345.2410513398308
  0
LINE
  8
_0-a_ラッチ平面受け
  6
CONTINUOUS
 62
    4
 10
3006.6119012382978
 20
1260.2410513398306
 11
3091.6119012382955
 21
1345.2410513398281
  0
LINE
  8
_0-a_ラッチ平面受け
  6
CONTINUOUS
 62
    4
 10
2978.3276299908488
 20
1260.2410513398301
 11
3063.327629990847
 21
1345.2410513398281
  0
LINE
  8
_0-a_ラッチ平面受け
  6
CONTINUOUS
 62
    4
 10
2950.0433587433844
 20
1260.2410513398326
 11
3035.0433587433826
 21
1345.2410513398306
  0
LINE
  8
_0-a_ラッチ平面受け
  6
CONTINUOUS
 62
    4
 10
2921.7590874959141
 20
1260.241051339829
 11
3006.7590874959169
 21
1345.2410513398319
  0
LINE
  8
_0-a_ラッチ平面受け
  6
CONTINUOUS
 62
    4
 10
2893.4748162484652
 20
1260.2410513398283
 11
2978.4748162484629
 21
1345.2410513398262
  0
LINE
  8
_0-a_ラッチ平面受け
  6
CONTINUOUS
 62
    4
 10
2865.1905450010008
 20
1260.2410513398306
 11
2950.1905450009985
 21
1345.2410513398285
  0
LINE
  8
_0-a_ラッチ平面受け
  6
CONTINUOUS
 62
    4
 10
2836.9062737535305
 20
1260.2410513398276
 11
2921.9062737535341
 21
1345.2410513398306
  0
LINE
  8
_0-a_ラッチ平面受け
  6
CONTINUOUS
 62
    4
 10
2816.8913935730715
 20
1268.5104424068349
 11
2893.6220025060697
 21
1345.2410513398331
  0
LINE
  8
_0-a_ラッチ平面受け
  6
CONTINUOUS
 62
    4
 10
2816.8913935730743
 20
1296.7947136542861
 11
2865.3377312586148
 21
1345.2410513398265
  0
LINE
  8
_0-a_ラッチ平面受け
  6
CONTINUOUS
 62
    4
 10
2816.8913935730724
 20
1325.0789849017508
 11
2837.0534600111504
 21
1345.241051339829
  0
LINE
  8
_0-a_ラッチ平面受け
  6
CONTINUOUS
 62
    4
 10
3827.9726498690047
 20
752.2410513398222
 11
3842.8913935730774
 21
767.15979504389508
  0
LINE
  8
_0-a_ラッチ平面受け
  6
CONTINUOUS
 62
    4
 10
3799.6883786215403
 20
752.24105133982448
 11
3842.8913935730729
 21
795.44406629135721
  0
LINE
  8
_0-a_ラッチ平面受け
  6
CONTINUOUS
 62
    4
 10
3771.4041073740959
 20
752.24105133982834
 11
3816.4041073740941
 21
797.24105133982652
  0
LINE
  8
_0-a_ラッチ平面受け
  6
CONTINUOUS
 62
    4
 10
3743.1198361266315
 20
752.24105133983039
 11
3788.1198361266297
 21
797.24105133982902
  0
LINE
  8
_0-a_ラッチ平面受け
  6
CONTINUOUS
 62
    4
 10
3714.8355648791575
 20
752.24105133982311
 11
3759.8355648791607
 21
797.24105133982664
  0
LINE
  8
_0-a_ラッチ平面受け
  6
CONTINUOUS
 62
    4
 10
3686.5512936316927
 20
752.24105133982573
 11
3731.5512936316913
 21
797.24105133982379
  0
LINE
  8
_0-a_ラッチ平面受け
  6
CONTINUOUS
 62
    4
 10
3658.2670223842478
 20
752.2410513398288
 11
3703.2670223842455
 21
797.24105133982686
  0
LINE
  8
_0-a_ラッチ平面受け
  6
CONTINUOUS
 62
    4
 10
3629.9827511367834
 20
752.24105133983107
 11
3674.9827511367816
 21
797.24105133982925
  0
LINE
  8
_0-a_ラッチ平面受け
  6
CONTINUOUS
 62
    4
 10
3601.6984798893099
 20
752.24105133982425
 11
3646.6984798893126
 21
797.24105133982732
  0
LINE
  8
_0-a_ラッチ平面受け
  6
CONTINUOUS
 62
    4
 10
3573.4142086418637
 20
752.24105133982675
 11
3618.4142086418619
 21
797.24105133982504
  0
LINE
  8
_0-a_ラッチ平面受け
  6
CONTINUOUS
 62
    4
 10
3545.1299373943993
 20
752.24105133982902
 11
3590.1299373943975
 21
797.24105133982743
  0
LINE
  8
_0-a_ラッチ平面受け
  6
CONTINUOUS
 62
    4
 10
3516.8456661469317
 20
752.241051339828
 11
3561.8456661469299
 21
797.24105133982584
  0
LINE
  8
_0-a_ラッチ平面受け
  6
CONTINUOUS
 62
    4
 10
3488.5613948994619
 20
752.24105133982516
 11
3533.5613948994655
 21
797.24105133982845
  0
LINE
  8
_0-a_ラッチ平面受け
  6
CONTINUOUS
 62
    4
 10
3460.2771236520152
 20
752.24105133982698
 11
3505.2771236520138
 21
797.2410513398255
  0
LINE
  8
_0-a_ラッチ平面受け
  6
CONTINUOUS
 62
    4
 10
3431.9928524045512
 20
752.24105133982959
 11
3476.9928524045499
 21
797.24105133982789
  0
LINE
  8
_0-a_ラッチ平面受け
  6
CONTINUOUS
 62
    4
 10
3403.7085811570791
 20
752.24105133982379
 11
3448.7085811570818
 21
797.24105133982698
  0
LINE
  8
_0-a_ラッチ平面受け
  6
CONTINUOUS
 62
    4
 10
3375.4243099096147
 20
752.24105133982618
 11
3420.4243099096179
 21
797.24105133982959
  0
LINE
  8
_0-a_ラッチ平面受け
  6
CONTINUOUS
 62
    4
 10
3347.140038662168
 20
752.24105133982766
 11
3392.1400386621662
 21
797.24105133982607
  0
LINE
  8
_0-a_ラッチ平面受け
  6
CONTINUOUS
 62
    4
 10
3318.8557674147032
 20
752.24105133983005
 11
3363.8557674147018
 21
797.24105133982834
  0
LINE
  8
_0-a_ラッチ平面受け
  6
CONTINUOUS
 62
    4
 10
3290.571496167231
 20
752.2410513398247
 11
3335.5714961672347
 21
797.241051339828
  0
LINE
  8
_0-a_ラッチ平面受け
  6
CONTINUOUS
 62
    4
 10
3262.2872249197671
 20
752.24105133982732
 11
3307.2872249197707
 21
797.24105133983061
  0
LINE
  8
_0-a_ラッチ平面受け
  6
CONTINUOUS
 62
    4
 10
3234.0029536723195
 20
752.241051339828
 11
3279.0029536723181
 21
797.24105133982652
  0
LINE
  8
_0-a_ラッチ平面受け
  6
CONTINUOUS
 62
    4
 10
3205.7186824248547
 20
752.24105133983039
 11
3250.7186824248537
 21
797.2410513398288
  0
LINE
  8
_0-a_ラッチ平面受け
  6
CONTINUOUS
 62
    4
 10
3177.4344111773834
 20
752.24105133982573
 11
3222.4344111773871
 21
797.24105133982914
  0
LINE
  8
_0-a_ラッチ平面受け
  6
CONTINUOUS
 62
    4
 10
3149.1501399299199
 20
752.24105133982834
 11
3194.1501399299177
 21
797.24105133982629
  0
LINE
  8
_0-a_ラッチ平面受け
  6
CONTINUOUS
 62
    4
 10
3120.8658686824715
 20
752.24105133982845
 11
3165.8658686824696
 21
797.24105133982686
  0
LINE
  8
_0-a_ラッチ平面受け
  6
CONTINUOUS
 62
    4
 10
3092.5815974350075
 20
752.24105133983084
 11
3137.5815974350052
 21
797.24105133982925
  0
LINE
  8
_0-a_ラッチ平面受け
  6
CONTINUOUS
 62
    4
 10
3064.2973261875363
 20
752.24105133982675
 11
3109.2973261875395
 21
797.24105133983016
  0
LINE
  8
_0-a_ラッチ平面受け
  6
CONTINUOUS
 62
    4
 10
3036.0130549400819
 20
752.24105133983005
 11
3081.0130549400801
 21
797.241051339828
  0
LINE
  8
_0-a_ラッチ平面受け
  6
CONTINUOUS
 62
    4
 10
3007.7287836926234
 20
752.24105133982902
 11
3052.7287836926216
 21
797.24105133982732
  0
LINE
  8
_0-a_ラッチ平面受け
  6
CONTINUOUS
 62
    4
 10
2979.444512445159
 20
752.2410513398313
 11
3024.4445124451572
 21
797.24105133982959
  0
LINE
  8
_0-a_ラッチ平面受け
  6
CONTINUOUS
 62
    4
 10
2951.1602411976891
 20
752.24105133982789
 11
2996.1602411976923
 21
797.24105133983118
  0
LINE
  8
_0-a_ラッチ平面受け
  6
CONTINUOUS
 62
    4
 10
2922.8759699502393
 20
752.24105133982698
 11
2967.8759699502379
 21
797.24105133982538
  0
LINE
  8
_0-a_ラッチ平面受け
  6
CONTINUOUS
 62
    4
 10
2894.5916987027753
 20
752.24105133982948
 11
2939.591698702774
 21
797.24105133982777
  0
LINE
  8
_0-a_ラッチ平面受け
  6
CONTINUOUS
 62
    4
 10
2866.3074274553055
 20
752.24105133982618
 11
2911.3074274553086
 21
797.24105133982959
  0
LINE
  8
_0-a_ラッチ平面受け
  6
CONTINUOUS
 62
    4
 10
2838.0231562078415
 20
752.2410513398288
 11
2883.0231562078452
 21
797.24105133983221
  0
LINE
  8
_0-a_ラッチ平面受け
  6
CONTINUOUS
 62
    4
 10
2816.8913935730743
 20
759.39355995251037
 11
2854.7388849603894
 21
797.24105133982573
  0
LINE
  8
_0-a_ラッチ平面受け
  6
CONTINUOUS
 62
    4
 10
2816.8913935730734
 20
787.67783119997579
 11
2826.4546137129254
 21
797.24105133982811
  0
LINE
  8
_0-4_背面本体
  6
CONTINUOUS
 62
    3
 10
1941.8570920036445
 20
1340.2410513398299
 11
1929.8570920036443
 21
1340.2410513398299
  0
LINE
  8
_0-4_背面本体
  6
CONTINUOUS
 62
    3
 10
1929.8570920036443
 20
760.24105133982959
 11
1929.8570920036443
 21
1340.2410513398299
  0
LINE
  8
_0-4_背面本体
  6
CONTINUOUS
 62
    3
 10
1941.8570920036445
 20
760.24105133982959
 11
1941.8570920036445
 21
1340.2410513398299
  0
LINE
  8
_0-4_背面本体
  6
DASHED1
 62
    9
 10
1941.8570920036445
 20
1294.7410579382255
 11
1941.8570920036445
 21
1245.7410447414345
  0
LINE
  8
_0-4_背面本体
  6
DASHED1
 62
    9
 10
1941.8570920036445
 20
1294.7410579382255
 11
1943.857395529827
 21
1294.7410579382255
  0
LINE
  8
_0-4_背面本体
  6
DASHED1
 62
    9
 10
1941.8570920036445
 20
1245.7410447414345
 11
1943.857395529827
 21
1245.7410447414345
  0
LINE
  8
_0-4_背面本体
  6
DASHED1
 62
    9
 10
1944.8570524132728
 20
1275.7406488377182
 11
1956.8573889314316
 21
1275.7406488377182
  0
LINE
  8
_0-4_背面本体
  6
DASHED1
 62
    9
 10
1944.8570524132728
 20
1264.7409589622961
 11
1956.8573889314316
 21
1264.7409589622961
  0
LINE
  8
_0-4_背面本体
  6
DASHED1
 62
    9
 10
1944.8570524132728
 20
1293.7409061751338
 11
1944.8570524132728
 21
1246.7404541850578
  0
ARC
  8
_0-4_背面本体
  6
DASHED1
 62
    9
 10
1943.857395529827
 20
1293.7409061751338
 40
0.9999999524773778
 50
0
 51
90
  0
ARC
  8
_0-4_背面本体
  6
DASHED1
 62
    9
 10
1943.857395529827
 20
1246.7404541850578
 40
0.9999999524773778
 50
270
 51
0
  0
LINE
  8
_0-4_背面本体
  6
DASHED1
 62
    9
 10
1941.8570920036445
 20
854.74105793822468
 11
1941.8570920036445
 21
805.74104474143371
  0
LINE
  8
_0-4_背面本体
  6
DASHED1
 62
    9
 10
1941.8570920036445
 20
854.74105793822468
 11
1943.857395529827
 21
854.74105793822468
  0
LINE
  8
_0-4_背面本体
  6
DASHED1
 62
    9
 10
1941.8570920036445
 20
805.74104474143371
 11
1943.857395529827
 21
805.74104474143371
  0
LINE
  8
_0-4_背面本体
  6
DASHED1
 62
    9
 10
1944.8570524132728
 20
835.74064883771802
 11
1956.8573889314316
 21
835.74064883771802
  0
LINE
  8
_0-4_背面本体
  6
DASHED1
 62
    9
 10
1944.8570524132728
 20
824.74095896229539
 11
1956.8573889314316
 21
824.74095896229539
  0
LINE
  8
_0-4_背面本体
  6
DASHED1
 62
    9
 10
1944.8570524132728
 20
853.74090617513331
 11
1944.8570524132728
 21
806.74045418505716
  0
ARC
  8
_0-4_背面本体
  6
DASHED1
 62
    9
 10
1943.857395529827
 20
853.74090617513331
 40
0.9999999524773778
 50
0
 51
90
  0
ARC
  8
_0-4_背面本体
  6
DASHED1
 62
    9
 10
1943.857395529827
 20
806.74045418505716
 40
0.9999999524773778
 50
270
 51
0
  0
LINE
  8
_0-4_背面本体
  6
DASHED1
 62
    9
 10
1976.587250629067
 20
1265.2407874040193
 11
1976.587250629067
 21
1245.241463739534
  0
LINE
  8
_0-4_背面本体
  6
DASHED1
 62
    9
 10
1966.5867227574453
 20
1255.2407544120424
 11
1986.5872836210432
 21
1255.2407544120424
  0
LINE
  8
_0-4_背面本体
  6
DASHED1
 62
    9
 10
1976.587250629067
 20
1295.2408863799485
 11
1976.587250629067
 21
1275.2410678358178
  0
LINE
  8
_0-4_背面本体
  6
DASHED1
 62
    9
 10
1966.5867227574453
 20
1285.240605948149
 11
1986.5872836210432
 21
1285.240605948149
  0
LINE
  8
_0-4_背面本体
  6
DASHED1
 62
    9
 10
1996.587316613019
 20
1277.2406290425324
 11
1996.587316613019
 21
1263.240731317659
  0
LINE
  8
_0-4_背面本体
  6
DASHED1
 62
    9
 10
1955.587032882023
 20
1277.2406290425324
 11
1955.587032882023
 21
1275.7406488377182
  0
LINE
  8
_0-4_背面本体
  6
DASHED1
 62
    9
 10
1986.5872836210432
 20
1293.2405828537657
 11
1966.5867227574453
 21
1293.2405828537657
  0
LINE
  8
_0-4_背面本体
  6
DASHED1
 62
    9
 10
1986.5872836210432
 20
1247.2407775064257
 11
1966.5867227574453
 21
1247.2407775064257
  0
LINE
  8
_0-4_背面本体
  6
DASHED1
 62
    9
 10
1989.0879104685941
 20
1249.7409094743318
 11
1989.0879104685941
 21
1256.8557941343819
  0
LINE
  8
_0-4_背面本体
  6
DASHED1
 62
    9
 10
1964.0870856691856
 20
1249.7409094743318
 11
1964.0870856691856
 21
1260.2407709080307
  0
LINE
  8
_0-4_背面本体
  6
DASHED1
 62
    9
 10
1989.0879104685941
 20
1283.6260611054549
 11
1989.0879104685941
 21
1290.740203446038
  0
LINE
  8
_0-4_背面本体
  6
DASHED1
 62
    9
 10
1964.0870856691856
 20
1280.2405894521609
 11
1964.0870856691856
 21
1290.740203446038
  0
LINE
  8
_0-4_背面本体
  6
DASHED1
 62
    9
 10
1955.587032882023
 20
1264.7409589622961
 11
1955.587032882023
 21
1263.240731317659
  0
LINE
  8
_0-4_背面本体
  6
DASHED1
 62
    9
 10
1996.587316613019
 20
1263.240731317659
 11
1992.2303962160606
 21
1261.4977652070172
  0
LINE
  8
_0-4_背面本体
  6
DASHED1
 62
    9
 10
1996.587316613019
 20
1277.2406290425324
 11
1992.2303962160606
 21
1278.9835951531745
  0
LINE
  8
_0-4_背面本体
  6
DASHED1
 62
    9
 10
1961.0871252595566
 20
1263.240731317659
 11
1955.587032882023
 21
1263.240731317659
  0
LINE
  8
_0-4_背面本体
  6
DASHED1
 62
    9
 10
1961.0871252595566
 20
1277.2406290425324
 11
1955.587032882023
 21
1277.2406290425324
  0
ARC
  8
_0-4_背面本体
  6
DASHED1
 62
    9
 10
1966.5867227574453
 20
1290.740203446038
 40
2.4999997905782751
 50
90
 51
180
  0
ARC
  8
_0-4_背面本体
  6
DASHED1
 62
    9
 10
1986.5872836210432
 20
1290.740203446038
 40
2.4999997905782751
 50
0
 51
90
  0
ARC
  8
_0-4_背面本体
  6
DASHED1
 62
    9
 10
1986.5872836210432
 20
1249.7409094743318
 40
2.4999997905782751
 50
270
 51
0
  0
ARC
  8
_0-4_背面本体
  6
DASHED1
 62
    9
 10
1966.5867227574453
 20
1249.7409094743318
 40
2.4999997905782751
 50
180
 51
270
  0
CIRCLE
  8
_0-4_背面本体
  6
DASHED1
 62
    9
 10
1976.587250629067
 20
1255.2405069722199
 40
4.4999995747128052
  0
CIRCLE
  8
_0-4_背面本体
  6
DASHED1
 62
    9
 10
1976.587250629067
 20
1285.2408533879715
 40
4.4999995747128052
  0
CIRCLE
  8
_0-4_背面本体
  6
DASHED1
 62
    9
 10
1976.587250629067
 20
1270.2410513398297
 40
4.4999995747128052
  0
CIRCLE
  8
_0-4_背面本体
  6
DASHED1
 62
    9
 10
1956.8573889314316
 20
1270.2410513398297
 40
2.4999997905782751
  0
ARC
  8
_0-4_背面本体
  6
DASHED1
 62
    9
 10
1961.0871252595566
 20
1260.2407709080307
 40
2.9999997970220215
 50
0
 51
90
  0
ARC
  8
_0-4_背面本体
  6
DASHED1
 62
    9
 10
1961.0871252595566
 20
1280.2405894521609
 40
2.9999997970220215
 50
270
 51
0
  0
ARC
  8
_0-4_背面本体
  6
DASHED1
 62
    9
 10
1994.0871846451141
 20
1256.8557941343819
 40
4.9999995811565502
 50
111.80140686035157
 51
180
  0
ARC
  8
_0-4_背面本体
  6
DASHED1
 62
    9
 10
1994.0871846451141
 20
1283.6260611054549
 40
4.9999995811565502
 50
180
 51
248.19857788085937
  0
LINE
  8
_0-4_背面本体
  6
DASHED1
 62
    9
 10
1976.587250629067
 20
825.24078740401864
 11
1976.587250629067
 21
805.2414637395334
  0
LINE
  8
_0-4_背面本体
  6
DASHED1
 62
    9
 10
1966.5867227574453
 20
815.24075441204172
 11
1986.5872836210432
 21
815.24075441204172
  0
LINE
  8
_0-4_背面本体
  6
DASHED1
 62
    9
 10
1976.587250629067
 20
855.24088637994759
 11
1976.587250629067
 21
835.2410678358176
  0
LINE
  8
_0-4_背面本体
  6
DASHED1
 62
    9
 10
1966.5867227574453
 20
845.24060594814841
 11
1986.5872836210432
 21
845.24060594814841
  0
LINE
  8
_0-4_背面本体
  6
DASHED1
 62
    9
 10
1996.587316613019
 20
837.24062904253219
 11
1996.587316613019
 21
823.2407313176584
  0
LINE
  8
_0-4_背面本体
  6
DASHED1
 62
    9
 10
1955.587032882023
 20
837.24062904253219
 11
1955.587032882023
 21
835.74064883771802
  0
LINE
  8
_0-4_背面本体
  6
DASHED1
 62
    9
 10
1986.5872836210432
 20
853.24058285376486
 11
1966.5867227574453
 21
853.24058285376486
  0
LINE
  8
_0-4_背面本体
  6
DASHED1
 62
    9
 10
1986.5872836210432
 20
807.24077750642504
 11
1966.5867227574453
 21
807.24077750642504
  0
LINE
  8
_0-4_背面本体
  6
DASHED1
 62
    9
 10
1989.0879104685941
 20
809.74090947433114
 11
1989.0879104685941
 21
816.85579413438131
  0
LINE
  8
_0-4_背面本体
  6
DASHED1
 62
    9
 10
1964.0870856691856
 20
809.74090947433114
 11
1964.0870856691856
 21
820.24077090803029
  0
LINE
  8
_0-4_背面本体
  6
DASHED1
 62
    9
 10
1989.0879104685941
 20
843.62606110545448
 11
1989.0879104685941
 21
850.74020344603718
  0
LINE
  8
_0-4_背面本体
  6
DASHED1
 62
    9
 10
1964.0870856691856
 20
840.24058945216029
 11
1964.0870856691856
 21
850.74020344603718
  0
LINE
  8
_0-4_背面本体
  6
DASHED1
 62
    9
 10
1955.587032882023
 20
824.74095896229539
 11
1955.587032882023
 21
823.2407313176584
  0
LINE
  8
_0-4_背面本体
  6
DASHED1
 62
    9
 10
1996.587316613019
 20
823.2407313176584
 11
1992.2303962160606
 21
821.49776520701675
  0
LINE
  8
_0-4_背面本体
  6
DASHED1
 62
    9
 10
1996.587316613019
 20
837.24062904253219
 11
1992.2303962160606
 21
838.98359515317383
  0
LINE
  8
_0-4_背面本体
  6
DASHED1
 62
    9
 10
1961.0871252595566
 20
823.2407313176584
 11
1955.587032882023
 21
823.2407313176584
  0
LINE
  8
_0-4_背面本体
  6
DASHED1
 62
    9
 10
1961.0871252595566
 20
837.24062904253219
 11
1955.587032882023
 21
837.24062904253219
  0
ARC
  8
_0-4_背面本体
  6
DASHED1
 62
    9
 10
1966.5867227574453
 20
850.74020344603718
 40
2.4999997905782751
 50
90
 51
180
  0
ARC
  8
_0-4_背面本体
  6
DASHED1
 62
    9
 10
1986.5872836210432
 20
850.74020344603718
 40
2.4999997905782751
 50
0
 51
90
  0
ARC
  8
_0-4_背面本体
  6
DASHED1
 62
    9
 10
1986.5872836210432
 20
809.74090947433114
 40
2.4999997905782751
 50
270
 51
0
  0
ARC
  8
_0-4_背面本体
  6
DASHED1
 62
    9
 10
1966.5867227574453
 20
809.74090947433114
 40
2.4999997905782751
 50
180
 51
270
  0
CIRCLE
  8
_0-4_背面本体
  6
DASHED1
 62
    9
 10
1976.587250629067
 20
815.24050697221969
 40
4.4999995747128052
  0
CIRCLE
  8
_0-4_背面本体
  6
DASHED1
 62
    9
 10
1976.587250629067
 20
845.24085338797112
 40
4.4999995747128052
  0
CIRCLE
  8
_0-4_背面本体
  6
DASHED1
 62
    9
 10
1976.587250629067
 20
830.24105133982925
 40
4.4999995747128052
  0
CIRCLE
  8
_0-4_背面本体
  6
DASHED1
 62
    9
 10
1956.8573889314316
 20
830.24105133982925
 40
2.4999997905782751
  0
ARC
  8
_0-4_背面本体
  6
DASHED1
 62
    9
 10
1961.0871252595566
 20
820.24077090803029
 40
2.9999997970220215
 50
0
 51
90
  0
ARC
  8
_0-4_背面本体
  6
DASHED1
 62
    9
 10
1961.0871252595566
 20
840.24058945216029
 40
2.9999997970220215
 50
270
 51
0
  0
ARC
  8
_0-4_背面本体
  6
DASHED1
 62
    9
 10
1994.0871846451141
 20
816.85579413438131
 40
4.9999995811565502
 50
111.80140686035157
 51
180
  0
ARC
  8
_0-4_背面本体
  6
DASHED1
 62
    9
 10
1994.0871846451141
 20
843.62606110545448
 40
4.9999995811565502
 50
180
 51
248.19857788085937
  0
LINE
  8
_0-4_背面本体
  6
CENTER2
 62
    9
 10
2004.1274618739487
 20
830.24105133982925
 11
1937.7253976117358
 21
830.24105133982925
  0
LINE
  8
_0-4_背面本体
  6
CENTER2
 62
    9
 10
2004.1274618739487
 20
1270.2410513398297
 11
1937.7253976117358
 21
1270.2410513398297
  0
LINE
  8
_0-4_背面本体
  6
CENTER2
 62
    9
 10
1956.8573889314316
 20
1274.1784199562946
 11
1956.8573889314316
 21
1265.9920366398362
  0
LINE
  8
_0-5_平面本体
  6
CONTINUOUS
 62
    4
 10
1943.4570920036439
 20
774.2410513398297
 11
1943.4570920036439
 21
732.24105133982959
  0
LINE
  8
_0-5_平面本体
  6
CONTINUOUS
 62
    4
 10
1942.9570920036439
 20
774.74105133982959
 11
1942.6570920036442
 21
774.74105133982959
  0
LINE
  8
_0-5_平面本体
  6
CONTINUOUS
 62
    4
 10
1942.1570920036447
 20
765.9655511396694
 11
1942.1570920036447
 21
773.31655153998997
  0
LINE
  8
_0-5_平面本体
  6
CONTINUOUS
 62
    4
 10
1942.1570920036447
 20
760.54105133982955
 11
1942.1570920036447
 21
764.71655153998983
  0
LINE
  8
_0-5_平面本体
  6
CONTINUOUS
 62
    4
 10
1942.1570920036447
 20
756.79143867805476
 11
1942.1570920036447
 21
732.24105133982959
  0
LINE
  8
_0-5_平面本体
  6
CONTINUOUS
 62
    4
 10
1941.4570920036435
 20
731.54105133982955
 11
1930.6856634322161
 21
731.54105133982955
  0
LINE
  8
_0-5_平面本体
  6
CONTINUOUS
 62
    4
 10
1930.0235012700527
 20
732.01402431280246
 11
1928.8946718560105
 21
735.30644343709377
  0
LINE
  8
_0-5_平面本体
  6
CONTINUOUS
 62
    4
 10
1928.793771540324
 20
731.59240269118095
 11
1927.3111460576983
 21
735.91672701550521
  0
LINE
  8
_0-5_平面本体
  6
CONTINUOUS
 62
    4
 10
1929.1570920036433
 20
760.54105133982955
 11
1929.1570920036433
 21
765.44105133982941
  0
LINE
  8
_0-5_平面本体
  6
CONTINUOUS
 62
    4
 10
1941.8570920036445
 20
760.24105133982959
 11
1929.4570920036444
 21
760.24105133982959
  0
LINE
  8
_0-5_平面本体
  6
CONTINUOUS
 62
    4
 10
1927.5570920036443
 20
759.59066400160406
 11
1927.5570920036443
 21
765.44105133982941
  0
LINE
  8
_0-5_平面本体
  6
CONTINUOUS
 62
    4
 10
1941.2087470890719
 20
757.79010366299701
 11
1928.5054369182153
 21
758.59199901666204
  0
LINE
  8
_0-5_平面本体
  6
CONTINUOUS
 62
    4
 10
1930.6856634322161
 20
730.24105133982959
 11
1941.4570920036435
 21
730.24105133982959
  0
ARC
  8
_0-5_平面本体
  6
CONTINUOUS
 62
    4
 10
1941.4570920036435
 20
732.24105133982959
 40
0.7
 50
270
 51
0
  0
ARC
  8
_0-5_平面本体
  6
CONTINUOUS
 62
    4
 10
1942.9570920036439
 20
774.2410513398297
 40
0.4999999999999998
 50
0
 51
90
  0
ARC
  8
_0-5_平面本体
  6
CONTINUOUS
 62
    4
 10
1942.6570920036442
 20
773.94105133982964
 40
0.8000000000000001
 50
89.999999999999971
 51
231.31781254650664
  0
ARC
  8
_0-5_平面本体
  6
CONTINUOUS
 62
    4
 10
1942.6570920036442
 20
765.3410513398295
 40
0.8000000000000001
 50
128.68218745349335
 51
231.31781254650664
  0
ARC
  8
_0-5_平面本体
  6
CONTINUOUS
 62
    4
 10
1941.8570920036445
 20
760.54105133982955
 40
0.2999999999999999
 50
270
 51
0
  0
ARC
  8
_0-5_平面本体
  6
CONTINUOUS
 62
    4
 10
1941.1570920036438
 20
756.79143867805476
 40
0.9999999999999997
 50
359.99999999999994
 51
87.039063865836212
  0
ARC
  8
_0-5_平面本体
  6
CONTINUOUS
 62
    4
 10
1928.357092003644
 20
765.44105133982941
 40
0.8000000000000001
 50
0.0000000000000254
 51
179.99999999999997
  0
ARC
  8
_0-5_平面本体
  6
CONTINUOUS
 62
    4
 10
1930.6856634322161
 20
732.24105133982959
 40
0.7
 50
198.92464441604994
 51
270
  0
ARC
  8
_0-5_平面本体
  6
CONTINUOUS
 62
    4
 10
1929.0838610451992
 20
735.37130830195849
 40
0.2
 50
133.54896276822287
 51
198.92464441605295
  0
ARC
  8
_0-5_平面本体
  6
CONTINUOUS
 62
    4
 10
1928.2570920036441
 20
736.24105133982936
 40
0.9999999999999997
 50
313.54896276821995
 51
198.92464441604971
  0
ARC
  8
_0-5_平面本体
  6
CONTINUOUS
 62
    4
 10
1929.4570920036444
 20
760.54105133982955
 40
0.2999999999999999
 50
179.99999999999997
 51
270
  0
ARC
  8
_0-5_平面本体
  6
CONTINUOUS
 62
    4
 10
1928.5570920036439
 20
759.59066400160406
 40
0.9999999999999997
 50
180
 51
267.03906386583628
  0
LINE
  8
ADD_LINE
  6
DOT
 62
    9
 10
1929.3455601201503
 20
766.24105133982936
 11
1927.2398654778435
 21
766.24105133982936
  0
LINE
  8
ADD_LINE
  6
DOT
 62
    9
 10
1927.5570920036443
 20
759.59066400160406
 11
1927.5570920036443
 21
758.64105133982673
  0
LINE
  8
ADD_LINE
  6
DOT
 62
    9
 10
1928.5054369182153
 20
758.59199901666204
 11
1927.5570920036443
 21
758.64105133982673
  0
LINE
  8
ADD_LINE
  6
DOT
 62
    9
 10
1930.7064105819313
 20
737.24105133982959
 11
1925.5850035696498
 21
737.24105133982959
  0
LINE
  8
ADD_LINE
  6
DOT
 62
    7
 10
1941.2108013059096
 20
765.34105133982973
 11
1942.4383229062698
 21
765.34105133982973
  0
ARC
  8
_0-5_平面本体
  6
CONTINUOUS
 62
    4
 10
1941.4570920036435
 20
732.24105133982959
 40
1.9999999999999995
 50
269.99999999999994
 51
359.99999999999994
  0
ARC
  8
_0-5_平面本体
  6
CONTINUOUS
 62
    4
 10
1930.6856634322161
 20
732.24105133982959
 40
1.9999999999999995
 50
198.92464441605045
 51
270
  0
LINE
  8
_0-9_ラッチ断面__受け
  6
CONTINUOUS
 62
    4
 10
1979.8164462322185
 20
1128.0788812305549
 11
1979.8164462322185
 21
1088.0788812305549
  0
LINE
  8
_0-9_ラッチ断面__受け
  6
CONTINUOUS
 62
    4
 10
2269.8164462322183
 20
1128.0788812305549
 11
2269.8164462322183
 21
1088.0788812305549
  0
LINE
  8
_0-9_ラッチ断面__受け
  6
DASHED1
 62
    9
 10
2477.857092003644
 20
745.24105133982982
 11
2477.857092003644
 21
658.78351115989335
  0
LINE
  8
_0-9_ラッチ断面__受け
  6
DASHED1
 62
    9
 10
2397.857092003644
 20
745.24105133982982
 11
2397.857092003644
 21
658.78351115989335
  0
LINE
  8
_0-9_ラッチ断面__受け
  6
CONTINUOUS
 62
    4
 10
2487.857092003644
 20
745.24105133982982
 11
2317.857092003644
 21
745.24105133982982
  0
LINE
  8
_0-9_ラッチ断面__受け
  6
CONTINUOUS
 62
    4
 10
2487.857092003644
 20
1345.2410513398303
 11
2317.857092003644
 21
1345.2410513398303
  0
LINE
  8
_0-9_ラッチ断面__受け
  6
DASHED1
 62
    9
 10
2684.4728900719342
 20
1431.6985915197665
 11
2684.4728900719342
 21
1345.2410513398299
  0
LINE
  8
_0-9_ラッチ断面__受け
  6
CONTINUOUS
 62
    4
 10
322.82476271240255
 20
1545.2410513398297
 11
322.82476271240255
 21
1375.2410513398297
  0
POINT
  8
_0-9_ラッチ断面__受け
 62
    9
 10
1819.857092003644
 20
1340.2410513398303
  0
POINT
  8
_0-9_ラッチ断面__受け
 62
    9
 10
1819.857092003644
 20
730.24105133983016
  0
POINT
  8
_0-9_ラッチ断面__受け
 62
    9
 10
1819.857092003644
 20
1345.2410513398303
  0
LINE
  8
_0-9_ラッチ断面__受け
  6
CONTINUOUS
 62
    9
 10
1819.857092003644
 20
1345.2410513398303
 11
1819.857092003644
 21
1377.6852624520333
  0
LINE
  8
_0-9_ラッチ断面__受け
  6
CONTINUOUS
 62
    9
 10
1819.857092003644
 20
1345.2410513398303
 11
1819.857092003644
 21
1340.2410513398303
  0
TEXT
  8
_0-9_ラッチ断面__受け
 62
    1
 10
1814.857092003644
 20
1356.4557298131467
 40
30
 41
0.6666666666666666
 50
90
  1
５
  0
LINE
  8
_0-9_ラッチ断面__受け
  6
CONTINUOUS
 62
    9
 10
1809.857092003644
 20
1345.2410513398303
 11
1899.857092003644
 21
1345.2410513398303
  0
LINE
  8
_0-9_ラッチ断面__受け
  6
CONTINUOUS
 62
    9
 10
1809.857092003644
 20
730.24105133983016
 11
1899.857092003644
 21
730.24105133983016
  0
LINE
  8
_0-9_ラッチ断面__受け
  6
CONTINUOUS
 62
    9
 10
1809.857092003644
 20
1340.2410513398303
 11
1899.857092003644
 21
1340.2410513398303
  0
LINE
  8
_0-9_ラッチ断面__受け
  6
CONTINUOUS
 62
    9
 10
1819.857092003644
 20
1340.2410513398303
 11
1819.857092003644
 21
730.24105133983016
  0
TEXT
  8
_0-9_ラッチ断面__受け
 62
    1
 10
1814.857092003644
 20
1005.14105133983
 40
30
 41
0.6666666666666666
 50
90
  1
６１０
  0
LINE
  8
_0-9_ラッチ断面__受け
  6
DASHED1
 62
    9
 10
1372.8247627124028
 20
2735.7744603287765
 11
1459.2823028923394
 21
2735.7744603287765
  0
LINE
  8
_0-9_ラッチ断面__受け
  6
DASHED1
 62
    9
 10
1372.8247627124028
 20
2655.7744603287765
 11
1459.2823028923394
 21
2655.7744603287765
  0
LINE
  8
_0-9_ラッチ断面__受け
  6
DASHED1
 62
    9
 10
1562.8247627124028
 20
2187.7744603287774
 11
1562.8247627124028
 21
2101.3169201488403
  0
LINE
  8
_0-9_ラッチ断面__受け
  6
DASHED1
 62
    9
 10
1482.8247627124028
 20
2187.7744603287774
 11
1482.8247627124028
 21
2101.3169201488403
  0
LINE
  8
_0-9_ラッチ断面__受け
  6
CONTINUOUS
 62
    4
 10
1572.8247627124028
 20
2187.7744603287774
 11
1402.8247627124028
 21
2187.7744603287774
  0
LINE
  8
_0-9_ラッチ断面__受け
  6
CONTINUOUS
 62
    4
 10
1572.8247627124028
 20
2545.7744603287765
 11
1402.8247627124028
 21
2545.7744603287765
  0
LINE
  8
_0-9_ラッチ断面__受け
  6
CONTINUOUS
 62
    4
 10
1572.8247627124028
 20
1345.2410513398297
 11
1402.8247627124028
 21
1345.2410513398297
  0
LINE
  8
_0-9_ラッチ断面__受け
  6
CONTINUOUS
 62
    4
 10
1372.8247627124028
 20
1545.2410513398297
 11
1372.8247627124028
 21
1375.2410513398297
  0
LINE
  8
_0-9_ラッチ断面__受け
  6
CONTINUOUS
 62
    4
 10
1512.8247627124028
 20
745.24105133982982
 11
1512.8247627124028
 21
730.24105133983016
  0
LINE
  8
_0-9_ラッチ断面__受け
  6
CONTINUOUS
 62
    4
 10
1572.8247627124028
 20
745.24105133982982
 11
1402.8247627124028
 21
745.24105133982982
  0
POINT
  8
_0-9_ラッチ断面__受け
 62
    4
 10
322.82476271240255
 20
1535.2410513398297
  0
POINT
  8
_0-9_ラッチ断面__受け
 62
    4
 10
1372.8247627124028
 20
1535.2410513398297
  0
LINE
  8
_0-9_ラッチ断面__受け
  6
CONTINUOUS
 62
    4
 10
322.82476271240255
 20
1545.2410513398297
 11
322.82476271240255
 21
1375.2410513398297
  0
LINE
  8
_0-9_ラッチ断面__受け
  6
CONTINUOUS
 62
    4
 10
1372.8247627124028
 20
1545.2410513398297
 11
1372.8247627124028
 21
1375.2410513398297
  0
LINE
  8
_0-9_ラッチ断面__受け
  6
CONTINUOUS
 62
    4
 10
3854.8913935730729
 20
1545.2410513398299
 11
3854.8913935730729
 21
1375.2410513398297
  0
LINE
  8
_0-9_ラッチ断面__受け
  6
CONTINUOUS
 62
    4
 10
2804.8913935730729
 20
1545.2410513398299
 11
2804.8913935730729
 21
1375.2410513398297
  0
POINT
  8
_0-9_ラッチ断面__受け
 62
    4
 10
2804.8913935730729
 20
1535.2410513398299
  0
POINT
  8
_0-9_ラッチ断面__受け
 62
    4
 10
3854.8913935730729
 20
1535.2410513398299
  0
LINE
  8
_0-9_ラッチ断面__受け
  6
CONTINUOUS
 62
    4
 10
2804.8913935730729
 20
1545.2410513398299
 11
2804.8913935730729
 21
1375.2410513398297
  0
LINE
  8
_0-9_ラッチ断面__受け
  6
CONTINUOUS
 62
    4
 10
3854.8913935730729
 20
1545.2410513398299
 11
3854.8913935730729
 21
1375.2410513398297
  0
LINE
  8
_0-9_ラッチ断面__受け
  6
CONTINUOUS
 62
    4
 10
1521.9927620608236
 20
730.24105133983016
 11
1402.8247627124028
 21
730.24105133983016
  0
LINE
  8
ADD_LINE
  6
DOT
 62
    9
 10
1402.8247627124028
 20
2575.7744603287765
 11
1402.8247627124028
 21
2174.2744603287765
  0
LINE
  8
ADD_LINE
  6
DOT
 62
    9
 10
1402.8247627124028
 20
2174.2744603287765
 11
292.82476271240255
 21
2174.2744603287765
  0
LINE
  8
ADD_LINE
  6
DOT
 62
    9
 10
292.82476271240255
 20
2575.7744603287765
 11
1402.8247627124028
 21
2575.7744603287765
  0
LINE
  8
ADD_LINE
  6
DOT
 62
    9
 10
292.82476271240255
 20
2174.2744603287765
 11
292.82476271240255
 21
2575.7744603287765
  0
LINE
  8
ADD_LINE
  6
DOT
 62
    9
 10
1402.8247627124026
 20
1375.2410513398288
 11
1402.8247627124026
 21
715.24105133982857
  0
LINE
  8
ADD_LINE
  6
DOT
 62
    9
 10
1402.8247627124026
 20
715.24105133982857
 11
1367.8247627124023
 21
715.24105133982857
  0
LINE
  8
ADD_LINE
  6
DOT
 62
    9
 10
328.32476271240267
 20
715.24105133982857
 11
292.82476271240255
 21
715.24105133982857
  0
LINE
  8
ADD_LINE
  6
DOT
 62
    9
 10
292.82476271240255
 20
1375.2410513398288
 11
1402.8247627124026
 21
1375.2410513398288
  0
LINE
  8
ADD_LINE
  6
DOT
 62
    9
 10
292.82476271240255
 20
715.24105133982857
 11
292.82476271240255
 21
1375.2410513398288
  0
LINE
  8
ADD_LINE
  6
DOT
 62
    9
 10
2317.8570920036445
 20
1375.2410513398297
 11
2317.8570920036445
 21
752.24105133982925
  0
LINE
  8
ADD_LINE
  6
DOT
 62
    9
 10
2317.8570920036445
 20
752.24105133982925
 11
2317.8570920036445
 21
715.24105133982948
  0
LINE
  8
ADD_LINE
  6
DOT
 62
    9
 10
2317.8570920036445
 20
715.24105133982948
 11
1915.8570920036454
 21
715.24105133982948
  0
LINE
  8
ADD_LINE
  6
DOT
 62
    9
 10
1915.8570920036454
 20
715.24105133982948
 11
1915.8570920036454
 21
760.24105133982948
  0
LINE
  8
ADD_LINE
  6
DOT
 62
    9
 10
1915.8570920036454
 20
1375.2410513398297
 11
2317.8570920036445
 21
1375.2410513398297
  0
LINE
  8
ADD_LINE
  6
DOT
 62
    9
 10
1915.8570920036454
 20
760.24105133982948
 11
1915.8570920036454
 21
1375.2410513398297
  0
LINE
  8
ADD_LINE
  6
DOT
 62
    9
 10
3884.8913935730729
 20
1375.241051339829
 11
3884.8913935730729
 21
715.2410513398288
  0
LINE
  8
ADD_LINE
  6
DOT
 62
    9
 10
3884.8913935730729
 20
715.2410513398288
 11
2774.8913935730729
 21
715.2410513398288
  0
LINE
  8
ADD_LINE
  6
DOT
 62
    9
 10
2774.8913935730729
 20
1375.241051339829
 11
3884.8913935730729
 21
1375.241051339829
  0
LINE
  8
ADD_LINE
  6
DOT
 62
    9
 10
2774.8913935730729
 20
715.2410513398288
 11
2774.8913935730729
 21
1375.241051339829
  0
LINE
  8
_0-9_ラッチ断面__受け
  6
CONTINUOUS
 62
    4
 10
2816.8913935730729
 20
545.2410513398288
 11
2816.8913935730729
 21
715.2410513398288
  0
LINE
  8
_0-9_ラッチ断面__受け
  6
CONTINUOUS
 62
    4
 10
3842.8913935730724
 20
545.2410513398288
 11
3842.8913935730724
 21
715.2410513398288
  0
POINT
  8
_0-9_ラッチ断面__受け
 62
    4
 10
3842.8913935730724
 20
555.2410513398288
  0
POINT
  8
_0-9_ラッチ断面__受け
 62
    4
 10
2816.8913935730729
 20
555.2410513398288
  0
LINE
  8
_0-9_ラッチ断面__受け
  6
CONTINUOUS
 62
    4
 10
3842.8913935730724
 20
545.2410513398288
 11
3842.8913935730724
 21
715.2410513398288
  0
LINE
  8
_0-9_ラッチ断面__受け
  6
CONTINUOUS
 62
    4
 10
2816.8913935730729
 20
545.2410513398288
 11
2816.8913935730729
 21
715.2410513398288
  0
POINT
  8
_0-9_ラッチ断面__受け
 62
    4
 10
1372.8247627124028
 20
2735.7744603287765
  0
LINE
  8
_0-9_ラッチ断面__受け
  6
CONTINUOUS
 62
    4
 10
1372.8247627124028
 20
2745.7744603287765
 11
1372.8247627124028
 21
2575.7744603287765
  0
LINE
  8
_0-9_ラッチ断面__受け
  6
CONTINUOUS
 62
    4
 10
322.82476271240227
 20
2745.7744603287765
 11
322.82476271240227
 21
2575.7744603287765
  0
LINE
  8
_0-7_寸法
  6
CONTINUOUS
 62
    4
 10
322.82476271240227
 20
2735.7744603287765
 11
1372.8247627124028
 21
2735.7744603287765
  0
TEXT
  8
_0-9_ラッチ断面__受け
 62
    7
 10
792.62476271240245
 20
2740.7744603287765
 40
35
 41
0.6285714285714286
 50
0
  1
１，０５０
  0
LINE
  8
_0-1_立面__扉
  6
CONTINUOUS
 62
    4
 10
1562.8247627124028
 20
2545.7744603287765
 11
1562.8247627124028
 21
2187.7744603287774
  0
TEXT
  8
_0-9_ラッチ断面__受け
 62
    7
 10
1557.8247627124028
 20
2333.674460328777
 40
35
 41
0.6285714285714286
 50
90
  1
３５８
  0
LINE
  8
_0-7_寸法
  6
CONTINUOUS
 62
    4
 10
322.82476271240255
 20
1535.2410513398297
 11
1372.8247627124028
 21
1535.2410513398297
  0
TEXT
  8
_0-9_ラッチ断面__受け
 62
    7
 10
792.62476271240279
 20
1540.2410513398297
 40
35
 41
0.6285714285714286
 50
0
  1
１，０５０
  0
LINE
  8
_0-7_寸法
  6
CONTINUOUS
 62
    4
 10
1562.8247627124028
 20
1345.2410513398297
 11
1562.8247627124028
 21
745.24105133982982
  0
TEXT
  8
_0-9_ラッチ断面__受け
 62
    7
 10
1557.8247627124032
 20
1012.1410513398298
 40
35
 41
0.6285714285714286
 50
90.000000000000056
  1
６００
  0
LINE
  8
_0-7_寸法
  6
CONTINUOUS
 62
    4
 10
1979.8164462322185
 20
1118.0788812305549
 11
2269.8164462322183
 21
1118.0788812305549
  0
TEXT
  8
_0-9_ラッチ断面__受け
 62
    7
 10
2091.7164462322184
 20
1123.0788812305549
 40
35
 41
0.6285714285714286
 50
0
  1
２９０
  0
LINE
  8
_0-7_寸法
  6
CONTINUOUS
 62
    4
 10
2477.857092003644
 20
1345.2410513398303
 11
2477.857092003644
 21
745.24105133982982
  0
TEXT
  8
_0-9_ラッチ断面__受け
 62
    7
 10
2472.857092003644
 20
1012.14105133983
 40
35
 41
0.6285714285714286
 50
90
  1
６００
  0
LINE
  8
_0-7_寸法
  6
CONTINUOUS
 62
    4
 10
2804.8913935730729
 20
1535.2410513398299
 11
3854.8913935730729
 21
1535.2410513398299
  0
TEXT
  8
_0-9_ラッチ断面__受け
 62
    7
 10
3274.6913935730731
 20
1540.2410513398299
 40
35
 41
0.6285714285714286
 50
0
  1
１，０５０
  0
LINE
  8
_0-7_寸法
  6
CONTINUOUS
 62
    4
 10
3842.8913935730724
 20
555.2410513398288
 11
2816.8913935730729
 21
555.2410513398288
  0
TEXT
  8
_0-9_ラッチ断面__受け
 62
    7
 10
3274.6913935730726
 20
560.2410513398288
 40
35
 41
0.6285714285714286
 50
0
  1
１，０２６
  0
POINT
  8
_0-9_ラッチ断面__受け
 62
    3
 10
2684.4728900719342
 20
1345.241051339829
  0
POINT
  8
_0-9_ラッチ断面__受け
 62
    3
 10
2684.4728900719342
 20
1260.241051339829
  0
LINE
  8
_0-9_ラッチ断面__受け
  6
CONTINUOUS
 62
    4
 10
2674.4728900719342
 20
1345.241051339829
 11
2774.8913935730729
 21
1345.241051339829
  0
LINE
  8
_0-9_ラッチ断面__受け
  6
CONTINUOUS
 62
    4
 10
2674.4728900719342
 20
1260.241051339829
 11
2774.8913935730729
 21
1260.241051339829
  0
LINE
  8
_0-9_ラッチ断面__受け
  6
CONTINUOUS
 62
    4
 10
2684.4728900719342
 20
1345.241051339829
 11
2684.4728900719342
 21
1260.241051339829
  0
TEXT
  8
_0-9_ラッチ断面__受け
 62
    7
 10
2679.4728900719342
 20
1280.6910513398293
 40
35
 41
0.6285714285714286
 50
90
  1
８５
  0
POINT
  8
_0-9_ラッチ断面__受け
 62
    3
 10
2684.4728900719342
 20
797.2410513398288
  0
POINT
  8
_0-9_ラッチ断面__受け
 62
    3
 10
2684.4728900719342
 20
752.2410513398288
  0
LINE
  8
_0-9_ラッチ断面__受け
  6
CONTINUOUS
 62
    4
 10
2674.4728900719342
 20
797.2410513398288
 11
2774.8913935730729
 21
797.2410513398288
  0
LINE
  8
_0-9_ラッチ断面__受け
  6
CONTINUOUS
 62
    4
 10
2674.4728900719342
 20
752.2410513398288
 11
2774.8913935730729
 21
752.2410513398288
  0
LINE
  8
_0-9_ラッチ断面__受け
  6
CONTINUOUS
 62
    4
 10
2684.4728900719342
 20
797.2410513398288
 11
2684.4728900719342
 21
752.2410513398288
  0
TEXT
  8
_0-9_ラッチ断面__受け
 62
    7
 10
2679.4728900719342
 20
703.5311262313105
 40
35
 41
0.6285714285714286
 50
90
  1
４５
  0
LINE
  8
_0-9_ラッチ断面__受け
  6
CONTINUOUS
 62
    4
 10
2684.4728900719342
 20
752.2410513398288
 11
2684.4728900719342
 21
705.02415969252513
  0
LINE
  8
ADD_LINE
  6
DOT
 62
    9
 10
327.82476271240341
 20
715.24105133982857
 11
1367.324762712403
 21
715.24105133982857
  0
POINT
  8
_0-9_ラッチ断面__受け
 62
    3
 10
326.82476271240261
 20
555.2410513398288
  0
LINE
  8
_0-9_ラッチ断面__受け
  6
CONTINUOUS
 62
    4
 10
326.82476271240261
 20
545.2410513398288
 11
326.82476271240261
 21
715.2410513398288
  0
POINT
  8
_0-9_ラッチ断面__受け
 62
    3
 10
1368.824762712403
 20
555.2410513398288
  0
LINE
  8
_0-9_ラッチ断面__受け
  6
CONTINUOUS
 62
    4
 10
1368.824762712403
 20
545.2410513398288
 11
1368.824762712403
 21
715.24105133982857
  0
POINT
  8
_0-9_ラッチ断面__受け
 62
    4
 10
2397.857092003644
 20
925.24105133982982
  0
LINE
  8
_0-9_ラッチ断面__受け
  6
CONTINUOUS
 62
    4
 10
2407.857092003644
 20
1165.2410513398299
 11
2317.8570920036445
 21
1165.2410513398299
  0
LINE
  8
_0-9_ラッチ断面__受け
  6
CONTINUOUS
 62
    4
 10
2407.857092003644
 20
925.24105133982982
 11
2317.8570920036445
 21
925.24105133982982
  0
LINE
  8
_0-9_ラッチ断面__受け
  6
CONTINUOUS
 62
    4
 10
2407.857092003644
 20
985.24105133982993
 11
2317.8570920036445
 21
985.24105133982993
  0
LINE
  8
_0-9_ラッチ断面__受け
  6
CONTINUOUS
 62
    4
 10
2407.857092003644
 20
1045.2410513398299
 11
2317.8570920036445
 21
1045.2410513398299
  0
LINE
  8
_0-9_ラッチ断面__受け
  6
CONTINUOUS
 62
    4
 10
2407.857092003644
 20
1105.2410513398299
 11
2317.8570920036445
 21
1105.2410513398299
  0
LINE
  8
_0-7_寸法
  6
CONTINUOUS
 62
    4
 10
2397.857092003644
 20
1105.2410513398299
 11
2397.857092003644
 21
1165.2410513398299
  0
TEXT
  8
_0-9_ラッチ断面__受け
 62
    7
 10
2392.857092003644
 20
1113.1910513398297
 40
35
 41
0.6285714285714286
 50
90
  1
６０
  0
LINE
  8
_0-7_寸法
  6
CONTINUOUS
 62
    4
 10
2397.857092003644
 20
1045.2410513398299
 11
2397.857092003644
 21
1105.2410513398299
  0
TEXT
  8
_0-9_ラッチ断面__受け
 62
    7
 10
2392.857092003644
 20
1053.1910513398297
 40
35
 41
0.6285714285714286
 50
90
  1
６０
  0
LINE
  8
_0-7_寸法
  6
CONTINUOUS
 62
    4
 10
2397.857092003644
 20
985.24105133982993
 11
2397.857092003644
 21
1045.2410513398299
  0
TEXT
  8
_0-9_ラッチ断面__受け
 62
    7
 10
2392.857092003644
 20
993.19105133982986
 40
35
 41
0.6285714285714286
 50
90
  1
６０
  0
LINE
  8
_0-7_寸法
  6
CONTINUOUS
 62
    4
 10
2397.857092003644
 20
925.24105133982982
 11
2397.857092003644
 21
985.24105133982993
  0
TEXT
  8
_0-9_ラッチ断面__受け
 62
    7
 10
2392.857092003644
 20
933.19105133982986
 40
35
 41
0.6285714285714286
 50
90
  1
６０
  0
POINT
  8
_0-9_ラッチ断面__受け
 62
    3
 10
2397.857092003644
 20
745.24105133982982
  0
POINT
  8
_0-9_ラッチ断面__受け
 62
    3
 10
2397.857092003644
 20
925.24105133982982
  0
LINE
  8
_0-9_ラッチ断面__受け
  6
CONTINUOUS
 62
    4
 10
2407.857092003644
 20
745.24105133982982
 11
2317.857092003644
 21
745.24105133982982
  0
LINE
  8
_0-9_ラッチ断面__受け
  6
CONTINUOUS
 62
    4
 10
2407.857092003644
 20
925.24105133982982
 11
2317.857092003644
 21
925.24105133982982
  0
LINE
  8
_0-9_ラッチ断面__受け
  6
CONTINUOUS
 62
    4
 10
2397.857092003644
 20
745.24105133982982
 11
2397.857092003644
 21
925.24105133982982
  0
TEXT
  8
_0-9_ラッチ断面__受け
 62
    7
 10
2392.857092003644
 20
802.1410513398298
 40
35
 41
0.6285714285714286
 50
90
  1
１８０
  0
LINE
  8
_0-3_断面__扉
  6
DASHED1
 62
    4
 10
334.82476271240216
 20
2530.7744603287765
 11
1360.8247627124032
 21
2530.7744603287765
  0
LINE
  8
_0-3_断面__扉
  6
CONTINUOUS
 62
    4
 10
334.82476271240216
 20
2530.7744603287765
 11
1360.8247627124032
 21
2530.7744603287765
  0
LINE
  8
_0-4_背面本体
  6
CONTINUOUS
 62
    3
 10
326.82476271240261
 20
2187.7744603287765
 11
326.82476271240261
 21
2199.7744603287765
  0
LINE
  8
_0-4_背面本体
  6
CONTINUOUS
 62
    3
 10
326.82476271240261
 20
2199.7744603287765
 11
670.82476271240261
 21
2199.7744603287765
  0
LINE
  8
_0-4_背面本体
  6
CONTINUOUS
 62
    3
 10
670.82476271240261
 20
2187.7744603287765
 11
670.82476271240261
 21
2199.7744603287765
  0
LINE
  8
_0-4_背面本体
  6
CONTINUOUS
 62
    3
 10
326.82476271240261
 20
2187.7744603287765
 11
670.82476271240261
 21
2187.7744603287765
  0
LINE
  8
_0-4_背面本体
  6
CONTINUOUS
 62
    3
 10
1024.8247627124026
 20
2199.7744603287765
 11
1368.824762712403
 21
2199.7744603287765
  0
LINE
  8
_0-4_背面本体
  6
CONTINUOUS
 62
    3
 10
1024.8247627124026
 20
2187.7744603287765
 11
1024.8247627124026
 21
2199.7744603287765
  0
LINE
  8
_0-4_背面本体
  6
CONTINUOUS
 62
    3
 10
1368.8247627124023
 20
2187.7744603287765
 11
1368.8247627124023
 21
2199.7744603287765
  0
LINE
  8
_0-4_背面本体
  6
CONTINUOUS
 62
    3
 10
1024.8247627124026
 20
2187.7744603287765
 11
1368.8247627124023
 21
2187.7744603287765
  0
LINE
  8
_0-4_背面本体
  6
CONTINUOUS
 62
    3
 10
671.82476271240318
 20
2199.7744603287765
 11
1015.824762712403
 21
2199.7744603287765
  0
LINE
  8
_0-4_背面本体
  6
CONTINUOUS
 62
    3
 10
671.82476271240318
 20
2187.7744603287765
 11
671.82476271240318
 21
2199.7744603287765
  0
LINE
  8
_0-4_背面本体
  6
CONTINUOUS
 62
    3
 10
1015.824762712403
 20
2187.7744603287765
 11
1015.824762712403
 21
2199.7744603287765
  0
LINE
  8
_0-4_背面本体
  6
CONTINUOUS
 62
    3
 10
671.82476271240318
 20
2187.7744603287765
 11
1015.824762712403
 21
2187.7744603287765
  0
CIRCLE
  8
_0-4_背面本体
  6
DASHED1
 62
    9
 10
351.3247627124025
 20
1270.2410513398288
 40
17.499999999999996
  0
LINE
  8
_0-4_背面本体
  6
CENTER2
 62
    9
 10
351.3247627124025
 20
1298.2410513398285
 11
351.3247627124025
 21
1242.2410513398288
  0
LINE
  8
_0-4_背面本体
  6
CENTER2
 62
    9
 10
326.82476271240261
 20
1270.2410513398288
 11
379.32476271240261
 21
1270.2410513398288
  0
LINE
  8
_0-4_背面本体
  6
CONTINUOUS
 62
    3
 10
670.82476271240261
 20
1340.2410513398288
 11
326.82476271240261
 21
1340.2410513398288
  0
CIRCLE
  8
_0-4_背面本体
  6
DASHED1
 62
    9
 10
1344.3247627124026
 20
1270.2410513398288
 40
17.499999999999996
  0
LINE
  8
_0-4_背面本体
  6
CENTER2
 62
    9
 10
1344.3247627124026
 20
1298.2410513398285
 11
1344.3247627124026
 21
1242.2410513398288
  0
LINE
  8
_0-4_背面本体
  6
CENTER2
 62
    9
 10
1368.8247627124023
 20
1270.2410513398288
 11
1316.3247627124023
 21
1270.2410513398288
  0
LINE
  8
_0-4_背面本体
  6
CONTINUOUS
 62
    3
 10
1024.8247627124026
 20
1340.2410513398288
 11
1368.8247627124023
 21
1340.2410513398288
  0
CIRCLE
  8
_0-4_背面本体
  6
DASHED1
 62
    9
 10
991.32476271240318
 20
1270.2410513398288
 40
17.499999999999996
  0
LINE
  8
_0-4_背面本体
  6
CENTER2
 62
    9
 10
991.32476271240318
 20
1298.2410513398285
 11
991.32476271240318
 21
1242.2410513398288
  0
LINE
  8
_0-4_背面本体
  6
CENTER2
 62
    9
 10
1015.824762712403
 20
1270.2410513398288
 11
963.32476271240307
 21
1270.2410513398288
  0
CIRCLE
  8
_0-4_背面本体
  6
DASHED1
 62
    9
 10
351.3247627124025
 20
830.24105133982868
 40
17.5
  0
LINE
  8
_0-4_背面本体
  6
CENTER2
 62
    9
 10
351.3247627124025
 20
802.24105133982857
 11
351.3247627124025
 21
858.24105133982834
  0
LINE
  8
_0-4_背面本体
  6
CENTER2
 62
    9
 10
326.82476271240261
 20
830.24105133982868
 11
379.32476271240261
 21
830.24105133982868
  0
CIRCLE
  8
_0-4_背面本体
  6
DASHED1
 62
    9
 10
1344.3247627124026
 20
830.24105133982868
 40
17.5
  0
LINE
  8
_0-4_背面本体
  6
CENTER2
 62
    9
 10
1344.3247627124026
 20
802.24105133982857
 11
1344.3247627124026
 21
858.24105133982834
  0
LINE
  8
_0-4_背面本体
  6
CENTER2
 62
    9
 10
1368.8247627124023
 20
830.24105133982868
 11
1316.3247627124023
 21
830.24105133982868
  0
CIRCLE
  8
_0-4_背面本体
  6
DASHED1
 62
    9
 10
991.32476271240318
 20
830.24105133982868
 40
17.5
  0
LINE
  8
_0-4_背面本体
  6
CENTER2
 62
    9
 10
991.32476271240318
 20
802.24105133982857
 11
991.32476271240318
 21
858.24105133982834
  0
LINE
  8
_0-4_背面本体
  6
CENTER2
 62
    9
 10
1015.824762712403
 20
830.24105133982868
 11
963.32476271240307
 21
830.24105133982868
  0
LINE
  8
_0-4_背面本体
  6
CONTINUOUS
 62
    4
 10
670.82476271240261
 20
761.24105133982823
 11
326.82476271240261
 21
761.24105133982823
  0
LINE
  8
_0-4_背面本体
  6
CONTINUOUS
 62
    4
 10
670.82476271240261
 20
753.6410513398257
 11
326.82476271240261
 21
753.6410513398257
  0
LINE
  8
_0-4_背面本体
  6
CONTINUOUS
 62
    4
 10
1368.8247627124023
 20
761.24105133982823
 11
1024.8247627124026
 21
761.24105133982823
  0
LINE
  8
_0-4_背面本体
  6
CONTINUOUS
 62
    4
 10
1368.8247627124023
 20
753.6410513398257
 11
1024.8247627124026
 21
753.6410513398257
  0
LINE
  8
_0-4_背面本体
  6
CONTINUOUS
 62
    4
 10
1015.824762712403
 20
761.24105133982823
 11
671.82476271240318
 21
761.24105133982823
  0
LINE
  8
_0-4_背面本体
  6
CONTINUOUS
 62
    4
 10
1015.824762712403
 20
753.6410513398257
 11
671.82476271240318
 21
753.6410513398257
  0
LINE
  8
_0-3_断面__扉
  6
DASHED1
 62
    2
 10
1010.8247627124026
 20
2203.7744603287769
 11
1010.8247627124026
 21
2266.2744603287769
  0
LINE
  8
_0-3_断面__扉
  6
DASHED1
 62
    2
 10
1010.8247627124026
 20
2266.2744603287769
 11
1035.8247627124026
 21
2266.2744603287769
  0
LINE
  8
_0-3_断面__扉
  6
DASHED1
 62
    2
 10
1035.8247627124026
 20
2203.7744603287769
 11
1035.8247627124026
 21
2266.2744603287769
  0
LINE
  8
_0-3_断面__扉
  6
DASHED1
 62
    2
 10
1010.8247627124023
 20
1330.741051339829
 11
1010.8247627124023
 21
760.24105133982857
  0
LINE
  8
_0-3_断面__扉
  6
DASHED1
 62
    2
 10
1035.8247627124023
 20
1330.741051339829
 11
1035.8247627124023
 21
760.24105133982857
  0
POINT
  8
_0-9_ラッチ断面__受け
 62
    3
 10
670.82476271240261
 20
555.2410513398288
  0
LINE
  8
_0-9_ラッチ断面__受け
  6
CONTINUOUS
 62
    4
 10
670.82476271240261
 20
545.2410513398288
 11
670.82476271240261
 21
715.2410513398288
  0
POINT
  8
_0-9_ラッチ断面__受け
 62
    3
 10
671.82476271240284
 20
555.2410513398288
  0
LINE
  8
_0-9_ラッチ断面__受け
  6
CONTINUOUS
 62
    4
 10
671.82476271240284
 20
545.2410513398288
 11
671.82476271240284
 21
715.24105133982857
  0
LINE
  8
_0-9_ラッチ断面__受け
  6
CONTINUOUS
 62
    4
 10
326.82476271240261
 20
555.2410513398288
 11
670.82476271240261
 21
555.2410513398288
  0
TEXT
  8
_0-9_ラッチ断面__受け
 62
    7
 10
465.72476271240248
 20
560.2410513398288
 40
35
 41
0.6285714285714286
 50
0
  1
３４４
  0
POINT
  8
_0-9_ラッチ断面__受け
 62
    3
 10
1015.8247627124022
 20
555.2410513398288
  0
LINE
  8
_0-9_ラッチ断面__受け
  6
CONTINUOUS
 62
    4
 10
1015.8247627124022
 20
545.2410513398288
 11
1015.8247627124022
 21
715.24105133982857
  0
POINT
  8
_0-9_ラッチ断面__受け
 62
    3
 10
1024.8247627124026
 20
555.2410513398288
  0
LINE
  8
_0-9_ラッチ断面__受け
  6
CONTINUOUS
 62
    4
 10
1024.8247627124026
 20
545.2410513398288
 11
1024.8247627124026
 21
715.24105133982857
  0
LINE
  8
_0-9_ラッチ断面__受け
  6
CONTINUOUS
 62
    4
 10
671.82476271240284
 20
555.2410513398288
 11
1015.8247627124022
 21
555.2410513398288
  0
TEXT
  8
_0-9_ラッチ断面__受け
 62
    7
 10
810.72476271240248
 20
560.2410513398288
 40
35
 41
0.6285714285714286
 50
0
  1
３４４
  0
LINE
  8
_0-9_ラッチ断面__受け
  6
CONTINUOUS
 62
    4
 10
1024.8247627124026
 20
555.2410513398288
 11
1368.824762712403
 21
555.2410513398288
  0
TEXT
  8
_0-9_ラッチ断面__受け
 62
    7
 10
1163.7247627124029
 20
560.2410513398288
 40
35
 41
0.6285714285714286
 50
0
  1
３４４
  0
ARC
  8
_0-4_背面本体
  6
CONTINUOUS
 62
    4
 10
667.82476271240261
 20
734.24105133983016
 40
3.0000000000000004
 50
0
 51
90
  0
ARC
  8
_0-4_背面本体
  6
CONTINUOUS
 62
    4
 10
329.82476271240273
 20
734.24105133983016
 40
3.0000000000000004
 50
90
 51
180
  0
LINE
  8
_0-4_背面本体
  6
CONTINUOUS
 62
    4
 10
329.82476271240273
 20
737.24105133983027
 11
667.82476271240261
 21
737.24105133983027
  0
LINE
  8
_0-4_背面本体
  6
CONTINUOUS
 62
    4
 10
670.82476271240261
 20
730.24105133983016
 11
326.82476271240261
 21
730.24105133983016
  0
ARC
  8
_0-4_背面本体
  6
CONTINUOUS
 62
    4
 10
1027.8247627124026
 20
734.24105133983016
 40
3.0000000000000004
 50
90
 51
180
  0
LINE
  8
_0-4_背面本体
  6
CONTINUOUS
 62
    4
 10
1368.8247627124023
 20
730.24105133983016
 11
1024.8247627124026
 21
730.24105133983016
  0
ARC
  8
_0-4_背面本体
  6
CONTINUOUS
 62
    4
 10
1365.8247627124026
 20
734.24105133983016
 40
3.0000000000000004
 50
0
 51
90
  0
LINE
  8
_0-4_背面本体
  6
CONTINUOUS
 62
    4
 10
1027.8247627124026
 20
737.24105133983027
 11
1365.8247627124026
 21
737.24105133983027
  0
ARC
  8
_0-4_背面本体
  6
CONTINUOUS
 62
    4
 10
1012.8247627124032
 20
734.24105133983016
 40
3.0000000000000004
 50
0
 51
90
  0
ARC
  8
_0-4_背面本体
  6
CONTINUOUS
 62
    4
 10
674.82476271240329
 20
734.24105133983016
 40
3.0000000000000004
 50
90
 51
180
  0
LINE
  8
_0-4_背面本体
  6
CONTINUOUS
 62
    4
 10
674.82476271240329
 20
737.24105133983027
 11
1012.824762712403
 21
737.24105133983027
  0
LINE
  8
_0-4_背面本体
  6
CONTINUOUS
 62
    4
 10
1015.824762712403
 20
730.24105133983016
 11
671.82476271240318
 21
730.24105133983016
  0
LINE
  8
_0-4_背面本体
  6
CONTINUOUS
 62
    3
 10
326.82476271240261
 20
1340.2410513398288
 11
326.82476271240261
 21
730.24105133983016
  0
LINE
  8
_0-4_背面本体
  6
CONTINUOUS
 62
    3
 10
671.82476271240318
 20
1340.2410513398288
 11
671.82476271240318
 21
730.24105133983016
  0
LINE
  8
_0-4_背面本体
  6
CONTINUOUS
 62
    3
 10
1024.8247627124026
 20
1340.2410513398288
 11
1024.8247627124026
 21
730.24105133983016
  0
LINE
  8
_0-4_背面本体
  6
CONTINUOUS
 62
    3
 10
1015.824762712403
 20
1340.2410513398288
 11
1015.824762712403
 21
730.24105133983016
  0
LINE
  8
_0-4_背面本体
  6
CONTINUOUS
 62
    3
 10
1368.8247627124023
 20
1340.2410513398288
 11
1368.8247627124023
 21
730.24105133983016
  0
LINE
  8
_0-4_背面本体
  6
CENTER1
 62
    4
 10
670.82476271240261
 20
1340.2410513398288
 11
326.82476271240261
 21
1035.2410513398294
  0
LINE
  8
_0-4_背面本体
  6
CENTER1
 62
    4
 10
671.82476271240318
 20
1340.2410513398288
 11
1015.824762712403
 21
1035.2410513398294
  0
LINE
  8
_0-4_背面本体
  6
CENTER1
 62
    4
 10
1015.824762712403
 20
1035.2410513398294
 11
671.82476271240318
 21
730.24105133983016
  0
LINE
  8
_0-4_背面本体
  6
CENTER1
 62
    4
 10
326.82476271240261
 20
1035.2410513398294
 11
670.82476271240261
 21
730.24105133983016
  0
LINE
  8
_0-4_背面本体
  6
CENTER1
 62
    4
 10
1024.8247627124026
 20
1340.2410513398288
 11
1368.8247627124023
 21
1035.2410513398294
  0
LINE
  8
_0-4_背面本体
  6
CENTER1
 62
    4
 10
1368.8247627124023
 20
1035.2410513398294
 11
1024.8247627124026
 21
730.24105133983016
  0
CIRCLE
  8
_0-0_立面本体
  6
CONTINUOUS
 62
    7
 10
1994.8570920036449
 20
1045.2410513398265
 40
1.5000000000000002
  0
LINE
  8
_0-0_立面本体
  6
CONTINUOUS
 62
    7
 10
1999.8570920036449
 20
1046.3099263398266
 11
1999.8570920036449
 21
1047.2410513398265
  0
LINE
  8
_0-0_立面本体
  6
CONTINUOUS
 62
    7
 10
1999.8570920036449
 20
1047.2410513398265
 11
2000.7858670036453
 21
1047.3073763398265
  0
LINE
  8
_0-0_立面本体
  6
CONTINUOUS
 62
    7
 10
1989.8570920036449
 20
1045.2410513398265
 11
1989.8570920036449
 21
1046.2410513398265
  0
LINE
  8
_0-0_立面本体
  6
CONTINUOUS
 62
    7
 10
1988.8570920036452
 20
1047.2410513398265
 11
1976.3570920036452
 21
1047.2410513398265
  0
LINE
  8
_0-0_立面本体
  6
CONTINUOUS
 62
    7
 10
1999.8570920036449
 20
1045.2410513398265
 11
1999.8570920036449
 21
1046.3099263398266
  0
LINE
  8
_0-0_立面本体
  6
CONTINUOUS
 62
    7
 10
2000.7858670036453
 20
1047.3073763398265
 11
2012.9283420036451
 21
1048.1747013398264
  0
LINE
  8
_0-0_立面本体
  6
CONTINUOUS
 62
    7
 10
2013.8570920036452
 20
1049.1721513398265
 11
2013.8570920036452
 21
1049.2410513398265
  0
LINE
  8
_0-0_立面本体
  6
CONTINUOUS
 62
    7
 10
1981.4910670036451
 20
1067.2410513398265
 11
1979.6146920036451
 21
1070.4910513398265
  0
LINE
  8
_0-0_立面本体
  6
CONTINUOUS
 62
    7
 10
2012.8570920036452
 20
1050.2410513398265
 11
1977.3570920036449
 21
1050.2410513398265
  0
LINE
  8
_0-0_立面本体
  6
CONTINUOUS
 62
    7
 10
1980.6250420036451
 20
1065.7410513398265
 11
1977.3570920036449
 21
1065.7410513398265
  0
LINE
  8
_0-0_立面本体
  6
CONTINUOUS
 62
    7
 10
1976.3570920036452
 20
1064.7410513398265
 11
1976.3570920036452
 21
1051.2410513398265
  0
ARC
  8
_0-0_立面本体
  6
CONTINUOUS
 62
    7
 10
1976.3570920036452
 20
1051.0410513398264
 40
3.7999999999999998
 50
177.46800000000004
 51
270.00000000000005
  0
ARC
  8
_0-0_立面本体
  6
CONTINUOUS
 62
    7
 10
1994.8570920036449
 20
1045.2410513398265
 40
5
 50
180.00000000000005
 51
0.0000000000001017
  0
CIRCLE
  8
_0-0_立面本体
  6
PHANTOM2
 62
    7
 10
1994.8570920036449
 20
1045.2410513398265
 40
4.0999999999999996
  0
CIRCLE
  8
_0-0_立面本体
  6
PHANTOM2
 62
    7
 10
1994.8570920036449
 20
1045.2410513398265
 40
1.925
  0
ARC
  8
_0-0_立面本体
  6
CONTINUOUS
 62
    7
 10
1974.5138670036451
 20
1069.7410513398265
 40
1
 50
90.000000000000028
 51
177.46800000000004
  0
ARC
  8
_0-0_立面本体
  6
CONTINUOUS
 62
    7
 10
1979.181667003645
 20
1070.2410513398265
 40
0.5
 50
30.000000000000003
 51
90.000000000000014
  0
ARC
  8
_0-0_立面本体
  6
CONTINUOUS
 62
    7
 10
1988.8570920036452
 20
1046.2410513398265
 40
1
 50
0
 51
90.000000000000028
  0
ARC
  8
_0-0_立面本体
  6
CONTINUOUS
 62
    7
 10
2000.8570920036449
 20
1046.3099263398266
 40
1
 50
94.086000000000026
 51
180.00000000000005
  0
ARC
  8
_0-0_立面本体
  6
CONTINUOUS
 62
    7
 10
2012.8570920036452
 20
1049.1721513398265
 40
1
 50
274.08600000000006
 51
0.0000000000000636
  0
ARC
  8
_0-0_立面本体
  6
CONTINUOUS
 62
    7
 10
2012.8570920036452
 20
1049.2410513398265
 40
1
 50
0
 51
90.000000000000028
  0
ARC
  8
_0-0_立面本体
  6
CONTINUOUS
 62
    7
 10
1980.6250420036451
 20
1066.7410513398265
 40
1
 50
270.00000000000005
 51
30.000000000000067
  0
ARC
  8
_0-0_立面本体
  6
CONTINUOUS
 62
    7
 10
1977.3570920036449
 20
1064.7410513398265
 40
1
 50
90.000000000000028
 51
180.00000000000005
  0
ARC
  8
_0-0_立面本体
  6
CONTINUOUS
 62
    7
 10
1977.3570920036449
 20
1051.2410513398265
 40
1
 50
180.00000000000005
 51
270.00000000000005
  0
LINE
  8
_0-0_立面本体
  6
CONTINUOUS
 62
    7
 10
1974.5138670036451
 20
1070.7410513398265
 11
1979.181667003645
 21
1070.7410513398265
  0
LINE
  8
_0-0_立面本体
  6
CONTINUOUS
 62
    7
 10
1972.5608170036452
 20
1051.2089013398265
 11
1973.5155639528941
 21
1069.7992837952201
  0
LINE
  8
_0-0_立面本体
  6
CENTER1
 62
    7
 10
1994.8570920036449
 20
1045.2410513398265
 11
1994.8570920036449
 21
1039.1263234621683
  0
LINE
  8
_0-0_立面本体
  6
CENTER1
 62
    7
 10
1994.8570920036449
 20
1045.2410513398265
 11
1994.8570920036449
 21
1051.3384542918793
  0
LINE
  8
_0-0_立面本体
  6
CENTER1
 62
    7
 10
1994.9699540747647
 20
1045.2410513398265
 11
1992.2903156528332
 21
1045.2410513398265
  0
LINE
  8
_0-0_立面本体
  6
CENTER1
 62
    7
 10
1994.9699540747647
 20
1045.2410513398265
 11
1997.63523717941
 21
1045.2410513398265
  0
ARC
  8
_0-0_立面本体
  6
CONTINUOUS
 62
    7
 10
2261.0891420036455
 20
1066.7410513398265
 40
1
 50
149.99999999999994
 51
269.99999999999994
  0
CIRCLE
  8
_0-0_立面本体
  6
CONTINUOUS
 62
    7
 10
2246.8570920036454
 20
1045.2410513398265
 40
1.5000000000000002
  0
LINE
  8
_0-0_立面本体
  6
CONTINUOUS
 62
    7
 10
2241.8570920036454
 20
1046.3099263398266
 11
2241.8570920036454
 21
1047.2410513398265
  0
LINE
  8
_0-0_立面本体
  6
CONTINUOUS
 62
    7
 10
2241.8570920036454
 20
1047.2410513398265
 11
2240.9283170036451
 21
1047.3073763398265
  0
LINE
  8
_0-0_立面本体
  6
CONTINUOUS
 62
    7
 10
2251.8570920036454
 20
1045.2410513398265
 11
2251.8570920036454
 21
1046.2410513398265
  0
LINE
  8
_0-0_立面本体
  6
CONTINUOUS
 62
    7
 10
2252.8570920036454
 20
1047.2410513398265
 11
2265.3570920036454
 21
1047.2410513398265
  0
LINE
  8
_0-0_立面本体
  6
CONTINUOUS
 62
    7
 10
2241.8570920036454
 20
1045.2410513398265
 11
2241.8570920036454
 21
1046.3099263398266
  0
LINE
  8
_0-0_立面本体
  6
CONTINUOUS
 62
    7
 10
2240.9283170036451
 20
1047.3073763398265
 11
2228.785842003645
 21
1048.1747013398264
  0
LINE
  8
_0-0_立面本体
  6
CONTINUOUS
 62
    7
 10
2227.8570920036454
 20
1049.1721513398265
 11
2227.8570920036454
 21
1049.2410513398265
  0
LINE
  8
_0-0_立面本体
  6
CONTINUOUS
 62
    7
 10
2260.2231170036457
 20
1067.2410513398265
 11
2262.0994920036455
 21
1070.4910513398265
  0
LINE
  8
_0-0_立面本体
  6
CONTINUOUS
 62
    7
 10
2228.8570920036454
 20
1050.2410513398265
 11
2264.3570920036454
 21
1050.2410513398265
  0
LINE
  8
_0-0_立面本体
  6
CONTINUOUS
 62
    7
 10
2261.0891420036455
 20
1065.7410513398265
 11
2264.3570920036454
 21
1065.7410513398265
  0
LINE
  8
_0-0_立面本体
  6
CONTINUOUS
 62
    7
 10
2265.3570920036454
 20
1064.7410513398265
 11
2265.3570920036454
 21
1051.2410513398265
  0
ARC
  8
_0-0_立面本体
  6
CONTINUOUS
 62
    7
 10
2265.3570920036454
 20
1051.0410513398264
 40
3.7999999999999998
 50
269.99999999999994
 51
2.5319999999999822
  0
ARC
  8
_0-0_立面本体
  6
CONTINUOUS
 62
    7
 10
2246.8570920036454
 20
1045.2410513398265
 40
5
 50
179.99999999999988
 51
359.99999999999994
  0
CIRCLE
  8
_0-0_立面本体
  6
PHANTOM2
 62
    7
 10
2246.8570920036454
 20
1045.2410513398265
 40
4.0999999999999996
  0
CIRCLE
  8
_0-0_立面本体
  6
PHANTOM2
 62
    7
 10
2246.8570920036454
 20
1045.2410513398265
 40
1.925
  0
ARC
  8
_0-0_立面本体
  6
CONTINUOUS
 62
    7
 10
2267.200317003645
 20
1069.7410513398265
 40
1
 50
2.5319999999999645
 51
89.999999999999971
  0
ARC
  8
_0-0_立面本体
  6
CONTINUOUS
 62
    7
 10
2262.5325170036453
 20
1070.2410513398265
 40
0.5
 50
89.999999999999985
 51
149.99999999999997
  0
ARC
  8
_0-0_立面本体
  6
CONTINUOUS
 62
    7
 10
2252.8570920036454
 20
1046.2410513398265
 40
1
 50
89.999999999999971
 51
180
  0
ARC
  8
_0-0_立面本体
  6
CONTINUOUS
 62
    7
 10
2240.8570920036454
 20
1046.3099263398266
 40
1
 50
359.99999999999994
 51
85.913999999999973
  0
ARC
  8
_0-0_立面本体
  6
CONTINUOUS
 62
    7
 10
2228.8570920036454
 20
1049.1721513398265
 40
1
 50
179.99999999999994
 51
265.91399999999993
  0
ARC
  8
_0-0_立面本体
  6
CONTINUOUS
 62
    7
 10
2228.8570920036454
 20
1049.2410513398265
 40
1
 50
89.999999999999971
 51
180
  0
ARC
  8
_0-0_立面本体
  6
CONTINUOUS
 62
    7
 10
2264.3570920036454
 20
1064.7410513398265
 40
1
 50
359.99999999999994
 51
89.999999999999971
  0
ARC
  8
_0-0_立面本体
  6
CONTINUOUS
 62
    7
 10
2264.3570920036454
 20
1051.2410513398265
 40
1
 50
269.99999999999988
 51
359.99999999999988
  0
LINE
  8
_0-0_立面本体
  6
CONTINUOUS
 62
    7
 10
2267.200317003645
 20
1070.7410513398265
 11
2262.5325170036453
 21
1070.7410513398265
  0
LINE
  8
_0-0_立面本体
  6
CONTINUOUS
 62
    7
 10
2269.1533670036455
 20
1051.2089013398265
 11
2268.198620054396
 21
1069.7992837952201
  0
LINE
  8
_0-0_立面本体
  6
CENTER1
 62
    7
 10
2246.8570920036454
 20
1045.2410513398265
 11
2246.8570920036454
 21
1039.1263234621683
  0
LINE
  8
_0-0_立面本体
  6
CENTER1
 62
    7
 10
2246.8570920036454
 20
1045.2410513398265
 11
2246.8570920036454
 21
1051.3384542918793
  0
LINE
  8
_0-0_立面本体
  6
CENTER1
 62
    7
 10
2246.7442299325257
 20
1045.2410513398265
 11
2249.4238683544572
 21
1045.2410513398265
  0
LINE
  8
_0-0_立面本体
  6
CENTER1
 62
    7
 10
2246.7442299325257
 20
1045.2410513398265
 11
2244.0789468278803
 21
1045.2410513398265
  0
ARC
  8
_0-0_立面本体
  6
CONTINUOUS
 62
    7
 10
1994.8570920036449
 20
1045.2410513398265
 40
7.0000000000000017
 50
45.585000000000007
 51
134.41500000000002
  0
ARC
  8
_0-0_立面本体
  6
CONTINUOUS
 62
    7
 10
1994.8570920036449
 20
1045.2410513398265
 40
11
 50
27.036000000000008
 51
152.96400000000005
  0
ARC
  8
_0-0_立面本体
  6
CONTINUOUS
 62
    7
 10
2246.8570920036454
 20
1045.2410513398265
 40
7.0000000000000017
 50
45.585000000000007
 51
134.41500000000002
  0
ARC
  8
_0-0_立面本体
  6
CONTINUOUS
 62
    7
 10
2246.8570920036454
 20
1045.2410513398265
 40
11
 50
27.036000000000008
 51
152.96400000000005
  0
LINE
  8
_0-0_立面本体
  6
DASHED1
 62
    7
 10
1370.8194627124025
 20
1045.2410513398283
 11
1348.5385377124025
 21
1045.2410513398283
  0
LINE
  8
_0-0_立面本体
  6
DASHED1
 62
    7
 10
1360.8247627124026
 20
1041.6410513398284
 11
1360.8247627124026
 21
1048.8410513398284
  0
LINE
  8
_0-0_立面本体
  6
DASHED1
 62
    7
 10
1360.0247627124026
 20
1047.7410513398283
 11
1360.0247627124026
 21
1042.7410513398283
  0
LINE
  8
_0-0_立面本体
  6
DASHED1
 62
    7
 10
1352.0247627124026
 20
1043.2410513398283
 11
1359.5247627124026
 21
1043.2410513398283
  0
LINE
  8
_0-0_立面本体
  6
DASHED1
 62
    7
 10
1360.0247627124026
 20
1042.7410513398283
 11
1360.0247627124026
 21
1041.6410513398284
  0
LINE
  8
_0-0_立面本体
  6
DASHED1
 62
    7
 10
1361.3247627124023
 20
1042.8410513398282
 11
1369.3247627124026
 21
1042.8410513398282
  0
LINE
  8
_0-0_立面本体
  6
DASHED1
 62
    7
 10
1369.8247627124028
 20
1043.3410513398282
 11
1369.8247627124028
 21
1047.1410513398282
  0
LINE
  8
_0-0_立面本体
  6
DASHED1
 62
    7
 10
1369.3247627124026
 20
1047.6410513398284
 11
1361.3247627124023
 21
1047.6410513398284
  0
LINE
  8
_0-0_立面本体
  6
DASHED1
 62
    7
 10
1360.0247627124026
 20
1048.8410513398284
 11
1360.0247627124026
 21
1047.7410513398283
  0
LINE
  8
_0-0_立面本体
  6
DASHED1
 62
    7
 10
1359.5247627124026
 20
1047.2410513398285
 11
1352.0247627124026
 21
1047.2410513398285
  0
LINE
  8
_0-0_立面本体
  6
DASHED1
 62
    7
 10
1352.0247627124026
 20
1047.2410513398285
 11
1352.0247627124026
 21
1043.2410513398283
  0
LINE
  8
_0-0_立面本体
  6
DASHED1
 62
    7
 10
1351.6247627124027
 20
1046.7410513398283
 11
1351.6247627124027
 21
1047.2410513398285
  0
LINE
  8
_0-0_立面本体
  6
DASHED1
 62
    7
 10
1350.8247627124026
 20
1049.3410513398282
 11
1350.8247627124026
 21
1040.7410513398283
  0
LINE
  8
_0-0_立面本体
  6
DASHED1
 62
    7
 10
1351.6247627124027
 20
1046.7410513398283
 11
1350.8247627124026
 21
1046.7410513398283
  0
LINE
  8
_0-0_立面本体
  6
DASHED1
 62
    7
 10
1351.6247627124027
 20
1043.7410513398281
 11
1350.8247627124026
 21
1043.7410513398281
  0
LINE
  8
_0-0_立面本体
  6
DASHED1
 62
    7
 10
1360.8247627124026
 20
1043.2410513398283
 11
1352.0247627124026
 21
1043.2410513398283
  0
LINE
  8
_0-0_立面本体
  6
DASHED1
 62
    7
 10
1360.8247627124026
 20
1040.7410513398283
 11
1360.8247627124026
 21
1043.2410513398283
  0
LINE
  8
_0-0_立面本体
  6
DASHED1
 62
    7
 10
1352.0247627124026
 20
1043.2410513398283
 11
1351.6247627124027
 21
1043.2410513398283
  0
LINE
  8
_0-0_立面本体
  6
DASHED1
 62
    7
 10
1360.8247627124026
 20
1047.2410513398285
 11
1351.6247627124027
 21
1047.2410513398285
  0
LINE
  8
_0-0_立面本体
  6
DASHED1
 62
    7
 10
1351.6247627124027
 20
1043.2410513398283
 11
1351.6247627124027
 21
1043.7410513398281
  0
LINE
  8
_0-0_立面本体
  6
DASHED1
 62
    7
 10
1360.8247627124026
 20
1048.1747013398282
 11
1350.8247627124026
 21
1048.1747013398282
  0
LINE
  8
_0-0_立面本体
  6
DASHED1
 62
    7
 10
1351.6247627124027
 20
1047.2410513398285
 11
1350.8247627124026
 21
1047.2410513398285
  0
LINE
  8
_0-0_立面本体
  6
DASHED1
 62
    7
 10
1350.8247627124026
 20
1050.2410513398283
 11
1350.8247627124026
 21
1049.3410513398282
  0
LINE
  8
_0-0_立面本体
  6
DASHED1
 62
    7
 10
1360.8247627124026
 20
1043.2410513398283
 11
1360.8247627124026
 21
1050.2410513398283
  0
LINE
  8
_0-0_立面本体
  6
DASHED1
 62
    7
 10
1360.3247627124028
 20
1070.7410513398283
 11
1351.3247627124023
 21
1070.7410513398283
  0
LINE
  8
_0-0_立面本体
  6
DASHED1
 62
    7
 10
1351.3247627124023
 20
1040.2410513398283
 11
1360.3247627124028
 21
1040.2410513398283
  0
LINE
  8
_0-0_立面本体
  6
DASHED1
 62
    7
 10
1362.3021627124026
 20
1045.2410513398283
 11
1349.2283377124026
 21
1045.2410513398283
  0
LINE
  8
_0-0_立面本体
  6
DASHED1
 62
    7
 10
1350.8247627124026
 20
1070.2410513398283
 11
1350.8247627124026
 21
1050.2410513398283
  0
ARC
  8
_0-0_立面本体
  6
DASHED1
 62
    7
 10
1361.3247627124023
 20
1048.1410513398282
 40
0.5
 50
179.99999999999991
 51
269.99999999999994
  0
ARC
  8
_0-0_立面本体
  6
DASHED1
 62
    7
 10
1361.3247627124023
 20
1042.3410513398284
 40
0.5
 50
89.999999999999971
 51
180
  0
ARC
  8
_0-0_立面本体
  6
DASHED1
 62
    7
 10
1359.5247627124026
 20
1042.7410513398283
 40
0.5
 50
359.99999999999994
 51
89.999999999999971
  0
ARC
  8
_0-0_立面本体
  6
DASHED1
 62
    7
 10
1359.5247627124026
 20
1047.7410513398283
 40
0.5
 50
269.99999999999988
 51
359.99999999999988
  0
ARC
  8
_0-0_立面本体
  6
DASHED1
 62
    7
 10
1369.3247627124026
 20
1047.1410513398282
 40
0.5
 50
359.99999999999994
 51
89.999999999999971
  0
ARC
  8
_0-0_立面本体
  6
DASHED1
 62
    7
 10
1369.3247627124026
 20
1043.3410513398282
 40
0.5
 50
269.99999999999988
 51
359.99999999999988
  0
ARC
  8
_0-0_立面本体
  6
DASHED1
 62
    7
 10
1360.4247627124027
 20
1041.6410513398284
 40
0.4
 50
179.99999999999991
 51
269.99999999999994
  0
ARC
  8
_0-0_立面本体
  6
DASHED1
 62
    7
 10
1360.4247627124027
 20
1041.6410513398284
 40
0.4
 50
269.99999999999988
 51
359.99999999999988
  0
ARC
  8
_0-0_立面本体
  6
DASHED1
 62
    7
 10
1360.4247627124027
 20
1048.8410513398284
 40
0.4
 50
359.99999999999994
 51
89.999999999999971
  0
ARC
  8
_0-0_立面本体
  6
DASHED1
 62
    7
 10
1360.4247627124027
 20
1048.8410513398284
 40
0.4
 50
89.999999999999971
 51
180
  0
ARC
  8
_0-0_立面本体
  6
DASHED1
 62
    7
 10
1360.3247627124028
 20
1070.2410513398283
 40
0.5
 50
359.99999999999994
 51
89.999999999999971
  0
ARC
  8
_0-0_立面本体
  6
DASHED1
 62
    7
 10
1351.3247627124023
 20
1070.2410513398283
 40
0.5
 50
89.999999999999971
 51
180
  0
ARC
  8
_0-0_立面本体
  6
DASHED1
 62
    7
 10
1351.3247627124023
 20
1040.7410513398283
 40
0.5
 50
179.99999999999991
 51
269.99999999999994
  0
ARC
  8
_0-0_立面本体
  6
DASHED1
 62
    7
 10
1360.3247627124028
 20
1040.7410513398283
 40
0.5
 50
269.99999999999988
 51
359.99999999999988
  0
LINE
  8
_0-0_立面本体
  6
DASHED1
 62
    7
 10
1360.8247627124026
 20
1050.2410513398283
 11
1360.8247627124026
 21
1070.2410513398283
  0
LINE
  8
_0-0_立面本体
  6
DASHED1
 62
    7
 10
1025.8300627124021
 20
1045.2410513398283
 11
1048.1109877124022
 21
1045.2410513398283
  0
LINE
  8
_0-0_立面本体
  6
DASHED1
 62
    7
 10
1035.8247627124023
 20
1041.6410513398284
 11
1035.8247627124023
 21
1048.8410513398284
  0
LINE
  8
_0-0_立面本体
  6
DASHED1
 62
    7
 10
1036.6247627124023
 20
1047.7410513398283
 11
1036.6247627124023
 21
1042.7410513398283
  0
LINE
  8
_0-0_立面本体
  6
DASHED1
 62
    7
 10
1044.6247627124023
 20
1043.2410513398283
 11
1037.1247627124023
 21
1043.2410513398283
  0
LINE
  8
_0-0_立面本体
  6
DASHED1
 62
    7
 10
1036.6247627124023
 20
1042.7410513398283
 11
1036.6247627124023
 21
1041.6410513398284
  0
LINE
  8
_0-0_立面本体
  6
DASHED1
 62
    7
 10
1035.3247627124023
 20
1042.8410513398282
 11
1027.3247627124023
 21
1042.8410513398282
  0
LINE
  8
_0-0_立面本体
  6
DASHED1
 62
    7
 10
1026.8247627124021
 20
1043.3410513398282
 11
1026.8247627124021
 21
1047.1410513398282
  0
LINE
  8
_0-0_立面本体
  6
DASHED1
 62
    7
 10
1027.3247627124023
 20
1047.6410513398284
 11
1035.3247627124023
 21
1047.6410513398284
  0
LINE
  8
_0-0_立面本体
  6
DASHED1
 62
    7
 10
1036.6247627124023
 20
1048.8410513398284
 11
1036.6247627124023
 21
1047.7410513398283
  0
LINE
  8
_0-0_立面本体
  6
DASHED1
 62
    7
 10
1037.1247627124023
 20
1047.2410513398285
 11
1044.6247627124023
 21
1047.2410513398285
  0
LINE
  8
_0-0_立面本体
  6
DASHED1
 62
    7
 10
1044.6247627124023
 20
1047.2410513398285
 11
1044.6247627124023
 21
1043.2410513398283
  0
LINE
  8
_0-0_立面本体
  6
DASHED1
 62
    7
 10
1045.0247627124022
 20
1046.7410513398283
 11
1045.0247627124022
 21
1047.2410513398285
  0
LINE
  8
_0-0_立面本体
  6
DASHED1
 62
    7
 10
1045.8247627124023
 20
1049.3410513398282
 11
1045.8247627124023
 21
1040.7410513398283
  0
LINE
  8
_0-0_立面本体
  6
DASHED1
 62
    7
 10
1045.0247627124022
 20
1046.7410513398283
 11
1045.8247627124023
 21
1046.7410513398283
  0
LINE
  8
_0-0_立面本体
  6
DASHED1
 62
    7
 10
1045.0247627124022
 20
1043.7410513398281
 11
1045.8247627124023
 21
1043.7410513398281
  0
LINE
  8
_0-0_立面本体
  6
DASHED1
 62
    7
 10
1035.8247627124023
 20
1043.2410513398283
 11
1044.6247627124023
 21
1043.2410513398283
  0
LINE
  8
_0-0_立面本体
  6
DASHED1
 62
    7
 10
1035.8247627124023
 20
1040.7410513398283
 11
1035.8247627124023
 21
1043.2410513398283
  0
LINE
  8
_0-0_立面本体
  6
DASHED1
 62
    7
 10
1044.6247627124023
 20
1043.2410513398283
 11
1045.0247627124022
 21
1043.2410513398283
  0
LINE
  8
_0-0_立面本体
  6
DASHED1
 62
    7
 10
1035.8247627124023
 20
1047.2410513398285
 11
1045.0247627124022
 21
1047.2410513398285
  0
LINE
  8
_0-0_立面本体
  6
DASHED1
 62
    7
 10
1045.0247627124022
 20
1043.2410513398283
 11
1045.0247627124022
 21
1043.7410513398281
  0
LINE
  8
_0-0_立面本体
  6
DASHED1
 62
    7
 10
1035.8247627124023
 20
1048.1747013398282
 11
1045.8247627124023
 21
1048.1747013398282
  0
LINE
  8
_0-0_立面本体
  6
DASHED1
 62
    7
 10
1045.0247627124022
 20
1047.2410513398285
 11
1045.8247627124023
 21
1047.2410513398285
  0
LINE
  8
_0-0_立面本体
  6
DASHED1
 62
    7
 10
1045.8247627124023
 20
1050.2410513398283
 11
1045.8247627124023
 21
1049.3410513398282
  0
LINE
  8
_0-0_立面本体
  6
DASHED1
 62
    7
 10
1035.8247627124023
 20
1043.2410513398283
 11
1035.8247627124023
 21
1050.2410513398283
  0
LINE
  8
_0-0_立面本体
  6
DASHED1
 62
    7
 10
1036.3247627124021
 20
1070.7410513398283
 11
1045.3247627124023
 21
1070.7410513398283
  0
LINE
  8
_0-0_立面本体
  6
DASHED1
 62
    7
 10
1045.3247627124023
 20
1040.2410513398283
 11
1036.3247627124021
 21
1040.2410513398283
  0
LINE
  8
_0-0_立面本体
  6
DASHED1
 62
    7
 10
1034.3473627124024
 20
1045.2410513398283
 11
1047.4211877124021
 21
1045.2410513398283
  0
LINE
  8
_0-0_立面本体
  6
DASHED1
 62
    7
 10
1045.8247627124023
 20
1070.2410513398283
 11
1045.8247627124023
 21
1050.2410513398283
  0
ARC
  8
_0-0_立面本体
  6
DASHED1
 62
    7
 10
1035.3247627124023
 20
1048.1410513398282
 40
0.5
 50
270.00000000000005
 51
0.0000000000000763
  0
ARC
  8
_0-0_立面本体
  6
DASHED1
 62
    7
 10
1035.3247627124023
 20
1042.3410513398284
 40
0.5
 50
0
 51
90.000000000000028
  0
ARC
  8
_0-0_立面本体
  6
DASHED1
 62
    7
 10
1037.1247627124023
 20
1042.7410513398283
 40
0.5
 50
90.000000000000028
 51
180.00000000000005
  0
ARC
  8
_0-0_立面本体
  6
DASHED1
 62
    7
 10
1037.1247627124023
 20
1047.7410513398283
 40
0.5
 50
180.00000000000005
 51
270.00000000000005
  0
ARC
  8
_0-0_立面本体
  6
DASHED1
 62
    7
 10
1027.3247627124023
 20
1047.1410513398282
 40
0.5
 50
90.000000000000028
 51
180.00000000000005
  0
ARC
  8
_0-0_立面本体
  6
DASHED1
 62
    7
 10
1027.3247627124023
 20
1043.3410513398282
 40
0.5
 50
180.00000000000005
 51
270.00000000000005
  0
ARC
  8
_0-0_立面本体
  6
DASHED1
 62
    7
 10
1036.2247627124022
 20
1041.6410513398284
 40
0.4
 50
270.00000000000005
 51
0.0000000000000763
  0
ARC
  8
_0-0_立面本体
  6
DASHED1
 62
    7
 10
1036.2247627124022
 20
1041.6410513398284
 40
0.4
 50
180.00000000000005
 51
270.00000000000005
  0
ARC
  8
_0-0_立面本体
  6
DASHED1
 62
    7
 10
1036.2247627124022
 20
1048.8410513398284
 40
0.4
 50
90.000000000000028
 51
180.00000000000005
  0
ARC
  8
_0-0_立面本体
  6
DASHED1
 62
    7
 10
1036.2247627124022
 20
1048.8410513398284
 40
0.4
 50
0
 51
90.000000000000028
  0
ARC
  8
_0-0_立面本体
  6
DASHED1
 62
    7
 10
1036.3247627124021
 20
1070.2410513398283
 40
0.5
 50
90.000000000000028
 51
180.00000000000005
  0
ARC
  8
_0-0_立面本体
  6
DASHED1
 62
    7
 10
1045.3247627124023
 20
1070.2410513398283
 40
0.5
 50
0
 51
90.000000000000028
  0
ARC
  8
_0-0_立面本体
  6
DASHED1
 62
    7
 10
1045.3247627124023
 20
1040.7410513398283
 40
0.5
 50
270.00000000000005
 51
0.0000000000000763
  0
ARC
  8
_0-0_立面本体
  6
DASHED1
 62
    7
 10
1036.3247627124021
 20
1040.7410513398283
 40
0.5
 50
180.00000000000005
 51
270.00000000000005
  0
LINE
  8
_0-0_立面本体
  6
DASHED1
 62
    7
 10
1035.8247627124023
 20
1050.2410513398283
 11
1035.8247627124023
 21
1070.2410513398283
  0
LINE
  8
_0-0_立面本体
  6
DASHED1
 62
    7
 10
1020.8194627124022
 20
1045.2410513398283
 11
998.53853771240221
 21
1045.2410513398283
  0
LINE
  8
_0-0_立面本体
  6
DASHED1
 62
    7
 10
1010.8247627124023
 20
1041.6410513398284
 11
1010.8247627124023
 21
1048.8410513398284
  0
LINE
  8
_0-0_立面本体
  6
DASHED1
 62
    7
 10
1010.024762712402
 20
1047.7410513398283
 11
1010.024762712402
 21
1042.7410513398283
  0
LINE
  8
_0-0_立面本体
  6
DASHED1
 62
    7
 10
1002.0247627124024
 20
1043.2410513398283
 11
1009.5247627124024
 21
1043.2410513398283
  0
LINE
  8
_0-0_立面本体
  6
DASHED1
 62
    7
 10
1010.024762712402
 20
1042.7410513398283
 11
1010.024762712402
 21
1041.6410513398284
  0
LINE
  8
_0-0_立面本体
  6
DASHED1
 62
    7
 10
1011.324762712402
 20
1042.8410513398282
 11
1019.3247627124021
 21
1042.8410513398282
  0
LINE
  8
_0-0_立面本体
  6
DASHED1
 62
    7
 10
1019.8247627124022
 20
1043.3410513398282
 11
1019.8247627124022
 21
1047.1410513398282
  0
LINE
  8
_0-0_立面本体
  6
DASHED1
 62
    7
 10
1019.3247627124021
 20
1047.6410513398284
 11
1011.324762712402
 21
1047.6410513398284
  0
LINE
  8
_0-0_立面本体
  6
DASHED1
 62
    7
 10
1010.024762712402
 20
1048.8410513398284
 11
1010.024762712402
 21
1047.7410513398283
  0
LINE
  8
_0-0_立面本体
  6
DASHED1
 62
    7
 10
1009.5247627124024
 20
1047.2410513398285
 11
1002.0247627124024
 21
1047.2410513398285
  0
LINE
  8
_0-0_立面本体
  6
DASHED1
 62
    7
 10
1002.0247627124024
 20
1047.2410513398285
 11
1002.0247627124024
 21
1043.2410513398283
  0
LINE
  8
_0-0_立面本体
  6
DASHED1
 62
    7
 10
1001.6247627124023
 20
1046.7410513398283
 11
1001.6247627124023
 21
1047.2410513398285
  0
LINE
  8
_0-0_立面本体
  6
DASHED1
 62
    7
 10
1000.8247627124023
 20
1049.3410513398282
 11
1000.8247627124023
 21
1040.7410513398283
  0
LINE
  8
_0-0_立面本体
  6
DASHED1
 62
    7
 10
1001.6247627124023
 20
1046.7410513398283
 11
1000.8247627124023
 21
1046.7410513398283
  0
LINE
  8
_0-0_立面本体
  6
DASHED1
 62
    7
 10
1001.6247627124023
 20
1043.7410513398281
 11
1000.8247627124023
 21
1043.7410513398281
  0
LINE
  8
_0-0_立面本体
  6
DASHED1
 62
    7
 10
1010.8247627124023
 20
1043.2410513398283
 11
1002.0247627124024
 21
1043.2410513398283
  0
LINE
  8
_0-0_立面本体
  6
DASHED1
 62
    7
 10
1010.8247627124023
 20
1040.7410513398283
 11
1010.8247627124023
 21
1043.2410513398283
  0
LINE
  8
_0-0_立面本体
  6
DASHED1
 62
    7
 10
1002.0247627124024
 20
1043.2410513398283
 11
1001.6247627124023
 21
1043.2410513398283
  0
LINE
  8
_0-0_立面本体
  6
DASHED1
 62
    7
 10
1010.8247627124023
 20
1047.2410513398285
 11
1001.6247627124023
 21
1047.2410513398285
  0
LINE
  8
_0-0_立面本体
  6
DASHED1
 62
    7
 10
1001.6247627124023
 20
1043.2410513398283
 11
1001.6247627124023
 21
1043.7410513398281
  0
LINE
  8
_0-0_立面本体
  6
DASHED1
 62
    7
 10
1010.8247627124023
 20
1048.1747013398282
 11
1000.8247627124023
 21
1048.1747013398282
  0
LINE
  8
_0-0_立面本体
  6
DASHED1
 62
    7
 10
1001.6247627124023
 20
1047.2410513398285
 11
1000.8247627124023
 21
1047.2410513398285
  0
LINE
  8
_0-0_立面本体
  6
DASHED1
 62
    7
 10
1000.8247627124023
 20
1050.2410513398283
 11
1000.8247627124023
 21
1049.3410513398282
  0
LINE
  8
_0-0_立面本体
  6
DASHED1
 62
    7
 10
1010.8247627124023
 20
1043.2410513398283
 11
1010.8247627124023
 21
1050.2410513398283
  0
LINE
  8
_0-0_立面本体
  6
DASHED1
 62
    7
 10
1010.3247627124023
 20
1070.7410513398283
 11
1001.324762712402
 21
1070.7410513398283
  0
LINE
  8
_0-0_立面本体
  6
DASHED1
 62
    7
 10
1001.324762712402
 20
1040.2410513398283
 11
1010.3247627124023
 21
1040.2410513398283
  0
LINE
  8
_0-0_立面本体
  6
DASHED1
 62
    7
 10
1012.3021627124023
 20
1045.2410513398283
 11
999.22833771240232
 21
1045.2410513398283
  0
LINE
  8
_0-0_立面本体
  6
DASHED1
 62
    7
 10
1000.8247627124023
 20
1070.2410513398283
 11
1000.8247627124023
 21
1050.2410513398283
  0
ARC
  8
_0-0_立面本体
  6
DASHED1
 62
    7
 10
1011.324762712402
 20
1048.1410513398282
 40
0.5
 50
179.99999999999991
 51
269.99999999999994
  0
ARC
  8
_0-0_立面本体
  6
DASHED1
 62
    7
 10
1011.324762712402
 20
1042.3410513398284
 40
0.5
 50
89.999999999999971
 51
180
  0
ARC
  8
_0-0_立面本体
  6
DASHED1
 62
    7
 10
1009.5247627124024
 20
1042.7410513398283
 40
0.5
 50
359.99999999999994
 51
89.999999999999971
  0
ARC
  8
_0-0_立面本体
  6
DASHED1
 62
    7
 10
1009.5247627124024
 20
1047.7410513398283
 40
0.5
 50
269.99999999999988
 51
359.99999999999988
  0
ARC
  8
_0-0_立面本体
  6
DASHED1
 62
    7
 10
1019.3247627124021
 20
1047.1410513398282
 40
0.5
 50
359.99999999999994
 51
89.999999999999971
  0
ARC
  8
_0-0_立面本体
  6
DASHED1
 62
    7
 10
1019.3247627124021
 20
1043.3410513398282
 40
0.5
 50
269.99999999999988
 51
359.99999999999988
  0
ARC
  8
_0-0_立面本体
  6
DASHED1
 62
    7
 10
1010.4247627124022
 20
1041.6410513398284
 40
0.4
 50
179.99999999999991
 51
269.99999999999994
  0
ARC
  8
_0-0_立面本体
  6
DASHED1
 62
    7
 10
1010.4247627124022
 20
1041.6410513398284
 40
0.4
 50
269.99999999999988
 51
359.99999999999988
  0
ARC
  8
_0-0_立面本体
  6
DASHED1
 62
    7
 10
1010.4247627124022
 20
1048.8410513398284
 40
0.4
 50
359.99999999999994
 51
89.999999999999971
  0
ARC
  8
_0-0_立面本体
  6
DASHED1
 62
    7
 10
1010.4247627124022
 20
1048.8410513398284
 40
0.4
 50
89.999999999999971
 51
180
  0
ARC
  8
_0-0_立面本体
  6
DASHED1
 62
    7
 10
1010.3247627124023
 20
1070.2410513398283
 40
0.5
 50
359.99999999999994
 51
89.999999999999971
  0
ARC
  8
_0-0_立面本体
  6
DASHED1
 62
    7
 10
1001.324762712402
 20
1070.2410513398283
 40
0.5
 50
89.999999999999971
 51
180
  0
ARC
  8
_0-0_立面本体
  6
DASHED1
 62
    7
 10
1001.324762712402
 20
1040.7410513398283
 40
0.5
 50
179.99999999999991
 51
269.99999999999994
  0
ARC
  8
_0-0_立面本体
  6
DASHED1
 62
    7
 10
1010.3247627124023
 20
1040.7410513398283
 40
0.5
 50
269.99999999999988
 51
359.99999999999988
  0
LINE
  8
_0-0_立面本体
  6
DASHED1
 62
    7
 10
1010.8247627124023
 20
1050.2410513398283
 11
1010.8247627124023
 21
1070.2410513398283
  0
LINE
  8
_0-0_立面本体
  6
DASHED1
 62
    7
 10
324.83006271240242
 20
1045.2410513398283
 11
347.11098771240244
 21
1045.2410513398283
  0
LINE
  8
_0-0_立面本体
  6
DASHED1
 62
    7
 10
334.82476271240216
 20
1041.6410513398284
 11
334.82476271240216
 21
1048.8410513398284
  0
LINE
  8
_0-0_立面本体
  6
DASHED1
 62
    7
 10
335.62476271240257
 20
1047.7410513398283
 11
335.62476271240257
 21
1042.7410513398283
  0
LINE
  8
_0-0_立面本体
  6
DASHED1
 62
    7
 10
343.62476271240211
 20
1043.2410513398283
 11
336.12476271240211
 21
1043.2410513398283
  0
LINE
  8
_0-0_立面本体
  6
DASHED1
 62
    7
 10
335.62476271240257
 20
1042.7410513398283
 11
335.62476271240257
 21
1041.6410513398284
  0
LINE
  8
_0-0_立面本体
  6
DASHED1
 62
    7
 10
334.32476271240261
 20
1042.8410513398282
 11
326.3247627124025
 21
1042.8410513398282
  0
LINE
  8
_0-0_立面本体
  6
DASHED1
 62
    7
 10
325.82476271240238
 20
1043.3410513398282
 11
325.82476271240238
 21
1047.1410513398282
  0
LINE
  8
_0-0_立面本体
  6
DASHED1
 62
    7
 10
326.3247627124025
 20
1047.6410513398284
 11
334.32476271240261
 21
1047.6410513398284
  0
LINE
  8
_0-0_立面本体
  6
DASHED1
 62
    7
 10
335.62476271240257
 20
1048.8410513398284
 11
335.62476271240257
 21
1047.7410513398283
  0
LINE
  8
_0-0_立面本体
  6
DASHED1
 62
    7
 10
336.12476271240211
 20
1047.2410513398285
 11
343.62476271240211
 21
1047.2410513398285
  0
LINE
  8
_0-0_立面本体
  6
DASHED1
 62
    7
 10
343.62476271240211
 20
1047.2410513398285
 11
343.62476271240211
 21
1043.2410513398283
  0
LINE
  8
_0-0_立面本体
  6
DASHED1
 62
    7
 10
344.02476271240232
 20
1046.7410513398283
 11
344.02476271240232
 21
1047.2410513398285
  0
LINE
  8
_0-0_立面本体
  6
DASHED1
 62
    7
 10
344.82476271240216
 20
1049.3410513398282
 11
344.82476271240216
 21
1040.7410513398283
  0
LINE
  8
_0-0_立面本体
  6
DASHED1
 62
    7
 10
344.02476271240232
 20
1046.7410513398283
 11
344.82476271240216
 21
1046.7410513398283
  0
LINE
  8
_0-0_立面本体
  6
DASHED1
 62
    7
 10
344.02476271240232
 20
1043.7410513398281
 11
344.82476271240216
 21
1043.7410513398281
  0
LINE
  8
_0-0_立面本体
  6
DASHED1
 62
    7
 10
334.82476271240216
 20
1043.2410513398283
 11
343.62476271240211
 21
1043.2410513398283
  0
LINE
  8
_0-0_立面本体
  6
DASHED1
 62
    7
 10
334.82476271240216
 20
1040.7410513398283
 11
334.82476271240216
 21
1043.2410513398283
  0
LINE
  8
_0-0_立面本体
  6
DASHED1
 62
    7
 10
343.62476271240211
 20
1043.2410513398283
 11
344.02476271240232
 21
1043.2410513398283
  0
LINE
  8
_0-0_立面本体
  6
DASHED1
 62
    7
 10
334.82476271240216
 20
1047.2410513398285
 11
344.02476271240232
 21
1047.2410513398285
  0
LINE
  8
_0-0_立面本体
  6
DASHED1
 62
    7
 10
344.02476271240232
 20
1043.2410513398283
 11
344.02476271240232
 21
1043.7410513398281
  0
LINE
  8
_0-0_立面本体
  6
DASHED1
 62
    7
 10
334.82476271240216
 20
1048.1747013398282
 11
344.82476271240216
 21
1048.1747013398282
  0
LINE
  8
_0-0_立面本体
  6
DASHED1
 62
    7
 10
344.02476271240232
 20
1047.2410513398285
 11
344.82476271240216
 21
1047.2410513398285
  0
LINE
  8
_0-0_立面本体
  6
DASHED1
 62
    7
 10
344.82476271240216
 20
1050.2410513398283
 11
344.82476271240216
 21
1049.3410513398282
  0
LINE
  8
_0-0_立面本体
  6
DASHED1
 62
    7
 10
334.82476271240216
 20
1043.2410513398283
 11
334.82476271240216
 21
1050.2410513398283
  0
LINE
  8
_0-0_立面本体
  6
DASHED1
 62
    7
 10
335.32476271240227
 20
1070.7410513398283
 11
344.32476271240261
 21
1070.7410513398283
  0
LINE
  8
_0-0_立面本体
  6
DASHED1
 62
    7
 10
344.32476271240261
 20
1040.2410513398283
 11
335.32476271240227
 21
1040.2410513398283
  0
LINE
  8
_0-0_立面本体
  6
DASHED1
 62
    7
 10
333.34736271240217
 20
1045.2410513398283
 11
346.42118771240234
 21
1045.2410513398283
  0
LINE
  8
_0-0_立面本体
  6
DASHED1
 62
    7
 10
344.82476271240216
 20
1070.2410513398283
 11
344.82476271240216
 21
1050.2410513398283
  0
ARC
  8
_0-0_立面本体
  6
DASHED1
 62
    7
 10
334.32476271240261
 20
1048.1410513398282
 40
0.5
 50
270.00000000000005
 51
0.0000000000000763
  0
ARC
  8
_0-0_立面本体
  6
DASHED1
 62
    7
 10
334.32476271240261
 20
1042.3410513398284
 40
0.5
 50
0
 51
90.000000000000028
  0
ARC
  8
_0-0_立面本体
  6
DASHED1
 62
    7
 10
336.12476271240211
 20
1042.7410513398283
 40
0.5
 50
90.000000000000028
 51
180.00000000000005
  0
ARC
  8
_0-0_立面本体
  6
DASHED1
 62
    7
 10
336.12476271240211
 20
1047.7410513398283
 40
0.5
 50
180.00000000000005
 51
270.00000000000005
  0
ARC
  8
_0-0_立面本体
  6
DASHED1
 62
    7
 10
326.3247627124025
 20
1047.1410513398282
 40
0.5
 50
90.000000000000028
 51
180.00000000000005
  0
ARC
  8
_0-0_立面本体
  6
DASHED1
 62
    7
 10
326.3247627124025
 20
1043.3410513398282
 40
0.5
 50
180.00000000000005
 51
270.00000000000005
  0
ARC
  8
_0-0_立面本体
  6
DASHED1
 62
    7
 10
335.22476271240236
 20
1041.6410513398284
 40
0.4
 50
270.00000000000005
 51
0.0000000000000763
  0
ARC
  8
_0-0_立面本体
  6
DASHED1
 62
    7
 10
335.22476271240236
 20
1041.6410513398284
 40
0.4
 50
180.00000000000005
 51
270.00000000000005
  0
ARC
  8
_0-0_立面本体
  6
DASHED1
 62
    7
 10
335.22476271240236
 20
1048.8410513398284
 40
0.4
 50
90.000000000000028
 51
180.00000000000005
  0
ARC
  8
_0-0_立面本体
  6
DASHED1
 62
    7
 10
335.22476271240236
 20
1048.8410513398284
 40
0.4
 50
0
 51
90.000000000000028
  0
ARC
  8
_0-0_立面本体
  6
DASHED1
 62
    7
 10
335.32476271240227
 20
1070.2410513398283
 40
0.5
 50
90.000000000000028
 51
180.00000000000005
  0
ARC
  8
_0-0_立面本体
  6
DASHED1
 62
    7
 10
344.32476271240261
 20
1070.2410513398283
 40
0.5
 50
0
 51
90.000000000000028
  0
ARC
  8
_0-0_立面本体
  6
DASHED1
 62
    7
 10
344.32476271240261
 20
1040.7410513398283
 40
0.5
 50
270.00000000000005
 51
0.0000000000000763
  0
ARC
  8
_0-0_立面本体
  6
DASHED1
 62
    7
 10
335.32476271240227
 20
1040.7410513398283
 40
0.5
 50
180.00000000000005
 51
270.00000000000005
  0
LINE
  8
_0-0_立面本体
  6
DASHED1
 62
    7
 10
334.82476271240216
 20
1050.2410513398283
 11
334.82476271240216
 21
1070.2410513398283
  0
LINE
  8
_0-3_断面__扉
  6
DASHED1
 62
    2
 10
1010.8247627124026
 20
2465.2744603287765
 11
1035.8247627124026
 21
2465.2744603287765
  0
LINE
  8
_0-3_断面__扉
  6
DASHED1
 62
    2
 10
1010.8247627124026
 20
2465.2744603287765
 11
1010.8247627124026
 21
2527.7744603287765
  0
LINE
  8
_0-3_断面__扉
  6
DASHED1
 62
    2
 10
1035.8247627124026
 20
2465.2744603287765
 11
1035.8247627124026
 21
2527.7744603287765
  0
LINE
  8
_0-3_断面__扉
  6
DASHED1
 62
    4
 10
334.82476271240216
 20
2527.7744603287765
 11
1360.8247627124032
 21
2527.7744603287765
  0
LINE
  8
_0-3_断面__扉
  6
CENTER2
 62
    4
 10
2238.2972550826807
 20
925.24105133983016
 11
2260.7972550826807
 21
925.24105133983016
  0
LINE
  8
_0-3_断面__扉
  6
CENTER2
 62
    4
 10
2248.2972550826807
 20
935.24105133983016
 11
2248.2972550826807
 21
915.24105133983016
  0
CIRCLE
  8
_0-3_断面__扉
  6
CONTINUOUS
 62
    7
 10
2248.2972550826807
 20
925.24105133983016
 40
2.5
  0
CIRCLE
  8
_0-3_断面__扉
  6
CONTINUOUS
 62
    4
 10
2248.2972550826807
 20
925.24105133983016
 40
2.5
  0
LINE
  8
ADD_LINE
  6
DOT
 62
    9
 10
2236.2972550826812
 20
925.24105133983016
 11
2255.2050529321113
 21
925.24105133983016
  0
LINE
  8
_0-3_断面__扉
  6
CENTER2
 62
    4
 10
1986.2972550826812
 20
925.24105133983016
 11
2008.7972550826812
 21
925.24105133983016
  0
LINE
  8
_0-3_断面__扉
  6
CENTER2
 62
    4
 10
1996.2972550826812
 20
935.24105133983016
 11
1996.2972550826812
 21
915.24105133983016
  0
CIRCLE
  8
_0-3_断面__扉
  6
CONTINUOUS
 62
    7
 10
1996.2972550826812
 20
925.24105133983016
 40
2.5
  0
LINE
  8
ADD_LINE
  6
DOT
 62
    9
 10
1996.2972550826812
 20
925.24105133983016
 11
1966.5272584741001
 21
925.24105133983016
  0
CIRCLE
  8
_0-3_断面__扉
  6
CONTINUOUS
 62
    4
 10
1996.2972550826812
 20
925.24105133983016
 40
2.5
  0
LINE
  8
_0-3_断面__扉
  6
CENTER2
 62
    4
 10
2236.8570920036454
 20
985.24105133983016
 11
2259.3570920036454
 21
985.24105133983016
  0
LINE
  8
_0-3_断面__扉
  6
CENTER2
 62
    4
 10
2246.8570920036454
 20
995.24105133983027
 11
2246.8570920036454
 21
975.24105133983016
  0
CIRCLE
  8
_0-3_断面__扉
  6
CONTINUOUS
 62
    7
 10
2246.8570920036454
 20
985.24105133983016
 40
2.5
  0
CIRCLE
  8
_0-3_断面__扉
  6
CONTINUOUS
 62
    4
 10
2246.8570920036454
 20
985.24105133983016
 40
2.5
  0
LINE
  8
ADD_LINE
  6
DOT
 62
    9
 10
2234.8570920036449
 20
985.24105133983016
 11
2253.764889853076
 21
985.24105133983016
  0
LINE
  8
_0-3_断面__扉
  6
CENTER2
 62
    4
 10
1984.8570920036449
 20
985.24105133983016
 11
2007.3570920036449
 21
985.24105133983016
  0
LINE
  8
_0-3_断面__扉
  6
CENTER2
 62
    4
 10
1994.8570920036449
 20
995.24105133983027
 11
1994.8570920036449
 21
975.24105133983016
  0
CIRCLE
  8
_0-3_断面__扉
  6
CONTINUOUS
 62
    7
 10
1994.8570920036449
 20
985.24105133983016
 40
2.5
  0
LINE
  8
ADD_LINE
  6
DOT
 62
    9
 10
1994.8570920036449
 20
985.24105133983016
 11
1965.0870953950643
 21
985.24105133983016
  0
CIRCLE
  8
_0-3_断面__扉
  6
CONTINUOUS
 62
    4
 10
1994.8570920036449
 20
985.24105133983016
 40
2.5
  0
LINE
  8
_0-3_断面__扉
  6
CENTER2
 62
    4
 10
2236.8570920036454
 20
1045.2410513398303
 11
2259.3570920036454
 21
1045.2410513398303
  0
LINE
  8
_0-3_断面__扉
  6
CENTER2
 62
    4
 10
2246.8570920036454
 20
1055.2410513398301
 11
2246.8570920036454
 21
1035.2410513398303
  0
CIRCLE
  8
_0-3_断面__扉
  6
CONTINUOUS
 62
    7
 10
2246.8570920036454
 20
1045.2410513398303
 40
2.5
  0
CIRCLE
  8
_0-3_断面__扉
  6
CONTINUOUS
 62
    4
 10
2246.8570920036454
 20
1045.2410513398303
 40
2.5
  0
LINE
  8
ADD_LINE
  6
DOT
 62
    9
 10
2234.8570920036449
 20
1045.2410513398303
 11
2253.764889853076
 21
1045.2410513398303
  0
LINE
  8
_0-3_断面__扉
  6
CENTER2
 62
    4
 10
1984.8570920036449
 20
1045.2410513398303
 11
2007.3570920036449
 21
1045.2410513398303
  0
LINE
  8
_0-3_断面__扉
  6
CENTER2
 62
    4
 10
1994.8570920036449
 20
1055.2410513398301
 11
1994.8570920036449
 21
1035.2410513398303
  0
CIRCLE
  8
_0-3_断面__扉
  6
CONTINUOUS
 62
    7
 10
1994.8570920036449
 20
1045.2410513398303
 40
2.5
  0
LINE
  8
ADD_LINE
  6
DOT
 62
    9
 10
1994.8570920036449
 20
1045.2410513398303
 11
1965.0870953950643
 21
1045.2410513398303
  0
CIRCLE
  8
_0-3_断面__扉
  6
CONTINUOUS
 62
    4
 10
1994.8570920036449
 20
1045.2410513398303
 40
2.5
  0
LINE
  8
_0-3_断面__扉
  6
CENTER2
 62
    4
 10
2236.8570920036454
 20
1105.2410513398301
 11
2259.3570920036454
 21
1105.2410513398301
  0
LINE
  8
_0-3_断面__扉
  6
CENTER2
 62
    4
 10
2246.8570920036454
 20
1115.2410513398301
 11
2246.8570920036454
 21
1095.2410513398301
  0
CIRCLE
  8
_0-3_断面__扉
  6
CONTINUOUS
 62
    7
 10
2246.8570920036454
 20
1105.2410513398301
 40
2.5
  0
CIRCLE
  8
_0-3_断面__扉
  6
CONTINUOUS
 62
    4
 10
2246.8570920036454
 20
1105.2410513398301
 40
2.5
  0
LINE
  8
ADD_LINE
  6
DOT
 62
    9
 10
2234.8570920036449
 20
1105.2410513398301
 11
2253.764889853076
 21
1105.2410513398301
  0
LINE
  8
_0-3_断面__扉
  6
CENTER2
 62
    4
 10
1984.8570920036449
 20
1105.2410513398301
 11
2007.3570920036449
 21
1105.2410513398301
  0
LINE
  8
_0-3_断面__扉
  6
CENTER2
 62
    4
 10
1994.8570920036449
 20
1115.2410513398301
 11
1994.8570920036449
 21
1095.2410513398301
  0
CIRCLE
  8
_0-3_断面__扉
  6
CONTINUOUS
 62
    7
 10
1994.8570920036449
 20
1105.2410513398301
 40
2.5
  0
LINE
  8
ADD_LINE
  6
DOT
 62
    9
 10
1994.8570920036449
 20
1105.2410513398301
 11
1965.0870953950643
 21
1105.2410513398301
  0
CIRCLE
  8
_0-3_断面__扉
  6
CONTINUOUS
 62
    4
 10
1994.8570920036449
 20
1105.2410513398301
 40
2.5
  0
LINE
  8
_0-3_断面__扉
  6
CENTER2
 62
    4
 10
2236.8570920036454
 20
1165.2410513398303
 11
2259.3570920036454
 21
1165.2410513398303
  0
LINE
  8
_0-3_断面__扉
  6
CENTER2
 62
    4
 10
2246.8570920036454
 20
1175.2410513398303
 11
2246.8570920036454
 21
1155.2410513398303
  0
CIRCLE
  8
_0-3_断面__扉
  6
CONTINUOUS
 62
    7
 10
2246.8570920036454
 20
1165.2410513398303
 40
2.5
  0
CIRCLE
  8
_0-3_断面__扉
  6
CONTINUOUS
 62
    4
 10
2246.8570920036454
 20
1165.2410513398303
 40
2.5
  0
LINE
  8
ADD_LINE
  6
DOT
 62
    9
 10
2234.8570920036449
 20
1165.2410513398303
 11
2253.764889853076
 21
1165.2410513398303
  0
LINE
  8
_0-3_断面__扉
  6
CENTER2
 62
    4
 10
1984.8570920036449
 20
1165.2410513398303
 11
2007.3570920036449
 21
1165.2410513398303
  0
LINE
  8
_0-3_断面__扉
  6
CENTER2
 62
    4
 10
1994.8570920036449
 20
1175.2410513398303
 11
1994.8570920036449
 21
1155.2410513398303
  0
CIRCLE
  8
_0-3_断面__扉
  6
CONTINUOUS
 62
    7
 10
1994.8570920036449
 20
1165.2410513398303
 40
2.5
  0
LINE
  8
ADD_LINE
  6
DOT
 62
    9
 10
1994.8570920036449
 20
1165.2410513398303
 11
1965.0870953950643
 21
1165.2410513398303
  0
CIRCLE
  8
_0-3_断面__扉
  6
CONTINUOUS
 62
    4
 10
1994.8570920036449
 20
1165.2410513398303
 40
2.5
  0
LINE
  8
_0-3_断面__扉
  6
CONTINUOUS
 62
    7
 10
2272.357092003644
 20
752.24105133983027
 11
2272.357092003644
 21
1345.2410513398308
  0
LINE
  8
_0-3_断面__扉
  6
CONTINUOUS
 62
    4
 10
1945.8570920036454
 20
1330.2410513398308
 11
2269.857092003644
 21
1330.2410513398308
  0
LINE
  8
_0-3_断面__扉
  6
CONTINUOUS
 62
    5
 10
2269.857092003644
 20
752.24105133983027
 11
2287.8570920036445
 21
752.24105133983027
  0
LINE
  8
_0-3_断面__扉
  6
CONTINUOUS
 62
    5
 10
1945.8570920036454
 20
760.24105133983027
 11
2269.857092003644
 21
760.24105133983027
  0
LINE
  8
_0-3_断面__扉
  6
CONTINUOUS
 62
    5
 10
2269.857092003644
 20
760.24105133983027
 11
2269.857092003644
 21
752.24105133983027
  0
LINE
  8
_0-3_断面__扉
  6
CONTINUOUS
 62
    4
 10
2269.857092003644
 20
752.24105133983027
 11
2269.857092003644
 21
1345.2410513398308
  0
LINE
  8
_0-3_断面__扉
  6
CONTINUOUS
 62
    4
 10
2287.8570920036445
 20
1327.241051339831
 11
2287.8570920036445
 21
752.24105133983027
  0
LINE
  8
_0-3_断面__扉
  6
CONTINUOUS
 62
    4
 10
2272.8570920036445
 20
752.24105133983027
 11
2272.8570920036445
 21
1345.2410513398308
  0
LINE
  8
_0-3_断面__扉
  6
CONTINUOUS
 62
    4
 10
1945.8570920036454
 20
1345.2410513398308
 11
1945.8570920036454
 21
760.24105133983027
  0
LINE
  8
_0-3_断面__扉
  6
CONTINUOUS
 62
    4
 10
2272.8570920036445
 20
797.24105133983027
 11
2287.8570920036445
 21
797.24105133983027
  0
LINE
  8
_0-3_断面__扉
  6
CONTINUOUS
 62
    4
 10
2287.8570920036445
 20
797.24105133983027
 11
2272.8570920036445
 21
752.24105133983027
  0
LINE
  8
_0-3_断面__扉
  6
CONTINUOUS
 62
    5
 10
1945.8570920036454
 20
760.24105133983027
 11
1945.8570920036454
 21
745.24105133983027
  0
LINE
  8
_0-3_断面__扉
  6
CONTINUOUS
 62
    5
 10
1945.8570920036454
 20
745.24105133983027
 11
2287.8570920036445
 21
745.24105133983027
  0
LINE
  8
_0-3_断面__扉
  6
CONTINUOUS
 62
    5
 10
2287.8570920036445
 20
752.24105133983027
 11
2287.8570920036445
 21
745.24105133983027
  0
LINE
  8
_0-3_断面__扉
  6
CONTINUOUS
 62
    4
 10
2287.8570920036445
 20
1345.2410513398308
 11
2272.8570920036445
 21
1260.2410513398306
  0
LINE
  8
_0-3_断面__扉
  6
DASHED1
 62
    9
 10
2280.3570920036445
 20
1274.2410513398306
 11
2280.3570920036445
 21
1266.2410513398308
  0
LINE
  8
_0-3_断面__扉
  6
DASHED1
 62
    9
 10
2276.3570920036445
 20
1270.2410513398306
 11
2284.357092003644
 21
1270.2410513398306
  0
LINE
  8
_0-3_断面__扉
  6
DASHED1
 62
    9
 10
2280.3570920036445
 20
1334.2410513398306
 11
2280.3570920036445
 21
1326.2410513398308
  0
LINE
  8
_0-3_断面__扉
  6
DASHED1
 62
    9
 10
2276.3570920036445
 20
1330.2410513398308
 11
2284.357092003644
 21
1330.2410513398308
  0
CIRCLE
  8
_0-3_断面__扉
  6
DASHED1
 62
    9
 10
2280.3570920036445
 20
1270.2410513398306
 40
4.0000000000000035
  0
CIRCLE
  8
_0-3_断面__扉
  6
DASHED1
 62
    9
 10
2280.3570920036445
 20
1330.2410513398308
 40
4.0000000000000035
  0
LINE
  8
_0-3_断面__扉
  6
CONTINUOUS
 62
    4
 10
2272.8570920036445
 20
1260.2410513398306
 11
2287.8570920036445
 21
1260.2410513398306
  0
LINE
  8
_0-3_断面__扉
  6
CONTINUOUS
 62
    4
 10
2287.8570920036445
 20
1345.2410513398308
 11
2287.8570920036445
 21
1331.2410513398308
  0
LINE
  8
_0-3_断面__扉
  6
CONTINUOUS
 62
    4
 10
2287.8570920036445
 20
1327.241051339831
 11
2287.8570920036445
 21
1331.2410513398308
  0
LINE
  8
_0-3_断面__扉
  6
CONTINUOUS
 62
    4
 10
1945.8570920036454
 20
1345.2410513398308
 11
2287.8570920036445
 21
1345.2410513398308
  0
LINE
  8
ADD_LINE
  6
DOT
 62
    9
 10
1915.8570920036449
 20
1375.2410513398303
 11
1915.8570920036449
 21
760.24105133982982
  0
LINE
  8
ADD_LINE
  6
DOT
 62
    9
 10
2317.857092003644
 20
1375.2410513398303
 11
1915.8570920036449
 21
1375.2410513398303
  0
LINE
  8
ADD_LINE
  6
DOT
 62
    9
 10
2317.857092003644
 20
752.24105133982993
 11
2317.857092003644
 21
1375.2410513398303
  0
LINE
  8
ADD_LINE
  6
DOT
 62
    9
 10
2317.857092003644
 20
715.24105133982982
 11
2317.857092003644
 21
752.24105133982993
  0
LINE
  8
ADD_LINE
  6
DOT
 62
    9
 10
1945.8570920036449
 20
715.24105133982982
 11
2317.857092003644
 21
715.24105133982982
  0
LINE
  8
_0-6_平面扉
  6
CONTINUOUS
 62
    7
 10
1976.3570920036454
 20
1050.2410513398294
 11
2265.3570920036454
 21
1050.2410513398294
  0
LINE
  8
_0-6_平面扉
  6
CONTINUOUS
 62
    7
 10
2265.3570920036454
 20
1050.2410513398294
 11
2265.3570920036454
 21
1065.2410513398294
  0
LINE
  8
_0-6_平面扉
  6
CONTINUOUS
 62
    7
 10
2265.3570920036454
 20
1065.2410513398294
 11
1976.3570920036454
 21
1065.2410513398294
  0
LINE
  8
_0-6_平面扉
  6
CONTINUOUS
 62
    7
 10
1976.3570920036454
 20
1065.2410513398294
 11
1976.3570920036454
 21
1050.2410513398294
  0
LINE
  8
_0-6_平面扉
  6
DASHED1
 62
    7
 10
1358.8247627124032
 20
1050.2410513398285
 11
1358.8247627124032
 21
1065.2410513398285
  0
LINE
  8
_0-6_平面扉
  6
DASHED1
 62
    7
 10
1358.824762712403
 20
2234.2744603287769
 11
1358.824762712403
 21
2523.2744603287769
  0
LINE
  8
_0-6_平面扉
  6
DASHED1
 62
    7
 10
1358.824762712403
 20
2234.2744603287769
 11
1358.824762712403
 21
2523.2744603287769
  0
LINE
  8
_0-6_平面扉
  6
DASHED1
 62
    7
 10
1037.8247627124023
 20
1065.2410513398285
 11
1037.8247627124023
 21
1050.2410513398285
  0
LINE
  8
_0-6_平面扉
  6
DASHED1
 62
    7
 10
1008.8247627124025
 20
1050.2410513398285
 11
1008.8247627124025
 21
1065.2410513398285
  0
LINE
  8
_0-6_平面扉
  6
DASHED1
 62
    7
 10
1037.8247627124026
 20
2234.2744603287769
 11
1037.8247627124026
 21
2523.2744603287769
  0
LINE
  8
_0-6_平面扉
  6
DASHED1
 62
    7
 10
1037.8247627124026
 20
2234.2744603287769
 11
1037.8247627124026
 21
2523.2744603287769
  0
LINE
  8
_0-6_平面扉
  6
DASHED1
 62
    7
 10
1008.824762712402
 20
2234.2744603287769
 11
1008.824762712402
 21
2523.2744603287769
  0
LINE
  8
_0-6_平面扉
  6
DASHED1
 62
    7
 10
1008.824762712402
 20
2234.2744603287769
 11
1008.824762712402
 21
2523.2744603287769
  0
LINE
  8
_0-6_平面扉
  6
DASHED1
 62
    7
 10
1358.8247627124032
 20
1065.2410513398285
 11
1037.8247627124023
 21
1065.2410513398285
  0
LINE
  8
_0-6_平面扉
  6
DASHED1
 62
    7
 10
1358.8247627124032
 20
1050.2410513398285
 11
1037.8247627124023
 21
1050.2410513398285
  0
LINE
  8
_0-6_平面扉
  6
DASHED1
 62
    7
 10
1037.8247627124026
 20
2523.2744603287769
 11
1358.824762712403
 21
2523.2744603287769
  0
LINE
  8
_0-6_平面扉
  6
DASHED1
 62
    7
 10
1037.8247627124026
 20
2234.2744603287769
 11
1358.824762712403
 21
2234.2744603287769
  0
LINE
  8
_0-6_平面扉
  6
DASHED1
 62
    7
 10
1008.8247627124023
 20
1065.2410513398285
 11
336.82476271240204
 21
1065.2410513398285
  0
LINE
  8
_0-6_平面扉
  6
DASHED1
 62
    7
 10
1008.8247627124023
 20
1050.2410513398285
 11
336.82476271240204
 21
1050.2410513398285
  0
LINE
  8
_0-6_平面扉
  6
DASHED1
 62
    7
 10
336.82476271240204
 20
2523.2744603287769
 11
1008.824762712402
 21
2523.2744603287769
  0
LINE
  8
_0-6_平面扉
  6
DASHED1
 62
    7
 10
336.82476271240204
 20
2234.2744603287769
 11
1008.824762712402
 21
2234.2744603287769
  0
LINE
  8
_0-6_平面扉
  6
DASHED1
 62
    7
 10
336.82476271240176
 20
1065.2410513398285
 11
336.82476271240176
 21
1050.2410513398285
  0
LINE
  8
_0-6_平面扉
  6
DASHED1
 62
    7
 10
336.82476271240204
 20
2234.2744603287769
 11
336.82476271240204
 21
2523.2744603287769
  0
LINE
  8
_0-6_平面扉
  6
DASHED1
 62
    7
 10
336.82476271240204
 20
2234.2744603287769
 11
336.82476271240204
 21
2523.2744603287769
  0
LINE
  8
_0-b_ラッチ断面__扉側
  6
DASHED1
 62
    7
 10
2024.3570920036449
 20
1327.6646013398305
 11
2023.2504420036448
 21
1328.3035513398306
  0
LINE
  8
_0-b_ラッチ断面__扉側
  6
DASHED1
 62
    7
 10
2024.3570920036449
 20
1326.7986013398306
 11
2022.3570920036447
 21
1327.9533013398304
  0
LINE
  8
_0-b_ラッチ断面__扉側
  6
DASHED1
 62
    7
 10
2024.3570920036449
 20
1325.9325513398307
 11
2022.3570920036447
 21
1327.0872513398305
  0
LINE
  8
_0-b_ラッチ断面__扉側
  6
DASHED1
 62
    7
 10
2024.3570920036449
 20
1325.0665513398305
 11
2022.3570920036447
 21
1326.2212513398303
  0
LINE
  8
_0-b_ラッチ断面__扉側
  6
DASHED1
 62
    7
 10
2024.3570920036449
 20
1324.2005013398306
 11
2022.3570920036447
 21
1325.3552013398305
  0
LINE
  8
_0-b_ラッチ断面__扉側
  6
DASHED1
 62
    7
 10
2024.3570920036449
 20
1323.3345013398306
 11
2022.3570920036447
 21
1324.4892013398305
  0
LINE
  8
_0-b_ラッチ断面__扉側
  6
DASHED1
 62
    7
 10
2024.3570920036449
 20
1322.4684513398306
 11
2022.3570920036447
 21
1323.6231513398306
  0
LINE
  8
_0-b_ラッチ断面__扉側
  6
DASHED1
 62
    7
 10
2024.3570920036449
 20
1321.6024513398306
 11
2022.3570920036447
 21
1322.7571513398306
  0
LINE
  8
_0-b_ラッチ断面__扉側
  6
DASHED1
 62
    7
 10
2024.3570920036449
 20
1320.7364013398305
 11
2022.3570920036447
 21
1321.8911013398305
  0
LINE
  8
_0-b_ラッチ断面__扉側
  6
DASHED1
 62
    7
 10
2024.3570920036449
 20
1319.8704013398305
 11
2022.3570920036447
 21
1321.0251013398305
  0
LINE
  8
_0-b_ラッチ断面__扉側
  6
DASHED1
 62
    7
 10
2024.3570920036449
 20
1319.0043513398304
 11
2022.3570920036447
 21
1320.1590513398307
  0
LINE
  8
_0-b_ラッチ断面__扉側
  6
DASHED1
 62
    7
 10
2024.3570920036449
 20
1318.1383513398304
 11
2022.3570920036447
 21
1319.2930513398305
  0
LINE
  8
_0-b_ラッチ断面__扉側
  6
DASHED1
 62
    7
 10
2024.3570920036449
 20
1317.2723013398306
 11
2022.3570920036447
 21
1318.4270013398304
  0
LINE
  8
_0-b_ラッチ断面__扉側
  6
DASHED1
 62
    7
 10
2024.3570920036449
 20
1316.4063013398304
 11
2022.3570920036447
 21
1317.5610013398306
  0
LINE
  8
_0-b_ラッチ断面__扉側
  6
DASHED1
 62
    7
 10
2024.3570920036449
 20
1315.5402513398305
 11
2022.3570920036447
 21
1316.6949513398303
  0
LINE
  8
_0-b_ラッチ断面__扉側
  6
DASHED1
 62
    7
 10
2024.3570920036449
 20
1314.6742513398305
 11
2022.3570920036447
 21
1315.8289513398308
  0
LINE
  8
_0-b_ラッチ断面__扉側
  6
DASHED1
 62
    7
 10
2024.3570920036449
 20
1313.8082013398307
 11
2022.3570920036447
 21
1314.9629013398305
  0
LINE
  8
_0-b_ラッチ断面__扉側
  6
DASHED1
 62
    7
 10
2024.3570920036449
 20
1312.9422013398307
 11
2022.3570920036447
 21
1314.0969013398305
  0
LINE
  8
_0-b_ラッチ断面__扉側
  6
DASHED1
 62
    7
 10
2024.3570920036449
 20
1312.0761513398304
 11
2022.3570920036447
 21
1313.2308513398306
  0
LINE
  8
_0-b_ラッチ断面__扉側
  6
DASHED1
 62
    7
 10
2024.3570920036449
 20
1311.2101513398306
 11
2022.3570920036447
 21
1312.3648513398304
  0
LINE
  8
_0-b_ラッチ断面__扉側
  6
DASHED1
 62
    7
 10
2024.3570920036449
 20
1310.3441013398305
 11
2022.3570920036447
 21
1311.4988013398306
  0
LINE
  8
_0-b_ラッチ断面__扉側
  6
DASHED1
 62
    7
 10
2024.3570920036449
 20
1309.4781013398305
 11
2022.3570920036447
 21
1310.6328013398306
  0
LINE
  8
_0-b_ラッチ断面__扉側
  6
DASHED1
 62
    7
 10
2024.3570920036449
 20
1308.6120513398304
 11
2022.3570920036447
 21
1309.7667513398305
  0
LINE
  8
_0-b_ラッチ断面__扉側
  6
DASHED1
 62
    7
 10
2024.3570920036449
 20
1307.7460513398307
 11
2022.3570920036447
 21
1308.9007513398305
  0
LINE
  8
_0-b_ラッチ断面__扉側
  6
DASHED1
 62
    7
 10
2024.3570920036449
 20
1306.8800013398304
 11
2022.3570920036447
 21
1308.0347013398306
  0
LINE
  8
_0-b_ラッチ断面__扉側
  6
DASHED1
 62
    7
 10
2024.2470420036447
 20
1306.0775513398307
 11
2022.3570920036447
 21
1307.1687013398307
  0
LINE
  8
_0-b_ラッチ断面__扉側
  6
DASHED1
 62
    7
 10
2024.1262920036447
 20
1305.2812013398306
 11
2022.2849920036449
 21
1306.3443013398305
  0
LINE
  8
_0-b_ラッチ断面__扉側
  6
DASHED1
 62
    7
 10
2023.8535420036446
 20
1304.5726513398308
 11
2022.096992003645
 21
1305.5868013398303
  0
LINE
  8
_0-b_ラッチ断面__扉側
  6
DASHED1
 62
    7
 10
2023.5086920036449
 20
1303.9057513398304
 11
2021.7966920036449
 21
1304.8941513398308
  0
LINE
  8
_0-b_ラッチ断面__扉側
  6
DASHED1
 62
    7
 10
2023.1638420036449
 20
1303.2388013398306
 11
2021.248642003645
 21
1304.3445513398305
  0
LINE
  8
_0-b_ラッチ断面__扉側
  6
DASHED1
 62
    7
 10
2022.6612920036448
 20
1302.6629513398304
 11
2020.7536420036449
 21
1303.7643013398305
  0
LINE
  8
_0-b_ラッチ断面__扉側
  6
DASHED1
 62
    7
 10
2022.0836920036447
 20
1302.1303513398306
 11
2019.5320920036447
 21
1303.6035513398305
  0
LINE
  8
_0-b_ラッチ断面__扉側
  6
DASHED1
 62
    7
 10
2021.4147420036447
 20
1301.6505513398305
 11
2018.0320920036447
 21
1303.6035513398305
  0
LINE
  8
_0-b_ラッチ断面__扉側
  6
DASHED1
 62
    7
 10
2020.5263420036449
 20
1301.2974513398305
 11
2016.5320920036447
 21
1303.6035513398305
  0
LINE
  8
_0-b_ラッチ断面__扉側
  6
DASHED1
 62
    7
 10
2019.6120420036447
 20
1300.9593013398305
 11
2015.0320920036449
 21
1303.6035513398305
  0
LINE
  8
_0-b_ラッチ断面__扉側
  6
DASHED1
 62
    7
 10
2016.881842003645
 20
1300.8035513398306
 11
2012.5670420036449
 21
1303.2947013398304
  0
LINE
  8
_0-b_ラッチ断面__扉側
  6
DASHED1
 62
    7
 10
2018.331692003645
 20
1300.8325013398305
 11
2013.591592003645
 21
1303.5692013398306
  0
LINE
  8
_0-b_ラッチ断面__扉側
  6
DASHED1
 62
    7
 10
2015.381842003645
 20
1300.8035513398306
 11
2011.5425420036447
 21
1303.0201513398305
  0
LINE
  8
_0-b_ラッチ断面__扉側
  6
DASHED1
 62
    7
 10
2012.3818420036448
 20
1300.8035513398306
 11
2009.4934920036448
 21
1302.4711013398305
  0
LINE
  8
_0-b_ラッチ断面__扉側
  6
DASHED1
 62
    7
 10
2013.881842003645
 20
1300.8035513398306
 11
2010.5180420036447
 21
1302.7456513398306
  0
LINE
  8
_0-b_ラッチ断面__扉側
  6
DASHED1
 62
    7
 10
2010.8818420036448
 20
1300.8035513398306
 11
2008.1054920036447
 21
1302.4064513398307
  0
LINE
  8
_0-b_ラッチ断面__扉側
  6
DASHED1
 62
    7
 10
2009.381842003645
 20
1300.8035513398306
 11
2006.6616920036449
 21
1302.3740513398306
  0
LINE
  8
_0-b_ラッチ断面__扉側
  6
DASHED1
 62
    7
 10
2007.881842003645
 20
1300.8035513398306
 11
2004.8059920036448
 21
1302.5793513398307
  0
LINE
  8
_0-b_ラッチ断面__扉側
  6
DASHED1
 62
    7
 10
2006.381842003645
 20
1300.8035513398306
 11
2002.4319920036446
 21
1303.0840013398305
  0
LINE
  8
_0-b_ラッチ断面__扉側
  6
DASHED1
 62
    7
 10
2004.8818420036448
 20
1300.8035513398306
 11
2000.0579920036448
 21
1303.5886013398305
  0
LINE
  8
_0-b_ラッチ断面__扉側
  6
DASHED1
 62
    7
 10
2003.3818420036448
 20
1300.8035513398306
 11
1997.6839920036447
 21
1304.0932013398305
  0
LINE
  8
_0-b_ラッチ断面__扉側
  6
DASHED1
 62
    7
 10
2001.881842003645
 20
1300.8035513398306
 11
1995.3099420036448
 21
1304.5978013398305
  0
LINE
  8
_0-b_ラッチ断面__扉側
  6
DASHED1
 62
    7
 10
2000.381842003645
 20
1300.8035513398306
 11
1992.9359420036448
 21
1305.1024513398306
  0
LINE
  8
_0-b_ラッチ断面__扉側
  6
DASHED1
 62
    7
 10
1998.881842003645
 20
1300.8035513398306
 11
1981.0416920036448
 21
1311.1035513398305
  0
LINE
  8
_0-b_ラッチ断面__扉側
  6
DASHED1
 62
    7
 10
1997.3818420036448
 20
1300.8035513398306
 11
1978.3570920036447
 21
1311.7875013398304
  0
LINE
  8
_0-b_ラッチ断面__扉側
  6
DASHED1
 62
    7
 10
1995.8818420036448
 20
1300.8035513398306
 11
1978.3570920036447
 21
1310.9214513398305
  0
LINE
  8
_0-b_ラッチ断面__扉側
  6
DASHED1
 62
    7
 10
1994.381842003645
 20
1300.8035513398306
 11
1978.3570920036447
 21
1310.0554513398305
  0
LINE
  8
_0-b_ラッチ断面__扉側
  6
DASHED1
 62
    7
 10
1991.3570920036449
 20
1316.4063013398304
 11
1989.3570920036449
 21
1317.5610013398306
  0
LINE
  8
_0-b_ラッチ断面__扉側
  6
DASHED1
 62
    7
 10
1991.3570920036449
 20
1315.5402513398305
 11
1989.3570920036449
 21
1316.6949513398303
  0
LINE
  8
_0-b_ラッチ断面__扉側
  6
DASHED1
 62
    7
 10
1991.3570920036449
 20
1314.6742513398305
 11
1989.3570920036449
 21
1315.8289513398308
  0
LINE
  8
_0-b_ラッチ断面__扉側
  6
DASHED1
 62
    7
 10
1991.3570920036449
 20
1313.8082013398307
 11
1989.0862920036447
 21
1315.1192513398304
  0
LINE
  8
_0-b_ラッチ断面__扉側
  6
DASHED1
 62
    7
 10
1991.3570920036449
 20
1312.9422013398307
 11
1988.0486920036448
 21
1314.8523013398307
  0
LINE
  8
_0-b_ラッチ断面__扉側
  6
DASHED1
 62
    7
 10
1991.3570920036449
 20
1312.0761513398304
 11
1986.6330920036448
 21
1314.8035513398306
  0
LINE
  8
_0-b_ラッチ断面__扉側
  6
DASHED1
 62
    7
 10
1991.3570920036449
 20
1311.2101513398306
 11
1985.1330920036448
 21
1314.8035513398306
  0
LINE
  8
_0-b_ラッチ断面__扉側
  6
DASHED1
 62
    7
 10
1991.3570920036449
 20
1310.3441013398305
 11
1983.6330920036448
 21
1314.8035513398306
  0
LINE
  8
_0-b_ラッチ断面__扉側
  6
DASHED1
 62
    7
 10
1991.3570920036449
 20
1309.4781013398305
 11
1988.5416920036448
 21
1311.1035513398305
  0
LINE
  8
_0-b_ラッチ断面__扉側
  6
DASHED1
 62
    7
 10
1991.3570920036449
 20
1308.6120513398304
 11
1987.041692003645
 21
1311.1035513398305
  0
LINE
  8
_0-b_ラッチ断面__扉側
  6
DASHED1
 62
    7
 10
1991.3570920036449
 20
1307.7460513398307
 11
1985.541692003645
 21
1311.1035513398305
  0
LINE
  8
_0-b_ラッチ断面__扉側
  6
DASHED1
 62
    7
 10
1991.3604920036448
 20
1306.8780513398305
 11
1984.041692003645
 21
1311.1035513398305
  0
LINE
  8
_0-b_ラッチ断面__扉側
  6
DASHED1
 62
    7
 10
1991.4922420036446
 20
1305.9359513398305
 11
1982.5416920036448
 21
1311.1035513398305
  0
LINE
  8
_0-b_ラッチ断面__扉側
  6
DASHED1
 62
    7
 10
1988.5416920036448
 20
1311.1035513398305
 11
1982.1330920036448
 21
1314.8035513398306
  0
LINE
  8
_0-b_ラッチ断面__扉側
  6
DASHED1
 62
    7
 10
1987.041692003645
 20
1311.1035513398305
 11
1980.6330920036448
 21
1314.8035513398306
  0
LINE
  8
_0-b_ラッチ断面__扉側
  6
DASHED1
 62
    7
 10
1985.541692003645
 20
1311.1035513398305
 11
1979.3570920036449
 21
1314.6742513398305
  0
LINE
  8
_0-b_ラッチ断面__扉側
  6
DASHED1
 62
    7
 10
1984.041692003645
 20
1311.1035513398305
 11
1978.3570920036447
 21
1314.3855513398307
  0
LINE
  8
_0-b_ラッチ断面__扉側
  6
DASHED1
 62
    7
 10
1982.5416920036448
 20
1311.1035513398305
 11
1978.3570920036447
 21
1313.5195513398302
  0
LINE
  8
_0-b_ラッチ断面__扉側
  6
DASHED1
 62
    7
 10
1981.0416920036448
 20
1311.1035513398305
 11
1978.3570920036447
 21
1312.6535013398304
  0
LINE
  8
_0-b_ラッチ断面__扉側
  6
DASHED1
 62
    7
 10
2024.3570920036449
 20
1328.4146013398303
 11
2023.3570920036447
 21
1328.9919513398306
  0
LINE
  8
_0-b_ラッチ断面__扉側
  6
DASHED1
 62
    7
 10
2024.3570920036449
 20
1328.4146013398303
 11
2023.2504420036448
 21
1329.0535513398303
  0
LINE
  8
_0-b_ラッチ断面__扉側
  6
DASHED1
 62
    7
 10
2024.3570920036449
 20
1329.1646013398305
 11
2023.5968420036447
 21
1329.6035513398305
  0
LINE
  8
_0-b_ラッチ断面__扉側
  6
DASHED1
 62
    7
 10
1989.3570920036449
 20
1319.3035513398306
 11
1989.3570920036449
 21
1321.3035513398308
  0
LINE
  8
_0-b_ラッチ断面__扉側
  6
DASHED1
 62
    7
 10
2009.3570920036449
 20
1302.4345513398304
 11
2006.8570920036449
 21
1302.3035513398306
  0
LINE
  8
_0-b_ラッチ断面__扉側
  6
DASHED1
 62
    7
 10
2013.7197920036446
 20
1303.6035513398305
 11
2009.3570920036449
 21
1302.4345513398304
  0
LINE
  8
_0-b_ラッチ断面__扉側
  6
DASHED1
 62
    7
 10
1991.3570920036449
 20
1316.6488513398305
 11
1989.3570920036449
 21
1317.8035513398303
  0
LINE
  8
_0-b_ラッチ断面__扉側
  6
DASHED1
 62
    7
 10
1991.3570920036449
 20
1306.9117513398305
 11
1991.3570920036449
 21
1316.6488513398305
  0
LINE
  8
_0-b_ラッチ断面__扉側
  6
DASHED1
 62
    7
 10
2014.4070920036449
 20
1328.3035513398306
 11
2014.4070920036449
 21
1327.3035513398306
  0
LINE
  8
_0-b_ラッチ断面__扉側
  6
DASHED1
 62
    7
 10
1987.6250420036449
 20
1321.8035513398306
 11
1989.3570920036449
 21
1318.8035513398303
  0
LINE
  8
_0-b_ラッチ断面__扉側
  6
DASHED1
 62
    7
 10
2005.8570920036447
 20
1302.3559513398304
 11
2006.8570920036449
 21
1302.3035513398306
  0
LINE
  8
_0-b_ラッチ断面__扉側
  6
DASHED1
 62
    7
 10
1991.6650920036449
 20
1305.3725513398305
 11
2005.8570920036447
 21
1302.3559513398304
  0
LINE
  8
_0-b_ラッチ断面__扉側
  6
DASHED1
 62
    7
 10
2022.3570920036447
 20
1328.3035513398306
 11
2022.3570920036447
 21
1306.9012513398306
  0
LINE
  8
_0-b_ラッチ断面__扉側
  6
DASHED1
 62
    7
 10
2013.7197920036446
 20
1303.6035513398305
 11
2020.6209920036449
 21
1303.6035513398305
  0
LINE
  8
_0-b_ラッチ断面__扉側
  6
DASHED1
 62
    7
 10
1981.8570920036449
 20
1323.5035513398304
 11
1981.8570920036449
 21
1331.1035513398305
  0
LINE
  8
_0-b_ラッチ断面__扉側
  6
DASHED1
 62
    7
 10
1996.6570920036449
 20
1327.3035513398306
 11
2014.4070920036449
 21
1327.3035513398306
  0
LINE
  8
_0-b_ラッチ断面__扉側
  6
DASHED1
 62
    7
 10
2024.3570920036449
 20
1306.8035513398306
 11
2024.3570920036449
 21
1329.6035513398305
  0
LINE
  8
_0-b_ラッチ断面__扉側
  6
DASHED1
 62
    7
 10
2023.3570920036447
 20
1328.3035513398306
 11
2023.3570920036447
 21
1329.6202013398306
  0
LINE
  8
_0-b_ラッチ断面__扉側
  6
DASHED1
 62
    7
 10
2024.3570920036449
 20
1329.6035513398305
 11
1964.3570920036449
 21
1330.5035513398306
  0
LINE
  8
_0-b_ラッチ断面__扉側
  6
DASHED1
 62
    7
 10
1965.3570920036449
 20
1330.5035513398306
 11
1965.3570920036449
 21
1329.2035513398307
  0
LINE
  8
_0-b_ラッチ断面__扉側
  6
DASHED1
 62
    7
 10
1986.6166420036449
 20
1329.2035513398307
 11
1990.8570920036447
 21
1329.2035513398307
  0
LINE
  8
_0-b_ラッチ断面__扉側
  6
DASHED1
 62
    7
 10
1974.535642003645
 20
1329.2035513398307
 11
1965.4570920036449
 21
1329.2035513398307
  0
LINE
  8
_0-b_ラッチ断面__扉側
  6
DASHED1
 62
    7
 10
1990.8570920036447
 20
1327.3035513398306
 11
1992.0570920036448
 21
1327.3035513398306
  0
LINE
  8
_0-b_ラッチ断面__扉側
  6
DASHED1
 62
    7
 10
1955.3571420036448
 20
1319.3035513398306
 11
1953.3571420036448
 21
1321.3035513398308
  0
LINE
  8
_0-b_ラッチ断面__扉側
  6
DASHED1
 62
    7
 10
1953.3571420036448
 20
1321.3035513398308
 11
1953.3571420036448
 21
1328.3035513398306
  0
LINE
  8
_0-b_ラッチ断面__扉側
  6
DASHED1
 62
    7
 10
1958.3571420036448
 20
1325.3035513398303
 11
1958.3571420036448
 21
1324.0035513398306
  0
LINE
  8
_0-b_ラッチ断面__扉側
  6
DASHED1
 62
    7
 10
1994.3570920036449
 20
1325.2035513398304
 11
1994.3570920036449
 21
1314.0035513398306
  0
LINE
  8
_0-b_ラッチ断面__扉側
  6
DASHED1
 62
    7
 10
1953.3571420036448
 20
1325.3035513398303
 11
1983.2854920036447
 21
1325.3035513398303
  0
LINE
  8
_0-b_ラッチ断面__扉側
  6
DASHED1
 62
    7
 10
1984.6997420036448
 20
1324.7177513398305
 11
1992.2354920036448
 21
1317.1819513398304
  0
LINE
  8
_0-b_ラッチ断面__扉側
  6
DASHED1
 62
    7
 10
1986.5281420036446
 20
1329.3035513398306
 11
1954.3571420036448
 21
1329.3035513398306
  0
LINE
  8
_0-b_ラッチ断面__扉側
  6
DASHED1
 62
    7
 10
1990.0636920036447
 20
1327.8391013398304
 11
1993.8418420036446
 21
1324.0609013398307
  0
LINE
  8
_0-b_ラッチ断面__扉側
  6
DASHED1
 62
    7
 10
1989.1570920036449
 20
1319.3035513398306
 11
1998.4670920036451
 21
1319.3035513398306
  0
LINE
  8
_0-b_ラッチ断面__扉側
  6
DASHED1
 62
    7
 10
2007.8570920036449
 20
1308.3735513398305
 11
2007.8570920036449
 21
1329.0935513398308
  0
LINE
  8
_0-b_ラッチ断面__扉側
  6
DASHED1
 62
    7
 10
1963.8571420036446
 20
1325.3035513398303
 11
1963.8571420036446
 21
1329.3035513398306
  0
LINE
  8
_0-b_ラッチ断面__扉側
  6
DASHED1
 62
    7
 10
1958.3571420036448
 20
1329.3035513398306
 11
1958.3571420036448
 21
1325.3035513398303
  0
LINE
  8
_0-b_ラッチ断面__扉側
  6
DASHED1
 62
    7
 10
1955.3571420036448
 20
1319.3035513398306
 11
1962.357142003645
 21
1319.3035513398306
  0
LINE
  8
_0-b_ラッチ断面__扉側
  6
DASHED1
 62
    7
 10
1962.357142003645
 20
1320.4635513398307
 11
1962.357142003645
 21
1319.3035513398306
  0
LINE
  8
_0-b_ラッチ断面__扉側
  6
DASHED1
 62
    7
 10
1962.357142003645
 20
1320.4635513398307
 11
1958.3571420036448
 21
1324.0035513398306
  0
LINE
  8
_0-b_ラッチ断面__扉側
  6
DASHED1
 62
    7
 10
2020.786192003645
 20
1313.5817013398307
 11
2021.7464920036447
 21
1321.4029513398304
  0
LINE
  8
_0-b_ラッチ断面__扉側
  6
DASHED1
 62
    7
 10
2021.7512420036448
 20
1321.4014013398307
 11
2016.0662420036446
 21
1323.3035513398306
  0
LINE
  8
_0-b_ラッチ断面__扉側
  6
DASHED1
 62
    7
 10
2005.8570920036447
 20
1322.3035513398306
 11
1994.3570920036449
 21
1322.3035513398306
  0
LINE
  8
_0-b_ラッチ断面__扉側
  6
DASHED1
 62
    7
 10
2005.8570920036447
 20
1322.3035513398306
 11
2005.8570920036447
 21
1323.3035513398306
  0
LINE
  8
_0-b_ラッチ断面__扉側
  6
DASHED1
 62
    7
 10
2005.8570920036447
 20
1323.3035513398306
 11
2016.0662420036446
 21
1323.3035513398306
  0
LINE
  8
_0-b_ラッチ断面__扉側
  6
DASHED1
 62
    7
 10
2002.7512420036446
 20
1316.3897513398305
 11
2002.7512420036446
 21
1315.6879013398304
  0
LINE
  8
_0-b_ラッチ断面__扉側
  6
DASHED1
 62
    7
 10
2002.7512420036446
 20
1316.3897513398305
 11
2006.251242003645
 21
1319.2671513398306
  0
LINE
  8
_0-b_ラッチ断面__扉側
  6
DASHED1
 62
    7
 10
2013.2512420036448
 20
1318.4192513398306
 11
2013.2512420036448
 21
1314.7999013398305
  0
LINE
  8
_0-b_ラッチ断面__扉側
  6
DASHED1
 62
    7
 10
2002.7512420036446
 20
1315.6879013398304
 11
2006.251242003645
 21
1318.8489513398305
  0
LINE
  8
_0-b_ラッチ断面__扉側
  6
DASHED1
 62
    7
 10
2013.2512420036448
 20
1314.7999013398305
 11
2013.2512420036448
 21
1315.3184513398305
  0
LINE
  8
_0-b_ラッチ断面__扉側
  6
DASHED1
 62
    7
 10
1996.6570920036449
 20
1327.3035513398306
 11
1996.6570920036449
 21
1322.4758013398306
  0
LINE
  8
_0-b_ラッチ断面__扉側
  6
DASHED1
 62
    7
 10
1992.0570920036448
 20
1327.3035513398306
 11
1992.0570920036448
 21
1325.8456513398305
  0
LINE
  8
_0-b_ラッチ断面__扉側
  6
DASHED1
 62
    7
 10
1992.0570920036448
 20
1325.8456513398305
 11
1992.0570920036448
 21
1318.6410013398308
  0
LINE
  8
_0-b_ラッチ断面__扉側
  6
DASHED1
 62
    7
 10
1996.6570920036449
 20
1322.4758013398306
 11
1996.6570920036449
 21
1319.3035513398306
  0
LINE
  8
_0-b_ラッチ断面__扉側
  6
DASHED1
 62
    7
 10
1990.8570920036447
 20
1327.0456513398307
 11
1990.8570920036447
 21
1330.1060513398306
  0
LINE
  8
_0-b_ラッチ断面__扉側
  6
DASHED1
 62
    7
 10
1990.8570920036447
 20
1316.9375513398304
 11
1990.8570920036447
 21
1318.5604013398306
  0
LINE
  8
_0-b_ラッチ断面__扉側
  6
DASHED1
 62
    7
 10
1990.8570920036447
 20
1327.0456513398307
 11
1990.8570920036447
 21
1318.5604013398306
  0
LINE
  8
_0-b_ラッチ断面__扉側
  6
DASHED1
 62
    7
 10
1987.3570920036447
 20
1323.3035513398306
 11
1987.3570920036447
 21
1322.8035513398303
  0
LINE
  8
_0-b_ラッチ断面__扉側
  6
DASHED1
 62
    7
 10
1983.2854920036447
 20
1325.3035513398303
 11
1965.3570920036449
 21
1325.3035513398303
  0
LINE
  8
_0-b_ラッチ断面__扉側
  6
DASHED1
 62
    7
 10
1985.3570920036449
 20
1325.3035513398303
 11
1983.757092003645
 21
1325.3035513398303
  0
LINE
  8
_0-b_ラッチ断面__扉側
  6
DASHED1
 62
    7
 10
1974.535642003645
 20
1329.2035513398307
 11
1978.9570920036449
 21
1329.2035513398307
  0
LINE
  8
_0-b_ラッチ断面__扉側
  6
DASHED1
 62
    7
 10
1978.9640920036447
 20
1330.2601013398304
 11
1978.9581920036448
 21
1329.2035513398307
  0
LINE
  8
_0-b_ラッチ断面__扉側
  6
DASHED1
 62
    7
 10
1984.7505920036448
 20
1330.1636513398304
 11
1984.7559920036449
 21
1329.2035513398307
  0
LINE
  8
_0-b_ラッチ断面__扉側
  6
DASHED1
 62
    7
 10
1984.7570920036448
 20
1329.2035513398307
 11
1986.6166420036449
 21
1329.2035513398307
  0
LINE
  8
_0-b_ラッチ断面__扉側
  6
DASHED1
 62
    7
 10
1983.757092003645
 20
1325.3035513398303
 11
1983.757092003645
 21
1330.2125513398304
  0
LINE
  8
_0-b_ラッチ断面__扉側
  6
DASHED1
 62
    7
 10
1979.9570920036446
 20
1325.3035513398303
 11
1979.9570920036446
 21
1330.2441013398306
  0
LINE
  8
_0-b_ラッチ断面__扉側
  6
DASHED1
 62
    7
 10
2006.8570920036449
 20
1325.8035513398306
 11
2006.8570920036449
 21
1330.8035513398306
  0
LINE
  8
_0-b_ラッチ断面__扉側
  6
DASHED1
 62
    7
 10
1996.6570920036449
 20
1327.3035513398306
 11
1996.6570920036449
 21
1322.5035513398304
  0
LINE
  8
_0-b_ラッチ断面__扉側
  6
DASHED1
 62
    7
 10
2010.1570920036447
 20
1327.3035513398306
 11
1990.9570920036449
 21
1327.3035513398306
  0
LINE
  8
_0-b_ラッチ断面__扉側
  6
DASHED1
 62
    7
 10
1992.9570920036449
 20
1327.3035513398306
 11
1992.9570920036449
 21
1322.3035513398306
  0
LINE
  8
_0-b_ラッチ断面__扉側
  6
DASHED1
 62
    7
 10
1992.9570920036449
 20
1322.3035513398306
 11
1992.3570920036447
 21
1322.3035513398306
  0
LINE
  8
_0-b_ラッチ断面__扉側
  6
DASHED1
 62
    7
 10
2010.1570920036447
 20
1327.3035513398306
 11
2012.3570920036447
 21
1328.3035513398306
  0
LINE
  8
_0-b_ラッチ断面__扉側
  6
DASHED1
 62
    7
 10
2021.6570920036449
 20
1328.3035513398306
 11
2021.6570920036449
 21
1326.3035513398303
  0
LINE
  8
_0-b_ラッチ断面__扉側
  6
DASHED1
 62
    7
 10
2023.3570920036447
 20
1328.3035513398306
 11
2012.3570920036447
 21
1328.3035513398306
  0
LINE
  8
_0-b_ラッチ断面__扉側
  6
DASHED1
 62
    7
 10
2023.3570920036447
 20
1329.5035513398306
 11
1990.9570920036449
 21
1330.0035513398304
  0
LINE
  8
_0-b_ラッチ断面__扉側
  6
DASHED1
 62
    7
 10
2023.3570920036447
 20
1329.5035513398306
 11
2023.3570920036447
 21
1328.3035513398306
  0
LINE
  8
_0-b_ラッチ断面__扉側
  6
DASHED1
 62
    7
 10
2022.3570920036447
 20
1326.3035513398303
 11
2021.6570920036449
 21
1326.3035513398303
  0
LINE
  8
_0-b_ラッチ断面__扉側
  6
DASHED1
 62
    7
 10
1990.9570920036449
 20
1322.3035513398306
 11
1992.3570920036447
 21
1322.3035513398306
  0
LINE
  8
_0-b_ラッチ断面__扉側
  6
DASHED1
 62
    7
 10
1990.9570920036449
 20
1330.0035513398304
 11
1990.9570920036449
 21
1326.9456513398304
  0
LINE
  8
_0-b_ラッチ断面__扉側
  6
DASHED1
 62
    7
 10
1992.3570920036447
 20
1327.3035513398306
 11
1992.3570920036447
 21
1325.5456513398305
  0
LINE
  8
_0-b_ラッチ断面__扉側
  6
DASHED1
 62
    7
 10
1992.3570920036447
 20
1325.5456513398305
 11
1992.3570920036447
 21
1322.5035513398304
  0
LINE
  8
_0-b_ラッチ断面__扉側
  6
DASHED1
 62
    7
 10
1990.9570920036449
 20
1326.9456513398304
 11
1990.9570920036449
 21
1322.3035513398306
  0
LINE
  8
_0-b_ラッチ断面__扉側
  6
DASHED1
 62
    7
 10
1995.6570920036449
 20
1321.5035513398306
 11
1993.3570920036447
 21
1321.5035513398306
  0
LINE
  8
_0-b_ラッチ断面__扉側
  6
DASHED1
 62
    7
 10
2022.3570920036447
 20
1329.2035513398307
 11
1991.9570920036449
 21
1329.2035513398307
  0
LINE
  8
_0-b_ラッチ断面__扉側
  6
DASHED1
 62
    7
 10
1991.9570920036449
 20
1329.2035513398307
 11
1991.9570920036449
 21
1329.9850513398305
  0
LINE
  8
_0-b_ラッチ断面__扉側
  6
DASHED1
 62
    7
 10
2014.4070920036449
 20
1328.3035513398306
 11
2023.3570920036447
 21
1328.3035513398306
  0
LINE
  8
_0-b_ラッチ断面__扉側
  6
DASHED1
 62
    7
 10
2022.3570920036447
 20
1329.2035513398307
 11
2022.3570920036447
 21
1329.5190013398305
  0
LINE
  8
_0-b_ラッチ断面__扉側
  6
DASHED1
 62
    7
 10
1991.0173420036448
 20
1330.0024513398307
 11
1990.9570920036449
 21
1329.9676513398303
  0
LINE
  8
_0-b_ラッチ断面__扉側
  6
DASHED1
 62
    7
 10
1998.6336420036448
 20
1329.2035513398307
 11
1995.3427420036448
 21
1327.3035513398306
  0
LINE
  8
_0-b_ラッチ断面__扉側
  6
DASHED1
 62
    7
 10
1997.1336420036448
 20
1329.2035513398307
 11
1993.8427420036446
 21
1327.3035513398306
  0
LINE
  8
_0-b_ラッチ断面__扉側
  6
DASHED1
 62
    7
 10
1995.633642003645
 20
1329.2035513398307
 11
1992.342742003645
 21
1327.3035513398306
  0
LINE
  8
_0-b_ラッチ断面__扉側
  6
DASHED1
 62
    7
 10
1994.133642003645
 20
1329.2035513398307
 11
1990.9570920036449
 21
1327.3695513398306
  0
LINE
  8
_0-b_ラッチ断面__扉側
  6
DASHED1
 62
    7
 10
1992.633642003645
 20
1329.2035513398307
 11
1990.9570920036449
 21
1328.2356013398305
  0
LINE
  8
_0-b_ラッチ断面__扉側
  6
DASHED1
 62
    7
 10
1991.9570920036449
 20
1329.6789513398307
 11
1990.9570920036449
 21
1329.1016013398304
  0
LINE
  8
_0-b_ラッチ断面__扉側
  6
DASHED1
 62
    7
 10
2012.1336420036448
 20
1329.2035513398307
 11
2008.8427420036446
 21
1327.3035513398306
  0
LINE
  8
_0-b_ラッチ断面__扉側
  6
DASHED1
 62
    7
 10
2010.633642003645
 20
1329.2035513398307
 11
2007.342742003645
 21
1327.3035513398306
  0
LINE
  8
_0-b_ラッチ断面__扉側
  6
DASHED1
 62
    7
 10
2009.133642003645
 20
1329.2035513398307
 11
2005.8427420036448
 21
1327.3035513398306
  0
LINE
  8
_0-b_ラッチ断面__扉側
  6
DASHED1
 62
    7
 10
2007.633642003645
 20
1329.2035513398307
 11
2004.3427420036448
 21
1327.3035513398306
  0
LINE
  8
_0-b_ラッチ断面__扉側
  6
DASHED1
 62
    7
 10
2006.1336420036448
 20
1329.2035513398307
 11
2002.8427420036448
 21
1327.3035513398306
  0
LINE
  8
_0-b_ラッチ断面__扉側
  6
DASHED1
 62
    7
 10
2004.6336420036448
 20
1329.2035513398307
 11
2001.3427420036446
 21
1327.3035513398306
  0
LINE
  8
_0-b_ラッチ断面__扉側
  6
DASHED1
 62
    7
 10
2003.133642003645
 20
1329.2035513398307
 11
1999.842742003645
 21
1327.3035513398306
  0
LINE
  8
_0-b_ラッチ断面__扉側
  6
DASHED1
 62
    7
 10
2001.633642003645
 20
1329.2035513398307
 11
1998.3427420036448
 21
1327.3035513398306
  0
LINE
  8
_0-b_ラッチ断面__扉側
  6
DASHED1
 62
    7
 10
2000.133642003645
 20
1329.2035513398307
 11
1996.8427420036448
 21
1327.3035513398306
  0
LINE
  8
_0-b_ラッチ断面__扉側
  6
DASHED1
 62
    7
 10
2013.6336420036448
 20
1329.2035513398307
 11
2011.0299420036449
 21
1327.7003013398305
  0
LINE
  8
_0-b_ラッチ断面__扉側
  6
DASHED1
 62
    7
 10
2015.133642003645
 20
1329.2035513398307
 11
2013.5747920036446
 21
1328.3035513398306
  0
LINE
  8
_0-b_ラッチ断面__扉側
  6
DASHED1
 62
    7
 10
2016.633642003645
 20
1329.2035513398307
 11
2015.0747920036449
 21
1328.3035513398306
  0
LINE
  8
_0-b_ラッチ断面__扉側
  6
DASHED1
 62
    7
 10
2018.133642003645
 20
1329.2035513398307
 11
2016.5747920036449
 21
1328.3035513398306
  0
LINE
  8
_0-b_ラッチ断面__扉側
  6
DASHED1
 62
    7
 10
2019.6336420036448
 20
1329.2035513398307
 11
2018.0747920036449
 21
1328.3035513398306
  0
LINE
  8
_0-b_ラッチ断面__扉側
  6
DASHED1
 62
    7
 10
2021.1336420036448
 20
1329.2035513398307
 11
2019.5747920036451
 21
1328.3035513398306
  0
LINE
  8
_0-b_ラッチ断面__扉側
  6
DASHED1
 62
    7
 10
2023.1585420036449
 20
1329.5066013398306
 11
2021.0747920036446
 21
1328.3035513398306
  0
LINE
  8
_0-b_ラッチ断面__扉側
  6
DASHED1
 62
    7
 10
2023.3570920036447
 20
1328.7552013398305
 11
2022.5747920036449
 21
1328.3035513398306
  0
LINE
  8
_0-b_ラッチ断面__扉側
  6
DASHED1
 62
    7
 10
1964.3570920036449
 20
1330.5035513398306
 11
1964.3570920036449
 21
1329.3035513398306
  0
LINE
  8
_0-b_ラッチ断面__扉側
  6
DASHED1
 62
    7
 10
1964.3570920036449
 20
1329.3035513398306
 11
1964.3570920036449
 21
1326.3035513398303
  0
LINE
  8
_0-b_ラッチ断面__扉側
  6
DASHED1
 62
    7
 10
1992.881842003645
 20
1300.8035513398306
 11
1978.3570920036447
 21
1309.1894013398305
  0
LINE
  8
_0-b_ラッチ断面__扉側
  6
DASHED1
 62
    7
 10
1991.381842003645
 20
1300.8035513398306
 11
1978.3570920036447
 21
1308.3234013398305
  0
LINE
  8
_0-b_ラッチ断面__扉側
  6
DASHED1
 62
    7
 10
1989.8818420036448
 20
1300.8035513398306
 11
1978.3327420036448
 21
1307.4714513398305
  0
LINE
  8
_0-b_ラッチ断面__扉側
  6
DASHED1
 62
    7
 10
1988.3818420036448
 20
1300.8035513398306
 11
1978.3570920036447
 21
1306.5913513398304
  0
LINE
  8
_0-b_ラッチ断面__扉側
  6
DASHED1
 62
    7
 10
1986.881842003645
 20
1300.8035513398306
 11
1978.3570920036447
 21
1305.7253013398305
  0
LINE
  8
_0-b_ラッチ断面__扉側
  6
DASHED1
 62
    7
 10
1985.381842003645
 20
1300.8035513398306
 11
1978.3570920036447
 21
1304.8593013398306
  0
LINE
  8
_0-b_ラッチ断面__扉側
  6
DASHED1
 62
    7
 10
1983.881842003645
 20
1300.8035513398306
 11
1978.3570920036447
 21
1303.9932513398302
  0
LINE
  8
_0-b_ラッチ断面__扉側
  6
DASHED1
 62
    7
 10
1982.3818420036448
 20
1300.8035513398306
 11
1978.3570920036447
 21
1303.1272513398307
  0
LINE
  8
_0-b_ラッチ断面__扉側
  6
DASHED1
 62
    7
 10
1980.8818420036448
 20
1300.8035513398306
 11
1978.4474920036448
 21
1302.2090013398305
  0
LINE
  8
_0-b_ラッチ断面__扉側
  6
DASHED1
 62
    7
 10
1989.3570920036449
 20
1319.3035513398306
 11
1989.3570920036449
 21
1315.8035513398306
  0
LINE
  8
_0-b_ラッチ断面__扉側
  6
DASHED1
 62
    7
 10
1978.3570920036447
 20
1302.8035513398303
 11
1978.3570920036447
 21
1325.3035513398303
  0
LINE
  8
_0-b_ラッチ断面__扉側
  6
DASHED1
 62
    7
 10
1980.3570920036449
 20
1300.8035513398306
 11
2018.3570920036447
 21
1300.8035513398306
  0
LINE
  8
_0-b_ラッチ断面__扉側
  6
DASHED1
 62
    7
 10
1988.3570920036447
 20
1314.8035513398306
 11
1978.3570920036447
 21
1314.8035513398306
  0
LINE
  8
_0-b_ラッチ断面__扉側
  6
DASHED1
 62
    7
 10
2018.5658920036448
 20
1302.9172013398306
 11
2009.3570920036449
 21
1302.4345513398304
  0
LINE
  8
_0-b_ラッチ断面__扉側
  6
DASHED1
 62
    7
 10
1995.1477420036449
 20
1302.9172013398306
 11
2005.8570920036447
 21
1302.3559513398304
  0
LINE
  8
_0-b_ラッチ断面__扉側
  6
DASHED1
 62
    7
 10
2006.251242003645
 20
1319.2671513398306
 11
2006.251242003645
 21
1318.8489513398305
  0
LINE
  8
_0-b_ラッチ断面__扉側
  6
DASHED1
 62
    7
 10
2020.2187920036449
 20
1314.6665013398305
 11
2007.8570920036449
 21
1321.8035513398306
  0
LINE
  8
_0-b_ラッチ断面__扉側
  6
DASHED1
 62
    7
 10
2021.2104920036449
 20
1317.0373513398305
 11
2010.3570920036449
 21
1323.3035513398306
  0
LINE
  8
_0-b_ラッチ断面__扉側
  6
DASHED1
 62
    7
 10
1992.4494920036449
 20
1317.6751013398304
 11
2007.8570920036449
 21
1321.8035513398306
  0
LINE
  8
_0-b_ラッチ断面__扉側
  6
DASHED1
 62
    7
 10
1989.3570920036449
 20
1311.1035513398305
 11
1980.3570920036449
 21
1311.1035513398305
  0
LINE
  8
_0-b_ラッチ断面__扉側
  6
DASHED1
 62
    7
 10
1989.3570920036449
 20
1311.1035513398305
 11
1989.3570920036449
 21
1306.8035513398306
  0
LINE
  8
_0-b_ラッチ断面__扉側
  6
DASHED1
 62
    7
 10
1989.3570920036449
 20
1311.1035513398305
 11
1989.3570920036449
 21
1315.8035513398306
  0
LINE
  8
_0-b_ラッチ断面__扉側
  6
DASHED1
 62
    7
 10
1957.1071420036448
 20
1321.8035513398306
 11
1954.6071420036448
 21
1321.8035513398306
  0
LINE
  8
_0-b_ラッチ断面__扉側
  6
DASHED1
 62
    7
 10
1954.6071420036448
 20
1329.3035513398306
 11
1954.6071420036448
 21
1321.8035513398306
  0
LINE
  8
_0-b_ラッチ断面__扉側
  6
DASHED1
 62
    7
 10
1957.1071420036448
 20
1329.3035513398306
 11
1957.1071420036448
 21
1321.8035513398306
  0
LINE
  8
_0-b_ラッチ断面__扉側
  6
DASHED1
 62
    7
 10
1955.8571420036448
 20
1320.2135513398307
 11
1955.8571420036448
 21
1331.3035513398303
  0
ARC
  8
_0-b_ラッチ断面__扉側
  6
DASHED1
 62
    7
 10
2018.3570920036447
 20
1306.8035513398306
 40
6.0000000000000008
 50
269.99999999999988
 51
359.99999999999988
  0
ARC
  8
_0-b_ラッチ断面__扉側
  6
DASHED1
 62
    7
 10
1995.3570920036449
 20
1306.9117513398305
 40
4
 50
179.99999999999991
 51
202.63099999999988
  0
ARC
  8
_0-b_ラッチ断面__扉側
  6
DASHED1
 62
    7
 10
2018.3570920036447
 20
1306.9012513398306
 40
4
 50
304.46999999999991
 51
359.99999999999994
  0
ARC
  8
_0-b_ラッチ断面__扉側
  6
DASHED1
 62
    7
 10
1985.3570920036449
 20
1321.3035513398308
 40
4
 50
84.812999999999973
 51
89.999999999999971
  0
ARC
  8
_0-b_ラッチ断面__扉側
  6
DASHED1
 62
    7
 10
1985.3570920036449
 20
1321.3035513398308
 40
4
 50
359.99999999999994
 51
84.812999999999988
  0
CIRCLE
  8
_0-b_ラッチ断面__扉側
  6
DASHED1
 62
    7
 10
1994.3570920036449
 20
1319.3035513398306
 40
2.1
  0
CIRCLE
  8
_0-b_ラッチ断面__扉側
  6
DASHED1
 62
    7
 10
1994.3570920036449
 20
1319.3035513398306
 40
3.0000000000000004
  0
ARC
  8
_0-b_ラッチ断面__扉側
  6
DASHED1
 62
    7
 10
1954.3571420036448
 20
1328.3035513398306
 40
1
 50
89.999999999999971
 51
180
  0
ARC
  8
_0-b_ラッチ断面__扉側
  6
DASHED1
 62
    7
 10
1996.5247420036448
 20
1321.3775013398303
 40
6.0000000000000008
 50
223.73399999999992
 51
281.21399999999994
  0
CIRCLE
  8
_0-b_ラッチ断面__扉側
  6
DASHED1
 62
    7
 10
1994.3570920036449
 20
1319.3035513398306
 40
3.0000000000000004
  0
CIRCLE
  8
_0-b_ラッチ断面__扉側
  6
DASHED1
 62
    7
 10
1994.3570920036449
 20
1319.3035513398306
 40
2.1
  0
ARC
  8
_0-b_ラッチ断面__扉側
  6
DASHED1
 62
    7
 10
1983.2854920036447
 20
1323.3035513398306
 40
2
 50
44.999999999999964
 51
89.999999999999971
  0
ARC
  8
_0-b_ラッチ断面__扉側
  6
DASHED1
 62
    7
 10
1986.5281420036446
 20
1324.3035513398306
 40
5
 50
44.999999999999964
 51
89.999999999999971
  0
ARC
  8
_0-b_ラッチ断面__扉側
  6
DASHED1
 62
    7
 10
1998.0844920036449
 20
1328.3035513398306
 40
6.0000000000000008
 50
224.99999999999994
 51
269.99999999999994
  0
ARC
  8
_0-b_ラッチ断面__扉側
  6
DASHED1
 62
    7
 10
1992.1906920036449
 20
1318.6410013398308
 40
1
 50
224.99999999999991
 51
284.99999999999994
  0
ARC
  8
_0-b_ラッチ断面__扉側
  6
DASHED1
 62
    7
 10
2021.7230420036448
 20
1322.4943013398305
 40
10
 50
240.93599999999992
 51
257.62099999999992
  0
ARC
  8
_0-b_ラッチ断面__扉側
  6
DASHED1
 62
    7
 10
2019.7936420036448
 20
1313.7035513398304
 40
1
 50
257.62099999999986
 51
352.99999999999994
  0
ARC
  8
_0-b_ラッチ断面__扉側
  6
DASHED1
 62
    7
 10
2005.9570920036449
 20
1273.8035513398306
 40
42.00685
 50
86.961999999999974
 51
94.376999999999981
  0
ARC
  8
_0-b_ラッチ断面__扉側
  6
DASHED1
 62
    7
 10
2007.1495420036449
 20
1296.2719513398305
 40
19.50685
 50
71.771999999999977
 51
86.961999999999974
  0
ARC
  8
_0-b_ラッチ断面__扉側
  6
DASHED1
 62
    7
 10
2005.9570920036449
 20
1273.8035513398306
 40
42.706699999999997
 50
86.961999999999974
 51
94.304999999999992
  0
ARC
  8
_0-b_ラッチ断面__扉側
  6
DASHED1
 62
    7
 10
2007.1495420036449
 20
1296.2719513398305
 40
20.206700000000004
 50
72.423999999999978
 51
86.961999999999974
  0
ARC
  8
_0-b_ラッチ断面__扉側
  6
DASHED1
 62
    7
 10
2005.9570920036449
 20
1273.8035513398306
 40
42.5
 50
86.961999999999974
 51
101.21399999999998
  0
ARC
  8
_0-b_ラッチ断面__扉側
  6
DASHED1
 62
    7
 10
2007.1495420036449
 20
1296.2719513398305
 40
20
 50
60.935999999999985
 51
87.972999999999984
  0
ARC
  8
_0-b_ラッチ断面__扉側
  6
DASHED1
 62
    7
 10
2020.4687920036449
 20
1315.0995513398306
 40
0.5
 50
239.99999999999994
 51
352.99999999999994
  0
ARC
  8
_0-b_ラッチ断面__扉側
  6
DASHED1
 62
    7
 10
1994.3570920036449
 20
1319.3035513398306
 40
2.2999999999999998
 50
179.99999999999988
 51
359.99999999999994
  0
ARC
  8
_0-b_ラッチ断面__扉側
  6
DASHED1
 62
    7
 10
1985.3570920036449
 20
1323.3035513398306
 40
2
 50
359.99999999999994
 51
89.999999999999971
  0
ARC
  8
_0-b_ラッチ断面__扉側
  6
DASHED1
 62
    7
 10
1989.3570920036449
 20
1322.8035513398303
 40
2
 50
179.99999999999988
 51
209.99999999999991
  0
ARC
  8
_0-b_ラッチ断面__扉側
  6
DASHED1
 62
    7
 10
1993.3570920036447
 20
1322.5035513398304
 40
1
 50
179.99999999999991
 51
269.99999999999994
  0
ARC
  8
_0-b_ラッチ断面__扉側
  6
DASHED1
 62
    7
 10
1995.6570920036449
 20
1322.5035513398304
 40
1
 50
269.99999999999988
 51
359.99999999999988
  0
ARC
  8
_0-b_ラッチ断面__扉側
  6
DASHED1
 62
    7
 10
1965.3570920036449
 20
1326.3035513398303
 40
1
 50
179.99999999999991
 51
269.99999999999994
  0
ARC
  8
_0-b_ラッチ断面__扉側
  6
DASHED1
 62
    7
 10
2007.4170920036449
 20
1311.0935513398305
 40
8.7300000000000004
 50
146.57599999999996
 51
22.665999999999996
  0
ARC
  8
_0-b_ラッチ断面__扉側
  6
DASHED1
 62
    7
 10
1980.3570920036449
 20
1312.1035513398305
 40
1
 50
179.99999999999991
 51
269.99999999999994
  0
ARC
  8
_0-b_ラッチ断面__扉側
  6
DASHED1
 62
    7
 10
1988.3570920036447
 20
1315.8035513398306
 40
1
 50
269.99999999999988
 51
359.99999999999988
  0
ARC
  8
_0-b_ラッチ断面__扉側
  6
DASHED1
 62
    7
 10
1980.3570920036449
 20
1302.8035513398303
 40
2
 50
179.99999999999991
 51
269.99999999999994
  0
ARC
  8
_0-b_ラッチ断面__扉側
  6
DASHED1
 62
    7
 10
2018.3570920036447
 20
1306.9012513398306
 40
4
 50
272.99999999999994
 51
304.46999999999997
  0
ARC
  8
_0-b_ラッチ断面__扉側
  6
DASHED1
 62
    7
 10
1995.3570920036449
 20
1306.9117513398305
 40
4
 50
202.63099999999988
 51
266.99999999999994
  0
ARC
  8
_0-b_ラッチ断面__扉側
  6
DASHED1
 62
    7
 10
2005.9570920036449
 20
1273.8035513398306
 40
45.472499999999996
 50
86.961999999999974
 51
89.62899999999999
  0
ARC
  8
_0-b_ラッチ断面__扉側
  6
DASHED1
 62
    7
 10
2005.9570920036449
 20
1273.8035513398306
 40
45.046349999999996
 50
86.961999999999974
 51
89.625999999999976
  0
ARC
  8
_0-b_ラッチ断面__扉側
  6
DASHED1
 62
    7
 10
2007.1495420036449
 20
1296.2719513398305
 40
22.54635
 50
74.297999999999973
 51
86.961999999999974
  0
ARC
  8
_0-b_ラッチ断面__扉側
  6
DASHED1
 62
    7
 10
2007.1495420036449
 20
1296.2719513398305
 40
22.9725
 50
74.596999999999965
 51
86.96199999999996
  0
ARC
  8
_0-b_ラッチ断面__扉側
  6
DASHED1
 62
    7
 10
2007.4170920036449
 20
1311.0935513398305
 40
8.7300000000000004
 50
22.665999999999975
 51
146.57599999999999
  0
ARC
  8
_0-b_ラッチ断面__扉側
  6
DASHED1
 62
    7
 10
1995.3570920036449
 20
1306.8035513398306
 40
6.0000000000000008
 50
179.99999999999991
 51
269.99999999999994
  0
LINE
  8
_0-b_ラッチ断面__扉側
  6
DASHED1
 62
    7
 10
2006.8570920036449
 20
1331.4035513398307
 11
2006.8570920036449
 21
1297.0035513398306
  0
ARC
  8
_0-b_ラッチ断面__扉側
  6
DASHED1
 62
    7
 10
1943.0570920036443
 20
1315.2410513398306
 40
1.1999999999999999
 50
90.000000000000028
 51
180.00000000000005
  0
ARC
  8
_0-b_ラッチ断面__扉側
  6
DASHED1
 62
    7
 10
1943.0570920036443
 20
1315.2410513398306
 40
1.1999999999999999
 50
90.000000000000028
 51
180.00000000000005
  0
LINE
  8
_0-b_ラッチ断面__扉側
  6
DASHED1
 62
    7
 10
1941.8570920036445
 20
1312.2410513398303
 11
1943.0570920036443
 21
1312.2410513398303
  0
LINE
  8
_0-b_ラッチ断面__扉側
  6
DASHED1
 62
    7
 10
1943.0570920036443
 20
1315.2410513398306
 11
1943.0570920036443
 21
1295.2410513398306
  0
LINE
  8
_0-b_ラッチ断面__扉側
  6
DASHED1
 62
    7
 10
1941.8570920036445
 20
1295.2410513398306
 11
1943.0570920036443
 21
1295.2410513398306
  0
LINE
  8
_0-b_ラッチ断面__扉側
  6
DASHED1
 62
    7
 10
1941.8570920036445
 20
1315.2410513398306
 11
1941.8570920036445
 21
1295.2410513398306
  0
LINE
  8
_0-b_ラッチ断面__扉側
  6
DASHED1
 62
    7
 10
1943.0570920036443
 20
1314.7410513398303
 11
1943.0570920036443
 21
1299.6003513398306
  0
LINE
  8
_0-b_ラッチ断面__扉側
  6
DASHED1
 62
    7
 10
1943.5570920036443
 20
1315.2410513398306
 11
1958.6977920036442
 21
1315.2410513398306
  0
LINE
  8
_0-b_ラッチ断面__扉側
  6
DASHED1
 62
    7
 10
1972.8570920036443
 20
1315.2410513398306
 11
1972.8570920036443
 21
1316.4410513398306
  0
LINE
  8
_0-b_ラッチ断面__扉側
  6
DASHED1
 62
    7
 10
1943.0570920036443
 20
1316.4410513398306
 11
1978.8570920036443
 21
1316.4410513398306
  0
LINE
  8
_0-b_ラッチ断面__扉側
  6
DASHED1
 62
    7
 10
1943.0570920036443
 20
1315.2410513398306
 11
1978.8570920036443
 21
1315.2410513398306
  0
LINE
  8
_0-b_ラッチ断面__扉側
  6
DASHED1
 62
    7
 10
1978.8570920036443
 20
1316.4410513398306
 11
1978.8570920036443
 21
1315.2410513398306
  0
LINE
  8
_0-b_ラッチ断面__扉側
  6
DASHED1
 62
    7
 10
1086.3247627124026
 20
2222.2744603287765
 11
1085.8247627124026
 21
2222.2744603287765
  0
LINE
  8
_0-b_ラッチ断面__扉側
  6
DASHED1
 62
    7
 10
1063.3247627124026
 20
2222.2744603287765
 11
1063.8247627124026
 21
2222.2744603287765
  0
LINE
  8
_0-b_ラッチ断面__扉側
  6
DASHED1
 62
    7
 10
1066.3247627124026
 20
2282.2744603287765
 11
1083.3247627124026
 21
2282.2744603287765
  0
LINE
  8
_0-b_ラッチ断面__扉側
  6
DASHED1
 62
    7
 10
1066.8247627124026
 20
2247.2744603287765
 11
1082.8247627124026
 21
2247.2744603287765
  0
LINE
  8
_0-b_ラッチ断面__扉側
  6
DASHED1
 62
    7
 10
1086.3247627124026
 20
2222.2744603287765
 11
1085.8247627124026
 21
2222.2744603287765
  0
LINE
  8
_0-b_ラッチ断面__扉側
  6
DASHED1
 62
    7
 10
1092.3247627124026
 20
2249.2744603287765
 11
1093.3247627124026
 21
2249.2744603287765
  0
LINE
  8
_0-b_ラッチ断面__扉側
  6
DASHED1
 62
    7
 10
1092.3247627124026
 20
2273.2744603287765
 11
1092.3247627124026
 21
2249.2744603287765
  0
LINE
  8
_0-b_ラッチ断面__扉側
  6
DASHED1
 62
    7
 10
1057.3247627124026
 20
2249.2744603287765
 11
1056.3247627124026
 21
2249.2744603287765
  0
LINE
  8
_0-b_ラッチ断面__扉側
  6
DASHED1
 62
    7
 10
1057.3247627124026
 20
2273.2744603287765
 11
1057.3247627124026
 21
2249.2744603287765
  0
LINE
  8
_0-b_ラッチ断面__扉側
  6
DASHED1
 62
    7
 10
1055.9347627124025
 20
2252.2744603287765
 11
1063.3247627124026
 21
2252.2744603287765
  0
LINE
  8
_0-b_ラッチ断面__扉側
  6
DASHED1
 62
    7
 10
1086.3247627124026
 20
2252.2744603287765
 11
1094.4247627124025
 21
2252.2744603287765
  0
LINE
  8
_0-b_ラッチ断面__扉側
  6
DASHED1
 62
    7
 10
1064.8247627124026
 20
2247.2744603287765
 11
1064.8247627124026
 21
2244.4744603287767
  0
LINE
  8
_0-b_ラッチ断面__扉側
  6
DASHED1
 62
    7
 10
1066.3247627124026
 20
2245.8744603287768
 11
1065.3247627124026
 21
2245.8744603287768
  0
LINE
  8
_0-b_ラッチ断面__扉側
  6
DASHED1
 62
    7
 10
1083.3247627124026
 20
2245.8744603287768
 11
1084.3247627124026
 21
2245.8744603287768
  0
LINE
  8
_0-b_ラッチ断面__扉側
  6
DASHED1
 62
    7
 10
1084.8247627124026
 20
2247.2744603287765
 11
1084.8247627124026
 21
2244.4744603287767
  0
LINE
  8
_0-b_ラッチ断面__扉側
  6
DASHED1
 62
    7
 10
1082.8247627124026
 20
2247.2744603287765
 11
1082.8247627124026
 21
2225.2744603287765
  0
LINE
  8
_0-b_ラッチ断面__扉側
  6
DASHED1
 62
    7
 10
1066.8247627124026
 20
2247.2744603287765
 11
1066.8247627124026
 21
2225.2744603287765
  0
LINE
  8
_0-b_ラッチ断面__扉側
  6
DASHED1
 62
    7
 10
1072.5887127124026
 20
2220.2745103287766
 11
1077.0608127124025
 21
2220.2745103287766
  0
LINE
  8
_0-b_ラッチ断面__扉側
  6
DASHED1
 62
    7
 10
1078.3247627124026
 20
2218.2745103287766
 11
1078.3247627124026
 21
2216.2745103287766
  0
LINE
  8
_0-b_ラッチ断面__扉側
  6
DASHED1
 62
    7
 10
1071.3247627124026
 20
2218.2745103287766
 11
1071.3247627124026
 21
2216.2745103287766
  0
LINE
  8
_0-b_ラッチ断面__扉側
  6
DASHED1
 62
    7
 10
1071.3247627124026
 20
2216.2745103287766
 11
1071.8247627124026
 21
2216.2745103287766
  0
LINE
  8
_0-b_ラッチ断面__扉側
  6
DASHED1
 62
    7
 10
1077.8247627124026
 20
2216.2745103287766
 11
1078.3247627124026
 21
2216.2745103287766
  0
LINE
  8
_0-b_ラッチ断面__扉側
  6
DASHED1
 62
    7
 10
1078.3247627124026
 20
2211.2745103287766
 11
1071.3247627124026
 21
2211.2745103287766
  0
LINE
  8
_0-b_ラッチ断面__扉側
  6
DASHED1
 62
    7
 10
1078.3707127124025
 20
2211.3204603287767
 11
1078.3247627124026
 21
2211.2745103287766
  0
LINE
  8
_0-b_ラッチ断面__扉側
  6
DASHED1
 62
    7
 10
1071.2788127124026
 20
2211.3204603287767
 11
1071.3247627124026
 21
2211.2745103287766
  0
LINE
  8
_0-b_ラッチ断面__扉側
  6
DASHED1
 62
    7
 10
1077.8247627124026
 20
2218.2745103287766
 11
1077.8247627124026
 21
2212.2745103287761
  0
LINE
  8
_0-b_ラッチ断面__扉側
  6
DASHED1
 62
    7
 10
1071.8247627124026
 20
2218.2745103287766
 11
1071.8247627124026
 21
2212.2745103287761
  0
LINE
  8
_0-b_ラッチ断面__扉側
  6
DASHED1
 62
    7
 10
1071.8247627124026
 20
2216.2745103287766
 11
1077.8247627124026
 21
2216.2745103287766
  0
LINE
  8
_0-b_ラッチ断面__扉側
  6
DASHED1
 62
    7
 10
1070.2537127124026
 20
2212.3455603287766
 11
1071.2788127124026
 21
2211.3204603287767
  0
LINE
  8
_0-b_ラッチ断面__扉側
  6
DASHED1
 62
    7
 10
1079.3958127124026
 20
2212.3455603287766
 11
1078.3707127124025
 21
2211.3204603287767
  0
LINE
  8
_0-b_ラッチ断面__扉側
  6
DASHED1
 62
    7
 10
1082.3247627124026
 20
2219.4166103287766
 11
1082.3247627124026
 21
2247.2744603287765
  0
LINE
  8
_0-b_ラッチ断面__扉側
  6
DASHED1
 62
    7
 10
1067.3247627124026
 20
2219.4166103287766
 11
1067.3247627124026
 21
2247.2744603287765
  0
LINE
  8
_0-b_ラッチ断面__扉側
  6
DASHED1
 62
    7
 10
1061.6493127124026
 20
2239.0370603287765
 11
1061.4378127124025
 21
2239.3125603287767
  0
LINE
  8
_0-b_ラッチ断面__扉側
  6
DASHED1
 62
    7
 10
1061.6493127124026
 20
2239.0370603287765
 11
1062.3247627124026
 21
2239.7744603287765
  0
LINE
  8
_0-b_ラッチ断面__扉側
  6
DASHED1
 62
    7
 10
1061.4378127124025
 20
2239.3125603287767
 11
1062.3247627124026
 21
2239.7744603287765
  0
LINE
  8
_0-b_ラッチ断面__扉側
  6
DASHED1
 62
    7
 10
1082.8247627124026
 20
2247.2744603287765
 11
1092.0247627124024
 21
2247.2744603287765
  0
LINE
  8
_0-b_ラッチ断面__扉側
  6
DASHED1
 62
    7
 10
1066.8247627124026
 20
2247.2744603287765
 11
1057.6247627124027
 21
2247.2744603287765
  0
LINE
  8
_0-b_ラッチ断面__扉側
  6
DASHED1
 62
    7
 10
1075.8247627124026
 20
2247.2744603287765
 11
1075.8247627124026
 21
2237.7748603287768
  0
LINE
  8
_0-b_ラッチ断面__扉側
  6
DASHED1
 62
    7
 10
1073.8247627124026
 20
2247.2744603287765
 11
1073.8247627124026
 21
2237.7748603287768
  0
LINE
  8
_0-b_ラッチ断面__扉側
  6
DASHED1
 62
    7
 10
1074.3247627124026
 20
2237.2748603287764
 11
1075.3247627124026
 21
2237.2748603287764
  0
LINE
  8
_0-b_ラッチ断面__扉側
  6
DASHED1
 62
    7
 10
1073.8247627124026
 20
2241.4944603287767
 11
1067.3247627124026
 21
2241.4944603287767
  0
LINE
  8
_0-b_ラッチ断面__扉側
  6
DASHED1
 62
    7
 10
1082.3247627124026
 20
2241.4944603287767
 11
1075.8247627124026
 21
2241.4944603287767
  0
LINE
  8
_0-b_ラッチ断面__扉側
  6
DASHED1
 62
    7
 10
1073.8247627124026
 20
2241.8644603287766
 11
1072.7640127124025
 21
2241.8644603287766
  0
LINE
  8
_0-b_ラッチ断面__扉側
  6
DASHED1
 62
    7
 10
1070.3855127124027
 20
2241.8644603287766
 11
1067.3247627124026
 21
2241.8644603287766
  0
LINE
  8
_0-b_ラッチ断面__扉側
  6
DASHED1
 62
    7
 10
1082.3247627124026
 20
2241.8644603287766
 11
1079.2640127124025
 21
2241.8644603287766
  0
LINE
  8
_0-b_ラッチ断面__扉側
  6
DASHED1
 62
    7
 10
1076.8855127124024
 20
2241.8644603287766
 11
1075.8247627124026
 21
2241.8644603287766
  0
LINE
  8
_0-b_ラッチ断面__扉側
  6
DASHED1
 62
    7
 10
1094.3247627124026
 20
2237.2744603287765
 11
1094.3247627124026
 21
2248.2744603287765
  0
LINE
  8
_0-b_ラッチ断面__扉側
  6
DASHED1
 62
    7
 10
1092.3247627124026
 20
2236.2744603287769
 11
1093.3247627124026
 21
2236.2744603287769
  0
LINE
  8
_0-b_ラッチ断面__扉側
  6
DASHED1
 62
    7
 10
1092.3247627124026
 20
2246.9744603287767
 11
1092.3247627124026
 21
2228.2744603287765
  0
LINE
  8
_0-b_ラッチ断面__扉側
  6
DASHED1
 62
    7
 10
1055.3247627124026
 20
2237.2744603287765
 11
1055.3247627124026
 21
2248.2744603287765
  0
LINE
  8
_0-b_ラッチ断面__扉側
  6
DASHED1
 62
    7
 10
1057.3247627124026
 20
2236.2744603287769
 11
1056.3247627124026
 21
2236.2744603287769
  0
LINE
  8
_0-b_ラッチ断面__扉側
  6
DASHED1
 62
    7
 10
1057.3247627124026
 20
2246.9744603287767
 11
1057.3247627124026
 21
2228.2744603287765
  0
LINE
  8
_0-b_ラッチ断面__扉側
  6
DASHED1
 62
    7
 10
1074.8247627124026
 20
2283.9744603287767
 11
1074.8247627124026
 21
2208.6744603287761
  0
LINE
  8
_0-b_ラッチ断面__扉側
  6
DASHED1
 62
    7
 10
1056.1947627124025
 20
2264.7744603287765
 11
1095.2247627124027
 21
2264.7744603287765
  0
LINE
  8
_0-b_ラッチ断面__扉側
  6
DASHED1
 62
    7
 10
1062.3247627124026
 20
2243.9244603287766
 11
1062.3247627124026
 21
2235.674460328777
  0
LINE
  8
_0-b_ラッチ断面__扉側
  6
DASHED1
 62
    7
 10
1065.5747627124026
 20
2239.7744603287765
 11
1059.0247627124024
 21
2239.7744603287765
  0
LINE
  8
_0-b_ラッチ断面__扉側
  6
DASHED1
 62
    7
 10
1087.3247627124026
 20
2243.5944603287766
 11
1087.3247627124026
 21
2235.8744603287768
  0
LINE
  8
_0-b_ラッチ断面__扉側
  6
DASHED1
 62
    7
 10
1084.0547627124026
 20
2239.7744603287765
 11
1091.0647627124026
 21
2239.7744603287765
  0
LINE
  8
_0-b_ラッチ断面__扉側
  6
DASHED1
 62
    7
 10
1078.3847627124025
 20
2213.7745103287766
 11
1071.1147627124025
 21
2213.7745103287766
  0
ARC
  8
_0-b_ラッチ断面__扉側
  6
DASHED1
 62
    7
 10
1083.3247627124026
 20
2273.2744603287765
 40
9
 50
0.0000000000000254
 51
90.000000000000056
  0
ARC
  8
_0-b_ラッチ断面__扉側
  6
DASHED1
 62
    7
 10
1086.3247627124026
 20
2228.2744603287765
 40
6.0000000000000008
 50
270
 51
0.0000000000000254
  0
ARC
  8
_0-b_ラッチ断面__扉側
  6
DASHED1
 62
    7
 10
1085.8247627124026
 20
2225.2744603287765
 40
3.0000000000000004
 50
180.00000000000005
 51
270.00000000000005
  0
ARC
  8
_0-b_ラッチ断面__扉側
  6
DASHED1
 62
    7
 10
1066.3247627124026
 20
2273.2744603287765
 40
9
 50
90.000000000000056
 51
180.00000000000008
  0
ARC
  8
_0-b_ラッチ断面__扉側
  6
DASHED1
 62
    7
 10
1063.3247627124026
 20
2228.2744603287765
 40
6.0000000000000008
 50
180.00000000000005
 51
270.00000000000005
  0
ARC
  8
_0-b_ラッチ断面__扉側
  6
DASHED1
 62
    7
 10
1063.8247627124026
 20
2225.2744603287765
 40
3.0000000000000004
 50
270
 51
0.0000000000000254
  0
CIRCLE
  8
_0-b_ラッチ断面__扉側
  6
DASHED1
 62
    7
 10
1062.3247627124026
 20
2239.7744603287765
 40
1.8999999999999999
  0
CIRCLE
  8
_0-b_ラッチ断面__扉側
  6
DASHED1
 62
    7
 10
1087.3247627124026
 20
2239.7744603287765
 40
1.8999999999999999
  0
ARC
  8
_0-b_ラッチ断面__扉側
  6
DASHED1
 62
    7
 10
1093.3247627124026
 20
2248.2744603287765
 40
1
 50
0.0000000000000254
 51
90.000000000000056
  0
ARC
  8
_0-b_ラッチ断面__扉側
  6
DASHED1
 62
    7
 10
1056.3247627124026
 20
2248.2744603287765
 40
1
 50
90.000000000000056
 51
180.00000000000008
  0
ARC
  8
_0-b_ラッチ断面__扉側
  6
DASHED1
 62
    7
 10
1059.3247627124026
 20
2249.2744603287765
 40
2
 50
180.00000000000005
 51
270.00000000000005
  0
ARC
  8
_0-b_ラッチ断面__扉側
  6
DASHED1
 62
    7
 10
1066.3247627124026
 20
2246.3744603287768
 40
0.5
 50
270
 51
0.0000000000000254
  0
ARC
  8
_0-b_ラッチ断面__扉側
  6
DASHED1
 62
    7
 10
1065.3247627124026
 20
2246.3744603287768
 40
0.5
 50
180.00000000000005
 51
270.00000000000005
  0
ARC
  8
_0-b_ラッチ断面__扉側
  6
DASHED1
 62
    7
 10
1083.3247627124026
 20
2246.3744603287768
 40
0.5
 50
180.00000000000005
 51
270.00000000000005
  0
ARC
  8
_0-b_ラッチ断面__扉側
  6
DASHED1
 62
    7
 10
1084.3247627124026
 20
2246.3744603287768
 40
0.5
 50
270
 51
0.0000000000000254
  0
ARC
  8
_0-b_ラッチ断面__扉側
  6
DASHED1
 62
    7
 10
1090.3247627124026
 20
2249.2744603287765
 40
2
 50
270
 51
0.0000000000000254
  0
ARC
  8
_0-b_ラッチ断面__扉側
  6
DASHED1
 62
    7
 10
1074.8247627124026
 20
2218.2745103287766
 40
3.5000000000000008
 50
90.000000000000056
 51
180.00000000000008
  0
ARC
  8
_0-b_ラッチ断面__扉側
  6
DASHED1
 62
    7
 10
1074.8247627124026
 20
2218.2745103287766
 40
3.5000000000000008
 50
0.0000000000000254
 51
90.000000000000056
  0
ARC
  8
_0-b_ラッチ断面__扉側
  6
DASHED1
 62
    7
 10
1074.8247627124026
 20
2218.2745103287766
 40
3.0000000000000004
 50
138.19000000000005
 51
180.00000000000008
  0
ARC
  8
_0-b_ラッチ断面__扉側
  6
DASHED1
 62
    7
 10
1074.8247627124026
 20
2218.2745103287766
 40
3.0000000000000004
 50
0.0000000000000254
 51
41.810000000000037
  0
ARC
  8
_0-b_ラッチ断面__扉側
  6
DASHED1
 62
    7
 10
1072.8247627124026
 20
2212.2745103287761
 40
1
 50
180.00000000000005
 51
270.00000000000005
  0
ARC
  8
_0-b_ラッチ断面__扉側
  6
DASHED1
 62
    7
 10
1076.8247627124026
 20
2212.2745103287761
 40
1
 50
270
 51
0.0000000000000254
  0
ARC
  8
_0-b_ラッチ断面__扉側
  6
DASHED1
 62
    7
 10
1077.3247627124026
 20
2219.4166103287766
 40
10
 50
180.00000000000005
 51
225.00000000000005
  0
ARC
  8
_0-b_ラッチ断面__扉側
  6
DASHED1
 62
    7
 10
1072.3247627124026
 20
2219.4166103287766
 40
10
 50
315
 51
0.0000000000000254
  0
ARC
  8
_0-b_ラッチ断面__扉側
  6
DASHED1
 62
    7
 10
1092.0247627124024
 20
2246.9744603287767
 40
0.2999999999999999
 50
0.0000000000000254
 51
90.000000000000056
  0
ARC
  8
_0-b_ラッチ断面__扉側
  6
DASHED1
 62
    7
 10
1057.6247627124027
 20
2246.9744603287767
 40
0.2999999999999999
 50
90.000000000000056
 51
180.00000000000008
  0
ARC
  8
_0-b_ラッチ断面__扉側
  6
DASHED1
 62
    7
 10
1075.3247627124026
 20
2237.7748603287768
 40
0.5
 50
270
 51
0.0000000000000254
  0
ARC
  8
_0-b_ラッチ断面__扉側
  6
DASHED1
 62
    7
 10
1074.3247627124026
 20
2237.7748603287768
 40
0.5
 50
180.00000000000005
 51
270.00000000000005
  0
ARC
  8
_0-b_ラッチ断面__扉側
  6
DASHED1
 62
    7
 10
1093.3247627124026
 20
2237.2744603287765
 40
1
 50
270
 51
0.0000000000000254
  0
ARC
  8
_0-b_ラッチ断面__扉側
  6
DASHED1
 62
    7
 10
1056.3247627124026
 20
2237.2744603287765
 40
1
 50
180.00000000000005
 51
270.00000000000005
  0
CIRCLE
  8
_0-b_ラッチ断面__扉側
  6
DASHED1
 62
    7
 10
1078.0747627124026
 20
2237.2745103287761
 40
2.3250000000000001
  0
CIRCLE
  8
_0-b_ラッチ断面__扉側
  6
DASHED1
 62
    7
 10
1071.5747627124026
 20
2237.2745103287761
 40
2.3250000000000001
  0
CIRCLE
  8
_0-b_ラッチ断面__扉側
  6
DASHED1
 62
    7
 10
1071.5747627124026
 20
2243.7745103287766
 40
2.3250000000000001
  0
CIRCLE
  8
_0-b_ラッチ断面__扉側
  6
DASHED1
 62
    7
 10
1078.0747627124026
 20
2243.7745103287766
 40
2.3250000000000001
  0
CIRCLE
  8
_0-b_ラッチ断面__扉側
  6
DASHED1
 62
    7
 10
1074.8247627124026
 20
2213.7745103287766
 40
1.25
  0
LINE
  8
_0-b_ラッチ断面__扉側
  6
DASHED1
 62
    7
 10
632.32476271240386
 20
2222.2744603287765
 11
631.82476271240375
 21
2222.2744603287765
  0
LINE
  8
_0-b_ラッチ断面__扉側
  6
DASHED1
 62
    7
 10
609.32476271240375
 20
2222.2744603287765
 11
609.82476271240386
 21
2222.2744603287765
  0
LINE
  8
_0-b_ラッチ断面__扉側
  6
DASHED1
 62
    7
 10
612.32476271240386
 20
2282.2744603287765
 11
629.32476271240375
 21
2282.2744603287765
  0
LINE
  8
_0-b_ラッチ断面__扉側
  6
DASHED1
 62
    7
 10
612.82476271240375
 20
2247.2744603287765
 11
628.82476271240363
 21
2247.2744603287765
  0
LINE
  8
_0-b_ラッチ断面__扉側
  6
DASHED1
 62
    7
 10
632.32476271240386
 20
2222.2744603287765
 11
631.82476271240375
 21
2222.2744603287765
  0
LINE
  8
_0-b_ラッチ断面__扉側
  6
DASHED1
 62
    7
 10
638.32476271240352
 20
2249.2744603287765
 11
639.32476271240375
 21
2249.2744603287765
  0
LINE
  8
_0-b_ラッチ断面__扉側
  6
DASHED1
 62
    7
 10
638.32476271240352
 20
2273.2744603287765
 11
638.32476271240352
 21
2249.2744603287765
  0
LINE
  8
_0-b_ラッチ断面__扉側
  6
DASHED1
 62
    7
 10
603.32476271240352
 20
2249.2744603287765
 11
602.32476271240386
 21
2249.2744603287765
  0
LINE
  8
_0-b_ラッチ断面__扉側
  6
DASHED1
 62
    7
 10
603.32476271240352
 20
2273.2744603287765
 11
603.32476271240352
 21
2249.2744603287765
  0
LINE
  8
_0-b_ラッチ断面__扉側
  6
DASHED1
 62
    7
 10
601.93476271240342
 20
2252.2744603287765
 11
609.32476271240375
 21
2252.2744603287765
  0
LINE
  8
_0-b_ラッチ断面__扉側
  6
DASHED1
 62
    7
 10
632.32476271240386
 20
2252.2744603287765
 11
640.42476271240366
 21
2252.2744603287765
  0
LINE
  8
_0-b_ラッチ断面__扉側
  6
DASHED1
 62
    7
 10
610.82476271240352
 20
2247.2744603287765
 11
610.82476271240352
 21
2244.4744603287767
  0
LINE
  8
_0-b_ラッチ断面__扉側
  6
DASHED1
 62
    7
 10
612.32476271240386
 20
2245.8744603287768
 11
611.32476271240363
 21
2245.8744603287768
  0
LINE
  8
_0-b_ラッチ断面__扉側
  6
DASHED1
 62
    7
 10
629.32476271240375
 20
2245.8744603287768
 11
630.32476271240375
 21
2245.8744603287768
  0
LINE
  8
_0-b_ラッチ断面__扉側
  6
DASHED1
 62
    7
 10
630.82476271240352
 20
2247.2744603287765
 11
630.82476271240352
 21
2244.4744603287767
  0
LINE
  8
_0-b_ラッチ断面__扉側
  6
DASHED1
 62
    7
 10
628.82476271240363
 20
2247.2744603287765
 11
628.82476271240363
 21
2225.2744603287765
  0
LINE
  8
_0-b_ラッチ断面__扉側
  6
DASHED1
 62
    7
 10
612.82476271240375
 20
2247.2744603287765
 11
612.82476271240375
 21
2225.2744603287765
  0
LINE
  8
_0-b_ラッチ断面__扉側
  6
DASHED1
 62
    7
 10
618.58871271240388
 20
2220.2745103287766
 11
623.06081271240373
 21
2220.2745103287766
  0
LINE
  8
_0-b_ラッチ断面__扉側
  6
DASHED1
 62
    7
 10
624.32476271240375
 20
2218.2745103287766
 11
624.32476271240375
 21
2216.2745103287766
  0
LINE
  8
_0-b_ラッチ断面__扉側
  6
DASHED1
 62
    7
 10
617.32476271240386
 20
2218.2745103287766
 11
617.32476271240386
 21
2216.2745103287766
  0
LINE
  8
_0-b_ラッチ断面__扉側
  6
DASHED1
 62
    7
 10
617.32476271240386
 20
2216.2745103287766
 11
617.82476271240375
 21
2216.2745103287766
  0
LINE
  8
_0-b_ラッチ断面__扉側
  6
DASHED1
 62
    7
 10
623.82476271240363
 20
2216.2745103287766
 11
624.32476271240375
 21
2216.2745103287766
  0
LINE
  8
_0-b_ラッチ断面__扉側
  6
DASHED1
 62
    7
 10
624.32476271240375
 20
2211.2745103287766
 11
617.32476271240386
 21
2211.2745103287766
  0
LINE
  8
_0-b_ラッチ断面__扉側
  6
DASHED1
 62
    7
 10
624.3707127124037
 20
2211.3204603287767
 11
624.32476271240375
 21
2211.2745103287766
  0
LINE
  8
_0-b_ラッチ断面__扉側
  6
DASHED1
 62
    7
 10
617.27881271240391
 20
2211.3204603287767
 11
617.32476271240386
 21
2211.2745103287766
  0
LINE
  8
_0-b_ラッチ断面__扉側
  6
DASHED1
 62
    7
 10
623.82476271240363
 20
2218.2745103287766
 11
623.82476271240363
 21
2212.2745103287761
  0
LINE
  8
_0-b_ラッチ断面__扉側
  6
DASHED1
 62
    7
 10
617.82476271240375
 20
2218.2745103287766
 11
617.82476271240375
 21
2212.2745103287761
  0
LINE
  8
_0-b_ラッチ断面__扉側
  6
DASHED1
 62
    7
 10
617.82476271240375
 20
2216.2745103287766
 11
623.82476271240363
 21
2216.2745103287766
  0
LINE
  8
_0-b_ラッチ断面__扉側
  6
DASHED1
 62
    7
 10
616.25371271240373
 20
2212.3455603287766
 11
617.27881271240391
 21
2211.3204603287767
  0
LINE
  8
_0-b_ラッチ断面__扉側
  6
DASHED1
 62
    7
 10
625.39581271240365
 20
2212.3455603287766
 11
624.3707127124037
 21
2211.3204603287767
  0
LINE
  8
_0-b_ラッチ断面__扉側
  6
DASHED1
 62
    7
 10
628.32476271240352
 20
2219.4166103287766
 11
628.32476271240352
 21
2247.2744603287765
  0
LINE
  8
_0-b_ラッチ断面__扉側
  6
DASHED1
 62
    7
 10
613.32476271240352
 20
2219.4166103287766
 11
613.32476271240352
 21
2247.2744603287765
  0
LINE
  8
_0-b_ラッチ断面__扉側
  6
DASHED1
 62
    7
 10
607.64931271240357
 20
2239.0370603287765
 11
607.43781271240379
 21
2239.3125603287767
  0
LINE
  8
_0-b_ラッチ断面__扉側
  6
DASHED1
 62
    7
 10
607.64931271240357
 20
2239.0370603287765
 11
608.32476271240352
 21
2239.7744603287765
  0
LINE
  8
_0-b_ラッチ断面__扉側
  6
DASHED1
 62
    7
 10
607.43781271240379
 20
2239.3125603287767
 11
608.32476271240352
 21
2239.7744603287765
  0
LINE
  8
_0-b_ラッチ断面__扉側
  6
DASHED1
 62
    7
 10
628.82476271240363
 20
2247.2744603287765
 11
638.02476271240357
 21
2247.2744603287765
  0
LINE
  8
_0-b_ラッチ断面__扉側
  6
DASHED1
 62
    7
 10
612.82476271240375
 20
2247.2744603287765
 11
603.62476271240382
 21
2247.2744603287765
  0
LINE
  8
_0-b_ラッチ断面__扉側
  6
DASHED1
 62
    7
 10
621.82476271240375
 20
2247.2744603287765
 11
621.82476271240375
 21
2237.7748603287768
  0
LINE
  8
_0-b_ラッチ断面__扉側
  6
DASHED1
 62
    7
 10
619.82476271240386
 20
2247.2744603287765
 11
619.82476271240386
 21
2237.7748603287768
  0
LINE
  8
_0-b_ラッチ断面__扉側
  6
DASHED1
 62
    7
 10
620.32476271240375
 20
2237.2748603287764
 11
621.32476271240363
 21
2237.2748603287764
  0
LINE
  8
_0-b_ラッチ断面__扉側
  6
DASHED1
 62
    7
 10
619.82476271240386
 20
2241.4944603287767
 11
613.32476271240352
 21
2241.4944603287767
  0
LINE
  8
_0-b_ラッチ断面__扉側
  6
DASHED1
 62
    7
 10
628.32476271240352
 20
2241.4944603287767
 11
621.82476271240375
 21
2241.4944603287767
  0
LINE
  8
_0-b_ラッチ断面__扉側
  6
DASHED1
 62
    7
 10
619.82476271240386
 20
2241.8644603287766
 11
618.76401271240354
 21
2241.8644603287766
  0
LINE
  8
_0-b_ラッチ断面__扉側
  6
DASHED1
 62
    7
 10
616.38551271240373
 20
2241.8644603287766
 11
613.32476271240352
 21
2241.8644603287766
  0
LINE
  8
_0-b_ラッチ断面__扉側
  6
DASHED1
 62
    7
 10
628.32476271240352
 20
2241.8644603287766
 11
625.26401271240365
 21
2241.8644603287766
  0
LINE
  8
_0-b_ラッチ断面__扉側
  6
DASHED1
 62
    7
 10
622.88551271240351
 20
2241.8644603287766
 11
621.82476271240375
 21
2241.8644603287766
  0
LINE
  8
_0-b_ラッチ断面__扉側
  6
DASHED1
 62
    7
 10
640.32476271240375
 20
2237.2744603287765
 11
640.32476271240375
 21
2248.2744603287765
  0
LINE
  8
_0-b_ラッチ断面__扉側
  6
DASHED1
 62
    7
 10
638.32476271240352
 20
2236.2744603287769
 11
639.32476271240375
 21
2236.2744603287769
  0
LINE
  8
_0-b_ラッチ断面__扉側
  6
DASHED1
 62
    7
 10
638.32476271240352
 20
2246.9744603287767
 11
638.32476271240352
 21
2228.2744603287765
  0
LINE
  8
_0-b_ラッチ断面__扉側
  6
DASHED1
 62
    7
 10
601.32476271240363
 20
2237.2744603287765
 11
601.32476271240363
 21
2248.2744603287765
  0
LINE
  8
_0-b_ラッチ断面__扉側
  6
DASHED1
 62
    7
 10
603.32476271240352
 20
2236.2744603287769
 11
602.32476271240386
 21
2236.2744603287769
  0
LINE
  8
_0-b_ラッチ断面__扉側
  6
DASHED1
 62
    7
 10
603.32476271240352
 20
2246.9744603287767
 11
603.32476271240352
 21
2228.2744603287765
  0
LINE
  8
_0-b_ラッチ断面__扉側
  6
DASHED1
 62
    7
 10
620.82476271240352
 20
2283.9744603287767
 11
620.82476271240352
 21
2208.6744603287761
  0
LINE
  8
_0-b_ラッチ断面__扉側
  6
DASHED1
 62
    7
 10
602.19476271240353
 20
2264.7744603287765
 11
641.22476271240373
 21
2264.7744603287765
  0
LINE
  8
_0-b_ラッチ断面__扉側
  6
DASHED1
 62
    7
 10
608.32476271240352
 20
2243.9244603287766
 11
608.32476271240352
 21
2235.674460328777
  0
LINE
  8
_0-b_ラッチ断面__扉側
  6
DASHED1
 62
    7
 10
611.57476271240375
 20
2239.7744603287765
 11
605.02476271240368
 21
2239.7744603287765
  0
LINE
  8
_0-b_ラッチ断面__扉側
  6
DASHED1
 62
    7
 10
633.32476271240352
 20
2243.5944603287766
 11
633.32476271240352
 21
2235.8744603287768
  0
LINE
  8
_0-b_ラッチ断面__扉側
  6
DASHED1
 62
    7
 10
630.05476271240354
 20
2239.7744603287765
 11
637.06476271240376
 21
2239.7744603287765
  0
LINE
  8
_0-b_ラッチ断面__扉側
  6
DASHED1
 62
    7
 10
624.38476271240347
 20
2213.7745103287766
 11
617.11476271240371
 21
2213.7745103287766
  0
ARC
  8
_0-b_ラッチ断面__扉側
  6
DASHED1
 62
    7
 10
629.32476271240375
 20
2273.2744603287765
 40
9
 50
0.0000000000000254
 51
90.000000000000056
  0
ARC
  8
_0-b_ラッチ断面__扉側
  6
DASHED1
 62
    7
 10
632.32476271240386
 20
2228.2744603287765
 40
6.0000000000000008
 50
270
 51
0.0000000000000254
  0
ARC
  8
_0-b_ラッチ断面__扉側
  6
DASHED1
 62
    7
 10
631.82476271240375
 20
2225.2744603287765
 40
3.0000000000000004
 50
180.00000000000005
 51
270.00000000000005
  0
ARC
  8
_0-b_ラッチ断面__扉側
  6
DASHED1
 62
    7
 10
612.32476271240386
 20
2273.2744603287765
 40
9
 50
90.000000000000056
 51
180.00000000000008
  0
ARC
  8
_0-b_ラッチ断面__扉側
  6
DASHED1
 62
    7
 10
609.32476271240375
 20
2228.2744603287765
 40
6.0000000000000008
 50
180.00000000000005
 51
270.00000000000005
  0
ARC
  8
_0-b_ラッチ断面__扉側
  6
DASHED1
 62
    7
 10
609.82476271240386
 20
2225.2744603287765
 40
3.0000000000000004
 50
270
 51
0.0000000000000254
  0
CIRCLE
  8
_0-b_ラッチ断面__扉側
  6
DASHED1
 62
    7
 10
608.32476271240352
 20
2239.7744603287765
 40
1.8999999999999999
  0
CIRCLE
  8
_0-b_ラッチ断面__扉側
  6
DASHED1
 62
    7
 10
633.32476271240352
 20
2239.7744603287765
 40
1.8999999999999999
  0
ARC
  8
_0-b_ラッチ断面__扉側
  6
DASHED1
 62
    7
 10
639.32476271240375
 20
2248.2744603287765
 40
1
 50
0.0000000000000254
 51
90.000000000000056
  0
ARC
  8
_0-b_ラッチ断面__扉側
  6
DASHED1
 62
    7
 10
602.32476271240386
 20
2248.2744603287765
 40
1
 50
90.000000000000056
 51
180.00000000000008
  0
ARC
  8
_0-b_ラッチ断面__扉側
  6
DASHED1
 62
    7
 10
605.32476271240375
 20
2249.2744603287765
 40
2
 50
180.00000000000005
 51
270.00000000000005
  0
ARC
  8
_0-b_ラッチ断面__扉側
  6
DASHED1
 62
    7
 10
612.32476271240386
 20
2246.3744603287768
 40
0.5
 50
270
 51
0.0000000000000254
  0
ARC
  8
_0-b_ラッチ断面__扉側
  6
DASHED1
 62
    7
 10
611.32476271240363
 20
2246.3744603287768
 40
0.5
 50
180.00000000000005
 51
270.00000000000005
  0
ARC
  8
_0-b_ラッチ断面__扉側
  6
DASHED1
 62
    7
 10
629.32476271240375
 20
2246.3744603287768
 40
0.5
 50
180.00000000000005
 51
270.00000000000005
  0
ARC
  8
_0-b_ラッチ断面__扉側
  6
DASHED1
 62
    7
 10
630.32476271240375
 20
2246.3744603287768
 40
0.5
 50
270
 51
0.0000000000000254
  0
ARC
  8
_0-b_ラッチ断面__扉側
  6
DASHED1
 62
    7
 10
636.32476271240363
 20
2249.2744603287765
 40
2
 50
270
 51
0.0000000000000254
  0
ARC
  8
_0-b_ラッチ断面__扉側
  6
DASHED1
 62
    7
 10
620.82476271240352
 20
2218.2745103287766
 40
3.5000000000000008
 50
90.000000000000056
 51
180.00000000000008
  0
ARC
  8
_0-b_ラッチ断面__扉側
  6
DASHED1
 62
    7
 10
620.82476271240352
 20
2218.2745103287766
 40
3.5000000000000008
 50
0.0000000000000254
 51
90.000000000000056
  0
ARC
  8
_0-b_ラッチ断面__扉側
  6
DASHED1
 62
    7
 10
620.82476271240352
 20
2218.2745103287766
 40
3.0000000000000004
 50
138.19000000000005
 51
180.00000000000008
  0
ARC
  8
_0-b_ラッチ断面__扉側
  6
DASHED1
 62
    7
 10
620.82476271240352
 20
2218.2745103287766
 40
3.0000000000000004
 50
0.0000000000000254
 51
41.810000000000037
  0
ARC
  8
_0-b_ラッチ断面__扉側
  6
DASHED1
 62
    7
 10
618.82476271240363
 20
2212.2745103287761
 40
1
 50
180.00000000000005
 51
270.00000000000005
  0
ARC
  8
_0-b_ラッチ断面__扉側
  6
DASHED1
 62
    7
 10
622.82476271240375
 20
2212.2745103287761
 40
1
 50
270
 51
0.0000000000000254
  0
ARC
  8
_0-b_ラッチ断面__扉側
  6
DASHED1
 62
    7
 10
623.32476271240352
 20
2219.4166103287766
 40
10
 50
180.00000000000005
 51
225.00000000000005
  0
ARC
  8
_0-b_ラッチ断面__扉側
  6
DASHED1
 62
    7
 10
618.32476271240352
 20
2219.4166103287766
 40
10
 50
315
 51
0.0000000000000254
  0
ARC
  8
_0-b_ラッチ断面__扉側
  6
DASHED1
 62
    7
 10
638.02476271240357
 20
2246.9744603287767
 40
0.2999999999999999
 50
0.0000000000000254
 51
90.000000000000056
  0
ARC
  8
_0-b_ラッチ断面__扉側
  6
DASHED1
 62
    7
 10
603.62476271240382
 20
2246.9744603287767
 40
0.2999999999999999
 50
90.000000000000056
 51
180.00000000000008
  0
ARC
  8
_0-b_ラッチ断面__扉側
  6
DASHED1
 62
    7
 10
621.32476271240363
 20
2237.7748603287768
 40
0.5
 50
270
 51
0.0000000000000254
  0
ARC
  8
_0-b_ラッチ断面__扉側
  6
DASHED1
 62
    7
 10
620.32476271240375
 20
2237.7748603287768
 40
0.5
 50
180.00000000000005
 51
270.00000000000005
  0
ARC
  8
_0-b_ラッチ断面__扉側
  6
DASHED1
 62
    7
 10
639.32476271240375
 20
2237.2744603287765
 40
1
 50
270
 51
0.0000000000000254
  0
ARC
  8
_0-b_ラッチ断面__扉側
  6
DASHED1
 62
    7
 10
602.32476271240386
 20
2237.2744603287765
 40
1
 50
180.00000000000005
 51
270.00000000000005
  0
CIRCLE
  8
_0-b_ラッチ断面__扉側
  6
DASHED1
 62
    7
 10
624.07476271240375
 20
2237.2745103287761
 40
2.3250000000000001
  0
CIRCLE
  8
_0-b_ラッチ断面__扉側
  6
DASHED1
 62
    7
 10
617.57476271240363
 20
2237.2745103287761
 40
2.3250000000000001
  0
CIRCLE
  8
_0-b_ラッチ断面__扉側
  6
DASHED1
 62
    7
 10
617.57476271240363
 20
2243.7745103287766
 40
2.3250000000000001
  0
CIRCLE
  8
_0-b_ラッチ断面__扉側
  6
DASHED1
 62
    7
 10
624.07476271240375
 20
2243.7745103287766
 40
2.3250000000000001
  0
CIRCLE
  8
_0-b_ラッチ断面__扉側
  6
DASHED1
 62
    7
 10
620.82476271240352
 20
2213.7745103287766
 40
1.25
  0
LINE
  8
_0-b_ラッチ断面__扉側
  6
DASHED1
 62
    7
 10
733.32476271240352
 20
2222.2744603287765
 11
732.82476271240341
 21
2222.2744603287765
  0
LINE
  8
_0-b_ラッチ断面__扉側
  6
DASHED1
 62
    7
 10
710.32476271240341
 20
2222.2744603287765
 11
710.82476271240352
 21
2222.2744603287765
  0
LINE
  8
_0-b_ラッチ断面__扉側
  6
DASHED1
 62
    7
 10
713.32476271240352
 20
2282.2744603287765
 11
730.32476271240341
 21
2282.2744603287765
  0
LINE
  8
_0-b_ラッチ断面__扉側
  6
DASHED1
 62
    7
 10
713.82476271240363
 20
2247.2744603287765
 11
729.82476271240329
 21
2247.2744603287765
  0
LINE
  8
_0-b_ラッチ断面__扉側
  6
DASHED1
 62
    7
 10
733.32476271240352
 20
2222.2744603287765
 11
732.82476271240341
 21
2222.2744603287765
  0
LINE
  8
_0-b_ラッチ断面__扉側
  6
DASHED1
 62
    7
 10
739.32476271240352
 20
2249.2744603287765
 11
740.32476271240341
 21
2249.2744603287765
  0
LINE
  8
_0-b_ラッチ断面__扉側
  6
DASHED1
 62
    7
 10
739.32476271240352
 20
2273.2744603287765
 11
739.32476271240352
 21
2249.2744603287765
  0
LINE
  8
_0-b_ラッチ断面__扉側
  6
DASHED1
 62
    7
 10
704.32476271240352
 20
2249.2744603287765
 11
703.32476271240352
 21
2249.2744603287765
  0
LINE
  8
_0-b_ラッチ断面__扉側
  6
DASHED1
 62
    7
 10
704.32476271240352
 20
2273.2744603287765
 11
704.32476271240352
 21
2249.2744603287765
  0
LINE
  8
_0-b_ラッチ断面__扉側
  6
DASHED1
 62
    7
 10
702.93476271240342
 20
2252.2744603287765
 11
710.32476271240341
 21
2252.2744603287765
  0
LINE
  8
_0-b_ラッチ断面__扉側
  6
DASHED1
 62
    7
 10
733.32476271240352
 20
2252.2744603287765
 11
741.42476271240354
 21
2252.2744603287765
  0
LINE
  8
_0-b_ラッチ断面__扉側
  6
DASHED1
 62
    7
 10
711.82476271240352
 20
2247.2744603287765
 11
711.82476271240352
 21
2244.4744603287767
  0
LINE
  8
_0-b_ラッチ断面__扉側
  6
DASHED1
 62
    7
 10
713.32476271240352
 20
2245.8744603287768
 11
712.32476271240329
 21
2245.8744603287768
  0
LINE
  8
_0-b_ラッチ断面__扉側
  6
DASHED1
 62
    7
 10
730.32476271240341
 20
2245.8744603287768
 11
731.32476271240363
 21
2245.8744603287768
  0
LINE
  8
_0-b_ラッチ断面__扉側
  6
DASHED1
 62
    7
 10
731.82476271240352
 20
2247.2744603287765
 11
731.82476271240352
 21
2244.4744603287767
  0
LINE
  8
_0-b_ラッチ断面__扉側
  6
DASHED1
 62
    7
 10
729.82476271240329
 20
2247.2744603287765
 11
729.82476271240329
 21
2225.2744603287765
  0
LINE
  8
_0-b_ラッチ断面__扉側
  6
DASHED1
 62
    7
 10
713.82476271240363
 20
2247.2744603287765
 11
713.82476271240363
 21
2225.2744603287765
  0
LINE
  8
_0-b_ラッチ断面__扉側
  6
DASHED1
 62
    7
 10
719.58871271240354
 20
2220.2745103287766
 11
724.06081271240338
 21
2220.2745103287766
  0
LINE
  8
_0-b_ラッチ断面__扉側
  6
DASHED1
 62
    7
 10
725.32476271240341
 20
2218.2745103287766
 11
725.32476271240341
 21
2216.2745103287766
  0
LINE
  8
_0-b_ラッチ断面__扉側
  6
DASHED1
 62
    7
 10
718.32476271240352
 20
2218.2745103287766
 11
718.32476271240352
 21
2216.2745103287766
  0
LINE
  8
_0-b_ラッチ断面__扉側
  6
DASHED1
 62
    7
 10
718.32476271240352
 20
2216.2745103287766
 11
718.82476271240363
 21
2216.2745103287766
  0
LINE
  8
_0-b_ラッチ断面__扉側
  6
DASHED1
 62
    7
 10
724.82476271240329
 20
2216.2745103287766
 11
725.32476271240341
 21
2216.2745103287766
  0
LINE
  8
_0-b_ラッチ断面__扉側
  6
DASHED1
 62
    7
 10
725.32476271240341
 20
2211.2745103287766
 11
718.32476271240352
 21
2211.2745103287766
  0
LINE
  8
_0-b_ラッチ断面__扉側
  6
DASHED1
 62
    7
 10
725.37071271240336
 20
2211.3204603287767
 11
725.32476271240341
 21
2211.2745103287766
  0
LINE
  8
_0-b_ラッチ断面__扉側
  6
DASHED1
 62
    7
 10
718.27881271240357
 20
2211.3204603287767
 11
718.32476271240352
 21
2211.2745103287766
  0
LINE
  8
_0-b_ラッチ断面__扉側
  6
DASHED1
 62
    7
 10
724.82476271240329
 20
2218.2745103287766
 11
724.82476271240329
 21
2212.2745103287761
  0
LINE
  8
_0-b_ラッチ断面__扉側
  6
DASHED1
 62
    7
 10
718.82476271240363
 20
2218.2745103287766
 11
718.82476271240363
 21
2212.2745103287761
  0
LINE
  8
_0-b_ラッチ断面__扉側
  6
DASHED1
 62
    7
 10
718.82476271240363
 20
2216.2745103287766
 11
724.82476271240329
 21
2216.2745103287766
  0
LINE
  8
_0-b_ラッチ断面__扉側
  6
DASHED1
 62
    7
 10
717.25371271240362
 20
2212.3455603287766
 11
718.27881271240357
 21
2211.3204603287767
  0
LINE
  8
_0-b_ラッチ断面__扉側
  6
DASHED1
 62
    7
 10
726.39581271240331
 20
2212.3455603287766
 11
725.37071271240336
 21
2211.3204603287767
  0
LINE
  8
_0-b_ラッチ断面__扉側
  6
DASHED1
 62
    7
 10
729.32476271240352
 20
2219.4166103287766
 11
729.32476271240352
 21
2247.2744603287765
  0
LINE
  8
_0-b_ラッチ断面__扉側
  6
DASHED1
 62
    7
 10
714.32476271240352
 20
2219.4166103287766
 11
714.32476271240352
 21
2247.2744603287765
  0
LINE
  8
_0-b_ラッチ断面__扉側
  6
DASHED1
 62
    7
 10
708.64931271240357
 20
2239.0370603287765
 11
708.43781271240345
 21
2239.3125603287767
  0
LINE
  8
_0-b_ラッチ断面__扉側
  6
DASHED1
 62
    7
 10
708.64931271240357
 20
2239.0370603287765
 11
709.32476271240352
 21
2239.7744603287765
  0
LINE
  8
_0-b_ラッチ断面__扉側
  6
DASHED1
 62
    7
 10
708.43781271240345
 20
2239.3125603287767
 11
709.32476271240352
 21
2239.7744603287765
  0
LINE
  8
_0-b_ラッチ断面__扉側
  6
DASHED1
 62
    7
 10
729.82476271240329
 20
2247.2744603287765
 11
739.02476271240345
 21
2247.2744603287765
  0
LINE
  8
_0-b_ラッチ断面__扉側
  6
DASHED1
 62
    7
 10
713.82476271240363
 20
2247.2744603287765
 11
704.62476271240348
 21
2247.2744603287765
  0
LINE
  8
_0-b_ラッチ断面__扉側
  6
DASHED1
 62
    7
 10
722.82476271240341
 20
2247.2744603287765
 11
722.82476271240341
 21
2237.7748603287768
  0
LINE
  8
_0-b_ラッチ断面__扉側
  6
DASHED1
 62
    7
 10
720.82476271240352
 20
2247.2744603287765
 11
720.82476271240352
 21
2237.7748603287768
  0
LINE
  8
_0-b_ラッチ断面__扉側
  6
DASHED1
 62
    7
 10
721.32476271240363
 20
2237.2748603287764
 11
722.32476271240329
 21
2237.2748603287764
  0
LINE
  8
_0-b_ラッチ断面__扉側
  6
DASHED1
 62
    7
 10
720.82476271240352
 20
2241.4944603287767
 11
714.32476271240352
 21
2241.4944603287767
  0
LINE
  8
_0-b_ラッチ断面__扉側
  6
DASHED1
 62
    7
 10
729.32476271240352
 20
2241.4944603287767
 11
722.82476271240341
 21
2241.4944603287767
  0
LINE
  8
_0-b_ラッチ断面__扉側
  6
DASHED1
 62
    7
 10
720.82476271240352
 20
2241.8644603287766
 11
719.7640127124032
 21
2241.8644603287766
  0
LINE
  8
_0-b_ラッチ断面__扉側
  6
DASHED1
 62
    7
 10
717.38551271240339
 20
2241.8644603287766
 11
714.32476271240352
 21
2241.8644603287766
  0
LINE
  8
_0-b_ラッチ断面__扉側
  6
DASHED1
 62
    7
 10
729.32476271240352
 20
2241.8644603287766
 11
726.26401271240354
 21
2241.8644603287766
  0
LINE
  8
_0-b_ラッチ断面__扉側
  6
DASHED1
 62
    7
 10
723.88551271240316
 20
2241.8644603287766
 11
722.82476271240341
 21
2241.8644603287766
  0
LINE
  8
_0-b_ラッチ断面__扉側
  6
DASHED1
 62
    7
 10
741.32476271240363
 20
2237.2744603287765
 11
741.32476271240363
 21
2248.2744603287765
  0
LINE
  8
_0-b_ラッチ断面__扉側
  6
DASHED1
 62
    7
 10
739.32476271240352
 20
2236.2744603287769
 11
740.32476271240341
 21
2236.2744603287769
  0
LINE
  8
_0-b_ラッチ断面__扉側
  6
DASHED1
 62
    7
 10
739.32476271240352
 20
2246.9744603287767
 11
739.32476271240352
 21
2228.2744603287765
  0
LINE
  8
_0-b_ラッチ断面__扉側
  6
DASHED1
 62
    7
 10
702.32476271240329
 20
2237.2744603287765
 11
702.32476271240329
 21
2248.2744603287765
  0
LINE
  8
_0-b_ラッチ断面__扉側
  6
DASHED1
 62
    7
 10
704.32476271240352
 20
2236.2744603287769
 11
703.32476271240352
 21
2236.2744603287769
  0
LINE
  8
_0-b_ラッチ断面__扉側
  6
DASHED1
 62
    7
 10
704.32476271240352
 20
2246.9744603287767
 11
704.32476271240352
 21
2228.2744603287765
  0
LINE
  8
_0-b_ラッチ断面__扉側
  6
DASHED1
 62
    7
 10
721.82476271240352
 20
2283.9744603287767
 11
721.82476271240352
 21
2208.6744603287761
  0
LINE
  8
_0-b_ラッチ断面__扉側
  6
DASHED1
 62
    7
 10
703.19476271240318
 20
2264.7744603287765
 11
742.22476271240338
 21
2264.7744603287765
  0
LINE
  8
_0-b_ラッチ断面__扉側
  6
DASHED1
 62
    7
 10
709.32476271240352
 20
2243.9244603287766
 11
709.32476271240352
 21
2235.674460328777
  0
LINE
  8
_0-b_ラッチ断面__扉側
  6
DASHED1
 62
    7
 10
712.57476271240363
 20
2239.7744603287765
 11
706.02476271240334
 21
2239.7744603287765
  0
LINE
  8
_0-b_ラッチ断面__扉側
  6
DASHED1
 62
    7
 10
734.32476271240352
 20
2243.5944603287766
 11
734.32476271240352
 21
2235.8744603287768
  0
LINE
  8
_0-b_ラッチ断面__扉側
  6
DASHED1
 62
    7
 10
731.05476271240354
 20
2239.7744603287765
 11
738.06476271240342
 21
2239.7744603287765
  0
LINE
  8
_0-b_ラッチ断面__扉側
  6
DASHED1
 62
    7
 10
725.38476271240347
 20
2213.7745103287766
 11
718.11476271240337
 21
2213.7745103287766
  0
ARC
  8
_0-b_ラッチ断面__扉側
  6
DASHED1
 62
    7
 10
730.32476271240341
 20
2273.2744603287765
 40
9
 50
0.0000000000000254
 51
90.000000000000056
  0
ARC
  8
_0-b_ラッチ断面__扉側
  6
DASHED1
 62
    7
 10
733.32476271240352
 20
2228.2744603287765
 40
6.0000000000000008
 50
270
 51
0.0000000000000254
  0
ARC
  8
_0-b_ラッチ断面__扉側
  6
DASHED1
 62
    7
 10
732.82476271240341
 20
2225.2744603287765
 40
3.0000000000000004
 50
180.00000000000005
 51
270.00000000000005
  0
ARC
  8
_0-b_ラッチ断面__扉側
  6
DASHED1
 62
    7
 10
713.32476271240352
 20
2273.2744603287765
 40
9
 50
90.000000000000056
 51
180.00000000000008
  0
ARC
  8
_0-b_ラッチ断面__扉側
  6
DASHED1
 62
    7
 10
710.32476271240341
 20
2228.2744603287765
 40
6.0000000000000008
 50
180.00000000000005
 51
270.00000000000005
  0
ARC
  8
_0-b_ラッチ断面__扉側
  6
DASHED1
 62
    7
 10
710.82476271240352
 20
2225.2744603287765
 40
3.0000000000000004
 50
270
 51
0.0000000000000254
  0
CIRCLE
  8
_0-b_ラッチ断面__扉側
  6
DASHED1
 62
    7
 10
709.32476271240352
 20
2239.7744603287765
 40
1.8999999999999999
  0
CIRCLE
  8
_0-b_ラッチ断面__扉側
  6
DASHED1
 62
    7
 10
734.32476271240352
 20
2239.7744603287765
 40
1.8999999999999999
  0
ARC
  8
_0-b_ラッチ断面__扉側
  6
DASHED1
 62
    7
 10
740.32476271240341
 20
2248.2744603287765
 40
1
 50
0.0000000000000254
 51
90.000000000000056
  0
ARC
  8
_0-b_ラッチ断面__扉側
  6
DASHED1
 62
    7
 10
703.32476271240352
 20
2248.2744603287765
 40
1
 50
90.000000000000056
 51
180.00000000000008
  0
ARC
  8
_0-b_ラッチ断面__扉側
  6
DASHED1
 62
    7
 10
706.32476271240363
 20
2249.2744603287765
 40
2
 50
180.00000000000005
 51
270.00000000000005
  0
ARC
  8
_0-b_ラッチ断面__扉側
  6
DASHED1
 62
    7
 10
713.32476271240352
 20
2246.3744603287768
 40
0.5
 50
270
 51
0.0000000000000254
  0
ARC
  8
_0-b_ラッチ断面__扉側
  6
DASHED1
 62
    7
 10
712.32476271240329
 20
2246.3744603287768
 40
0.5
 50
180.00000000000005
 51
270.00000000000005
  0
ARC
  8
_0-b_ラッチ断面__扉側
  6
DASHED1
 62
    7
 10
730.32476271240341
 20
2246.3744603287768
 40
0.5
 50
180.00000000000005
 51
270.00000000000005
  0
ARC
  8
_0-b_ラッチ断面__扉側
  6
DASHED1
 62
    7
 10
731.32476271240363
 20
2246.3744603287768
 40
0.5
 50
270
 51
0.0000000000000254
  0
ARC
  8
_0-b_ラッチ断面__扉側
  6
DASHED1
 62
    7
 10
737.32476271240329
 20
2249.2744603287765
 40
2
 50
270
 51
0.0000000000000254
  0
ARC
  8
_0-b_ラッチ断面__扉側
  6
DASHED1
 62
    7
 10
721.82476271240352
 20
2218.2745103287766
 40
3.5000000000000008
 50
90.000000000000056
 51
180.00000000000008
  0
ARC
  8
_0-b_ラッチ断面__扉側
  6
DASHED1
 62
    7
 10
721.82476271240352
 20
2218.2745103287766
 40
3.5000000000000008
 50
0.0000000000000254
 51
90.000000000000056
  0
ARC
  8
_0-b_ラッチ断面__扉側
  6
DASHED1
 62
    7
 10
721.82476271240352
 20
2218.2745103287766
 40
3.0000000000000004
 50
138.19000000000005
 51
180.00000000000008
  0
ARC
  8
_0-b_ラッチ断面__扉側
  6
DASHED1
 62
    7
 10
721.82476271240352
 20
2218.2745103287766
 40
3.0000000000000004
 50
0.0000000000000254
 51
41.810000000000037
  0
ARC
  8
_0-b_ラッチ断面__扉側
  6
DASHED1
 62
    7
 10
719.82476271240329
 20
2212.2745103287761
 40
1
 50
180.00000000000005
 51
270.00000000000005
  0
ARC
  8
_0-b_ラッチ断面__扉側
  6
DASHED1
 62
    7
 10
723.82476271240363
 20
2212.2745103287761
 40
1
 50
270
 51
0.0000000000000254
  0
ARC
  8
_0-b_ラッチ断面__扉側
  6
DASHED1
 62
    7
 10
724.32476271240352
 20
2219.4166103287766
 40
10
 50
180.00000000000005
 51
225.00000000000005
  0
ARC
  8
_0-b_ラッチ断面__扉側
  6
DASHED1
 62
    7
 10
719.32476271240352
 20
2219.4166103287766
 40
10
 50
315
 51
0.0000000000000254
  0
ARC
  8
_0-b_ラッチ断面__扉側
  6
DASHED1
 62
    7
 10
739.02476271240345
 20
2246.9744603287767
 40
0.2999999999999999
 50
0.0000000000000254
 51
90.000000000000056
  0
ARC
  8
_0-b_ラッチ断面__扉側
  6
DASHED1
 62
    7
 10
704.62476271240348
 20
2246.9744603287767
 40
0.2999999999999999
 50
90.000000000000056
 51
180.00000000000008
  0
ARC
  8
_0-b_ラッチ断面__扉側
  6
DASHED1
 62
    7
 10
722.32476271240329
 20
2237.7748603287768
 40
0.5
 50
270
 51
0.0000000000000254
  0
ARC
  8
_0-b_ラッチ断面__扉側
  6
DASHED1
 62
    7
 10
721.32476271240363
 20
2237.7748603287768
 40
0.5
 50
180.00000000000005
 51
270.00000000000005
  0
ARC
  8
_0-b_ラッチ断面__扉側
  6
DASHED1
 62
    7
 10
740.32476271240341
 20
2237.2744603287765
 40
1
 50
270
 51
0.0000000000000254
  0
ARC
  8
_0-b_ラッチ断面__扉側
  6
DASHED1
 62
    7
 10
703.32476271240352
 20
2237.2744603287765
 40
1
 50
180.00000000000005
 51
270.00000000000005
  0
CIRCLE
  8
_0-b_ラッチ断面__扉側
  6
DASHED1
 62
    7
 10
725.07476271240363
 20
2237.2745103287761
 40
2.3250000000000001
  0
CIRCLE
  8
_0-b_ラッチ断面__扉側
  6
DASHED1
 62
    7
 10
718.57476271240329
 20
2237.2745103287761
 40
2.3250000000000001
  0
CIRCLE
  8
_0-b_ラッチ断面__扉側
  6
DASHED1
 62
    7
 10
718.57476271240329
 20
2243.7745103287766
 40
2.3250000000000001
  0
CIRCLE
  8
_0-b_ラッチ断面__扉側
  6
DASHED1
 62
    7
 10
725.07476271240363
 20
2243.7745103287766
 40
2.3250000000000001
  0
CIRCLE
  8
_0-b_ラッチ断面__扉側
  6
DASHED1
 62
    7
 10
721.82476271240352
 20
2213.7745103287766
 40
1.25
  0
LINE
  8
_0-b_ラッチ断面__扉側
  6
DASHED1
 62
    7
 10
1087.3247627124028
 20
1332.6410513398288
 11
1087.3247627124028
 21
1324.241051339829
  0
LINE
  8
_0-b_ラッチ断面__扉側
  6
DASHED1
 62
    7
 10
1086.3247627124028
 20
1301.0410513398289
 11
1063.3247627124028
 21
1301.0410513398289
  0
LINE
  8
_0-b_ラッチ断面__扉側
  6
DASHED1
 62
    7
 10
1074.8247627124028
 20
1318.0410513398287
 11
1067.3247627124028
 21
1318.0410513398287
  0
LINE
  8
_0-b_ラッチ断面__扉側
  6
DASHED1
 62
    7
 10
1064.8247627124028
 20
1325.5410513398287
 11
1064.8247627124028
 21
1320.0410513398287
  0
LINE
  8
_0-b_ラッチ断面__扉側
  6
DASHED1
 62
    7
 10
1066.3247627124028
 20
1319.5410513398289
 11
1065.3247627124026
 21
1319.5410513398289
  0
LINE
  8
_0-b_ラッチ断面__扉側
  6
DASHED1
 62
    7
 10
1094.4047627124027
 20
1328.9910513398288
 11
1094.4247627124027
 21
1328.9910513398288
  0
LINE
  8
_0-b_ラッチ断面__扉側
  6
DASHED1
 62
    7
 10
1057.3247627124028
 20
1311.3410513398289
 11
1056.3247627124028
 21
1311.3410513398289
  0
LINE
  8
_0-b_ラッチ断面__扉側
  6
DASHED1
 62
    7
 10
1058.3247627124028
 20
1325.5410513398287
 11
1065.8247627124028
 21
1325.5410513398287
  0
LINE
  8
_0-b_ラッチ断面__扉側
  6
DASHED1
 62
    7
 10
1057.3247627124028
 20
1324.5410513398289
 11
1057.3247627124028
 21
1307.0410513398289
  0
LINE
  8
_0-b_ラッチ断面__扉側
  6
DASHED1
 62
    7
 10
1055.3247627124026
 20
1330.741051339829
 11
1055.3247627124026
 21
1312.3410513398289
  0
LINE
  8
_0-b_ラッチ断面__扉側
  6
DASHED1
 62
    7
 10
1066.8247627124028
 20
1330.741051339829
 11
1055.3247627124026
 21
1330.741051339829
  0
LINE
  8
_0-b_ラッチ断面__扉側
  6
DASHED1
 62
    7
 10
1057.3247627124028
 20
1330.741051339829
 11
1057.3247627124028
 21
1326.5410513398287
  0
LINE
  8
_0-b_ラッチ断面__扉側
  6
DASHED1
 62
    7
 10
1066.8247627124028
 20
1330.741051339829
 11
1066.8247627124028
 21
1318.5410513398289
  0
LINE
  8
_0-b_ラッチ断面__扉側
  6
DASHED1
 62
    7
 10
1092.3247627124028
 20
1330.741051339829
 11
1092.3247627124028
 21
1307.0410513398289
  0
LINE
  8
_0-b_ラッチ断面__扉側
  6
DASHED1
 62
    7
 10
1082.8247627124026
 20
1330.741051339829
 11
1094.3247627124028
 21
1330.741051339829
  0
LINE
  8
_0-b_ラッチ断面__扉側
  6
DASHED1
 62
    7
 10
1094.3247627124028
 20
1330.741051339829
 11
1094.3247627124028
 21
1312.3410513398289
  0
LINE
  8
_0-b_ラッチ断面__扉側
  6
DASHED1
 62
    7
 10
1092.3247627124028
 20
1311.3410513398289
 11
1093.3247627124028
 21
1311.3410513398289
  0
LINE
  8
_0-b_ラッチ断面__扉側
  6
DASHED1
 62
    7
 10
1066.8247627124028
 20
1329.8410513398289
 11
1082.8247627124026
 21
1329.8410513398289
  0
LINE
  8
_0-b_ラッチ断面__扉側
  6
DASHED1
 62
    7
 10
1082.8247627124026
 20
1330.741051339829
 11
1082.8247627124026
 21
1318.5410513398289
  0
LINE
  8
_0-b_ラッチ断面__扉側
  6
DASHED1
 62
    7
 10
1074.8247627124028
 20
1318.0410513398287
 11
1082.3247627124028
 21
1318.0410513398287
  0
LINE
  8
_0-b_ラッチ断面__扉側
  6
DASHED1
 62
    7
 10
1091.3247627124028
 20
1325.5410513398287
 11
1083.8247627124028
 21
1325.5410513398287
  0
LINE
  8
_0-b_ラッチ断面__扉側
  6
DASHED1
 62
    7
 10
1081.3247627124028
 20
1329.5410513398289
 11
1068.3247627124028
 21
1329.5410513398289
  0
LINE
  8
_0-b_ラッチ断面__扉側
  6
DASHED1
 62
    7
 10
1071.8247627124028
 20
1325.5410513398287
 11
1071.8247627124028
 21
1320.5410513398287
  0
LINE
  8
_0-b_ラッチ断面__扉側
  6
DASHED1
 62
    7
 10
1076.8247627124028
 20
1319.5410513398289
 11
1072.8247627124026
 21
1319.5410513398289
  0
LINE
  8
_0-b_ラッチ断面__扉側
  6
DASHED1
 62
    7
 10
1077.8247627124026
 20
1325.5410513398287
 11
1077.8247627124026
 21
1320.5410513398287
  0
LINE
  8
_0-b_ラッチ断面__扉側
  6
DASHED1
 62
    7
 10
1081.3247627124028
 20
1325.5410513398287
 11
1077.8247627124026
 21
1325.5410513398287
  0
LINE
  8
_0-b_ラッチ断面__扉側
  6
DASHED1
 62
    7
 10
1071.8247627124028
 20
1325.5410513398287
 11
1068.3247627124028
 21
1325.5410513398287
  0
LINE
  8
_0-b_ラッチ断面__扉側
  6
DASHED1
 62
    7
 10
1069.3247627124028
 20
1319.1449013398289
 11
1069.1281627124026
 21
1319.6046513398289
  0
LINE
  8
_0-b_ラッチ断面__扉側
  6
DASHED1
 62
    7
 10
1080.3247627124026
 20
1319.1449013398289
 11
1080.5213627124026
 21
1319.6046513398289
  0
LINE
  8
_0-b_ラッチ断面__扉側
  6
DASHED1
 62
    7
 10
1082.3247627124028
 20
1318.0410513398287
 11
1082.3247627124028
 21
1328.5410513398289
  0
LINE
  8
_0-b_ラッチ断面__扉側
  6
DASHED1
 62
    7
 10
1067.3247627124028
 20
1318.0410513398287
 11
1067.3247627124028
 21
1328.5410513398289
  0
LINE
  8
_0-b_ラッチ断面__扉側
  6
DASHED1
 62
    7
 10
1083.3247627124028
 20
1319.5410513398289
 11
1084.3247627124028
 21
1319.5410513398289
  0
LINE
  8
_0-b_ラッチ断面__扉側
  6
DASHED1
 62
    7
 10
1084.8247627124028
 20
1325.5410513398287
 11
1084.8247627124028
 21
1320.0410513398287
  0
LINE
  8
_0-b_ラッチ断面__扉側
  6
DASHED1
 62
    7
 10
1066.8247627124028
 20
1323.5410513398289
 11
1067.3247627124028
 21
1323.5410513398289
  0
LINE
  8
_0-b_ラッチ断面__扉側
  6
DASHED1
 62
    7
 10
1066.8247627124028
 20
1322.5410513398289
 11
1067.3247627124028
 21
1322.5410513398289
  0
LINE
  8
_0-b_ラッチ断面__扉側
  6
DASHED1
 62
    7
 10
1082.3247627124028
 20
1322.5410513398289
 11
1082.8247627124026
 21
1322.5410513398289
  0
LINE
  8
_0-b_ラッチ断面__扉側
  6
DASHED1
 62
    7
 10
1082.3247627124028
 20
1323.5410513398289
 11
1082.8247627124026
 21
1323.5410513398289
  0
LINE
  8
_0-b_ラッチ断面__扉側
  6
DASHED1
 62
    7
 10
1066.8247627124028
 20
1330.2410513398288
 11
1082.8247627124026
 21
1330.2410513398288
  0
LINE
  8
_0-b_ラッチ断面__扉側
  6
DASHED1
 62
    7
 10
1074.8247627124028
 20
1301.0410513398289
 11
1074.1247627124025
 21
1301.0410513398289
  0
LINE
  8
_0-b_ラッチ断面__扉側
  6
DASHED1
 62
    7
 10
1074.8247627124028
 20
1301.0410513398289
 11
1075.5247627124028
 21
1301.0410513398289
  0
LINE
  8
_0-b_ラッチ断面__扉側
  6
DASHED1
 62
    7
 10
1074.3247627124028
 20
1315.0410513398287
 11
1074.8247627124028
 21
1315.0410513398287
  0
LINE
  8
_0-b_ラッチ断面__扉側
  6
DASHED1
 62
    7
 10
1073.8247627124028
 20
1301.3410513398289
 11
1073.8247627124028
 21
1314.5410513398289
  0
LINE
  8
_0-b_ラッチ断面__扉側
  6
DASHED1
 62
    7
 10
1075.8247627124028
 20
1301.3410513398289
 11
1075.8247627124028
 21
1314.5410513398289
  0
LINE
  8
_0-b_ラッチ断面__扉側
  6
DASHED1
 62
    7
 10
1074.8247627124028
 20
1315.0410513398287
 11
1075.3247627124026
 21
1315.0410513398287
  0
LINE
  8
_0-b_ラッチ断面__扉側
  6
DASHED1
 62
    7
 10
1074.8247627124028
 20
1331.3410513398289
 11
1074.8247627124028
 21
1298.3410513398289
  0
ARC
  8
_0-b_ラッチ断面__扉側
  6
DASHED1
 62
    7
 10
1063.3247627124028
 20
1307.0410513398289
 40
6.0000000000000008
 50
180.00000000000005
 51
270.00000000000005
  0
ARC
  8
_0-b_ラッチ断面__扉側
  6
DASHED1
 62
    7
 10
1086.3247627124028
 20
1307.0410513398289
 40
6.0000000000000008
 50
270.00000000000005
 51
0.0000000000000763
  0
ARC
  8
_0-b_ラッチ断面__扉側
  6
DASHED1
 62
    7
 10
1065.8247627124028
 20
1326.5410513398287
 40
1
 50
270.00000000000005
 51
0.0000000000000763
  0
ARC
  8
_0-b_ラッチ断面__扉側
  6
DASHED1
 62
    7
 10
1058.3247627124028
 20
1326.5410513398287
 40
1
 50
180.00000000000005
 51
270.00000000000005
  0
ARC
  8
_0-b_ラッチ断面__扉側
  6
DASHED1
 62
    7
 10
1067.3247627124028
 20
1318.5410513398289
 40
0.5
 50
180.00000000000005
 51
270.00000000000005
  0
ARC
  8
_0-b_ラッチ断面__扉側
  6
DASHED1
 62
    7
 10
1066.3247627124028
 20
1320.0410513398287
 40
0.5
 50
270.00000000000005
 51
0.0000000000000763
  0
ARC
  8
_0-b_ラッチ断面__扉側
  6
DASHED1
 62
    7
 10
1065.3247627124026
 20
1320.0410513398287
 40
0.5
 50
180.00000000000005
 51
270.00000000000005
  0
ARC
  8
_0-b_ラッチ断面__扉側
  6
DASHED1
 62
    7
 10
1056.3247627124028
 20
1312.3410513398289
 40
1
 50
180.00000000000005
 51
270.00000000000005
  0
ARC
  8
_0-b_ラッチ断面__扉側
  6
DASHED1
 62
    7
 10
1058.3247627124028
 20
1324.5410513398289
 40
1
 50
90.000000000000028
 51
180.00000000000005
  0
ARC
  8
_0-b_ラッチ断面__扉側
  6
DASHED1
 62
    7
 10
1093.3247627124028
 20
1312.3410513398289
 40
1
 50
270.00000000000005
 51
0.0000000000000763
  0
ARC
  8
_0-b_ラッチ断面__扉側
  6
DASHED1
 62
    7
 10
1082.3247627124028
 20
1318.5410513398289
 40
0.5
 50
270.00000000000005
 51
0.0000000000000763
  0
ARC
  8
_0-b_ラッチ断面__扉側
  6
DASHED1
 62
    7
 10
1083.8247627124028
 20
1326.5410513398287
 40
1
 50
180.00000000000005
 51
270.00000000000005
  0
ARC
  8
_0-b_ラッチ断面__扉側
  6
DASHED1
 62
    7
 10
1091.3247627124028
 20
1326.5410513398287
 40
1
 50
270.00000000000005
 51
0.0000000000000763
  0
ARC
  8
_0-b_ラッチ断面__扉側
  6
DASHED1
 62
    7
 10
1068.3247627124028
 20
1328.5410513398289
 40
1
 50
90.000000000000028
 51
180.00000000000005
  0
ARC
  8
_0-b_ラッチ断面__扉側
  6
DASHED1
 62
    7
 10
1081.3247627124028
 20
1328.5410513398289
 40
1
 50
0
 51
90.000000000000028
  0
ARC
  8
_0-b_ラッチ断面__扉側
  6
DASHED1
 62
    7
 10
1068.3247627124028
 20
1326.5410513398287
 40
1
 50
180.00000000000005
 51
270.00000000000005
  0
ARC
  8
_0-b_ラッチ断面__扉側
  6
DASHED1
 62
    7
 10
1081.3247627124028
 20
1326.5410513398287
 40
1
 50
270.00000000000005
 51
0.0000000000000763
  0
ARC
  8
_0-b_ラッチ断面__扉側
  6
DASHED1
 62
    7
 10
1072.8247627124026
 20
1320.5410513398287
 40
1
 50
180.00000000000005
 51
270.00000000000005
  0
ARC
  8
_0-b_ラッチ断面__扉側
  6
DASHED1
 62
    7
 10
1076.8247627124028
 20
1320.5410513398287
 40
1
 50
270.00000000000005
 51
0.0000000000000763
  0
ARC
  8
_0-b_ラッチ断面__扉側
  6
DASHED1
 62
    7
 10
1083.3247627124028
 20
1320.0410513398287
 40
0.5
 50
180.00000000000005
 51
270.00000000000005
  0
ARC
  8
_0-b_ラッチ断面__扉側
  6
DASHED1
 62
    7
 10
1084.3247627124028
 20
1320.0410513398287
 40
0.5
 50
270.00000000000005
 51
0.0000000000000763
  0
ARC
  8
_0-b_ラッチ断面__扉側
  6
DASHED1
 62
    7
 10
1074.1247627124025
 20
1301.3410513398289
 40
0.2999999999999999
 50
180.00000000000005
 51
270.00000000000005
  0
ARC
  8
_0-b_ラッチ断面__扉側
  6
DASHED1
 62
    7
 10
1075.5247627124028
 20
1301.3410513398289
 40
0.2999999999999999
 50
270.00000000000005
 51
0.0000000000000763
  0
ARC
  8
_0-b_ラッチ断面__扉側
  6
DASHED1
 62
    7
 10
1074.3247627124028
 20
1314.5410513398289
 40
0.5
 50
90.000000000000028
 51
180.00000000000005
  0
ARC
  8
_0-b_ラッチ断面__扉側
  6
DASHED1
 62
    7
 10
1075.3247627124026
 20
1314.5410513398289
 40
0.5
 50
0
 51
90.000000000000028
  0
LINE
  8
_0-b_ラッチ断面__扉側
  6
DASHED1
 62
    7
 10
1062.3247627124028
 20
1332.6410513398288
 11
1062.3247627124028
 21
1324.241051339829
  0
LINE
  8
_0-b_ラッチ断面__扉側
  6
DASHED1
 62
    7
 10
633.32476271240216
 20
1332.6410513398288
 11
633.32476271240216
 21
1324.241051339829
  0
LINE
  8
_0-b_ラッチ断面__扉側
  6
DASHED1
 62
    7
 10
632.32476271240238
 20
1301.0410513398289
 11
609.32476271240238
 21
1301.0410513398289
  0
LINE
  8
_0-b_ラッチ断面__扉側
  6
DASHED1
 62
    7
 10
620.82476271240216
 20
1318.0410513398287
 11
613.32476271240216
 21
1318.0410513398287
  0
LINE
  8
_0-b_ラッチ断面__扉側
  6
DASHED1
 62
    7
 10
610.82476271240216
 20
1325.5410513398287
 11
610.82476271240216
 21
1320.0410513398287
  0
LINE
  8
_0-b_ラッチ断面__扉側
  6
DASHED1
 62
    7
 10
612.32476271240238
 20
1319.5410513398289
 11
611.32476271240216
 21
1319.5410513398289
  0
LINE
  8
_0-b_ラッチ断面__扉側
  6
DASHED1
 62
    7
 10
640.40476271240231
 20
1328.9910513398288
 11
640.42476271240218
 21
1328.9910513398288
  0
LINE
  8
_0-b_ラッチ断面__扉側
  6
DASHED1
 62
    7
 10
603.32476271240216
 20
1311.3410513398289
 11
602.32476271240238
 21
1311.3410513398289
  0
LINE
  8
_0-b_ラッチ断面__扉側
  6
DASHED1
 62
    7
 10
604.32476271240238
 20
1325.5410513398287
 11
611.82476271240238
 21
1325.5410513398287
  0
LINE
  8
_0-b_ラッチ断面__扉側
  6
DASHED1
 62
    7
 10
603.32476271240216
 20
1324.5410513398289
 11
603.32476271240216
 21
1307.0410513398289
  0
LINE
  8
_0-b_ラッチ断面__扉側
  6
DASHED1
 62
    7
 10
601.32476271240216
 20
1330.741051339829
 11
601.32476271240216
 21
1312.3410513398289
  0
LINE
  8
_0-b_ラッチ断面__扉側
  6
DASHED1
 62
    7
 10
612.82476271240227
 20
1330.741051339829
 11
601.32476271240216
 21
1330.741051339829
  0
LINE
  8
_0-b_ラッチ断面__扉側
  6
DASHED1
 62
    7
 10
603.32476271240216
 20
1330.741051339829
 11
603.32476271240216
 21
1326.5410513398287
  0
LINE
  8
_0-b_ラッチ断面__扉側
  6
DASHED1
 62
    7
 10
612.82476271240227
 20
1330.741051339829
 11
612.82476271240227
 21
1318.5410513398289
  0
LINE
  8
_0-b_ラッチ断面__扉側
  6
DASHED1
 62
    7
 10
638.32476271240216
 20
1330.741051339829
 11
638.32476271240216
 21
1307.0410513398289
  0
LINE
  8
_0-b_ラッチ断面__扉側
  6
DASHED1
 62
    7
 10
628.82476271240216
 20
1330.741051339829
 11
640.32476271240227
 21
1330.741051339829
  0
LINE
  8
_0-b_ラッチ断面__扉側
  6
DASHED1
 62
    7
 10
640.32476271240227
 20
1330.741051339829
 11
640.32476271240227
 21
1312.3410513398289
  0
LINE
  8
_0-b_ラッチ断面__扉側
  6
DASHED1
 62
    7
 10
638.32476271240216
 20
1311.3410513398289
 11
639.32476271240238
 21
1311.3410513398289
  0
LINE
  8
_0-b_ラッチ断面__扉側
  6
DASHED1
 62
    7
 10
612.82476271240227
 20
1329.8410513398289
 11
628.82476271240216
 21
1329.8410513398289
  0
LINE
  8
_0-b_ラッチ断面__扉側
  6
DASHED1
 62
    7
 10
628.82476271240216
 20
1330.741051339829
 11
628.82476271240216
 21
1318.5410513398289
  0
LINE
  8
_0-b_ラッチ断面__扉側
  6
DASHED1
 62
    7
 10
620.82476271240216
 20
1318.0410513398287
 11
628.32476271240216
 21
1318.0410513398287
  0
LINE
  8
_0-b_ラッチ断面__扉側
  6
DASHED1
 62
    7
 10
637.32476271240238
 20
1325.5410513398287
 11
629.82476271240238
 21
1325.5410513398287
  0
LINE
  8
_0-b_ラッチ断面__扉側
  6
DASHED1
 62
    7
 10
627.32476271240238
 20
1329.5410513398289
 11
614.32476271240238
 21
1329.5410513398289
  0
LINE
  8
_0-b_ラッチ断面__扉側
  6
DASHED1
 62
    7
 10
617.82476271240227
 20
1325.5410513398287
 11
617.82476271240227
 21
1320.5410513398287
  0
LINE
  8
_0-b_ラッチ断面__扉側
  6
DASHED1
 62
    7
 10
622.82476271240227
 20
1319.5410513398289
 11
618.82476271240216
 21
1319.5410513398289
  0
LINE
  8
_0-b_ラッチ断面__扉側
  6
DASHED1
 62
    7
 10
623.82476271240216
 20
1325.5410513398287
 11
623.82476271240216
 21
1320.5410513398287
  0
LINE
  8
_0-b_ラッチ断面__扉側
  6
DASHED1
 62
    7
 10
627.32476271240238
 20
1325.5410513398287
 11
623.82476271240216
 21
1325.5410513398287
  0
LINE
  8
_0-b_ラッチ断面__扉側
  6
DASHED1
 62
    7
 10
617.82476271240227
 20
1325.5410513398287
 11
614.32476271240238
 21
1325.5410513398287
  0
LINE
  8
_0-b_ラッチ断面__扉側
  6
DASHED1
 62
    7
 10
615.32476271240227
 20
1319.1449013398289
 11
615.12816271240217
 21
1319.6046513398289
  0
LINE
  8
_0-b_ラッチ断面__扉側
  6
DASHED1
 62
    7
 10
626.32476271240216
 20
1319.1449013398289
 11
626.52136271240215
 21
1319.6046513398289
  0
LINE
  8
_0-b_ラッチ断面__扉側
  6
DASHED1
 62
    7
 10
628.32476271240216
 20
1318.0410513398287
 11
628.32476271240216
 21
1328.5410513398289
  0
LINE
  8
_0-b_ラッチ断面__扉側
  6
DASHED1
 62
    7
 10
613.32476271240216
 20
1318.0410513398287
 11
613.32476271240216
 21
1328.5410513398289
  0
LINE
  8
_0-b_ラッチ断面__扉側
  6
DASHED1
 62
    7
 10
629.32476271240238
 20
1319.5410513398289
 11
630.32476271240227
 21
1319.5410513398289
  0
LINE
  8
_0-b_ラッチ断面__扉側
  6
DASHED1
 62
    7
 10
630.82476271240216
 20
1325.5410513398287
 11
630.82476271240216
 21
1320.0410513398287
  0
LINE
  8
_0-b_ラッチ断面__扉側
  6
DASHED1
 62
    7
 10
612.82476271240227
 20
1323.5410513398289
 11
613.32476271240216
 21
1323.5410513398289
  0
LINE
  8
_0-b_ラッチ断面__扉側
  6
DASHED1
 62
    7
 10
612.82476271240227
 20
1322.5410513398289
 11
613.32476271240216
 21
1322.5410513398289
  0
LINE
  8
_0-b_ラッチ断面__扉側
  6
DASHED1
 62
    7
 10
628.32476271240216
 20
1322.5410513398289
 11
628.82476271240216
 21
1322.5410513398289
  0
LINE
  8
_0-b_ラッチ断面__扉側
  6
DASHED1
 62
    7
 10
628.32476271240216
 20
1323.5410513398289
 11
628.82476271240216
 21
1323.5410513398289
  0
LINE
  8
_0-b_ラッチ断面__扉側
  6
DASHED1
 62
    7
 10
612.82476271240227
 20
1330.2410513398288
 11
628.82476271240216
 21
1330.2410513398288
  0
LINE
  8
_0-b_ラッチ断面__扉側
  6
DASHED1
 62
    7
 10
620.82476271240216
 20
1301.0410513398289
 11
620.12476271240211
 21
1301.0410513398289
  0
LINE
  8
_0-b_ラッチ断面__扉側
  6
DASHED1
 62
    7
 10
620.82476271240216
 20
1301.0410513398289
 11
621.52476271240232
 21
1301.0410513398289
  0
LINE
  8
_0-b_ラッチ断面__扉側
  6
DASHED1
 62
    7
 10
620.32476271240227
 20
1315.0410513398287
 11
620.82476271240216
 21
1315.0410513398287
  0
LINE
  8
_0-b_ラッチ断面__扉側
  6
DASHED1
 62
    7
 10
619.82476271240238
 20
1301.3410513398289
 11
619.82476271240238
 21
1314.5410513398289
  0
LINE
  8
_0-b_ラッチ断面__扉側
  6
DASHED1
 62
    7
 10
621.82476271240238
 20
1301.3410513398289
 11
621.82476271240238
 21
1314.5410513398289
  0
LINE
  8
_0-b_ラッチ断面__扉側
  6
DASHED1
 62
    7
 10
620.82476271240216
 20
1315.0410513398287
 11
621.32476271240216
 21
1315.0410513398287
  0
LINE
  8
_0-b_ラッチ断面__扉側
  6
DASHED1
 62
    7
 10
620.82476271240216
 20
1331.3410513398289
 11
620.82476271240216
 21
1298.3410513398289
  0
ARC
  8
_0-b_ラッチ断面__扉側
  6
DASHED1
 62
    7
 10
609.32476271240238
 20
1307.0410513398289
 40
6.0000000000000008
 50
180.00000000000005
 51
270.00000000000005
  0
ARC
  8
_0-b_ラッチ断面__扉側
  6
DASHED1
 62
    7
 10
632.32476271240238
 20
1307.0410513398289
 40
6.0000000000000008
 50
270.00000000000005
 51
0.0000000000000763
  0
ARC
  8
_0-b_ラッチ断面__扉側
  6
DASHED1
 62
    7
 10
611.82476271240238
 20
1326.5410513398287
 40
1
 50
270.00000000000005
 51
0.0000000000000763
  0
ARC
  8
_0-b_ラッチ断面__扉側
  6
DASHED1
 62
    7
 10
604.32476271240238
 20
1326.5410513398287
 40
1
 50
180.00000000000005
 51
270.00000000000005
  0
ARC
  8
_0-b_ラッチ断面__扉側
  6
DASHED1
 62
    7
 10
613.32476271240216
 20
1318.5410513398289
 40
0.5
 50
180.00000000000005
 51
270.00000000000005
  0
ARC
  8
_0-b_ラッチ断面__扉側
  6
DASHED1
 62
    7
 10
612.32476271240238
 20
1320.0410513398287
 40
0.5
 50
270.00000000000005
 51
0.0000000000000763
  0
ARC
  8
_0-b_ラッチ断面__扉側
  6
DASHED1
 62
    7
 10
611.32476271240216
 20
1320.0410513398287
 40
0.5
 50
180.00000000000005
 51
270.00000000000005
  0
ARC
  8
_0-b_ラッチ断面__扉側
  6
DASHED1
 62
    7
 10
602.32476271240238
 20
1312.3410513398289
 40
1
 50
180.00000000000005
 51
270.00000000000005
  0
ARC
  8
_0-b_ラッチ断面__扉側
  6
DASHED1
 62
    7
 10
604.32476271240238
 20
1324.5410513398289
 40
1
 50
90.000000000000028
 51
180.00000000000005
  0
ARC
  8
_0-b_ラッチ断面__扉側
  6
DASHED1
 62
    7
 10
639.32476271240238
 20
1312.3410513398289
 40
1
 50
270.00000000000005
 51
0.0000000000000763
  0
ARC
  8
_0-b_ラッチ断面__扉側
  6
DASHED1
 62
    7
 10
628.32476271240216
 20
1318.5410513398289
 40
0.5
 50
270.00000000000005
 51
0.0000000000000763
  0
ARC
  8
_0-b_ラッチ断面__扉側
  6
DASHED1
 62
    7
 10
629.82476271240238
 20
1326.5410513398287
 40
1
 50
180.00000000000005
 51
270.00000000000005
  0
ARC
  8
_0-b_ラッチ断面__扉側
  6
DASHED1
 62
    7
 10
637.32476271240238
 20
1326.5410513398287
 40
1
 50
270.00000000000005
 51
0.0000000000000763
  0
ARC
  8
_0-b_ラッチ断面__扉側
  6
DASHED1
 62
    7
 10
614.32476271240238
 20
1328.5410513398289
 40
1
 50
90.000000000000028
 51
180.00000000000005
  0
ARC
  8
_0-b_ラッチ断面__扉側
  6
DASHED1
 62
    7
 10
627.32476271240238
 20
1328.5410513398289
 40
1
 50
0
 51
90.000000000000028
  0
ARC
  8
_0-b_ラッチ断面__扉側
  6
DASHED1
 62
    7
 10
614.32476271240238
 20
1326.5410513398287
 40
1
 50
180.00000000000005
 51
270.00000000000005
  0
ARC
  8
_0-b_ラッチ断面__扉側
  6
DASHED1
 62
    7
 10
627.32476271240238
 20
1326.5410513398287
 40
1
 50
270.00000000000005
 51
0.0000000000000763
  0
ARC
  8
_0-b_ラッチ断面__扉側
  6
DASHED1
 62
    7
 10
618.82476271240216
 20
1320.5410513398287
 40
1
 50
180.00000000000005
 51
270.00000000000005
  0
ARC
  8
_0-b_ラッチ断面__扉側
  6
DASHED1
 62
    7
 10
622.82476271240227
 20
1320.5410513398287
 40
1
 50
270.00000000000005
 51
0.0000000000000763
  0
ARC
  8
_0-b_ラッチ断面__扉側
  6
DASHED1
 62
    7
 10
629.32476271240238
 20
1320.0410513398287
 40
0.5
 50
180.00000000000005
 51
270.00000000000005
  0
ARC
  8
_0-b_ラッチ断面__扉側
  6
DASHED1
 62
    7
 10
630.32476271240227
 20
1320.0410513398287
 40
0.5
 50
270.00000000000005
 51
0.0000000000000763
  0
ARC
  8
_0-b_ラッチ断面__扉側
  6
DASHED1
 62
    7
 10
620.12476271240211
 20
1301.3410513398289
 40
0.2999999999999999
 50
180.00000000000005
 51
270.00000000000005
  0
ARC
  8
_0-b_ラッチ断面__扉側
  6
DASHED1
 62
    7
 10
621.52476271240232
 20
1301.3410513398289
 40
0.2999999999999999
 50
270.00000000000005
 51
0.0000000000000763
  0
ARC
  8
_0-b_ラッチ断面__扉側
  6
DASHED1
 62
    7
 10
620.32476271240227
 20
1314.5410513398289
 40
0.5
 50
90.000000000000028
 51
180.00000000000005
  0
ARC
  8
_0-b_ラッチ断面__扉側
  6
DASHED1
 62
    7
 10
621.32476271240216
 20
1314.5410513398289
 40
0.5
 50
0
 51
90.000000000000028
  0
LINE
  8
_0-b_ラッチ断面__扉側
  6
DASHED1
 62
    7
 10
608.32476271240216
 20
1332.6410513398288
 11
608.32476271240216
 21
1324.241051339829
  0
LINE
  8
_0-b_ラッチ断面__扉側
  6
DASHED1
 62
    7
 10
734.32476271240204
 20
1332.6410513398288
 11
734.32476271240204
 21
1324.241051339829
  0
LINE
  8
_0-b_ラッチ断面__扉側
  6
DASHED1
 62
    7
 10
733.32476271240216
 20
1301.0410513398289
 11
710.32476271240193
 21
1301.0410513398289
  0
LINE
  8
_0-b_ラッチ断面__扉側
  6
DASHED1
 62
    7
 10
721.82476271240204
 20
1318.0410513398287
 11
714.32476271240204
 21
1318.0410513398287
  0
LINE
  8
_0-b_ラッチ断面__扉側
  6
DASHED1
 62
    7
 10
711.82476271240204
 20
1325.5410513398287
 11
711.82476271240204
 21
1320.0410513398287
  0
LINE
  8
_0-b_ラッチ断面__扉側
  6
DASHED1
 62
    7
 10
713.32476271240216
 20
1319.5410513398289
 11
712.32476271240193
 21
1319.5410513398289
  0
LINE
  8
_0-b_ラッチ断面__扉側
  6
DASHED1
 62
    7
 10
741.40476271240208
 20
1328.9910513398288
 11
741.42476271240184
 21
1328.9910513398288
  0
LINE
  8
_0-b_ラッチ断面__扉側
  6
DASHED1
 62
    7
 10
704.32476271240204
 20
1311.3410513398289
 11
703.32476271240216
 21
1311.3410513398289
  0
LINE
  8
_0-b_ラッチ断面__扉側
  6
DASHED1
 62
    7
 10
705.32476271240193
 20
1325.5410513398287
 11
712.82476271240193
 21
1325.5410513398287
  0
LINE
  8
_0-b_ラッチ断面__扉側
  6
DASHED1
 62
    7
 10
704.32476271240204
 20
1324.5410513398289
 11
704.32476271240204
 21
1307.0410513398289
  0
LINE
  8
_0-b_ラッチ断面__扉側
  6
DASHED1
 62
    7
 10
702.32476271240193
 20
1330.741051339829
 11
702.32476271240193
 21
1312.3410513398289
  0
LINE
  8
_0-b_ラッチ断面__扉側
  6
DASHED1
 62
    7
 10
713.82476271240216
 20
1330.741051339829
 11
702.32476271240193
 21
1330.741051339829
  0
LINE
  8
_0-b_ラッチ断面__扉側
  6
DASHED1
 62
    7
 10
704.32476271240204
 20
1330.741051339829
 11
704.32476271240204
 21
1326.5410513398287
  0
LINE
  8
_0-b_ラッチ断面__扉側
  6
DASHED1
 62
    7
 10
713.82476271240216
 20
1330.741051339829
 11
713.82476271240216
 21
1318.5410513398289
  0
LINE
  8
_0-b_ラッチ断面__扉側
  6
DASHED1
 62
    7
 10
739.32476271240204
 20
1330.741051339829
 11
739.32476271240204
 21
1307.0410513398289
  0
LINE
  8
_0-b_ラッチ断面__扉側
  6
DASHED1
 62
    7
 10
729.82476271240216
 20
1330.741051339829
 11
741.32476271240193
 21
1330.741051339829
  0
LINE
  8
_0-b_ラッチ断面__扉側
  6
DASHED1
 62
    7
 10
741.32476271240193
 20
1330.741051339829
 11
741.32476271240193
 21
1312.3410513398289
  0
LINE
  8
_0-b_ラッチ断面__扉側
  6
DASHED1
 62
    7
 10
739.32476271240204
 20
1311.3410513398289
 11
740.32476271240227
 21
1311.3410513398289
  0
LINE
  8
_0-b_ラッチ断面__扉側
  6
DASHED1
 62
    7
 10
713.82476271240216
 20
1329.8410513398289
 11
729.82476271240216
 21
1329.8410513398289
  0
LINE
  8
_0-b_ラッチ断面__扉側
  6
DASHED1
 62
    7
 10
729.82476271240216
 20
1330.741051339829
 11
729.82476271240216
 21
1318.5410513398289
  0
LINE
  8
_0-b_ラッチ断面__扉側
  6
DASHED1
 62
    7
 10
721.82476271240204
 20
1318.0410513398287
 11
729.32476271240204
 21
1318.0410513398287
  0
LINE
  8
_0-b_ラッチ断面__扉側
  6
DASHED1
 62
    7
 10
738.32476271240216
 20
1325.5410513398287
 11
730.82476271240216
 21
1325.5410513398287
  0
LINE
  8
_0-b_ラッチ断面__扉側
  6
DASHED1
 62
    7
 10
728.32476271240216
 20
1329.5410513398289
 11
715.32476271240193
 21
1329.5410513398289
  0
LINE
  8
_0-b_ラッチ断面__扉側
  6
DASHED1
 62
    7
 10
718.82476271240193
 20
1325.5410513398287
 11
718.82476271240193
 21
1320.5410513398287
  0
LINE
  8
_0-b_ラッチ断面__扉側
  6
DASHED1
 62
    7
 10
723.82476271240193
 20
1319.5410513398289
 11
719.82476271240216
 21
1319.5410513398289
  0
LINE
  8
_0-b_ラッチ断面__扉側
  6
DASHED1
 62
    7
 10
724.82476271240216
 20
1325.5410513398287
 11
724.82476271240216
 21
1320.5410513398287
  0
LINE
  8
_0-b_ラッチ断面__扉側
  6
DASHED1
 62
    7
 10
728.32476271240216
 20
1325.5410513398287
 11
724.82476271240216
 21
1325.5410513398287
  0
LINE
  8
_0-b_ラッチ断面__扉側
  6
DASHED1
 62
    7
 10
718.82476271240193
 20
1325.5410513398287
 11
715.32476271240193
 21
1325.5410513398287
  0
LINE
  8
_0-b_ラッチ断面__扉側
  6
DASHED1
 62
    7
 10
716.32476271240216
 20
1319.1449013398289
 11
716.12816271240205
 21
1319.6046513398289
  0
LINE
  8
_0-b_ラッチ断面__扉側
  6
DASHED1
 62
    7
 10
727.32476271240216
 20
1319.1449013398289
 11
727.52136271240203
 21
1319.6046513398289
  0
LINE
  8
_0-b_ラッチ断面__扉側
  6
DASHED1
 62
    7
 10
729.32476271240204
 20
1318.0410513398287
 11
729.32476271240204
 21
1328.5410513398289
  0
LINE
  8
_0-b_ラッチ断面__扉側
  6
DASHED1
 62
    7
 10
714.32476271240204
 20
1318.0410513398287
 11
714.32476271240204
 21
1328.5410513398289
  0
LINE
  8
_0-b_ラッチ断面__扉側
  6
DASHED1
 62
    7
 10
730.32476271240227
 20
1319.5410513398289
 11
731.32476271240193
 21
1319.5410513398289
  0
LINE
  8
_0-b_ラッチ断面__扉側
  6
DASHED1
 62
    7
 10
731.82476271240204
 20
1325.5410513398287
 11
731.82476271240204
 21
1320.0410513398287
  0
LINE
  8
_0-b_ラッチ断面__扉側
  6
DASHED1
 62
    7
 10
713.82476271240216
 20
1323.5410513398289
 11
714.32476271240204
 21
1323.5410513398289
  0
LINE
  8
_0-b_ラッチ断面__扉側
  6
DASHED1
 62
    7
 10
713.82476271240216
 20
1322.5410513398289
 11
714.32476271240204
 21
1322.5410513398289
  0
LINE
  8
_0-b_ラッチ断面__扉側
  6
DASHED1
 62
    7
 10
729.32476271240204
 20
1322.5410513398289
 11
729.82476271240216
 21
1322.5410513398289
  0
LINE
  8
_0-b_ラッチ断面__扉側
  6
DASHED1
 62
    7
 10
729.32476271240204
 20
1323.5410513398289
 11
729.82476271240216
 21
1323.5410513398289
  0
LINE
  8
_0-b_ラッチ断面__扉側
  6
DASHED1
 62
    7
 10
713.82476271240216
 20
1330.2410513398288
 11
729.82476271240216
 21
1330.2410513398288
  0
LINE
  8
_0-b_ラッチ断面__扉側
  6
DASHED1
 62
    7
 10
721.82476271240204
 20
1301.0410513398289
 11
721.12476271240211
 21
1301.0410513398289
  0
LINE
  8
_0-b_ラッチ断面__扉側
  6
DASHED1
 62
    7
 10
721.82476271240204
 20
1301.0410513398289
 11
722.52476271240198
 21
1301.0410513398289
  0
LINE
  8
_0-b_ラッチ断面__扉側
  6
DASHED1
 62
    7
 10
721.32476271240193
 20
1315.0410513398287
 11
721.82476271240204
 21
1315.0410513398287
  0
LINE
  8
_0-b_ラッチ断面__扉側
  6
DASHED1
 62
    7
 10
720.82476271240216
 20
1301.3410513398289
 11
720.82476271240216
 21
1314.5410513398289
  0
LINE
  8
_0-b_ラッチ断面__扉側
  6
DASHED1
 62
    7
 10
722.82476271240227
 20
1301.3410513398289
 11
722.82476271240227
 21
1314.5410513398289
  0
LINE
  8
_0-b_ラッチ断面__扉側
  6
DASHED1
 62
    7
 10
721.82476271240204
 20
1315.0410513398287
 11
722.32476271240216
 21
1315.0410513398287
  0
LINE
  8
_0-b_ラッチ断面__扉側
  6
DASHED1
 62
    7
 10
721.82476271240204
 20
1331.3410513398289
 11
721.82476271240204
 21
1298.3410513398289
  0
ARC
  8
_0-b_ラッチ断面__扉側
  6
DASHED1
 62
    7
 10
710.32476271240193
 20
1307.0410513398289
 40
6.0000000000000008
 50
180.00000000000005
 51
270.00000000000005
  0
ARC
  8
_0-b_ラッチ断面__扉側
  6
DASHED1
 62
    7
 10
733.32476271240216
 20
1307.0410513398289
 40
6.0000000000000008
 50
270.00000000000005
 51
0.0000000000000763
  0
ARC
  8
_0-b_ラッチ断面__扉側
  6
DASHED1
 62
    7
 10
712.82476271240193
 20
1326.5410513398287
 40
1
 50
270.00000000000005
 51
0.0000000000000763
  0
ARC
  8
_0-b_ラッチ断面__扉側
  6
DASHED1
 62
    7
 10
705.32476271240193
 20
1326.5410513398287
 40
1
 50
180.00000000000005
 51
270.00000000000005
  0
ARC
  8
_0-b_ラッチ断面__扉側
  6
DASHED1
 62
    7
 10
714.32476271240204
 20
1318.5410513398289
 40
0.5
 50
180.00000000000005
 51
270.00000000000005
  0
ARC
  8
_0-b_ラッチ断面__扉側
  6
DASHED1
 62
    7
 10
713.32476271240216
 20
1320.0410513398287
 40
0.5
 50
270.00000000000005
 51
0.0000000000000763
  0
ARC
  8
_0-b_ラッチ断面__扉側
  6
DASHED1
 62
    7
 10
712.32476271240193
 20
1320.0410513398287
 40
0.5
 50
180.00000000000005
 51
270.00000000000005
  0
ARC
  8
_0-b_ラッチ断面__扉側
  6
DASHED1
 62
    7
 10
703.32476271240216
 20
1312.3410513398289
 40
1
 50
180.00000000000005
 51
270.00000000000005
  0
ARC
  8
_0-b_ラッチ断面__扉側
  6
DASHED1
 62
    7
 10
705.32476271240193
 20
1324.5410513398289
 40
1
 50
90.000000000000028
 51
180.00000000000005
  0
ARC
  8
_0-b_ラッチ断面__扉側
  6
DASHED1
 62
    7
 10
740.32476271240227
 20
1312.3410513398289
 40
1
 50
270.00000000000005
 51
0.0000000000000763
  0
ARC
  8
_0-b_ラッチ断面__扉側
  6
DASHED1
 62
    7
 10
729.32476271240204
 20
1318.5410513398289
 40
0.5
 50
270.00000000000005
 51
0.0000000000000763
  0
ARC
  8
_0-b_ラッチ断面__扉側
  6
DASHED1
 62
    7
 10
730.82476271240216
 20
1326.5410513398287
 40
1
 50
180.00000000000005
 51
270.00000000000005
  0
ARC
  8
_0-b_ラッチ断面__扉側
  6
DASHED1
 62
    7
 10
738.32476271240216
 20
1326.5410513398287
 40
1
 50
270.00000000000005
 51
0.0000000000000763
  0
ARC
  8
_0-b_ラッチ断面__扉側
  6
DASHED1
 62
    7
 10
715.32476271240193
 20
1328.5410513398289
 40
1
 50
90.000000000000028
 51
180.00000000000005
  0
ARC
  8
_0-b_ラッチ断面__扉側
  6
DASHED1
 62
    7
 10
728.32476271240216
 20
1328.5410513398289
 40
1
 50
0
 51
90.000000000000028
  0
ARC
  8
_0-b_ラッチ断面__扉側
  6
DASHED1
 62
    7
 10
715.32476271240193
 20
1326.5410513398287
 40
1
 50
180.00000000000005
 51
270.00000000000005
  0
ARC
  8
_0-b_ラッチ断面__扉側
  6
DASHED1
 62
    7
 10
728.32476271240216
 20
1326.5410513398287
 40
1
 50
270.00000000000005
 51
0.0000000000000763
  0
ARC
  8
_0-b_ラッチ断面__扉側
  6
DASHED1
 62
    7
 10
719.82476271240216
 20
1320.5410513398287
 40
1
 50
180.00000000000005
 51
270.00000000000005
  0
ARC
  8
_0-b_ラッチ断面__扉側
  6
DASHED1
 62
    7
 10
723.82476271240193
 20
1320.5410513398287
 40
1
 50
270.00000000000005
 51
0.0000000000000763
  0
ARC
  8
_0-b_ラッチ断面__扉側
  6
DASHED1
 62
    7
 10
730.32476271240227
 20
1320.0410513398287
 40
0.5
 50
180.00000000000005
 51
270.00000000000005
  0
ARC
  8
_0-b_ラッチ断面__扉側
  6
DASHED1
 62
    7
 10
731.32476271240193
 20
1320.0410513398287
 40
0.5
 50
270.00000000000005
 51
0.0000000000000763
  0
ARC
  8
_0-b_ラッチ断面__扉側
  6
DASHED1
 62
    7
 10
721.12476271240211
 20
1301.3410513398289
 40
0.2999999999999999
 50
180.00000000000005
 51
270.00000000000005
  0
ARC
  8
_0-b_ラッチ断面__扉側
  6
DASHED1
 62
    7
 10
722.52476271240198
 20
1301.3410513398289
 40
0.2999999999999999
 50
270.00000000000005
 51
0.0000000000000763
  0
ARC
  8
_0-b_ラッチ断面__扉側
  6
DASHED1
 62
    7
 10
721.32476271240193
 20
1314.5410513398289
 40
0.5
 50
90.000000000000028
 51
180.00000000000005
  0
ARC
  8
_0-b_ラッチ断面__扉側
  6
DASHED1
 62
    7
 10
722.32476271240216
 20
1314.5410513398289
 40
0.5
 50
0
 51
90.000000000000028
  0
LINE
  8
_0-b_ラッチ断面__扉側
  6
DASHED1
 62
    7
 10
709.32476271240204
 20
1332.6410513398288
 11
709.32476271240204
 21
1324.241051339829
  0
POINT
  8
_0-9_ラッチ断面__受け
 62
    3
 10
322.82476271240227
 20
2735.7744603287765
  0
POINT
  8
_0-9_ラッチ断面__受け
 62
    3
 10
322.82476271240227
 20
2735.7744603287765
  0
POINT
  8
_0-9_ラッチ断面__受け
 62
    3
 10
1372.8247627124028
 20
2735.7744603287765
  0
POINT
  8
_0-9_ラッチ断面__受け
 62
    3
 10
1562.8247627124028
 20
2545.7744603287765
  0
POINT
  8
_0-9_ラッチ断面__受け
 62
    3
 10
1562.8247627124028
 20
2187.7744603287774
  0
POINT
  8
_0-9_ラッチ断面__受け
 62
    3
 10
1372.8247627124028
 20
1535.2410513398297
  0
POINT
  8
_0-9_ラッチ断面__受け
 62
    3
 10
322.82476271240255
 20
1535.2410513398297
  0
POINT
  8
_0-9_ラッチ断面__受け
 62
    3
 10
1562.8247627124028
 20
1345.2410513398297
  0
POINT
  8
_0-9_ラッチ断面__受け
 62
    3
 10
1562.8247627124028
 20
745.24105133982982
  0
POINT
  8
_0-9_ラッチ断面__受け
 62
    3
 10
1512.8247627124028
 20
745.24105133982982
  0
POINT
  8
_0-9_ラッチ断面__受け
 62
    3
 10
1512.8247627124028
 20
730.24105133983016
  0
POINT
  8
_0-9_ラッチ断面__受け
 62
    3
 10
2477.857092003644
 20
1345.2410513398303
  0
POINT
  8
_0-9_ラッチ断面__受け
 62
    3
 10
2477.857092003644
 20
745.24105133982982
  0
POINT
  8
_0-9_ラッチ断面__受け
 62
    3
 10
2397.857092003644
 20
1165.2410513398299
  0
POINT
  8
_0-9_ラッチ断面__受け
 62
    3
 10
2397.857092003644
 20
1105.2410513398299
  0
POINT
  8
_0-9_ラッチ断面__受け
 62
    3
 10
2397.857092003644
 20
1045.2410513398299
  0
POINT
  8
_0-9_ラッチ断面__受け
 62
    3
 10
2397.857092003644
 20
985.24105133982993
  0
POINT
  8
_0-9_ラッチ断面__受け
 62
    3
 10
2269.8164462322183
 20
1118.0788812305549
  0
POINT
  8
_0-9_ラッチ断面__受け
 62
    3
 10
1979.8164462322185
 20
1118.0788812305549
  0
POINT
  8
_0-9_ラッチ断面__受け
 62
    3
 10
2804.8913935730729
 20
1535.2410513398299
  0
POINT
  8
_0-9_ラッチ断面__受け
 62
    3
 10
3854.8913935730729
 20
1535.2410513398299
  0
POINT
  8
_0-9_ラッチ断面__受け
 62
    3
 10
3842.8913935730724
 20
555.2410513398288
  0
POINT
  8
_0-9_ラッチ断面__受け
 62
    3
 10
2816.8913935730729
 20
555.2410513398288
  0
TEXT
  8
_0-d_ラッチ平面__扉側
 62
    7
 10
3857.5859827624976
 20
2089.2162833038482
 40
35
 41
0.857142857142857
 50
0
  1
扉　色
  0
TEXT
  8
_0-d_ラッチ平面__扉側
 62
    7
 10
3712.6771425682341
 20
2021.716283303848
 40
35
 41
0.857142857142857
 50
0
  1
ＳＷ
  0
TEXT
  8
_0-d_ラッチ平面__扉側
 62
    7
 10
3827.2070429756568
 20
2021.716283303848
 40
35
 41
0.857142857142857
 50
0
  1
ホワイト
  0
TEXT
  8
_0-d_ラッチ平面__扉側
 62
    7
 10
3717.6685979779213
 20
1962.3056101196284
 40
35
 41
0.857142857142857
 50
0
  1
ＬＧ
  0
TEXT
  8
_0-d_ラッチ平面__扉側
 62
    7
 10
3827.3060368806932
 20
1962.3056101196284
 40
35
 41
0.857142857142857
 50
0
  1
木　　目
  0
TEXT
  8
_0-d_ラッチ平面__扉側
 62
    7
 10
3712.6771425682341
 20
1896.716283303848
 40
35
 41
0.857142857142857
 50
0
  1
ＵＷ
  0
TEXT
  8
_0-d_ラッチ平面__扉側
 62
    7
 10
3827.2070429756568
 20
1896.716283303848
 40
35
 41
0.857142857142857
 50
0
  1
ｳﾙﾄﾗﾎﾜｲﾄ（艶有）
  0
TEXT
  8
_0-d_ラッチ平面__扉側
 62
    7
 10
3717.6685979779213
 20
1837.3056101196284
 40
35
 41
0.857142857142857
 50
0
  1
ＷＮ
  0
TEXT
  8
_0-d_ラッチ平面__扉側
 62
    7
 10
3827.2070429756568
 20
1836.7162833038478
 40
35
 41
0.857142857142857
 50
0
  1
ｳｨﾝｻﾞｰﾅｯﾄ（艶有）
  0
LINE
  8
ADD_LINE
  6
DOT
 62
    9
 10
3682.2070429756577
 20
2139.2162833038482
 11
3697.2070429756577
 21
2139.2162833038482
  0
LINE
  8
ADD_LINE
  6
DOT
 62
    9
 10
3697.2070429756577
 20
2139.2162833038482
 11
3697.2070429756577
 21
2154.2162833038482
  0
LINE
  8
ADD_LINE
  6
DOT
 62
    9
 10
3682.2070429756577
 20
2154.2162833038482
 11
3682.2070429756577
 21
2139.2162833038482
  0
LINE
  8
_0-d_ラッチ平面__扉側
  6
CONTINUOUS
 62
    3
 10
4111.9649225493367
 20
2139.2162833038482
 11
4111.9649225493367
 21
1644.2162833038473
  0
LINE
  8
ADD_LINE
  6
DOT
 62
    9
 10
3827.2070429756568
 20
2069.2162833038482
 11
3827.2070429756568
 21
1949.216283303848
  0
LINE
  8
_0-d_ラッチ平面__扉側
  6
CONTINUOUS
 62
    7
 10
3797.2070429756581
 20
2069.2162833038482
 11
3797.2070429756581
 21
1949.216283303848
  0
TEXT
  8
_0-d_ラッチ平面__扉側
 62
    7
 10
3717.6685979779213
 20
1777.3056101196279
 40
35
 41
0.857142857142857
 50
0
  1
ＢＳ
  0
TEXT
  8
_0-d_ラッチ平面__扉側
 62
    7
 10
3827.3060368806927
 20
1777.3056101196279
 40
35
 41
0.857142857142857
 50
0
  1
ブラックストーン
  0
LINE
  8
ADD_LINE
  6
DOT
 62
    9
 10
3747.2070429756581
 20
2069.2162833038482
 11
3747.2070429756581
 21
1949.216283303848
  0
LINE
  8
_0-d_ラッチ平面__扉側
  6
CONTINUOUS
 62
    3
 10
3697.2070429756581
 20
2139.2162833038482
 11
3697.2070429756581
 21
1644.2162833038473
  0
LINE
  8
_0-d_ラッチ平面__扉側
  6
CONTINUOUS
 62
    7
 10
3797.2070429756581
 20
1944.216283303848
 11
3797.2070429756581
 21
1644.2162833038473
  0
LINE
  8
ADD_LINE
  6
DOT
 62
    9
 10
3827.2070429756568
 20
1944.216283303848
 11
3827.2070429756568
 21
1644.2162833038473
  0
LINE
  8
ADD_LINE
  6
DOT
 62
    9
 10
3747.2070429756581
 20
1944.216283303848
 11
3747.2070429756581
 21
1644.2162833038473
  0
TEXT
  8
_0-d_ラッチ平面__扉側
 62
    7
 10
3717.6685979779213
 20
1717.3056101196277
 40
35
 41
0.857142857142857
 50
0
  1
ＰＭ
  0
TEXT
  8
_0-d_ラッチ平面__扉側
 62
    7
 10
3827.3060368806932
 20
1717.3056101196277
 40
35
 41
0.857142857142857
 50
0
  1
ペールグレイン
  0
TEXT
  8
_0-d_ラッチ平面__扉側
 62
    7
 10
3717.6685979779213
 20
1657.3056101196277
 40
35
 41
0.857142857142857
 50
0
  1
ＭＤ
  0
TEXT
  8
_0-d_ラッチ平面__扉側
 62
    7
 10
3827.3060368806932
 20
1657.3056101196277
 40
35
 41
0.857142857142857
 50
0
  1
ダークグレイン
  0
LINE
  8
_0-d_ラッチ平面__扉側
  6
CONTINUOUS
 62
    3
 10
4111.9649225493367
 20
2139.2162833038482
 11
3697.2070429756581
 21
2139.2162833038482
  0
LINE
  8
_0-d_ラッチ平面__扉側
  6
CONTINUOUS
 62
    3
 10
4111.9649225493367
 20
1644.2162833038473
 11
3697.2070429756581
 21
1644.2162833038473
  0
LINE
  8
_0-d_ラッチ平面__扉側
  6
CONTINUOUS
 62
    7
 10
3697.2070429756581
 20
2009.216283303848
 11
4111.9649225493367
 21
2009.216283303848
  0
LINE
  8
_0-d_ラッチ平面__扉側
  6
CONTINUOUS
 62
    7
 10
4111.9649225493367
 20
2009.216283303848
 11
3697.2070429756581
 21
2009.216283303848
  0
LINE
  8
_0-d_ラッチ平面__扉側
  6
CONTINUOUS
 62
    3
 10
4111.9649225493367
 20
2009.216283303848
 11
3697.2070429756581
 21
2009.216283303848
  0
LINE
  8
_0-d_ラッチ平面__扉側
  6
CONTINUOUS
 62
    3
 10
4111.9649225493367
 20
1949.216283303848
 11
3697.2070429756581
 21
1949.216283303848
  0
LINE
  8
ADD_LINE
  6
DOT
 62
    9
 10
3697.2070429756581
 20
1979.216283303848
 11
4111.9649225493367
 21
1979.216283303848
  0
LINE
  8
_0-d_ラッチ平面__扉側
  6
CONTINUOUS
 62
    7
 10
4111.9649225493367
 20
1884.216283303848
 11
3697.2070429756581
 21
1884.216283303848
  0
LINE
  8
_0-d_ラッチ平面__扉側
  6
CONTINUOUS
 62
    3
 10
4111.9649225493367
 20
1884.216283303848
 11
3697.2070429756581
 21
1884.216283303848
  0
LINE
  8
_0-d_ラッチ平面__扉側
  6
CONTINUOUS
 62
    3
 10
4111.9649225493367
 20
1824.216283303848
 11
3697.2070429756581
 21
1824.216283303848
  0
LINE
  8
_0-d_ラッチ平面__扉側
  6
CONTINUOUS
 62
    7
 10
3697.2070429756581
 20
1884.216283303848
 11
4111.9649225493367
 21
1884.216283303848
  0
LINE
  8
_0-d_ラッチ平面__扉側
  6
CONTINUOUS
 62
    7
 10
4111.9649225493367
 20
1949.216283303848
 11
3697.2070429756581
 21
1949.216283303848
  0
LINE
  8
_0-d_ラッチ平面__扉側
  6
CONTINUOUS
 62
    7
 10
4111.9649225493367
 20
1944.216283303848
 11
3697.2070429756581
 21
1944.216283303848
  0
LINE
  8
ADD_LINE
  6
DOT
 62
    9
 10
3697.2070429756581
 20
1914.216283303848
 11
4111.9649225493367
 21
1914.216283303848
  0
LINE
  8
ADD_LINE
  6
DOT
 62
    9
 10
3697.2070429756581
 20
1854.2162833038478
 11
4111.9649225493367
 21
1854.2162833038478
  0
LINE
  8
_0-d_ラッチ平面__扉側
  6
CONTINUOUS
 62
    7
 10
4111.9649225493367
 20
1824.216283303848
 11
3697.2070429756581
 21
1824.216283303848
  0
LINE
  8
_0-d_ラッチ平面__扉側
  6
CONTINUOUS
 62
    3
 10
4111.9649225493367
 20
1824.216283303848
 11
3697.2070429756581
 21
1824.216283303848
  0
LINE
  8
_0-d_ラッチ平面__扉側
  6
CONTINUOUS
 62
    3
 10
4111.9649225493367
 20
1764.2162833038473
 11
3697.2070429756581
 21
1764.2162833038473
  0
LINE
  8
_0-d_ラッチ平面__扉側
  6
CONTINUOUS
 62
    7
 10
3697.2070429756581
 20
1824.216283303848
 11
4111.9649225493367
 21
1824.216283303848
  0
LINE
  8
ADD_LINE
  6
DOT
 62
    9
 10
3697.2070429756581
 20
1794.2162833038473
 11
4111.9649225493367
 21
1794.2162833038473
  0
LINE
  8
_0-d_ラッチ平面__扉側
  6
CONTINUOUS
 62
    7
 10
4111.9649225493367
 20
1764.2162833038473
 11
3697.2070429756581
 21
1764.2162833038473
  0
LINE
  8
_0-d_ラッチ平面__扉側
  6
CONTINUOUS
 62
    3
 10
4111.9649225493367
 20
1764.2162833038473
 11
3697.2070429756581
 21
1764.2162833038473
  0
LINE
  8
_0-d_ラッチ平面__扉側
  6
CONTINUOUS
 62
    3
 10
4111.9649225493367
 20
1704.2162833038473
 11
3697.2070429756581
 21
1704.2162833038473
  0
LINE
  8
_0-d_ラッチ平面__扉側
  6
CONTINUOUS
 62
    7
 10
3697.2070429756581
 20
1764.2162833038473
 11
4111.9649225493367
 21
1764.2162833038473
  0
LINE
  8
ADD_LINE
  6
DOT
 62
    9
 10
3697.2070429756581
 20
1734.2162833038473
 11
4111.9649225493367
 21
1734.2162833038473
  0
LINE
  8
_0-d_ラッチ平面__扉側
  6
CONTINUOUS
 62
    7
 10
4111.9649225493367
 20
1704.2162833038473
 11
3697.2070429756581
 21
1704.2162833038473
  0
LINE
  8
_0-d_ラッチ平面__扉側
  6
CONTINUOUS
 62
    3
 10
4111.9649225493367
 20
1704.2162833038473
 11
3697.2070429756581
 21
1704.2162833038473
  0
LINE
  8
_0-d_ラッチ平面__扉側
  6
CONTINUOUS
 62
    7
 10
3697.2070429756581
 20
1704.2162833038473
 11
4111.9649225493367
 21
1704.2162833038473
  0
LINE
  8
ADD_LINE
  6
DOT
 62
    9
 10
3697.2070429756581
 20
1674.2162833038473
 11
4111.9649225493367
 21
1674.2162833038473
  0
LINE
  8
ADD_LINE
  6
DOT
 62
    9
 10
3697.2070429756581
 20
2039.216283303848
 11
4111.9649225493367
 21
2039.216283303848
  0
LINE
  8
_0-d_ラッチ平面__扉側
  6
CONTINUOUS
 62
    7
 10
4111.9649225493367
 20
2069.2162833038482
 11
3697.2070429756581
 21
2069.2162833038482
  0
LINE
  8
ADD_LINE
  6
DOT
 62
    9
 10
3697.2070429756581
 20
2106.7162833038482
 11
4111.9649225493367
 21
2106.7162833038482
  0
LINE
  8
_0-d_ラッチ平面__扉側
  6
CONTINUOUS
 62
    7
 10
4111.9649225493367
 20
2074.2162833038482
 11
3697.2070429756581
 21
2074.2162833038482
  0
LINE
  8
ADD_LINE
  6
DOT
 62
    9
 10
3904.5859827624972
 20
2139.2162833038482
 11
3904.5859827624972
 21
2074.2162833038482
  0
LINE
  8
_e-0_
  6
CONTINUOUS
 62
    7
 10
2235.8366640958884
 20
183.94486665957714
 11
2264.9846622966547
 21
194.55387039310096
  0
LINE
  8
_e-0_
  6
CONTINUOUS
 62
    7
 10
2229.6843953320885
 20
176.38473509396874
 11
2279.6036842974681
 21
194.55387039310011
  0
LINE
  8
_e-0_
  6
CONTINUOUS
 62
    7
 10
2226.2574714057891
 20
169.81654792732371
 11
2255.9150768319382
 21
180.61103352205378
  0
LINE
  8
_e-0_
  6
CONTINUOUS
 62
    7
 10
2224.2626908639713
 20
163.76961832382903
 11
2246.0093920977324
 21
171.68477026639777
  0
LINE
  8
_e-0_
  6
CONTINUOUS
 62
    7
 10
2223.253185238545
 20
158.08129946246992
 11
2241.5081926224484
 21
164.72557877652036
  0
LINE
  8
_e-0_
  6
CONTINUOUS
 62
    7
 10
2223.0156427143556
 20
152.67395219190916
 11
2241.4255440656406
 21
159.37460829955426
  0
LINE
  8
_e-0_
  6
CONTINUOUS
 62
    7
 10
2223.4344835706642
 20
147.50550893412082
 11
2241.8793979036299
 21
154.21890872491019
  0
LINE
  8
_e-0_
  6
CONTINUOUS
 62
    7
 10
2224.4457407209774
 20
142.55268757364603
 11
2243.3203026450692
 21
149.42246629882959
  0
LINE
  8
_e-0_
  6
CONTINUOUS
 62
    7
 10
2226.0182888832982
 20
137.80415943430114
 11
2245.7132505946715
 21
144.97253926225369
  0
LINE
  8
_e-0_
  6
CONTINUOUS
 62
    7
 10
2228.1462640287199
 20
133.25779018411338
 11
2249.1506443149041
 21
140.90275939749233
  0
LINE
  8
_e-0_
  6
CONTINUOUS
 62
    7
 10
2230.8477427532316
 20
128.92015916595937
 11
2253.9308498295386
 21
137.32172305611442
  0
LINE
  8
_e-0_
  6
CONTINUOUS
 62
    7
 10
2234.1689215693718
 20
124.80808053533024
 11
2260.9975727253272
 21
134.57291098160936
  0
LINE
  8
_e-0_
  6
CONTINUOUS
 62
    7
 10
2238.1963030092374
 20
120.95303863909776
 11
2276.6158743796222
 21
134.93661903118379
  0
LINE
  8
_e-0_
  6
CONTINUOUS
 62
    7
 10
2243.0858385970814
 20
117.41179519008085
 11
2271.2352160844511
 21
127.65733070860676
  0
LINE
  8
_e-0_
  6
CONTINUOUS
 62
    7
 10
2271.6356660451692
 20
186.33286006079629
 11
2294.2227062982819
 21
194.55387039310181
  0
LINE
  8
_e-0_
  6
CONTINUOUS
 62
    7
 10
2252.6131881355313
 20
174.08835545732216
 11
2305.1018637432653
 21
193.19267101459161
  0
LINE
  8
_e-0_
  6
CONTINUOUS
 62
    7
 10
2265.1203526762756
 20
173.3197022028429
 11
2305.1018637432653
 21
187.87178215221217
  0
LINE
  8
_e-0_
  6
CONTINUOUS
 62
    7
 10
2279.7393746770908
 20
173.3197022028429
 11
2305.1018637432653
 21
182.55089328983274
  0
LINE
  8
_e-0_
  6
CONTINUOUS
 62
    7
 10
2283.9258801693504
 20
169.52257672523785
 11
2305.1018637432653
 21
177.2300044274533
  0
LINE
  8
_e-0_
  6
CONTINUOUS
 62
    7
 10
2283.9258801693504
 20
164.20168786285842
 11
2305.1018637432653
 21
171.9091155650733
  0
LINE
  8
_e-0_
  6
CONTINUOUS
 62
    7
 10
2283.9258801693504
 20
158.88079900047898
 11
2305.1018637432653
 21
166.58822670269387
  0
LINE
  8
_e-0_
  6
CONTINUOUS
 62
    7
 10
2283.9258801693504
 20
153.55991013809955
 11
2305.1018637432653
 21
161.26733784031443
  0
LINE
  8
_e-0_
  6
CONTINUOUS
 62
    7
 10
2283.8515813964468
 20
148.21197873394055
 11
2305.1018637432653
 21
155.946448977935
  0
LINE
  8
_e-0_
  6
CONTINUOUS
 62
    7
 10
2282.7047247631385
 20
142.47366819406579
 11
2305.1018637432653
 21
150.62556011555528
  0
LINE
  8
_e-0_
  6
CONTINUOUS
 62
    7
 10
2280.4457301125839
 20
136.33057251951811
 11
2305.1018637432653
 21
145.30467125317585
  0
LINE
  8
_e-0_
  6
CONTINUOUS
 62
    7
 10
2276.4511200095648
 20
129.55576448214031
 11
2303.9116004635197
 21
139.55056198602875
  0
LINE
  8
_e-0_
  6
CONTINUOUS
 62
    7
 10
2267.7970807133169
 20
121.0850629097564
 11
2301.0895051181669
 21
133.20251441967968
  0
LINE
  8
_e-0_
  6
CONTINUOUS
 62
    7
 10
2259.0298539746227
 20
112.57316447742937
 11
2296.2211119089834
 21
126.10967534045357
  0
LINE
  8
_e-0_
  6
CONTINUOUS
 62
    7
 10
2274.1883752837684
 20
112.76952616706864
 11
2284.7751922141192
 21
116.62281240534184
  0
LINE
  8
_e-0_
  6
CONTINUOUS
 62
    3
 10
2258.4972011002919
 20
181.99134005275385
 11
2258.4972011002919
 21
181.99134005275385
  0
LINE
  8
_e-0_
  6
CONTINUOUS
 62
    3
 10
2258.4972011002919
 20
181.99134005275385
 11
2254.375207286127
 21
179.18201849977236
  0
LINE
  8
_e-0_
  6
CONTINUOUS
 62
    3
 10
2274.4375760187454
 20
112.57316447742766
 11
2258.971134866972
 21
112.57316447742766
  0
ARC
  8
_e-0_
  6
CONTINUOUS
 62
    3
 10
2274.4375760187454
 20
117.57316447742766
 40
5
 50
270
 51
286.20399351045659
  0
LINE
  8
_e-0_
  6
CONTINUOUS
 62
    3
 10
2305.279594668063
 20
194.55387039310011
 11
2305.279594668063
 21
144.19867916164037
  0
ARC
  8
_e-0_
  6
CONTINUOUS
 62
    3
 10
2263.9728996034464
 20
153.58344839081951
 40
42.5
 50
286.20399351045648
 51
345.50707147989851
  0
ARC
  8
_e-0_
  6
CONTINUOUS
 62
    3
 10
2300.279594668063
 20
144.19867916164037
 40
5
 50
345.50707147989879
 51
0
  0
ARC
  8
_e-0_
  6
CONTINUOUS
 62
    3
 10
2242.1434725645221
 20
154.92082031886695
 40
40
 50
279.71265316664215
 51
332.69093929010892
  0
ARC
  8
_e-0_
  6
CONTINUOUS
 62
    3
 10
2248.0482195817735
 20
120.42250206040307
 40
5
 50
241.94526281180003
 51
279.71265316664226
  0
ARC
  8
_e-0_
  6
CONTINUOUS
 62
    3
 10
2255.3150461234199
 20
189.55387039310011
 40
5
 50
90
 51
106.05338143786269
  0
LINE
  8
_e-0_
  6
CONTINUOUS
 62
    3
 10
2280.4842327420237
 20
194.55387039309999
 11
2280.4842327420237
 21
194.55387039309999
  0
LINE
  8
_e-0_
  6
CONTINUOUS
 62
    3
 10
2280.4842327420237
 20
194.55387039309999
 11
2270.268932781993
 21
189.66588876819173
  0
LINE
  8
_e-0_
  6
CONTINUOUS
 62
    3
 10
2270.268932781993
 20
189.66588876819173
 11
2264.3501921643833
 21
185.86970164581137
  0
LINE
  8
_e-0_
  6
CONTINUOUS
 62
    3
 10
2258.4972011002919
 20
181.99134005275368
 11
2264.3501921643833
 21
185.86970164581146
  0
ARC
  8
_e-0_
  6
CONTINUOUS
 62
    3
 10
2255.3150461234199
 20
189.55387039310011
 40
5
 50
90
 51
106.05338143786269
  0
ARC
  8
_e-0_
  6
CONTINUOUS
 62
    3
 10
2255.3150461234199
 20
189.55387039310011
 40
5
 50
90
 51
106.05338143786269
  0
LINE
  8
_e-0_
  6
CONTINUOUS
 62
    3
 10
2280.4842327420237
 20
194.55387039310011
 11
2255.3150461234199
 21
194.55387039310011
  0
ARC
  8
_e-0_
  6
CONTINUOUS
 62
    3
 10
2265.6850271033658
 20
153.5162026761742
 40
42.5
 50
106.05338143786269
 51
241.94526281180051
  0
ARC
  8
_e-0_
  6
CONTINUOUS
 62
    3
 10
2255.3150461234199
 20
189.55387039310011
 40
5
 50
90
 51
106.05338143786269
  0
LINE
  8
_e-0_
  6
CONTINUOUS
 62
    3
 10
2291.2227167726573
 20
194.55387039310011
 11
2305.279594668063
 21
194.55387039310011
  0
ARC
  8
_e-0_
  6
CONTINUOUS
 62
    3
 10
2291.2227167726573
 20
189.55387039310011
 40
5
 50
90
 51
112.84552721528329
  0
LINE
  8
_e-0_
  6
CONTINUOUS
 62
    3
 10
2284.1036110941486
 20
173.31970220284119
 11
2261.0680884297689
 21
173.31970220284119
  0
ARC
  8
_e-0_
  6
CONTINUOUS
 62
    3
 10
2261.0680884297689
 20
168.31970220284119
 40
5
 50
90
 51
110.93110431809542
  0
ARC
  8
_e-0_
  6
CONTINUOUS
 62
    3
 10
2246.280000107059
 20
162.1290763781451
 40
0.5
 50
165.368776721252
 51
224.67319701305797
  0
LINE
  8
_e-0_
  6
CONTINUOUS
 62
    3
 10
2245.9244358848645
 20
161.77754532134485
 11
2245.7344921007288
 21
161.96966835730563
  0
ARC
  8
_e-0_
  6
CONTINUOUS
 62
    3
 10
2268.2129904475896
 20
149.63948873629476
 40
25
 50
110.93110431809527
 51
150.17701829297229
  0
ARC
  8
_e-0_
  6
CONTINUOUS
 62
    3
 10
2246.0900563229238
 20
162.32119941410587
 40
0.5
 50
224.67319701305652
 51
330.17701829297561
  0
LINE
  8
_e-0_
  6
CONTINUOUS
 62
    3
 10
2289.2814768910575
 20
194.16164509702042
 11
2275.5741279425565
 21
188.38678539583099
  0
LINE
  8
_e-0_
  6
CONTINUOUS
 62
    3
 10
2275.5741279425565
 20
188.38678539583099
 11
2269.1652622122451
 21
184.88657977403136
  0
ARC
  8
_e-0_
  6
CONTINUOUS
 62
    3
 10
2269.9855058223765
 20
155.94045789086862
 40
25
 50
126.05682261028304
 51
165.36877672125814
  0
ARC
  8
_e-0_
  6
CONTINUOUS
 62
    3
 10
2314.0795261788807
 20
95.540573190998543
 40
100
 50
116.6886898974924
 51
126.03335467187628
  0
LINE
  8
_e-0_
  6
CONTINUOUS
 62
    3
 10
2254.375207286127
 20
179.18201849977245
 11
2254.375207286127
 21
179.18201849977245
  0
LINE
  8
_e-0_
  6
CONTINUOUS
 62
    3
 10
2254.375207286127
 20
179.18201849977245
 11
2246.4067752679411
 21
171.92707079532556
  0
LINE
  8
_e-0_
  6
CONTINUOUS
 62
    3
 10
2246.4067752679411
 20
171.92707079532556
 11
2244.5616298314562
 21
169.79384949872613
  0
ARC
  8
_e-0_
  6
CONTINUOUS
 62
    3
 10
2266.6001168011466
 20
158.97724261098005
 40
25
 50
169.07329675873063
 51
296.32138326661799
  0
LINE
  8
_e-0_
  6
CONTINUOUS
 62
    3
 10
2244.5616298314557
 20
169.79384949872599
 11
2244.5616298314557
 21
169.79384949872599
  0
LINE
  8
_e-0_
  6
CONTINUOUS
 62
    3
 10
2244.5616298314557
 20
169.79384949872599
 11
2242.0533548929147
 21
163.71606945109462
  0
LINE
  8
_e-0_
  6
CONTINUOUS
 62
    3
 10
2284.1036110941486
 20
173.31970220284119
 11
2284.1036110941486
 21
148.84947071428769
  0
ARC
  8
_e-0_
  6
CONTINUOUS
 62
    3
 10
2269.3348263498528
 20
128.55612168904315
 40
5
 50
311.4163090429962
 51
326.13300916724881
  0
ARC
  8
_e-0_
  6
CONTINUOUS
 62
    3
 10
2244.3366749153346
 20
153.16117420016951
 40
40
 50
316.78132524618342
 51
353.81191653224226
  0
ARC
  8
_e-0_
  6
CONTINUOUS
 62
    3
 10
2232.9509318238069
 20
169.80187564163315
 40
60
 50
294.69555798319504
 51
311.41630904299643
  0
ARC
  8
_e-0_
  6
CONTINUOUS
 62
    3
 10
2263.9775491586719
 20
187.40588336388725
 40
75
 50
264.68313230529076
 51
266.17253517307824
  0
ARC
  8
_e-0_
  6
CONTINUOUS
 62
    3
 10
2257.0741018984176
 20
113.22642248740947
 40
0.5
 50
174.02086603460466
 51
264.68313230528985
  0
ARC
  8
_e-0_
  6
CONTINUOUS
 62
    3
 10
2259.0632216918124
 20
113.01808994668988
 40
2.5
 50
114.69555798319522
 51
174.02086603461154
  0
LINE
  8
_e-0_
  6
CONTINUOUS
 62
    7
 10
2368.9407257363964
 20
153.8555320965915
 11
2380.3126248015978
 21
157.9945648634046
  0
LINE
  8
_e-0_
  6
CONTINUOUS
 62
    3
 10
2428.3092572732289
 20
147.05833678116505
 11
2428.3092572732289
 21
120.91539808426659
  0
CIRCLE
  8
_e-0_
  6
CONTINUOUS
 62
    3
 10
2357.5674768778403
 20
146.88814634727634
 40
13.33773795583065
  0
CIRCLE
  8
_e-0_
  6
CONTINUOUS
 62
    3
 10
2357.2837594304651
 20
146.60442889990122
 40
25.691707563897665
  0
LINE
  8
_e-0_
  6
CONTINUOUS
 62
    3
 10
2391.5446955520596
 20
172.68771567712093
 11
2391.5446955520596
 21
120.91539808426659
  0
LINE
  8
_e-0_
  6
CONTINUOUS
 62
    3
 10
2391.5446955520596
 20
120.91539808426659
 11
2406.9076645804707
 21
120.91539808426659
  0
LINE
  8
_e-0_
  6
CONTINUOUS
 62
    3
 10
2406.9076645804707
 20
120.91539808426659
 11
2406.9076645804707
 21
157.05833678116505
  0
LINE
  8
_e-0_
  6
CONTINUOUS
 62
    3
 10
2443.2282098557325
 20
120.91539808426659
 11
2428.3092572732289
 21
120.91539808426659
  0
LINE
  8
_e-0_
  6
CONTINUOUS
 62
    3
 10
2418.3092572732289
 20
157.05833678116505
 11
2406.9076645804707
 21
157.05833678116505
  0
ARC
  8
_e-0_
  6
CONTINUOUS
 62
    3
 10
2418.3092572732289
 20
147.05833678116505
 40
10
 50
0
 51
90
  0
LINE
  8
_e-0_
  6
CONTINUOUS
 62
    3
 10
2418.2282098557325
 20
172.68771567712093
 11
2391.5446955520596
 21
172.68771567712093
  0
LINE
  8
_e-0_
  6
CONTINUOUS
 62
    3
 10
2443.2282098557325
 20
147.68771567712093
 11
2443.2282098557325
 21
120.91539808426659
  0
ARC
  8
_e-0_
  6
CONTINUOUS
 62
    3
 10
2418.2282098557325
 20
147.68771567712093
 40
25
 50
0
 51
90
  0
ARC
  8
_e-0_
  6
CONTINUOUS
 62
    3
 10
2478.295994444325
 20
146.60174948003543
 40
13.33773795583065
 50
23.422555400004952
 51
97.191484740792631
  0
LINE
  8
_e-0_
  6
CONTINUOUS
 62
    3
 10
2466.0573099578646
 20
151.90362233962787
 11
2490.5346789307855
 21
151.90362233962787
  0
ARC
  8
_e-0_
  6
CONTINUOUS
 62
    3
 10
2478.295994444325
 20
146.60174948003543
 40
13.33773795583065
 50
92.530763017635266
 51
156.57744459999506
  0
ARC
  8
_e-0_
  6
CONTINUOUS
 62
    3
 10
2478.295994444325
 20
146.60174948003543
 40
13.33773795583065
 50
204.21097500392608
 51
316.0067678116265
  0
LINE
  8
_e-0_
  6
CONTINUOUS
 62
    3
 10
2466.1314228627888
 20
141.13197324913869
 11
2503.5708091830401
 21
141.13197324913869
  0
LINE
  8
_e-0_
  6
CONTINUOUS
 62
    3
 10
2487.8914545430643
 20
137.33771152286408
 11
2500.7599750366907
 21
134.21464658261612
  0
ARC
  8
_e-0_
  6
CONTINUOUS
 62
    3
 10
2478.6163205945872
 20
147.24240178055936
 40
25.691707563897665
 50
346.24110979921471
 51
329.53046432565105
  0
ARC
  8
_e-0_
  6
CONTINUOUS
 62
    3
 10
2538.5642928691422
 20
146.56831030951025
 40
11.089756641867943
 50
94.502189492040685
 51
357.22978420280037
  0
LINE
  8
_e-0_
  6
CONTINUOUS
 62
    3
 10
2548.6410899779489
 20
157.6238476750268
 11
2537.6937781159522
 21
157.6238476750268
  0
LINE
  8
_e-0_
  6
CONTINUOUS
 62
    3
 10
2549.6410899779489
 20
156.62384767502715
 11
2549.6410899779489
 21
146.03233625585858
  0
ARC
  8
_e-0_
  6
CONTINUOUS
 62
    3
 10
2548.6410899779489
 20
156.62384767502715
 40
1
 50
0
 51
90
  0
LINE
  8
_e-0_
  6
CONTINUOUS
 62
    3
 10
2541.0210795623534
 20
172.7157992833321
 11
2549.4438113726191
 21
172.7157992833321
  0
ARC
  8
_e-0_
  6
CONTINUOUS
 62
    3
 10
2539.017019488006
 20
147.10237349201634
 40
25.691707563897665
 50
85.526146014136969
 51
347.40557840019874
  0
LINE
  8
_e-0_
  6
CONTINUOUS
 62
    3
 10
2549.4438113726191
 20
193.55387039310016
 11
2549.4438113726191
 21
172.7157992833321
  0
ARC
  8
_e-0_
  6
CONTINUOUS
 62
    3
 10
2550.4438113726191
 20
193.55387039310016
 40
1
 50
90
 51
180
  0
LINE
  8
_e-0_
  6
CONTINUOUS
 62
    3
 10
2564.0905330831633
 20
193.55387039310016
 11
2564.0905330831633
 21
141.50034229411204
  0
LINE
  8
_e-0_
  6
CONTINUOUS
 62
    3
 10
2563.0905330831637
 20
194.55387039310011
 11
2550.4438113726191
 21
194.55387039310011
  0
ARC
  8
_e-0_
  6
CONTINUOUS
 62
    3
 10
2563.0905330831637
 20
193.55387039310016
 40
1
 50
0
 51
90
  0
CIRCLE
  8
_e-0_
  6
CONTINUOUS
 62
    3
 10
2599.5440184063854
 20
147.043799567397
 40
13.33773795583065
  0
CIRCLE
  8
_e-0_
  6
CONTINUOUS
 62
    3
 10
2599.2603009590102
 20
146.76008212002216
 40
25.691707563897665
  0
ARC
  8
_e-0_
  6
CONTINUOUS
 62
    3
 10
2353.3563784056705
 20
167.9863014610953
 40
5
 50
90
 51
106.05338143786269
  0
ARC
  8
_e-0_
  6
CONTINUOUS
 62
    3
 10
2353.3563784056705
 20
167.9863014610953
 40
5
 50
90
 51
106.05338143786269
  0
ARC
  8
_e-0_
  6
CONTINUOUS
 62
    3
 10
2353.3563784056705
 20
167.9863014610953
 40
5
 50
90
 51
106.05338143786269
  0
ARC
  8
_e-0_
  6
CONTINUOUS
 62
    3
 10
2353.3563784056705
 20
167.9863014610953
 40
5
 50
90
 51
106.05338143786269
  0
LINE
  8
_e-0_
  6
CONTINUOUS
 62
    7
 10
2338.3978142599034
 20
164.02237690083893
 11
2360.5551916202571
 21
172.08700272941143
  0
LINE
  8
_e-0_
  6
CONTINUOUS
 62
    7
 10
2353.2922401344162
 20
164.1226157132661
 11
2368.5713183881321
 21
169.68374540464282
  0
LINE
  8
_e-0_
  6
CONTINUOUS
 62
    7
 10
2333.8018889252853
 20
157.02870801774821
 11
2353.2922401344162
 21
164.1226157132661
  0
LINE
  8
_e-0_
  6
CONTINUOUS
 62
    7
 10
2331.9785744704108
 20
151.04418696608718
 11
2349.2864007501184
 21
157.343720551751
  0
LINE
  8
_e-0_
  6
CONTINUOUS
 62
    7
 10
2331.612090482029
 20
145.58990884060165
 11
2344.6864605819832
 21
150.34859038876504
  0
LINE
  8
_e-0_
  6
CONTINUOUS
 62
    7
 10
2332.3211868115895
 20
140.52710993540927
 11
2344.3765135579678
 21
144.91489003544415
  0
LINE
  8
_e-0_
  6
CONTINUOUS
 62
    7
 10
2333.971216176696
 20
135.8067826475937
 11
2346.0301909803711
 21
140.19589053189747
  0
LINE
  8
_e-0_
  6
CONTINUOUS
 62
    7
 10
2336.5548628009087
 20
131.42626425228996
 11
2349.6156774979731
 21
136.18001203728795
  0
LINE
  8
_e-0_
  6
CONTINUOUS
 62
    7
 10
2340.1868985942028
 20
127.42732830845881
 11
2357.0387292924815
 21
133.56089307552565
  0
LINE
  8
_e-0_
  6
CONTINUOUS
 62
    7
 10
2345.2008630322079
 20
123.93137325718271
 11
2367.3042092217142
 21
131.97633334784399
  0
LINE
  8
_e-0_
  6
CONTINUOUS
 62
    7
 10
2352.6724918069285
 20
121.32993487028784
 11
2367.3578368417856
 21
126.6749633429049
  0
LINE
  8
_e-0_
  6
CONTINUOUS
 62
    7
 10
2367.3578368417856
 20
126.6749633429049
 11
2377.0623269725419
 21
130.20710888923048
  0
LINE
  8
_e-0_
  6
CONTINUOUS
 62
    7
 10
2366.4508876466361
 20
131.66574969425852
 11
2381.1137543140057
 21
137.00259671019495
  0
LINE
  8
_e-0_
  6
CONTINUOUS
 62
    7
 10
2366.5391143016527
 20
137.01875043293284
 11
2382.7075173187545
 21
142.90356786677762
  0
LINE
  8
_e-0_
  6
CONTINUOUS
 62
    7
 10
2370.5419646629043
 20
143.79655767902988
 11
2382.9193516787918
 21
148.3015581308058
  0
LINE
  8
_e-0_
  6
CONTINUOUS
 62
    7
 10
2370.7072497472495
 20
149.17760539227913
 11
2382.0827968697476
 21
153.31796594336083
  0
LINE
  8
_e-0_
  6
CONTINUOUS
 62
    7
 10
2357.1904356777322
 20
160.22055399600276
 11
2373.8148342762628
 21
166.2713402484448
  0
LINE
  8
_e-0_
  6
CONTINUOUS
 62
    7
 10
2365.2105772791237
 20
157.81875795113023
 11
2377.6015196979014
 21
162.32869216607127
  0
LINE
  8
_e-0_
  6
CONTINUOUS
 62
    7
 10
2391.5446955520596
 20
167.40359314812394
 11
2406.0627028821104
 21
172.68771567712093
  0
LINE
  8
_e-0_
  6
CONTINUOUS
 62
    7
 10
2391.5446955520596
 20
162.08270428574451
 11
2420.4177781140142
 21
172.59164690980639
  0
LINE
  8
_e-0_
  6
CONTINUOUS
 62
    7
 10
2391.5446955520596
 20
156.76181542336507
 11
2428.825043624869
 21
170.3307524449508
  0
LINE
  8
_e-0_
  6
CONTINUOUS
 62
    7
 10
2391.5446955520596
 20
151.44092656098564
 11
2434.1617370349076
 21
166.95226113322974
  0
LINE
  8
_e-0_
  6
CONTINUOUS
 62
    7
 10
2391.5446955520596
 20
146.12003769860621
 11
2406.9076645804707
 21
151.7117011349012
  0
LINE
  8
_e-0_
  6
CONTINUOUS
 62
    7
 10
2420.759742105426
 20
156.75344503673244
 11
2437.9751424470605
 21
163.01933833206305
  0
LINE
  8
_e-0_
  6
CONTINUOUS
 62
    7
 10
2391.5446955520596
 20
140.79914883622677
 11
2406.9076645804707
 21
146.39081227252177
  0
LINE
  8
_e-0_
  6
CONTINUOUS
 62
    7
 10
2395.3906273502475
 20
120.91539808426659
 11
2406.9076645804707
 21
125.10725682300346
  0
LINE
  8
_e-0_
  6
CONTINUOUS
 62
    7
 10
2391.5446955520596
 20
124.8364822490879
 11
2406.9076645804707
 21
130.42814568538318
  0
LINE
  8
_e-0_
  6
CONTINUOUS
 62
    7
 10
2391.5446955520596
 20
130.15737111146762
 11
2406.9076645804707
 21
135.74903454776261
  0
LINE
  8
_e-0_
  6
CONTINUOUS
 62
    7
 10
2391.5446955520596
 20
135.47825997384705
 11
2406.9076645804707
 21
141.06992341014233
  0
LINE
  8
_e-0_
  6
CONTINUOUS
 62
    7
 10
2428.3092572732289
 20
143.53857725381516
 11
2443.2282098557325
 21
148.96863192027495
  0
LINE
  8
_e-0_
  6
CONTINUOUS
 62
    7
 10
2428.3092572732289
 20
138.21768839143601
 11
2443.2282098557325
 21
143.6477430578958
  0
LINE
  8
_e-0_
  6
CONTINUOUS
 62
    7
 10
2428.1557813921931
 20
148.80360546382007
 11
2442.4194517644268
 21
153.99515691069751
  0
LINE
  8
_e-0_
  6
CONTINUOUS
 62
    7
 10
2428.3092572732289
 20
132.89679952905657
 11
2443.2282098557325
 21
138.32685419551637
  0
LINE
  8
_e-0_
  6
CONTINUOUS
 62
    7
 10
2428.3092572732289
 20
127.57591066667686
 11
2443.2282098557325
 21
133.00596533313665
  0
LINE
  8
_e-0_
  6
CONTINUOUS
 62
    7
 10
2428.3092572732289
 20
122.25502180429714
 11
2443.2282098557325
 21
127.68507647075722
  0
LINE
  8
_e-0_
  6
CONTINUOUS
 62
    7
 10
2439.247693352695
 20
120.91539808426659
 11
2443.2282098557325
 21
122.3641876083775
  0
LINE
  8
_e-0_
  6
CONTINUOUS
 62
    7
 10
2426.0696362324174
 20
153.36519958368285
 11
2440.6804200699466
 21
158.68308999984094
  0
LINE
  8
_e-0_
  6
CONTINUOUS
 62
    7
 10
2461.2391180831359
 20
166.16584413190906
 11
2479.7642757393732
 21
172.9084501038676
  0
LINE
  8
_e-0_
  6
CONTINUOUS
 62
    7
 10
2455.6823727205842
 20
158.8224653581642
 11
2488.7412225351813
 21
170.85490266975369
  0
LINE
  8
_e-0_
  6
CONTINUOUS
 62
    7
 10
2453.5136329133938
 20
152.71221976009883
 11
2494.3301637756285
 21
167.56822205995973
  0
LINE
  8
_e-0_
  6
CONTINUOUS
 62
    7
 10
2453.5499758138648
 20
147.40455863171803
 11
2466.0402009988042
 21
151.95062881831773
  0
LINE
  8
_e-0_
  6
CONTINUOUS
 62
    7
 10
2484.2015654578563
 20
158.5608248950723
 11
2498.33930178449
 21
163.70654009787131
  0
LINE
  8
_e-0_
  6
CONTINUOUS
 62
    7
 10
2488.743461686327
 20
154.89305106698225
 11
2501.229225702727
 21
159.43749752102377
  0
LINE
  8
_e-0_
  6
CONTINUOUS
 62
    7
 10
2455.2600765304937
 20
142.70609552778864
 11
2480.5300737608513
 21
151.90362233962787
  0
LINE
  8
_e-0_
  6
CONTINUOUS
 62
    7
 10
2454.9396132864276
 20
137.26856758339266
 11
2503.1647877023642
 21
154.82109561308902
  0
LINE
  8
_e-0_
  6
CONTINUOUS
 62
    7
 10
2457.3510255582341
 20
132.82536101049515
 11
2468.979076889896
 21
137.05762557773937
  0
LINE
  8
_e-0_
  6
CONTINUOUS
 62
    7
 10
2480.1732551160739
 20
141.13197324913869
 11
2504.1735768638141
 21
149.86737597812748
  0
LINE
  8
_e-0_
  6
CONTINUOUS
 62
    7
 10
2494.7922771168896
 20
141.13197324913869
 11
2504.1658959394976
 21
144.54369148792522
  0
LINE
  8
_e-0_
  6
CONTINUOUS
 62
    7
 10
2460.7789079158069
 20
128.75211929283807
 11
2474.6057479243422
 21
133.78467748990601
  0
LINE
  8
_e-0_
  6
CONTINUOUS
 62
    7
 10
2465.5015919032312
 20
125.15014682772687
 11
2494.5480952820462
 21
135.72220946712775
  0
LINE
  8
_e-0_
  6
CONTINUOUS
 62
    7
 10
2472.3576833866291
 20
122.32467118870999
 11
2499.4275233351891
 21
132.17728717633548
  0
LINE
  8
_e-0_
  6
CONTINUOUS
 62
    7
 10
2544.6739029189734
 20
122.04117824124523
 11
2550.7926211614717
 21
124.26820955337575
  0
LINE
  8
_e-0_
  6
CONTINUOUS
 62
    7
 10
2531.4520014282843
 20
122.54968852061381
 11
2560.5943212189044
 21
133.15662548186594
  0
LINE
  8
_e-0_
  6
CONTINUOUS
 62
    7
 10
2525.0484139172749
 20
125.53986213646737
 11
2563.5777072966575
 21
139.56337807387171
  0
LINE
  8
_e-0_
  6
CONTINUOUS
 62
    7
 10
2514.1325981815766
 20
153.49216330021562
 11
2564.0905330831633
 21
171.67536456980116
  0
LINE
  8
_e-0_
  6
CONTINUOUS
 62
    7
 10
2516.6404168063627
 20
159.72582349495553
 11
2564.0905330831633
 21
176.99625343218059
  0
LINE
  8
_e-0_
  6
CONTINUOUS
 62
    7
 10
2549.4438113726191
 20
192.94883814948036
 11
2553.8536012194617
 21
194.55387039310011
  0
LINE
  8
_e-0_
  6
CONTINUOUS
 62
    7
 10
2549.4438113726191
 20
187.62794928710093
 11
2564.0905330831633
 21
192.95892001931918
  0
LINE
  8
_e-0_
  6
CONTINUOUS
 62
    7
 10
2549.4438113726191
 20
182.30706042472121
 11
2564.0905330831633
 21
187.63803115693974
  0
LINE
  8
_e-0_
  6
CONTINUOUS
 62
    7
 10
2549.4438113726191
 20
176.98617156234149
 11
2564.0905330831633
 21
182.31714229456031
  0
LINE
  8
_e-0_
  6
CONTINUOUS
 62
    7
 10
2523.4107658070579
 20
167.51091786918209
 11
2537.8537439408219
 21
172.76773200402942
  0
LINE
  8
_e-0_
  6
CONTINUOUS
 62
    7
 10
2540.1033297065005
 20
157.6238476750268
 11
2564.0905330831633
 21
166.35447570742172
  0
LINE
  8
_e-0_
  6
CONTINUOUS
 62
    7
 10
2513.3371361174354
 20
147.88174992400058
 11
2530.4259422685104
 21
154.10156670213723
  0
LINE
  8
_e-0_
  6
CONTINUOUS
 62
    7
 10
2513.7061446004349
 20
142.6951691656248
 11
2527.5354029593377
 21
147.72860757024204
  0
LINE
  8
_e-0_
  6
CONTINUOUS
 62
    7
 10
2515.0447452877542
 20
137.86149110899771
 11
2528.1911856253786
 21
142.64640407844922
  0
LINE
  8
_e-0_
  6
CONTINUOUS
 62
    7
 10
2517.3070774056068
 20
133.36402379754076
 11
2531.0862222029413
 21
138.37922235741473
  0
LINE
  8
_e-0_
  6
CONTINUOUS
 62
    7
 10
2520.5624650595818
 20
129.22799914220604
 11
2537.8068709000103
 21
135.50444957572807
  0
LINE
  8
_e-0_
  6
CONTINUOUS
 62
    7
 10
2546.2562243546644
 20
138.57976273201643
 11
2564.0905330831633
 21
145.0709202579037
  0
LINE
  8
_e-0_
  6
CONTINUOUS
 62
    7
 10
2549.5566716184766
 20
145.10191615818882
 11
2564.0905330831633
 21
150.39180912028314
  0
LINE
  8
_e-0_
  6
CONTINUOUS
 62
    7
 10
2549.6410899779489
 20
150.4535307906417
 11
2564.0905330831633
 21
155.71269798266257
  0
LINE
  8
_e-0_
  6
CONTINUOUS
 62
    7
 10
2549.6410899779489
 20
155.77441965302114
 11
2564.0905330831633
 21
161.033586845042
  0
LINE
  8
_e-0_
  6
CONTINUOUS
 62
    7
 10
2587.1974966456623
 20
169.44383378606516
 11
2593.9201106595442
 21
171.8906651835789
  0
LINE
  8
_e-0_
  6
CONTINUOUS
 62
    7
 10
2577.6443798702302
 20
160.64589477295925
 11
2606.8934288682321
 21
171.29167798882519
  0
LINE
  8
_e-0_
  6
CONTINUOUS
 62
    7
 10
2600.5688513241625
 20
121.1017202570602
 11
2614.7507703136088
 21
126.26351663399304
  0
LINE
  8
_e-0_
  6
CONTINUOUS
 62
    7
 10
2590.2952099751182
 20
122.68330947086099
 11
2621.6042102293968
 21
134.07885362805103
  0
LINE
  8
_e-0_
  6
CONTINUOUS
 62
    7
 10
2574.6838259529545
 20
154.24745240775138
 11
2613.2741842187642
 21
168.2931941461743
  0
LINE
  8
_e-0_
  6
CONTINUOUS
 62
    7
 10
2584.3475524073419
 20
125.8394280149622
 11
2624.1316663639163
 21
140.31966129180915
  0
LINE
  8
_e-0_
  6
CONTINUOUS
 62
    7
 10
2580.1202834180858
 20
129.62171679301548
 11
2594.2968457670781
 21
134.78156351226772
  0
LINE
  8
_e-0_
  6
CONTINUOUS
 62
    7
 10
2577.060163208755
 20
133.82881298592224
 11
2589.4416673383839
 21
138.33531194455133
  0
LINE
  8
_e-0_
  6
CONTINUOUS
 62
    7
 10
2574.9705638104942
 20
138.38914986579482
 11
2586.9202518331721
 21
142.73848061481658
  0
LINE
  8
_e-0_
  6
CONTINUOUS
 62
    7
 10
2573.8046086959921
 20
143.2856657720049
 11
2586.2281608356038
 21
147.80746895467757
  0
LINE
  8
_e-0_
  6
CONTINUOUS
 62
    7
 10
2573.6305462928121
 20
148.54320110072194
 11
2588.0360729418825
 21
153.78638400991206
  0
LINE
  8
_e-0_
  6
CONTINUOUS
 62
    7
 10
2604.0255663442703
 20
159.60608366937663
 11
2617.7476653121634
 21
164.60051924534468
  0
LINE
  8
_e-0_
  6
CONTINUOUS
 62
    7
 10
2609.2536798838054
 20
156.18807251675207
 11
2620.9938043422398
 21
160.46112836620267
  0
LINE
  8
_e-0_
  6
CONTINUOUS
 62
    7
 10
2611.9817903194934
 20
151.86013464875372
 11
2623.2480506609945
 21
155.9607180645537
  0
LINE
  8
_e-0_
  6
CONTINUOUS
 62
    7
 10
2612.880576247539
 20
146.8663771111602
 11
2624.5786526959909
 21
151.12412873656694
  0
LINE
  8
_e-0_
  6
CONTINUOUS
 62
    7
 10
2611.4455992521011
 20
141.02319933558476
 11
2624.9387339199165
 21
145.93429872161465
  0
LINE
  8
ADD_LINE
  6
DOT
 62
    9
 10
2331.612090482029
 20
104.42521185597115
 11
2331.612090482029
 21
204.42521185597115
  0
LINE
  8
ADD_LINE
  6
DOT
 62
    9
 10
2478.2754122009728
 20
204.42521185597115
 11
2478.2754122009728
 21
104.42521185597115
  0
LINE
  8
ADD_LINE
  6
DOT
 62
    9
 10
2624.9387339199165
 20
104.42521185597115
 11
2624.9387339199165
 21
204.42521185597115
  0
LINE
  8
ADD_LINE
  6
DOT
 62
    9
 10
2212.0507338268016
 20
204.42521185597115
 11
2212.0507338268016
 21
104.42521185597115
  0
LINE
  8
ADD_LINE
  6
DOT
 62
    9
 10
2702.0507338268021
 20
204.42521185597115
 11
2702.0507338268021
 21
104.42521185597115
  0
TEXT
  8
_e-0_
 62
    7
 10
2634.9094164018197
 20
164.98768243046669
 40
35
 41
0.5714285714285713
 50
0
  1
ワンド
  0
TEXT
  8
_e-0_
 62
    7
 10
2641.755243841706
 20
131.44312797502095
 40
30
 41
0.6666666666666666
 50
0
  1
株式
  0
TEXT
  8
_e-0_
 62
    7
 10
2641.0706610977176
 20
103.37523547148492
 40
30
 41
0.6666666666666666
 50
0
  1
会社
  0
LINE
  8
_f-0_
  6
CONTINUOUS
 62
  230
 10
87.716701902748468
 20
2868.7632135306557
 11
4127.7167019027483
 21
2868.7632135306557
  0
LINE
  8
_f-0_
  6
CONTINUOUS
 62
  230
 10
4127.7167019027483
 20
2868.7632135306557
 11
4127.7167019027483
 21
48.763213530655491
  0
LINE
  8
_f-0_
  6
CONTINUOUS
 62
  230
 10
4127.7167019027483
 20
48.763213530655491
 11
87.716701902748468
 21
48.763213530655491
  0
LINE
  8
_f-0_
  6
CONTINUOUS
 62
  230
 10
87.716701902748468
 20
48.763213530655491
 11
87.716701902748468
 21
2868.7632135306557
  0
LINE
  8
_0-8_ラッチ立面__受け
  6
CONTINUOUS
 62
    4
 10
722.66514634671784
 20
1918.7336152219872
 11
972.66514634671784
 21
1918.7336152219872
  0
LINE
  8
_0-8_ラッチ立面__受け
  6
CONTINUOUS
 62
    4
 10
722.66514634671784
 20
1988.7336152219872
 11
722.66514634671784
 21
1918.7336152219872
  0
LINE
  8
_0-8_ラッチ立面__受け
  6
CONTINUOUS
 62
    4
 10
972.66514634671784
 20
1988.7336152219872
 11
722.66514634671784
 21
1988.7336152219872
  0
LINE
  8
_0-8_ラッチ立面__受け
  6
CONTINUOUS
 62
    4
 10
972.66514634671784
 20
1918.7336152219872
 11
972.66514634671784
 21
1988.7336152219872
  0
TEXT
  8
_0-8_ラッチ立面__受け
 62
    7
 10
797.82476271240261
 20
1938.7336152219872
 40
30
 41
1
 50
0
  1
平面図
  0
LINE
  8
_0-8_ラッチ立面__受け
  6
CONTINUOUS
 62
    4
 10
722.98437907808704
 20
411.67369927125179
 11
722.98437907808704
 21
341.67369927125179
  0
LINE
  8
_0-8_ラッチ立面__受け
  6
CONTINUOUS
 62
    4
 10
722.98437907808704
 20
411.67369927125179
 11
972.98437907808715
 21
411.67369927125179
  0
LINE
  8
_0-8_ラッチ立面__受け
  6
CONTINUOUS
 62
    4
 10
972.98437907808715
 20
411.67369927125179
 11
972.98437907808715
 21
341.67369927125179
  0
LINE
  8
_0-8_ラッチ立面__受け
  6
CONTINUOUS
 62
    4
 10
972.98437907808715
 20
341.67369927125179
 11
722.98437907808704
 21
341.67369927125179
  0
TEXT
  8
_0-8_ラッチ立面__受け
 62
    7
 10
797.98437907808704
 20
361.67369927125179
 40
30
 41
1
 50
0
  1
立面図
  0
LINE
  8
ADD_LINE
  6
DOT
 62
    7
 10
847.82476271240261
 20
1988.7336152219872
 11
847.82476271240261
 21
1918.7336152219872
  0
LINE
  8
ADD_LINE
  6
DOT
 62
    7
 10
722.66514634671784
 20
1953.7336152219872
 11
972.66514634671784
 21
1953.7336152219872
  0
LINE
  8
ADD_LINE
  6
DOT
 62
    7
 10
847.98437907808704
 20
411.67369927125179
 11
847.98437907808704
 21
341.67369927125179
  0
LINE
  8
ADD_LINE
  6
DOT
 62
    7
 10
722.98437907808704
 20
376.67369927125179
 11
972.98437907808715
 21
376.67369927125179
  0
LINE
  8
_0-8_ラッチ立面__受け
  6
CONTINUOUS
 62
    4
 10
1983.8570920036443
 20
411.58423435877182
 11
1983.8570920036443
 21
341.58423435877182
  0
LINE
  8
_0-8_ラッチ立面__受け
  6
CONTINUOUS
 62
    4
 10
1983.8570920036443
 20
341.58423435877182
 11
2233.8570920036445
 21
341.58423435877182
  0
LINE
  8
_0-8_ラッチ立面__受け
  6
CONTINUOUS
 62
    4
 10
2233.8570920036445
 20
341.58423435877182
 11
2233.8570920036445
 21
411.58423435877182
  0
LINE
  8
_0-8_ラッチ立面__受け
  6
CONTINUOUS
 62
    4
 10
2233.8570920036445
 20
411.58423435877182
 11
1983.8570920036443
 21
411.58423435877182
  0
LINE
  8
ADD_LINE
  6
DOT
 62
    7
 10
2108.8570920036445
 20
411.58423435877182
 11
2108.8570920036445
 21
341.58423435877182
  0
LINE
  8
ADD_LINE
  6
DOT
 62
    7
 10
1983.8570920036443
 20
376.58423435877182
 11
2233.8570920036445
 21
376.58423435877182
  0
TEXT
  8
_0-8_ラッチ立面__受け
 62
    7
 10
2058.8570920036445
 20
361.58423435877182
 40
30
 41
1
 50
0
  1
断面図
  0
LINE
  8
_0-8_ラッチ立面__受け
  6
CONTINUOUS
 62
    4
 10
3204.8913935730724
 20
411.5125288901703
 11
3204.8913935730724
 21
341.51252889017001
  0
LINE
  8
_0-8_ラッチ立面__受け
  6
CONTINUOUS
 62
    4
 10
3204.8913935730724
 20
341.51252889017001
 11
3454.8913935730729
 21
341.51252889017001
  0
LINE
  8
_0-8_ラッチ立面__受け
  6
CONTINUOUS
 62
    4
 10
3454.8913935730729
 20
341.51252889017001
 11
3454.8913935730729
 21
411.5125288901703
  0
LINE
  8
_0-8_ラッチ立面__受け
  6
CONTINUOUS
 62
    4
 10
3454.8913935730729
 20
411.5125288901703
 11
3204.8913935730724
 21
411.5125288901703
  0
TEXT
  8
_0-8_ラッチ立面__受け
 62
    7
 10
3279.8913935730729
 20
361.51252889017001
 40
30
 41
1
 50
0
  1
背面図
  0
LINE
  8
ADD_LINE
  6
DOT
 62
    7
 10
3329.8913935730729
 20
411.5125288901703
 11
3329.8913935730729
 21
341.51252889017001
  0
LINE
  8
ADD_LINE
  6
DOT
 62
    7
 10
3204.8913935730724
 20
376.51252889017001
 11
3454.8913935730729
 21
376.51252889017001
  0
LINE
  8
ADD_LINE
  6
DOT
 62
    9
 10
4102.0507338268025
 20
104.42521185597115
 11
4102.0507338268025
 21
48.763213530655491
  0
LINE
  8
ADD_LINE
  6
DOT
 62
    9
 10
4102.0507338268025
 20
104.42521185597115
 11
4127.7167019027483
 21
104.42521185597115
  0
LINE
  8
ADD_LINE
  6
DOT
 62
    9
 10
622.05073382680154
 20
144.42521185597115
 11
2202.0507338268016
 21
144.42521185597115
  0
LINE
  8
_f-8_
  6
CONTINUOUS
 62
    7
 10
622.05073382680154
 20
104.42521185597115
 11
622.05073382680154
 21
204.42521185597115
  0
LINE
  8
_f-8_
  6
CONTINUOUS
 62
    7
 10
162.05073382680211
 20
104.42521185597115
 11
602.05073382680154
 21
104.42521185597115
  0
LINE
  8
_f-8_
  6
CONTINUOUS
 62
    7
 10
162.05073382680211
 20
204.42521185597115
 11
602.05073382680154
 21
204.42521185597115
  0
LINE
  8
_f-8_
  6
CONTINUOUS
 62
    7
 10
1412.0507338268016
 20
104.42521185597115
 11
1412.0507338268016
 21
204.42521185597115
  0
LINE
  8
_f-8_
  6
CONTINUOUS
 62
    7
 10
2202.0507338268016
 20
104.42521185597115
 11
2202.0507338268016
 21
204.42521185597115
  0
LINE
  8
_f-8_
  6
CONTINUOUS
 62
    7
 10
2212.0507338268016
 20
104.42521185597115
 11
2212.0507338268016
 21
204.42521185597115
  0
LINE
  8
_f-8_
  6
CONTINUOUS
 62
    7
 10
622.05073382680154
 20
104.42521185597115
 11
2202.0507338268016
 21
104.42521185597115
  0
LINE
  8
_f-8_
  6
CONTINUOUS
 62
    7
 10
622.05073382680154
 20
204.42521185597115
 11
2202.0507338268016
 21
204.42521185597115
  0
LINE
  8
_f-8_
  6
CONTINUOUS
 62
    7
 10
2702.0507338268021
 20
104.42521185597115
 11
2702.0507338268021
 21
204.42521185597115
  0
LINE
  8
_f-8_
  6
CONTINUOUS
 62
    7
 10
2712.0507338268021
 20
104.42521185597115
 11
2712.0507338268021
 21
204.42521185597115
  0
LINE
  8
_f-8_
  6
CONTINUOUS
 62
    7
 10
2212.0507338268016
 20
104.42521185597115
 11
2702.0507338268021
 21
104.42521185597115
  0
LINE
  8
_f-8_
  6
CONTINUOUS
 62
    7
 10
2212.0507338268016
 20
204.42521185597115
 11
2702.0507338268021
 21
204.42521185597115
  0
LINE
  8
_f-8_
  6
CONTINUOUS
 62
    7
 10
3012.0507338268021
 20
104.42521185597115
 11
3012.0507338268021
 21
204.42521185597115
  0
LINE
  8
_f-8_
  6
CONTINUOUS
 62
    7
 10
3312.0507338268021
 20
104.42521185597115
 11
3312.0507338268021
 21
204.42521185597115
  0
LINE
  8
_f-8_
  6
CONTINUOUS
 62
    7
 10
3692.0507338268021
 20
104.42521185597115
 11
3692.0507338268021
 21
204.42521185597115
  0
LINE
  8
_f-8_
  6
CONTINUOUS
 62
    7
 10
2712.0507338268021
 20
104.42521185597115
 11
4102.0507338268025
 21
104.42521185597115
  0
LINE
  8
_f-8_
  6
CONTINUOUS
 62
    7
 10
4102.0507338268025
 20
104.42521185597115
 11
4102.0507338268025
 21
204.42521185597115
  0
LINE
  8
_f-8_
  6
CONTINUOUS
 62
    7
 10
2712.0507338268021
 20
204.42521185597115
 11
4102.0507338268025
 21
204.42521185597115
  0
LINE
  8
_f-8_
  6
CONTINUOUS
 62
    7
 10
162.05073382680211
 20
154.42521185597115
 11
602.05073382680154
 21
154.42521185597115
  0
LINE
  8
ADD_LINE
  6
DOT
 62
    9
 10
622.05073382680154
 20
184.42521185597115
 11
2202.0507338268016
 21
184.42521185597115
  0
LINE
  8
ADD_LINE
  6
DOT
 62
    9
 10
647.05073382680154
 20
104.42521185597115
 11
647.05073382680154
 21
204.42521185597115
  0
LINE
  8
ADD_LINE
  6
DOT
 62
    9
 10
1437.0507338268016
 20
104.42521185597115
 11
1437.0507338268016
 21
204.42521185597115
  0
LINE
  8
ADD_LINE
  6
DOT
 62
    9
 10
2737.0507338268021
 20
104.42521185597115
 11
2737.0507338268021
 21
204.42521185597115
  0
LINE
  8
ADD_LINE
  6
DOT
 62
    9
 10
3037.0507338268021
 20
104.42521185597115
 11
3037.0507338268021
 21
204.42521185597115
  0
LINE
  8
ADD_LINE
  6
DOT
 62
    9
 10
3337.0507338268021
 20
104.42521185597115
 11
3337.0507338268021
 21
204.42521185597115
  0
LINE
  8
ADD_LINE
  6
DOT
 62
    9
 10
3717.0507338268021
 20
104.42521185597115
 11
3717.0507338268021
 21
204.42521185597115
  0
LINE
  8
ADD_LINE
  6
DOT
 62
    9
 10
2712.0507338268021
 20
184.42521185597115
 11
4102.0507338268025
 21
184.42521185597115
  0
LINE
  8
ADD_LINE
  6
DOT
 62
    9
 10
2712.0507338268021
 20
144.42521185597115
 11
4102.0507338268025
 21
144.42521185597115
  0
TEXT
  8
_f-8_
 62
    7
 10
647.05073382680041
 20
171.92521185597115
 40
25
 41
0.8
 50
0
  1
名　称
  0
TEXT
  8
_f-8_
 62
    7
 10
1437.0507338268025
 20
171.92521185597115
 40
25
 41
0.8
 50
0
  1
図面名称
  0
TEXT
  8
_f-8_
 62
    7
 10
2737.0507338268016
 20
171.92521185597115
 40
25
 41
0.64
 50
0
  1
ＳＣＡＬＥ
  0
LINE
  8
ADD_LINE
  6
DOT
 62
    9
 10
3672.0507338268021
 20
104.42521185597115
 11
3672.0507338268021
 21
204.42521185597115
  0
TEXT
  8
_f-8_
 62
    7
 10
3037.0507338268021
 20
171.92521185597115
 40
25
 41
0.64
 50
0
  1
ＤＡＴＡ
  0
TEXT
  8
_f-8_
 62
    7
 10
3717.0507338268021
 20
171.92521185597115
 40
25
 41
0.64
 50
0
  1
ＳＨＥＥＴ　ＮＯ．
  0
TEXT
  8
_f-8_
 62
    7
 10
2824.007169387964
 20
125.15256180468327
 40
35
 41
0.5714285714285713
 50
0
  1
１／１０
  0
TEXT
  8
_f-8_
 62
    7
 10
3337.0507338268021
 20
171.92521185597115
 40
25
 41
0.64
 50
0
  1
ＣＨＥＣＫＥＤ
  0
TEXT
  8
_f-8_
 62
    7
 10
3554.0507338268025
 20
171.92521185597115
 40
25
 41
0.64
 50
0
  1
ＤＲＡＷＩＮＧ
  0
POINT
  8
_0-9_ラッチ断面__受け
 62
    3
 10
2287.8570920036445
 20
1535.2410513398299
  0
POINT
  8
_0-9_ラッチ断面__受け
 62
    4
 10
1929.8570920036443
 20
1535.2410513398299
  0
POINT
  8
_0-9_ラッチ断面__受け
 62
    3
 10
1929.8570920036443
 20
1535.2410513398299
  0
POINT
  8
_0-9_ラッチ断面__受け
 62
    3
 10
2287.857092003644
 20
1535.2410513398299
  0
LINE
  8
_0-9_ラッチ断面__受け
  6
CONTINUOUS
 62
    4
 10
1929.8570920036443
 20
1535.2410513398299
 11
2287.857092003644
 21
1535.2410513398299
  0
TEXT
  8
_0-9_ラッチ断面__受け
 62
    7
 10
2075.7570920036441
 20
1540.2410513398299
 40
35
 41
0.6285714285714286
 50
0
  1
３５８
  0
POINT
  8
_0-9_ラッチ断面__受け
 62
    4
 10
2287.8570920036445
 20
1455.2410513398299
  0
LINE
  8
_0-7_寸法
  6
CONTINUOUS
 62
    4
 10
2287.8570920036445
 20
1455.2410513398299
 11
1945.8570920036438
 21
1455.2410513398299
  0
TEXT
  8
_0-9_ラッチ断面__受け
 62
    7
 10
2083.7570920036441
 20
1460.2410513398299
 40
35
 41
0.6285714285714286
 50
0
  1
３４２
  0
POINT
  8
_0-9_ラッチ断面__受け
 62
    3
 10
1945.8570920036438
 20
1455.2410513398299
  0
POINT
  8
_0-9_ラッチ断面__受け
 62
    3
 10
2287.8570920036445
 20
1455.2410513398299
  0
LINE
  8
_0-9_ラッチ断面__受け
  6
CONTINUOUS
 62
    4
 10
2287.8570920036445
 20
1545.2410513398299
 11
2287.8570920036445
 21
1375.2410513398303
  0
LINE
  8
_0-9_ラッチ断面__受け
  6
CONTINUOUS
 62
    4
 10
1929.8570920036443
 20
1545.2410513398299
 11
1929.8570920036443
 21
1375.2410513398303
  0
LINE
  8
_0-9_ラッチ断面__受け
  6
CONTINUOUS
 62
    4
 10
2287.8570920036445
 20
1545.2410513398299
 11
2287.8570920036445
 21
1375.2410513398303
  0
LINE
  8
_0-9_ラッチ断面__受け
  6
CONTINUOUS
 62
    4
 10
2287.8570920036445
 20
1545.2410513398299
 11
2287.8570920036445
 21
1375.2410513398303
  0
LINE
  8
_0-9_ラッチ断面__受け
  6
CONTINUOUS
 62
    4
 10
1945.8570920036438
 20
1465.2410513398299
 11
1945.8570920036438
 21
1375.2410513398303
  0
TEXT
  8
_f-8_
 62
    7
 10
1543.9148936170213
 20
121.36936912965978
 40
45
 41
0.6666666666666666
 50
0
  1
ＫＴＤ３－６０－１０５ＨＳ
  0
TEXT
  8
_f-8_
 62
    7
 10
3037.0507338268021
 20
126.92521185597115
 40
35
 41
0.5714285714285713
 50
0
  1
２０２３．０５．０１
  0
TEXT
  8
_f-8_
 62
    7
 10
3581.3999923154451
 20
129.42521185597115
 40
30
 41
0.7333333333333333
 50
0
  1
Ｔ．Ｋ
  0
TEXT
  8
_0-9_ラッチ断面__受け
 62
    7
 10
1508.3259846084201
 20
682.31998641919415
 40
35
 41
0.6285714285714286
 50
90
  1
１５
  0
LINE
  8
_0-9_ラッチ断面__受け
  6
CONTINUOUS
 62
    4
 10
1512.8247627124028
 20
730.24105133983016
 11
1512.8247627124028
 21
687.80238795835214
  0
TEXT
  8
_f-8_
 62
    7
 10
690.51725514195197
 20
121.36936912965978
 40
45
 41
0.8
 50
0
  1
吊り戸棚　高さ６０ｃｍタイプ
  0
LINE
  8
ADD_LINE
  6
DOT
 62
    9
 10
4112.7167019027483
 20
2853.7632135306557
 11
4127.7167019027483
 21
2853.7632135306557
  0
LINE
  8
ADD_LINE
  6
DOT
 62
    9
 10
4127.7167019027483
 20
2853.7632135306557
 11
4127.7167019027483
 21
2868.7632135306557
  0
LINE
  8
ADD_LINE
  6
DOT
 62
    9
 10
4127.7167019027483
 20
2868.7632135306557
 11
4112.7167019027483
 21
2868.7632135306557
  0
LINE
  8
ADD_LINE
  6
DOT
 62
    9
 10
4112.7167019027483
 20
2868.7632135306557
 11
4112.7167019027483
 21
2853.7632135306557
  0
LINE
  8
_0-d_ラッチ平面__扉側
  6
CONTINUOUS
 62
    7
 10
4112.7167019027483
 20
2293.7632135306548
 11
2832.4595048283417
 21
2293.7632135306548
  0
TEXT
  8
_0-d_ラッチ平面__扉側
 62
    7
 10
3277.9600048283427
 20
2803.7632135306557
 40
35
 41
0.857142857142857
 50
0
  1
仕　様
  0
LINE
  8
_0-d_ラッチ平面__扉側
  6
CONTINUOUS
 62
    3
 10
4112.7167019027483
 20
2853.7632135306557
 11
2832.4595048283417
 21
2853.7632135306557
  0
TEXT
  8
_0-d_ラッチ平面__扉側
 62
    7
 10
2912.3122758718463
 20
2733.4432167003151
 40
35
 41
0.857142857142857
 50
0
  1
天　板
  0
TEXT
  8
_0-d_ラッチ平面__扉側
 62
    7
 10
3172.4595048283417
 20
2731.2632135306548
 40
35
 41
0.857142857142857
 50
0
  1
片面化粧パーティクルボード　１５ｔ
  0
LINE
  8
_0-d_ラッチ平面__扉側
  6
CONTINUOUS
 62
    3
 10
2832.4595048283417
 20
2223.7632135306548
 11
4112.7167019027483
 21
2223.7632135306548
  0
LINE
  8
_0-d_ラッチ平面__扉側
  6
CONTINUOUS
 62
    7
 10
4112.7167019027483
 20
2573.7632135306548
 11
2832.4595048283417
 21
2573.7632135306548
  0
LINE
  8
_0-d_ラッチ平面__扉側
  6
CONTINUOUS
 62
    7
 10
4112.7167019027483
 20
2503.7632135306548
 11
2832.4595048283417
 21
2503.7632135306548
  0
LINE
  8
_0-d_ラッチ平面__扉側
  6
CONTINUOUS
 62
    7
 10
4112.7167019027483
 20
2433.7632135306548
 11
2832.4595048283417
 21
2433.7632135306548
  0
LINE
  8
_0-d_ラッチ平面__扉側
  6
CONTINUOUS
 62
    7
 10
4112.7167019027483
 20
2363.7632135306548
 11
2832.4595048283417
 21
2363.7632135306548
  0
LINE
  8
_0-d_ラッチ平面__扉側
  6
CONTINUOUS
 62
    7
 10
4112.7167019027483
 20
2643.7632135306548
 11
2832.4595048283417
 21
2643.7632135306548
  0
LINE
  8
_0-d_ラッチ平面__扉側
  6
CONTINUOUS
 62
    7
 10
4112.7167019027483
 20
2713.7632135306548
 11
2832.4595048283417
 21
2713.7632135306548
  0
LINE
  8
_0-d_ラッチ平面__扉側
  6
CONTINUOUS
 62
    7
 10
4112.7167019027483
 20
2783.7632135306557
 11
2832.4595048283417
 21
2783.7632135306557
  0
LINE
  8
_0-d_ラッチ平面__扉側
  6
CONTINUOUS
 62
    7
 10
4112.7167019027483
 20
2788.7632135306557
 11
2832.4595048283417
 21
2788.7632135306557
  0
TEXT
  8
_0-d_ラッチ平面__扉側
 62
    7
 10
2912.4595048283408
 20
2661.2632135306548
 40
35
 41
0.857142857142857
 50
0
  1
左　側　板
  0
TEXT
  8
_0-d_ラッチ平面__扉側
 62
    7
 10
3172.4595048283417
 20
2661.2632135306548
 40
35
 41
0.857142857142857
 50
0
  1
低圧メラミン化粧パーティクルボード　１２ｔ
  0
TEXT
  8
_0-d_ラッチ平面__扉側
 62
    7
 10
3173.4393824625249
 20
2592.4775512727633
 40
35
 41
0.857142857142857
 50
0
  1
低圧メラミン化粧パーティクルボード　１２ｔ
  0
TEXT
  8
_0-d_ラッチ平面__扉側
 62
    7
 10
2912.4595048283408
 20
2591.2632135306548
 40
35
 41
0.857142857142857
 50
0
  1
右　側　板
  0
TEXT
  8
_0-d_ラッチ平面__扉側
 62
    7
 10
2912.4595048283408
 20
2521.2632135306548
 40
35
 41
0.857142857142857
 50
0
  1
見　上　板
  0
TEXT
  8
_0-d_ラッチ平面__扉側
 62
    7
 10
3172.4595048283417
 20
2521.2632135306548
 40
35
 41
0.857142857142857
 50
0
  1
低圧メラミン化粧パーティクルボード　１５ｔ
  0
TEXT
  8
_0-d_ラッチ平面__扉側
 62
    7
 10
2912.4595048283413
 20
2451.2632135306548
 40
35
 41
0.857142857142857
 50
0
  1
背　板
  0
LINE
  8
ADD_LINE
  6
DOT
 62
    9
 10
2833.6960272785609
 20
2821.2632135306557
 11
4112.7167019027483
 21
2821.2632135306557
  0
LINE
  8
ADD_LINE
  6
DOT
 62
    9
 10
3324.9600048283418
 20
2853.7632135306557
 11
3324.9600048283418
 21
2788.7632135306557
  0
LINE
  8
ADD_LINE
  6
DOT
 62
    9
 10
2835.325099543048
 20
2748.7632135306548
 11
4112.7167019027483
 21
2748.7632135306548
  0
LINE
  8
ADD_LINE
  6
DOT
 62
    9
 10
2835.325099543048
 20
2678.7632135306548
 11
4112.7167019027483
 21
2678.7632135306548
  0
LINE
  8
ADD_LINE
  6
DOT
 62
    9
 10
2833.6960272785609
 20
2608.7632135306548
 11
4112.7167019027483
 21
2608.7632135306548
  0
LINE
  8
ADD_LINE
  6
DOT
 62
    9
 10
2833.6960272785609
 20
2538.7632135306548
 11
4112.7167019027483
 21
2538.7632135306548
  0
LINE
  8
ADD_LINE
  6
DOT
 62
    9
 10
2833.6960272785609
 20
2468.7632135306548
 11
4112.7167019027483
 21
2468.7632135306548
  0
LINE
  8
ADD_LINE
  6
DOT
 62
    9
 10
2833.6960272785609
 20
2398.7632135306548
 11
4112.7167019027483
 21
2398.7632135306548
  0
LINE
  8
ADD_LINE
  6
DOT
 62
    9
 10
2833.6960272785609
 20
2328.7632135306548
 11
4112.7167019027483
 21
2328.7632135306548
  0
LINE
  8
ADD_LINE
  6
DOT
 62
    9
 10
2832.4595048283417
 20
2258.7632135306548
 11
4112.7167019027483
 21
2258.7632135306548
  0
LINE
  8
_0-d_ラッチ平面__扉側
  6
CONTINUOUS
 62
    7
 10
4112.7167019027483
 20
2223.7632135306548
 11
2832.4595048283417
 21
2223.7632135306548
  0
LINE
  8
_0-d_ラッチ平面__扉側
  6
CONTINUOUS
 62
    3
 10
2832.4595048283417
 20
2153.7632135306548
 11
4112.7167019027483
 21
2153.7632135306548
  0
LINE
  8
ADD_LINE
  6
DOT
 62
    9
 10
2832.4595048283417
 20
2188.7632135306548
 11
4112.7167019027483
 21
2188.7632135306548
  0
LINE
  8
_0-d_ラッチ平面__扉側
  6
CONTINUOUS
 62
    3
 10
2832.4595048283417
 20
2853.7632135306557
 11
2832.4595048283417
 21
2153.7632135306548
  0
LINE
  8
_0-d_ラッチ平面__扉側
  6
CONTINUOUS
 62
    3
 10
4112.7167019027483
 20
2853.7632135306557
 11
4112.7167019027483
 21
2153.7632135306548
  0
LINE
  8
_0-d_ラッチ平面__扉側
  6
CONTINUOUS
 62
    7
 10
3132.4595048283417
 20
2783.7632135306557
 11
3132.4595048283417
 21
2153.7632135306548
  0
LINE
  8
ADD_LINE
  6
DOT
 62
    9
 10
2912.4595048283413
 20
2783.7632135306557
 11
2912.4595048283413
 21
2153.7632135306548
  0
LINE
  8
ADD_LINE
  6
DOT
 62
    9
 10
3172.4595048283417
 20
2783.7632135306557
 11
3172.4595048283417
 21
2153.7632135306548
  0
TEXT
  8
_0-d_ラッチ平面__扉側
 62
    7
 10
3172.4595048283413
 20
2451.2632135306548
 40
35
 41
0.857142857142857
 50
0
  1
カラーＭＤＦ・落とし込み
  0
TEXT
  8
_0-d_ラッチ平面__扉側
 62
    7
 10
2912.4595048283426
 20
2381.2632135306548
 40
35
 41
0.857142857142857
 50
0
  1
　扉
  0
TEXT
  8
_0-d_ラッチ平面__扉側
 62
    7
 10
3172.4595048283426
 20
2381.2632135306548
 40
35
 41
0.857142857142857
 50
0
  1
両面化粧パ－ティクルボ－ド　１２ｔ　耐震ラッチ付
  0
TEXT
  8
_0-d_ラッチ平面__扉側
 62
    7
 10
2912.4595048283413
 20
2311.2632135306548
 40
35
 41
0.857142857142857
 50
0
  1
丁　番
  0
TEXT
  8
_0-d_ラッチ平面__扉側
 62
    7
 10
3172.4595048283413
 20
2311.2632135306548
 40
35
 41
0.857142857142857
 50
0
  1
ワンタッチスライド式丁番
  0
TEXT
  8
_0-d_ラッチ平面__扉側
 62
    7
 10
2912.4595048283413
 20
2241.2632135306548
 40
35
 41
0.857142857142857
 50
0
  1
棚　板
  0
TEXT
  8
_0-d_ラッチ平面__扉側
 62
    7
 10
3172.4595048283413
 20
2241.2632135306548
 40
35
 41
0.857142857142857
 50
0
  1
可動式　棚板　１５ｔ
  0
TEXT
  8
_0-d_ラッチ平面__扉側
 62
    7
 10
2912.4595048283413
 20
2171.2632135306548
 40
35
 41
0.857142857142857
 50
0
  1
把　手
  0
TEXT
  8
_0-d_ラッチ平面__扉側
 62
    7
 10
3172.4595048283413
 20
2171.2632135306548
 40
35
 41
0.857142857142857
 50
0
  1
アルミ一文字把手
  0
LINE
  8
ADD_LINE
  6
DOT
 62
    9
 10
3697.9588223290693
 20
2153.7632135306548
 11
3682.9588223290693
 21
2153.7632135306548
  0
ENDSEC
  0
EOF
