  0
SECTION
  2
HEADER
  9
$ACADVER
  1
AC1009
  9
$INSBASE
 10
0
 20
0
 30
0
  9
$EXTMIN
 10
0
 20
0
  9
$EXTMAX
 10
4200
 20
2970
  9
$LIMMIN
 10
0
 20
0
  9
$LIMMAX
 10
4200
 20
2970
  9
$LTSCALE
 40
10
  0
ENDSEC
  0
SECTION
  2
TABLES
  0
TABLE
  2
LTYPE
 70
     9
  0
LTYPE
  2
CONTINUOUS
 70
    64
  3
実線
 72
    65
 73
     0
 40
0.0
  0
LTYPE
  2
DASHED1
 70
    64
  3
--  --  --  --  --  --  --  --  
 72
    65
 73
     2
 40
2.5
 49
1.25
 49
-1.25
  0
LTYPE
  2
DASHED2
 70
    64
  3
----    ----    ----    ----    
 72
    65
 73
     2
 40
5.0
 49
2.5
 49
-2.5
  0
LTYPE
  2
DASHED3
 70
    64
  3
------  ------  ------  ------  
 72
    65
 73
     2
 40
5.0
 49
3.75
 49
-1.25
  0
LTYPE
  2
CENTER1
 70
    64
  3
----- - ----- - ----- - ----- - 
 72
    65
 73
     4
 40
10.0
 49
6.25
 49
-1.25
 49
1.25
 49
-1.25
  0
LTYPE
  2
CENTER2
 70
    64
  3
----------  --  ----------  --  
 72
    65
 73
     4
 40
20.0
 49
12.5
 49
-2.5
 49
2.5
 49
-2.5
  0
LTYPE
  2
PHANTOM1
 70
    64
  3
--- - - --- - - --- - - --- - - 
 72
    65
 73
     6
 40
10.0
 49
3.25
 49
-1.25
 49
1.25
 49
-1.25
 49
1.25
 49
-1.25
  0
LTYPE
  2
PHANTOM2
 70
    64
  3
--------  -  -  --------  -  -  
 72
    65
 73
     6
 40
20.0
 49
10.0
 49
-2.5
 49
1.25
 49
-2.5
 49
1.25
 49
-2.5
  0
LTYPE
  2
DOT
 70
    64
  3
-   -   -   -   -   -   -   -   
 72
    65
 73
     2
 40
2.5
 49
0.625
 49
-1.875
  0
LTYPE
  2
DUMMY
 70
    64
  3
ダミー
 72
    65
 73
     0
 40
0.0
  0
LTYPE
  2
RAND1
 70
    64
  3
ランダム線1
 72
    65
 73
     4
 40
10.0
 49
1.0
 49
-2.0
 49
3.0
 49
-4.0
  0
LTYPE
  2
RAND2
 70
    64
  3
ランダム線2
 72
    65
 73
     4
 40
14.0
 49
2.0
 49
-3.0
 49
4.0
 49
-5.0
  0
LTYPE
  2
RAND3
 70
    64
  3
ランダム線3
 72
    65
 73
     4
 40
18.0
 49
3.0
 49
-4.0
 49
5.0
 49
-6.0
  0
LTYPE
  2
RAND4
 70
    64
  3
ランダム線4
 72
    65
 73
     4
 40
22.0
 49
4.0
 49
-5.0
 49
6.0
 49
-7.0
  0
LTYPE
  2
RAND5
 70
    64
  3
ランダム線5
 72
    65
 73
     4
 40
26.0
 49
5.0
 49
-6.0
 49
7.0
 49
-8.0
  0
LTYPE
  2
LONG1
 70
    64
  3
----------  --  ----------  --  
 72
    65
 73
     4
 40
40.0
 49
32.5
 49
-2.5
 49
2.5
 49
-2.5
  0
LTYPE
  2
LONG2
 70
    64
  3
--------  -  -  --------  -  -  
 72
    65
 73
     6
 40
40.0
 49
30.0
 49
-2.5
 49
1.25
 49
-2.5
 49
1.25
 49
-2.5
  0
LTYPE
  2
LONG3
 70
    64
  3
+++++++++++++++..+++++++++++++++
 72
    65
 73
     2
 40
40.0
 49
37.5
 49
-2.5
  0
LTYPE
  2
LONG4
 70
    64
  3
+++++++++++++++..+++++++++++++++
 72
    65
 73
     2
 40
80.0
 49
75.0
 49
-5.0
  0
LTYPE
  2
LONG5
 70
    64
  3
----------  --  ----------  --  
 72
    65
 73
     4
 40
60.0
 49
37.5
 49
-7.5
 49
7.5
 49
-7.5
  0
LTYPE
  2
dashed
 70
   64
  3
-------   -------------   ------
 72
   65
 73
    2
 40
7.5
 49
6
 49
-1.5
  0
LTYPE
  2
dashed_spaced
 70
   64
  3
----        --------        ----
 72
   65
 73
    2
 40
12
 49
6
 49
-6
  0
LTYPE
  2
long_dashed_dotted
 70
   64
  3
------------- --- --------------
 72
   65
 73
    4
 40
15.25
 49
12
 49
-1.5
 49
0.25
 49
-1.5
  0
LTYPE
  2
long_dashed_double-dotted
 70
   64
  3
----------- --- --- ------------
 72
   65
 73
    6
 40
17
 49
12
 49
-1.5
 49
0.25
 49
-1.5
 49
0.25
 49
-1.5
  0
LTYPE
  2
long_dashed_triplicate-dotted
 70
   64
  3
--------- --- --- --- ----------
 72
   65
 73
    8
 40
18.75
 49
12
 49
-1.5
 49
0.25
 49
-1.5
 49
0.25
 49
-1.5
 49
0.25
 49
-1.5
  0
LTYPE
  2
dotted
 70
   64
  3
   -       -       -       -    
 72
   65
 73
    2
 40
1.75
 49
0.25
 49
-1.5
  0
LTYPE
  2
chain
 70
   64
  3
-------------- -- --------------
 72
   65
 73
    4
 40
18.5
 49
12
 49
-1.5
 49
3.5
 49
-1.5
  0
LTYPE
  2
chain_double_dash
 70
   64
  3
------------ -- -- -------------
 72
   65
 73
    6
 40
23.5
 49
12
 49
-1.5
 49
3.5
 49
-1.5
 49
3.5
 49
-1.5
  0
LTYPE
  2
dashed_dotted
 70
   64
  3
-----------     -     ----------
 72
   65
 73
    4
 40
9.25
 49
6
 49
-1.5
 49
0.25
 49
-1.5
  0
LTYPE
  2
double-dashed_dotted
 70
   64
  3
------   -----------   -   -----
 72
   65
 73
    6
 40
16.75
 49
6
 49
-1.5
 49
6
 49
-1.5
 49
0.25
 49
-1.5
  0
LTYPE
  2
dashed_double-dotted
 70
   64
  3
---------    -    -    ---------
 72
   65
 73
    6
 40
11
 49
6
 49
-1.5
 49
0.25
 49
-1.5
 49
0.25
 49
-1.5
  0
LTYPE
  2
double-dashed_double-dotted
 70
   64
  3
-----   ---------   -   -   ----
 72
   65
 73
    8
 40
18.5
 49
6
 49
-1.5
 49
6
 49
-1.5
 49
0.25
 49
-1.5
 49
0.25
 49
-1.5
  0
LTYPE
  2
dashed_triplicate-dotted
 70
   64
  3
-------    -    -    -    ------
 72
   65
 73
    8
 40
12.75
 49
6
 49
-1.5
 49
0.25
 49
-1.5
 49
0.25
 49
-1.5
 49
0.25
 49
-1.5
  0
LTYPE
  2
double-dashed_triplicate-dotted
 70
   64
  3
-----  ---------  -  -  -  -----
 72
   65
 73
   10
 40
20.25
 49
6
 49
-1.5
 49
6
 49
-1.5
 49
0.25
 49
-1.5
 49
0.25
 49
-1.5
 49
0.25
 49
-1.5
  0
LTYPE
  2
undefined
 70
   64
  3
--------------------------------
 72
   65
 73
    0
 40
0
  0
LTYPE
  2
_
 70
   64
  3
                                
 72
   65
 73
    0
 40
0
  0
LTYPE
  2
__18
 70
   64
  3
                                
 72
   65
 73
    0
 40
0
  0
LTYPE
  2
__19
 70
   64
  3
                                
 72
   65
 73
    0
 40
0
  0
LTYPE
  2
__20
 70
   64
  3
                                
 72
   65
 73
    0
 40
0
  0
LTYPE
  2
__21
 70
   64
  3
                                
 72
   65
 73
    0
 40
0
  0
LTYPE
  2
__22
 70
   64
  3
                                
 72
   65
 73
    0
 40
0
  0
LTYPE
  2
__23
 70
   64
  3
                                
 72
   65
 73
    0
 40
0
  0
LTYPE
  2
__24
 70
   64
  3
                                
 72
   65
 73
    0
 40
0
  0
LTYPE
  2
__25
 70
   64
  3
                                
 72
   65
 73
    0
 40
0
  0
LTYPE
  2
__26
 70
   64
  3
                                
 72
   65
 73
    0
 40
0
  0
LTYPE
  2
__27
 70
   64
  3
                                
 72
   65
 73
    0
 40
0
  0
LTYPE
  2
__28
 70
   64
  3
                                
 72
   65
 73
    0
 40
0
  0
LTYPE
  2
__29
 70
   64
  3
                                
 72
   65
 73
    0
 40
0
  0
LTYPE
  2
__30
 70
   64
  3
                                
 72
   65
 73
    0
 40
0
  0
LTYPE
  2
__31
 70
   64
  3
                                
 72
   65
 73
    0
 40
0
  0
LTYPE
  2
__32
 70
   64
  3
                                
 72
   65
 73
    0
 40
0
  0
ENDTAB
  0
TABLE
  2
STYLE
  5
3
100
AcDbSymbolTable
 70
     1
  0
STYLE
  5
10
100
AcDbSymbolTableRecord
100
AcDbTextStyleTableRecord
  2
STANDARD
 70
     0
 40
0.0
 41
1.0
 50
0.0
 71
     0
 42
0.2
  3
txt
  4
bigfont.shx
  0
STYLE
  5
26
100
AcDbSymbolTableRecord
100
AcDbTextStyleTableRecord
  2
TATEGAKI
 70
    68
 40
0.0
 41
1.0
 50
0.0
 71
     0
 42
1.0
  3
txt
  4
bigfont.shx
  0
ENDTAB
  0
TABLE
  2
LAYER
 70
   15
  0
LAYER
  2
_0-2_
 70
   64
 62
    7
  6
CONTINUOUS
  0
LAYER
  2
_0-3_
 70
   64
 62
    7
  6
CONTINUOUS
  0
LAYER
  2
_0-4_
 70
   64
 62
    7
  6
CONTINUOUS
  0
LAYER
  2
_0-8_
 70
   64
 62
    7
  6
CONTINUOUS
  0
LAYER
  2
_0-9_
 70
   64
 62
    7
  6
CONTINUOUS
  0
LAYER
  2
_0-d_
 70
   64
 62
    7
  6
CONTINUOUS
  0
LAYER
  2
_e-0_
 70
   64
 62
    7
  6
CONTINUOUS
  0
LAYER
  2
_f-0_
 70
   64
 62
    7
  6
CONTINUOUS
  0
LAYER
  2
_f-7_
 70
   64
 62
    7
  6
CONTINUOUS
  0
LAYER
  2
_f-8_
 70
   64
 62
    7
  6
CONTINUOUS
  0
LAYER
  2
_f-9_
 70
   64
 62
    7
  6
CONTINUOUS
  0
LAYER
  2
_f-d_固定文字
 70
   64
 62
    7
  6
CONTINUOUS
  0
LAYER
  2
_f-e_
 70
   64
 62
    7
  6
CONTINUOUS
  0
LAYER
  2
_f-f_図面枠
 70
   64
 62
    7
  6
CONTINUOUS
  0
LAYER
  2
ADD_LINE
 70
   64
 62
    7
  6
CONTINUOUS
  0
ENDTAB
  0
ENDSEC
  0
SECTION
  2
BLOCKS
  0
ENDSEC
  0
SECTION
  2
ENTITIES
  0
LINE
  8
_0-9_
  6
CONTINUOUS
 62
    4
 10
1004
 20
470
 11
1004
 21
557.24264540409626
  0
POINT
  8
_0-9_
 62
    4
 10
1004
 20
480
  0
LINE
  8
ADD_LINE
  6
DOT
 62
    9
 10
149.98500000000007
 20
100
 11
149.98500000000007
 21
65
  0
LINE
  8
ADD_LINE
  6
DOT
 62
    9
 10
179.98500000000007
 20
100
 11
179.98500000000007
 21
65.000000646005844
  0
LINE
  8
ADD_LINE
  6
DOT
 62
    9
 10
150.01499999999992
 20
65
 11
120.02999999999985
 21
65
  0
LINE
  8
ADD_LINE
  6
DOT
 62
    9
 10
74.98500000000007
 20
55
 11
4144.9850000000005
 21
55
  0
LINE
  8
ADD_LINE
  6
DOT
 62
    9
 10
4130
 20
100
 11
4130
 21
65.00000323002979
  0
LINE
  8
ADD_LINE
  6
DOT
 62
    9
 10
4100
 20
100
 11
4100
 21
65.00000323002979
  0
LINE
  8
ADD_LINE
  6
DOT
 62
    9
 10
4070
 20
100
 11
4070
 21
65.00000323002979
  0
LINE
  8
ADD_LINE
  6
DOT
 62
    9
 10
4040
 20
100
 11
4040
 21
65.00000323002979
  0
LINE
  8
ADD_LINE
  6
DOT
 62
    9
 10
4010
 20
100
 11
4010
 21
65.00000323002979
  0
LINE
  8
ADD_LINE
  6
DOT
 62
    9
 10
3980
 20
100
 11
3980
 21
65
  0
LINE
  8
ADD_LINE
  6
DOT
 62
    9
 10
74.98500000000007
 20
2875
 11
74.98500000000007
 21
55
  0
LINE
  8
ADD_LINE
  6
DOT
 62
    9
 10
120.02999999999985
 20
65
 11
120.02999999999985
 21
2860
  0
LINE
  8
ADD_LINE
  6
DOT
 62
    9
 10
4144.9850000000005
 20
2875
 11
74.98500000000007
 21
2875
  0
LINE
  8
ADD_LINE
  6
DOT
 62
    9
 10
4144.9850000000005
 20
55
 11
4144.9850000000005
 21
2875
  0
LINE
  8
_f-9_
  6
CONTINUOUS
 62
    7
 10
630
 20
120
 11
630
 21
220
  0
LINE
  8
ADD_LINE
  6
DOT
 62
    9
 10
170
 20
120
 11
170
 21
220
  0
LINE
  8
ADD_LINE
  6
DOT
 62
    9
 10
610
 20
120
 11
610
 21
220
  0
LINE
  8
_f-9_
  6
CONTINUOUS
 62
    7
 10
170
 20
120
 11
610
 21
120
  0
LINE
  8
_f-9_
  6
CONTINUOUS
 62
    7
 10
170
 20
220
 11
610
 21
220
  0
LINE
  8
_f-9_
  6
CONTINUOUS
 62
    7
 10
1420
 20
120
 11
1420
 21
220
  0
LINE
  8
_f-9_
  6
CONTINUOUS
 62
    7
 10
2210
 20
120
 11
2210
 21
220
  0
LINE
  8
_f-9_
  6
CONTINUOUS
 62
    7
 10
2220
 20
120
 11
2220
 21
220
  0
LINE
  8
_f-9_
  6
CONTINUOUS
 62
    7
 10
630
 20
120
 11
2210
 21
120
  0
LINE
  8
_f-9_
  6
CONTINUOUS
 62
    7
 10
630
 20
220
 11
2210
 21
220
  0
LINE
  8
_f-9_
  6
CONTINUOUS
 62
    7
 10
2710
 20
120
 11
2710
 21
220
  0
LINE
  8
_f-9_
  6
CONTINUOUS
 62
    7
 10
2720
 20
120
 11
2720
 21
220
  0
LINE
  8
_f-9_
  6
CONTINUOUS
 62
    7
 10
2220
 20
120
 11
2710
 21
120
  0
LINE
  8
_f-9_
  6
CONTINUOUS
 62
    7
 10
2220
 20
220
 11
2710
 21
220
  0
LINE
  8
_f-9_
  6
CONTINUOUS
 62
    7
 10
3020
 20
120
 11
3020
 21
220
  0
LINE
  8
_f-9_
  6
CONTINUOUS
 62
    7
 10
3320
 20
120
 11
3320
 21
220
  0
LINE
  8
_f-9_
  6
CONTINUOUS
 62
    7
 10
3700
 20
120
 11
3700
 21
220
  0
LINE
  8
_f-9_
  6
CONTINUOUS
 62
    7
 10
2720
 20
120
 11
4110
 21
120
  0
LINE
  8
_f-9_
  6
CONTINUOUS
 62
    7
 10
4110
 20
120
 11
4110
 21
220
  0
LINE
  8
_f-9_
  6
CONTINUOUS
 62
    7
 10
2720
 20
220
 11
4110
 21
220
  0
LINE
  8
_f-f_図面枠
  6
CONTINUOUS
 62
  230
 10
4130
 20
2860
 11
4130
 21
100
  0
LINE
  8
_f-f_図面枠
  6
CONTINUOUS
 62
  230
 10
150
 20
2860
 11
4130
 21
2860
  0
LINE
  8
_f-f_図面枠
  6
CONTINUOUS
 62
  230
 10
150
 20
100
 11
4130
 21
100
  0
LINE
  8
_f-f_図面枠
  6
CONTINUOUS
 62
  230
 10
150
 20
100
 11
150
 21
2860
  0
LINE
  8
ADD_LINE
  6
DOT
 62
    9
 10
630
 20
200
 11
2210
 21
200
  0
LINE
  8
ADD_LINE
  6
DOT
 62
    9
 10
2720
 20
200
 11
4110
 21
200
  0
LINE
  8
ADD_LINE
  6
DOT
 62
    9
 10
2740
 20
120
 11
2740
 21
220
  0
LINE
  8
ADD_LINE
  6
DOT
 62
    9
 10
3040
 20
120
 11
3040
 21
220
  0
LINE
  8
ADD_LINE
  6
DOT
 62
    9
 10
3340
 20
120
 11
3340
 21
220
  0
LINE
  8
ADD_LINE
  6
DOT
 62
    9
 10
3720
 20
120
 11
3720
 21
220
  0
LINE
  8
ADD_LINE
  6
DOT
 62
    9
 10
1445
 20
120
 11
1445
 21
220
  0
LINE
  8
ADD_LINE
  6
DOT
 62
    9
 10
655
 20
120
 11
655
 21
220
  0
LINE
  8
ADD_LINE
  6
DOT
 62
    9
 10
3660
 20
120
 11
3660
 21
220
  0
LINE
  8
ADD_LINE
  6
DOT
 62
    9
 10
2720
 20
160
 11
4110
 21
160
  0
TEXT
  8
_f-8_
 62
    7
 10
3040
 20
187.5
 40
25
 41
0.64
 50
0
  1
ＤＡＴＡ
  0
TEXT
  8
_f-8_
 62
    7
 10
3720
 20
187.5
 40
25
 41
0.64
 50
0
  1
ＳＨＥＥＴ　ＮＯ．
  0
TEXT
  8
_f-8_
 62
    7
 10
3542
 20
187.5
 40
25
 41
0.64
 50
0
  1
ＤＲＡＷＩＮＧ
  0
LINE
  8
ADD_LINE
  6
DOT
 62
    9
 10
135
 20
65
 11
135
 21
2860
  0
LINE
  8
_f-9_
  6
CONTINUOUS
 62
    7
 10
170
 20
170
 11
610
 21
170
  0
LINE
  8
ADD_LINE
  6
DOT
 62
    9
 10
2910
 20
120
 11
2910
 21
220
  0
LINE
  8
ADD_LINE
  6
DOT
 62
    9
 10
3170
 20
120
 11
3170
 21
220
  0
LINE
  8
ADD_LINE
  6
DOT
 62
    9
 10
3500
 20
220
 11
3500
 21
120
  0
LINE
  8
ADD_LINE
  6
DOT
 62
    9
 10
630
 20
160
 11
2210
 21
160
  0
LINE
  8
ADD_LINE
  6
DOT
 62
    9
 10
1025
 20
220
 11
1025
 21
120
  0
TEXT
  8
_f-8_
 62
    7
 10
2861
 20
142.5
 40
35
 41
0.5714285714285713
 50
0
  1
１／１０
  0
TEXT
  8
_f-8_
 62
    7
 10
2740.3739840854213
 20
187.46937299484983
 40
25
 41
0.64
 50
0
  1
ＳＣＡＬＥ
  0
TEXT
  8
_f-8_
 62
    7
 10
1445
 20
187.5
 40
25
 41
0.8
 50
0
  1
図面名称
  0
TEXT
  8
_f-8_
 62
    7
 10
655
 20
187.5
 40
25
 41
0.8
 50
0
  1
名　称
  0
LINE
  8
ADD_LINE
  6
DOT
 62
    9
 10
1815
 20
120
 11
1815
 21
220
  0
LINE
  8
_f-8_
  6
CONTINUOUS
 62
    7
 10
2165
 20
2872
 11
2166.15
 21
2874.0000000000004
  0
LINE
  8
_f-8_
  6
CONTINUOUS
 62
    7
 10
2158.6399999999998
 20
2877
 11
2165
 21
2866
  0
LINE
  8
_f-8_
  6
CONTINUOUS
 62
    7
 10
2165
 20
2866
 11
2171.3499999999999
 21
2877
  0
LINE
  8
_f-8_
  6
CONTINUOUS
 62
    7
 10
2165
 20
2860
 11
2176.5399999999999
 21
2880
  0
LINE
  8
_f-8_
  6
CONTINUOUS
 62
    7
 10
2153.4499999999998
 20
2880
 11
2165
 21
2860
  0
LINE
  8
_f-8_
  6
CONTINUOUS
 62
    7
 10
2176.5399999999999
 20
2880
 11
2153.4499999999998
 21
2880
  0
LINE
  8
_f-8_
  6
CONTINUOUS
 62
    7
 10
2163.8400000000001
 20
2874.0000000000004
 11
2165
 21
2872
  0
LINE
  8
_f-8_
  6
CONTINUOUS
 62
    7
 10
2166.15
 20
2874.0000000000004
 11
2163.8400000000001
 21
2874.0000000000004
  0
LINE
  8
_f-8_
  6
CONTINUOUS
 62
    7
 10
2171.3499999999999
 20
2877
 11
2158.6399999999998
 21
2877
  0
LINE
  8
_f-7_
  6
CONTINUOUS
 62
    7
 10
120
 20
1462.6794919243113
 11
120
 21
1497.3205080756886
  0
LINE
  8
_f-7_
  6
CONTINUOUS
 62
    7
 10
120
 20
1497.3205080756886
 11
150
 21
1480
  0
LINE
  8
_f-7_
  6
CONTINUOUS
 62
    7
 10
150
 20
1480
 11
120
 21
1462.6794919243113
  0
LINE
  8
_f-7_
  6
CONTINUOUS
 62
    7
 10
125
 20
1471.3397459621555
 11
125
 21
1488.6602540378444
  0
LINE
  8
_f-7_
  6
CONTINUOUS
 62
    7
 10
125
 20
1488.6602540378444
 11
140
 21
1480
  0
LINE
  8
_f-7_
  6
CONTINUOUS
 62
    7
 10
140
 20
1480
 11
125
 21
1471.3397459621555
  0
LINE
  8
_f-7_
  6
CONTINUOUS
 62
    7
 10
128.99999999999977
 20
1478.2679491924309
 11
128.99999999999977
 21
1481.732050807569
  0
LINE
  8
_f-7_
  6
CONTINUOUS
 62
    7
 10
128.99999999999977
 20
1481.732050807569
 11
132.00000000000045
 21
1480
  0
LINE
  8
_f-7_
  6
CONTINUOUS
 62
    7
 10
132.00000000000045
 20
1480
 11
128.99999999999977
 21
1478.2679491924309
  0
LINE
  8
_f-7_
  6
CONTINUOUS
 62
    7
 10
4160
 20
1462.6794919243113
 11
4160
 21
1497.3205080756886
  0
LINE
  8
_f-7_
  6
CONTINUOUS
 62
    7
 10
4160
 20
1497.3205080756886
 11
4130
 21
1480
  0
LINE
  8
_f-7_
  6
CONTINUOUS
 62
    7
 10
4130
 20
1480
 11
4160
 21
1462.6794919243113
  0
LINE
  8
_f-7_
  6
CONTINUOUS
 62
    7
 10
4155
 20
1471.3397459621555
 11
4155
 21
1488.6602540378444
  0
LINE
  8
_f-7_
  6
CONTINUOUS
 62
    7
 10
4155
 20
1488.6602540378444
 11
4140
 21
1480
  0
LINE
  8
_f-7_
  6
CONTINUOUS
 62
    7
 10
4140
 20
1480
 11
4155
 21
1471.3397459621555
  0
LINE
  8
_f-7_
  6
CONTINUOUS
 62
    7
 10
4151
 20
1478.2679491924309
 11
4151
 21
1481.732050807569
  0
LINE
  8
_f-7_
  6
CONTINUOUS
 62
    7
 10
4151
 20
1481.732050807569
 11
4148
 21
1480
  0
LINE
  8
_f-7_
  6
CONTINUOUS
 62
    7
 10
4148
 20
1480
 11
4151
 21
1478.2679491924309
  0
LINE
  8
ADD_LINE
  6
DOT
 62
    9
 10
1075
 20
220
 11
1075
 21
120
  0
LINE
  8
ADD_LINE
  6
DOT
 62
    9
 10
1865
 20
120
 11
1865
 21
220
  0
TEXT
  8
_f-d_固定文字
 62
    7
 10
149.98500000000007
 20
65
 40
20
 41
1
 50
0
  1
%f
  0
LINE
  8
ADD_LINE
  6
DOT
 62
    9
 10
149.98500000000007
 20
65
 11
179.98500000000007
 21
65.000000646005844
  0
TEXT
  8
_f-d_固定文字
 62
    7
 10
4050
 20
65.00000323002979
 40
20
 41
1
 50
0
  1
%m
  0
TEXT
  8
_f-d_固定文字
 62
    7
 10
4080
 20
65.00000323002979
 40
20
 41
1
 50
0
  1
．
  0
TEXT
  8
_f-d_固定文字
 62
    7
 10
4110
 20
65.00000323002979
 40
20
 41
1
 50
0
  1
%d
  0
LINE
  8
ADD_LINE
  6
DOT
 62
    9
 10
3980
 20
65
 11
4130
 21
65.00000323002979
  0
TEXT
  8
_f-d_固定文字
 62
    7
 10
3990
 20
65.00000323002979
 40
20
 41
1
 50
0
  1
%y
  0
TEXT
  8
_f-d_固定文字
 62
    7
 10
4020
 20
65.00000323002979
 40
20
 41
1
 50
0
  1
．
  0
POINT
  8
_0-9_
 62
    3
 10
2425.6400000000007
 20
1776.5121313760805
  0
LINE
  8
_0-9_
  6
CONTINUOUS
 62
    4
 10
2425.6400000000007
 20
1786.5121313760805
 11
2425.6400000000007
 21
1502.2073875056082
  0
POINT
  8
_0-9_
 62
    3
 10
1300
 20
1635.023002019227
  0
LINE
  8
_0-9_
  6
CONTINUOUS
 62
    4
 10
1300
 20
1645.023002019227
 11
1300
 21
1503.8849441254412
  0
POINT
  8
_0-9_
 62
    3
 10
1601
 20
580
  0
POINT
  8
_0-9_
 62
    3
 10
1601
 20
1379.9999999999997
  0
LINE
  8
_0-9_
  6
CONTINUOUS
 62
    4
 10
1611
 20
580
 11
1331.3913793989086
 21
580
  0
LINE
  8
_0-9_
  6
CONTINUOUS
 62
    4
 10
1611
 20
1379.9999999999997
 11
1331.3913793989086
 21
1379.9999999999997
  0
POINT
  8
_0-9_
 62
    3
 10
1601
 20
1469.9999999999997
  0
LINE
  8
_0-9_
  6
CONTINUOUS
 62
    4
 10
1611
 20
1469.9999999999997
 11
1331.3913793989086
 21
1469.9999999999997
  0
POINT
  8
_0-9_
 62
    3
 10
1521
 20
580
  0
LINE
  8
_0-9_
  6
CONTINUOUS
 62
    4
 10
1531
 20
580
 11
1331.3913793989086
 21
580
  0
LINE
  8
_0-9_
  6
CONTINUOUS
 62
    4
 10
1531
 20
669.99999999999988
 11
1331.3913793989086
 21
669.99999999999988
  0
LINE
  8
_0-9_
  6
CONTINUOUS
 62
    4
 10
1531
 20
1379.9999999999997
 11
1331.3913793989086
 21
1379.9999999999997
  0
LINE
  8
_0-9_
  6
CONTINUOUS
 62
    4
 10
1451
 20
669.99999999999988
 11
1331.3913793989086
 21
669.99999999999988
  0
LINE
  8
_0-9_
  6
CONTINUOUS
 62
    4
 10
1451
 20
674.99999999999988
 11
1331.3913793989086
 21
674.99999999999988
  0
LINE
  8
_0-9_
  6
CONTINUOUS
 62
    4
 10
1601
 20
580
 11
1601
 21
1379.9999999999997
  0
TEXT
  8
_0-9_
 62
    7
 10
1601
 20
946.89999999999986
 40
35
 41
0.6285714285714286
 50
90
  1
８００
  0
LINE
  8
_0-9_
  6
CONTINUOUS
 62
    4
 10
1601
 20
1379.9999999999997
 11
1601
 21
1469.9999999999997
  0
TEXT
  8
_0-9_
 62
    7
 10
1601
 20
1402.9499999999995
 40
35
 41
0.6285714285714286
 50
90
  1
９０
  0
LINE
  8
_0-9_
  6
CONTINUOUS
 62
    4
 10
1521
 20
580
 11
1521
 21
669.99999999999988
  0
TEXT
  8
_0-9_
 62
    7
 10
1521
 20
602.94999999999981
 40
35
 41
0.6285714285714286
 50
90
  1
９０
  0
POINT
  8
_0-9_
 62
    3
 10
2885.6400000000003
 20
1776.5121313760805
  0
LINE
  8
_0-9_
  6
CONTINUOUS
 62
    4
 10
2885.6400000000003
 20
1786.5121313760805
 11
2885.6400000000003
 21
1502.2073875056082
  0
LINE
  8
ADD_LINE
  6
DOT
 62
    9
 10
2885.6399929199224
 20
1776.5121313760805
 11
2939.619510902984
 21
1776.5121313760805
  0
LINE
  8
ADD_LINE
  6
DOT
 62
    9
 10
2885.6399929199224
 20
1696.5121313760805
 11
2939.619510902984
 21
1696.5121313760805
  0
LINE
  8
ADD_LINE
  6
DOT
 62
    9
 10
2885.6399929199224
 20
1616.5121313760805
 11
2939.619510902984
 21
1616.5121313760805
  0
POINT
  8
_0-9_
 62
    3
 10
2860.6400000000003
 20
1696.5121313760805
  0
POINT
  8
_0-9_
 62
    3
 10
2885.6400000000003
 20
1696.5121313760805
  0
LINE
  8
_0-9_
  6
CONTINUOUS
 62
    4
 10
2860.6400000000003
 20
1706.5121313760805
 11
2860.6400000000003
 21
1502.2073875056082
  0
LINE
  8
_0-9_
  6
CONTINUOUS
 62
    4
 10
2885.6400000000003
 20
1706.5121313760805
 11
2885.6400000000003
 21
1502.2073875056082
  0
LINE
  8
_0-9_
  6
CONTINUOUS
 62
    4
 10
2885.6400000000003
 20
1696.5121313760805
 11
2929.6418902811906
 21
1696.5121313760805
  0
LINE
  8
_0-9_
  6
CONTINUOUS
 62
    4
 10
2425.6400000000007
 20
1776.5121313760805
 11
2885.6400000000003
 21
1776.5121313760805
  0
TEXT
  8
_0-9_
 62
    7
 10
2622.5399999999999
 20
1776.5121313760805
 40
35
 41
0.6285714285714286
 50
0
  1
４６０
  0
LINE
  8
_0-9_
  6
CONTINUOUS
 62
    4
 10
2860.6400000000003
 20
1696.5121313760805
 11
2885.6400000000003
 21
1696.5121313760805
  0
TEXT
  8
_0-9_
 62
    7
 10
2885.3097607936683
 20
1696.5121313760805
 40
35
 41
0.6285714285714286
 50
0
  1
２５
  0
POINT
  8
_0-9_
 62
    3
 10
2085.6400000000007
 20
580
  0
POINT
  8
_0-9_
 62
    3
 10
2085.6400000000007
 20
1380
  0
LINE
  8
_0-9_
  6
CONTINUOUS
 62
    4
 10
2075.6400000000007
 20
580
 11
2383.7920228784855
 21
580
  0
LINE
  8
_0-9_
  6
CONTINUOUS
 62
    4
 10
2075.6400000000007
 20
1380
 11
2383.7920228784855
 21
1380
  0
POINT
  8
_0-9_
 62
    3
 10
2165.6400000000007
 20
580
  0
LINE
  8
_0-9_
  6
CONTINUOUS
 62
    4
 10
2155.6400000000007
 20
580
 11
2383.7920228784855
 21
580
  0
LINE
  8
_0-9_
  6
CONTINUOUS
 62
    4
 10
2155.6400000000007
 20
669.99999999999988
 11
2383.7920228784855
 21
669.99999999999988
  0
LINE
  8
_0-9_
  6
CONTINUOUS
 62
    4
 10
2155.6400000000007
 20
1380
 11
2383.7920228784855
 21
1380
  0
LINE
  8
_0-9_
  6
CONTINUOUS
 62
    4
 10
2235.6400000000007
 20
669.99999999999988
 11
2383.7920228784855
 21
669.99999999999988
  0
LINE
  8
_0-9_
  6
CONTINUOUS
 62
    4
 10
2235.6400000000007
 20
674.99999999999988
 11
2383.7920228784855
 21
674.99999999999988
  0
LINE
  8
_0-9_
  6
CONTINUOUS
 62
    4
 10
2085.6400000000007
 20
580
 11
2085.6400000000007
 21
1380
  0
TEXT
  8
_0-9_
 62
    7
 10
2085.6400000000007
 20
946.89999999999997
 40
35
 41
0.6285714285714286
 50
90
  1
８００
  0
LINE
  8
_0-9_
  6
CONTINUOUS
 62
    4
 10
2165.6400000000007
 20
580
 11
2165.6400000000007
 21
669.99999999999988
  0
TEXT
  8
_0-9_
 62
    7
 10
2165.6400000000007
 20
602.94999999999981
 40
35
 41
0.6285714285714286
 50
90
  1
９０
  0
POINT
  8
_0-9_
 62
    3
 10
3065.6400000000003
 20
580
  0
POINT
  8
_0-9_
 62
    3
 10
3065.6400000000003
 20
1469.9999999999997
  0
LINE
  8
_0-9_
  6
CONTINUOUS
 62
    4
 10
3075.6400000000003
 20
580
 11
2927.1840126943511
 21
580
  0
LINE
  8
_0-9_
  6
CONTINUOUS
 62
    4
 10
3075.6400000000003
 20
1469.9999999999997
 11
2927.1840126943511
 21
1469.9999999999997
  0
LINE
  8
_0-9_
  6
CONTINUOUS
 62
    4
 10
3065.6400000000003
 20
580
 11
3065.6400000000003
 21
1469.9999999999997
  0
TEXT
  8
_0-9_
 62
    7
 10
3065.6400000000003
 20
991.89999999999986
 40
35
 41
0.6285714285714286
 50
90
  1
８９０
  0
LINE
  8
ADD_LINE
  6
DOT
 62
    9
 10
1601
 20
580.00001837158208
 11
1601
 21
533.93772832555339
  0
LINE
  8
ADD_LINE
  6
DOT
 62
    9
 10
1521
 20
580.00001837158208
 11
1521
 21
533.93772832555339
  0
LINE
  8
ADD_LINE
  6
DOT
 62
    9
 10
1441
 20
580.00001837158208
 11
1441
 21
533.93772832555339
  0
LINE
  8
ADD_LINE
  6
DOT
 62
    9
 10
2245.6400000000007
 20
580.00001837158208
 11
2245.6400000000007
 21
533.93772832555339
  0
LINE
  8
ADD_LINE
  6
DOT
 62
    9
 10
2165.6400000000007
 20
580.00001837158208
 11
2165.6400000000007
 21
533.93772832555339
  0
LINE
  8
ADD_LINE
  6
DOT
 62
    9
 10
2085.6400000000007
 20
580.00001837158208
 11
2085.6400000000007
 21
533.93772832555339
  0
LINE
  8
_0-8_
  6
CONTINUOUS
 62
    4
 10
2578.1400000000007
 20
260
 11
2828.1400000000003
 21
260
  0
LINE
  8
_0-8_
  6
CONTINUOUS
 62
    4
 10
2828.1400000000003
 20
260
 11
2828.1400000000003
 21
330
  0
LINE
  8
_0-8_
  6
CONTINUOUS
 62
    4
 10
2828.1400000000003
 20
330
 11
2578.1400000000007
 21
330
  0
LINE
  8
_0-8_
  6
CONTINUOUS
 62
    4
 10
2578.1400000000007
 20
330
 11
2578.1400000000007
 21
260
  0
LINE
  8
ADD_LINE
  6
DOT
 62
    9
 10
2703.1370000000006
 20
260
 11
2703.1370000000006
 21
330
  0
TEXT
  8
_0-8_
 62
    7
 10
2656.1369999999997
 20
277.5
 40
35
 41
0.857142857142857
 50
0
  1
断面図
  0
LINE
  8
ADD_LINE
  6
DOT
 62
    9
 10
2578.1370000000006
 20
295
 11
2828.1370000000006
 21
295
  0
ARC
  8
_0-2_
  6
CONTINUOUS
 62
    4
 10
1270
 20
2505
 40
15
 50
0
 51
90
  0
POINT
  8
_0-9_
 62
    3
 10
1300
 20
2699.5350085356249
  0
LINE
  8
_0-9_
  6
CONTINUOUS
 62
    4
 10
1300
 20
2709.5350085356249
 11
1300
 21
2575.1644127179247
  0
POINT
  8
_0-9_
 62
    3
 10
1601
 20
2560
  0
LINE
  8
_0-9_
  6
CONTINUOUS
 62
    4
 10
1611
 20
2560
 11
1338.8289412795729
 21
2560
  0
LINE
  8
ADD_LINE
  6
DOT
 62
    9
 10
1601
 20
2560
 11
1601
 21
2642.1672488533549
  0
LINE
  8
ADD_LINE
  6
DOT
 62
    9
 10
1521
 20
2560
 11
1521
 21
2642.1672488533549
  0
LINE
  8
_0-9_
  6
CONTINUOUS
 62
    4
 10
1531
 20
2560
 11
1338.8289412795729
 21
2560
  0
ARC
  8
_0-2_
  6
CONTINUOUS
 62
    4
 10
1270
 20
2130
 40
15
 50
270
 51
0
  0
LINE
  8
_0-2_
  6
CONTINUOUS
 62
    4
 10
1285
 20
2505
 11
1285
 21
2130
  0
LINE
  8
_0-2_
  6
CONTINUOUS
 62
    5
 10
1300
 20
2560
 11
1300
 21
2100
  0
POINT
  8
_0-9_
 62
    3
 10
1601
 20
2100
  0
LINE
  8
_0-9_
  6
CONTINUOUS
 62
    4
 10
1611
 20
2100
 11
1338.8289412795729
 21
2100
  0
LINE
  8
_0-9_
  6
CONTINUOUS
 62
    4
 10
1601
 20
2100
 11
1601
 21
2560
  0
TEXT
  8
_0-9_
 62
    7
 10
1601
 20
2296.9
 40
35
 41
0.6285714285714286
 50
90
  1
４６０
  0
ARC
  8
_0-2_
  6
CONTINUOUS
 62
    4
 10
1030
 20
2505
 40
15
 50
90
 51
180
  0
POINT
  8
_0-9_
 62
    3
 10
1000
 20
2699.5350085356249
  0
LINE
  8
_0-9_
  6
CONTINUOUS
 62
    4
 10
1000
 20
2709.5350085356249
 11
1000
 21
2575.1644127179247
  0
LINE
  8
_0-2_
  6
CONTINUOUS
 62
    4
 10
1270
 20
2520
 11
1030
 21
2520
  0
LINE
  8
_0-2_
  6
CONTINUOUS
 62
    5
 10
1300
 20
2535
 11
1000
 21
2535
  0
LINE
  8
_0-2_
  6
CONTINUOUS
 62
    5
 10
1300
 20
2560
 11
1000
 21
2560
  0
LINE
  8
_0-9_
  6
CONTINUOUS
 62
    4
 10
1000
 20
2699.5350085356249
 11
1300
 21
2699.5350085356249
  0
TEXT
  8
_0-9_
 62
    7
 10
1116.9
 20
2699.5350085356249
 40
35
 41
0.6285714285714286
 50
0
  1
３００
  0
ARC
  8
_0-2_
  6
CONTINUOUS
 62
    4
 10
1030
 20
2130
 40
15
 50
180
 51
270
  0
LINE
  8
_0-2_
  6
CONTINUOUS
 62
    4
 10
1015
 20
2505
 11
1015
 21
2130
  0
LINE
  8
_0-2_
  6
CONTINUOUS
 62
    5
 10
1000
 20
2560
 11
1000
 21
2100
  0
LINE
  8
_0-2_
  6
CONTINUOUS
 62
    4
 10
1270
 20
2115
 11
1030
 21
2115
  0
LINE
  8
_0-2_
  6
CONTINUOUS
 62
    5
 10
1300
 20
2100
 11
1000
 21
2100
  0
LINE
  8
_0-8_
  6
CONTINUOUS
 62
    4
 10
1025
 20
1903.6399999999998
 11
1275
 21
1903.6399999999998
  0
LINE
  8
_0-8_
  6
CONTINUOUS
 62
    4
 10
1275
 20
1903.6399999999998
 11
1275
 21
1973.6399999999998
  0
LINE
  8
_0-8_
  6
CONTINUOUS
 62
    4
 10
1275
 20
1973.6399999999998
 11
1025
 21
1973.6399999999998
  0
LINE
  8
_0-8_
  6
CONTINUOUS
 62
    4
 10
1025
 20
1973.6399999999998
 11
1025
 21
1903.6399999999998
  0
TEXT
  8
_0-8_
 62
    7
 10
1103
 20
1921.1399999999998
 40
35
 41
0.857142857142857
 50
0
  1
平面図
  0
LINE
  8
ADD_LINE
  6
DOT
 62
    9
 10
1150
 20
1903.6399999999998
 11
1150
 21
1973.6399999999998
  0
LINE
  8
ADD_LINE
  6
DOT
 62
    9
 10
1025
 20
1938.6399999999998
 11
1275
 21
1938.6399999999998
  0
POINT
  8
_0-9_
 62
    3
 10
1000
 20
1635.023002019227
  0
LINE
  8
_0-9_
  6
CONTINUOUS
 62
    4
 10
1000
 20
1645.023002019227
 11
1000
 21
1503.8849441254412
  0
LINE
  8
_0-9_
  6
CONTINUOUS
 62
    4
 10
1000
 20
1635.023002019227
 11
1300
 21
1635.023002019227
  0
TEXT
  8
_0-9_
 62
    7
 10
1116.9
 20
1635.023002019227
 40
35
 41
0.6285714285714286
 50
0
  1
３００
  0
LINE
  8
_0-8_
  6
CONTINUOUS
 62
    4
 10
1025
 20
260
 11
1275
 21
260
  0
LINE
  8
_0-8_
  6
CONTINUOUS
 62
    4
 10
1275
 20
260
 11
1275
 21
329.99999999999988
  0
LINE
  8
_0-8_
  6
CONTINUOUS
 62
    4
 10
1275
 20
329.99999999999988
 11
1025
 21
329.99999999999988
  0
LINE
  8
_0-8_
  6
CONTINUOUS
 62
    4
 10
1025
 20
329.99999999999988
 11
1025
 21
260
  0
LINE
  8
ADD_LINE
  6
DOT
 62
    9
 10
1150
 20
260
 11
1150
 21
329.99999999999988
  0
TEXT
  8
_0-8_
 62
    7
 10
1103.0000000000006
 20
277.49999999999988
 40
35
 41
0.857142857142857
 50
0
  1
立面図
  0
LINE
  8
ADD_LINE
  6
DOT
 62
    9
 10
1025
 20
294.99999999999988
 11
1275
 21
294.99999999999988
  0
LINE
  8
_0-9_
  6
CONTINUOUS
 62
    4
 10
1451
 20
1347.0000000000002
 11
1331.3913793989086
 21
1347.0000000000002
  0
LINE
  8
_0-9_
  6
CONTINUOUS
 62
    4
 10
1451
 20
1347.0000000000002
 11
1331.3913793989086
 21
1347.0000000000002
  0
LINE
  8
_0-9_
  6
CONTINUOUS
 62
    4
 10
1451
 20
1175
 11
1331.3913793989086
 21
1175
  0
LINE
  8
_0-9_
  6
CONTINUOUS
 62
    4
 10
1451
 20
1177
 11
1331.3913793989086
 21
1177
  0
POINT
  8
_0-9_
 62
    3
 10
1441
 20
1347.0000000000002
  0
POINT
  8
_0-9_
 62
    3
 10
1441
 20
1177
  0
LINE
  8
_0-9_
  6
CONTINUOUS
 62
    4
 10
1441
 20
1347.0000000000002
 11
1441
 21
1177
  0
TEXT
  8
_0-9_
 62
    7
 10
1441
 20
1228.9
 40
35
 41
0.6285714285714286
 50
90
  1
１７０
  0
POINT
  8
_0-9_
 62
    3
 10
1441
 20
1175
  0
POINT
  8
_0-9_
 62
    3
 10
1441
 20
674.99999999999988
  0
POINT
  8
_0-9_
 62
    3
 10
1521
 20
669.99999999999988
  0
POINT
  8
_0-9_
 62
    9
 10
1521
 20
1379.9999999999997
  0
LINE
  8
_0-9_
  6
CONTINUOUS
 62
    9
 10
1521
 20
1379.9999999999997
 11
1521
 21
1431.6132577855009
  0
POINT
  8
_0-9_
 62
    9
 10
1441
 20
669.99999999999988
  0
LINE
  8
_0-9_
  6
CONTINUOUS
 62
    9
 10
1441
 20
669.99999999999988
 11
1441
 21
646.27775857628557
  0
LINE
  8
_0-9_
  6
CONTINUOUS
 62
    9
 10
1441
 20
1352.0000000000002
 11
1441
 21
1377.0392419894005
  0
POINT
  8
_0-9_
 62
    9
 10
1521
 20
1379.9999999999997
  0
LINE
  8
_0-9_
  6
CONTINUOUS
 62
    9
 10
1441
 20
669.99999999999988
 11
1441
 21
674.99999999999988
  0
TEXT
  8
_0-9_
 62
    1
 10
1441
 20
647.46198055406443
 40
35
 41
0.6285714285714286
 50
90
  1
５
  0
LINE
  8
_0-9_
  6
CONTINUOUS
 62
    9
 10
1441
 20
1347.0000000000002
 11
1441
 21
1352.0000000000002
  0
TEXT
  8
_0-9_
 62
    1
 10
1441
 20
1352.1221715813283
 40
35
 41
0.6285714285714286
 50
90
  1
５
  0
LINE
  8
_0-9_
  6
CONTINUOUS
 62
    9
 10
1521
 20
1352.0000000000002
 11
1521
 21
669.99999999999988
  0
TEXT
  8
_0-9_
 62
    1
 10
1521
 20
977.89999999999986
 40
35
 41
0.6285714285714286
 50
90
  1
６８２
  0
LINE
  8
_0-9_
  6
CONTINUOUS
 62
    9
 10
1521
 20
1379.9999999999997
 11
1521
 21
1352.0000000000002
  0
TEXT
  8
_0-9_
 62
    1
 10
1515.018754688672
 20
1385.9057389347335
 40
35
 41
0.6285714285714286
 50
90
  1
２８
  0
LINE
  8
_0-9_
  6
CONTINUOUS
 62
    9
 10
1441
 20
1177
 11
1441
 21
1175
  0
LINE
  8
_0-9_
  6
CONTINUOUS
 62
    9
 10
1296
 20
480
 11
1297.5
 21
480
  0
LINE
  8
_0-9_
  6
CONTINUOUS
 62
    9
 10
1002.4999999999998
 20
480
 11
1004
 21
480
  0
LINE
  8
_0-9_
  6
CONTINUOUS
 62
    4
 10
2235.6400000000007
 20
1347.0000000000002
 11
2383.7920228784855
 21
1347.0000000000002
  0
LINE
  8
_0-9_
  6
CONTINUOUS
 62
    4
 10
2235.6400000000007
 20
1175
 11
2383.7920228784855
 21
1175
  0
LINE
  8
_0-9_
  6
CONTINUOUS
 62
    4
 10
2235.6400000000007
 20
1177
 11
2383.7920228784855
 21
1177
  0
POINT
  8
_0-9_
 62
    3
 10
2165.6400000000007
 20
669.99999999999988
  0
POINT
  8
_0-9_
 62
    3
 10
2245.6400000000007
 20
1175
  0
POINT
  8
_0-9_
 62
    3
 10
2245.6400000000007
 20
674.99999999999988
  0
POINT
  8
_0-9_
 62
    3
 10
2245.6400000000007
 20
1177
  0
POINT
  8
_0-9_
 62
    3
 10
2245.6400000000007
 20
1347.0000000000002
  0
LINE
  8
_0-9_
  6
CONTINUOUS
 62
    4
 10
2245.6400000000007
 20
1177
 11
2245.6400000000007
 21
1347.0000000000002
  0
TEXT
  8
_0-9_
 62
    7
 10
2245.6400000000007
 20
1228.9
 40
35
 41
0.6285714285714286
 50
90
  1
１７０
  0
POINT
  8
_0-9_
 62
    9
 10
2165.6400000000007
 20
1380
  0
LINE
  8
_0-9_
  6
CONTINUOUS
 62
    9
 10
2165.6400000000007
 20
1380
 11
2165.6400000000007
 21
1430.7752302484027
  0
POINT
  8
_0-9_
 62
    9
 10
2245.6400000000007
 20
669.99999999999988
  0
LINE
  8
_0-9_
  6
CONTINUOUS
 62
    9
 10
2245.6400000000007
 20
669.99999999999988
 11
2245.6400000000007
 21
642.62078320638192
  0
LINE
  8
_0-9_
  6
CONTINUOUS
 62
    9
 10
2245.6400000000007
 20
1352.0000000000002
 11
2245.6400000000007
 21
1373.8995419992195
  0
POINT
  8
_0-9_
 62
    9
 10
2165.6400000000007
 20
1380
  0
LINE
  8
_0-9_
  6
CONTINUOUS
 62
    9
 10
2245.6400000000007
 20
669.99999999999988
 11
2245.6400000000007
 21
674.99999999999988
  0
TEXT
  8
_0-9_
 62
    1
 10
2245.6400000000007
 20
647.0751959906687
 40
35
 41
0.6285714285714286
 50
90
  1
５
  0
LINE
  8
_0-9_
  6
CONTINUOUS
 62
    9
 10
2245.6400000000007
 20
1347.0000000000002
 11
2245.6400000000007
 21
1352.0000000000002
  0
TEXT
  8
_0-9_
 62
    1
 10
2245.6400000000007
 20
1353.5533021083001
 40
35
 41
0.6285714285714286
 50
90
  1
５
  0
LINE
  8
_0-9_
  6
CONTINUOUS
 62
    9
 10
2165.6400000000007
 20
1352.0000000000002
 11
2165.6400000000007
 21
669.99999999999988
  0
TEXT
  8
_0-9_
 62
    1
 10
2165.6400000000007
 20
977.89999999999986
 40
35
 41
0.6285714285714286
 50
90
  1
６８２
  0
LINE
  8
_0-9_
  6
CONTINUOUS
 62
    9
 10
2165.6400000000007
 20
1380
 11
2165.6400000000007
 21
1352.0000000000002
  0
TEXT
  8
_0-9_
 62
    1
 10
2167.629057342096
 20
1378.0957382230471
 40
35
 41
0.6285714285714286
 50
90
  1
２８
  0
LINE
  8
_0-9_
  6
CONTINUOUS
 62
    9
 10
2245.6400000000007
 20
1177
 11
2245.6400000000007
 21
1175
  0
POINT
  8
_0-9_
 62
    4
 10
1296
 20
480
  0
LINE
  8
_0-9_
  6
CONTINUOUS
 62
    4
 10
1296
 20
470
 11
1296
 21
557.24264540409626
  0
LINE
  8
_0-9_
  6
CONTINUOUS
 62
    4
 10
1004
 20
480
 11
1296
 21
480
  0
TEXT
  8
_f-8_
 62
    7
 10
3340
 20
187.5
 40
25
 41
0.64
 50
0
  1
ＣＨＥＣＫＥＤ
  0
LINE
  8
_0-d_
  6
CONTINUOUS
 62
    3
 10
4115
 20
2145
 11
3129.9989999999997
 21
2145
  0
LINE
  8
_0-d_
  6
CONTINUOUS
 62
    3
 10
4115
 20
2845
 11
3129.9989999999997
 21
2845
  0
LINE
  8
_0-d_
  6
CONTINUOUS
 62
    7
 10
4115
 20
2285
 11
3129.9989999999997
 21
2285
  0
LINE
  8
_0-d_
  6
CONTINUOUS
 62
    7
 10
4115
 20
2355
 11
3129.9989999999997
 21
2355
  0
LINE
  8
_0-d_
  6
CONTINUOUS
 62
    7
 10
4115
 20
2425
 11
3129.9989999999997
 21
2425
  0
LINE
  8
_0-d_
  6
CONTINUOUS
 62
    7
 10
4115
 20
2495
 11
3129.9989999999997
 21
2495
  0
LINE
  8
_0-d_
  6
CONTINUOUS
 62
    7
 10
4115
 20
2565
 11
3129.9989999999997
 21
2565
  0
LINE
  8
_0-d_
  6
CONTINUOUS
 62
    7
 10
4115
 20
2635
 11
3129.9989999999997
 21
2635
  0
LINE
  8
_0-d_
  6
CONTINUOUS
 62
    7
 10
4115
 20
2705
 11
3129.9989999999997
 21
2705
  0
LINE
  8
_0-d_
  6
CONTINUOUS
 62
    7
 10
4115
 20
2775
 11
3129.9989999999997
 21
2775
  0
LINE
  8
_0-d_
  6
CONTINUOUS
 62
    7
 10
4115
 20
2780
 11
3129.9989999999997
 21
2780
  0
LINE
  8
ADD_LINE
  6
DOT
 62
    9
 10
3129.9989999999997
 20
2812.5
 11
4115
 21
2812.5
  0
LINE
  8
ADD_LINE
  6
DOT
 62
    9
 10
4115
 20
2740
 11
3129.9989999999997
 21
2740
  0
LINE
  8
ADD_LINE
  6
DOT
 62
    9
 10
4115
 20
2670
 11
3129.9989999999997
 21
2670
  0
LINE
  8
ADD_LINE
  6
DOT
 62
    9
 10
4115
 20
2600
 11
3129.9989999999997
 21
2600
  0
LINE
  8
ADD_LINE
  6
DOT
 62
    9
 10
4115
 20
2530
 11
3129.9989999999997
 21
2530
  0
LINE
  8
ADD_LINE
  6
DOT
 62
    9
 10
4115
 20
2460
 11
3129.9989999999997
 21
2460
  0
LINE
  8
ADD_LINE
  6
DOT
 62
    9
 10
4115
 20
2390
 11
3129.9989999999997
 21
2390
  0
LINE
  8
ADD_LINE
  6
DOT
 62
    9
 10
4115
 20
2180
 11
3129.9989999999997
 21
2180
  0
TEXT
  8
_0-d_
 62
    7
 10
3527.4994999999998
 20
2795
 40
35
 41
0.857142857142857
 50
0
  1
仕　　　　様
  0
TEXT
  8
_0-d_
 62
    7
 10
3200.9989999999997
 20
2722.5
 40
35
 41
0.857142857142857
 50
0
  1
ト　ッ　プ
  0
TEXT
  8
_0-d_
 62
    7
 10
3454.9990000000002
 20
2722.5
 40
35
 41
0.857142857142857
 50
0
  1
ステンレスＳＵＳ４３０
  0
TEXT
  8
_0-d_
 62
    7
 10
3216.9990000000002
 20
2652.5
 40
35
 41
0.857142857142857
 50
0
  1
側　　板
  0
TEXT
  8
_0-d_
 62
    7
 10
3454.9990000000002
 20
2652.5
 40
35
 41
0.7714285714285714
 50
0
  1
低圧メラミン化粧パーティクルボード　１２ｔ
  0
TEXT
  8
_0-d_
 62
    7
 10
3216.9990000000002
 20
2582.5
 40
35
 41
0.857142857142857
 50
0
  1
地　　板
  0
TEXT
  8
_0-d_
 62
    7
 10
3454.9989999999988
 20
2582.5
 40
35
 41
0.857142857142857
 50
0
  1
ステンレス貼り　片面フラッシュ
  0
TEXT
  8
_0-d_
 62
    7
 10
3216.9990000000002
 20
2512.5
 40
35
 41
0.857142857142857
 50
0
  1
背　　板
  0
LINE
  8
ADD_LINE
  6
DOT
 62
    9
 10
3622.4994999999998
 20
2780
 11
3622.4994999999998
 21
2845
  0
TEXT
  8
_0-d_
 62
    7
 10
3454.9989999999988
 20
2512.5
 40
35
 41
0.857142857142857
 50
0
  1
ＭＤＦ　２．５ｔ
  0
TEXT
  8
_0-d_
 62
    7
 10
3264.9989999999997
 20
2442.5
 40
35
 41
0.857142857142857
 50
0
  1
扉
  0
TEXT
  8
_0-d_
 62
    7
 10
3454.9989999999988
 20
2442.5
 40
35
 41
0.7714285714285714
 50
0
  1
両面化粧パーティクルボード　１２ｔ
  0
TEXT
  8
_0-d_
 62
    7
 10
3216.9990000000002
 20
2372.5
 40
35
 41
0.857142857142857
 50
0
  1
丁　　番
  0
TEXT
  8
_0-d_
 62
    7
 10
3454.9990000000002
 20
2372.5
 40
35
 41
0.857142857142857
 50
0
  1
スライド式丁番
  0
LINE
  8
ADD_LINE
  6
DOT
 62
    9
 10
4115
 20
2320
 11
3129.9989999999997
 21
2320
  0
LINE
  8
_0-d_
  6
CONTINUOUS
 62
    3
 10
4115
 20
2145
 11
3129.9989999999997
 21
2145
  0
LINE
  8
_0-d_
  6
CONTINUOUS
 62
    7
 10
4115
 20
2285
 11
3129.9989999999997
 21
2285
  0
LINE
  8
ADD_LINE
  6
DOT
 62
    9
 10
4115
 20
2250
 11
3129.9989999999997
 21
2250
  0
LINE
  8
ADD_LINE
  6
DOT
 62
    9
 10
4115
 20
2180
 11
3129.9989999999997
 21
2180
  0
LINE
  8
_0-d_
  6
CONTINUOUS
 62
    7
 10
4115
 20
2145
 11
3129.9989999999997
 21
2145
  0
TEXT
  8
_0-d_
 62
    7
 10
3216.9990000000002
 20
2302.5
 40
35
 41
0.857142857142857
 50
0
  1
把　　手
  0
TEXT
  8
_0-d_
 62
    7
 10
3454.9989999999988
 20
2302.5
 40
35
 41
0.857142857142857
 50
0
  1
アルミ一文字把手
  0
LINE
  8
_0-d_
  6
CONTINUOUS
 62
    7
 10
4115
 20
2215
 11
3429.9989999999997
 21
2215
  0
TEXT
  8
_0-d_
 62
    7
 10
3454.9989999999988
 20
2232.5
 40
35
 41
0.7714285714285714
 50
0
  1
メタルボックス　スライドレール
  0
TEXT
  8
_0-d_
 62
    7
 10
3168.9989999999993
 20
2197.5
 40
35
 41
0.857142857142857
 50
0
  1
引　き　出　し
  0
LINE
  8
ADD_LINE
  6
DOT
 62
    9
 10
4115
 20
2145
 11
4115
 21
2130
  0
LINE
  8
_0-d_
  6
CONTINUOUS
 62
    3
 10
4115
 20
2145
 11
4115
 21
2845
  0
LINE
  8
_0-d_
  6
CONTINUOUS
 62
    7
 10
3429.9989999999997
 20
2775
 11
3429.9989999999997
 21
2145
  0
LINE
  8
_0-d_
  6
CONTINUOUS
 62
    3
 10
3129.9989999999997
 20
2845
 11
3129.9989999999997
 21
2145
  0
LINE
  8
_0-3_
  6
CONTINUOUS
 62
    5
 10
2885.6400000000003
 20
1355
 11
2885.6400000000003
 21
580
  0
LINE
  8
_0-3_
  6
CONTINUOUS
 62
    5
 10
2492.6400000000003
 20
669.99999999999988
 11
2492.6400000000003
 21
580
  0
LINE
  8
_0-3_
  6
CONTINUOUS
 62
    5
 10
2492.6400000000003
 20
580
 11
2885.6400000000003
 21
580
  0
LINE
  8
_0-3_
  6
CONTINUOUS
 62
    5
 10
2449.6400000000003
 20
686.99999999999988
 11
2449.6400000000003
 21
669.99999999999988
  0
LINE
  8
_0-3_
  6
CONTINUOUS
 62
    4
 10
2453.6399999999998
 20
682.99999999999977
 11
2453.6399999999998
 21
669.99999999999988
  0
LINE
  8
_0-3_
  6
CONTINUOUS
 62
    2
 10
2449.6400000000003
 20
1124.5
 11
2469.6400000000003
 21
1124.5
  0
LINE
  8
_0-3_
  6
CONTINUOUS
 62
    2
 10
2469.6400000000003
 20
1182.5
 11
2469.6400000000003
 21
1124.5
  0
LINE
  8
_0-3_
  6
CONTINUOUS
 62
    2
 10
2449.6400000000003
 20
1182.5
 11
2449.6400000000003
 21
1124.5
  0
LINE
  8
_0-3_
  6
CONTINUOUS
 62
    2
 10
2449.6400000000003
 20
1182.5
 11
2469.6400000000003
 21
1182.5
  0
LINE
  8
_0-3_
  6
CONTINUOUS
 62
    2
 10
2449.6400000000003
 20
1314.5000000000004
 11
2469.6400000000003
 21
1314.5000000000004
  0
LINE
  8
_0-3_
  6
CONTINUOUS
 62
    7
 10
2504.6400000000007
 20
580
 11
2504.6400000000007
 21
669.99999999999988
  0
LINE
  8
_0-3_
  6
CONTINUOUS
 62
    4
 10
2869.6399999999998
 20
1355
 11
2869.6399999999998
 21
580
  0
LINE
  8
_0-3_
  6
CONTINUOUS
 62
    4
 10
2865.6400000000003
 20
1355
 11
2865.6400000000003
 21
580
  0
LINE
  8
_0-3_
  6
CONTINUOUS
 62
    7
 10
2847.6400000000003
 20
1183
 11
2847.6400000000003
 21
1138
  0
LINE
  8
_0-3_
  6
CONTINUOUS
 62
    7
 10
2847.6400000000003
 20
1183
 11
2865.6400000000003
 21
1183
  0
LINE
  8
_0-3_
  6
CONTINUOUS
 62
    7
 10
2847.6400000000003
 20
1138
 11
2865.6400000000003
 21
1138
  0
LINE
  8
_0-3_
  6
CONTINUOUS
 62
    5
 10
2449.6400000000003
 20
669.99999999999988
 11
2865.6400000000003
 21
669.99999999999988
  0
LINE
  8
_0-3_
  6
CONTINUOUS
 62
    5
 10
2449.6400000000003
 20
686.99999999999988
 11
2865.6400000000003
 21
686.99999999999988
  0
LINE
  8
_0-3_
  6
CONTINUOUS
 62
    4
 10
2453.6399999999998
 20
682.99999999999977
 11
2865.6400000000003
 21
682.99999999999977
  0
LINE
  8
_0-4_
  6
CONTINUOUS
 62
    3
 10
2434.6400000000003
 20
1180
 11
2446.6400000000007
 21
1180
  0
LINE
  8
_0-4_
  6
CONTINUOUS
 62
    3
 10
2434.6400000000003
 20
674.99999999999988
 11
2446.6400000000007
 21
674.99999999999988
  0
LINE
  8
_0-4_
  6
CONTINUOUS
 62
    3
 10
2446.6400000000007
 20
1277.0000000000002
 11
2446.6400000000007
 21
1180
  0
LINE
  8
_0-4_
  6
CONTINUOUS
 62
    3
 10
2434.6400000000003
 20
1277.0000000000002
 11
2434.6400000000003
 21
1180
  0
LINE
  8
_0-4_
  6
CONTINUOUS
 62
    3
 10
2446.6400000000007
 20
1317.0000000000004
 11
2434.6400000000003
 21
1317.0000000000004
  0
LINE
  8
_0-4_
  6
CONTINUOUS
 62
    3
 10
2434.6400000000003
 20
1277.0000000000002
 11
2434.6400000000003
 21
1317.0000000000004
  0
LINE
  8
_0-4_
  6
CONTINUOUS
 62
    3
 10
2446.6400000000007
 20
1277.0000000000002
 11
2446.6400000000007
 21
1317.0000000000004
  0
LINE
  8
_0-4_
  6
CONTINUOUS
 62
    3
 10
2446.6400000000007
 20
1145
 11
2434.6400000000003
 21
1145
  0
LINE
  8
_0-4_
  6
CONTINUOUS
 62
    3
 10
2434.6400000000003
 20
1145
 11
2434.6400000000003
 21
674.99999999999988
  0
LINE
  8
_0-4_
  6
CONTINUOUS
 62
    3
 10
2446.6400000000007
 20
1145
 11
2446.6400000000007
 21
674.99999999999988
  0
ARC
  8
_0-4_
  6
CONTINUOUS
 62
    4
 10
2446.2399999999997
 20
1345
 40
2
 50
0.0000000000000127
 51
90.000000000000028
  0
ARC
  8
_0-4_
  6
CONTINUOUS
 62
    4
 10
2446.2399999999997
 20
1345
 40
0.7000000000000001
 50
0
 51
90
  0
LINE
  8
_0-4_
  6
CONTINUOUS
 62
    4
 10
2448.2400000000002
 20
1303
 11
2448.2400000000002
 21
1345
  0
ARC
  8
_0-4_
  6
CONTINUOUS
 62
    4
 10
2447.7400000000002
 20
1303
 40
0.5
 50
270
 51
0
  0
ARC
  8
_0-4_
  6
CONTINUOUS
 62
    4
 10
2447.4400000000005
 20
1303.3000000000004
 40
0.8000000000000001
 50
128.68218745349332
 51
270
  0
LINE
  8
_0-4_
  6
CONTINUOUS
 62
    4
 10
2447.7400000000002
 20
1302.5
 11
2447.4400000000005
 21
1302.5
  0
LINE
  8
_0-4_
  6
CONTINUOUS
 62
    4
 10
2446.9400000000009
 20
1311.2755002001604
 11
2446.9400000000009
 21
1303.92449979984
  0
ARC
  8
_0-4_
  6
CONTINUOUS
 62
    4
 10
2447.4400000000005
 20
1311.9000000000005
 40
0.8000000000000001
 50
128.68218745349335
 51
231.31781254650664
  0
LINE
  8
_0-4_
  6
CONTINUOUS
 62
    4
 10
2446.9400000000009
 20
1316.7000000000002
 11
2446.9400000000009
 21
1312.5244997998402
  0
ARC
  8
_0-4_
  6
CONTINUOUS
 62
    4
 10
2446.6400000000007
 20
1316.7000000000002
 40
0.3
 50
0.0000000000000127
 51
90.000000000000014
  0
LINE
  8
_0-4_
  6
CONTINUOUS
 62
    4
 10
2446.9400000000009
 20
1320.449612661775
 11
2446.9400000000009
 21
1345
  0
ARC
  8
_0-4_
  6
CONTINUOUS
 62
    4
 10
2445.94
 20
1320.449612661775
 40
1
 50
272.96093613416371
 51
0
  0
ARC
  8
_0-4_
  6
CONTINUOUS
 62
    4
 10
2433.1400000000003
 20
1311.8000000000006
 40
0.8000000000000001
 50
180
 51
359.99999999999994
  0
LINE
  8
_0-4_
  6
CONTINUOUS
 62
    4
 10
2435.4685714285724
 20
1347.0000000000004
 11
2446.2399999999997
 21
1347.0000000000004
  0
ARC
  8
_0-4_
  6
CONTINUOUS
 62
    4
 10
2435.4685714285724
 20
1345
 40
2
 50
90.000000000000014
 51
161.07535558394951
  0
ARC
  8
_0-4_
  6
CONTINUOUS
 62
    4
 10
2435.4685714285724
 20
1345
 40
0.7000000000000001
 50
90
 51
161.07535558395002
  0
LINE
  8
_0-4_
  6
CONTINUOUS
 62
    4
 10
2446.2399999999997
 20
1345.7000000000005
 11
2435.4685714285724
 21
1345.7000000000005
  0
LINE
  8
_0-4_
  6
CONTINUOUS
 62
    4
 10
2434.8064092664089
 20
1345.2270270270275
 11
2433.6775798523667
 21
1341.9346079027359
  0
ARC
  8
_0-4_
  6
CONTINUOUS
 62
    4
 10
2433.8667690415554
 20
1341.8697430378711
 40
0.2
 50
161.07535558394701
 51
226.45103723177709
  0
ARC
  8
_0-4_
  6
CONTINUOUS
 62
    4
 10
2433.0400000000004
 20
1341.0000000000002
 40
1
 50
161.07535558395028
 51
46.451037231780077
  0
LINE
  8
_0-4_
  6
CONTINUOUS
 62
    4
 10
2433.5766795366803
 20
1345.6486486486487
 11
2432.0940540540545
 21
1341.3243243243243
  0
LINE
  8
_0-4_
  6
CONTINUOUS
 62
    4
 10
2433.9399999999995
 20
1316.7000000000002
 11
2433.9399999999995
 21
1311.8000000000006
  0
ARC
  8
_0-4_
  6
CONTINUOUS
 62
    4
 10
2434.2400000000006
 20
1316.7000000000002
 40
0.3
 50
90
 51
180
  0
LINE
  8
_0-4_
  6
CONTINUOUS
 62
    4
 10
2446.6400000000007
 20
1317.0000000000004
 11
2434.2400000000006
 21
1317.0000000000004
  0
LINE
  8
_0-4_
  6
CONTINUOUS
 62
    4
 10
2432.3400000000006
 20
1317.6503873382257
 11
2432.3400000000006
 21
1311.8000000000006
  0
ARC
  8
_0-4_
  6
CONTINUOUS
 62
    4
 10
2433.3400000000001
 20
1317.6503873382257
 40
1
 50
92.960936134163759
 51
180
  0
LINE
  8
_0-4_
  6
CONTINUOUS
 62
    4
 10
2445.9916550854281
 20
1319.4509476768325
 11
2433.2883449145715
 21
1318.649052323168
  0
LINE
  8
ADD_LINE
  6
DOT
 62
    9
 10
2434.1284681165066
 20
1311.0000000000002
 11
2432.0227734741997
 21
1311.0000000000002
  0
LINE
  8
ADD_LINE
  6
DOT
 62
    9
 10
2432.3400000000006
 20
1317.6503873382257
 11
2432.3400000000006
 21
1318.600000000003
  0
LINE
  8
ADD_LINE
  6
DOT
 62
    9
 10
2433.2883449145715
 20
1318.649052323168
 11
2432.3400000000006
 21
1318.600000000003
  0
LINE
  8
ADD_LINE
  6
DOT
 62
    9
 10
2435.4893185782875
 20
1340
 11
2430.3679115660061
 21
1340
  0
ARC
  8
_0-4_
  6
CONTINUOUS
 62
    4
 10
2446.2399999999997
 20
1173
 40
2
 50
0.0000000000000127
 51
90.000000000000028
  0
ARC
  8
_0-4_
  6
CONTINUOUS
 62
    4
 10
2446.2399999999997
 20
1173
 40
0.7000000000000001
 50
0
 51
90
  0
LINE
  8
_0-4_
  6
CONTINUOUS
 62
    4
 10
2448.2400000000002
 20
1130.9999999999997
 11
2448.2400000000002
 21
1173
  0
ARC
  8
_0-4_
  6
CONTINUOUS
 62
    4
 10
2447.7400000000002
 20
1130.9999999999997
 40
0.5
 50
270
 51
0
  0
ARC
  8
_0-4_
  6
CONTINUOUS
 62
    4
 10
2447.4400000000005
 20
1131.2999999999999
 40
0.8000000000000001
 50
128.68218745349332
 51
270
  0
LINE
  8
_0-4_
  6
CONTINUOUS
 62
    4
 10
2447.7400000000002
 20
1130.5
 11
2447.4400000000005
 21
1130.5
  0
LINE
  8
_0-4_
  6
CONTINUOUS
 62
    4
 10
2446.9400000000009
 20
1139.2755002001601
 11
2446.9400000000009
 21
1131.9244997998396
  0
ARC
  8
_0-4_
  6
CONTINUOUS
 62
    4
 10
2447.4400000000005
 20
1139.9
 40
0.8000000000000001
 50
128.68218745349335
 51
231.31781254650664
  0
LINE
  8
_0-4_
  6
CONTINUOUS
 62
    4
 10
2446.9400000000009
 20
1144.7
 11
2446.9400000000009
 21
1140.5244997998397
  0
ARC
  8
_0-4_
  6
CONTINUOUS
 62
    4
 10
2446.6400000000007
 20
1144.7
 40
0.3
 50
0.0000000000000127
 51
90.000000000000014
  0
LINE
  8
_0-4_
  6
CONTINUOUS
 62
    4
 10
2446.9400000000009
 20
1148.4496126617748
 11
2446.9400000000009
 21
1173
  0
ARC
  8
_0-4_
  6
CONTINUOUS
 62
    4
 10
2445.94
 20
1148.4496126617748
 40
1
 50
272.96093613416371
 51
0
  0
ARC
  8
_0-4_
  6
CONTINUOUS
 62
    4
 10
2433.1400000000003
 20
1139.8000000000001
 40
0.8000000000000001
 50
180
 51
359.99999999999994
  0
LINE
  8
_0-4_
  6
CONTINUOUS
 62
    4
 10
2435.4685714285724
 20
1175
 11
2446.2399999999997
 21
1175
  0
ARC
  8
_0-4_
  6
CONTINUOUS
 62
    4
 10
2435.4685714285724
 20
1173
 40
2
 50
90.000000000000014
 51
161.07535558394951
  0
ARC
  8
_0-4_
  6
CONTINUOUS
 62
    4
 10
2435.4685714285724
 20
1173
 40
0.7000000000000001
 50
90
 51
161.07535558395002
  0
LINE
  8
_0-4_
  6
CONTINUOUS
 62
    4
 10
2446.2399999999997
 20
1173.7
 11
2435.4685714285724
 21
1173.7
  0
LINE
  8
_0-4_
  6
CONTINUOUS
 62
    4
 10
2434.8064092664089
 20
1173.2270270270271
 11
2433.6775798523667
 21
1169.9346079027357
  0
ARC
  8
_0-4_
  6
CONTINUOUS
 62
    4
 10
2433.8667690415554
 20
1169.8697430378711
 40
0.2
 50
161.07535558394701
 51
226.45103723177709
  0
ARC
  8
_0-4_
  6
CONTINUOUS
 62
    4
 10
2433.0400000000004
 20
1169.0000000000004
 40
1
 50
161.07535558395028
 51
46.451037231780077
  0
LINE
  8
_0-4_
  6
CONTINUOUS
 62
    4
 10
2433.5766795366803
 20
1173.6486486486485
 11
2432.0940540540545
 21
1169.3243243243246
  0
LINE
  8
_0-4_
  6
CONTINUOUS
 62
    4
 10
2433.9399999999995
 20
1144.7
 11
2433.9399999999995
 21
1139.8000000000001
  0
ARC
  8
_0-4_
  6
CONTINUOUS
 62
    4
 10
2434.2400000000006
 20
1144.7
 40
0.3
 50
90
 51
180
  0
LINE
  8
_0-4_
  6
CONTINUOUS
 62
    4
 10
2446.6400000000007
 20
1145
 11
2434.2400000000006
 21
1145
  0
LINE
  8
_0-4_
  6
CONTINUOUS
 62
    4
 10
2432.3400000000006
 20
1145.6503873382255
 11
2432.3400000000006
 21
1139.8000000000001
  0
ARC
  8
_0-4_
  6
CONTINUOUS
 62
    4
 10
2433.3400000000001
 20
1145.6503873382255
 40
1
 50
92.960936134163759
 51
180
  0
LINE
  8
_0-4_
  6
CONTINUOUS
 62
    4
 10
2445.9916550854281
 20
1147.4509476768325
 11
2433.2883449145715
 21
1146.6490523231675
  0
LINE
  8
ADD_LINE
  6
DOT
 62
    9
 10
2434.1284681165066
 20
1139.0000000000004
 11
2432.0227734741997
 21
1139.0000000000004
  0
LINE
  8
ADD_LINE
  6
DOT
 62
    9
 10
2432.3400000000006
 20
1145.6503873382255
 11
2432.3400000000006
 21
1146.6000000000028
  0
LINE
  8
ADD_LINE
  6
DOT
 62
    9
 10
2433.2883449145715
 20
1146.6490523231675
 11
2432.3400000000006
 21
1146.6000000000028
  0
LINE
  8
ADD_LINE
  6
DOT
 62
    9
 10
2435.4893185782875
 20
1168
 11
2430.3679115660061
 21
1168
  0
LINE
  8
_0-4_
  6
CONTINUOUS
 62
    7
 10
2454.2377000000005
 20
1224.3622
 11
2454.2459000000008
 21
1224.1281999999998
  0
LINE
  8
_0-4_
  6
CONTINUOUS
 62
    7
 10
2454.2459000000008
 20
1224.1281999999998
 11
2454.2537000000006
 21
1223.9031999999999
  0
LINE
  8
_0-4_
  6
CONTINUOUS
 62
    7
 10
2454.2537000000006
 20
1223.9031999999999
 11
2454.2610000000008
 21
1223.6958999999999
  0
LINE
  8
_0-4_
  6
CONTINUOUS
 62
    7
 10
2454.2610000000008
 20
1223.6958999999999
 11
2454.2673000000008
 21
1223.5141999999998
  0
LINE
  8
_0-4_
  6
CONTINUOUS
 62
    7
 10
2454.2673000000008
 20
1223.5141999999998
 11
2454.2725000000009
 21
1223.365
  0
LINE
  8
_0-4_
  6
CONTINUOUS
 62
    7
 10
2454.2725000000009
 20
1223.365
 11
2454.2764000000006
 21
1223.2541999999998
  0
LINE
  8
_0-4_
  6
CONTINUOUS
 62
    7
 10
2454.2764000000006
 20
1223.2541999999998
 11
2454.2788000000009
 21
1223.1858999999999
  0
LINE
  8
_0-4_
  6
CONTINUOUS
 62
    7
 10
2454.2788000000009
 20
1223.1858999999999
 11
2454.2796000000007
 21
1223.1628999999998
  0
LINE
  8
_0-4_
  6
CONTINUOUS
 62
    7
 10
2450.1400000000007
 20
1227.1604999999999
 11
2451.3400000000006
 21
1227.1604999999999
  0
LINE
  8
_0-4_
  6
CONTINUOUS
 62
    7
 10
2450.1400000000007
 20
1227.1604999999999
 11
2450.1400000000007
 21
1250.8394999999998
  0
LINE
  8
_0-4_
  6
CONTINUOUS
 62
    7
 10
2450.1400000000007
 20
1250.8394999999998
 11
2451.3400000000006
 21
1250.8394999999998
  0
LINE
  8
_0-4_
  6
CONTINUOUS
 62
    7
 10
2451.3400000000006
 20
1250.8394999999998
 11
2451.3400000000006
 21
1227.1604999999999
  0
LINE
  8
_0-4_
  6
CONTINUOUS
 62
    7
 10
2454.2796000000007
 20
1254.8369999999999
 11
2454.2788000000009
 21
1254.8139999999998
  0
LINE
  8
_0-4_
  6
CONTINUOUS
 62
    7
 10
2454.2788000000009
 20
1254.8139999999998
 11
2454.2764000000006
 21
1254.7456999999999
  0
LINE
  8
_0-4_
  6
CONTINUOUS
 62
    7
 10
2454.2764000000006
 20
1254.7456999999999
 11
2454.2725000000009
 21
1254.6348999999997
  0
LINE
  8
_0-4_
  6
CONTINUOUS
 62
    7
 10
2454.2725000000009
 20
1254.6348999999997
 11
2454.2673000000008
 21
1254.4857999999999
  0
LINE
  8
_0-4_
  6
CONTINUOUS
 62
    7
 10
2454.2673000000008
 20
1254.4857999999999
 11
2454.2610000000008
 21
1254.3039999999998
  0
LINE
  8
_0-4_
  6
CONTINUOUS
 62
    7
 10
2454.2610000000008
 20
1254.3039999999998
 11
2454.2537000000006
 21
1254.0967
  0
LINE
  8
_0-4_
  6
CONTINUOUS
 62
    7
 10
2454.2537000000006
 20
1254.0967
 11
2454.2459000000008
 21
1253.8716999999999
  0
LINE
  8
_0-4_
  6
CONTINUOUS
 62
    7
 10
2454.2459000000008
 20
1253.8716999999999
 11
2454.2377000000005
 21
1253.6377999999999
  0
LINE
  8
_0-4_
  6
CONTINUOUS
 62
    7
 10
2454.2377000000005
 20
1224.3622
 11
2478.8597000000008
 21
1225.2219999999999
  0
LINE
  8
_0-4_
  6
CONTINUOUS
 62
    7
 10
2478.8597000000008
 20
1252.7778999999998
 11
2454.2377000000005
 21
1253.6377999999999
  0
LINE
  8
_0-4_
  6
CONTINUOUS
 62
    7
 10
2454.2796000000007
 20
1254.8369999999999
 11
2478.901600000001
 21
1253.9771999999998
  0
LINE
  8
_0-4_
  6
CONTINUOUS
 62
    7
 10
2478.901600000001
 20
1253.9771999999998
 11
2478.9008000000007
 21
1253.9542000000001
  0
LINE
  8
_0-4_
  6
CONTINUOUS
 62
    7
 10
2478.9008000000007
 20
1253.9542000000001
 11
2478.8984000000009
 21
1253.8858999999999
  0
LINE
  8
_0-4_
  6
CONTINUOUS
 62
    7
 10
2478.8984000000009
 20
1253.8858999999999
 11
2478.8945000000007
 21
1253.7751
  0
LINE
  8
_0-4_
  6
CONTINUOUS
 62
    7
 10
2478.8945000000007
 20
1253.7751
 11
2478.8893000000007
 21
1253.6259999999997
  0
LINE
  8
_0-4_
  6
CONTINUOUS
 62
    7
 10
2478.8893000000007
 20
1253.6259999999997
 11
2478.8830000000007
 21
1253.4441999999999
  0
LINE
  8
_0-4_
  6
CONTINUOUS
 62
    7
 10
2478.8830000000007
 20
1253.4441999999999
 11
2478.8757000000005
 21
1253.2368999999998
  0
LINE
  8
_0-4_
  6
CONTINUOUS
 62
    7
 10
2478.8757000000005
 20
1253.2368999999998
 11
2478.8679000000006
 21
1253.0118999999999
  0
LINE
  8
_0-4_
  6
CONTINUOUS
 62
    7
 10
2478.8679000000006
 20
1253.0118999999999
 11
2478.8597000000008
 21
1252.7778999999998
  0
LINE
  8
_0-4_
  6
CONTINUOUS
 62
    7
 10
2478.8597000000008
 20
1225.2219999999999
 11
2478.8679000000006
 21
1224.9879999999998
  0
LINE
  8
_0-4_
  6
CONTINUOUS
 62
    7
 10
2478.8679000000006
 20
1224.9879999999998
 11
2478.8757000000005
 21
1224.7630999999998
  0
LINE
  8
_0-4_
  6
CONTINUOUS
 62
    7
 10
2478.8757000000005
 20
1224.7630999999998
 11
2478.8830000000007
 21
1224.5556999999998
  0
LINE
  8
_0-4_
  6
CONTINUOUS
 62
    7
 10
2478.8830000000007
 20
1224.5556999999998
 11
2478.8893000000007
 21
1224.374
  0
LINE
  8
_0-4_
  6
CONTINUOUS
 62
    7
 10
2478.8893000000007
 20
1224.374
 11
2478.8945000000007
 21
1224.2247999999997
  0
LINE
  8
_0-4_
  6
CONTINUOUS
 62
    7
 10
2478.8945000000007
 20
1224.2247999999997
 11
2478.8984000000009
 21
1224.1139999999998
  0
LINE
  8
_0-4_
  6
CONTINUOUS
 62
    7
 10
2478.8984000000009
 20
1224.1139999999998
 11
2478.9008000000007
 21
1224.0457999999998
  0
LINE
  8
_0-4_
  6
CONTINUOUS
 62
    7
 10
2478.9008000000007
 20
1224.0457999999998
 11
2478.901600000001
 21
1224.0226999999999
  0
LINE
  8
_0-4_
  6
CONTINUOUS
 62
    7
 10
2478.901600000001
 20
1224.0226999999999
 11
2454.2796000000007
 21
1223.1628999999998
  0
LINE
  8
_0-4_
  6
CONTINUOUS
 62
    7
 10
2483.8656000000009
 20
1229.4484999999999
 11
2484.0949000000009
 21
1229.4011999999997
  0
LINE
  8
_0-4_
  6
CONTINUOUS
 62
    7
 10
2484.0949000000009
 20
1229.4011999999997
 11
2484.3153000000011
 21
1229.3557999999998
  0
LINE
  8
_0-4_
  6
CONTINUOUS
 62
    7
 10
2484.3153000000011
 20
1229.3557999999998
 11
2484.518500000001
 21
1229.3138999999998
  0
LINE
  8
_0-4_
  6
CONTINUOUS
 62
    7
 10
2484.518500000001
 20
1229.3138999999998
 11
2484.6966000000011
 21
1229.2771999999999
  0
LINE
  8
_0-4_
  6
CONTINUOUS
 62
    7
 10
2484.6966000000011
 20
1229.2771999999999
 11
2484.8428000000008
 21
1229.247
  0
LINE
  8
_0-4_
  6
CONTINUOUS
 62
    7
 10
2484.8428000000008
 20
1229.247
 11
2484.9514000000008
 21
1229.2246
  0
LINE
  8
_0-4_
  6
CONTINUOUS
 62
    7
 10
2484.9514000000008
 20
1229.2246
 11
2485.0183000000006
 21
1229.2109
  0
LINE
  8
_0-4_
  6
CONTINUOUS
 62
    7
 10
2485.0183000000006
 20
1229.2109
 11
2485.0408000000006
 21
1229.2061999999998
  0
LINE
  8
_0-4_
  6
CONTINUOUS
 62
    7
 10
2483.8656000000009
 20
1248.5514
 11
2484.0949000000009
 21
1248.5987
  0
LINE
  8
_0-4_
  6
CONTINUOUS
 62
    7
 10
2484.0949000000009
 20
1248.5987
 11
2484.3153000000011
 21
1248.6441999999999
  0
LINE
  8
_0-4_
  6
CONTINUOUS
 62
    7
 10
2484.3153000000011
 20
1248.6441999999999
 11
2484.518500000001
 21
1248.6859999999999
  0
LINE
  8
_0-4_
  6
CONTINUOUS
 62
    7
 10
2484.518500000001
 20
1248.6859999999999
 11
2484.6966000000011
 21
1248.7228
  0
LINE
  8
_0-4_
  6
CONTINUOUS
 62
    7
 10
2484.6966000000011
 20
1248.7228
 11
2484.8428000000008
 21
1248.7528999999997
  0
LINE
  8
_0-4_
  6
CONTINUOUS
 62
    7
 10
2484.8428000000008
 20
1248.7528999999997
 11
2484.9514000000008
 21
1248.7752999999997
  0
LINE
  8
_0-4_
  6
CONTINUOUS
 62
    7
 10
2484.9514000000008
 20
1248.7752999999997
 11
2485.0183000000006
 21
1248.7890999999999
  0
LINE
  8
_0-4_
  6
CONTINUOUS
 62
    7
 10
2485.0183000000006
 20
1248.7890999999999
 11
2485.0408000000006
 21
1248.7936999999999
  0
LINE
  8
_0-4_
  6
CONTINUOUS
 62
    7
 10
2448.6400000000007
 20
1258.75
 11
2448.6400000000007
 21
1256.5349000000001
  0
LINE
  8
_0-4_
  6
CONTINUOUS
 62
    7
 10
2448.6400000000007
 20
1256.5
 11
2447.8400000000006
 21
1256.5
  0
LINE
  8
_0-4_
  6
CONTINUOUS
 62
    7
 10
2447.8400000000006
 20
1258.75
 11
2447.8400000000006
 21
1256.5
  0
LINE
  8
_0-4_
  6
CONTINUOUS
 62
    7
 10
2448.6400000000007
 20
1258.75
 11
2447.8400000000006
 21
1258.75
  0
LINE
  8
_0-4_
  6
CONTINUOUS
 62
    7
 10
2446.6400000000007
 20
1256.1365999999998
 11
2446.6400000000007
 21
1258.3866
  0
LINE
  8
_0-4_
  6
CONTINUOUS
 62
    7
 10
2447.8400000000006
 20
1256.5
 11
2447.8400000000006
 21
1221.5
  0
LINE
  8
_0-4_
  6
CONTINUOUS
 62
    7
 10
2446.6400000000007
 20
1221.8632999999999
 11
2446.6400000000007
 21
1256.1365999999998
  0
LINE
  8
_0-4_
  6
CONTINUOUS
 62
    7
 10
2447.8400000000006
 20
1221.5
 11
2447.8400000000006
 21
1219.25
  0
LINE
  8
_0-4_
  6
CONTINUOUS
 62
    7
 10
2446.6400000000007
 20
1219.6132999999999
 11
2446.6400000000007
 21
1221.8632999999999
  0
LINE
  8
_0-4_
  6
CONTINUOUS
 62
    7
 10
2448.6400000000007
 20
1221.4649999999999
 11
2478.9539000000008
 21
1222.5235999999999
  0
LINE
  8
_0-4_
  6
CONTINUOUS
 62
    7
 10
2448.6400000000007
 20
1221.5
 11
2448.6400000000007
 21
1221.4649999999999
  0
LINE
  8
_0-4_
  6
CONTINUOUS
 62
    7
 10
2448.6400000000007
 20
1221.5
 11
2447.8400000000006
 21
1221.5
  0
LINE
  8
_0-4_
  6
CONTINUOUS
 62
    7
 10
2478.9539000000008
 20
1255.4763
 11
2448.6400000000007
 21
1256.5349000000001
  0
LINE
  8
_0-4_
  6
CONTINUOUS
 62
    7
 10
2448.6400000000007
 20
1256.5349000000001
 11
2448.6400000000007
 21
1256.5
  0
LINE
  8
_0-4_
  6
CONTINUOUS
 62
    7
 10
2448.6400000000007
 20
1221.4649999999999
 11
2448.6400000000007
 21
1219.25
  0
LINE
  8
_0-4_
  6
CONTINUOUS
 62
    7
 10
2448.6400000000007
 20
1219.25
 11
2447.8400000000006
 21
1219.25
  0
LINE
  8
_0-4_
  6
CONTINUOUS
 62
    7
 10
2447.8400000000006
 20
1265.0382999999999
 11
2447.8400000000006
 21
1258.75
  0
LINE
  8
_0-4_
  6
CONTINUOUS
 62
    7
 10
2447.8400000000006
 20
1265.0382999999999
 11
2446.6400000000007
 21
1265.0382999999999
  0
LINE
  8
_0-4_
  6
CONTINUOUS
 62
    7
 10
2446.6400000000007
 20
1258.3866
 11
2446.6400000000007
 21
1265.0382999999999
  0
LINE
  8
_0-4_
  6
CONTINUOUS
 62
    7
 10
2447.8400000000006
 20
1199.25
 11
2447.8400000000006
 21
1196.25
  0
LINE
  8
_0-4_
  6
CONTINUOUS
 62
    7
 10
2447.8400000000006
 20
1199.25
 11
2446.6400000000007
 21
1199.25
  0
LINE
  8
_0-4_
  6
CONTINUOUS
 62
    7
 10
2446.6400000000007
 20
1197.45
 11
2446.6400000000007
 21
1199.25
  0
LINE
  8
_0-4_
  6
CONTINUOUS
 62
    7
 10
2447.8400000000006
 20
1281.7499999999997
 11
2447.8400000000006
 21
1278.75
  0
LINE
  8
_0-4_
  6
CONTINUOUS
 62
    7
 10
2447.8400000000006
 20
1278.75
 11
2446.6400000000007
 21
1278.75
  0
LINE
  8
_0-4_
  6
CONTINUOUS
 62
    7
 10
2446.6400000000007
 20
1278.75
 11
2446.6400000000007
 21
1280.5499999999997
  0
LINE
  8
_0-4_
  6
CONTINUOUS
 62
    7
 10
2447.8400000000006
 20
1219.25
 11
2447.8400000000006
 21
1212.7835
  0
LINE
  8
_0-4_
  6
CONTINUOUS
 62
    7
 10
2446.6400000000007
 20
1212.7835
 11
2447.8400000000006
 21
1212.7835
  0
LINE
  8
_0-4_
  6
CONTINUOUS
 62
    7
 10
2446.6400000000007
 20
1212.7835
 11
2446.6400000000007
 21
1219.6132999999999
  0
LINE
  8
_0-4_
  6
CONTINUOUS
 62
    7
 10
2447.8400000000006
 20
1212.7835
 11
2447.8400000000006
 21
1199.25
  0
LINE
  8
_0-4_
  6
CONTINUOUS
 62
    7
 10
2446.6400000000007
 20
1199.25
 11
2446.6400000000007
 21
1212.7835
  0
LINE
  8
_0-4_
  6
CONTINUOUS
 62
    7
 10
2447.8400000000006
 20
1278.75
 11
2447.8400000000006
 21
1265.0382999999999
  0
LINE
  8
_0-4_
  6
CONTINUOUS
 62
    7
 10
2446.6400000000007
 20
1265.0382999999999
 11
2446.6400000000007
 21
1278.75
  0
LINE
  8
_0-4_
  6
CONTINUOUS
 62
    7
 10
2448.6400000000007
 20
1196.25
 11
2447.8400000000006
 21
1196.25
  0
LINE
  8
_0-4_
  6
CONTINUOUS
 62
    7
 10
2447.8400000000006
 20
1199.25
 11
2448.6400000000007
 21
1199.25
  0
LINE
  8
_0-4_
  6
CONTINUOUS
 62
    7
 10
2448.6400000000007
 20
1199.25
 11
2448.6400000000007
 21
1196.25
  0
LINE
  8
_0-4_
  6
CONTINUOUS
 62
    7
 10
2448.6400000000007
 20
1278.75
 11
2447.8400000000006
 21
1278.75
  0
LINE
  8
_0-4_
  6
CONTINUOUS
 62
    7
 10
2447.8400000000006
 20
1281.7499999999997
 11
2448.6400000000007
 21
1281.7499999999997
  0
LINE
  8
_0-4_
  6
CONTINUOUS
 62
    7
 10
2448.6400000000007
 20
1281.7499999999997
 11
2448.6400000000007
 21
1278.75
  0
LINE
  8
_0-4_
  6
CONTINUOUS
 62
    7
 10
2448.6400000000007
 20
1278.75
 11
2448.6400000000007
 21
1258.75
  0
LINE
  8
_0-4_
  6
CONTINUOUS
 62
    7
 10
2448.6400000000007
 20
1219.25
 11
2448.6400000000007
 21
1199.25
  0
LINE
  8
_0-4_
  6
CONTINUOUS
 62
    7
 10
2478.9510000000009
 20
1255.4903999999999
 11
2448.6400000000007
 21
1256.5489
  0
LINE
  8
_0-4_
  6
CONTINUOUS
 62
    7
 10
2448.6400000000007
 20
1221.4510999999997
 11
2478.9510000000009
 21
1222.5095999999998
  0
ARC
  8
_0-4_
  6
CONTINUOUS
 62
    7
 10
2454.1400000000007
 20
1227.1604999999999
 40
2.7999999999999998
 50
180.00000000000005
 51
272.00000000000005
  0
ARC
  8
_0-4_
  6
CONTINUOUS
 62
    7
 10
2454.1400000000007
 20
1227.1604999999999
 40
4
 50
180.00000000000005
 51
272.00000000000005
  0
ARC
  8
_0-4_
  6
CONTINUOUS
 62
    7
 10
2454.1400000000007
 20
1250.8394999999998
 40
4
 50
88.000000000000028
 51
180.00000000000005
  0
ARC
  8
_0-4_
  6
CONTINUOUS
 62
    7
 10
2454.1400000000007
 20
1250.8394999999998
 40
2.7999999999999998
 50
88.000000000000028
 51
180.00000000000005
  0
ARC
  8
_0-4_
  6
CONTINUOUS
 62
    7
 10
2478.6747000000009
 20
1230.5187999999998
 40
5.3000000000000015
 50
272.00000000000011
 51
348.35000000000013
  0
ARC
  8
_0-4_
  6
CONTINUOUS
 62
    7
 10
2478.6747000000009
 20
1247.4811999999999
 40
5.3000000000000015
 50
11.650000000000002
 51
88.000000000000014
  0
ARC
  8
_0-4_
  6
CONTINUOUS
 62
    7
 10
2437.5400000000008
 20
1239
 40
47.299999999999997
 50
348.35000000000013
 51
11.650000000000073
  0
ARC
  8
_0-4_
  6
CONTINUOUS
 62
    7
 10
2478.6747000000009
 20
1230.5187999999998
 40
6.5
 50
272.00000000000011
 51
348.35000000000013
  0
ARC
  8
_0-4_
  6
CONTINUOUS
 62
    7
 10
2478.6747000000009
 20
1247.4811999999999
 40
6.5
 50
11.650000000000002
 51
88.000000000000014
  0
ARC
  8
_0-4_
  6
CONTINUOUS
 62
    7
 10
2437.5400000000008
 20
1239
 40
48.500000000000014
 50
348.35000000000013
 51
11.650000000000073
  0
LINE
  8
_0-4_
  6
CONTINUOUS
 62
    7
 10
2447.8400000000065
 20
1256.4999307652399
 11
2447.8400000000065
 21
1256.4999307652399
  0
LINE
  8
_0-4_
  6
CONTINUOUS
 62
    7
 10
2447.8400000000065
 20
1256.4999307652399
 11
2447.6316221868064
 21
1256.4944109545162
  0
LINE
  8
_0-4_
  6
CONTINUOUS
 62
    7
 10
2447.6316221868064
 20
1256.4944109545162
 11
2447.4295758280154
 21
1256.478019239001
  0
LINE
  8
_0-4_
  6
CONTINUOUS
 62
    7
 10
2447.4295758280154
 20
1256.478019239001
 11
2447.2400000000056
 21
1256.4512536726749
  0
LINE
  8
_0-4_
  6
CONTINUOUS
 62
    7
 10
2447.2400000000056
 20
1256.4512536726749
 11
2447.0686548683815
 21
1256.4149275137272
  0
LINE
  8
_0-4_
  6
CONTINUOUS
 62
    7
 10
2447.0686548683815
 20
1256.4149275137272
 11
2446.9207466682619
 21
1256.3701445141155
  0
LINE
  8
_0-4_
  6
CONTINUOUS
 62
    7
 10
2446.9207466682619
 20
1256.3701445141155
 11
2446.8007695154624
 21
1256.3182653826213
  0
LINE
  8
_0-4_
  6
CONTINUOUS
 62
    7
 10
2446.8007695154624
 20
1256.3182653826213
 11
2446.7123688550595
 21
1256.2608664404035
  0
LINE
  8
_0-4_
  6
CONTINUOUS
 62
    7
 10
2446.7123688550595
 20
1256.2608664404035
 11
2446.6582306963869
 21
1256.1996917252758
  0
LINE
  8
_0-4_
  6
CONTINUOUS
 62
    7
 10
2446.6582306963869
 20
1256.1996917252758
 11
2446.6400000000007
 21
1256.1366000000034
  0
LINE
  8
_0-4_
  6
CONTINUOUS
 62
    7
 10
2447.8400000000065
 20
1258.7499307652401
 11
2447.8400000000065
 21
1258.7499307652401
  0
LINE
  8
_0-4_
  6
CONTINUOUS
 62
    7
 10
2447.8400000000065
 20
1258.7499307652401
 11
2447.6316221868064
 21
1258.7444109545165
  0
LINE
  8
_0-4_
  6
CONTINUOUS
 62
    7
 10
2447.6316221868064
 20
1258.7444109545165
 11
2447.4295758280154
 21
1258.7280192390012
  0
LINE
  8
_0-4_
  6
CONTINUOUS
 62
    7
 10
2447.4295758280154
 20
1258.7280192390012
 11
2447.2400000000056
 21
1258.7012536726751
  0
LINE
  8
_0-4_
  6
CONTINUOUS
 62
    7
 10
2447.2400000000056
 20
1258.7012536726751
 11
2447.0686548683815
 21
1258.6649275137274
  0
LINE
  8
_0-4_
  6
CONTINUOUS
 62
    7
 10
2447.0686548683815
 20
1258.6649275137274
 11
2446.9207466682619
 21
1258.6201445141157
  0
LINE
  8
_0-4_
  6
CONTINUOUS
 62
    7
 10
2446.9207466682619
 20
1258.6201445141157
 11
2446.8007695154624
 21
1258.5682653826215
  0
LINE
  8
_0-4_
  6
CONTINUOUS
 62
    7
 10
2446.8007695154624
 20
1258.5682653826215
 11
2446.7123688550595
 21
1258.5108664404037
  0
LINE
  8
_0-4_
  6
CONTINUOUS
 62
    7
 10
2446.7123688550595
 20
1258.5108664404037
 11
2446.6582306963869
 21
1258.4496917252761
  0
LINE
  8
_0-4_
  6
CONTINUOUS
 62
    7
 10
2446.6582306963869
 20
1258.4496917252761
 11
2446.6400000000007
 21
1258.3866000000036
  0
LINE
  8
_0-4_
  6
CONTINUOUS
 62
    7
 10
2446.6400000000007
 20
1221.8633000000038
 11
2446.6400000000007
 21
1221.8633000000038
  0
LINE
  8
_0-4_
  6
CONTINUOUS
 62
    7
 10
2446.6400000000007
 20
1221.8633000000038
 11
2446.6582306963837
 21
1221.8002082747293
  0
LINE
  8
_0-4_
  6
CONTINUOUS
 62
    7
 10
2446.6582306963837
 20
1221.8002082747293
 11
2446.7123688550532
 21
1221.7390335596014
  0
LINE
  8
_0-4_
  6
CONTINUOUS
 62
    7
 10
2446.7123688550532
 20
1221.7390335596014
 11
2446.8007695154528
 21
1221.6816346173832
  0
LINE
  8
_0-4_
  6
CONTINUOUS
 62
    7
 10
2446.8007695154528
 20
1221.6816346173832
 11
2446.9207466682496
 21
1221.6297554858886
  0
LINE
  8
_0-4_
  6
CONTINUOUS
 62
    7
 10
2446.9207466682496
 20
1221.6297554858886
 11
2447.068654868367
 21
1221.5849724862762
  0
LINE
  8
_0-4_
  6
CONTINUOUS
 62
    7
 10
2447.068654868367
 20
1221.5849724862762
 11
2447.2399999999897
 21
1221.5486463273275
  0
LINE
  8
_0-4_
  6
CONTINUOUS
 62
    7
 10
2447.2399999999897
 20
1221.5486463273275
 11
2447.4295758279981
 21
1221.5218807610008
  0
LINE
  8
_0-4_
  6
CONTINUOUS
 62
    7
 10
2447.4295758279981
 20
1221.5218807610008
 11
2447.6316221867882
 21
1221.5054890454844
  0
LINE
  8
_0-4_
  6
CONTINUOUS
 62
    7
 10
2447.6316221867882
 20
1221.5054890454844
 11
2447.8399999999824
 21
1221.4999692347598
  0
LINE
  8
_0-4_
  6
CONTINUOUS
 62
    7
 10
2446.6400000000007
 20
1219.6133000000036
 11
2446.6400000000007
 21
1219.6133000000036
  0
LINE
  8
_0-4_
  6
CONTINUOUS
 62
    7
 10
2446.6400000000007
 20
1219.6133000000036
 11
2446.6582306963837
 21
1219.5502082747293
  0
LINE
  8
_0-4_
  6
CONTINUOUS
 62
    7
 10
2446.6582306963837
 20
1219.5502082747293
 11
2446.7123688550532
 21
1219.4890335596014
  0
LINE
  8
_0-4_
  6
CONTINUOUS
 62
    7
 10
2446.7123688550532
 20
1219.4890335596014
 11
2446.8007695154533
 21
1219.4316346173832
  0
LINE
  8
_0-4_
  6
CONTINUOUS
 62
    7
 10
2446.8007695154533
 20
1219.4316346173832
 11
2446.9207466682501
 21
1219.3797554858886
  0
LINE
  8
_0-4_
  6
CONTINUOUS
 62
    7
 10
2446.9207466682501
 20
1219.3797554858886
 11
2447.0686548683675
 21
1219.334972486276
  0
LINE
  8
_0-4_
  6
CONTINUOUS
 62
    7
 10
2447.0686548683675
 20
1219.334972486276
 11
2447.2399999999897
 21
1219.2986463273275
  0
LINE
  8
_0-4_
  6
CONTINUOUS
 62
    7
 10
2447.2399999999897
 20
1219.2986463273275
 11
2447.4295758279981
 21
1219.2718807610008
  0
LINE
  8
_0-4_
  6
CONTINUOUS
 62
    7
 10
2447.4295758279981
 20
1219.2718807610008
 11
2447.6316221867882
 21
1219.2554890454844
  0
LINE
  8
_0-4_
  6
CONTINUOUS
 62
    7
 10
2447.6316221867882
 20
1219.2554890454844
 11
2447.8399999999824
 21
1219.2499692347598
  0
ARC
  8
_0-4_
  6
CONTINUOUS
 62
    7
 10
2478.6747000000009
 20
1247.4811999999999
 40
8
 50
11.650000000000002
 51
88.000000000000014
  0
ARC
  8
_0-4_
  6
CONTINUOUS
 62
    7
 10
2437.5400000000008
 20
1239
 40
50
 50
348.35000000000013
 51
11.650000000000073
  0
ARC
  8
_0-4_
  6
CONTINUOUS
 62
    7
 10
2478.6747000000009
 20
1230.5187999999998
 40
8
 50
272.00000000000011
 51
348.35000000000013
  0
ARC
  8
_0-4_
  6
CONTINUOUS
 62
    7
 10
2447.8400000000006
 20
1197.45
 40
1.1999999999999999
 50
180.00000000000005
 51
270.00000000000005
  0
ARC
  8
_0-4_
  6
CONTINUOUS
 62
    7
 10
2447.8400000000006
 20
1280.5499999999997
 40
1.1999999999999999
 50
90.000000000000028
 51
180.00000000000005
  0
ARC
  8
_0-4_
  6
CONTINUOUS
 62
    7
 10
2478.6718000000009
 20
1247.4951999999998
 40
8
 50
11.670000000000001
 51
88.000000000000014
  0
ARC
  8
_0-4_
  6
CONTINUOUS
 62
    7
 10
2478.6718000000009
 20
1230.5046999999999
 40
8
 50
272.00000000000011
 51
348.33000000000009
  0
ARC
  8
_0-4_
  6
CONTINUOUS
 62
    7
 10
2509.7400500000003
 20
1359.799907218736
 40
80.200050000000004
 50
267
 51
270.00000000000005
  0
ARC
  8
_0-4_
  6
CONTINUOUS
 62
    7
 10
2509.7400500000003
 20
1359.799907218736
 40
80.200050000000004
 50
267
 51
270.00000000000005
  0
LINE
  8
_0-4_
  6
CONTINUOUS
 62
    7
 10
2834.8280000000004
 20
1195.4999572187361
 11
2835.8339
 21
1195.4980072187363
  0
LINE
  8
_0-4_
  6
CONTINUOUS
 62
    7
 10
2835.8339
 20
1195.4980072187363
 11
2836.8399500000004
 21
1195.4960572187362
  0
LINE
  8
_0-4_
  6
CONTINUOUS
 62
    7
 10
2450.1399500000006
 20
1195.4999572187361
 11
2834.8400000000001
 21
1195.4999572187361
  0
LINE
  8
_0-4_
  6
CONTINUOUS
 62
    7
 10
2450.1399500000006
 20
1282.6133572187361
 11
2450.1399500000006
 21
1275.7643572187362
  0
LINE
  8
_0-4_
  6
CONTINUOUS
 62
    7
 10
2505.5427500000005
 20
1279.7098072187361
 11
2450.1399500000006
 21
1282.6133572187361
  0
LINE
  8
_0-4_
  6
CONTINUOUS
 62
    7
 10
2824.3901000000005
 20
1279.5998572187361
 11
2509.7400500000003
 21
1279.5998572187361
  0
LINE
  8
_0-4_
  6
CONTINUOUS
 62
    7
 10
2824.3901000000005
 20
1272.7603072187362
 11
2824.3901000000005
 21
1279.5998572187361
  0
LINE
  8
_0-4_
  6
CONTINUOUS
 62
    7
 10
2509.7400500000003
 20
1272.7603072187362
 11
2824.3901000000005
 21
1272.7603072187362
  0
LINE
  8
_0-4_
  6
CONTINUOUS
 62
    7
 10
2450.1399500000006
 20
1275.7643572187362
 11
2505.18485
 21
1272.8795572187364
  0
LINE
  8
_0-4_
  6
CONTINUOUS
 62
    7
 10
2847.6399500000002
 20
1196.9999572187361
 11
2847.6399500000002
 21
1282.7999572187359
  0
LINE
  8
_0-4_
  6
CONTINUOUS
 62
    7
 10
2846.5527500000007
 20
1196.9999572187361
 11
2847.6399500000002
 21
1196.9999572187361
  0
LINE
  8
_0-4_
  6
CONTINUOUS
 62
    7
 10
2847.6399500000002
 20
1282.7999572187359
 11
2846.5527500000007
 21
1282.7999572187359
  0
LINE
  8
_0-4_
  6
CONTINUOUS
 62
    7
 10
2836.6116500000002
 20
1196.9999572187361
 11
2836.8393500000001
 21
1196.9999572187361
  0
LINE
  8
_0-4_
  6
CONTINUOUS
 62
    7
 10
2836.8399500000004
 20
1197.2278072187361
 11
2836.8399500000004
 21
1197.2230072187362
  0
LINE
  8
_0-4_
  6
CONTINUOUS
 62
    7
 10
2836.8399500000004
 20
1197.2230072187362
 11
2836.8399500000004
 21
1197.2210572187361
  0
LINE
  8
_0-4_
  6
CONTINUOUS
 62
    7
 10
2836.8399500000004
 20
1197.2210572187361
 11
2836.8399500000004
 21
1197.2186572187363
  0
LINE
  8
_0-4_
  6
CONTINUOUS
 62
    7
 10
2836.8399500000004
 20
1197.2186572187363
 11
2836.8398000000001
 21
1197.2159572187363
  0
LINE
  8
_0-4_
  6
CONTINUOUS
 62
    7
 10
2836.8398000000001
 20
1197.2159572187363
 11
2836.8398000000001
 21
1197.2129572187363
  0
LINE
  8
_0-4_
  6
CONTINUOUS
 62
    7
 10
2836.8398000000001
 20
1197.2129572187363
 11
2836.8395000000004
 21
1197.2096572187363
  0
LINE
  8
_0-4_
  6
CONTINUOUS
 62
    7
 10
2836.8395000000004
 20
1197.2096572187363
 11
2836.8392000000003
 21
1197.2063572187362
  0
LINE
  8
_0-4_
  6
CONTINUOUS
 62
    7
 10
2836.8392000000003
 20
1197.2063572187362
 11
2836.8386000000004
 21
1197.2029072187362
  0
LINE
  8
_0-4_
  6
CONTINUOUS
 62
    7
 10
2836.8386000000004
 20
1197.2029072187362
 11
2836.8380000000001
 21
1197.1994572187363
  0
LINE
  8
_0-4_
  6
CONTINUOUS
 62
    7
 10
2836.8380000000001
 20
1197.1994572187363
 11
2836.8372500000004
 21
1197.1960072187362
  0
LINE
  8
_0-4_
  6
CONTINUOUS
 62
    7
 10
2836.8372500000004
 20
1197.1960072187362
 11
2836.8362000000001
 21
1197.1924072187362
  0
LINE
  8
_0-4_
  6
CONTINUOUS
 62
    7
 10
2836.8362000000001
 20
1197.1924072187362
 11
2836.8350000000004
 21
1197.1889572187362
  0
LINE
  8
_0-4_
  6
CONTINUOUS
 62
    7
 10
2836.8350000000004
 20
1197.1889572187362
 11
2836.8335000000001
 21
1197.1852072187361
  0
LINE
  8
_0-4_
  6
CONTINUOUS
 62
    7
 10
2836.8335000000001
 20
1197.1852072187361
 11
2836.8318500000004
 21
1197.1814572187363
  0
LINE
  8
_0-4_
  6
CONTINUOUS
 62
    7
 10
2836.8318500000004
 20
1197.1814572187363
 11
2836.8297500000007
 21
1197.1775572187361
  0
LINE
  8
_0-4_
  6
CONTINUOUS
 62
    7
 10
2836.8297500000007
 20
1197.1775572187361
 11
2836.8275000000003
 21
1197.1733572187363
  0
LINE
  8
_0-4_
  6
CONTINUOUS
 62
    7
 10
2836.8275000000003
 20
1197.1733572187363
 11
2836.8249500000001
 21
1197.1688572187363
  0
LINE
  8
_0-4_
  6
CONTINUOUS
 62
    7
 10
2836.8249500000001
 20
1197.1688572187363
 11
2836.8221000000003
 21
1197.1642072187362
  0
LINE
  8
_0-4_
  6
CONTINUOUS
 62
    7
 10
2836.8221000000003
 20
1197.1642072187362
 11
2836.8189500000007
 21
1197.1592572187362
  0
LINE
  8
_0-4_
  6
CONTINUOUS
 62
    7
 10
2836.8189500000007
 20
1197.1592572187362
 11
2836.8155000000001
 21
1197.1541572187361
  0
LINE
  8
_0-4_
  6
CONTINUOUS
 62
    7
 10
2836.8155000000001
 20
1197.1541572187361
 11
2836.8120500000004
 21
1197.1492072187361
  0
LINE
  8
_0-4_
  6
CONTINUOUS
 62
    7
 10
2836.8120500000004
 20
1197.1492072187361
 11
2836.8086000000002
 21
1197.1441072187362
  0
LINE
  8
_0-4_
  6
CONTINUOUS
 62
    7
 10
2836.8086000000002
 20
1197.1441072187362
 11
2836.8050000000002
 21
1197.1393072187361
  0
LINE
  8
_0-4_
  6
CONTINUOUS
 62
    7
 10
2836.8050000000002
 20
1197.1393072187361
 11
2836.8015500000001
 21
1197.1346572187362
  0
LINE
  8
_0-4_
  6
CONTINUOUS
 62
    7
 10
2836.8015500000001
 20
1197.1346572187362
 11
2836.7981000000004
 21
1197.1303072187361
  0
LINE
  8
_0-4_
  6
CONTINUOUS
 62
    7
 10
2836.7981000000004
 20
1197.1303072187361
 11
2836.7948000000001
 21
1197.1264072187364
  0
LINE
  8
_0-4_
  6
CONTINUOUS
 62
    7
 10
2836.7948000000001
 20
1197.1264072187364
 11
2836.7916500000001
 21
1197.1228072187363
  0
LINE
  8
_0-4_
  6
CONTINUOUS
 62
    7
 10
2836.7916500000001
 20
1197.1228072187363
 11
2836.7885000000001
 21
1197.1193572187362
  0
LINE
  8
_0-4_
  6
CONTINUOUS
 62
    7
 10
2836.7885000000001
 20
1197.1193572187362
 11
2836.7852000000002
 21
1197.115907218736
  0
LINE
  8
_0-4_
  6
CONTINUOUS
 62
    7
 10
2836.7852000000002
 20
1197.115907218736
 11
2836.7816000000002
 21
1197.1124572187363
  0
LINE
  8
_0-4_
  6
CONTINUOUS
 62
    7
 10
2836.7816000000002
 20
1197.1124572187363
 11
2836.7777
 21
1197.1088572187363
  0
LINE
  8
_0-4_
  6
CONTINUOUS
 62
    7
 10
2836.7777
 20
1197.1088572187363
 11
2836.7732
 21
1197.1049572187362
  0
LINE
  8
_0-4_
  6
CONTINUOUS
 62
    7
 10
2836.7732
 20
1197.1049572187362
 11
2836.76825
 21
1197.1006072187362
  0
LINE
  8
_0-4_
  6
CONTINUOUS
 62
    7
 10
2836.76825
 20
1197.1006072187362
 11
2836.7625500000003
 21
1197.0958072187363
  0
LINE
  8
_0-4_
  6
CONTINUOUS
 62
    7
 10
2836.7625500000003
 20
1197.0958072187363
 11
2836.7564000000002
 21
1197.0907072187362
  0
LINE
  8
_0-4_
  6
CONTINUOUS
 62
    7
 10
2836.7564000000002
 20
1197.0907072187362
 11
2836.7496500000006
 21
1197.0851572187361
  0
LINE
  8
_0-4_
  6
CONTINUOUS
 62
    7
 10
2836.7496500000006
 20
1197.0851572187361
 11
2836.7426
 21
1197.0794572187362
  0
LINE
  8
_0-4_
  6
CONTINUOUS
 62
    7
 10
2836.7426
 20
1197.0794572187362
 11
2836.7354000000004
 21
1197.0737572187363
  0
LINE
  8
_0-4_
  6
CONTINUOUS
 62
    7
 10
2836.7354000000004
 20
1197.0737572187363
 11
2836.7280500000006
 21
1197.0680572187361
  0
LINE
  8
_0-4_
  6
CONTINUOUS
 62
    7
 10
2836.7280500000006
 20
1197.0680572187361
 11
2836.7207000000007
 21
1197.0626572187361
  0
LINE
  8
_0-4_
  6
CONTINUOUS
 62
    7
 10
2836.7207000000007
 20
1197.0626572187361
 11
2836.7135000000007
 21
1197.0574072187362
  0
LINE
  8
_0-4_
  6
CONTINUOUS
 62
    7
 10
2836.7135000000007
 20
1197.0574072187362
 11
2836.7064500000005
 21
1197.0524572187362
  0
LINE
  8
_0-4_
  6
CONTINUOUS
 62
    7
 10
2836.7064500000005
 20
1197.0524572187362
 11
2836.6997000000001
 21
1197.0479572187362
  0
LINE
  8
_0-4_
  6
CONTINUOUS
 62
    7
 10
2836.6997000000001
 20
1197.0479572187362
 11
2836.6931000000004
 21
1197.0437572187361
  0
LINE
  8
_0-4_
  6
CONTINUOUS
 62
    7
 10
2836.6931000000004
 20
1197.0437572187361
 11
2836.6866500000005
 21
1197.0398572187361
  0
LINE
  8
_0-4_
  6
CONTINUOUS
 62
    7
 10
2836.6866500000005
 20
1197.0398572187361
 11
2836.6802000000006
 21
1197.0359572187362
  0
LINE
  8
_0-4_
  6
CONTINUOUS
 62
    7
 10
2836.6802000000006
 20
1197.0359572187362
 11
2836.6740500000005
 21
1197.0325072187361
  0
LINE
  8
_0-4_
  6
CONTINUOUS
 62
    7
 10
2836.6740500000005
 20
1197.0325072187361
 11
2836.6677500000005
 21
1197.0290572187361
  0
LINE
  8
_0-4_
  6
CONTINUOUS
 62
    7
 10
2836.6677500000005
 20
1197.0290572187361
 11
2836.6616000000003
 21
1197.0256072187362
  0
LINE
  8
_0-4_
  6
CONTINUOUS
 62
    7
 10
2836.6616000000003
 20
1197.0256072187362
 11
2836.6554500000006
 21
1197.0223072187361
  0
LINE
  8
_0-4_
  6
CONTINUOUS
 62
    7
 10
2836.6554500000006
 20
1197.0223072187361
 11
2836.6493
 21
1197.0191572187361
  0
LINE
  8
_0-4_
  6
CONTINUOUS
 62
    7
 10
2836.6493
 20
1197.0191572187361
 11
2836.6434500000004
 21
1197.0160072187361
  0
LINE
  8
_0-4_
  6
CONTINUOUS
 62
    7
 10
2836.6434500000004
 20
1197.0160072187361
 11
2836.6377500000003
 21
1197.013157218736
  0
LINE
  8
_0-4_
  6
CONTINUOUS
 62
    7
 10
2836.6377500000003
 20
1197.013157218736
 11
2836.6325000000006
 21
1197.010457218736
  0
LINE
  8
_0-4_
  6
CONTINUOUS
 62
    7
 10
2836.6325000000006
 20
1197.010457218736
 11
2836.6277
 21
1197.0080572187362
  0
LINE
  8
_0-4_
  6
CONTINUOUS
 62
    7
 10
2836.6277
 20
1197.0080572187362
 11
2836.6235000000006
 21
1197.005957218736
  0
LINE
  8
_0-4_
  6
CONTINUOUS
 62
    7
 10
2836.6235000000006
 20
1197.005957218736
 11
2836.6116500000002
 21
1196.9999572187361
  0
LINE
  8
_0-4_
  6
CONTINUOUS
 62
    7
 10
2836.8399500000004
 20
1197.2191072187363
 11
2836.8399500000004
 21
1198.999907218736
  0
LINE
  8
_0-4_
  6
CONTINUOUS
 62
    7
 10
2836.8399500000004
 20
1198.999907218736
 11
2836.8399500000004
 21
1232.7998572187361
  0
LINE
  8
_0-4_
  6
CONTINUOUS
 62
    7
 10
2836.3092500000002
 20
1198.999907218736
 11
2836.3092500000002
 21
1265.2925572187361
  0
LINE
  8
_0-4_
  6
CONTINUOUS
 62
    7
 10
2836.8393500000001
 20
1196.9999572187361
 11
2846.5527500000007
 21
1196.9999572187361
  0
LINE
  8
_0-4_
  6
CONTINUOUS
 62
    7
 10
2846.5527500000007
 20
1282.7999572187359
 11
2842.9466000000002
 21
1282.7999572187359
  0
LINE
  8
_0-4_
  6
CONTINUOUS
 62
    7
 10
2454.8982500000006
 20
1275.5149072187361
 11
2454.8982500000006
 21
1275.383207218736
  0
LINE
  8
_0-4_
  6
CONTINUOUS
 62
    7
 10
2454.8982500000006
 20
1275.383207218736
 11
2454.8189000000006
 21
1275.387257218736
  0
LINE
  8
_0-4_
  6
CONTINUOUS
 62
    7
 10
2454.8189000000006
 20
1275.387257218736
 11
2454.7854500000003
 21
1275.389057218736
  0
LINE
  8
_0-4_
  6
CONTINUOUS
 62
    7
 10
2454.7854500000003
 20
1275.389057218736
 11
2454.7446500000005
 21
1275.3910072187361
  0
LINE
  8
_0-4_
  6
CONTINUOUS
 62
    7
 10
2454.7446500000005
 20
1275.3910072187361
 11
2454.6963500000001
 21
1275.3929572187362
  0
LINE
  8
_0-4_
  6
CONTINUOUS
 62
    7
 10
2454.6963500000001
 20
1275.3929572187362
 11
2454.6408500000002
 21
1275.394907218736
  0
LINE
  8
_0-4_
  6
CONTINUOUS
 62
    7
 10
2454.6408500000002
 20
1275.394907218736
 11
2454.5780000000004
 21
1275.3964072187361
  0
LINE
  8
_0-4_
  6
CONTINUOUS
 62
    7
 10
2454.5780000000004
 20
1275.3964072187361
 11
2454.5078000000003
 21
1275.397607218736
  0
LINE
  8
_0-4_
  6
CONTINUOUS
 62
    7
 10
2454.5078000000003
 20
1275.397607218736
 11
2454.4304000000006
 21
1275.398057218736
  0
LINE
  8
_0-4_
  6
CONTINUOUS
 62
    7
 10
2454.4304000000006
 20
1275.398057218736
 11
2454.3456500000006
 21
1275.3977572187361
  0
LINE
  8
_0-4_
  6
CONTINUOUS
 62
    7
 10
2454.3456500000006
 20
1275.3977572187361
 11
2454.2538500000005
 21
1275.3965572187362
  0
LINE
  8
_0-4_
  6
CONTINUOUS
 62
    7
 10
2454.2538500000005
 20
1275.3965572187362
 11
2454.1550000000002
 21
1275.3938572187362
  0
LINE
  8
_0-4_
  6
CONTINUOUS
 62
    7
 10
2454.1550000000002
 20
1275.3938572187362
 11
2454.0492500000004
 21
1275.389507218736
  0
LINE
  8
_0-4_
  6
CONTINUOUS
 62
    7
 10
2454.0492500000004
 20
1275.389507218736
 11
2453.9366000000004
 21
1275.3830572187362
  0
LINE
  8
_0-4_
  6
CONTINUOUS
 62
    7
 10
2453.9366000000004
 20
1275.3830572187362
 11
2453.8172000000004
 21
1275.3740572187361
  0
LINE
  8
_0-4_
  6
CONTINUOUS
 62
    7
 10
2453.8172000000004
 20
1275.3740572187361
 11
2453.69135
 21
1275.362057218736
  0
LINE
  8
_0-4_
  6
CONTINUOUS
 62
    7
 10
2453.69135
 20
1275.362057218736
 11
2453.5592000000006
 21
1275.346907218736
  0
LINE
  8
_0-4_
  6
CONTINUOUS
 62
    7
 10
2453.5592000000006
 20
1275.346907218736
 11
2453.4206000000003
 21
1275.3281572187361
  0
LINE
  8
_0-4_
  6
CONTINUOUS
 62
    7
 10
2453.4206000000003
 20
1275.3281572187361
 11
2453.2760000000002
 21
1275.3053572187359
  0
LINE
  8
_0-4_
  6
CONTINUOUS
 62
    7
 10
2453.2760000000002
 20
1275.3053572187359
 11
2453.1264500000002
 21
1275.278657218736
  0
LINE
  8
_0-4_
  6
CONTINUOUS
 62
    7
 10
2453.1264500000002
 20
1275.278657218736
 11
2452.9731500000007
 21
1275.2485072187359
  0
LINE
  8
_0-4_
  6
CONTINUOUS
 62
    7
 10
2452.9731500000007
 20
1275.2485072187359
 11
2452.8173000000006
 21
1275.2147572187363
  0
LINE
  8
_0-4_
  6
CONTINUOUS
 62
    7
 10
2452.8173000000006
 20
1275.2147572187363
 11
2452.6601000000005
 21
1275.177707218736
  0
LINE
  8
_0-4_
  6
CONTINUOUS
 62
    7
 10
2452.6601000000005
 20
1275.177707218736
 11
2452.5026000000002
 21
1275.1376572187361
  0
LINE
  8
_0-4_
  6
CONTINUOUS
 62
    7
 10
2452.5026000000002
 20
1275.1376572187361
 11
2452.3463000000001
 21
1275.0947572187362
  0
LINE
  8
_0-4_
  6
CONTINUOUS
 62
    7
 10
2452.3463000000001
 20
1275.0947572187362
 11
2452.1921000000002
 21
1275.049007218736
  0
LINE
  8
_0-4_
  6
CONTINUOUS
 62
    7
 10
2452.1921000000002
 20
1275.049007218736
 11
2452.0412000000005
 21
1275.0010072187362
  0
LINE
  8
_0-4_
  6
CONTINUOUS
 62
    7
 10
2452.0412000000005
 20
1275.0010072187362
 11
2451.8943500000004
 21
1274.9509072187361
  0
LINE
  8
_0-4_
  6
CONTINUOUS
 62
    7
 10
2451.8943500000004
 20
1274.9509072187361
 11
2451.7517000000002
 21
1274.8993072187361
  0
LINE
  8
_0-4_
  6
CONTINUOUS
 62
    7
 10
2451.7517000000002
 20
1274.8993072187361
 11
2451.6140000000004
 21
1274.8466572187362
  0
LINE
  8
_0-4_
  6
CONTINUOUS
 62
    7
 10
2451.6140000000004
 20
1274.8466572187362
 11
2451.4818500000005
 21
1274.793257218736
  0
LINE
  8
_0-4_
  6
CONTINUOUS
 62
    7
 10
2451.4818500000005
 20
1274.793257218736
 11
2451.3554000000003
 21
1274.7397072187363
  0
LINE
  8
_0-4_
  6
CONTINUOUS
 62
    7
 10
2451.3554000000003
 20
1274.7397072187363
 11
2451.2354000000004
 21
1274.6864572187362
  0
LINE
  8
_0-4_
  6
CONTINUOUS
 62
    7
 10
2451.2354000000004
 20
1274.6864572187362
 11
2451.1221500000006
 21
1274.6341072187362
  0
LINE
  8
_0-4_
  6
CONTINUOUS
 62
    7
 10
2451.1221500000006
 20
1274.6341072187362
 11
2451.0162500000005
 21
1274.5828072187362
  0
LINE
  8
_0-4_
  6
CONTINUOUS
 62
    7
 10
2451.0162500000005
 20
1274.5828072187362
 11
2450.9175500000001
 21
1274.5328572187361
  0
LINE
  8
_0-4_
  6
CONTINUOUS
 62
    7
 10
2450.9175500000001
 20
1274.5328572187361
 11
2450.8257500000004
 21
1274.484707218736
  0
LINE
  8
_0-4_
  6
CONTINUOUS
 62
    7
 10
2450.8257500000004
 20
1274.484707218736
 11
2450.7407000000002
 21
1274.438507218736
  0
LINE
  8
_0-4_
  6
CONTINUOUS
 62
    7
 10
2450.7407000000002
 20
1274.438507218736
 11
2450.6624000000006
 21
1274.3945572187362
  0
LINE
  8
_0-4_
  6
CONTINUOUS
 62
    7
 10
2450.6624000000006
 20
1274.3945572187362
 11
2450.5905500000003
 21
1274.352857218736
  0
LINE
  8
_0-4_
  6
CONTINUOUS
 62
    7
 10
2450.5905500000003
 20
1274.352857218736
 11
2450.5250000000005
 21
1274.3138572187363
  0
LINE
  8
_0-4_
  6
CONTINUOUS
 62
    7
 10
2450.5250000000005
 20
1274.3138572187363
 11
2450.4654500000006
 21
1274.2778572187362
  0
LINE
  8
_0-4_
  6
CONTINUOUS
 62
    7
 10
2450.4654500000006
 20
1274.2778572187362
 11
2450.4119
 21
1274.2448572187363
  0
LINE
  8
_0-4_
  6
CONTINUOUS
 62
    7
 10
2450.4119
 20
1274.2448572187363
 11
2450.3640500000001
 21
1274.2150072187362
  0
LINE
  8
_0-4_
  6
CONTINUOUS
 62
    7
 10
2450.3640500000001
 20
1274.2150072187362
 11
2450.3217500000005
 21
1274.1880072187361
  0
LINE
  8
_0-4_
  6
CONTINUOUS
 62
    7
 10
2450.3217500000005
 20
1274.1880072187361
 11
2450.2845500000003
 21
1274.1641572187361
  0
LINE
  8
_0-4_
  6
CONTINUOUS
 62
    7
 10
2450.2845500000003
 20
1274.1641572187361
 11
2450.2523000000005
 21
1274.1431572187361
  0
LINE
  8
_0-4_
  6
CONTINUOUS
 62
    7
 10
2450.2523000000005
 20
1274.1431572187361
 11
2450.2250000000003
 21
1274.1251572187361
  0
LINE
  8
_0-4_
  6
CONTINUOUS
 62
    7
 10
2450.2250000000003
 20
1274.1251572187361
 11
2450.2022000000006
 21
1274.1100072187362
  0
LINE
  8
_0-4_
  6
CONTINUOUS
 62
    7
 10
2450.2022000000006
 20
1274.1100072187362
 11
2450.1399500000006
 21
1274.0681572187361
  0
LINE
  8
_0-4_
  6
CONTINUOUS
 62
    7
 10
2450.1399500000006
 20
1275.7643572187362
 11
2450.1399500000006
 21
1274.0681572187361
  0
LINE
  8
_0-4_
  6
CONTINUOUS
 62
    7
 10
2834.8400000000001
 20
1195.5004072187361
 11
2834.8400000000001
 21
1195.5020572187363
  0
LINE
  8
_0-4_
  6
CONTINUOUS
 62
    7
 10
2834.8400000000001
 20
1195.5020572187363
 11
2834.8400000000001
 21
1195.5026572187362
  0
LINE
  8
_0-4_
  6
CONTINUOUS
 62
    7
 10
2834.8400000000001
 20
1195.5026572187362
 11
2834.8400000000001
 21
1195.5034072187363
  0
LINE
  8
_0-4_
  6
CONTINUOUS
 62
    7
 10
2834.8400000000001
 20
1195.5034072187363
 11
2834.8400000000001
 21
1195.5043072187363
  0
LINE
  8
_0-4_
  6
CONTINUOUS
 62
    7
 10
2834.8400000000001
 20
1195.5043072187363
 11
2834.8400000000001
 21
1195.5053572187362
  0
LINE
  8
_0-4_
  6
CONTINUOUS
 62
    7
 10
2834.8400000000001
 20
1195.5053572187362
 11
2834.8400000000001
 21
1195.5067072187362
  0
LINE
  8
_0-4_
  6
CONTINUOUS
 62
    7
 10
2834.8400000000001
 20
1195.5067072187362
 11
2834.8400000000001
 21
1195.5080572187362
  0
LINE
  8
_0-4_
  6
CONTINUOUS
 62
    7
 10
2834.8400000000001
 20
1195.5080572187362
 11
2834.8400000000001
 21
1195.5095572187362
  0
LINE
  8
_0-4_
  6
CONTINUOUS
 62
    7
 10
2834.8400000000001
 20
1195.5095572187362
 11
2834.8400000000001
 21
1195.5112072187362
  0
LINE
  8
_0-4_
  6
CONTINUOUS
 62
    7
 10
2834.8400000000001
 20
1195.5112072187362
 11
2834.8400000000001
 21
1195.5130072187362
  0
LINE
  8
_0-4_
  6
CONTINUOUS
 62
    7
 10
2834.8400000000001
 20
1195.5130072187362
 11
2834.8400000000001
 21
1195.5152572187362
  0
LINE
  8
_0-4_
  6
CONTINUOUS
 62
    7
 10
2834.8400000000001
 20
1195.5152572187362
 11
2834.8400000000001
 21
1195.5181072187363
  0
LINE
  8
_0-4_
  6
CONTINUOUS
 62
    7
 10
2834.8400000000001
 20
1195.5181072187363
 11
2834.8400000000001
 21
1195.5218572187363
  0
LINE
  8
_0-4_
  6
CONTINUOUS
 62
    7
 10
2834.8400000000001
 20
1195.5218572187363
 11
2834.8400000000001
 21
1195.5266572187363
  0
LINE
  8
_0-4_
  6
CONTINUOUS
 62
    7
 10
2834.8400000000001
 20
1195.5266572187363
 11
2834.8400000000001
 21
1195.5328072187362
  0
LINE
  8
_0-4_
  6
CONTINUOUS
 62
    7
 10
2834.8400000000001
 20
1195.5328072187362
 11
2834.8400000000001
 21
1195.5406072187363
  0
LINE
  8
_0-4_
  6
CONTINUOUS
 62
    7
 10
2834.8400000000001
 20
1195.5406072187363
 11
2834.8400000000001
 21
1195.5503572187362
  0
LINE
  8
_0-4_
  6
CONTINUOUS
 62
    7
 10
2834.8400000000001
 20
1195.5503572187362
 11
2834.8400000000001
 21
1195.5620572187362
  0
LINE
  8
_0-4_
  6
CONTINUOUS
 62
    7
 10
2834.8400000000001
 20
1195.5620572187362
 11
2834.8400000000001
 21
1195.5757072187361
  0
LINE
  8
_0-4_
  6
CONTINUOUS
 62
    7
 10
2834.8400000000001
 20
1195.5757072187361
 11
2834.8400000000001
 21
1195.5911572187364
  0
LINE
  8
_0-4_
  6
CONTINUOUS
 62
    7
 10
2834.8400000000001
 20
1195.5911572187364
 11
2834.8400000000001
 21
1195.6085572187362
  0
LINE
  8
_0-4_
  6
CONTINUOUS
 62
    7
 10
2834.8400000000001
 20
1195.6085572187362
 11
2834.8400000000001
 21
1195.6276072187361
  0
LINE
  8
_0-4_
  6
CONTINUOUS
 62
    7
 10
2834.8400000000001
 20
1195.6276072187361
 11
2834.8400000000001
 21
1195.6481572187362
  0
LINE
  8
_0-4_
  6
CONTINUOUS
 62
    7
 10
2834.8400000000001
 20
1195.6481572187362
 11
2834.8400000000001
 21
1195.6702072187363
  0
LINE
  8
_0-4_
  6
CONTINUOUS
 62
    7
 10
2834.8400000000001
 20
1195.6702072187363
 11
2834.8400000000001
 21
1195.6937572187362
  0
LINE
  8
_0-4_
  6
CONTINUOUS
 62
    7
 10
2834.8400000000001
 20
1195.6937572187362
 11
2834.8400000000001
 21
1195.7185072187362
  0
LINE
  8
_0-4_
  6
CONTINUOUS
 62
    7
 10
2834.8400000000001
 20
1195.7185072187362
 11
2834.8400000000001
 21
1195.7446072187362
  0
LINE
  8
_0-4_
  6
CONTINUOUS
 62
    7
 10
2834.8400000000001
 20
1195.7446072187362
 11
2834.8400000000001
 21
1195.7719072187362
  0
LINE
  8
_0-4_
  6
CONTINUOUS
 62
    7
 10
2834.8400000000001
 20
1195.7719072187362
 11
2834.8400000000001
 21
1195.8005572187362
  0
LINE
  8
_0-4_
  6
CONTINUOUS
 62
    7
 10
2834.8400000000001
 20
1195.8005572187362
 11
2834.8400000000001
 21
1195.8304072187363
  0
LINE
  8
_0-4_
  6
CONTINUOUS
 62
    7
 10
2834.8400000000001
 20
1195.8304072187363
 11
2834.8400000000001
 21
1195.8614572187361
  0
LINE
  8
_0-4_
  6
CONTINUOUS
 62
    7
 10
2834.8400000000001
 20
1195.8614572187361
 11
2834.8400000000001
 21
1195.8937072187361
  0
LINE
  8
_0-4_
  6
CONTINUOUS
 62
    7
 10
2834.8400000000001
 20
1195.8937072187361
 11
2834.8400000000001
 21
1195.9271572187362
  0
LINE
  8
_0-4_
  6
CONTINUOUS
 62
    7
 10
2834.8400000000001
 20
1195.9271572187362
 11
2834.8400000000001
 21
1195.9619572187361
  0
LINE
  8
_0-4_
  6
CONTINUOUS
 62
    7
 10
2834.8400000000001
 20
1195.9619572187361
 11
2834.8400000000001
 21
1195.9978072187363
  0
LINE
  8
_0-4_
  6
CONTINUOUS
 62
    7
 10
2834.8400000000001
 20
1195.9978072187363
 11
2834.8400000000001
 21
1196.0348572187363
  0
LINE
  8
_0-4_
  6
CONTINUOUS
 62
    7
 10
2834.8400000000001
 20
1196.0348572187363
 11
2834.8400000000001
 21
1196.072957218736
  0
LINE
  8
_0-4_
  6
CONTINUOUS
 62
    7
 10
2834.8400000000001
 20
1196.072957218736
 11
2834.8400000000001
 21
1196.1121072187361
  0
LINE
  8
_0-4_
  6
CONTINUOUS
 62
    7
 10
2834.8400000000001
 20
1196.1121072187361
 11
2834.8400000000001
 21
1196.1523072187362
  0
LINE
  8
_0-4_
  6
CONTINUOUS
 62
    7
 10
2834.8400000000001
 20
1196.1523072187362
 11
2834.8400000000001
 21
1196.1934072187361
  0
LINE
  8
_0-4_
  6
CONTINUOUS
 62
    7
 10
2834.8400000000001
 20
1196.1934072187361
 11
2834.8400000000001
 21
1196.2354072187363
  0
LINE
  8
_0-4_
  6
CONTINUOUS
 62
    7
 10
2834.8400000000001
 20
1196.2354072187363
 11
2834.8400000000001
 21
1196.2781572187363
  0
LINE
  8
_0-4_
  6
CONTINUOUS
 62
    7
 10
2834.8400000000001
 20
1196.2781572187363
 11
2834.8400000000001
 21
1196.3216572187361
  0
LINE
  8
_0-4_
  6
CONTINUOUS
 62
    7
 10
2834.8400000000001
 20
1196.3216572187361
 11
2834.8400000000001
 21
1196.3653072187362
  0
LINE
  8
_0-4_
  6
CONTINUOUS
 62
    7
 10
2834.8400000000001
 20
1196.3653072187362
 11
2834.8400000000001
 21
1196.4089572187363
  0
LINE
  8
_0-4_
  6
CONTINUOUS
 62
    7
 10
2834.8400000000001
 20
1196.4089572187363
 11
2834.8400000000001
 21
1196.4523072187362
  0
LINE
  8
_0-4_
  6
CONTINUOUS
 62
    7
 10
2834.8400000000001
 20
1196.4523072187362
 11
2834.8400000000001
 21
1196.4950572187362
  0
LINE
  8
_0-4_
  6
CONTINUOUS
 62
    7
 10
2834.8400000000001
 20
1196.4950572187362
 11
2834.8400000000001
 21
1196.5369072187363
  0
LINE
  8
_0-4_
  6
CONTINUOUS
 62
    7
 10
2834.8400000000001
 20
1196.5369072187363
 11
2834.8400000000001
 21
1196.5775572187362
  0
LINE
  8
_0-4_
  6
CONTINUOUS
 62
    7
 10
2834.8400000000001
 20
1196.5775572187362
 11
2834.8400000000001
 21
1196.6165572187362
  0
LINE
  8
_0-4_
  6
CONTINUOUS
 62
    7
 10
2834.8400000000001
 20
1196.6165572187362
 11
2834.8400000000001
 21
1196.6542072187362
  0
LINE
  8
_0-4_
  6
CONTINUOUS
 62
    7
 10
2834.8400000000001
 20
1196.6542072187362
 11
2834.8400000000001
 21
1196.6900572187362
  0
LINE
  8
_0-4_
  6
CONTINUOUS
 62
    7
 10
2834.8400000000001
 20
1196.6900572187362
 11
2834.8400000000001
 21
1196.7242572187362
  0
LINE
  8
_0-4_
  6
CONTINUOUS
 62
    7
 10
2834.8400000000001
 20
1196.7242572187362
 11
2834.8400000000001
 21
1196.7565072187362
  0
LINE
  8
_0-4_
  6
CONTINUOUS
 62
    7
 10
2834.8400000000001
 20
1196.7565072187362
 11
2834.8400000000001
 21
1196.7869572187362
  0
LINE
  8
_0-4_
  6
CONTINUOUS
 62
    7
 10
2834.8400000000001
 20
1196.7869572187362
 11
2834.8400000000001
 21
1196.8154572187361
  0
LINE
  8
_0-4_
  6
CONTINUOUS
 62
    7
 10
2834.8400000000001
 20
1196.8154572187361
 11
2834.8400000000001
 21
1196.8418572187363
  0
LINE
  8
_0-4_
  6
CONTINUOUS
 62
    7
 10
2834.8400000000001
 20
1196.8418572187363
 11
2834.8400000000001
 21
1196.8663072187362
  0
LINE
  8
_0-4_
  6
CONTINUOUS
 62
    7
 10
2834.8400000000001
 20
1196.8663072187362
 11
2834.8400000000001
 21
1196.8885072187363
  0
LINE
  8
_0-4_
  6
CONTINUOUS
 62
    7
 10
2834.8400000000001
 20
1196.8885072187363
 11
2834.8400000000001
 21
1196.9086072187362
  0
LINE
  8
_0-4_
  6
CONTINUOUS
 62
    7
 10
2834.8400000000001
 20
1196.9086072187362
 11
2834.8400000000001
 21
1196.9266072187363
  0
LINE
  8
_0-4_
  6
CONTINUOUS
 62
    7
 10
2834.8400000000001
 20
1196.9266072187363
 11
2834.8400000000001
 21
1196.9423572187363
  0
LINE
  8
_0-4_
  6
CONTINUOUS
 62
    7
 10
2834.8400000000001
 20
1196.9423572187363
 11
2834.8400000000001
 21
1196.9561572187362
  0
LINE
  8
_0-4_
  6
CONTINUOUS
 62
    7
 10
2834.8400000000001
 20
1196.9561572187362
 11
2834.8400000000001
 21
1196.9678572187362
  0
LINE
  8
_0-4_
  6
CONTINUOUS
 62
    7
 10
2834.8400000000001
 20
1196.9678572187362
 11
2834.8400000000001
 21
1196.9999572187361
  0
LINE
  8
_0-4_
  6
CONTINUOUS
 62
    7
 10
2835.3827000000001
 20
1196.9999572187361
 11
2835.3674
 21
1197.0026572187362
  0
LINE
  8
_0-4_
  6
CONTINUOUS
 62
    7
 10
2835.3674
 20
1197.0026572187362
 11
2835.3609500000002
 21
1197.0037072187365
  0
LINE
  8
_0-4_
  6
CONTINUOUS
 62
    7
 10
2835.3609500000002
 20
1197.0037072187365
 11
2835.3531500000008
 21
1197.0052072187363
  0
LINE
  8
_0-4_
  6
CONTINUOUS
 62
    7
 10
2835.3531500000008
 20
1197.0052072187363
 11
2835.34445
 21
1197.0067072187362
  0
LINE
  8
_0-4_
  6
CONTINUOUS
 62
    7
 10
2835.34445
 20
1197.0067072187362
 11
2835.3347000000007
 21
1197.0085072187362
  0
LINE
  8
_0-4_
  6
CONTINUOUS
 62
    7
 10
2835.3347000000007
 20
1197.0085072187362
 11
2835.3243500000007
 21
1197.0103072187362
  0
LINE
  8
_0-4_
  6
CONTINUOUS
 62
    7
 10
2835.3243500000007
 20
1197.0103072187362
 11
2835.3134000000004
 21
1197.012257218736
  0
LINE
  8
_0-4_
  6
CONTINUOUS
 62
    7
 10
2835.3134000000004
 20
1197.012257218736
 11
2835.3020000000005
 21
1197.0143572187362
  0
LINE
  8
_0-4_
  6
CONTINUOUS
 62
    7
 10
2835.3020000000005
 20
1197.0143572187362
 11
2835.2906000000007
 21
1197.0166072187362
  0
LINE
  8
_0-4_
  6
CONTINUOUS
 62
    7
 10
2835.2906000000007
 20
1197.0166072187362
 11
2835.27905
 21
1197.0187072187361
  0
LINE
  8
_0-4_
  6
CONTINUOUS
 62
    7
 10
2835.27905
 20
1197.0187072187361
 11
2835.2675000000003
 21
1197.0209572187361
  0
LINE
  8
_0-4_
  6
CONTINUOUS
 62
    7
 10
2835.2675000000003
 20
1197.0209572187361
 11
2835.25565
 21
1197.0232072187361
  0
LINE
  8
_0-4_
  6
CONTINUOUS
 62
    7
 10
2835.25565
 20
1197.0232072187361
 11
2835.2436500000003
 21
1197.0256072187362
  0
LINE
  8
_0-4_
  6
CONTINUOUS
 62
    7
 10
2835.2436500000003
 20
1197.0256072187362
 11
2835.23135
 21
1197.0283072187362
  0
LINE
  8
_0-4_
  6
CONTINUOUS
 62
    7
 10
2835.23135
 20
1197.0283072187362
 11
2835.2184500000003
 21
1197.0310072187362
  0
LINE
  8
_0-4_
  6
CONTINUOUS
 62
    7
 10
2835.2184500000003
 20
1197.0310072187362
 11
2835.2052499999999
 21
1197.0340072187361
  0
LINE
  8
_0-4_
  6
CONTINUOUS
 62
    7
 10
2835.2052499999999
 20
1197.0340072187361
 11
2835.1913000000004
 21
1197.0371572187361
  0
LINE
  8
_0-4_
  6
CONTINUOUS
 62
    7
 10
2835.1913000000004
 20
1197.0371572187361
 11
2835.1767500000005
 21
1197.0406072187361
  0
LINE
  8
_0-4_
  6
CONTINUOUS
 62
    7
 10
2835.1767500000005
 20
1197.0406072187361
 11
2835.1617500000002
 21
1197.0442072187361
  0
LINE
  8
_0-4_
  6
CONTINUOUS
 62
    7
 10
2835.1617500000002
 20
1197.0442072187361
 11
2835.1466000000004
 21
1197.0479572187362
  0
LINE
  8
_0-4_
  6
CONTINUOUS
 62
    7
 10
2835.1466000000004
 20
1197.0479572187362
 11
2835.1316000000006
 21
1197.0518572187361
  0
LINE
  8
_0-4_
  6
CONTINUOUS
 62
    7
 10
2835.1316000000006
 20
1197.0518572187361
 11
2835.1169000000004
 21
1197.0556072187362
  0
LINE
  8
_0-4_
  6
CONTINUOUS
 62
    7
 10
2835.1169000000004
 20
1197.0556072187362
 11
2835.1029500000004
 21
1197.0592072187362
  0
LINE
  8
_0-4_
  6
CONTINUOUS
 62
    7
 10
2835.1029500000004
 20
1197.0592072187362
 11
2835.089750000001
 21
1197.0626572187361
  0
LINE
  8
_0-4_
  6
CONTINUOUS
 62
    7
 10
2835.089750000001
 20
1197.0626572187361
 11
2835.0777500000003
 21
1197.0658072187361
  0
LINE
  8
_0-4_
  6
CONTINUOUS
 62
    7
 10
2835.0777500000003
 20
1197.0658072187361
 11
2835.0671000000006
 21
1197.0686572187362
  0
LINE
  8
_0-4_
  6
CONTINUOUS
 62
    7
 10
2835.0671000000006
 20
1197.0686572187362
 11
2835.0576500000006
 21
1197.0712072187361
  0
LINE
  8
_0-4_
  6
CONTINUOUS
 62
    7
 10
2835.0576500000006
 20
1197.0712072187361
 11
2835.0492500000009
 21
1197.0734572187361
  0
LINE
  8
_0-4_
  6
CONTINUOUS
 62
    7
 10
2835.0492500000009
 20
1197.0734572187361
 11
2835.0414500000006
 21
1197.0757072187361
  0
LINE
  8
_0-4_
  6
CONTINUOUS
 62
    7
 10
2835.0414500000006
 20
1197.0757072187361
 11
2835.0344000000004
 21
1197.0778072187363
  0
LINE
  8
_0-4_
  6
CONTINUOUS
 62
    7
 10
2835.0344000000004
 20
1197.0778072187363
 11
2835.0275000000006
 21
1197.0799072187362
  0
LINE
  8
_0-4_
  6
CONTINUOUS
 62
    7
 10
2835.0275000000006
 20
1197.0799072187362
 11
2835.0209000000004
 21
1197.0820072187361
  0
LINE
  8
_0-4_
  6
CONTINUOUS
 62
    7
 10
2835.0209000000004
 20
1197.0820072187361
 11
2835.0140000000005
 21
1197.0842572187361
  0
LINE
  8
_0-4_
  6
CONTINUOUS
 62
    7
 10
2835.0140000000005
 20
1197.0842572187361
 11
2835.0069500000008
 21
1197.0868072187363
  0
LINE
  8
_0-4_
  6
CONTINUOUS
 62
    7
 10
2835.0069500000008
 20
1197.0868072187363
 11
2834.9997500000008
 21
1197.0893572187362
  0
LINE
  8
_0-4_
  6
CONTINUOUS
 62
    7
 10
2834.9997500000008
 20
1197.0893572187362
 11
2834.9924000000005
 21
1197.0919072187361
  0
LINE
  8
_0-4_
  6
CONTINUOUS
 62
    7
 10
2834.9924000000005
 20
1197.0919072187361
 11
2834.9850500000002
 21
1197.0946072187362
  0
LINE
  8
_0-4_
  6
CONTINUOUS
 62
    7
 10
2834.9850500000002
 20
1197.0946072187362
 11
2834.9780000000005
 21
1197.0971572187363
  0
LINE
  8
_0-4_
  6
CONTINUOUS
 62
    7
 10
2834.9780000000005
 20
1197.0971572187363
 11
2834.9712500000005
 21
1197.099707218736
  0
LINE
  8
_0-4_
  6
CONTINUOUS
 62
    7
 10
2834.9712500000005
 20
1197.099707218736
 11
2834.9648000000001
 21
1197.1021072187363
  0
LINE
  8
_0-4_
  6
CONTINUOUS
 62
    7
 10
2834.9648000000001
 20
1197.1021072187363
 11
2834.9591000000004
 21
1197.104207218736
  0
LINE
  8
_0-4_
  6
CONTINUOUS
 62
    7
 10
2834.9591000000004
 20
1197.104207218736
 11
2834.9538500000007
 21
1197.1063072187362
  0
LINE
  8
_0-4_
  6
CONTINUOUS
 62
    7
 10
2834.9538500000007
 20
1197.1063072187362
 11
2834.9493500000007
 21
1197.1081072187362
  0
LINE
  8
_0-4_
  6
CONTINUOUS
 62
    7
 10
2834.9493500000007
 20
1197.1081072187362
 11
2834.9451500000004
 21
1197.1097572187363
  0
LINE
  8
_0-4_
  6
CONTINUOUS
 62
    7
 10
2834.9451500000004
 20
1197.1097572187363
 11
2834.9414000000001
 21
1197.1112572187362
  0
LINE
  8
_0-4_
  6
CONTINUOUS
 62
    7
 10
2834.9414000000001
 20
1197.1112572187362
 11
2834.9378000000001
 21
1197.112757218736
  0
LINE
  8
_0-4_
  6
CONTINUOUS
 62
    7
 10
2834.9378000000001
 20
1197.112757218736
 11
2834.9342000000001
 21
1197.1144072187362
  0
LINE
  8
_0-4_
  6
CONTINUOUS
 62
    7
 10
2834.9342000000001
 20
1197.1144072187362
 11
2834.9306000000001
 21
1197.1160572187363
  0
LINE
  8
_0-4_
  6
CONTINUOUS
 62
    7
 10
2834.9306000000001
 20
1197.1160572187363
 11
2834.9268500000007
 21
1197.1178572187363
  0
LINE
  8
_0-4_
  6
CONTINUOUS
 62
    7
 10
2834.9268500000007
 20
1197.1178572187363
 11
2834.9228000000002
 21
1197.119957218736
  0
LINE
  8
_0-4_
  6
CONTINUOUS
 62
    7
 10
2834.9228000000002
 20
1197.119957218736
 11
2834.9184500000001
 21
1197.1220572187362
  0
LINE
  8
_0-4_
  6
CONTINUOUS
 62
    7
 10
2834.9184500000001
 20
1197.1220572187362
 11
2834.9139500000001
 21
1197.1243072187362
  0
LINE
  8
_0-4_
  6
CONTINUOUS
 62
    7
 10
2834.9139500000001
 20
1197.1243072187362
 11
2834.9094500000001
 21
1197.1265572187362
  0
LINE
  8
_0-4_
  6
CONTINUOUS
 62
    7
 10
2834.9094500000001
 20
1197.1265572187362
 11
2834.90495
 21
1197.1289572187361
  0
LINE
  8
_0-4_
  6
CONTINUOUS
 62
    7
 10
2834.90495
 20
1197.1289572187361
 11
2834.90045
 21
1197.1313572187361
  0
LINE
  8
_0-4_
  6
CONTINUOUS
 62
    7
 10
2834.90045
 20
1197.1313572187361
 11
2834.8962500000006
 21
1197.1336072187361
  0
LINE
  8
_0-4_
  6
CONTINUOUS
 62
    7
 10
2834.8962500000006
 20
1197.1336072187361
 11
2834.8922000000002
 21
1197.1357072187361
  0
LINE
  8
_0-4_
  6
CONTINUOUS
 62
    7
 10
2834.8922000000002
 20
1197.1357072187361
 11
2834.8884500000008
 21
1197.1378072187362
  0
LINE
  8
_0-4_
  6
CONTINUOUS
 62
    7
 10
2834.8884500000008
 20
1197.1378072187362
 11
2834.8850000000002
 21
1197.1397572187361
  0
LINE
  8
_0-4_
  6
CONTINUOUS
 62
    7
 10
2834.8850000000002
 20
1197.1397572187361
 11
2834.8818500000006
 21
1197.1415572187361
  0
LINE
  8
_0-4_
  6
CONTINUOUS
 62
    7
 10
2834.8818500000006
 20
1197.1415572187361
 11
2834.8790000000008
 21
1197.1433572187361
  0
LINE
  8
_0-4_
  6
CONTINUOUS
 62
    7
 10
2834.8790000000008
 20
1197.1433572187361
 11
2834.8761500000005
 21
1197.1451572187361
  0
LINE
  8
_0-4_
  6
CONTINUOUS
 62
    7
 10
2834.8761500000005
 20
1197.1451572187361
 11
2834.8736000000008
 21
1197.1469572187361
  0
LINE
  8
_0-4_
  6
CONTINUOUS
 62
    7
 10
2834.8736000000008
 20
1197.1469572187361
 11
2834.8712000000004
 21
1197.1487572187361
  0
LINE
  8
_0-4_
  6
CONTINUOUS
 62
    7
 10
2834.8712000000004
 20
1197.1487572187361
 11
2834.86895
 21
1197.1505572187361
  0
LINE
  8
_0-4_
  6
CONTINUOUS
 62
    7
 10
2834.86895
 20
1197.1505572187361
 11
2834.8667000000004
 21
1197.1525072187362
  0
LINE
  8
_0-4_
  6
CONTINUOUS
 62
    7
 10
2834.8667000000004
 20
1197.1525072187362
 11
2834.8646000000007
 21
1197.1546072187361
  0
LINE
  8
_0-4_
  6
CONTINUOUS
 62
    7
 10
2834.8646000000007
 20
1197.1546072187361
 11
2834.8626500000004
 21
1197.1565572187362
  0
LINE
  8
_0-4_
  6
CONTINUOUS
 62
    7
 10
2834.8626500000004
 20
1197.1565572187362
 11
2834.86085
 21
1197.1585072187363
  0
LINE
  8
_0-4_
  6
CONTINUOUS
 62
    7
 10
2834.86085
 20
1197.1585072187363
 11
2834.8592000000007
 21
1197.1604572187361
  0
LINE
  8
_0-4_
  6
CONTINUOUS
 62
    7
 10
2834.8592000000007
 20
1197.1604572187361
 11
2834.8577000000004
 21
1197.1621072187363
  0
LINE
  8
_0-4_
  6
CONTINUOUS
 62
    7
 10
2834.8577000000004
 20
1197.1621072187363
 11
2834.8565000000007
 21
1197.1636072187361
  0
LINE
  8
_0-4_
  6
CONTINUOUS
 62
    7
 10
2834.8565000000007
 20
1197.1636072187361
 11
2834.8529000000007
 21
1197.1681072187361
  0
LINE
  8
_0-4_
  6
CONTINUOUS
 62
    7
 10
2834.8400000000001
 20
1197.1979572187362
 11
2834.8400000000001
 21
1198.999907218736
  0
LINE
  8
_0-4_
  6
CONTINUOUS
 62
    7
 10
2836.8399500000004
 20
1198.999907218736
 11
2834.8400000000001
 21
1198.999907218736
  0
LINE
  8
_0-4_
  6
CONTINUOUS
 62
    7
 10
2836.8399500000004
 20
1195.4962072187363
 11
2836.8399500000004
 21
1197.0008572187362
  0
LINE
  8
_0-4_
  6
CONTINUOUS
 62
    7
 10
2450.1399500000006
 20
1197.1999072187363
 11
2450.1399500000006
 21
1195.4999572187361
  0
LINE
  8
_0-4_
  6
CONTINUOUS
 62
    7
 10
2450.1399500000006
 20
1197.1999072187363
 11
2830.9554500000003
 21
1197.1999072187363
  0
LINE
  8
_0-4_
  6
CONTINUOUS
 62
    7
 10
2505.1779500000002
 20
1272.7481572187361
 11
2454.8982500000006
 21
1275.383207218736
  0
LINE
  8
_0-4_
  6
CONTINUOUS
 62
    7
 10
2509.7400500000003
 20
1272.628607218736
 11
2821.6400000000003
 21
1272.628607218736
  0
LINE
  8
_0-4_
  6
CONTINUOUS
 62
    7
 10
2830.9554500000003
 20
1196.9999572187361
 11
2830.9554500000003
 21
1197.1999072187363
  0
LINE
  8
_0-4_
  6
CONTINUOUS
 62
    7
 10
2450.1399500000006
 20
1200.4999072187363
 11
2450.1399500000006
 21
1197.1999072187363
  0
LINE
  8
_0-4_
  6
CONTINUOUS
 62
    7
 10
2449.6400000000003
 20
1200.9998572187362
 11
2450.1399500000006
 21
1200.4999072187363
  0
LINE
  8
_0-4_
  6
CONTINUOUS
 62
    7
 10
2449.6400000000003
 20
1226.9999572187361
 11
2449.6400000000003
 21
1200.9998572187362
  0
LINE
  8
_0-4_
  6
CONTINUOUS
 62
    7
 10
2461.3557500000006
 20
1229.9999572187361
 11
2452.6400000000003
 21
1229.9999572187361
  0
LINE
  8
_0-4_
  6
CONTINUOUS
 62
    7
 10
2474.8400000000001
 20
1234.7498572187362
 11
2467.2242000000001
 21
1234.7498572187362
  0
LINE
  8
_0-4_
  6
CONTINUOUS
 62
    7
 10
2475.3399500000004
 20
1234.615907218736
 11
2475.3399500000004
 21
1225.4999572187361
  0
LINE
  8
_0-4_
  6
CONTINUOUS
 62
    7
 10
2481.1400000000003
 20
1225.4999572187361
 11
2475.3399500000004
 21
1225.4999572187361
  0
LINE
  8
_0-4_
  6
CONTINUOUS
 62
    7
 10
2481.3399500000004
 20
1252.2998572187361
 11
2481.3399500000004
 21
1225.6999072187361
  0
LINE
  8
_0-4_
  6
CONTINUOUS
 62
    7
 10
2475.3399500000004
 20
1252.4999572187359
 11
2481.1400000000003
 21
1252.4999572187359
  0
LINE
  8
_0-4_
  6
CONTINUOUS
 62
    7
 10
2475.3399500000004
 20
1252.4999572187359
 11
2475.3399500000004
 21
1243.383857218736
  0
LINE
  8
_0-4_
  6
CONTINUOUS
 62
    7
 10
2467.2242000000001
 20
1243.249907218736
 11
2474.8400000000001
 21
1243.249907218736
  0
LINE
  8
_0-4_
  6
CONTINUOUS
 62
    7
 10
2452.6400000000003
 20
1247.9999572187361
 11
2461.3557500000006
 21
1247.9999572187361
  0
LINE
  8
_0-4_
  6
CONTINUOUS
 62
    7
 10
2449.6400000000003
 20
1272.499907218736
 11
2449.6400000000003
 21
1250.9999572187361
  0
LINE
  8
_0-4_
  6
CONTINUOUS
 62
    7
 10
2450.1399500000006
 20
1272.499907218736
 11
2449.6400000000003
 21
1272.499907218736
  0
LINE
  8
_0-4_
  6
CONTINUOUS
 62
    7
 10
2830.9554500000003
 20
1196.9999572187361
 11
2834.8400000000001
 21
1196.9999572187361
  0
LINE
  8
_0-4_
  6
CONTINUOUS
 62
    7
 10
2834.8400000000001
 20
1196.9999572187361
 11
2835.3827000000001
 21
1196.9999572187361
  0
LINE
  8
_0-4_
  6
CONTINUOUS
 62
    7
 10
2827.6400000000003
 20
1282.7999572187359
 11
2832.3333499999998
 21
1282.7999572187359
  0
LINE
  8
_0-4_
  6
CONTINUOUS
 62
    7
 10
2450.1399500000006
 20
1274.0681572187361
 11
2450.1399500000006
 21
1272.499907218736
  0
LINE
  8
_0-4_
  6
CONTINUOUS
 62
    7
 10
2509.7400500000003
 20
1272.628607218736
 11
2509.7400500000003
 21
1272.7603072187362
  0
LINE
  8
_0-4_
  6
CONTINUOUS
 62
    7
 10
2821.6400000000003
 20
1272.628607218736
 11
2821.6400000000003
 21
1272.7603072187362
  0
LINE
  8
_0-4_
  6
CONTINUOUS
 62
    7
 10
2505.1779500000002
 20
1272.7481572187361
 11
2505.18485
 21
1272.8795572187364
  0
LINE
  8
_0-4_
  6
CONTINUOUS
 62
    7
 10
2475.8399000000003
 20
1244.2499572187361
 11
2475.8399000000003
 21
1252.2998572187361
  0
LINE
  8
_0-4_
  6
CONTINUOUS
 62
    7
 10
2475.8399000000003
 20
1225.6999072187361
 11
2475.8399000000003
 21
1233.7499572187359
  0
LINE
  8
_0-4_
  6
CONTINUOUS
 62
    7
 10
2447.6399000000001
 20
1196.9999572187361
 11
2447.6399000000001
 21
1195.9999072187363
  0
LINE
  8
_0-4_
  6
CONTINUOUS
 62
    7
 10
2447.6399000000001
 20
1195.9999072187363
 11
2450.1399500000006
 21
1195.9999072187363
  0
LINE
  8
_0-4_
  6
CONTINUOUS
 62
    7
 10
2450.1399500000006
 20
1196.9999572187361
 11
2447.6399000000001
 21
1196.9999572187361
  0
LINE
  8
_0-4_
  6
CONTINUOUS
 62
    7
 10
2846.5527500000007
 20
1196.9999572187361
 11
2846.5527500000007
 21
1271.2333072187361
  0
LINE
  8
_0-4_
  6
CONTINUOUS
 62
    7
 10
2846.5527500000007
 20
1278.3665572187362
 11
2846.5527500000007
 21
1282.7999572187359
  0
LINE
  8
_0-4_
  6
CONTINUOUS
 62
    7
 10
2837.6399000000001
 20
1274.7998572187361
 11
2837.6399000000001
 21
1275.2999572187359
  0
LINE
  8
_0-4_
  6
CONTINUOUS
 62
    7
 10
2837.6399000000001
 20
1274.7998572187361
 11
2837.1399500000006
 21
1274.7998572187361
  0
LINE
  8
_0-4_
  6
CONTINUOUS
 62
    7
 10
2837.6399000000001
 20
1274.7998572187361
 11
2837.6399000000001
 21
1274.2999072187362
  0
LINE
  8
_0-4_
  6
CONTINUOUS
 62
    7
 10
2837.6399000000001
 20
1274.7998572187361
 11
2838.1400000000007
 21
1274.7998572187361
  0
LINE
  8
_0-4_
  6
CONTINUOUS
 62
    7
 10
2837.6399000000001
 20
1275.7999072187362
 11
2837.6399000000001
 21
1284.899957218736
  0
LINE
  8
_0-4_
  6
CONTINUOUS
 62
    7
 10
2836.6400000000003
 20
1274.7998572187361
 11
2827.5399500000003
 21
1274.7998572187361
  0
LINE
  8
_0-4_
  6
CONTINUOUS
 62
    7
 10
2837.6399000000001
 20
1273.7999572187363
 11
2837.6399000000001
 21
1264.6999072187361
  0
LINE
  8
_0-4_
  6
CONTINUOUS
 62
    7
 10
2838.6399500000006
 20
1274.7998572187361
 11
2847.7399999999997
 21
1274.7998572187361
  0
LINE
  8
_0-4_
  6
CENTER2
 62
    7
 10
2488.6319000000003
 20
1238.9999572187361
 11
2463.4742000000001
 21
1238.9999572187361
  0
ARC
  8
_0-4_
  6
CONTINUOUS
 62
    7
 10
2509.7400500000003
 20
1359.799907218736
 40
87.039600000000021
 50
267
 51
270.00000000000005
  0
CIRCLE
  8
_0-4_
  6
CONTINUOUS
 62
    7
 10
2837.6399000000001
 20
1274.7998572187361
 40
9.6000000000000014
  0
ARC
  8
_0-4_
  6
CONTINUOUS
 62
    7
 10
2509.7400500000003
 20
1359.799907218736
 40
87.171300000000002
 50
267
 51
270.00000000000005
  0
ARC
  8
_0-4_
  6
CONTINUOUS
 62
    7
 10
2823.7700000000004
 20
1281.5999572187365
 40
1.9999500000000003
 50
270.00000000000005
 51
348.47200000000003
  0
ARC
  8
_0-4_
  6
CONTINUOUS
 62
    7
 10
2827.6893500000005
 20
1280.800457218736
 40
1.9999500000000003
 50
91.413000000000025
 51
168.47200000000003
  0
ARC
  8
_0-4_
  6
CONTINUOUS
 62
    7
 10
2452.6400000000003
 20
1226.9999572187361
 40
3.0000000000000004
 50
90.000000000000028
 51
180.00000000000005
  0
ARC
  8
_0-4_
  6
CONTINUOUS
 62
    7
 10
2461.3557500000006
 20
1232.9999572187361
 40
3.0000000000000004
 50
270.00000000000005
 51
347.97500000000007
  0
ARC
  8
_0-4_
  6
CONTINUOUS
 62
    7
 10
2467.2242000000001
 20
1231.7498572187359
 40
3.0000000000000004
 50
90.000000000000028
 51
167.97500000000002
  0
ARC
  8
_0-4_
  6
CONTINUOUS
 62
    7
 10
2474.8400000000001
 20
1233.7499572187359
 40
1.0000500000000001
 50
60.000000000000007
 51
90.000000000000014
  0
ARC
  8
_0-4_
  6
CONTINUOUS
 62
    7
 10
2481.1400000000003
 20
1225.6999072187361
 40
0.19995
 50
270.00000000000005
 51
0.0000000000000763
  0
ARC
  8
_0-4_
  6
CONTINUOUS
 62
    7
 10
2481.1400000000003
 20
1252.2998572187361
 40
0.19995
 50
0
 51
90.000000000000028
  0
ARC
  8
_0-4_
  6
CONTINUOUS
 62
    7
 10
2474.8400000000001
 20
1244.2499572187361
 40
1.0000500000000001
 50
270.00000000000005
 51
300.00000000000005
  0
ARC
  8
_0-4_
  6
CONTINUOUS
 62
    7
 10
2467.2242000000001
 20
1246.249907218736
 40
3.0000000000000004
 50
192.02500000000003
 51
270.00000000000005
  0
ARC
  8
_0-4_
  6
CONTINUOUS
 62
    7
 10
2461.3557500000006
 20
1244.9999572187359
 40
3.0000000000000004
 50
12.025000000000002
 51
90.000000000000014
  0
ARC
  8
_0-4_
  6
CONTINUOUS
 62
    7
 10
2452.6400000000003
 20
1250.9999572187361
 40
3.0000000000000004
 50
180.00000000000005
 51
270.00000000000005
  0
ARC
  8
_0-4_
  6
CONTINUOUS
 62
    7
 10
2476.0400000000004
 20
1252.2998572187361
 40
0.19995
 50
90.000000000000028
 51
180.00000000000005
  0
ARC
  8
_0-4_
  6
CONTINUOUS
 62
    7
 10
2474.8400000000001
 20
1244.2499572187361
 40
1.0000500000000001
 50
300.00000000000005
 51
0.0000000000000763
  0
ARC
  8
_0-4_
  6
CONTINUOUS
 62
    7
 10
2476.0400000000004
 20
1225.6999072187361
 40
0.19995
 50
180.00000000000005
 51
270.00000000000005
  0
ARC
  8
_0-4_
  6
CONTINUOUS
 62
    7
 10
2474.8400000000001
 20
1233.7499572187359
 40
1.0000500000000001
 50
0
 51
60.000000000000007
  0
ARC
  8
_0-2_
  6
CONTINUOUS
 62
    5
 10
2426.0400000000008
 20
1379.5999999999999
 40
0.4
 50
90
 51
180
  0
LINE
  8
_0-2_
  6
CONTINUOUS
 62
    5
 10
2850.6400000000003
 20
1380
 11
2426.0400000000008
 21
1380
  0
ARC
  8
_0-2_
  6
CONTINUOUS
 62
    5
 10
2850.6400000000003
 20
1390
 40
10
 50
270
 51
0
  0
LINE
  8
_0-2_
  6
CONTINUOUS
 62
    5
 10
2868.6400000000003
 20
1470
 11
2885.6400000000003
 21
1470
  0
LINE
  8
_0-2_
  6
CONTINUOUS
 62
    5
 10
2860.6400000000003
 20
1462
 11
2860.6400000000003
 21
1390
  0
ARC
  8
_0-2_
  6
CONTINUOUS
 62
    5
 10
2868.6400000000003
 20
1462
 40
8
 50
90
 51
180
  0
LINE
  8
_0-2_
  6
CONTINUOUS
 62
    5
 10
2425.6400000000007
 20
1379.5999999999999
 11
2425.6400000000007
 21
1355
  0
LINE
  8
_0-2_
  6
CONTINUOUS
 62
    5
 10
2425.6400000000007
 20
1355
 11
2885.6400000000003
 21
1355
  0
LINE
  8
_0-2_
  6
CONTINUOUS
 62
    5
 10
2885.6400000000003
 20
1470
 11
2885.6400000000003
 21
1355
  0
LINE
  8
_0-2_
  6
CONTINUOUS
 62
    5
 10
999.99999999999954
 20
1469.9999999999995
 11
999.99999999999954
 21
1355
  0
LINE
  8
_0-2_
  6
CONTINUOUS
 62
    5
 10
1299.9999999999995
 20
1469.9999999999995
 11
1299.9999999999995
 21
1355
  0
LINE
  8
_0-2_
  6
CONTINUOUS
 62
    5
 10
1299.9999999999995
 20
1469.9999999999995
 11
999.99999999999954
 21
1469.9999999999995
  0
LINE
  8
_0-2_
  6
CONTINUOUS
 62
    5
 10
1299.9999999999995
 20
1379.9999999999995
 11
999.99999999999954
 21
1379.9999999999995
  0
LINE
  8
_0-2_
  6
CONTINUOUS
 62
    5
 10
1299.9999999999995
 20
1355
 11
999.99999999999954
 21
1355
  0
LINE
  8
_0-4_
  6
CONTINUOUS
 62
    3
 10
1003.9999999999998
 20
1174.9999999999997
 11
1003.9999999999998
 21
674.99999999999943
  0
LINE
  8
_0-4_
  6
CONTINUOUS
 62
    3
 10
1003.9999999999998
 20
1307
 11
1003.9999999999998
 21
1179.9999999999995
  0
ARC
  8
_0-4_
  6
CONTINUOUS
 62
    4
 10
1007
 20
1342.9999999999995
 40
3.0000000000000004
 50
180
 51
270
  0
LINE
  8
_0-4_
  6
CONTINUOUS
 62
    3
 10
1003.9999999999998
 20
1307
 11
1003.9999999999998
 21
1347
  0
ARC
  8
_0-4_
  6
CONTINUOUS
 62
    4
 10
1007
 20
1170.9999999999995
 40
3.0000000000000004
 50
180
 51
270
  0
LINE
  8
_0-4_
  6
CONTINUOUS
 62
    3
 10
1295.9999999999995
 20
1307
 11
1295.9999999999995
 21
1179.9999999999995
  0
ARC
  8
_0-4_
  6
CONTINUOUS
 62
    4
 10
1292.9999999999995
 20
1342.9999999999995
 40
3.0000000000000004
 50
270
 51
0
  0
LINE
  8
_0-4_
  6
CONTINUOUS
 62
    3
 10
1295.9999999999995
 20
1307
 11
1295.9999999999995
 21
1347
  0
ARC
  8
_0-4_
  6
CONTINUOUS
 62
    4
 10
1292.9999999999995
 20
1170.9999999999995
 40
3.0000000000000004
 50
270
 51
0
  0
LINE
  8
_0-4_
  6
CONTINUOUS
 62
    3
 10
1295.9999999999995
 20
1174.9999999999997
 11
1295.9999999999995
 21
674.99999999999943
  0
LINE
  8
_0-4_
  6
CONTINUOUS
 62
    3
 10
1295.9999999999995
 20
1347
 11
1003.9999999999998
 21
1347
  0
LINE
  8
_0-4_
  6
CONTINUOUS
 62
    4
 10
1007
 20
1339.9999999999997
 11
1292.9999999999995
 21
1339.9999999999997
  0
LINE
  8
_0-4_
  6
CONTINUOUS
 62
    4
 10
1295.9999999999995
 20
1318.6000000000024
 11
1003.9999999999998
 21
1318.6000000000024
  0
LINE
  8
_0-4_
  6
CONTINUOUS
 62
    3
 10
1297.5
 20
1312
 11
1002.4999999999995
 21
1312
  0
LINE
  8
_0-4_
  6
CONTINUOUS
 62
    4
 10
1295.9999999999995
 20
1311.0000000000002
 11
1003.9999999999998
 21
1311.0000000000002
  0
LINE
  8
_0-4_
  6
CONTINUOUS
 62
    3
 10
1003.9999999999998
 20
1179.9999999999995
 11
1295.9999999999995
 21
1179.9999999999995
  0
LINE
  8
_0-4_
  6
CONTINUOUS
 62
    3
 10
1003.9999999999998
 20
1174.9999999999997
 11
1295.9999999999995
 21
1174.9999999999997
  0
LINE
  8
_0-4_
  6
CONTINUOUS
 62
    4
 10
1007
 20
1167.9999999999995
 11
1292.9999999999995
 21
1167.9999999999995
  0
LINE
  8
_0-4_
  6
CONTINUOUS
 62
    4
 10
1295.9999999999995
 20
1146.6000000000026
 11
1003.9999999999998
 21
1146.6000000000026
  0
LINE
  8
_0-4_
  6
CONTINUOUS
 62
    4
 10
1295.9999999999995
 20
1138.9999999999997
 11
1003.9999999999998
 21
1138.9999999999997
  0
LINE
  8
_0-4_
  6
CONTINUOUS
 62
    3
 10
1003.9999999999998
 20
674.99999999999943
 11
1295.9999999999995
 21
674.99999999999943
  0
TEXT
  8
_0-9_
 62
    1
 10
1436.2490622655664
 20
1151.9681170292574
 40
35
 41
0.6285714285714286
 50
90
  1
3
  0
TEXT
  8
_0-9_
 62
    1
 10
2243.48316861486
 20
1154.441052525962
 40
35
 41
0.6285714285714286
 50
90
  1
3
  0
LINE
  8
_0-9_
  6
CONTINUOUS
 62
    9
 10
1451
 20
1352.0000000000002
 11
1331.3913793989086
 21
1352.0000000000002
  0
POINT
  8
_0-9_
 62
    9
 10
1521
 20
1352.0000000000002
  0
POINT
  8
_0-9_
 62
    9
 10
1441
 20
1352.0000000000002
  0
POINT
  8
_0-9_
 62
    9
 10
1521
 20
1352.0000000000002
  0
LINE
  8
_0-9_
  6
CONTINUOUS
 62
    9
 10
1531
 20
1352.0000000000002
 11
1331.3913793989086
 21
1352.0000000000002
  0
LINE
  8
_0-9_
  6
CONTINUOUS
 62
    9
 10
2235.6400000000007
 20
1352.0000000000002
 11
2383.7920228784855
 21
1352.0000000000002
  0
POINT
  8
_0-9_
 62
    9
 10
2245.6400000000007
 20
1352.0000000000002
  0
POINT
  8
_0-9_
 62
    9
 10
2165.6400000000007
 20
1352.0000000000002
  0
LINE
  8
_0-9_
  6
CONTINUOUS
 62
    9
 10
2155.6400000000007
 20
1352.0000000000002
 11
2383.7920228784855
 21
1352.0000000000002
  0
LINE
  8
ADD_LINE
  6
DOT
 62
    9
 10
3279.9989999999997
 20
2145
 11
3279.9989999999997
 21
2775
  0
LINE
  8
ADD_LINE
  6
DOT
 62
    9
 10
3454.9989999999997
 20
2775
 11
3454.9989999999997
 21
2145
  0
LINE
  8
_0-3_
  6
CONTINUOUS
 62
    4
 10
1299.5000000000002
 20
669.99999999999943
 11
1000.4999999999995
 21
669.99999999999943
  0
LINE
  8
_0-3_
  6
CONTINUOUS
 62
    5
 10
1299.5000000000002
 20
580
 11
1000.4999999999995
 21
580
  0
LINE
  8
_0-3_
  6
DASHED1
 62
    2
 10
1287.5000000000002
 20
686.99999999999988
 11
1012.5
 21
686.99999999999988
  0
LINE
  8
_0-3_
  6
DASHED1
 62
    2
 10
1012
 20
1355
 11
1012
 21
580
  0
LINE
  8
_0-3_
  6
CONTINUOUS
 62
    5
 10
999.99999999999954
 20
1355
 11
999.99999999999954
 21
580
  0
LINE
  8
_0-3_
  6
DASHED1
 62
    2
 10
1287.9999999999995
 20
1355
 11
1287.9999999999995
 21
580
  0
LINE
  8
_0-3_
  6
DASHED1
 62
    2
 10
1287.9999999999995
 20
1314.5000000000004
 11
1012.0000000000002
 21
1314.5000000000004
  0
LINE
  8
_0-3_
  6
DASHED1
 62
    2
 10
1287.9999999999995
 20
1182.5
 11
1012.0000000000002
 21
1182.5
  0
LINE
  8
_0-3_
  6
DASHED1
 62
    2
 10
1287.9999999999995
 20
1124.5
 11
1012.0000000000002
 21
1124.5
  0
LINE
  8
_0-3_
  6
DASHED1
 62
    9
 10
1287.9999999999995
 20
1372.5
 11
1012.0000000000002
 21
1372.5
  0
LINE
  8
_0-3_
  6
DASHED1
 62
    9
 10
1012
 20
1355
 11
1012
 21
1379.9999999999995
  0
LINE
  8
_0-3_
  6
DASHED1
 62
    9
 10
1287.9999999999995
 20
1355
 11
1287.9999999999995
 21
1379.9999999999995
  0
LINE
  8
_0-3_
  6
CONTINUOUS
 62
    5
 10
1299.9999999999995
 20
1355
 11
1299.9999999999995
 21
1354.6503332203046
  0
LINE
  8
_0-3_
  6
CONTINUOUS
 62
    5
 10
1299.9999999999995
 20
1354.6503332203046
 11
1299.9999999999995
 21
580
  0
LINE
  8
_0-3_
  6
DASHED1
 62
    9
 10
1299.9999999999995
 20
1355
 11
1299.9999999999995
 21
1379.9999999999995
  0
LINE
  8
_0-3_
  6
DASHED1
 62
    9
 10
999.99999999999954
 20
1355
 11
999.99999999999954
 21
1379.9999999999995
  0
LINE
  8
_0-3_
  6
CONTINUOUS
 62
    2
 10
2469.6400000000003
 20
1355
 11
2469.6400000000003
 21
1314.5000000000004
  0
LINE
  8
_0-3_
  6
DASHED1
 62
    9
 10
2469.6400000000003
 20
1355
 11
2469.6400000000003
 21
1372.5
  0
LINE
  8
_0-3_
  6
DASHED1
 62
    9
 10
2469.6400000000003
 20
1372.5
 11
2449.6400000000003
 21
1372.5
  0
LINE
  8
_0-3_
  6
CONTINUOUS
 62
    4
 10
2449.6400000000003
 20
1355
 11
2449.6400000000003
 21
686.99999999999988
  0
LINE
  8
_0-3_
  6
DASHED1
 62
    9
 10
2449.6400000000003
 20
1355
 11
2449.6400000000003
 21
1380
  0
LINE
  8
_0-9_
  6
CONTINUOUS
 62
    4
 10
1441
 20
1175
 11
1441
 21
674.99999999999988
  0
TEXT
  8
_0-9_
 62
    7
 10
1441
 20
891.89999999999986
 40
35
 41
0.6285714285714286
 50
90
  1
４９９
  0
LINE
  8
_0-9_
  6
CONTINUOUS
 62
    4
 10
2245.6400000000007
 20
1175
 11
2245.6400000000007
 21
674.99999999999988
  0
TEXT
  8
_0-9_
 62
    7
 10
2245.6400000000007
 20
891.89999999999986
 40
35
 41
0.6285714285714286
 50
90
  1
４９９
  0
LINE
  8
_0-4_
  6
CENTER2
 62
    4
 10
1003.9999999999998
 20
1174.9999999999997
 11
1295.9999999999995
 21
924.99999999999954
  0
LINE
  8
_0-4_
  6
CENTER2
 62
    4
 10
1295.9999999999995
 20
924.99999999999954
 11
1003.9999999999998
 21
674.99999999999943
  0
LINE
  8
ADD_LINE
  6
DOT
 62
    9
 10
4115
 20
2145
 11
4115
 21
2130
  0
LINE
  8
ADD_LINE
  6
DOT
 62
    9
 10
3685.2421204263214
 20
2130
 11
3700.2421204263214
 21
2130
  0
LINE
  8
ADD_LINE
  6
DOT
 62
    9
 10
3700.2421204263214
 20
2130
 11
3700.2421204263214
 21
2145
  0
LINE
  8
ADD_LINE
  6
DOT
 62
    9
 10
3700.2421204263214
 20
2145
 11
3685.2421204263214
 21
2145
  0
LINE
  8
ADD_LINE
  6
DOT
 62
    9
 10
3685.2421204263214
 20
2145
 11
3685.2421204263214
 21
2130
  0
LINE
  8
_0-d_
  6
CONTINUOUS
 62
    3
 10
4115
 20
2130
 11
4115
 21
1634.9999999999995
  0
LINE
  8
ADD_LINE
  6
DOT
 62
    9
 10
3830.2421204263209
 20
2060
 11
3830.2421204263209
 21
1940
  0
LINE
  8
_0-d_
  6
CONTINUOUS
 62
    7
 10
3800.2421204263214
 20
2060
 11
3800.2421204263214
 21
1940
  0
TEXT
  8
_0-d_
 62
    7
 10
3860.6210602131613
 20
2080
 40
35
 41
0.857142857142857
 50
0
  1
扉　色
  0
TEXT
  8
_0-d_
 62
    7
 10
3715.7122200188973
 20
2012.5
 40
35
 41
0.857142857142857
 50
0
  1
ＳＷ
  0
TEXT
  8
_0-d_
 62
    7
 10
3830.2421204263209
 20
2012.5
 40
35
 41
0.857142857142857
 50
0
  1
ホワイト
  0
TEXT
  8
_0-d_
 62
    7
 10
3720.703675428585
 20
1953.0893268157801
 40
35
 41
0.857142857142857
 50
0
  1
ＬＧ
  0
LINE
  8
ADD_LINE
  6
DOT
 62
    9
 10
3750.2421204263214
 20
2060
 11
3750.2421204263214
 21
1940
  0
LINE
  8
_0-d_
  6
CONTINUOUS
 62
    3
 10
3700.2421204263214
 20
2130
 11
3700.2421204263214
 21
1634.9999999999995
  0
LINE
  8
_0-d_
  6
CONTINUOUS
 62
    7
 10
3800.2421204263214
 20
1935
 11
3800.2421204263214
 21
1634.9999999999995
  0
LINE
  8
ADD_LINE
  6
DOT
 62
    9
 10
3830.2421204263209
 20
1935
 11
3830.2421204263209
 21
1634.9999999999995
  0
LINE
  8
ADD_LINE
  6
DOT
 62
    9
 10
3750.2421204263214
 20
1935
 11
3750.2421204263214
 21
1634.9999999999995
  0
TEXT
  8
_0-d_
 62
    7
 10
3830.3411143313564
 20
1953.0893268157801
 40
35
 41
0.857142857142857
 50
0
  1
木　　目
  0
TEXT
  8
_0-d_
 62
    7
 10
3715.7122200188973
 20
1887.5
 40
35
 41
0.857142857142857
 50
0
  1
ＵＷ
  0
TEXT
  8
_0-d_
 62
    7
 10
3830.24212042632
 20
1887.5
 40
35
 41
0.857142857142857
 50
0
  1
ｳﾙﾄﾗﾎﾜｲﾄ（艶有）
  0
TEXT
  8
_0-d_
 62
    7
 10
3720.703675428585
 20
1828.0893268157801
 40
35
 41
0.857142857142857
 50
0
  1
ＷＮ
  0
TEXT
  8
_0-d_
 62
    7
 10
3830.2421204263209
 20
1827.4999999999997
 40
35
 41
0.857142857142857
 50
0
  1
ｳｨﾝｻﾞｰﾅｯﾄ（艶有）
  0
TEXT
  8
_0-d_
 62
    7
 10
3720.703675428585
 20
1768.0893268157799
 40
35
 41
0.857142857142857
 50
0
  1
ＢＳ
  0
TEXT
  8
_0-d_
 62
    7
 10
3830.3411143313564
 20
1768.0893268157799
 40
35
 41
0.857142857142857
 50
0
  1
ブラックストーン
  0
TEXT
  8
_0-d_
 62
    7
 10
3720.703675428585
 20
1708.0893268157797
 40
35
 41
0.857142857142857
 50
0
  1
ＰＭ
  0
TEXT
  8
_0-d_
 62
    7
 10
3830.3411143313569
 20
1708.0893268157797
 40
35
 41
0.857142857142857
 50
0
  1
ペールグレイン
  0
TEXT
  8
_0-d_
 62
    7
 10
3720.703675428585
 20
1648.0893268157797
 40
35
 41
0.857142857142857
 50
0
  1
ＭＤ
  0
LINE
  8
_0-d_
  6
CONTINUOUS
 62
    3
 10
4115
 20
2130
 11
3700.2421204263214
 21
2130
  0
LINE
  8
_0-d_
  6
CONTINUOUS
 62
    3
 10
4115
 20
1634.9999999999995
 11
3700.2421204263214
 21
1634.9999999999995
  0
LINE
  8
_0-d_
  6
CONTINUOUS
 62
    7
 10
3700.2421204263214
 20
2000
 11
4115
 21
2000
  0
LINE
  8
_0-d_
  6
CONTINUOUS
 62
    7
 10
4115
 20
2000
 11
3700.2421204263214
 21
2000
  0
LINE
  8
_0-d_
  6
CONTINUOUS
 62
    3
 10
4115
 20
2000
 11
3700.2421204263214
 21
2000
  0
LINE
  8
_0-d_
  6
CONTINUOUS
 62
    3
 10
4115
 20
1940
 11
3700.2421204263214
 21
1940
  0
LINE
  8
ADD_LINE
  6
DOT
 62
    9
 10
3700.2421204263214
 20
1970
 11
4115
 21
1970
  0
LINE
  8
_0-d_
  6
CONTINUOUS
 62
    7
 10
4115
 20
1875
 11
3700.2421204263214
 21
1875
  0
LINE
  8
_0-d_
  6
CONTINUOUS
 62
    3
 10
4115
 20
1875
 11
3700.2421204263214
 21
1875
  0
LINE
  8
_0-d_
  6
CONTINUOUS
 62
    3
 10
4115
 20
1814.9999999999997
 11
3700.2421204263214
 21
1814.9999999999997
  0
LINE
  8
_0-d_
  6
CONTINUOUS
 62
    7
 10
3700.2421204263214
 20
1875
 11
4115
 21
1875
  0
LINE
  8
_0-d_
  6
CONTINUOUS
 62
    7
 10
4115
 20
1940
 11
3700.2421204263214
 21
1940
  0
LINE
  8
_0-d_
  6
CONTINUOUS
 62
    7
 10
4115
 20
1935
 11
3700.2421204263214
 21
1935
  0
LINE
  8
ADD_LINE
  6
DOT
 62
    9
 10
3700.2421204263214
 20
1905
 11
4115
 21
1905
  0
LINE
  8
ADD_LINE
  6
DOT
 62
    9
 10
3700.2421204263214
 20
1844.9999999999997
 11
4115
 21
1844.9999999999997
  0
LINE
  8
_0-d_
  6
CONTINUOUS
 62
    7
 10
4115
 20
1814.9999999999997
 11
3700.2421204263214
 21
1814.9999999999997
  0
LINE
  8
_0-d_
  6
CONTINUOUS
 62
    3
 10
4115
 20
1814.9999999999997
 11
3700.2421204263214
 21
1814.9999999999997
  0
LINE
  8
_0-d_
  6
CONTINUOUS
 62
    3
 10
4115
 20
1754.9999999999995
 11
3700.2421204263214
 21
1754.9999999999995
  0
LINE
  8
_0-d_
  6
CONTINUOUS
 62
    7
 10
3700.2421204263214
 20
1814.9999999999997
 11
4115
 21
1814.9999999999997
  0
LINE
  8
ADD_LINE
  6
DOT
 62
    9
 10
3700.2421204263214
 20
1784.9999999999995
 11
4115
 21
1784.9999999999995
  0
LINE
  8
_0-d_
  6
CONTINUOUS
 62
    7
 10
4115
 20
1754.9999999999995
 11
3700.2421204263214
 21
1754.9999999999995
  0
LINE
  8
_0-d_
  6
CONTINUOUS
 62
    3
 10
4115
 20
1754.9999999999995
 11
3700.2421204263214
 21
1754.9999999999995
  0
LINE
  8
_0-d_
  6
CONTINUOUS
 62
    3
 10
4115
 20
1694.9999999999995
 11
3700.2421204263214
 21
1694.9999999999995
  0
LINE
  8
_0-d_
  6
CONTINUOUS
 62
    7
 10
3700.2421204263214
 20
1754.9999999999995
 11
4115
 21
1754.9999999999995
  0
LINE
  8
ADD_LINE
  6
DOT
 62
    9
 10
3700.2421204263214
 20
1724.9999999999995
 11
4115
 21
1724.9999999999995
  0
LINE
  8
_0-d_
  6
CONTINUOUS
 62
    7
 10
4115
 20
1694.9999999999995
 11
3700.2421204263214
 21
1694.9999999999995
  0
LINE
  8
_0-d_
  6
CONTINUOUS
 62
    3
 10
4115
 20
1694.9999999999995
 11
3700.2421204263214
 21
1694.9999999999995
  0
LINE
  8
_0-d_
  6
CONTINUOUS
 62
    7
 10
3700.2421204263214
 20
1694.9999999999995
 11
4115
 21
1694.9999999999995
  0
LINE
  8
ADD_LINE
  6
DOT
 62
    9
 10
3700.2421204263214
 20
1664.9999999999995
 11
4115
 21
1664.9999999999995
  0
LINE
  8
ADD_LINE
  6
DOT
 62
    9
 10
3700.2421204263214
 20
2030
 11
4115
 21
2030
  0
LINE
  8
_0-d_
  6
CONTINUOUS
 62
    7
 10
4115
 20
2060
 11
3700.2421204263214
 21
2060
  0
LINE
  8
ADD_LINE
  6
DOT
 62
    9
 10
3700.2421204263214
 20
2097.5
 11
4115
 21
2097.5
  0
LINE
  8
_0-d_
  6
CONTINUOUS
 62
    7
 10
4115
 20
2065
 11
3700.2421204263214
 21
2065
  0
LINE
  8
ADD_LINE
  6
DOT
 62
    9
 10
3907.6210602131604
 20
2130
 11
3907.6210602131604
 21
2065
  0
TEXT
  8
_0-d_
 62
    7
 10
3830.3411143313569
 20
1648.0893268157797
 40
35
 41
0.857142857142857
 50
0
  1
ダークグレイン
  0
LINE
  8
_e-0_
  6
CONTINUOUS
 62
    7
 10
2243.7859302690862
 20
199.51965480360598
 11
2272.9339284698526
 21
210.1286585371298
  0
LINE
  8
_e-0_
  6
CONTINUOUS
 62
    7
 10
2237.6336615052869
 20
191.95952323799758
 11
2287.5529504706664
 21
210.12865853712895
  0
LINE
  8
_e-0_
  6
CONTINUOUS
 62
    7
 10
2234.2067375789874
 20
185.39133607135255
 11
2263.8643430051365
 21
196.18582166608263
  0
LINE
  8
_e-0_
  6
CONTINUOUS
 62
    7
 10
2232.2119570371696
 20
179.34440646785787
 11
2253.9586582709303
 21
187.25955841042662
  0
LINE
  8
_e-0_
  6
CONTINUOUS
 62
    7
 10
2231.2024514117433
 20
173.65608760649877
 11
2249.4574587956462
 21
180.3003669205492
  0
LINE
  8
_e-0_
  6
CONTINUOUS
 62
    7
 10
2230.9649088875535
 20
168.248740335938
 11
2249.3748102388385
 21
174.94939644358311
  0
LINE
  8
_e-0_
  6
CONTINUOUS
 62
    7
 10
2231.3837497438626
 20
163.08029707814966
 11
2249.8286640768283
 21
169.79369686893903
  0
LINE
  8
_e-0_
  6
CONTINUOUS
 62
    7
 10
2232.3950068941753
 20
158.12747571767488
 11
2251.269568818267
 21
164.99725444285843
  0
LINE
  8
_e-0_
  6
CONTINUOUS
 62
    7
 10
2233.9675550564961
 20
153.37894757832998
 11
2253.6625167678694
 21
160.54732740628253
  0
LINE
  8
_e-0_
  6
CONTINUOUS
 62
    7
 10
2236.0955302019183
 20
148.83257832814223
 11
2257.099910488102
 21
156.47754754152117
  0
LINE
  8
_e-0_
  6
CONTINUOUS
 62
    7
 10
2238.7970089264299
 20
144.49494730998821
 11
2261.880116002736
 21
152.89651120014326
  0
LINE
  8
_e-0_
  6
CONTINUOUS
 62
    7
 10
2242.1181877425701
 20
140.38286867935909
 11
2268.9468388985251
 21
150.14769912563821
  0
LINE
  8
_e-0_
  6
CONTINUOUS
 62
    7
 10
2246.1455691824353
 20
136.52782678312661
 11
2284.5651405528201
 21
150.51140717521263
  0
LINE
  8
_e-0_
  6
CONTINUOUS
 62
    7
 10
2251.0351047702797
 20
132.98658333410969
 11
2279.1844822576495
 21
143.2321188526356
  0
LINE
  8
_e-0_
  6
CONTINUOUS
 62
    7
 10
2279.5849322183671
 20
201.90764820482513
 11
2302.1719724714803
 21
210.12865853713066
  0
LINE
  8
_e-0_
  6
CONTINUOUS
 62
    7
 10
2260.5624543087296
 20
189.663143601351
 11
2313.0511299164636
 21
208.76745915862045
  0
LINE
  8
_e-0_
  6
CONTINUOUS
 62
    7
 10
2273.069618849473
 20
188.89449034687174
 11
2313.0511299164636
 21
203.44657029624102
  0
LINE
  8
_e-0_
  6
CONTINUOUS
 62
    7
 10
2287.6886408502887
 20
188.89449034687174
 11
2313.0511299164636
 21
198.12568143386158
  0
LINE
  8
_e-0_
  6
CONTINUOUS
 62
    7
 10
2291.8751463425487
 20
185.09736486926669
 11
2313.0511299164636
 21
192.80479257148215
  0
LINE
  8
_e-0_
  6
CONTINUOUS
 62
    7
 10
2291.8751463425487
 20
179.77647600688726
 11
2313.0511299164636
 21
187.48390370910215
  0
LINE
  8
_e-0_
  6
CONTINUOUS
 62
    7
 10
2291.8751463425487
 20
174.45558714450783
 11
2313.0511299164636
 21
182.16301484672271
  0
LINE
  8
_e-0_
  6
CONTINUOUS
 62
    7
 10
2291.8751463425487
 20
169.13469828212839
 11
2313.0511299164636
 21
176.84212598434328
  0
LINE
  8
_e-0_
  6
CONTINUOUS
 62
    7
 10
2291.8008475696451
 20
163.78676687796939
 11
2313.0511299164636
 21
171.52123712196384
  0
LINE
  8
_e-0_
  6
CONTINUOUS
 62
    7
 10
2290.6539909363364
 20
158.04845633809463
 11
2313.0511299164636
 21
166.20034825958413
  0
LINE
  8
_e-0_
  6
CONTINUOUS
 62
    7
 10
2288.3949962857823
 20
151.90536066354695
 11
2313.0511299164636
 21
160.87945939720469
  0
LINE
  8
_e-0_
  6
CONTINUOUS
 62
    7
 10
2284.4003861827632
 20
145.13055262616916
 11
2311.8608666367176
 21
155.12535013005759
  0
LINE
  8
_e-0_
  6
CONTINUOUS
 62
    7
 10
2275.7463468865153
 20
136.65985105378524
 11
2309.0387712913652
 21
148.77730256370853
  0
LINE
  8
_e-0_
  6
CONTINUOUS
 62
    7
 10
2266.9791201478205
 20
128.14795262145821
 11
2304.1703780821812
 21
141.68446348448242
  0
LINE
  8
_e-0_
  6
CONTINUOUS
 62
    7
 10
2282.1376414569663
 20
128.34431431109749
 11
2292.724458387317
 21
132.19760054937069
  0
LINE
  8
_e-0_
  6
CONTINUOUS
 62
    3
 10
2266.4464672734898
 20
197.56612819678269
 11
2266.4464672734898
 21
197.56612819678269
  0
LINE
  8
_e-0_
  6
CONTINUOUS
 62
    3
 10
2266.4464672734898
 20
197.56612819678269
 11
2262.3244734593249
 21
194.75680664380121
  0
LINE
  8
_e-0_
  6
CONTINUOUS
 62
    3
 10
2282.3868421919432
 20
128.14795262145651
 11
2266.9204010401704
 21
128.14795262145651
  0
ARC
  8
_e-0_
  6
CONTINUOUS
 62
    3
 10
2282.3868421919432
 20
133.14795262145651
 40
5
 50
270
 51
286.20399351045659
  0
LINE
  8
_e-0_
  6
CONTINUOUS
 62
    3
 10
2313.2288608412613
 20
210.12865853712895
 11
2313.2288608412613
 21
159.77346730566921
  0
ARC
  8
_e-0_
  6
CONTINUOUS
 62
    3
 10
2271.9221657766447
 20
169.15823653484835
 40
42.5
 50
286.20399351045648
 51
345.50707147989851
  0
ARC
  8
_e-0_
  6
CONTINUOUS
 62
    3
 10
2308.2288608412613
 20
159.77346730566921
 40
5
 50
345.50707147989879
 51
0
  0
ARC
  8
_e-0_
  6
CONTINUOUS
 62
    3
 10
2250.0927387377205
 20
170.4956084628958
 40
40
 50
279.71265316664215
 51
332.69093929010892
  0
ARC
  8
_e-0_
  6
CONTINUOUS
 62
    3
 10
2255.9974857549714
 20
135.99729020443191
 40
5
 50
241.94526281180003
 51
279.71265316664226
  0
ARC
  8
_e-0_
  6
CONTINUOUS
 62
    3
 10
2263.2643122966178
 20
205.12865853712895
 40
5
 50
90
 51
106.05338143786269
  0
LINE
  8
_e-0_
  6
CONTINUOUS
 62
    3
 10
2288.4334989152221
 20
210.12865853712884
 11
2288.4334989152221
 21
210.12865853712884
  0
LINE
  8
_e-0_
  6
CONTINUOUS
 62
    3
 10
2288.4334989152221
 20
210.12865853712884
 11
2278.2181989551913
 21
205.24067691222057
  0
LINE
  8
_e-0_
  6
CONTINUOUS
 62
    3
 10
2278.2181989551913
 20
205.24067691222057
 11
2272.2994583375816
 21
201.44448978984021
  0
LINE
  8
_e-0_
  6
CONTINUOUS
 62
    3
 10
2266.4464672734898
 20
197.56612819678252
 11
2272.2994583375816
 21
201.4444897898403
  0
ARC
  8
_e-0_
  6
CONTINUOUS
 62
    3
 10
2263.2643122966178
 20
205.12865853712895
 40
5
 50
90
 51
106.05338143786269
  0
ARC
  8
_e-0_
  6
CONTINUOUS
 62
    3
 10
2263.2643122966178
 20
205.12865853712895
 40
5
 50
90
 51
106.05338143786269
  0
LINE
  8
_e-0_
  6
CONTINUOUS
 62
    3
 10
2288.4334989152221
 20
210.12865853712895
 11
2263.2643122966178
 21
210.12865853712895
  0
ARC
  8
_e-0_
  6
CONTINUOUS
 62
    3
 10
2273.6342932765642
 20
169.09099082020304
 40
42.5
 50
106.05338143786269
 51
241.94526281180051
  0
ARC
  8
_e-0_
  6
CONTINUOUS
 62
    3
 10
2263.2643122966178
 20
205.12865853712895
 40
5
 50
90
 51
106.05338143786269
  0
LINE
  8
_e-0_
  6
CONTINUOUS
 62
    3
 10
2299.1719829458552
 20
210.12865853712895
 11
2313.2288608412613
 21
210.12865853712895
  0
ARC
  8
_e-0_
  6
CONTINUOUS
 62
    3
 10
2299.1719829458552
 20
205.12865853712895
 40
5
 50
90
 51
112.84552721528329
  0
LINE
  8
_e-0_
  6
CONTINUOUS
 62
    3
 10
2292.0528772673465
 20
188.89449034687004
 11
2269.0173546029673
 21
188.89449034687004
  0
ARC
  8
_e-0_
  6
CONTINUOUS
 62
    3
 10
2269.0173546029673
 20
183.89449034687004
 40
5
 50
90
 51
110.93110431809542
  0
ARC
  8
_e-0_
  6
CONTINUOUS
 62
    3
 10
2254.2292662802574
 20
177.70386452217394
 40
0.5
 50
165.368776721252
 51
224.67319701305797
  0
LINE
  8
_e-0_
  6
CONTINUOUS
 62
    3
 10
2253.8737020580624
 20
177.3523334653737
 11
2253.6837582739271
 21
177.54445650133447
  0
ARC
  8
_e-0_
  6
CONTINUOUS
 62
    3
 10
2276.1622566207875
 20
165.2142768803236
 40
25
 50
110.93110431809527
 51
150.17701829297229
  0
ARC
  8
_e-0_
  6
CONTINUOUS
 62
    3
 10
2254.0393224961217
 20
177.89598755813472
 40
0.5
 50
224.67319701305652
 51
330.17701829297561
  0
LINE
  8
_e-0_
  6
CONTINUOUS
 62
    3
 10
2297.2307430642558
 20
209.73643324104926
 11
2283.5233941157548
 21
203.96157353985984
  0
LINE
  8
_e-0_
  6
CONTINUOUS
 62
    3
 10
2283.5233941157548
 20
203.96157353985984
 11
2277.114528385443
 21
200.4613679180602
  0
ARC
  8
_e-0_
  6
CONTINUOUS
 62
    3
 10
2277.9347719955744
 20
171.51524603489747
 40
25
 50
126.05682261028304
 51
165.36877672125814
  0
ARC
  8
_e-0_
  6
CONTINUOUS
 62
    3
 10
2322.0287923520791
 20
111.11536133502738
 40
100
 50
116.6886898974924
 51
126.03335467187628
  0
LINE
  8
_e-0_
  6
CONTINUOUS
 62
    3
 10
2262.3244734593245
 20
194.75680664380129
 11
2262.3244734593245
 21
194.75680664380129
  0
LINE
  8
_e-0_
  6
CONTINUOUS
 62
    3
 10
2262.3244734593245
 20
194.75680664380129
 11
2254.3560414411385
 21
187.5018589393544
  0
LINE
  8
_e-0_
  6
CONTINUOUS
 62
    3
 10
2254.3560414411385
 20
187.5018589393544
 11
2252.5108960046536
 21
185.36863764275497
  0
ARC
  8
_e-0_
  6
CONTINUOUS
 62
    3
 10
2274.5493829743445
 20
174.5520307550089
 40
25
 50
169.07329675873063
 51
296.32138326661799
  0
LINE
  8
_e-0_
  6
CONTINUOUS
 62
    3
 10
2252.5108960046536
 20
185.36863764275483
 11
2252.5108960046536
 21
185.36863764275483
  0
LINE
  8
_e-0_
  6
CONTINUOUS
 62
    3
 10
2252.5108960046536
 20
185.36863764275483
 11
2250.0026210661126
 21
179.29085759512346
  0
LINE
  8
_e-0_
  6
CONTINUOUS
 62
    3
 10
2292.0528772673465
 20
188.89449034687004
 11
2292.0528772673465
 21
164.42425885831653
  0
ARC
  8
_e-0_
  6
CONTINUOUS
 62
    3
 10
2277.2840925230507
 20
144.13090983307199
 40
5
 50
311.4163090429962
 51
326.13300916724881
  0
ARC
  8
_e-0_
  6
CONTINUOUS
 62
    3
 10
2252.285941088533
 20
168.73596234419835
 40
40
 50
316.78132524618342
 51
353.81191653224226
  0
ARC
  8
_e-0_
  6
CONTINUOUS
 62
    3
 10
2240.9001979970053
 20
185.376663785662
 40
60
 50
294.69555798319504
 51
311.41630904299643
  0
ARC
  8
_e-0_
  6
CONTINUOUS
 62
    3
 10
2271.9268153318698
 20
202.98067150791609
 40
75
 50
264.68313230529076
 51
266.17253517307824
  0
ARC
  8
_e-0_
  6
CONTINUOUS
 62
    3
 10
2265.0233680716155
 20
128.80121063143832
 40
0.5
 50
174.02086603460466
 51
264.68313230528985
  0
ARC
  8
_e-0_
  6
CONTINUOUS
 62
    3
 10
2267.0124878650103
 20
128.59287809071872
 40
2.5
 50
114.69555798319522
 51
174.02086603461154
  0
LINE
  8
_e-0_
  6
CONTINUOUS
 62
    7
 10
2376.8899919095943
 20
169.43032024062034
 11
2388.2618909747957
 21
173.56935300743344
  0
LINE
  8
_e-0_
  6
CONTINUOUS
 62
    3
 10
2436.2585234464268
 20
162.63312492519389
 11
2436.2585234464268
 21
136.49018622829544
  0
CIRCLE
  8
_e-0_
  6
CONTINUOUS
 62
    3
 10
2365.5167430510387
 20
162.46293449130519
 40
13.33773795583065
  0
CIRCLE
  8
_e-0_
  6
CONTINUOUS
 62
    3
 10
2365.2330256036634
 20
162.17921704393006
 40
25.691707563897665
  0
LINE
  8
_e-0_
  6
CONTINUOUS
 62
    3
 10
2399.4939617252575
 20
188.26250382114977
 11
2399.4939617252575
 21
136.49018622829544
  0
LINE
  8
_e-0_
  6
CONTINUOUS
 62
    3
 10
2399.4939617252575
 20
136.49018622829544
 11
2414.856930753669
 21
136.49018622829544
  0
LINE
  8
_e-0_
  6
CONTINUOUS
 62
    3
 10
2414.856930753669
 20
136.49018622829544
 11
2414.856930753669
 21
172.63312492519389
  0
LINE
  8
_e-0_
  6
CONTINUOUS
 62
    3
 10
2451.1774760289299
 20
136.49018622829544
 11
2436.2585234464268
 21
136.49018622829544
  0
LINE
  8
_e-0_
  6
CONTINUOUS
 62
    3
 10
2426.2585234464268
 20
172.63312492519389
 11
2414.856930753669
 21
172.63312492519389
  0
ARC
  8
_e-0_
  6
CONTINUOUS
 62
    3
 10
2426.2585234464268
 20
162.63312492519389
 40
10
 50
0
 51
90
  0
LINE
  8
_e-0_
  6
CONTINUOUS
 62
    3
 10
2426.1774760289299
 20
188.26250382114977
 11
2399.4939617252575
 21
188.26250382114977
  0
LINE
  8
_e-0_
  6
CONTINUOUS
 62
    3
 10
2451.1774760289299
 20
163.26250382114977
 11
2451.1774760289299
 21
136.49018622829544
  0
ARC
  8
_e-0_
  6
CONTINUOUS
 62
    3
 10
2426.1774760289299
 20
163.26250382114977
 40
25
 50
0
 51
90
  0
ARC
  8
_e-0_
  6
CONTINUOUS
 62
    3
 10
2486.2452606175229
 20
162.17653762406428
 40
13.33773795583065
 50
23.422555400004952
 51
97.191484740792631
  0
LINE
  8
_e-0_
  6
CONTINUOUS
 62
    3
 10
2474.0065761310629
 20
167.47841048365671
 11
2498.4839451039833
 21
167.47841048365671
  0
ARC
  8
_e-0_
  6
CONTINUOUS
 62
    3
 10
2486.2452606175229
 20
162.17653762406428
 40
13.33773795583065
 50
92.530763017635266
 51
156.57744459999506
  0
ARC
  8
_e-0_
  6
CONTINUOUS
 62
    3
 10
2486.2452606175229
 20
162.17653762406428
 40
13.33773795583065
 50
204.21097500392608
 51
316.0067678116265
  0
LINE
  8
_e-0_
  6
CONTINUOUS
 62
    3
 10
2474.0806890359867
 20
156.70676139316753
 11
2511.5200753562385
 21
156.70676139316753
  0
LINE
  8
_e-0_
  6
CONTINUOUS
 62
    3
 10
2495.8407207162626
 20
152.91249966689292
 11
2508.7092412098891
 21
149.78943472664496
  0
ARC
  8
_e-0_
  6
CONTINUOUS
 62
    3
 10
2486.5655867677851
 20
162.8171899245882
 40
25.691707563897665
 50
346.24110979921471
 51
329.53046432565105
  0
ARC
  8
_e-0_
  6
CONTINUOUS
 62
    3
 10
2546.5135590423406
 20
162.14309845353909
 40
11.089756641867943
 50
94.502189492040685
 51
357.22978420280037
  0
LINE
  8
_e-0_
  6
CONTINUOUS
 62
    3
 10
2556.5903561511468
 20
173.19863581905565
 11
2545.6430442891501
 21
173.19863581905565
  0
LINE
  8
_e-0_
  6
CONTINUOUS
 62
    3
 10
2557.5903561511468
 20
172.19863581905599
 11
2557.5903561511468
 21
161.60712439988742
  0
ARC
  8
_e-0_
  6
CONTINUOUS
 62
    3
 10
2556.5903561511468
 20
172.19863581905599
 40
1
 50
0
 51
90
  0
LINE
  8
_e-0_
  6
CONTINUOUS
 62
    3
 10
2548.9703457355517
 20
188.29058742736094
 11
2557.393077545817
 21
188.29058742736094
  0
ARC
  8
_e-0_
  6
CONTINUOUS
 62
    3
 10
2546.9662856612039
 20
162.67716163604518
 40
25.691707563897665
 50
85.526146014136969
 51
347.40557840019874
  0
LINE
  8
_e-0_
  6
CONTINUOUS
 62
    3
 10
2557.393077545817
 20
209.12865853712901
 11
2557.393077545817
 21
188.29058742736094
  0
ARC
  8
_e-0_
  6
CONTINUOUS
 62
    3
 10
2558.3930775458175
 20
209.12865853712901
 40
1
 50
90
 51
180
  0
LINE
  8
_e-0_
  6
CONTINUOUS
 62
    3
 10
2572.0397992563612
 20
209.12865853712901
 11
2572.0397992563612
 21
157.07513043814088
  0
LINE
  8
_e-0_
  6
CONTINUOUS
 62
    3
 10
2571.0397992563616
 20
210.12865853712895
 11
2558.3930775458175
 21
210.12865853712895
  0
ARC
  8
_e-0_
  6
CONTINUOUS
 62
    3
 10
2571.0397992563616
 20
209.12865853712901
 40
1
 50
0
 51
90
  0
CIRCLE
  8
_e-0_
  6
CONTINUOUS
 62
    3
 10
2607.4932845795829
 20
162.61858771142584
 40
13.33773795583065
  0
CIRCLE
  8
_e-0_
  6
CONTINUOUS
 62
    3
 10
2607.2095671322085
 20
162.334870264051
 40
25.691707563897665
  0
ARC
  8
_e-0_
  6
CONTINUOUS
 62
    3
 10
2361.3056445788688
 20
183.56108960512415
 40
5
 50
90
 51
106.05338143786269
  0
ARC
  8
_e-0_
  6
CONTINUOUS
 62
    3
 10
2361.3056445788688
 20
183.56108960512415
 40
5
 50
90
 51
106.05338143786269
  0
ARC
  8
_e-0_
  6
CONTINUOUS
 62
    3
 10
2361.3056445788688
 20
183.56108960512415
 40
5
 50
90
 51
106.05338143786269
  0
ARC
  8
_e-0_
  6
CONTINUOUS
 62
    3
 10
2361.3056445788688
 20
183.56108960512415
 40
5
 50
90
 51
106.05338143786269
  0
LINE
  8
_e-0_
  6
CONTINUOUS
 62
    7
 10
2346.3470804331013
 20
179.59716504486777
 11
2368.504457793455
 21
187.66179087344028
  0
LINE
  8
_e-0_
  6
CONTINUOUS
 62
    7
 10
2361.2415063076141
 20
179.69740385729494
 11
2376.5205845613304
 21
185.25853354867166
  0
LINE
  8
_e-0_
  6
CONTINUOUS
 62
    7
 10
2341.7511550984831
 20
172.60349616177705
 11
2361.2415063076145
 21
179.69740385729494
  0
LINE
  8
_e-0_
  6
CONTINUOUS
 62
    7
 10
2339.9278406436087
 20
166.61897511011602
 11
2357.2356669233163
 21
172.91850869577984
  0
LINE
  8
_e-0_
  6
CONTINUOUS
 62
    7
 10
2339.5613566552269
 20
161.16469698463049
 11
2352.6357267551816
 21
165.92337853279389
  0
LINE
  8
_e-0_
  6
CONTINUOUS
 62
    7
 10
2340.2704529847874
 20
156.10189807943811
 11
2352.3257797311662
 21
160.489678179473
  0
LINE
  8
_e-0_
  6
CONTINUOUS
 62
    7
 10
2341.9204823498939
 20
151.38157079162255
 11
2353.9794571535694
 21
155.77067867592631
  0
LINE
  8
_e-0_
  6
CONTINUOUS
 62
    7
 10
2344.504128974107
 20
147.00105239631881
 11
2357.564943671171
 21
151.75480018131679
  0
LINE
  8
_e-0_
  6
CONTINUOUS
 62
    7
 10
2348.1361647674007
 20
143.00211645248765
 11
2364.9879954656798
 21
149.13568121955449
  0
LINE
  8
_e-0_
  6
CONTINUOUS
 62
    7
 10
2353.1501292054063
 20
139.50616140121155
 11
2375.2534753949121
 21
147.55112149187283
  0
LINE
  8
_e-0_
  6
CONTINUOUS
 62
    7
 10
2360.6217579801264
 20
136.90472301431668
 11
2375.3071030149835
 21
142.24975148693374
  0
LINE
  8
_e-0_
  6
CONTINUOUS
 62
    7
 10
2375.3071030149835
 20
142.24975148693374
 11
2385.0115931457403
 21
145.78189703325932
  0
LINE
  8
_e-0_
  6
CONTINUOUS
 62
    7
 10
2374.4001538198344
 20
147.24053783828736
 11
2389.0630204872036
 21
152.57738485422379
  0
LINE
  8
_e-0_
  6
CONTINUOUS
 62
    7
 10
2374.4883804748506
 20
152.59353857696169
 11
2390.6567834919524
 21
158.47835601080646
  0
LINE
  8
_e-0_
  6
CONTINUOUS
 62
    7
 10
2378.4912308361022
 20
159.37134582305873
 11
2390.8686178519897
 21
163.87634627483464
  0
LINE
  8
_e-0_
  6
CONTINUOUS
 62
    7
 10
2378.6565159204474
 20
164.75239353630797
 11
2390.0320630429459
 21
168.89275408738967
  0
LINE
  8
_e-0_
  6
CONTINUOUS
 62
    7
 10
2365.1397018509305
 20
175.7953421400316
 11
2381.7641004494612
 21
181.84612839247364
  0
LINE
  8
_e-0_
  6
CONTINUOUS
 62
    7
 10
2373.159843452322
 20
173.39354609515908
 11
2385.5507858710998
 21
177.90348031010012
  0
LINE
  8
_e-0_
  6
CONTINUOUS
 62
    7
 10
2399.4939617252575
 20
182.97838129215278
 11
2414.0119690553083
 21
188.26250382114977
  0
LINE
  8
_e-0_
  6
CONTINUOUS
 62
    7
 10
2399.4939617252575
 20
177.65749242977335
 11
2428.3670442872125
 21
188.16643505383524
  0
LINE
  8
_e-0_
  6
CONTINUOUS
 62
    7
 10
2399.4939617252575
 20
172.33660356739392
 11
2436.7743097980664
 21
185.90554058897964
  0
LINE
  8
_e-0_
  6
CONTINUOUS
 62
    7
 10
2399.4939617252575
 20
167.01571470501448
 11
2442.1110032081055
 21
182.52704927725858
  0
LINE
  8
_e-0_
  6
CONTINUOUS
 62
    7
 10
2399.4939617252575
 20
161.69482584263505
 11
2414.856930753669
 21
167.28648927893004
  0
LINE
  8
_e-0_
  6
CONTINUOUS
 62
    7
 10
2428.7090082786239
 20
172.32823318076128
 11
2445.9244086202584
 21
178.5941264760919
  0
LINE
  8
_e-0_
  6
CONTINUOUS
 62
    7
 10
2399.4939617252575
 20
156.37393698025562
 11
2414.856930753669
 21
161.96560041655061
  0
LINE
  8
_e-0_
  6
CONTINUOUS
 62
    7
 10
2403.3398935234458
 20
136.49018622829544
 11
2414.856930753669
 21
140.68204496703231
  0
LINE
  8
_e-0_
  6
CONTINUOUS
 62
    7
 10
2399.4939617252575
 20
140.41127039311675
 11
2414.856930753669
 21
146.00293382941202
  0
LINE
  8
_e-0_
  6
CONTINUOUS
 62
    7
 10
2399.4939617252575
 20
145.73215925549646
 11
2414.856930753669
 21
151.32382269179146
  0
LINE
  8
_e-0_
  6
CONTINUOUS
 62
    7
 10
2399.4939617252575
 20
151.0530481178759
 11
2414.856930753669
 21
156.64471155417118
  0
LINE
  8
_e-0_
  6
CONTINUOUS
 62
    7
 10
2436.2585234464268
 20
159.113365397844
 11
2451.1774760289299
 21
164.5434200643038
  0
LINE
  8
_e-0_
  6
CONTINUOUS
 62
    7
 10
2436.2585234464268
 20
153.79247653546485
 11
2451.1774760289299
 21
159.22253120192465
  0
LINE
  8
_e-0_
  6
CONTINUOUS
 62
    7
 10
2436.105047565391
 20
164.37839360784892
 11
2450.3687179376247
 21
169.56994505472636
  0
LINE
  8
_e-0_
  6
CONTINUOUS
 62
    7
 10
2436.2585234464268
 20
148.47158767308542
 11
2451.1774760289299
 21
153.90164233954521
  0
LINE
  8
_e-0_
  6
CONTINUOUS
 62
    7
 10
2436.2585234464268
 20
143.1506988107057
 11
2451.1774760289299
 21
148.5807534771655
  0
LINE
  8
_e-0_
  6
CONTINUOUS
 62
    7
 10
2436.2585234464268
 20
137.82980994832598
 11
2451.1774760289299
 21
143.25986461478606
  0
LINE
  8
_e-0_
  6
CONTINUOUS
 62
    7
 10
2447.1969595258929
 20
136.49018622829544
 11
2451.1774760289299
 21
137.93897575240634
  0
LINE
  8
_e-0_
  6
CONTINUOUS
 62
    7
 10
2434.0189024056153
 20
168.93998772771169
 11
2448.6296862431445
 21
174.25787814386978
  0
LINE
  8
_e-0_
  6
CONTINUOUS
 62
    7
 10
2469.1883842563338
 20
181.74063227593791
 11
2487.7135419125711
 21
188.48323824789645
  0
LINE
  8
_e-0_
  6
CONTINUOUS
 62
    7
 10
2463.6316388937825
 20
174.39725350219305
 11
2496.6904887083792
 21
186.42969081378254
  0
LINE
  8
_e-0_
  6
CONTINUOUS
 62
    7
 10
2461.4628990865917
 20
168.28700790412767
 11
2502.2794299488264
 21
183.14301020398858
  0
LINE
  8
_e-0_
  6
CONTINUOUS
 62
    7
 10
2461.4992419870632
 20
162.97934677574687
 11
2473.9894671720021
 21
167.52541696234658
  0
LINE
  8
_e-0_
  6
CONTINUOUS
 62
    7
 10
2492.1508316310541
 20
174.13561303910114
 11
2506.2885679576879
 21
179.28132824190015
  0
LINE
  8
_e-0_
  6
CONTINUOUS
 62
    7
 10
2496.6927278595248
 20
170.46783921101109
 11
2509.1784918759253
 21
175.01228566505261
  0
LINE
  8
_e-0_
  6
CONTINUOUS
 62
    7
 10
2463.2093427036916
 20
158.28088367181749
 11
2488.4793399340492
 21
167.47841048365671
  0
LINE
  8
_e-0_
  6
CONTINUOUS
 62
    7
 10
2462.888879459625
 20
152.84335572742151
 11
2511.1140538755621
 21
170.39588375711787
  0
LINE
  8
_e-0_
  6
CONTINUOUS
 62
    7
 10
2465.300291731432
 20
148.400149154524
 11
2476.9283430630939
 21
152.63241372176821
  0
LINE
  8
_e-0_
  6
CONTINUOUS
 62
    7
 10
2488.1225212892718
 20
156.70676139316753
 11
2512.1228430370119
 21
165.44216412215632
  0
LINE
  8
_e-0_
  6
CONTINUOUS
 62
    7
 10
2502.7415432900879
 20
156.70676139316753
 11
2512.1151621126959
 21
160.11847963195407
  0
LINE
  8
_e-0_
  6
CONTINUOUS
 62
    7
 10
2468.7281740890052
 20
144.32690743686691
 11
2482.5550140975401
 21
149.35946563393486
  0
LINE
  8
_e-0_
  6
CONTINUOUS
 62
    7
 10
2473.4508580764295
 20
140.72493497175571
 11
2502.4973614552441
 21
151.29699761115659
  0
LINE
  8
_e-0_
  6
CONTINUOUS
 62
    7
 10
2480.3069495598269
 20
137.89945933273884
 11
2507.3767895083869
 21
147.75207532036432
  0
LINE
  8
_e-0_
  6
CONTINUOUS
 62
    7
 10
2552.6231690921717
 20
137.61596638527407
 11
2558.7418873346696
 21
139.84299769740459
  0
LINE
  8
_e-0_
  6
CONTINUOUS
 62
    7
 10
2539.4012676014826
 20
138.12447666464265
 11
2568.5435873921023
 21
148.73141362589478
  0
LINE
  8
_e-0_
  6
CONTINUOUS
 62
    7
 10
2532.9976800904732
 20
141.11465028049622
 11
2571.5269734698549
 21
155.13816621790056
  0
LINE
  8
_e-0_
  6
CONTINUOUS
 62
    7
 10
2522.081864354775
 20
169.06695144424446
 11
2572.0397992563612
 21
187.25015271383
  0
LINE
  8
_e-0_
  6
CONTINUOUS
 62
    7
 10
2524.5896829795606
 20
175.30061163898437
 11
2572.0397992563612
 21
192.57104157620943
  0
LINE
  8
_e-0_
  6
CONTINUOUS
 62
    7
 10
2557.393077545817
 20
208.5236262935092
 11
2561.8028673926596
 21
210.12865853712895
  0
LINE
  8
_e-0_
  6
CONTINUOUS
 62
    7
 10
2557.393077545817
 20
203.20273743112977
 11
2572.0397992563612
 21
208.53370816334802
  0
LINE
  8
_e-0_
  6
CONTINUOUS
 62
    7
 10
2557.393077545817
 20
197.88184856875005
 11
2572.0397992563612
 21
203.21281930096859
  0
LINE
  8
_e-0_
  6
CONTINUOUS
 62
    7
 10
2557.393077545817
 20
192.56095970637034
 11
2572.0397992563612
 21
197.89193043858915
  0
LINE
  8
_e-0_
  6
CONTINUOUS
 62
    7
 10
2531.3600319802562
 20
183.08570601321093
 11
2545.8030101140193
 21
188.34252014805827
  0
LINE
  8
_e-0_
  6
CONTINUOUS
 62
    7
 10
2548.0525958796984
 20
173.19863581905565
 11
2572.0397992563612
 21
181.92926385145057
  0
LINE
  8
_e-0_
  6
CONTINUOUS
 62
    7
 10
2521.2864022906337
 20
163.45653806802943
 11
2538.3752084417083
 21
169.67635484616607
  0
LINE
  8
_e-0_
  6
CONTINUOUS
 62
    7
 10
2521.6554107736328
 20
158.26995730965364
 11
2535.4846691325356
 21
163.30339571427089
  0
LINE
  8
_e-0_
  6
CONTINUOUS
 62
    7
 10
2522.9940114609526
 20
153.43627925302655
 11
2536.1404517985765
 21
158.22119222247806
  0
LINE
  8
_e-0_
  6
CONTINUOUS
 62
    7
 10
2525.2563435788042
 20
148.93881194156961
 11
2539.0354883761392
 21
153.95401050144357
  0
LINE
  8
_e-0_
  6
CONTINUOUS
 62
    7
 10
2528.5117312327797
 20
144.80278728623488
 11
2545.7561370732082
 21
151.07923771975691
  0
LINE
  8
_e-0_
  6
CONTINUOUS
 62
    7
 10
2554.2054905278623
 20
154.15455087604527
 11
2572.0397992563612
 21
160.64570840193255
  0
LINE
  8
_e-0_
  6
CONTINUOUS
 62
    7
 10
2557.505937791675
 20
160.67670430221767
 11
2572.0397992563612
 21
165.96659726431198
  0
LINE
  8
_e-0_
  6
CONTINUOUS
 62
    7
 10
2557.5903561511468
 20
166.02831893467055
 11
2572.0397992563612
 21
171.28748612669141
  0
LINE
  8
_e-0_
  6
CONTINUOUS
 62
    7
 10
2557.5903561511468
 20
171.34920779704998
 11
2572.0397992563612
 21
176.60837498907085
  0
LINE
  8
_e-0_
  6
CONTINUOUS
 62
    7
 10
2595.1467628188602
 20
185.01862193009401
 11
2601.869376832742
 21
187.46545332760774
  0
LINE
  8
_e-0_
  6
CONTINUOUS
 62
    7
 10
2585.5936460434281
 20
176.22068291698809
 11
2614.8426950414304
 21
186.86646613285404
  0
LINE
  8
_e-0_
  6
CONTINUOUS
 62
    7
 10
2608.5181174973604
 20
136.67650840108905
 11
2622.7000364868072
 21
141.83830477802189
  0
LINE
  8
_e-0_
  6
CONTINUOUS
 62
    7
 10
2598.2444761483161
 20
138.25809761488983
 11
2629.5534764025942
 21
149.65364177207987
  0
LINE
  8
_e-0_
  6
CONTINUOUS
 62
    7
 10
2582.6330921261528
 20
169.82224055178022
 11
2621.2234503919626
 21
183.86798229020314
  0
LINE
  8
_e-0_
  6
CONTINUOUS
 62
    7
 10
2592.2968185805402
 20
141.41421615899105
 11
2632.0809325371146
 21
155.89444943583799
  0
LINE
  8
_e-0_
  6
CONTINUOUS
 62
    7
 10
2588.0695495912832
 20
145.19650493704432
 11
2602.246111940276
 21
150.35635165629656
  0
LINE
  8
_e-0_
  6
CONTINUOUS
 62
    7
 10
2585.0094293819529
 20
149.40360112995108
 11
2597.3909335115822
 21
153.91010008858017
  0
LINE
  8
_e-0_
  6
CONTINUOUS
 62
    7
 10
2582.919829983693
 20
153.96393800982366
 11
2594.8695180063709
 21
158.31326875884542
  0
LINE
  8
_e-0_
  6
CONTINUOUS
 62
    7
 10
2581.7538748691904
 20
158.86045391603374
 11
2594.1774270088017
 21
163.38225709870641
  0
LINE
  8
_e-0_
  6
CONTINUOUS
 62
    7
 10
2581.5798124660104
 20
164.11798924475078
 11
2595.9853391150809
 21
169.36117215394091
  0
LINE
  8
_e-0_
  6
CONTINUOUS
 62
    7
 10
2611.9748325174678
 20
175.18087181340547
 11
2625.6969314853613
 21
180.17530738937352
  0
LINE
  8
_e-0_
  6
CONTINUOUS
 62
    7
 10
2617.2029460570038
 20
171.76286066078091
 11
2628.9430705154381
 21
176.03591651023151
  0
LINE
  8
_e-0_
  6
CONTINUOUS
 62
    7
 10
2619.9310564926913
 20
167.43492279278257
 11
2631.1973168341919
 21
171.53550620858254
  0
LINE
  8
_e-0_
  6
CONTINUOUS
 62
    7
 10
2620.8298424207368
 20
162.44116525518904
 11
2632.5279188691888
 21
166.69891688059578
  0
LINE
  8
_e-0_
  6
CONTINUOUS
 62
    7
 10
2619.394865425299
 20
156.5979874796136
 11
2632.8880000931144
 21
161.50908686564349
  0
LINE
  8
ADD_LINE
  6
DOT
 62
    9
 10
2339.5613566552269
 20
120
 11
2339.5613566552269
 21
220
  0
LINE
  8
ADD_LINE
  6
DOT
 62
    9
 10
2486.2246783741707
 20
220
 11
2486.2246783741707
 21
120
  0
LINE
  8
ADD_LINE
  6
DOT
 62
    9
 10
2632.8880000931144
 20
120
 11
2632.8880000931144
 21
220
  0
LINE
  8
ADD_LINE
  6
DOT
 62
    9
 10
2220
 20
220
 11
2220
 21
120
  0
LINE
  8
ADD_LINE
  6
DOT
 62
    9
 10
2710
 20
220
 11
2710
 21
120
  0
TEXT
  8
_e-0_
 62
    7
 10
2642.8586825750176
 20
180.56247057449553
 40
35
 41
0.5714285714285713
 50
0
  1
ワンド
  0
TEXT
  8
_e-0_
 62
    7
 10
2649.7045100149039
 20
147.0179161190498
 40
30
 41
0.6666666666666666
 50
0
  1
株式
  0
TEXT
  8
_e-0_
 62
    7
 10
2649.0199272709155
 20
118.95002361551377
 40
30
 41
0.6666666666666666
 50
0
  1
会社
  0
TEXT
  8
_f-8_
 62
    7
 10
881.46924200616786
 20
137.89725693880853
 40
45
 41
0.8
 50
0
  1
薄型　調理台
  0
TEXT
  8
_f-8_
 62
    7
 10
1614.678785911378
 20
138.65427690310013
 40
45
 41
0.6666666666666666
 50
0
  1
ＫＴＤ４－８０－３０Ｔ
  0
TEXT
  8
_f-8_
 62
    7
 10
3056.1297911969413
 20
140.34947554161362
 40
35
 41
0.5714285714285713
 50
0
  1
２０２３.０５.０１
  0
TEXT
  8
_f-8_
 62
    7
 10
3582
 20
145
 40
30
 41
0.7333333333333333
 50
0
  1
Ｔ．Ｋ
  0
TEXT
  8
_0-9_
 62
    7
 10
1116.9
 20
480
 40
35
 41
0.6285714285714286
 50
0
  1
２９４
  0
ENDSEC
  0
EOF
