  0
SECTION
  2
HEADER
  9
$ACADVER
  1
AC1009
  9
$INSBASE
 10
0
 20
0
 30
0
  9
$EXTMIN
 10
0
 20
0
  9
$EXTMAX
 10
4200
 20
2970
  9
$LIMMIN
 10
0
 20
0
  9
$LIMMAX
 10
4200
 20
2970
  9
$LTSCALE
 40
10
  0
ENDSEC
  0
SECTION
  2
TABLES
  0
TABLE
  2
LTYPE
 70
     9
  0
LTYPE
  2
CONTINUOUS
 70
    64
  3
実線
 72
    65
 73
     0
 40
0.0
  0
LTYPE
  2
DASHED1
 70
    64
  3
--  --  --  --  --  --  --  --  
 72
    65
 73
     2
 40
2.5
 49
1.25
 49
-1.25
  0
LTYPE
  2
DASHED2
 70
    64
  3
----    ----    ----    ----    
 72
    65
 73
     2
 40
5.0
 49
2.5
 49
-2.5
  0
LTYPE
  2
DASHED3
 70
    64
  3
------  ------  ------  ------  
 72
    65
 73
     2
 40
5.0
 49
3.75
 49
-1.25
  0
LTYPE
  2
CENTER1
 70
    64
  3
----- - ----- - ----- - ----- - 
 72
    65
 73
     4
 40
10.0
 49
6.25
 49
-1.25
 49
1.25
 49
-1.25
  0
LTYPE
  2
CENTER2
 70
    64
  3
----------  --  ----------  --  
 72
    65
 73
     4
 40
20.0
 49
12.5
 49
-2.5
 49
2.5
 49
-2.5
  0
LTYPE
  2
PHANTOM1
 70
    64
  3
--- - - --- - - --- - - --- - - 
 72
    65
 73
     6
 40
10.0
 49
3.25
 49
-1.25
 49
1.25
 49
-1.25
 49
1.25
 49
-1.25
  0
LTYPE
  2
PHANTOM2
 70
    64
  3
--------  -  -  --------  -  -  
 72
    65
 73
     6
 40
20.0
 49
10.0
 49
-2.5
 49
1.25
 49
-2.5
 49
1.25
 49
-2.5
  0
LTYPE
  2
DOT
 70
    64
  3
-   -   -   -   -   -   -   -   
 72
    65
 73
     2
 40
2.5
 49
0.625
 49
-1.875
  0
LTYPE
  2
DUMMY
 70
    64
  3
ダミー
 72
    65
 73
     0
 40
0.0
  0
LTYPE
  2
RAND1
 70
    64
  3
ランダム線1
 72
    65
 73
     4
 40
10.0
 49
1.0
 49
-2.0
 49
3.0
 49
-4.0
  0
LTYPE
  2
RAND2
 70
    64
  3
ランダム線2
 72
    65
 73
     4
 40
14.0
 49
2.0
 49
-3.0
 49
4.0
 49
-5.0
  0
LTYPE
  2
RAND3
 70
    64
  3
ランダム線3
 72
    65
 73
     4
 40
18.0
 49
3.0
 49
-4.0
 49
5.0
 49
-6.0
  0
LTYPE
  2
RAND4
 70
    64
  3
ランダム線4
 72
    65
 73
     4
 40
22.0
 49
4.0
 49
-5.0
 49
6.0
 49
-7.0
  0
LTYPE
  2
RAND5
 70
    64
  3
ランダム線5
 72
    65
 73
     4
 40
26.0
 49
5.0
 49
-6.0
 49
7.0
 49
-8.0
  0
LTYPE
  2
LONG1
 70
    64
  3
----------  --  ----------  --  
 72
    65
 73
     4
 40
40.0
 49
32.5
 49
-2.5
 49
2.5
 49
-2.5
  0
LTYPE
  2
LONG2
 70
    64
  3
--------  -  -  --------  -  -  
 72
    65
 73
     6
 40
40.0
 49
30.0
 49
-2.5
 49
1.25
 49
-2.5
 49
1.25
 49
-2.5
  0
LTYPE
  2
LONG3
 70
    64
  3
+++++++++++++++..+++++++++++++++
 72
    65
 73
     2
 40
40.0
 49
37.5
 49
-2.5
  0
LTYPE
  2
LONG4
 70
    64
  3
+++++++++++++++..+++++++++++++++
 72
    65
 73
     2
 40
80.0
 49
75.0
 49
-5.0
  0
LTYPE
  2
LONG5
 70
    64
  3
----------  --  ----------  --  
 72
    65
 73
     4
 40
60.0
 49
37.5
 49
-7.5
 49
7.5
 49
-7.5
  0
LTYPE
  2
dashed
 70
   64
  3
-------   -------------   ------
 72
   65
 73
    2
 40
7.5
 49
6
 49
-1.5
  0
LTYPE
  2
dashed_spaced
 70
   64
  3
----        --------        ----
 72
   65
 73
    2
 40
12
 49
6
 49
-6
  0
LTYPE
  2
long_dashed_dotted
 70
   64
  3
------------- --- --------------
 72
   65
 73
    4
 40
15.25
 49
12
 49
-1.5
 49
0.25
 49
-1.5
  0
LTYPE
  2
long_dashed_double-dotted
 70
   64
  3
----------- --- --- ------------
 72
   65
 73
    6
 40
17
 49
12
 49
-1.5
 49
0.25
 49
-1.5
 49
0.25
 49
-1.5
  0
LTYPE
  2
long_dashed_triplicate-dotted
 70
   64
  3
--------- --- --- --- ----------
 72
   65
 73
    8
 40
18.75
 49
12
 49
-1.5
 49
0.25
 49
-1.5
 49
0.25
 49
-1.5
 49
0.25
 49
-1.5
  0
LTYPE
  2
dotted
 70
   64
  3
   -       -       -       -    
 72
   65
 73
    2
 40
1.75
 49
0.25
 49
-1.5
  0
LTYPE
  2
chain
 70
   64
  3
-------------- -- --------------
 72
   65
 73
    4
 40
18.5
 49
12
 49
-1.5
 49
3.5
 49
-1.5
  0
LTYPE
  2
chain_double_dash
 70
   64
  3
------------ -- -- -------------
 72
   65
 73
    6
 40
23.5
 49
12
 49
-1.5
 49
3.5
 49
-1.5
 49
3.5
 49
-1.5
  0
LTYPE
  2
dashed_dotted
 70
   64
  3
-----------     -     ----------
 72
   65
 73
    4
 40
9.25
 49
6
 49
-1.5
 49
0.25
 49
-1.5
  0
LTYPE
  2
double-dashed_dotted
 70
   64
  3
------   -----------   -   -----
 72
   65
 73
    6
 40
16.75
 49
6
 49
-1.5
 49
6
 49
-1.5
 49
0.25
 49
-1.5
  0
LTYPE
  2
dashed_double-dotted
 70
   64
  3
---------    -    -    ---------
 72
   65
 73
    6
 40
11
 49
6
 49
-1.5
 49
0.25
 49
-1.5
 49
0.25
 49
-1.5
  0
LTYPE
  2
double-dashed_double-dotted
 70
   64
  3
-----   ---------   -   -   ----
 72
   65
 73
    8
 40
18.5
 49
6
 49
-1.5
 49
6
 49
-1.5
 49
0.25
 49
-1.5
 49
0.25
 49
-1.5
  0
LTYPE
  2
dashed_triplicate-dotted
 70
   64
  3
-------    -    -    -    ------
 72
   65
 73
    8
 40
12.75
 49
6
 49
-1.5
 49
0.25
 49
-1.5
 49
0.25
 49
-1.5
 49
0.25
 49
-1.5
  0
LTYPE
  2
double-dashed_triplicate-dotted
 70
   64
  3
-----  ---------  -  -  -  -----
 72
   65
 73
   10
 40
20.25
 49
6
 49
-1.5
 49
6
 49
-1.5
 49
0.25
 49
-1.5
 49
0.25
 49
-1.5
 49
0.25
 49
-1.5
  0
LTYPE
  2
undefined
 70
   64
  3
--------------------------------
 72
   65
 73
    0
 40
0
  0
LTYPE
  2
_
 70
   64
  3
                                
 72
   65
 73
    0
 40
0
  0
LTYPE
  2
__18
 70
   64
  3
                                
 72
   65
 73
    0
 40
0
  0
LTYPE
  2
__19
 70
   64
  3
                                
 72
   65
 73
    0
 40
0
  0
LTYPE
  2
__20
 70
   64
  3
                                
 72
   65
 73
    0
 40
0
  0
LTYPE
  2
__21
 70
   64
  3
                                
 72
   65
 73
    0
 40
0
  0
LTYPE
  2
__22
 70
   64
  3
                                
 72
   65
 73
    0
 40
0
  0
LTYPE
  2
__23
 70
   64
  3
                                
 72
   65
 73
    0
 40
0
  0
LTYPE
  2
__24
 70
   64
  3
                                
 72
   65
 73
    0
 40
0
  0
LTYPE
  2
__25
 70
   64
  3
                                
 72
   65
 73
    0
 40
0
  0
LTYPE
  2
__26
 70
   64
  3
                                
 72
   65
 73
    0
 40
0
  0
LTYPE
  2
__27
 70
   64
  3
                                
 72
   65
 73
    0
 40
0
  0
LTYPE
  2
__28
 70
   64
  3
                                
 72
   65
 73
    0
 40
0
  0
LTYPE
  2
__29
 70
   64
  3
                                
 72
   65
 73
    0
 40
0
  0
LTYPE
  2
__30
 70
   64
  3
                                
 72
   65
 73
    0
 40
0
  0
LTYPE
  2
__31
 70
   64
  3
                                
 72
   65
 73
    0
 40
0
  0
LTYPE
  2
__32
 70
   64
  3
                                
 72
   65
 73
    0
 40
0
  0
ENDTAB
  0
TABLE
  2
STYLE
  5
3
100
AcDbSymbolTable
 70
     1
  0
STYLE
  5
10
100
AcDbSymbolTableRecord
100
AcDbTextStyleTableRecord
  2
STANDARD
 70
     0
 40
0.0
 41
1.0
 50
0.0
 71
     0
 42
0.2
  3
txt
  4
bigfont.shx
  0
STYLE
  5
26
100
AcDbSymbolTableRecord
100
AcDbTextStyleTableRecord
  2
TATEGAKI
 70
    68
 40
0.0
 41
1.0
 50
0.0
 71
     0
 42
1.0
  3
txt
  4
bigfont.shx
  0
ENDTAB
  0
TABLE
  2
LAYER
 70
   16
  0
LAYER
  2
_0-2_
 70
   64
 62
    7
  6
CONTINUOUS
  0
LAYER
  2
_0-3_
 70
   64
 62
    7
  6
CONTINUOUS
  0
LAYER
  2
_0-4_
 70
   64
 62
    7
  6
CONTINUOUS
  0
LAYER
  2
_0-5_
 70
   64
 62
    7
  6
CONTINUOUS
  0
LAYER
  2
_0-8_
 70
   64
 62
    7
  6
CONTINUOUS
  0
LAYER
  2
_0-9_
 70
   64
 62
    7
  6
CONTINUOUS
  0
LAYER
  2
_0-d_
 70
   64
 62
    7
  6
CONTINUOUS
  0
LAYER
  2
_e-0_
 70
   64
 62
    7
  6
CONTINUOUS
  0
LAYER
  2
_f-0_
 70
   64
 62
    7
  6
CONTINUOUS
  0
LAYER
  2
_f-7_
 70
   64
 62
    7
  6
CONTINUOUS
  0
LAYER
  2
_f-8_
 70
   64
 62
    7
  6
CONTINUOUS
  0
LAYER
  2
_f-9_
 70
   64
 62
    7
  6
CONTINUOUS
  0
LAYER
  2
_f-d_固定文字
 70
   64
 62
    7
  6
CONTINUOUS
  0
LAYER
  2
_f-e_
 70
   64
 62
    7
  6
CONTINUOUS
  0
LAYER
  2
_f-f_図面枠
 70
   64
 62
    7
  6
CONTINUOUS
  0
LAYER
  2
ADD_LINE
 70
   64
 62
    7
  6
CONTINUOUS
  0
ENDTAB
  0
ENDSEC
  0
SECTION
  2
BLOCKS
  0
ENDSEC
  0
SECTION
  2
ENTITIES
  0
LINE
  8
_0-9_
  6
CONTINUOUS
 62
    4
 10
1246
 20
407.91153053655847
 11
1246
 21
540
  0
LINE
  8
_0-9_
  6
CONTINUOUS
 62
    4
 10
954
 20
407.91153053655847
 11
954
 21
540
  0
LINE
  8
_0-2_
  6
CONTINUOUS
 62
    5
 10
1250
 20
1352.0000000000002
 11
950
 21
1352.0000000000002
  0
LINE
  8
ADD_LINE
  6
DOT
 62
    9
 10
149.98500000000007
 20
100
 11
149.98500000000007
 21
65
  0
LINE
  8
ADD_LINE
  6
DOT
 62
    9
 10
179.98500000000007
 20
100
 11
179.98500000000007
 21
65.000000646005844
  0
LINE
  8
ADD_LINE
  6
DOT
 62
    9
 10
150.01499999999992
 20
65
 11
120.02999999999985
 21
65
  0
LINE
  8
ADD_LINE
  6
DOT
 62
    9
 10
74.98500000000007
 20
55
 11
4144.9850000000005
 21
55
  0
LINE
  8
ADD_LINE
  6
DOT
 62
    9
 10
4130
 20
100
 11
4130
 21
65.00000323002979
  0
LINE
  8
ADD_LINE
  6
DOT
 62
    9
 10
4100
 20
100
 11
4100
 21
65.00000323002979
  0
LINE
  8
ADD_LINE
  6
DOT
 62
    9
 10
4070
 20
100
 11
4070
 21
65.00000323002979
  0
LINE
  8
ADD_LINE
  6
DOT
 62
    9
 10
4040
 20
100
 11
4040
 21
65.00000323002979
  0
LINE
  8
ADD_LINE
  6
DOT
 62
    9
 10
4010
 20
100
 11
4010
 21
65.00000323002979
  0
LINE
  8
ADD_LINE
  6
DOT
 62
    9
 10
3980
 20
100
 11
3980
 21
65
  0
LINE
  8
ADD_LINE
  6
DOT
 62
    9
 10
74.98500000000007
 20
2875
 11
74.98500000000007
 21
55
  0
LINE
  8
ADD_LINE
  6
DOT
 62
    9
 10
120.02999999999985
 20
65
 11
120.02999999999985
 21
2860
  0
LINE
  8
ADD_LINE
  6
DOT
 62
    9
 10
4144.9850000000005
 20
2875
 11
74.98500000000007
 21
2875
  0
LINE
  8
ADD_LINE
  6
DOT
 62
    9
 10
4144.9850000000005
 20
55
 11
4144.9850000000005
 21
2875
  0
LINE
  8
_f-9_
  6
CONTINUOUS
 62
    7
 10
630
 20
120
 11
630
 21
220
  0
LINE
  8
ADD_LINE
  6
DOT
 62
    9
 10
170
 20
120
 11
170
 21
220
  0
LINE
  8
ADD_LINE
  6
DOT
 62
    9
 10
610
 20
120
 11
610
 21
220
  0
LINE
  8
_f-9_
  6
CONTINUOUS
 62
    7
 10
170
 20
120
 11
610
 21
120
  0
LINE
  8
_f-9_
  6
CONTINUOUS
 62
    7
 10
170
 20
220
 11
610
 21
220
  0
LINE
  8
_f-9_
  6
CONTINUOUS
 62
    7
 10
1420
 20
120
 11
1420
 21
220
  0
LINE
  8
_f-9_
  6
CONTINUOUS
 62
    7
 10
2210
 20
120
 11
2210
 21
220
  0
LINE
  8
_f-9_
  6
CONTINUOUS
 62
    7
 10
2220
 20
120
 11
2220
 21
220
  0
LINE
  8
_f-9_
  6
CONTINUOUS
 62
    7
 10
630
 20
120
 11
2210
 21
120
  0
LINE
  8
_f-9_
  6
CONTINUOUS
 62
    7
 10
630
 20
220
 11
2210
 21
220
  0
LINE
  8
_f-9_
  6
CONTINUOUS
 62
    7
 10
2710
 20
120
 11
2710
 21
220
  0
LINE
  8
_f-9_
  6
CONTINUOUS
 62
    7
 10
2720
 20
120
 11
2720
 21
220
  0
LINE
  8
_f-9_
  6
CONTINUOUS
 62
    7
 10
2220
 20
120
 11
2710
 21
120
  0
LINE
  8
_f-9_
  6
CONTINUOUS
 62
    7
 10
2220
 20
220
 11
2710
 21
220
  0
LINE
  8
_f-9_
  6
CONTINUOUS
 62
    7
 10
3020
 20
120
 11
3020
 21
220
  0
LINE
  8
_f-9_
  6
CONTINUOUS
 62
    7
 10
3320
 20
120
 11
3320
 21
220
  0
LINE
  8
_f-9_
  6
CONTINUOUS
 62
    7
 10
3700
 20
120
 11
3700
 21
220
  0
LINE
  8
_f-9_
  6
CONTINUOUS
 62
    7
 10
2720
 20
120
 11
4110
 21
120
  0
LINE
  8
_f-9_
  6
CONTINUOUS
 62
    7
 10
4110
 20
120
 11
4110
 21
220
  0
LINE
  8
_f-9_
  6
CONTINUOUS
 62
    7
 10
2720
 20
220
 11
4110
 21
220
  0
LINE
  8
_f-f_図面枠
  6
CONTINUOUS
 62
  230
 10
4130
 20
2860
 11
4130
 21
100
  0
LINE
  8
_f-f_図面枠
  6
CONTINUOUS
 62
  230
 10
150
 20
2860
 11
4130
 21
2860
  0
LINE
  8
_f-f_図面枠
  6
CONTINUOUS
 62
  230
 10
150
 20
100
 11
4130
 21
100
  0
LINE
  8
_f-f_図面枠
  6
CONTINUOUS
 62
  230
 10
150
 20
100
 11
150
 21
2860
  0
LINE
  8
ADD_LINE
  6
DOT
 62
    9
 10
630
 20
200
 11
2210
 21
200
  0
LINE
  8
ADD_LINE
  6
DOT
 62
    9
 10
2720
 20
200
 11
4110
 21
200
  0
LINE
  8
ADD_LINE
  6
DOT
 62
    9
 10
2740
 20
120
 11
2740
 21
220
  0
LINE
  8
ADD_LINE
  6
DOT
 62
    9
 10
3040
 20
120
 11
3040
 21
220
  0
LINE
  8
ADD_LINE
  6
DOT
 62
    9
 10
3340
 20
120
 11
3340
 21
220
  0
LINE
  8
ADD_LINE
  6
DOT
 62
    9
 10
3720
 20
120
 11
3720
 21
220
  0
LINE
  8
ADD_LINE
  6
DOT
 62
    9
 10
1445
 20
120
 11
1445
 21
220
  0
LINE
  8
ADD_LINE
  6
DOT
 62
    9
 10
655
 20
120
 11
655
 21
220
  0
LINE
  8
ADD_LINE
  6
DOT
 62
    9
 10
3660
 20
120
 11
3660
 21
220
  0
LINE
  8
ADD_LINE
  6
DOT
 62
    9
 10
2720
 20
160
 11
4110
 21
160
  0
TEXT
  8
_f-8_
 62
    7
 10
3040
 20
187.5
 40
25
 41
0.64
 50
0
  1
ＤＡＴＡ
  0
TEXT
  8
_f-8_
 62
    7
 10
3340
 20
187.5
 40
25
 41
0.64
 50
0
  1
ＣＨＥＣＫＥＤ
  0
TEXT
  8
_f-8_
 62
    7
 10
3720
 20
187.5
 40
25
 41
0.64
 50
0
  1
ＳＨＥＥＴ　ＮＯ．
  0
TEXT
  8
_f-8_
 62
    7
 10
3542
 20
187.5
 40
25
 41
0.64
 50
0
  1
ＤＲＡＷＩＮＧ
  0
LINE
  8
ADD_LINE
  6
DOT
 62
    9
 10
135
 20
65
 11
135
 21
2860
  0
LINE
  8
_f-9_
  6
CONTINUOUS
 62
    7
 10
170
 20
170
 11
610
 21
170
  0
LINE
  8
ADD_LINE
  6
DOT
 62
    9
 10
2910
 20
120
 11
2910
 21
220
  0
LINE
  8
ADD_LINE
  6
DOT
 62
    9
 10
3170
 20
120
 11
3170
 21
220
  0
LINE
  8
ADD_LINE
  6
DOT
 62
    9
 10
3500
 20
220
 11
3500
 21
120
  0
LINE
  8
ADD_LINE
  6
DOT
 62
    9
 10
630
 20
160
 11
2210
 21
160
  0
LINE
  8
ADD_LINE
  6
DOT
 62
    9
 10
1025
 20
220
 11
1025
 21
120
  0
TEXT
  8
_f-8_
 62
    7
 10
2861
 20
142.5
 40
35
 41
0.5714285714285713
 50
0
  1
１／１０
  0
TEXT
  8
_f-8_
 62
    7
 10
2740.3739840854213
 20
187.46937299484983
 40
25
 41
0.64
 50
0
  1
ＳＣＡＬＥ
  0
TEXT
  8
_f-8_
 62
    7
 10
1445
 20
187.5
 40
25
 41
0.8
 50
0
  1
図面名称
  0
TEXT
  8
_f-8_
 62
    7
 10
655
 20
187.5
 40
25
 41
0.8
 50
0
  1
名　称
  0
LINE
  8
ADD_LINE
  6
DOT
 62
    9
 10
1815
 20
120
 11
1815
 21
220
  0
LINE
  8
_f-8_
  6
CONTINUOUS
 62
    7
 10
2165
 20
2872
 11
2166.15
 21
2874.0000000000004
  0
LINE
  8
_f-8_
  6
CONTINUOUS
 62
    7
 10
2158.6399999999998
 20
2877
 11
2165
 21
2866
  0
LINE
  8
_f-8_
  6
CONTINUOUS
 62
    7
 10
2165
 20
2866
 11
2171.3499999999999
 21
2877
  0
LINE
  8
_f-8_
  6
CONTINUOUS
 62
    7
 10
2165
 20
2860
 11
2176.5399999999999
 21
2880
  0
LINE
  8
_f-8_
  6
CONTINUOUS
 62
    7
 10
2153.4499999999998
 20
2880
 11
2165
 21
2860
  0
LINE
  8
_f-8_
  6
CONTINUOUS
 62
    7
 10
2176.5399999999999
 20
2880
 11
2153.4499999999998
 21
2880
  0
LINE
  8
_f-8_
  6
CONTINUOUS
 62
    7
 10
2163.8400000000001
 20
2874.0000000000004
 11
2165
 21
2872
  0
LINE
  8
_f-8_
  6
CONTINUOUS
 62
    7
 10
2166.15
 20
2874.0000000000004
 11
2163.8400000000001
 21
2874.0000000000004
  0
LINE
  8
_f-8_
  6
CONTINUOUS
 62
    7
 10
2171.3499999999999
 20
2877
 11
2158.6399999999998
 21
2877
  0
LINE
  8
_f-7_
  6
CONTINUOUS
 62
    7
 10
120
 20
1462.6794919243113
 11
120
 21
1497.3205080756886
  0
LINE
  8
_f-7_
  6
CONTINUOUS
 62
    7
 10
120
 20
1497.3205080756886
 11
150
 21
1480
  0
LINE
  8
_f-7_
  6
CONTINUOUS
 62
    7
 10
150
 20
1480
 11
120
 21
1462.6794919243113
  0
LINE
  8
_f-7_
  6
CONTINUOUS
 62
    7
 10
125
 20
1471.3397459621555
 11
125
 21
1488.6602540378444
  0
LINE
  8
_f-7_
  6
CONTINUOUS
 62
    7
 10
125
 20
1488.6602540378444
 11
140
 21
1480
  0
LINE
  8
_f-7_
  6
CONTINUOUS
 62
    7
 10
140
 20
1480
 11
125
 21
1471.3397459621555
  0
LINE
  8
_f-7_
  6
CONTINUOUS
 62
    7
 10
128.99999999999977
 20
1478.2679491924309
 11
128.99999999999977
 21
1481.732050807569
  0
LINE
  8
_f-7_
  6
CONTINUOUS
 62
    7
 10
128.99999999999977
 20
1481.732050807569
 11
132.00000000000045
 21
1480
  0
LINE
  8
_f-7_
  6
CONTINUOUS
 62
    7
 10
132.00000000000045
 20
1480
 11
128.99999999999977
 21
1478.2679491924309
  0
LINE
  8
_f-7_
  6
CONTINUOUS
 62
    7
 10
4160
 20
1462.6794919243113
 11
4160
 21
1497.3205080756886
  0
LINE
  8
_f-7_
  6
CONTINUOUS
 62
    7
 10
4160
 20
1497.3205080756886
 11
4130
 21
1480
  0
LINE
  8
_f-7_
  6
CONTINUOUS
 62
    7
 10
4130
 20
1480
 11
4160
 21
1462.6794919243113
  0
LINE
  8
_f-7_
  6
CONTINUOUS
 62
    7
 10
4155
 20
1471.3397459621555
 11
4155
 21
1488.6602540378444
  0
LINE
  8
_f-7_
  6
CONTINUOUS
 62
    7
 10
4155
 20
1488.6602540378444
 11
4140
 21
1480
  0
LINE
  8
_f-7_
  6
CONTINUOUS
 62
    7
 10
4140
 20
1480
 11
4155
 21
1471.3397459621555
  0
LINE
  8
_f-7_
  6
CONTINUOUS
 62
    7
 10
4151
 20
1478.2679491924309
 11
4151
 21
1481.732050807569
  0
LINE
  8
_f-7_
  6
CONTINUOUS
 62
    7
 10
4151
 20
1481.732050807569
 11
4148
 21
1480
  0
LINE
  8
_f-7_
  6
CONTINUOUS
 62
    7
 10
4148
 20
1480
 11
4151
 21
1478.2679491924309
  0
LINE
  8
ADD_LINE
  6
DOT
 62
    9
 10
1075
 20
220
 11
1075
 21
120
  0
LINE
  8
ADD_LINE
  6
DOT
 62
    9
 10
1865
 20
120
 11
1865
 21
220
  0
TEXT
  8
_f-d_固定文字
 62
    7
 10
149.98500000000007
 20
65
 40
20
 41
1
 50
0
  1
%f
  0
LINE
  8
ADD_LINE
  6
DOT
 62
    9
 10
149.98500000000007
 20
65
 11
179.98500000000007
 21
65.000000646005844
  0
TEXT
  8
_f-d_固定文字
 62
    7
 10
4050
 20
65.00000323002979
 40
20
 41
1
 50
0
  1
%m
  0
TEXT
  8
_f-d_固定文字
 62
    7
 10
4080
 20
65.00000323002979
 40
20
 41
1
 50
0
  1
．
  0
TEXT
  8
_f-d_固定文字
 62
    7
 10
4110
 20
65.00000323002979
 40
20
 41
1
 50
0
  1
%d
  0
LINE
  8
ADD_LINE
  6
DOT
 62
    9
 10
3980
 20
65
 11
4130
 21
65.00000323002979
  0
TEXT
  8
_f-d_固定文字
 62
    7
 10
3990
 20
65.00000323002979
 40
20
 41
1
 50
0
  1
%y
  0
TEXT
  8
_f-d_固定文字
 62
    7
 10
4020
 20
65.00000323002979
 40
20
 41
1
 50
0
  1
．
  0
LINE
  8
_0-8_
  6
CONTINUOUS
 62
    4
 10
975
 20
1903.6399999999998
 11
1225
 21
1903.6399999999998
  0
LINE
  8
_0-8_
  6
CONTINUOUS
 62
    4
 10
1225
 20
1903.6399999999998
 11
1225
 21
1973.6399999999998
  0
LINE
  8
_0-8_
  6
CONTINUOUS
 62
    4
 10
1225
 20
1973.6399999999998
 11
975
 21
1973.6399999999998
  0
LINE
  8
_0-8_
  6
CONTINUOUS
 62
    4
 10
975
 20
1973.6399999999998
 11
975
 21
1903.6399999999998
  0
TEXT
  8
_0-8_
 62
    7
 10
1053
 20
1921.1399999999998
 40
35
 41
0.857142857142857
 50
0
  1
平面図
  0
LINE
  8
ADD_LINE
  6
DOT
 62
    9
 10
1100
 20
1903.6399999999998
 11
1100
 21
1973.6399999999998
  0
LINE
  8
ADD_LINE
  6
DOT
 62
    9
 10
975
 20
1938.6399999999998
 11
1225
 21
1938.6399999999998
  0
LINE
  8
_0-2_
  6
CONTINUOUS
 62
    5
 10
950
 20
2610
 11
950
 21
2060
  0
POINT
  8
_0-9_
 62
    3
 10
950
 20
2749.5350085356249
  0
LINE
  8
_0-9_
  6
CONTINUOUS
 62
    4
 10
950
 20
2759.5350085356249
 11
950
 21
2625.1644127179247
  0
LINE
  8
_0-2_
  6
CONTINUOUS
 62
    5
 10
1250
 20
2610
 11
1250
 21
2060
  0
POINT
  8
_0-9_
 62
    3
 10
1250
 20
2749.5350085356249
  0
LINE
  8
_0-9_
  6
CONTINUOUS
 62
    4
 10
1250
 20
2759.5350085356249
 11
1250
 21
2625.1644127179247
  0
LINE
  8
_0-2_
  6
CONTINUOUS
 62
    5
 10
1250
 20
2060
 11
950
 21
2060
  0
LINE
  8
_0-2_
  6
CONTINUOUS
 62
    5
 10
1250
 20
2585
 11
950
 21
2585
  0
LINE
  8
_0-2_
  6
CONTINUOUS
 62
    5
 10
1250
 20
2610
 11
950
 21
2610
  0
LINE
  8
_0-9_
  6
CONTINUOUS
 62
    4
 10
950
 20
2749.5350085356249
 11
1250
 21
2749.5350085356249
  0
TEXT
  8
_0-9_
 62
    7
 10
1066.9
 20
2749.5350085356249
 40
35
 41
0.6285714285714286
 50
0
  1
３００
  0
POINT
  8
_0-9_
 62
    3
 10
1551
 20
2060
  0
POINT
  8
_0-9_
 62
    3
 10
1551
 20
2610
  0
LINE
  8
_0-9_
  6
CONTINUOUS
 62
    4
 10
1561
 20
2060
 11
1288.8289412795729
 21
2060
  0
LINE
  8
_0-9_
  6
CONTINUOUS
 62
    4
 10
1561
 20
2610
 11
1288.8289412795729
 21
2610
  0
LINE
  8
ADD_LINE
  6
DOT
 62
    9
 10
1551
 20
2610
 11
1551
 21
2692.1672488533549
  0
LINE
  8
ADD_LINE
  6
DOT
 62
    9
 10
1471
 20
2610
 11
1471
 21
2692.1672488533549
  0
LINE
  8
_0-9_
  6
CONTINUOUS
 62
    4
 10
1481
 20
2610
 11
1288.8289412795729
 21
2610
  0
LINE
  8
_0-9_
  6
CONTINUOUS
 62
    4
 10
1551
 20
2060
 11
1551
 21
2610
  0
TEXT
  8
_0-9_
 62
    7
 10
1551
 20
2301.9
 40
35
 41
0.6285714285714286
 50
90
  1
５５０
  0
LINE
  8
_0-8_
  6
CONTINUOUS
 62
    7
 10
2510.6400000000007
 20
669.99999999999988
 11
2510.6400000000007
 21
580
  0
LINE
  8
_0-2_
  6
CONTINUOUS
 62
    5
 10
2425.6400000000007
 20
1352.0000000000002
 11
2975.6400000000003
 21
1352.0000000000002
  0
LINE
  8
_0-2_
  6
CONTINUOUS
 62
    5
 10
2425.6400000000007
 20
1372.0000000000002
 11
2425.6400000000007
 21
1352.0000000000002
  0
ARC
  8
_0-2_
  6
CONTINUOUS
 62
    5
 10
2433.6400000000003
 20
1372.0000000000002
 40
8
 50
90
 51
180
  0
LINE
  8
_0-2_
  6
CONTINUOUS
 62
    5
 10
2975.6400000000003
 20
1469.9999999999997
 11
2975.6400000000003
 21
1352.0000000000002
  0
POINT
  8
_0-9_
 62
    3
 10
2107.3074015250044
 20
580
  0
POINT
  8
_0-9_
 62
    3
 10
2107.3074015250044
 20
1380
  0
LINE
  8
_0-9_
  6
CONTINUOUS
 62
    4
 10
2097.3074015250044
 20
580
 11
2383.7920228784855
 21
580
  0
LINE
  8
_0-9_
  6
CONTINUOUS
 62
    4
 10
2097.3074015250044
 20
1380
 11
2383.7920228784855
 21
1380
  0
LINE
  8
ADD_LINE
  6
DOT
 62
    9
 10
2267.3074015250044
 20
580.00001837158208
 11
2267.3074015250044
 21
526.02050038851996
  0
LINE
  8
ADD_LINE
  6
DOT
 62
    9
 10
2187.3074015250044
 20
580.00001837158208
 11
2187.3074015250044
 21
526.02050038851996
  0
LINE
  8
ADD_LINE
  6
DOT
 62
    9
 10
2107.3074015250044
 20
580.00001837158208
 11
2107.3074015250044
 21
526.02050038851996
  0
POINT
  8
_0-9_
 62
    3
 10
2187.3074015250044
 20
580
  0
POINT
  8
_0-9_
 62
    3
 10
2187.3074015250044
 20
669.99999999999988
  0
LINE
  8
_0-9_
  6
CONTINUOUS
 62
    4
 10
2177.3074015250044
 20
580
 11
2383.7920228784855
 21
580
  0
LINE
  8
_0-9_
  6
CONTINUOUS
 62
    4
 10
2177.3074015250044
 20
669.99999999999988
 11
2383.7920228784855
 21
669.99999999999988
  0
LINE
  8
ADD_LINE
  6
DOT
 62
    9
 10
2950.6400000000003
 20
1469.9999999999997
 11
2950.6400000000003
 21
1379.9999999999997
  0
LINE
  8
ADD_LINE
  6
DOT
 62
    9
 10
2945.9099999999998
 20
1379.9999999999997
 11
2950.6400000000003
 21
1379.9999999999997
  0
LINE
  8
ADD_LINE
  6
DOT
 62
    9
 10
2955.6400000000003
 20
1469.9999999999997
 11
2955.6400000000003
 21
1352.0000000000002
  0
LINE
  8
ADD_LINE
  6
DOT
 62
    9
 10
2962.2600000000006
 20
1469.9999999999997
 11
2955.6400000000003
 21
1469.9999999999997
  0
LINE
  8
_0-2_
  6
CONTINUOUS
 62
    5
 10
2945.9100676729667
 20
1379.9999999999997
 11
2433.6400000000003
 21
1379.9999999999997
  0
ARC
  8
_0-2_
  6
CONTINUOUS
 62
    5
 10
2945.9100676729667
 20
1384.9999999999997
 40
5
 50
270
 51
356.82016988013577
  0
LINE
  8
_0-2_
  6
CONTINUOUS
 62
    5
 10
2955.2726827854085
 20
1463.3882901373572
 11
2950.9023694389943
 21
1384.722649901887
  0
LINE
  8
_0-2_
  6
CONTINUOUS
 62
    5
 10
2962.2619052578465
 20
1469.9999999999997
 11
2975.6400000000003
 21
1469.9999999999997
  0
ARC
  8
_0-2_
  6
CONTINUOUS
 62
    5
 10
2962.2619052578465
 20
1462.9999999999997
 40
7
 50
90
 51
176.82016988013577
  0
POINT
  8
_0-9_
 62
    3
 10
2425.6400000000007
 20
1776.5121313760805
  0
POINT
  8
_0-9_
 62
    3
 10
2975.6400000000003
 20
1776.5121313760805
  0
LINE
  8
_0-9_
  6
CONTINUOUS
 62
    4
 10
2425.6400000000007
 20
1786.5121313760805
 11
2425.6400000000007
 21
1502.2073875056082
  0
LINE
  8
_0-9_
  6
CONTINUOUS
 62
    4
 10
2975.6400000000003
 20
1786.5121313760805
 11
2975.6400000000003
 21
1502.2073875056082
  0
LINE
  8
ADD_LINE
  6
DOT
 62
    9
 10
2975.6399929199224
 20
1776.5121313760805
 11
3029.619510902984
 21
1776.5121313760805
  0
LINE
  8
ADD_LINE
  6
DOT
 62
    9
 10
2975.6399929199224
 20
1696.5121313760805
 11
3029.619510902984
 21
1696.5121313760805
  0
LINE
  8
ADD_LINE
  6
DOT
 62
    9
 10
2975.6399929199224
 20
1616.5121313760805
 11
3029.619510902984
 21
1616.5121313760805
  0
POINT
  8
_0-9_
 62
    3
 10
2955.6400000000003
 20
1616.5121313760805
  0
POINT
  8
_0-9_
 62
    3
 10
2975.6399929199224
 20
1616.5121313760805
  0
LINE
  8
_0-9_
  6
CONTINUOUS
 62
    4
 10
2955.6400000000003
 20
1626.5121313760805
 11
2955.6400000000003
 21
1502.2073875056082
  0
LINE
  8
_0-9_
  6
CONTINUOUS
 62
    4
 10
2975.6399929199224
 20
1626.5121313760805
 11
2975.6399929199224
 21
1502.2073875056082
  0
POINT
  8
_0-9_
 62
    3
 10
2950.6400000000003
 20
1696.5121313760805
  0
POINT
  8
_0-9_
 62
    3
 10
2975.6400000000003
 20
1696.5121313760805
  0
LINE
  8
_0-9_
  6
CONTINUOUS
 62
    4
 10
2950.6400000000003
 20
1706.5121313760805
 11
2950.6400000000003
 21
1502.2073875056082
  0
LINE
  8
_0-9_
  6
CONTINUOUS
 62
    4
 10
2975.6400000000003
 20
1706.5121313760805
 11
2975.6400000000003
 21
1502.2073875056082
  0
LINE
  8
_0-9_
  6
CONTINUOUS
 62
    4
 10
2975.6400000000003
 20
1696.5121313760805
 11
3019.6418902811906
 21
1696.5121313760805
  0
LINE
  8
_0-9_
  6
CONTINUOUS
 62
    4
 10
2975.6399929199224
 20
1616.5121313760805
 11
3018.9113286586484
 21
1616.5121313760805
  0
POINT
  8
_0-9_
 62
    3
 10
3140.1927025351178
 20
580
  0
POINT
  8
_0-9_
 62
    3
 10
3140.1927025351178
 20
1469.9999999999997
  0
LINE
  8
_0-9_
  6
CONTINUOUS
 62
    4
 10
2107.3074015250044
 20
580
 11
2107.3074015250044
 21
1380
  0
TEXT
  8
_0-9_
 62
    7
 10
2107.3074015250044
 20
946.89999999999997
 40
35
 41
0.6285714285714286
 50
90
  1
８００
  0
LINE
  8
_0-9_
  6
CONTINUOUS
 62
    4
 10
2187.3074015250044
 20
580
 11
2187.3074015250044
 21
669.99999999999988
  0
TEXT
  8
_0-9_
 62
    7
 10
2187.3074015250044
 20
602.94999999999981
 40
35
 41
0.6285714285714286
 50
90
  1
９０
  0
LINE
  8
_0-9_
  6
CONTINUOUS
 62
    4
 10
2425.6400000000007
 20
1776.5121313760805
 11
2975.6400000000003
 21
1776.5121313760805
  0
TEXT
  8
_0-9_
 62
    7
 10
2667.5399999999999
 20
1776.5121313760805
 40
35
 41
0.6285714285714286
 50
0
  1
５５０
  0
LINE
  8
_0-9_
  6
CONTINUOUS
 62
    4
 10
2955.6400000000003
 20
1616.5121313760805
 11
2975.6399929199224
 21
1616.5121313760805
  0
TEXT
  8
_0-9_
 62
    7
 10
2976.7708840387517
 20
1616.5121313760805
 40
35
 41
0.6285714285714286
 50
0
  1
２０
  0
LINE
  8
_0-9_
  6
CONTINUOUS
 62
    4
 10
2950.6400000000003
 20
1696.5121313760805
 11
2975.6400000000003
 21
1696.5121313760805
  0
TEXT
  8
_0-9_
 62
    7
 10
2975.3097607936683
 20
1696.5121313760805
 40
35
 41
0.6285714285714286
 50
0
  1
２５
  0
LINE
  8
_0-9_
  6
CONTINUOUS
 62
    4
 10
3140.1927025351178
 20
580
 11
3140.1927025351178
 21
1469.9999999999997
  0
TEXT
  8
_0-9_
 62
    7
 10
3140.1927025351178
 20
991.89999999999986
 40
35
 41
0.6285714285714286
 50
90
  1
８９０
  0
LINE
  8
_0-2_
  6
CONTINUOUS
 62
    5
 10
1250
 20
1469.9999999999997
 11
1250
 21
1352.0000000000002
  0
POINT
  8
_0-9_
 62
    3
 10
1250
 20
1635.023002019227
  0
LINE
  8
_0-9_
  6
CONTINUOUS
 62
    4
 10
1250
 20
1645.023002019227
 11
1250
 21
1503.8849441254412
  0
LINE
  8
_0-2_
  6
CONTINUOUS
 62
    5
 10
950
 20
1469.9999999999997
 11
950
 21
1352.0000000000002
  0
POINT
  8
_0-9_
 62
    3
 10
950
 20
1635.023002019227
  0
LINE
  8
_0-9_
  6
CONTINUOUS
 62
    4
 10
950
 20
1645.023002019227
 11
950
 21
1503.8849441254412
  0
LINE
  8
_0-2_
  6
CONTINUOUS
 62
    5
 10
1250
 20
1379.9999999999997
 11
950
 21
1379.9999999999997
  0
LINE
  8
_0-2_
  6
CONTINUOUS
 62
    5
 10
1250
 20
1469.9999999999997
 11
950
 21
1469.9999999999997
  0
LINE
  8
_0-9_
  6
CONTINUOUS
 62
    4
 10
950
 20
1635.023002019227
 11
1250
 21
1635.023002019227
  0
TEXT
  8
_0-9_
 62
    7
 10
1066.9
 20
1635.023002019227
 40
35
 41
0.6285714285714286
 50
0
  1
３００
  0
LINE
  8
ADD_LINE
  6
DOT
 62
    9
 10
1551
 20
580.00001837158208
 11
1551
 21
526.02050038851996
  0
LINE
  8
ADD_LINE
  6
DOT
 62
    9
 10
1471
 20
580.00001837158208
 11
1471
 21
526.02050038851996
  0
LINE
  8
ADD_LINE
  6
DOT
 62
    9
 10
1391
 20
580.00001837158208
 11
1391
 21
526.02050038851996
  0
POINT
  8
_0-9_
 62
    3
 10
1551
 20
580
  0
POINT
  8
_0-9_
 62
    3
 10
1551
 20
1379.9999999999997
  0
LINE
  8
_0-9_
  6
CONTINUOUS
 62
    4
 10
1561
 20
580
 11
1281.3913793989086
 21
580
  0
LINE
  8
_0-9_
  6
CONTINUOUS
 62
    4
 10
1561
 20
1379.9999999999997
 11
1281.3913793989086
 21
1379.9999999999997
  0
POINT
  8
_0-9_
 62
    3
 10
1551
 20
1469.9999999999997
  0
LINE
  8
_0-9_
  6
CONTINUOUS
 62
    4
 10
1561
 20
1469.9999999999997
 11
1281.3913793989086
 21
1469.9999999999997
  0
POINT
  8
_0-9_
 62
    3
 10
1471
 20
580
  0
POINT
  8
_0-9_
 62
    3
 10
1471
 20
669.99999999999988
  0
LINE
  8
_0-9_
  6
CONTINUOUS
 62
    4
 10
1481
 20
580
 11
1281.3913793989086
 21
580
  0
LINE
  8
_0-9_
  6
CONTINUOUS
 62
    4
 10
1481
 20
669.99999999999988
 11
1281.3913793989086
 21
669.99999999999988
  0
LINE
  8
_0-9_
  6
CONTINUOUS
 62
    4
 10
1551
 20
580
 11
1551
 21
1379.9999999999997
  0
TEXT
  8
_0-9_
 62
    7
 10
1551
 20
946.89999999999986
 40
35
 41
0.6285714285714286
 50
90
  1
８００
  0
LINE
  8
_0-9_
  6
CONTINUOUS
 62
    4
 10
1551
 20
1379.9999999999997
 11
1551
 21
1469.9999999999997
  0
TEXT
  8
_0-9_
 62
    7
 10
1551
 20
1402.9499999999995
 40
35
 41
0.6285714285714286
 50
90
  1
９０
  0
LINE
  8
_0-9_
  6
CONTINUOUS
 62
    4
 10
1471
 20
580
 11
1471
 21
669.99999999999988
  0
TEXT
  8
_0-9_
 62
    7
 10
1471
 20
602.94999999999981
 40
35
 41
0.6285714285714286
 50
90
  1
９０
  0
LINE
  8
_0-8_
  6
CONTINUOUS
 62
    4
 10
975
 20
261.88599999999996
 11
1225
 21
261.88599999999996
  0
LINE
  8
_0-8_
  6
CONTINUOUS
 62
    4
 10
1225
 20
261.88599999999996
 11
1225
 21
331.88599999999979
  0
LINE
  8
_0-8_
  6
CONTINUOUS
 62
    4
 10
1225
 20
331.88599999999979
 11
975
 21
331.88599999999979
  0
LINE
  8
_0-8_
  6
CONTINUOUS
 62
    4
 10
975
 20
331.88599999999979
 11
975
 21
261.88599999999996
  0
LINE
  8
ADD_LINE
  6
DOT
 62
    9
 10
1100
 20
261.88599999999996
 11
1100
 21
331.88599999999979
  0
TEXT
  8
_0-8_
 62
    7
 10
1053.0000000000006
 20
279.38599999999979
 40
35
 41
0.857142857142857
 50
0
  1
立面図
  0
LINE
  8
ADD_LINE
  6
DOT
 62
    9
 10
975
 20
296.88599999999979
 11
1225
 21
296.88599999999979
  0
LINE
  8
_0-8_
  6
CONTINUOUS
 62
    4
 10
2578.1400000000007
 20
261.88599999999996
 11
2828.1400000000003
 21
261.88599999999996
  0
LINE
  8
_0-8_
  6
CONTINUOUS
 62
    4
 10
2828.1400000000003
 20
261.88599999999996
 11
2828.1400000000003
 21
331.88599999999996
  0
LINE
  8
_0-8_
  6
CONTINUOUS
 62
    4
 10
2828.1400000000003
 20
331.88599999999996
 11
2578.1400000000007
 21
331.88599999999996
  0
LINE
  8
_0-8_
  6
CONTINUOUS
 62
    4
 10
2578.1400000000007
 20
331.88599999999996
 11
2578.1400000000007
 21
261.88599999999996
  0
LINE
  8
ADD_LINE
  6
DOT
 62
    9
 10
2703.1370000000006
 20
261.88599999999996
 11
2703.1370000000006
 21
331.88599999999996
  0
TEXT
  8
_0-8_
 62
    7
 10
2656.1369999999997
 20
279.38599999999996
 40
35
 41
0.857142857142857
 50
0
  1
断面図
  0
LINE
  8
ADD_LINE
  6
DOT
 62
    9
 10
2578.1370000000006
 20
296.88599999999996
 11
2828.1370000000006
 21
296.88599999999996
  0
LINE
  8
ADD_LINE
  6
DOT
 62
    9
 10
3140.1927025351178
 20
580
 11
3140.1927025351178
 21
523.21376106812056
  0
LINE
  8
ADD_LINE
  6
DOT
 62
    9
 10
3060.1927025351178
 20
580
 11
3060.1927025351178
 21
523.21376106812056
  0
LINE
  8
_0-9_
  6
CONTINUOUS
 62
    4
 10
3150.1927025351178
 20
580
 11
3000.9170140579226
 21
580
  0
LINE
  8
_0-9_
  6
CONTINUOUS
 62
    4
 10
3150.1927025351178
 20
1469.9999999999997
 11
3000.9170140579226
 21
1469.9999999999997
  0
TEXT
  8
_f-8_
 62
    7
 10
959
 20
137.5
 40
45
 41
0.8
 50
0
  1
調理台
  0
POINT
  8
_0-9_
 62
    9
 10
1471
 20
1352.0000000000002
  0
LINE
  8
_0-9_
  6
CONTINUOUS
 62
    9
 10
1481
 20
1352.0000000000002
 11
1281.3913793989086
 21
1352.0000000000002
  0
POINT
  8
_0-9_
 62
    9
 10
1471
 20
1379.9999999999997
  0
LINE
  8
_0-9_
  6
CONTINUOUS
 62
    9
 10
1481
 20
1379.9999999999997
 11
1281.3913793989086
 21
1379.9999999999997
  0
LINE
  8
_0-9_
  6
CONTINUOUS
 62
    9
 10
1471
 20
1379.9999999999997
 11
1471
 21
1431.6132577855009
  0
LINE
  8
_0-9_
  6
CONTINUOUS
 62
    9
 10
1471
 20
1352.0000000000002
 11
1471
 21
1379.9999999999997
  0
TEXT
  8
_0-9_
 62
    1
 10
1471
 20
1382.3897222137443
 40
35
 41
0.6285714285714286
 50
90
  1
２８
  0
POINT
  8
_0-9_
 62
    9
 10
2187.3074015250044
 20
1352.0000000000002
  0
LINE
  8
_0-9_
  6
CONTINUOUS
 62
    9
 10
2177.3074015250044
 20
1352.0000000000002
 11
2383.7920228784855
 21
1352.0000000000002
  0
POINT
  8
_0-9_
 62
    9
 10
2187.3074015250044
 20
1380
  0
LINE
  8
_0-9_
  6
CONTINUOUS
 62
    9
 10
2177.3074015250044
 20
1380
 11
2383.7920228784855
 21
1380
  0
LINE
  8
_0-9_
  6
CONTINUOUS
 62
    9
 10
2187.3074015250044
 20
1380
 11
2187.3074015250044
 21
1430.7752302484027
  0
LINE
  8
_0-9_
  6
CONTINUOUS
 62
    9
 10
2187.3074015250044
 20
1352.0000000000002
 11
2187.3074015250044
 21
1380
  0
TEXT
  8
_0-9_
 62
    1
 10
2187.3074015250044
 20
1383.1577647782935
 40
35
 41
0.6285714285714286
 50
90
  1
２８
  0
LINE
  8
_0-4_
  6
CONTINUOUS
 62
    3
 10
954
 20
1180.0000000000002
 11
1246
 21
1180.0000000000002
  0
LINE
  8
_0-4_
  6
CONTINUOUS
 62
    3
 10
954
 20
1350.0000000000002
 11
1246
 21
1350.0000000000002
  0
ARC
  8
_0-5_
  6
CONTINUOUS
 62
    4
 10
1243
 20
1346.0000000000002
 40
3.0000000000000004
 50
270
 51
0
  0
ARC
  8
_0-5_
  6
CONTINUOUS
 62
    4
 10
956.99999999999988
 20
1346.0000000000002
 40
3.0000000000000004
 50
180
 51
270
  0
LINE
  8
_0-5_
  6
CONTINUOUS
 62
    4
 10
956.99999999999988
 20
1343
 11
1243
 21
1343
  0
LINE
  8
_0-5_
  6
CONTINUOUS
 62
    4
 10
1246
 20
1314.0000000000004
 11
954
 21
1314.0000000000004
  0
LINE
  8
_0-5_
  6
CONTINUOUS
 62
    4
 10
1246
 20
1321.600000000003
 11
954
 21
1321.600000000003
  0
LINE
  8
_0-4_
  6
CONTINUOUS
 62
    3
 10
1246
 20
1350.0000000000002
 11
954
 21
1350.0000000000002
  0
LINE
  8
_0-4_
  6
CONTINUOUS
 62
    3
 10
954
 20
1350.0000000000002
 11
954
 21
1180.0000000000002
  0
LINE
  8
_0-4_
  6
CONTINUOUS
 62
    3
 10
1246
 20
1350.0000000000002
 11
1246
 21
1180.0000000000002
  0
LINE
  8
_0-4_
  6
CONTINUOUS
 62
    3
 10
954
 20
1008.0000000000001
 11
1246
 21
1008.0000000000001
  0
LINE
  8
_0-4_
  6
CONTINUOUS
 62
    3
 10
954
 20
1178
 11
1246
 21
1178
  0
ARC
  8
_0-5_
  6
CONTINUOUS
 62
    4
 10
1243
 20
1174
 40
3.0000000000000004
 50
270
 51
0
  0
ARC
  8
_0-5_
  6
CONTINUOUS
 62
    4
 10
956.99999999999988
 20
1174
 40
3.0000000000000004
 50
180
 51
270
  0
LINE
  8
_0-5_
  6
CONTINUOUS
 62
    4
 10
956.99999999999988
 20
1171.0000000000002
 11
1243
 21
1171.0000000000002
  0
LINE
  8
_0-5_
  6
CONTINUOUS
 62
    4
 10
1246
 20
1142.0000000000004
 11
954
 21
1142.0000000000004
  0
LINE
  8
_0-5_
  6
CONTINUOUS
 62
    4
 10
1246
 20
1149.6000000000028
 11
954
 21
1149.6000000000028
  0
LINE
  8
_0-4_
  6
CONTINUOUS
 62
    3
 10
1246
 20
1178
 11
954
 21
1178
  0
LINE
  8
_0-4_
  6
CONTINUOUS
 62
    3
 10
954
 20
1178
 11
954
 21
1008.0000000000001
  0
LINE
  8
_0-4_
  6
CONTINUOUS
 62
    3
 10
1246
 20
1178
 11
1246
 21
1008.0000000000001
  0
LINE
  8
_0-4_
  6
CONTINUOUS
 62
    3
 10
954
 20
678.00000000000011
 11
1246
 21
678.00000000000011
  0
ARC
  8
_0-5_
  6
CONTINUOUS
 62
    4
 10
1243
 20
1002.0000000000002
 40
3.0000000000000004
 50
270
 51
0
  0
ARC
  8
_0-5_
  6
CONTINUOUS
 62
    4
 10
956.99999999999988
 20
1002.0000000000002
 40
3.0000000000000004
 50
180
 51
270
  0
LINE
  8
_0-5_
  6
CONTINUOUS
 62
    4
 10
956.99999999999988
 20
999.00000000000034
 11
1243
 21
999.00000000000034
  0
LINE
  8
_0-5_
  6
CONTINUOUS
 62
    4
 10
1246
 20
970.00000000000056
 11
954
 21
970.00000000000056
  0
LINE
  8
_0-5_
  6
CONTINUOUS
 62
    4
 10
1246
 20
977.60000000000309
 11
954
 21
977.60000000000309
  0
LINE
  8
_0-4_
  6
CONTINUOUS
 62
    3
 10
1246
 20
1006.0000000000002
 11
954
 21
1006.0000000000002
  0
LINE
  8
_0-4_
  6
CONTINUOUS
 62
    3
 10
954
 20
1006.0000000000002
 11
954
 21
678.00000000000011
  0
LINE
  8
_0-4_
  6
CONTINUOUS
 62
    3
 10
1246
 20
1006.0000000000002
 11
1246
 21
678.00000000000011
  0
ARC
  8
_0-5_
  6
CONTINUOUS
 62
    4
 10
2450.2399999999997
 20
1004.0000000000002
 40
2
 50
0.0000000000000127
 51
90.000000000000028
  0
ARC
  8
_0-5_
  6
CONTINUOUS
 62
    4
 10
2450.2399999999997
 20
1004.0000000000002
 40
0.7000000000000001
 50
0
 51
90
  0
LINE
  8
_0-5_
  6
CONTINUOUS
 62
    4
 10
2452.2400000000006
 20
962
 11
2452.2400000000006
 21
1004.0000000000002
  0
ARC
  8
_0-5_
  6
CONTINUOUS
 62
    4
 10
2451.7400000000002
 20
962
 40
0.5
 50
270
 51
0
  0
ARC
  8
_0-5_
  6
CONTINUOUS
 62
    4
 10
2451.4400000000005
 20
962.30000000000018
 40
0.8000000000000001
 50
128.68218745349332
 51
270
  0
LINE
  8
_0-5_
  6
CONTINUOUS
 62
    4
 10
2451.7400000000002
 20
961.50000000000022
 11
2451.4400000000005
 21
961.50000000000022
  0
LINE
  8
_0-5_
  6
CONTINUOUS
 62
    4
 10
2450.9400000000009
 20
970.27550020016042
 11
2450.9400000000009
 21
962.92449979983985
  0
ARC
  8
_0-5_
  6
CONTINUOUS
 62
    4
 10
2451.4400000000005
 20
970.90000000000031
 40
0.8000000000000001
 50
128.68218745349335
 51
231.31781254650664
  0
LINE
  8
_0-5_
  6
CONTINUOUS
 62
    4
 10
2450.9400000000009
 20
975.70000000000027
 11
2450.9400000000009
 21
971.52449979983998
  0
ARC
  8
_0-5_
  6
CONTINUOUS
 62
    4
 10
2450.6400000000007
 20
975.70000000000027
 40
0.3
 50
0.0000000000000127
 51
90.000000000000014
  0
LINE
  8
_0-5_
  6
CONTINUOUS
 62
    4
 10
2450.9400000000009
 20
979.44961266177506
 11
2450.9400000000009
 21
1004.0000000000002
  0
ARC
  8
_0-5_
  6
CONTINUOUS
 62
    4
 10
2449.9400000000005
 20
979.44961266177506
 40
1
 50
272.96093613416371
 51
0
  0
ARC
  8
_0-5_
  6
CONTINUOUS
 62
    4
 10
2437.1400000000003
 20
970.8000000000004
 40
0.8000000000000001
 50
180
 51
359.99999999999994
  0
LINE
  8
_0-5_
  6
CONTINUOUS
 62
    4
 10
2439.4685714285724
 20
1006.0000000000002
 11
2450.2399999999997
 21
1006.0000000000002
  0
ARC
  8
_0-5_
  6
CONTINUOUS
 62
    4
 10
2439.4685714285724
 20
1004.0000000000002
 40
2
 50
90.000000000000014
 51
161.07535558394951
  0
ARC
  8
_0-5_
  6
CONTINUOUS
 62
    4
 10
2439.4685714285724
 20
1004.0000000000002
 40
0.7000000000000001
 50
90
 51
161.07535558395002
  0
LINE
  8
_0-5_
  6
CONTINUOUS
 62
    4
 10
2450.2399999999997
 20
1004.7000000000002
 11
2439.4685714285724
 21
1004.7000000000002
  0
LINE
  8
_0-5_
  6
CONTINUOUS
 62
    4
 10
2438.8064092664089
 20
1004.2270270270273
 11
2437.6775798523667
 21
1000.9346079027359
  0
ARC
  8
_0-5_
  6
CONTINUOUS
 62
    4
 10
2437.8667690415559
 20
1000.8697430378713
 40
0.2
 50
161.07535558394701
 51
226.45103723177709
  0
ARC
  8
_0-5_
  6
CONTINUOUS
 62
    4
 10
2437.0400000000008
 20
1000.0000000000004
 40
1
 50
161.07535558395028
 51
46.451037231780077
  0
LINE
  8
_0-5_
  6
CONTINUOUS
 62
    4
 10
2437.5766795366803
 20
1004.6486486486487
 11
2436.094054054055
 21
1000.3243243243246
  0
LINE
  8
_0-5_
  6
CONTINUOUS
 62
    4
 10
2437.9399999999995
 20
975.70000000000027
 11
2437.9399999999995
 21
970.8000000000004
  0
ARC
  8
_0-5_
  6
CONTINUOUS
 62
    4
 10
2438.2400000000006
 20
975.70000000000027
 40
0.3
 50
90
 51
180
  0
LINE
  8
_0-5_
  6
CONTINUOUS
 62
    4
 10
2450.6400000000007
 20
976.00000000000022
 11
2438.2400000000006
 21
976.00000000000022
  0
LINE
  8
_0-5_
  6
CONTINUOUS
 62
    4
 10
2436.3400000000006
 20
976.65038733822575
 11
2436.3400000000006
 21
970.8000000000004
  0
ARC
  8
_0-5_
  6
CONTINUOUS
 62
    4
 10
2437.3400000000001
 20
976.65038733822575
 40
1
 50
92.960936134163759
 51
180
  0
LINE
  8
_0-5_
  6
CONTINUOUS
 62
    4
 10
2449.9916550854281
 20
978.45094767683281
 11
2437.288344914572
 21
977.64905232316777
  0
LINE
  8
ADD_LINE
  6
DOT
 62
    9
 10
2438.1284681165066
 20
970.00000000000045
 11
2436.0227734742002
 21
970.00000000000045
  0
LINE
  8
ADD_LINE
  6
DOT
 62
    9
 10
2436.3400000000006
 20
976.65038733822575
 11
2436.3400000000006
 21
977.60000000000309
  0
LINE
  8
ADD_LINE
  6
DOT
 62
    9
 10
2437.288344914572
 20
977.64905232316777
 11
2436.3400000000006
 21
977.60000000000309
  0
LINE
  8
ADD_LINE
  6
DOT
 62
    9
 10
2439.4893185782875
 20
999.00000000000022
 11
2434.3679115660061
 21
999.00000000000022
  0
ARC
  8
_0-5_
  6
CONTINUOUS
 62
    4
 10
2450.2399999999997
 20
1176.0000000000002
 40
2
 50
0.0000000000000127
 51
90.000000000000028
  0
ARC
  8
_0-5_
  6
CONTINUOUS
 62
    4
 10
2450.2399999999997
 20
1176.0000000000002
 40
0.7000000000000001
 50
0
 51
90
  0
LINE
  8
_0-5_
  6
CONTINUOUS
 62
    4
 10
2452.2400000000006
 20
1134
 11
2452.2400000000006
 21
1176.0000000000002
  0
ARC
  8
_0-5_
  6
CONTINUOUS
 62
    4
 10
2451.7400000000002
 20
1134
 40
0.5
 50
270
 51
0
  0
ARC
  8
_0-5_
  6
CONTINUOUS
 62
    4
 10
2451.4400000000005
 20
1134.3000000000001
 40
0.8000000000000001
 50
128.68218745349332
 51
270
  0
LINE
  8
_0-5_
  6
CONTINUOUS
 62
    4
 10
2451.7400000000002
 20
1133.5000000000002
 11
2451.4400000000005
 21
1133.5000000000002
  0
LINE
  8
_0-5_
  6
CONTINUOUS
 62
    4
 10
2450.9400000000009
 20
1142.2755002001601
 11
2450.9400000000009
 21
1134.9244997998398
  0
ARC
  8
_0-5_
  6
CONTINUOUS
 62
    4
 10
2451.4400000000005
 20
1142.9
 40
0.8000000000000001
 50
128.68218745349335
 51
231.31781254650664
  0
LINE
  8
_0-5_
  6
CONTINUOUS
 62
    4
 10
2450.9400000000009
 20
1147.7
 11
2450.9400000000009
 21
1143.5244997998397
  0
ARC
  8
_0-5_
  6
CONTINUOUS
 62
    4
 10
2450.6400000000007
 20
1147.7
 40
0.3
 50
0.0000000000000127
 51
90.000000000000014
  0
LINE
  8
_0-5_
  6
CONTINUOUS
 62
    4
 10
2450.9400000000009
 20
1151.4496126617748
 11
2450.9400000000009
 21
1176.0000000000002
  0
ARC
  8
_0-5_
  6
CONTINUOUS
 62
    4
 10
2449.9400000000005
 20
1151.4496126617748
 40
1
 50
272.96093613416371
 51
0
  0
ARC
  8
_0-5_
  6
CONTINUOUS
 62
    4
 10
2437.1400000000003
 20
1142.8000000000001
 40
0.8000000000000001
 50
180
 51
359.99999999999994
  0
LINE
  8
_0-5_
  6
CONTINUOUS
 62
    4
 10
2439.4685714285724
 20
1178
 11
2450.2399999999997
 21
1178
  0
ARC
  8
_0-5_
  6
CONTINUOUS
 62
    4
 10
2439.4685714285724
 20
1176.0000000000002
 40
2
 50
90.000000000000014
 51
161.07535558394951
  0
ARC
  8
_0-5_
  6
CONTINUOUS
 62
    4
 10
2439.4685714285724
 20
1176.0000000000002
 40
0.7000000000000001
 50
90
 51
161.07535558395002
  0
LINE
  8
_0-5_
  6
CONTINUOUS
 62
    4
 10
2450.2399999999997
 20
1176.7000000000002
 11
2439.4685714285724
 21
1176.7000000000002
  0
LINE
  8
_0-5_
  6
CONTINUOUS
 62
    4
 10
2438.8064092664089
 20
1176.2270270270273
 11
2437.6775798523667
 21
1172.9346079027359
  0
ARC
  8
_0-5_
  6
CONTINUOUS
 62
    4
 10
2437.8667690415559
 20
1172.8697430378713
 40
0.2
 50
161.07535558394701
 51
226.45103723177709
  0
ARC
  8
_0-5_
  6
CONTINUOUS
 62
    4
 10
2437.0400000000008
 20
1172.0000000000004
 40
1
 50
161.07535558395028
 51
46.451037231780077
  0
LINE
  8
_0-5_
  6
CONTINUOUS
 62
    4
 10
2437.5766795366803
 20
1176.6486486486487
 11
2436.094054054055
 21
1172.3243243243246
  0
LINE
  8
_0-5_
  6
CONTINUOUS
 62
    4
 10
2437.9399999999995
 20
1147.7
 11
2437.9399999999995
 21
1142.8000000000001
  0
ARC
  8
_0-5_
  6
CONTINUOUS
 62
    4
 10
2438.2400000000006
 20
1147.7
 40
0.3
 50
90
 51
180
  0
LINE
  8
_0-5_
  6
CONTINUOUS
 62
    4
 10
2450.6400000000007
 20
1148
 11
2438.2400000000006
 21
1148
  0
LINE
  8
_0-5_
  6
CONTINUOUS
 62
    4
 10
2436.3400000000006
 20
1148.6503873382255
 11
2436.3400000000006
 21
1142.8000000000001
  0
ARC
  8
_0-5_
  6
CONTINUOUS
 62
    4
 10
2437.3400000000001
 20
1148.6503873382255
 40
1
 50
92.960936134163759
 51
180
  0
LINE
  8
_0-5_
  6
CONTINUOUS
 62
    4
 10
2449.9916550854281
 20
1150.4509476768328
 11
2437.288344914572
 21
1149.6490523231677
  0
LINE
  8
ADD_LINE
  6
DOT
 62
    9
 10
2438.1284681165066
 20
1142.0000000000004
 11
2436.0227734742002
 21
1142.0000000000004
  0
LINE
  8
ADD_LINE
  6
DOT
 62
    9
 10
2436.3400000000006
 20
1148.6503873382255
 11
2436.3400000000006
 21
1149.6000000000028
  0
LINE
  8
ADD_LINE
  6
DOT
 62
    9
 10
2437.288344914572
 20
1149.6490523231677
 11
2436.3400000000006
 21
1149.6000000000028
  0
LINE
  8
ADD_LINE
  6
DOT
 62
    9
 10
2439.4893185782875
 20
1171.0000000000002
 11
2434.3679115660061
 21
1171.0000000000002
  0
ARC
  8
_0-5_
  6
CONTINUOUS
 62
    4
 10
2450.2399999999997
 20
1348
 40
2
 50
0.0000000000000127
 51
90.000000000000028
  0
ARC
  8
_0-5_
  6
CONTINUOUS
 62
    4
 10
2450.2399999999997
 20
1348
 40
0.7000000000000001
 50
0
 51
90
  0
LINE
  8
_0-5_
  6
CONTINUOUS
 62
    4
 10
2452.2400000000006
 20
1306
 11
2452.2400000000006
 21
1348
  0
ARC
  8
_0-5_
  6
CONTINUOUS
 62
    4
 10
2451.7400000000002
 20
1306
 40
0.5
 50
270
 51
0
  0
ARC
  8
_0-5_
  6
CONTINUOUS
 62
    4
 10
2451.4400000000005
 20
1306.3000000000001
 40
0.8000000000000001
 50
128.68218745349332
 51
270
  0
LINE
  8
_0-5_
  6
CONTINUOUS
 62
    4
 10
2451.7400000000002
 20
1305.5
 11
2451.4400000000005
 21
1305.5
  0
LINE
  8
_0-5_
  6
CONTINUOUS
 62
    4
 10
2450.9400000000009
 20
1314.2755002001604
 11
2450.9400000000009
 21
1306.9244997998398
  0
ARC
  8
_0-5_
  6
CONTINUOUS
 62
    4
 10
2451.4400000000005
 20
1314.9000000000003
 40
0.8000000000000001
 50
128.68218745349335
 51
231.31781254650664
  0
LINE
  8
_0-5_
  6
CONTINUOUS
 62
    4
 10
2450.9400000000009
 20
1319.7000000000002
 11
2450.9400000000009
 21
1315.5244997998399
  0
ARC
  8
_0-5_
  6
CONTINUOUS
 62
    4
 10
2450.6400000000007
 20
1319.7000000000002
 40
0.3
 50
0.0000000000000127
 51
90.000000000000014
  0
LINE
  8
_0-5_
  6
CONTINUOUS
 62
    4
 10
2450.9400000000009
 20
1323.449612661775
 11
2450.9400000000009
 21
1348
  0
ARC
  8
_0-5_
  6
CONTINUOUS
 62
    4
 10
2449.9400000000005
 20
1323.449612661775
 40
1
 50
272.96093613416371
 51
0
  0
ARC
  8
_0-5_
  6
CONTINUOUS
 62
    4
 10
2437.1400000000003
 20
1314.8000000000004
 40
0.8000000000000001
 50
180
 51
359.99999999999994
  0
LINE
  8
_0-5_
  6
CONTINUOUS
 62
    4
 10
2439.4685714285724
 20
1350.0000000000002
 11
2450.2399999999997
 21
1350.0000000000002
  0
ARC
  8
_0-5_
  6
CONTINUOUS
 62
    4
 10
2439.4685714285724
 20
1348
 40
2
 50
90.000000000000014
 51
161.07535558394951
  0
ARC
  8
_0-5_
  6
CONTINUOUS
 62
    4
 10
2439.4685714285724
 20
1348
 40
0.7000000000000001
 50
90
 51
161.07535558395002
  0
LINE
  8
_0-5_
  6
CONTINUOUS
 62
    4
 10
2450.2399999999997
 20
1348.7000000000002
 11
2439.4685714285724
 21
1348.7000000000002
  0
LINE
  8
_0-5_
  6
CONTINUOUS
 62
    4
 10
2438.8064092664089
 20
1348.2270270270273
 11
2437.6775798523667
 21
1344.9346079027359
  0
ARC
  8
_0-5_
  6
CONTINUOUS
 62
    4
 10
2437.8667690415559
 20
1344.8697430378711
 40
0.2
 50
161.07535558394701
 51
226.45103723177709
  0
ARC
  8
_0-5_
  6
CONTINUOUS
 62
    4
 10
2437.0400000000008
 20
1344.0000000000004
 40
1
 50
161.07535558395028
 51
46.451037231780077
  0
LINE
  8
_0-5_
  6
CONTINUOUS
 62
    4
 10
2437.5766795366803
 20
1348.6486486486487
 11
2436.094054054055
 21
1344.3243243243246
  0
LINE
  8
_0-5_
  6
CONTINUOUS
 62
    4
 10
2437.9399999999995
 20
1319.7000000000002
 11
2437.9399999999995
 21
1314.8000000000004
  0
ARC
  8
_0-5_
  6
CONTINUOUS
 62
    4
 10
2438.2400000000006
 20
1319.7000000000002
 40
0.3
 50
90
 51
180
  0
LINE
  8
_0-5_
  6
CONTINUOUS
 62
    4
 10
2450.6400000000007
 20
1320.0000000000002
 11
2438.2400000000006
 21
1320.0000000000002
  0
LINE
  8
_0-5_
  6
CONTINUOUS
 62
    4
 10
2436.3400000000006
 20
1320.6503873382257
 11
2436.3400000000006
 21
1314.8000000000004
  0
ARC
  8
_0-5_
  6
CONTINUOUS
 62
    4
 10
2437.3400000000001
 20
1320.6503873382257
 40
1
 50
92.960936134163759
 51
180
  0
LINE
  8
_0-5_
  6
CONTINUOUS
 62
    4
 10
2449.9916550854281
 20
1322.4509476768325
 11
2437.288344914572
 21
1321.6490523231677
  0
LINE
  8
ADD_LINE
  6
DOT
 62
    9
 10
2438.1284681165066
 20
1314.0000000000004
 11
2436.0227734742002
 21
1314.0000000000004
  0
LINE
  8
ADD_LINE
  6
DOT
 62
    9
 10
2436.3400000000006
 20
1320.6503873382257
 11
2436.3400000000006
 21
1321.600000000003
  0
LINE
  8
ADD_LINE
  6
DOT
 62
    9
 10
2437.288344914572
 20
1321.6490523231677
 11
2436.3400000000006
 21
1321.600000000003
  0
LINE
  8
ADD_LINE
  6
DOT
 62
    9
 10
2439.4893185782875
 20
1343
 11
2434.3679115660061
 21
1343
  0
POINT
  8
_0-9_
 62
    3
 10
2267.3074015250044
 20
1350
  0
POINT
  8
_0-9_
 62
    3
 10
2267.3074015250044
 20
1180.0000000000002
  0
LINE
  8
_0-9_
  6
CONTINUOUS
 62
    4
 10
2257.3074015250044
 20
1350
 11
2383.7920228784855
 21
1350
  0
LINE
  8
_0-9_
  6
CONTINUOUS
 62
    4
 10
2257.3074015250044
 20
1180.0000000000002
 11
2383.7920228784855
 21
1180.0000000000002
  0
LINE
  8
_0-9_
  6
CONTINUOUS
 62
    4
 10
2267.3074015250044
 20
1350
 11
2267.3074015250044
 21
1180.0000000000002
  0
TEXT
  8
_0-9_
 62
    7
 10
2267.3074015250044
 20
1231.9
 40
35
 41
0.6285714285714286
 50
90
  1
１７０
  0
POINT
  8
_0-9_
 62
    3
 10
2267.3074015250044
 20
1178
  0
POINT
  8
_0-9_
 62
    3
 10
2267.3074015250044
 20
1008.0000000000001
  0
LINE
  8
_0-9_
  6
CONTINUOUS
 62
    4
 10
2257.3074015250044
 20
1178
 11
2383.7920228784855
 21
1178
  0
LINE
  8
_0-9_
  6
CONTINUOUS
 62
    4
 10
2257.3074015250044
 20
1008.0000000000001
 11
2383.7920228784855
 21
1008.0000000000001
  0
LINE
  8
_0-9_
  6
CONTINUOUS
 62
    4
 10
2267.3074015250044
 20
1178
 11
2267.3074015250044
 21
1008.0000000000001
  0
TEXT
  8
_0-9_
 62
    7
 10
2267.3074015250044
 20
1059.9
 40
35
 41
0.6285714285714286
 50
90
  1
１７０
  0
POINT
  8
_0-9_
 62
    3
 10
2267.3074015250044
 20
1006.0000000000002
  0
POINT
  8
_0-9_
 62
    3
 10
2267.3074015250044
 20
678.00000000000011
  0
LINE
  8
_0-9_
  6
CONTINUOUS
 62
    4
 10
2257.3074015250044
 20
1006.0000000000002
 11
2383.7920228784855
 21
1006.0000000000002
  0
LINE
  8
_0-9_
  6
CONTINUOUS
 62
    4
 10
2257.3074015250044
 20
678.00000000000011
 11
2383.7920228784855
 21
678.00000000000011
  0
LINE
  8
_0-9_
  6
CONTINUOUS
 62
    4
 10
2267.3074015250044
 20
1006.0000000000002
 11
2267.3074015250044
 21
678.00000000000011
  0
TEXT
  8
_0-9_
 62
    7
 10
2267.3074015250044
 20
808.90000000000009
 40
35
 41
0.6285714285714286
 50
90
  1
３２８
  0
LINE
  8
_0-3_
  6
CONTINUOUS
 62
    2
 10
2473.6400000000003
 20
1013.5
 11
2473.6400000000003
 21
955.50000000000011
  0
LINE
  8
_0-3_
  6
CONTINUOUS
 62
    4
 10
2950.6400000000003
 20
1352.0000000000004
 11
2950.6400000000003
 21
580
  0
LINE
  8
_0-3_
  6
CONTINUOUS
 62
    4
 10
2954.6399999999998
 20
1352.0000000000004
 11
2954.6399999999998
 21
580
  0
LINE
  8
_0-3_
  6
CONTINUOUS
 62
    4
 10
2900.6400000000003
 20
682.99999999999977
 11
2900.6400000000003
 21
669.99999999999988
  0
LINE
  8
_0-3_
  6
CONTINUOUS
 62
    5
 10
2975.6400000000003
 20
1352.0000000000004
 11
2975.6400000000003
 21
580
  0
LINE
  8
_0-3_
  6
CONTINUOUS
 62
    4
 10
2457.6400000000003
 20
682.99999999999977
 11
2950.6400000000003
 21
682.99999999999977
  0
LINE
  8
_0-3_
  6
CONTINUOUS
 62
    4
 10
2457.6400000000003
 20
682.99999999999977
 11
2457.6400000000003
 21
669.99999999999988
  0
LINE
  8
_0-3_
  6
CONTINUOUS
 62
    5
 10
2453.6400000000003
 20
686.99999999999988
 11
2453.6400000000003
 21
669.99999999999988
  0
LINE
  8
_0-3_
  6
CONTINUOUS
 62
    5
 10
2453.6400000000003
 20
686.99999999999988
 11
2950.6400000000003
 21
686.99999999999988
  0
LINE
  8
_0-3_
  6
CONTINUOUS
 62
    5
 10
2453.6400000000003
 20
669.99999999999988
 11
2950.6400000000003
 21
669.99999999999988
  0
LINE
  8
_0-3_
  6
CONTINUOUS
 62
    2
 10
2453.6400000000003
 20
1352.0000000000004
 11
2453.6400000000003
 21
1297.0000000000004
  0
LINE
  8
_0-3_
  6
CONTINUOUS
 62
    4
 10
2507.1399999999998
 20
682.99999999999977
 11
2507.1399999999998
 21
669.99999999999988
  0
LINE
  8
_0-3_
  6
CONTINUOUS
 62
    2
 10
2453.6400000000003
 20
1189.0000000000006
 11
2453.6400000000003
 21
1134.0000000000006
  0
LINE
  8
_0-3_
  6
CONTINUOUS
 62
    5
 10
2495.6400000000003
 20
669.99999999999988
 11
2495.6400000000003
 21
580
  0
LINE
  8
_0-3_
  6
CONTINUOUS
 62
    5
 10
2495.6400000000003
 20
580
 11
2975.6400000000003
 21
580
  0
LINE
  8
_0-3_
  6
CONTINUOUS
 62
    2
 10
2453.6400000000003
 20
1013.5
 11
2453.6400000000003
 21
955.50000000000011
  0
LINE
  8
_0-3_
  6
CONTINUOUS
 62
    2
 10
2453.6400000000003
 20
955.50000000000011
 11
2473.6400000000003
 21
955.50000000000011
  0
LINE
  8
_0-3_
  6
CONTINUOUS
 62
    2
 10
2453.6400000000003
 20
1013.5
 11
2473.6400000000003
 21
1013.5
  0
LINE
  8
_0-3_
  6
CONTINUOUS
 62
    4
 10
2453.6400000000003
 20
1352.0000000000004
 11
2453.6400000000003
 21
686.99999999999988
  0
LINE
  8
_0-3_
  6
CONTINUOUS
 62
    2
 10
2473.6400000000003
 20
1186.5
 11
2473.6400000000003
 21
1128.5000000000002
  0
LINE
  8
_0-3_
  6
CONTINUOUS
 62
    2
 10
2453.6400000000003
 20
1128.5000000000002
 11
2473.6400000000003
 21
1128.5000000000002
  0
LINE
  8
_0-3_
  6
CONTINUOUS
 62
    2
 10
2453.6400000000003
 20
1186.5
 11
2473.6400000000003
 21
1186.5
  0
LINE
  8
ADD_LINE
  6
DOT
 62
    9
 10
2453.6400000000003
 20
1314.5
 11
2473.6400000000003
 21
1314.5
  0
LINE
  8
ADD_LINE
  6
DOT
 62
    9
 10
2453.6400000000003
 20
1372.5
 11
2473.6400000000003
 21
1372.5
  0
LINE
  8
_0-3_
  6
CONTINUOUS
 62
    2
 10
2473.6400000000003
 20
1372.5
 11
2473.6400000000003
 21
1314.5
  0
LINE
  8
_0-3_
  6
CONTINUOUS
 62
    2
 10
2453.6400000000003
 20
1372.5
 11
2473.6400000000003
 21
1372.5
  0
LINE
  8
_0-3_
  6
CONTINUOUS
 62
    2
 10
2453.6400000000003
 20
1372.5
 11
2453.6400000000003
 21
1314.5
  0
LINE
  8
_0-3_
  6
CONTINUOUS
 62
    2
 10
2453.6400000000003
 20
1013.5
 11
2453.6400000000003
 21
955.50000000000011
  0
LINE
  8
_0-3_
  6
CONTINUOUS
 62
    2
 10
2453.6400000000003
 20
1186.5
 11
2453.6400000000003
 21
1128.5000000000002
  0
LINE
  8
_0-3_
  6
CONTINUOUS
 62
    2
 10
2453.6400000000003
 20
1314.5
 11
2473.6400000000003
 21
1314.5
  0
LINE
  8
_0-4_
  6
CONTINUOUS
 62
    3
 10
2438.5390791032805
 20
1179.0000000000006
 11
2450.5390791032809
 21
1179.0000000000006
  0
LINE
  8
_0-4_
  6
CONTINUOUS
 62
    3
 10
2450.5390791032809
 20
1319.0000000000009
 11
2438.5390791032805
 21
1319.0000000000009
  0
LINE
  8
_0-4_
  6
CONTINUOUS
 62
    3
 10
2438.5390791032805
 20
1319.0000000000009
 11
2438.5390791032805
 21
1179.0000000000006
  0
LINE
  8
_0-4_
  6
CONTINUOUS
 62
    3
 10
2450.5390791032809
 20
1319.0000000000009
 11
2450.5390791032809
 21
1179.0000000000006
  0
LINE
  8
_0-4_
  6
CONTINUOUS
 62
    3
 10
2438.5390791032805
 20
1007.0000000000005
 11
2450.5390791032809
 21
1007.0000000000005
  0
LINE
  8
_0-4_
  6
CONTINUOUS
 62
    3
 10
2450.5390791032809
 20
1147.0000000000006
 11
2438.5390791032805
 21
1147.0000000000006
  0
LINE
  8
_0-4_
  6
CONTINUOUS
 62
    3
 10
2438.5390791032805
 20
1147.0000000000006
 11
2438.5390791032805
 21
1007.0000000000005
  0
LINE
  8
_0-4_
  6
CONTINUOUS
 62
    3
 10
2450.5390791032809
 20
1147.0000000000006
 11
2450.5390791032809
 21
1007.0000000000005
  0
LINE
  8
_0-4_
  6
CONTINUOUS
 62
    3
 10
2438.5390791032805
 20
677.00000000000068
 11
2450.5390791032809
 21
677.00000000000068
  0
LINE
  8
_0-4_
  6
CONTINUOUS
 62
    3
 10
2450.5390791032809
 20
975.00000000000068
 11
2438.5390791032805
 21
975.00000000000068
  0
LINE
  8
_0-4_
  6
CONTINUOUS
 62
    3
 10
2438.5390791032805
 20
975.00000000000068
 11
2438.5390791032805
 21
677.00000000000068
  0
LINE
  8
_0-4_
  6
CONTINUOUS
 62
    3
 10
2450.5390791032809
 20
975.00000000000068
 11
2450.5390791032809
 21
677.00000000000068
  0
LINE
  8
_0-4_
  6
CONTINUOUS
 62
    7
 10
2458.1367791032807
 20
1223.3622000000004
 11
2458.1449791032805
 21
1223.1282000000005
  0
LINE
  8
_0-4_
  6
CONTINUOUS
 62
    7
 10
2458.1449791032805
 20
1223.1282000000005
 11
2458.1527791032808
 21
1222.9032000000008
  0
LINE
  8
_0-4_
  6
CONTINUOUS
 62
    7
 10
2458.1527791032808
 20
1222.9032000000008
 11
2458.160079103281
 21
1222.6959000000006
  0
LINE
  8
_0-4_
  6
CONTINUOUS
 62
    7
 10
2458.160079103281
 20
1222.6959000000006
 11
2458.166379103281
 21
1222.5142000000007
  0
LINE
  8
_0-4_
  6
CONTINUOUS
 62
    7
 10
2458.166379103281
 20
1222.5142000000007
 11
2458.1715791032811
 21
1222.3650000000006
  0
LINE
  8
_0-4_
  6
CONTINUOUS
 62
    7
 10
2458.1715791032811
 20
1222.3650000000006
 11
2458.1754791032808
 21
1222.2542000000005
  0
LINE
  8
_0-4_
  6
CONTINUOUS
 62
    7
 10
2458.1754791032808
 20
1222.2542000000005
 11
2458.1778791032811
 21
1222.1859000000008
  0
LINE
  8
_0-4_
  6
CONTINUOUS
 62
    7
 10
2458.1778791032811
 20
1222.1859000000008
 11
2458.1786791032809
 21
1222.1629000000004
  0
LINE
  8
_0-4_
  6
CONTINUOUS
 62
    7
 10
2454.0390791032809
 20
1226.1605000000006
 11
2455.2390791032808
 21
1226.1605000000006
  0
LINE
  8
_0-4_
  6
CONTINUOUS
 62
    7
 10
2454.0390791032809
 20
1226.1605000000006
 11
2454.0390791032809
 21
1249.8395000000007
  0
LINE
  8
_0-4_
  6
CONTINUOUS
 62
    7
 10
2454.0390791032809
 20
1249.8395000000007
 11
2455.2390791032808
 21
1249.8395000000007
  0
LINE
  8
_0-4_
  6
CONTINUOUS
 62
    7
 10
2455.2390791032808
 20
1249.8395000000007
 11
2455.2390791032808
 21
1226.1605000000006
  0
LINE
  8
_0-4_
  6
CONTINUOUS
 62
    7
 10
2458.1786791032809
 20
1253.8370000000006
 11
2458.1778791032811
 21
1253.8140000000005
  0
LINE
  8
_0-4_
  6
CONTINUOUS
 62
    7
 10
2458.1778791032811
 20
1253.8140000000005
 11
2458.1754791032808
 21
1253.7457000000008
  0
LINE
  8
_0-4_
  6
CONTINUOUS
 62
    7
 10
2458.1754791032808
 20
1253.7457000000008
 11
2458.1715791032811
 21
1253.6349000000004
  0
LINE
  8
_0-4_
  6
CONTINUOUS
 62
    7
 10
2458.1715791032811
 20
1253.6349000000004
 11
2458.166379103281
 21
1253.4858000000006
  0
LINE
  8
_0-4_
  6
CONTINUOUS
 62
    7
 10
2458.166379103281
 20
1253.4858000000006
 11
2458.160079103281
 21
1253.3040000000007
  0
LINE
  8
_0-4_
  6
CONTINUOUS
 62
    7
 10
2458.160079103281
 20
1253.3040000000007
 11
2458.1527791032808
 21
1253.0967000000007
  0
LINE
  8
_0-4_
  6
CONTINUOUS
 62
    7
 10
2458.1527791032808
 20
1253.0967000000007
 11
2458.1449791032805
 21
1252.8717000000008
  0
LINE
  8
_0-4_
  6
CONTINUOUS
 62
    7
 10
2458.1449791032805
 20
1252.8717000000008
 11
2458.1367791032807
 21
1252.6378000000004
  0
LINE
  8
_0-4_
  6
CONTINUOUS
 62
    7
 10
2458.1367791032807
 20
1223.3622000000004
 11
2482.758779103281
 21
1224.2220000000006
  0
LINE
  8
_0-4_
  6
CONTINUOUS
 62
    7
 10
2482.758779103281
 20
1251.7779000000004
 11
2458.1367791032807
 21
1252.6378000000004
  0
LINE
  8
_0-4_
  6
CONTINUOUS
 62
    7
 10
2458.1786791032809
 20
1253.8370000000006
 11
2482.8006791032807
 21
1252.9772000000004
  0
LINE
  8
_0-4_
  6
CONTINUOUS
 62
    7
 10
2482.8006791032807
 20
1252.9772000000004
 11
2482.799879103281
 21
1252.9542000000005
  0
LINE
  8
_0-4_
  6
CONTINUOUS
 62
    7
 10
2482.799879103281
 20
1252.9542000000005
 11
2482.7974791032811
 21
1252.8859000000006
  0
LINE
  8
_0-4_
  6
CONTINUOUS
 62
    7
 10
2482.7974791032811
 20
1252.8859000000006
 11
2482.7935791032809
 21
1252.7751000000007
  0
LINE
  8
_0-4_
  6
CONTINUOUS
 62
    7
 10
2482.7935791032809
 20
1252.7751000000007
 11
2482.7883791032809
 21
1252.6260000000006
  0
LINE
  8
_0-4_
  6
CONTINUOUS
 62
    7
 10
2482.7883791032809
 20
1252.6260000000006
 11
2482.7820791032809
 21
1252.4442000000005
  0
LINE
  8
_0-4_
  6
CONTINUOUS
 62
    7
 10
2482.7820791032809
 20
1252.4442000000005
 11
2482.7747791032807
 21
1252.2369000000005
  0
LINE
  8
_0-4_
  6
CONTINUOUS
 62
    7
 10
2482.7747791032807
 20
1252.2369000000005
 11
2482.7669791032808
 21
1252.0119000000004
  0
LINE
  8
_0-4_
  6
CONTINUOUS
 62
    7
 10
2482.7669791032808
 20
1252.0119000000004
 11
2482.758779103281
 21
1251.7779000000004
  0
LINE
  8
_0-4_
  6
CONTINUOUS
 62
    7
 10
2482.758779103281
 20
1224.2220000000006
 11
2482.7669791032808
 21
1223.9880000000007
  0
LINE
  8
_0-4_
  6
CONTINUOUS
 62
    7
 10
2482.7669791032808
 20
1223.9880000000007
 11
2482.7747791032807
 21
1223.7631000000005
  0
LINE
  8
_0-4_
  6
CONTINUOUS
 62
    7
 10
2482.7747791032807
 20
1223.7631000000005
 11
2482.7820791032809
 21
1223.5557000000007
  0
LINE
  8
_0-4_
  6
CONTINUOUS
 62
    7
 10
2482.7820791032809
 20
1223.5557000000007
 11
2482.7883791032809
 21
1223.3740000000007
  0
LINE
  8
_0-4_
  6
CONTINUOUS
 62
    7
 10
2482.7883791032809
 20
1223.3740000000007
 11
2482.7935791032809
 21
1223.2248000000006
  0
LINE
  8
_0-4_
  6
CONTINUOUS
 62
    7
 10
2482.7935791032809
 20
1223.2248000000006
 11
2482.7974791032811
 21
1223.1140000000007
  0
LINE
  8
_0-4_
  6
CONTINUOUS
 62
    7
 10
2482.7974791032811
 20
1223.1140000000007
 11
2482.799879103281
 21
1223.0458000000005
  0
LINE
  8
_0-4_
  6
CONTINUOUS
 62
    7
 10
2482.799879103281
 20
1223.0458000000005
 11
2482.8006791032807
 21
1223.0227000000006
  0
LINE
  8
_0-4_
  6
CONTINUOUS
 62
    7
 10
2482.8006791032807
 20
1223.0227000000006
 11
2458.1786791032809
 21
1222.1629000000004
  0
LINE
  8
_0-4_
  6
CONTINUOUS
 62
    7
 10
2487.7646791032807
 20
1228.4485000000008
 11
2487.9939791032807
 21
1228.4012000000004
  0
LINE
  8
_0-4_
  6
CONTINUOUS
 62
    7
 10
2487.9939791032807
 20
1228.4012000000004
 11
2488.2143791032808
 21
1228.3558000000007
  0
LINE
  8
_0-4_
  6
CONTINUOUS
 62
    7
 10
2488.2143791032808
 20
1228.3558000000007
 11
2488.4175791032807
 21
1228.3139000000007
  0
LINE
  8
_0-4_
  6
CONTINUOUS
 62
    7
 10
2488.4175791032807
 20
1228.3139000000007
 11
2488.5956791032808
 21
1228.2772000000004
  0
LINE
  8
_0-4_
  6
CONTINUOUS
 62
    7
 10
2488.5956791032808
 20
1228.2772000000004
 11
2488.741879103281
 21
1228.2470000000007
  0
LINE
  8
_0-4_
  6
CONTINUOUS
 62
    7
 10
2488.741879103281
 20
1228.2470000000007
 11
2488.850479103281
 21
1228.2246000000006
  0
LINE
  8
_0-4_
  6
CONTINUOUS
 62
    7
 10
2488.850479103281
 20
1228.2246000000006
 11
2488.9173791032808
 21
1228.2109000000004
  0
LINE
  8
_0-4_
  6
CONTINUOUS
 62
    7
 10
2488.9173791032808
 20
1228.2109000000004
 11
2488.9398791032808
 21
1228.2062000000005
  0
LINE
  8
_0-4_
  6
CONTINUOUS
 62
    7
 10
2487.7646791032807
 20
1247.5514000000007
 11
2487.9939791032807
 21
1247.5987000000006
  0
LINE
  8
_0-4_
  6
CONTINUOUS
 62
    7
 10
2487.9939791032807
 20
1247.5987000000006
 11
2488.2143791032808
 21
1247.6442000000006
  0
LINE
  8
_0-4_
  6
CONTINUOUS
 62
    7
 10
2488.2143791032808
 20
1247.6442000000006
 11
2488.4175791032807
 21
1247.6860000000006
  0
LINE
  8
_0-4_
  6
CONTINUOUS
 62
    7
 10
2488.4175791032807
 20
1247.6860000000006
 11
2488.5956791032808
 21
1247.7228000000004
  0
LINE
  8
_0-4_
  6
CONTINUOUS
 62
    7
 10
2488.5956791032808
 20
1247.7228000000004
 11
2488.741879103281
 21
1247.7529000000006
  0
LINE
  8
_0-4_
  6
CONTINUOUS
 62
    7
 10
2488.741879103281
 20
1247.7529000000006
 11
2488.850479103281
 21
1247.7753000000004
  0
LINE
  8
_0-4_
  6
CONTINUOUS
 62
    7
 10
2488.850479103281
 20
1247.7753000000004
 11
2488.9173791032808
 21
1247.7891000000004
  0
LINE
  8
_0-4_
  6
CONTINUOUS
 62
    7
 10
2488.9173791032808
 20
1247.7891000000004
 11
2488.9398791032808
 21
1247.7937000000006
  0
LINE
  8
_0-4_
  6
CONTINUOUS
 62
    7
 10
2452.5390791032809
 20
1257.7500000000006
 11
2452.5390791032809
 21
1255.5349000000005
  0
LINE
  8
_0-4_
  6
CONTINUOUS
 62
    7
 10
2452.5390791032809
 20
1255.5000000000009
 11
2451.7390791032808
 21
1255.5000000000009
  0
LINE
  8
_0-4_
  6
CONTINUOUS
 62
    7
 10
2451.7390791032808
 20
1257.7500000000006
 11
2451.7390791032808
 21
1255.5000000000009
  0
LINE
  8
_0-4_
  6
CONTINUOUS
 62
    7
 10
2452.5390791032809
 20
1257.7500000000006
 11
2451.7390791032808
 21
1257.7500000000006
  0
LINE
  8
_0-4_
  6
CONTINUOUS
 62
    7
 10
2450.5390791032809
 20
1255.1366000000004
 11
2450.5390791032809
 21
1257.3866000000007
  0
LINE
  8
_0-4_
  6
CONTINUOUS
 62
    7
 10
2451.7390791032808
 20
1255.5000000000009
 11
2451.7390791032808
 21
1220.5000000000006
  0
LINE
  8
_0-4_
  6
CONTINUOUS
 62
    7
 10
2450.5390791032809
 20
1220.8633000000006
 11
2450.5390791032809
 21
1255.1366000000004
  0
LINE
  8
_0-4_
  6
CONTINUOUS
 62
    7
 10
2451.7390791032808
 20
1220.5000000000006
 11
2451.7390791032808
 21
1218.2500000000006
  0
LINE
  8
_0-4_
  6
CONTINUOUS
 62
    7
 10
2450.5390791032809
 20
1218.6133000000006
 11
2450.5390791032809
 21
1220.8633000000006
  0
LINE
  8
_0-4_
  6
CONTINUOUS
 62
    7
 10
2452.5390791032809
 20
1220.4650000000006
 11
2482.852979103281
 21
1221.5236000000006
  0
LINE
  8
_0-4_
  6
CONTINUOUS
 62
    7
 10
2452.5390791032809
 20
1220.5000000000006
 11
2452.5390791032809
 21
1220.4650000000006
  0
LINE
  8
_0-4_
  6
CONTINUOUS
 62
    7
 10
2452.5390791032809
 20
1220.5000000000006
 11
2451.7390791032808
 21
1220.5000000000006
  0
LINE
  8
_0-4_
  6
CONTINUOUS
 62
    7
 10
2482.852979103281
 20
1254.4763000000007
 11
2452.5390791032809
 21
1255.5349000000005
  0
LINE
  8
_0-4_
  6
CONTINUOUS
 62
    7
 10
2452.5390791032809
 20
1255.5349000000005
 11
2452.5390791032809
 21
1255.5000000000009
  0
LINE
  8
_0-4_
  6
CONTINUOUS
 62
    7
 10
2452.5390791032809
 20
1220.4650000000006
 11
2452.5390791032809
 21
1218.2500000000006
  0
LINE
  8
_0-4_
  6
CONTINUOUS
 62
    7
 10
2452.5390791032809
 20
1218.2500000000006
 11
2451.7390791032808
 21
1218.2500000000006
  0
LINE
  8
_0-4_
  6
CONTINUOUS
 62
    7
 10
2451.7390791032808
 20
1264.0383000000006
 11
2451.7390791032808
 21
1257.7500000000006
  0
LINE
  8
_0-4_
  6
CONTINUOUS
 62
    7
 10
2451.7390791032808
 20
1264.0383000000006
 11
2450.5390791032809
 21
1264.0383000000006
  0
LINE
  8
_0-4_
  6
CONTINUOUS
 62
    7
 10
2450.5390791032809
 20
1257.3866000000007
 11
2450.5390791032809
 21
1264.0383000000006
  0
LINE
  8
_0-4_
  6
CONTINUOUS
 62
    7
 10
2451.7390791032808
 20
1198.2500000000006
 11
2451.7390791032808
 21
1195.2500000000006
  0
LINE
  8
_0-4_
  6
CONTINUOUS
 62
    7
 10
2451.7390791032808
 20
1198.2500000000006
 11
2450.5390791032809
 21
1198.2500000000006
  0
LINE
  8
_0-4_
  6
CONTINUOUS
 62
    7
 10
2450.5390791032809
 20
1196.4500000000005
 11
2450.5390791032809
 21
1198.2500000000006
  0
LINE
  8
_0-4_
  6
CONTINUOUS
 62
    7
 10
2451.7390791032808
 20
1280.7500000000004
 11
2451.7390791032808
 21
1277.7500000000006
  0
LINE
  8
_0-4_
  6
CONTINUOUS
 62
    7
 10
2451.7390791032808
 20
1277.7500000000006
 11
2450.5390791032809
 21
1277.7500000000006
  0
LINE
  8
_0-4_
  6
CONTINUOUS
 62
    7
 10
2450.5390791032809
 20
1277.7500000000006
 11
2450.5390791032809
 21
1279.5500000000006
  0
LINE
  8
_0-4_
  6
CONTINUOUS
 62
    7
 10
2451.7390791032808
 20
1218.2500000000006
 11
2451.7390791032808
 21
1211.7835000000009
  0
LINE
  8
_0-4_
  6
CONTINUOUS
 62
    7
 10
2450.5390791032809
 20
1211.7835000000009
 11
2451.7390791032808
 21
1211.7835000000009
  0
LINE
  8
_0-4_
  6
CONTINUOUS
 62
    7
 10
2450.5390791032809
 20
1211.7835000000009
 11
2450.5390791032809
 21
1218.6133000000006
  0
LINE
  8
_0-4_
  6
CONTINUOUS
 62
    7
 10
2451.7390791032808
 20
1211.7835000000009
 11
2451.7390791032808
 21
1198.2500000000006
  0
LINE
  8
_0-4_
  6
CONTINUOUS
 62
    7
 10
2450.5390791032809
 20
1198.2500000000006
 11
2450.5390791032809
 21
1211.7835000000009
  0
LINE
  8
_0-4_
  6
CONTINUOUS
 62
    7
 10
2451.7390791032808
 20
1277.7500000000006
 11
2451.7390791032808
 21
1264.0383000000006
  0
LINE
  8
_0-4_
  6
CONTINUOUS
 62
    7
 10
2450.5390791032809
 20
1264.0383000000006
 11
2450.5390791032809
 21
1277.7500000000006
  0
LINE
  8
_0-4_
  6
CONTINUOUS
 62
    7
 10
2452.5390791032809
 20
1195.2500000000006
 11
2451.7390791032808
 21
1195.2500000000006
  0
LINE
  8
_0-4_
  6
CONTINUOUS
 62
    7
 10
2451.7390791032808
 20
1198.2500000000006
 11
2452.5390791032809
 21
1198.2500000000006
  0
LINE
  8
_0-4_
  6
CONTINUOUS
 62
    7
 10
2452.5390791032809
 20
1198.2500000000006
 11
2452.5390791032809
 21
1195.2500000000006
  0
LINE
  8
_0-4_
  6
CONTINUOUS
 62
    7
 10
2452.5390791032809
 20
1277.7500000000006
 11
2451.7390791032808
 21
1277.7500000000006
  0
LINE
  8
_0-4_
  6
CONTINUOUS
 62
    7
 10
2451.7390791032808
 20
1280.7500000000004
 11
2452.5390791032809
 21
1280.7500000000004
  0
LINE
  8
_0-4_
  6
CONTINUOUS
 62
    7
 10
2452.5390791032809
 20
1280.7500000000004
 11
2452.5390791032809
 21
1277.7500000000006
  0
LINE
  8
_0-4_
  6
CONTINUOUS
 62
    7
 10
2452.5390791032809
 20
1277.7500000000006
 11
2452.5390791032809
 21
1257.7500000000006
  0
LINE
  8
_0-4_
  6
CONTINUOUS
 62
    7
 10
2452.5390791032809
 20
1218.2500000000006
 11
2452.5390791032809
 21
1198.2500000000006
  0
LINE
  8
_0-4_
  6
CONTINUOUS
 62
    7
 10
2482.8500791032811
 20
1254.4904000000005
 11
2452.5390791032809
 21
1255.5489000000006
  0
LINE
  8
_0-4_
  6
CONTINUOUS
 62
    7
 10
2452.5390791032809
 20
1220.4511000000006
 11
2482.8500791032811
 21
1221.5096000000005
  0
ARC
  8
_0-4_
  6
CONTINUOUS
 62
    7
 10
2458.0390791032809
 20
1226.1605000000006
 40
2.7999999999999998
 50
180.00000000000005
 51
272.00000000000005
  0
ARC
  8
_0-4_
  6
CONTINUOUS
 62
    7
 10
2458.0390791032809
 20
1226.1605000000006
 40
4
 50
180.00000000000005
 51
272.00000000000005
  0
ARC
  8
_0-4_
  6
CONTINUOUS
 62
    7
 10
2458.0390791032809
 20
1249.8395000000007
 40
4
 50
88.000000000000028
 51
180.00000000000005
  0
ARC
  8
_0-4_
  6
CONTINUOUS
 62
    7
 10
2458.0390791032809
 20
1249.8395000000007
 40
2.7999999999999998
 50
88.000000000000028
 51
180.00000000000005
  0
ARC
  8
_0-4_
  6
CONTINUOUS
 62
    7
 10
2482.5737791032806
 20
1229.5188000000005
 40
5.3000000000000015
 50
272.00000000000011
 51
348.35000000000013
  0
ARC
  8
_0-4_
  6
CONTINUOUS
 62
    7
 10
2482.5737791032806
 20
1246.4812000000008
 40
5.3000000000000015
 50
11.650000000000002
 51
88.000000000000014
  0
ARC
  8
_0-4_
  6
CONTINUOUS
 62
    7
 10
2441.439079103281
 20
1238.0000000000009
 40
47.299999999999997
 50
348.35000000000013
 51
11.650000000000073
  0
ARC
  8
_0-4_
  6
CONTINUOUS
 62
    7
 10
2482.5737791032806
 20
1229.5188000000005
 40
6.5
 50
272.00000000000011
 51
348.35000000000013
  0
ARC
  8
_0-4_
  6
CONTINUOUS
 62
    7
 10
2482.5737791032806
 20
1246.4812000000008
 40
6.5
 50
11.650000000000002
 51
88.000000000000014
  0
ARC
  8
_0-4_
  6
CONTINUOUS
 62
    7
 10
2441.439079103281
 20
1238.0000000000009
 40
48.500000000000014
 50
348.35000000000013
 51
11.650000000000073
  0
LINE
  8
_0-4_
  6
CONTINUOUS
 62
    7
 10
2451.7390791032867
 20
1255.4999307652406
 11
2451.7390791032867
 21
1255.4999307652406
  0
LINE
  8
_0-4_
  6
CONTINUOUS
 62
    7
 10
2451.7390791032867
 20
1255.4999307652406
 11
2451.5307012900866
 21
1255.4944109545169
  0
LINE
  8
_0-4_
  6
CONTINUOUS
 62
    7
 10
2451.5307012900866
 20
1255.4944109545169
 11
2451.3286549312956
 21
1255.4780192390016
  0
LINE
  8
_0-4_
  6
CONTINUOUS
 62
    7
 10
2451.3286549312956
 20
1255.4780192390016
 11
2451.1390791032858
 21
1255.4512536726756
  0
LINE
  8
_0-4_
  6
CONTINUOUS
 62
    7
 10
2451.1390791032858
 20
1255.4512536726756
 11
2450.9677339716618
 21
1255.4149275137278
  0
LINE
  8
_0-4_
  6
CONTINUOUS
 62
    7
 10
2450.9677339716618
 20
1255.4149275137278
 11
2450.8198257715421
 21
1255.3701445141161
  0
LINE
  8
_0-4_
  6
CONTINUOUS
 62
    7
 10
2450.8198257715421
 20
1255.3701445141161
 11
2450.6998486187426
 21
1255.318265382622
  0
LINE
  8
_0-4_
  6
CONTINUOUS
 62
    7
 10
2450.6998486187426
 20
1255.318265382622
 11
2450.6114479583397
 21
1255.2608664404042
  0
LINE
  8
_0-4_
  6
CONTINUOUS
 62
    7
 10
2450.6114479583397
 20
1255.2608664404042
 11
2450.5573097996671
 21
1255.1996917252765
  0
LINE
  8
_0-4_
  6
CONTINUOUS
 62
    7
 10
2450.5573097996671
 20
1255.1996917252765
 11
2450.5390791032809
 21
1255.1366000000041
  0
LINE
  8
_0-4_
  6
CONTINUOUS
 62
    7
 10
2451.7390791032867
 20
1257.7499307652408
 11
2451.7390791032867
 21
1257.7499307652408
  0
LINE
  8
_0-4_
  6
CONTINUOUS
 62
    7
 10
2451.7390791032867
 20
1257.7499307652408
 11
2451.5307012900866
 21
1257.7444109545172
  0
LINE
  8
_0-4_
  6
CONTINUOUS
 62
    7
 10
2451.5307012900866
 20
1257.7444109545172
 11
2451.3286549312956
 21
1257.7280192390019
  0
LINE
  8
_0-4_
  6
CONTINUOUS
 62
    7
 10
2451.3286549312956
 20
1257.7280192390019
 11
2451.1390791032858
 21
1257.7012536726758
  0
LINE
  8
_0-4_
  6
CONTINUOUS
 62
    7
 10
2451.1390791032858
 20
1257.7012536726758
 11
2450.9677339716618
 21
1257.6649275137281
  0
LINE
  8
_0-4_
  6
CONTINUOUS
 62
    7
 10
2450.9677339716618
 20
1257.6649275137281
 11
2450.8198257715421
 21
1257.6201445141164
  0
LINE
  8
_0-4_
  6
CONTINUOUS
 62
    7
 10
2450.8198257715421
 20
1257.6201445141164
 11
2450.6998486187426
 21
1257.5682653826222
  0
LINE
  8
_0-4_
  6
CONTINUOUS
 62
    7
 10
2450.6998486187426
 20
1257.5682653826222
 11
2450.6114479583397
 21
1257.5108664404044
  0
LINE
  8
_0-4_
  6
CONTINUOUS
 62
    7
 10
2450.6114479583397
 20
1257.5108664404044
 11
2450.5573097996671
 21
1257.4496917252768
  0
LINE
  8
_0-4_
  6
CONTINUOUS
 62
    7
 10
2450.5573097996671
 20
1257.4496917252768
 11
2450.5390791032809
 21
1257.3866000000043
  0
LINE
  8
_0-4_
  6
CONTINUOUS
 62
    7
 10
2450.5390791032809
 20
1220.8633000000045
 11
2450.5390791032809
 21
1220.8633000000045
  0
LINE
  8
_0-4_
  6
CONTINUOUS
 62
    7
 10
2450.5390791032809
 20
1220.8633000000045
 11
2450.5573097996639
 21
1220.80020827473
  0
LINE
  8
_0-4_
  6
CONTINUOUS
 62
    7
 10
2450.5573097996639
 20
1220.80020827473
 11
2450.6114479583334
 21
1220.7390335596021
  0
LINE
  8
_0-4_
  6
CONTINUOUS
 62
    7
 10
2450.6114479583334
 20
1220.7390335596021
 11
2450.699848618733
 21
1220.6816346173839
  0
LINE
  8
_0-4_
  6
CONTINUOUS
 62
    7
 10
2450.699848618733
 20
1220.6816346173839
 11
2450.8198257715298
 21
1220.6297554858892
  0
LINE
  8
_0-4_
  6
CONTINUOUS
 62
    7
 10
2450.8198257715298
 20
1220.6297554858892
 11
2450.9677339716472
 21
1220.5849724862769
  0
LINE
  8
_0-4_
  6
CONTINUOUS
 62
    7
 10
2450.9677339716472
 20
1220.5849724862769
 11
2451.1390791032699
 21
1220.5486463273282
  0
LINE
  8
_0-4_
  6
CONTINUOUS
 62
    7
 10
2451.1390791032699
 20
1220.5486463273282
 11
2451.3286549312783
 21
1220.5218807610015
  0
LINE
  8
_0-4_
  6
CONTINUOUS
 62
    7
 10
2451.3286549312783
 20
1220.5218807610015
 11
2451.5307012900684
 21
1220.505489045485
  0
LINE
  8
_0-4_
  6
CONTINUOUS
 62
    7
 10
2451.5307012900684
 20
1220.505489045485
 11
2451.7390791032626
 21
1220.4999692347605
  0
LINE
  8
_0-4_
  6
CONTINUOUS
 62
    7
 10
2450.5390791032809
 20
1218.6133000000043
 11
2450.5390791032809
 21
1218.6133000000043
  0
LINE
  8
_0-4_
  6
CONTINUOUS
 62
    7
 10
2450.5390791032809
 20
1218.6133000000043
 11
2450.5573097996639
 21
1218.55020827473
  0
LINE
  8
_0-4_
  6
CONTINUOUS
 62
    7
 10
2450.5573097996639
 20
1218.55020827473
 11
2450.6114479583334
 21
1218.4890335596021
  0
LINE
  8
_0-4_
  6
CONTINUOUS
 62
    7
 10
2450.6114479583334
 20
1218.4890335596021
 11
2450.6998486187335
 21
1218.4316346173839
  0
LINE
  8
_0-4_
  6
CONTINUOUS
 62
    7
 10
2450.6998486187335
 20
1218.4316346173839
 11
2450.8198257715303
 21
1218.3797554858892
  0
LINE
  8
_0-4_
  6
CONTINUOUS
 62
    7
 10
2450.8198257715303
 20
1218.3797554858892
 11
2450.9677339716477
 21
1218.3349724862766
  0
LINE
  8
_0-4_
  6
CONTINUOUS
 62
    7
 10
2450.9677339716477
 20
1218.3349724862766
 11
2451.1390791032699
 21
1218.2986463273282
  0
LINE
  8
_0-4_
  6
CONTINUOUS
 62
    7
 10
2451.1390791032699
 20
1218.2986463273282
 11
2451.3286549312783
 21
1218.2718807610015
  0
LINE
  8
_0-4_
  6
CONTINUOUS
 62
    7
 10
2451.3286549312783
 20
1218.2718807610015
 11
2451.5307012900684
 21
1218.255489045485
  0
LINE
  8
_0-4_
  6
CONTINUOUS
 62
    7
 10
2451.5307012900684
 20
1218.255489045485
 11
2451.7390791032626
 21
1218.2499692347605
  0
ARC
  8
_0-4_
  6
CONTINUOUS
 62
    7
 10
2482.5737791032806
 20
1246.4812000000008
 40
8
 50
11.650000000000002
 51
88.000000000000014
  0
ARC
  8
_0-4_
  6
CONTINUOUS
 62
    7
 10
2441.439079103281
 20
1238.0000000000009
 40
50
 50
348.35000000000013
 51
11.650000000000073
  0
ARC
  8
_0-4_
  6
CONTINUOUS
 62
    7
 10
2482.5737791032806
 20
1229.5188000000005
 40
8
 50
272.00000000000011
 51
348.35000000000013
  0
ARC
  8
_0-4_
  6
CONTINUOUS
 62
    7
 10
2451.7390791032808
 20
1196.4500000000005
 40
1.1999999999999999
 50
180.00000000000005
 51
270.00000000000005
  0
ARC
  8
_0-4_
  6
CONTINUOUS
 62
    7
 10
2451.7390791032808
 20
1279.5500000000006
 40
1.1999999999999999
 50
90.000000000000028
 51
180.00000000000005
  0
ARC
  8
_0-4_
  6
CONTINUOUS
 62
    7
 10
2482.5708791032811
 20
1246.4952000000007
 40
8
 50
11.670000000000001
 51
88.000000000000014
  0
ARC
  8
_0-4_
  6
CONTINUOUS
 62
    7
 10
2482.5708791032811
 20
1229.5047000000004
 40
8
 50
272.00000000000011
 51
348.33000000000009
  0
ARC
  8
_0-4_
  6
CONTINUOUS
 62
    7
 10
2513.6391291032805
 20
1358.7999072187369
 40
80.200050000000004
 50
267
 51
270.00000000000005
  0
ARC
  8
_0-4_
  6
CONTINUOUS
 62
    7
 10
2513.6391291032805
 20
1358.7999072187369
 40
80.200050000000004
 50
267
 51
270.00000000000005
  0
LINE
  8
_0-4_
  6
CONTINUOUS
 62
    7
 10
2838.7270791032806
 20
1194.4999572187366
 11
2839.7329791032802
 21
1194.4980072187368
  0
LINE
  8
_0-4_
  6
CONTINUOUS
 62
    7
 10
2839.7329791032802
 20
1194.4980072187368
 11
2840.7390291032806
 21
1194.4960572187369
  0
LINE
  8
_0-4_
  6
CONTINUOUS
 62
    7
 10
2454.0390291032804
 20
1194.4999572187366
 11
2838.7390791032803
 21
1194.4999572187366
  0
LINE
  8
_0-4_
  6
CONTINUOUS
 62
    7
 10
2454.0390291032804
 20
1281.6133572187368
 11
2454.0390291032804
 21
1274.7643572187369
  0
LINE
  8
_0-4_
  6
CONTINUOUS
 62
    7
 10
2509.4418291032807
 20
1278.7098072187368
 11
2454.0390291032804
 21
1281.6133572187368
  0
LINE
  8
_0-4_
  6
CONTINUOUS
 62
    7
 10
2828.2891791032807
 20
1278.5998572187368
 11
2513.6391291032805
 21
1278.5998572187368
  0
LINE
  8
_0-4_
  6
CONTINUOUS
 62
    7
 10
2828.2891791032807
 20
1271.7603072187368
 11
2828.2891791032807
 21
1278.5998572187368
  0
LINE
  8
_0-4_
  6
CONTINUOUS
 62
    7
 10
2513.6391291032805
 20
1271.7603072187368
 11
2828.2891791032807
 21
1271.7603072187368
  0
LINE
  8
_0-4_
  6
CONTINUOUS
 62
    7
 10
2454.0390291032804
 20
1274.7643572187369
 11
2509.0839291032802
 21
1271.8795572187368
  0
LINE
  8
_0-4_
  6
CONTINUOUS
 62
    7
 10
2851.5390291032804
 20
1195.9999572187368
 11
2851.5390291032804
 21
1281.7999572187368
  0
LINE
  8
_0-4_
  6
CONTINUOUS
 62
    7
 10
2850.4518291032809
 20
1195.9999572187368
 11
2851.5390291032804
 21
1195.9999572187368
  0
LINE
  8
_0-4_
  6
CONTINUOUS
 62
    7
 10
2851.5390291032804
 20
1281.7999572187368
 11
2850.4518291032809
 21
1281.7999572187368
  0
LINE
  8
_0-4_
  6
CONTINUOUS
 62
    7
 10
2840.5107291032804
 20
1195.9999572187368
 11
2840.7384291032803
 21
1195.9999572187368
  0
LINE
  8
_0-4_
  6
CONTINUOUS
 62
    7
 10
2840.7390291032806
 20
1196.2278072187368
 11
2840.7390291032806
 21
1196.2230072187369
  0
LINE
  8
_0-4_
  6
CONTINUOUS
 62
    7
 10
2840.7390291032806
 20
1196.2230072187369
 11
2840.7390291032806
 21
1196.2210572187368
  0
LINE
  8
_0-4_
  6
CONTINUOUS
 62
    7
 10
2840.7390291032806
 20
1196.2210572187368
 11
2840.7390291032806
 21
1196.218657218737
  0
LINE
  8
_0-4_
  6
CONTINUOUS
 62
    7
 10
2840.7390291032806
 20
1196.218657218737
 11
2840.7388791032803
 21
1196.215957218737
  0
LINE
  8
_0-4_
  6
CONTINUOUS
 62
    7
 10
2840.7388791032803
 20
1196.215957218737
 11
2840.7388791032803
 21
1196.212957218737
  0
LINE
  8
_0-4_
  6
CONTINUOUS
 62
    7
 10
2840.7388791032803
 20
1196.212957218737
 11
2840.7385791032806
 21
1196.2096572187369
  0
LINE
  8
_0-4_
  6
CONTINUOUS
 62
    7
 10
2840.7385791032806
 20
1196.2096572187369
 11
2840.7382791032805
 21
1196.2063572187369
  0
LINE
  8
_0-4_
  6
CONTINUOUS
 62
    7
 10
2840.7382791032805
 20
1196.2063572187369
 11
2840.7376791032806
 21
1196.2029072187369
  0
LINE
  8
_0-4_
  6
CONTINUOUS
 62
    7
 10
2840.7376791032806
 20
1196.2029072187369
 11
2840.7370791032803
 21
1196.199457218737
  0
LINE
  8
_0-4_
  6
CONTINUOUS
 62
    7
 10
2840.7370791032803
 20
1196.199457218737
 11
2840.7363291032806
 21
1196.1960072187368
  0
LINE
  8
_0-4_
  6
CONTINUOUS
 62
    7
 10
2840.7363291032806
 20
1196.1960072187368
 11
2840.7352791032803
 21
1196.1924072187368
  0
LINE
  8
_0-4_
  6
CONTINUOUS
 62
    7
 10
2840.7352791032803
 20
1196.1924072187368
 11
2840.7340791032806
 21
1196.1889572187369
  0
LINE
  8
_0-4_
  6
CONTINUOUS
 62
    7
 10
2840.7340791032806
 20
1196.1889572187369
 11
2840.7325791032803
 21
1196.1852072187368
  0
LINE
  8
_0-4_
  6
CONTINUOUS
 62
    7
 10
2840.7325791032803
 20
1196.1852072187368
 11
2840.7309291032806
 21
1196.181457218737
  0
LINE
  8
_0-4_
  6
CONTINUOUS
 62
    7
 10
2840.7309291032806
 20
1196.181457218737
 11
2840.7288291032809
 21
1196.1775572187368
  0
LINE
  8
_0-4_
  6
CONTINUOUS
 62
    7
 10
2840.7288291032809
 20
1196.1775572187368
 11
2840.7265791032805
 21
1196.173357218737
  0
LINE
  8
_0-4_
  6
CONTINUOUS
 62
    7
 10
2840.7265791032805
 20
1196.173357218737
 11
2840.7240291032803
 21
1196.168857218737
  0
LINE
  8
_0-4_
  6
CONTINUOUS
 62
    7
 10
2840.7240291032803
 20
1196.168857218737
 11
2840.7211791032805
 21
1196.1642072187369
  0
LINE
  8
_0-4_
  6
CONTINUOUS
 62
    7
 10
2840.7211791032805
 20
1196.1642072187369
 11
2840.7180291032809
 21
1196.1592572187369
  0
LINE
  8
_0-4_
  6
CONTINUOUS
 62
    7
 10
2840.7180291032809
 20
1196.1592572187369
 11
2840.7145791032803
 21
1196.1541572187368
  0
LINE
  8
_0-4_
  6
CONTINUOUS
 62
    7
 10
2840.7145791032803
 20
1196.1541572187368
 11
2840.7111291032806
 21
1196.1492072187368
  0
LINE
  8
_0-4_
  6
CONTINUOUS
 62
    7
 10
2840.7111291032806
 20
1196.1492072187368
 11
2840.7076791032804
 21
1196.1441072187369
  0
LINE
  8
_0-4_
  6
CONTINUOUS
 62
    7
 10
2840.7076791032804
 20
1196.1441072187369
 11
2840.7040791032804
 21
1196.1393072187368
  0
LINE
  8
_0-4_
  6
CONTINUOUS
 62
    7
 10
2840.7040791032804
 20
1196.1393072187368
 11
2840.7006291032803
 21
1196.1346572187369
  0
LINE
  8
_0-4_
  6
CONTINUOUS
 62
    7
 10
2840.7006291032803
 20
1196.1346572187369
 11
2840.6971791032806
 21
1196.1303072187367
  0
LINE
  8
_0-4_
  6
CONTINUOUS
 62
    7
 10
2840.6971791032806
 20
1196.1303072187367
 11
2840.6938791032803
 21
1196.1264072187368
  0
LINE
  8
_0-4_
  6
CONTINUOUS
 62
    7
 10
2840.6938791032803
 20
1196.1264072187368
 11
2840.6907291032803
 21
1196.1228072187368
  0
LINE
  8
_0-4_
  6
CONTINUOUS
 62
    7
 10
2840.6907291032803
 20
1196.1228072187368
 11
2840.6875791032803
 21
1196.1193572187369
  0
LINE
  8
_0-4_
  6
CONTINUOUS
 62
    7
 10
2840.6875791032803
 20
1196.1193572187369
 11
2840.6842791032804
 21
1196.1159072187367
  0
LINE
  8
_0-4_
  6
CONTINUOUS
 62
    7
 10
2840.6842791032804
 20
1196.1159072187367
 11
2840.6806791032804
 21
1196.1124572187368
  0
LINE
  8
_0-4_
  6
CONTINUOUS
 62
    7
 10
2840.6806791032804
 20
1196.1124572187368
 11
2840.6767791032802
 21
1196.1088572187368
  0
LINE
  8
_0-4_
  6
CONTINUOUS
 62
    7
 10
2840.6767791032802
 20
1196.1088572187368
 11
2840.6722791032802
 21
1196.1049572187368
  0
LINE
  8
_0-4_
  6
CONTINUOUS
 62
    7
 10
2840.6722791032802
 20
1196.1049572187368
 11
2840.6673291032802
 21
1196.1006072187369
  0
LINE
  8
_0-4_
  6
CONTINUOUS
 62
    7
 10
2840.6673291032802
 20
1196.1006072187369
 11
2840.6616291032805
 21
1196.0958072187368
  0
LINE
  8
_0-4_
  6
CONTINUOUS
 62
    7
 10
2840.6616291032805
 20
1196.0958072187368
 11
2840.6554791032804
 21
1196.0907072187369
  0
LINE
  8
_0-4_
  6
CONTINUOUS
 62
    7
 10
2840.6554791032804
 20
1196.0907072187369
 11
2840.6487291032808
 21
1196.0851572187368
  0
LINE
  8
_0-4_
  6
CONTINUOUS
 62
    7
 10
2840.6487291032808
 20
1196.0851572187368
 11
2840.6416791032802
 21
1196.0794572187369
  0
LINE
  8
_0-4_
  6
CONTINUOUS
 62
    7
 10
2840.6416791032802
 20
1196.0794572187369
 11
2840.6344791032806
 21
1196.0737572187367
  0
LINE
  8
_0-4_
  6
CONTINUOUS
 62
    7
 10
2840.6344791032806
 20
1196.0737572187367
 11
2840.6271291032808
 21
1196.0680572187368
  0
LINE
  8
_0-4_
  6
CONTINUOUS
 62
    7
 10
2840.6271291032808
 20
1196.0680572187368
 11
2840.6197791032809
 21
1196.0626572187368
  0
LINE
  8
_0-4_
  6
CONTINUOUS
 62
    7
 10
2840.6197791032809
 20
1196.0626572187368
 11
2840.6125791032809
 21
1196.0574072187368
  0
LINE
  8
_0-4_
  6
CONTINUOUS
 62
    7
 10
2840.6125791032809
 20
1196.0574072187368
 11
2840.6055291032807
 21
1196.0524572187368
  0
LINE
  8
_0-4_
  6
CONTINUOUS
 62
    7
 10
2840.6055291032807
 20
1196.0524572187368
 11
2840.5987791032803
 21
1196.0479572187368
  0
LINE
  8
_0-4_
  6
CONTINUOUS
 62
    7
 10
2840.5987791032803
 20
1196.0479572187368
 11
2840.5921791032806
 21
1196.0437572187368
  0
LINE
  8
_0-4_
  6
CONTINUOUS
 62
    7
 10
2840.5921791032806
 20
1196.0437572187368
 11
2840.5857291032807
 21
1196.0398572187368
  0
LINE
  8
_0-4_
  6
CONTINUOUS
 62
    7
 10
2840.5857291032807
 20
1196.0398572187368
 11
2840.5792791032808
 21
1196.0359572187369
  0
LINE
  8
_0-4_
  6
CONTINUOUS
 62
    7
 10
2840.5792791032808
 20
1196.0359572187369
 11
2840.5731291032807
 21
1196.0325072187367
  0
LINE
  8
_0-4_
  6
CONTINUOUS
 62
    7
 10
2840.5731291032807
 20
1196.0325072187367
 11
2840.5668291032807
 21
1196.0290572187368
  0
LINE
  8
_0-4_
  6
CONTINUOUS
 62
    7
 10
2840.5668291032807
 20
1196.0290572187368
 11
2840.5606791032805
 21
1196.0256072187369
  0
LINE
  8
_0-4_
  6
CONTINUOUS
 62
    7
 10
2840.5606791032805
 20
1196.0256072187369
 11
2840.5545291032808
 21
1196.0223072187368
  0
LINE
  8
_0-4_
  6
CONTINUOUS
 62
    7
 10
2840.5545291032808
 20
1196.0223072187368
 11
2840.5483791032802
 21
1196.0191572187368
  0
LINE
  8
_0-4_
  6
CONTINUOUS
 62
    7
 10
2840.5483791032802
 20
1196.0191572187368
 11
2840.5425291032806
 21
1196.0160072187368
  0
LINE
  8
_0-4_
  6
CONTINUOUS
 62
    7
 10
2840.5425291032806
 20
1196.0160072187368
 11
2840.5368291032805
 21
1196.0131572187367
  0
LINE
  8
_0-4_
  6
CONTINUOUS
 62
    7
 10
2840.5368291032805
 20
1196.0131572187367
 11
2840.5315791032808
 21
1196.0104572187367
  0
LINE
  8
_0-4_
  6
CONTINUOUS
 62
    7
 10
2840.5315791032808
 20
1196.0104572187367
 11
2840.5267791032802
 21
1196.0080572187368
  0
LINE
  8
_0-4_
  6
CONTINUOUS
 62
    7
 10
2840.5267791032802
 20
1196.0080572187368
 11
2840.5225791032808
 21
1196.0059572187367
  0
LINE
  8
_0-4_
  6
CONTINUOUS
 62
    7
 10
2840.5225791032808
 20
1196.0059572187367
 11
2840.5107291032804
 21
1195.9999572187368
  0
LINE
  8
_0-4_
  6
CONTINUOUS
 62
    7
 10
2840.7390291032806
 20
1196.219107218737
 11
2840.7390291032806
 21
1197.9999072187367
  0
LINE
  8
_0-4_
  6
CONTINUOUS
 62
    7
 10
2840.7390291032806
 20
1197.9999072187367
 11
2840.7390291032806
 21
1231.7998572187368
  0
LINE
  8
_0-4_
  6
CONTINUOUS
 62
    7
 10
2840.2083291032804
 20
1197.9999072187367
 11
2840.2083291032804
 21
1264.2925572187371
  0
LINE
  8
_0-4_
  6
CONTINUOUS
 62
    7
 10
2840.7384291032803
 20
1195.9999572187368
 11
2850.4518291032809
 21
1195.9999572187368
  0
LINE
  8
_0-4_
  6
CONTINUOUS
 62
    7
 10
2850.4518291032809
 20
1281.7999572187368
 11
2846.8456791032804
 21
1281.7999572187368
  0
LINE
  8
_0-4_
  6
CONTINUOUS
 62
    7
 10
2458.7973291032803
 20
1274.5149072187368
 11
2458.7973291032803
 21
1274.3832072187367
  0
LINE
  8
_0-4_
  6
CONTINUOUS
 62
    7
 10
2458.7973291032803
 20
1274.3832072187367
 11
2458.7179791032804
 21
1274.3872572187367
  0
LINE
  8
_0-4_
  6
CONTINUOUS
 62
    7
 10
2458.7179791032804
 20
1274.3872572187367
 11
2458.6845291032805
 21
1274.3890572187367
  0
LINE
  8
_0-4_
  6
CONTINUOUS
 62
    7
 10
2458.6845291032805
 20
1274.3890572187367
 11
2458.6437291032807
 21
1274.3910072187368
  0
LINE
  8
_0-4_
  6
CONTINUOUS
 62
    7
 10
2458.6437291032807
 20
1274.3910072187368
 11
2458.5954291032803
 21
1274.3929572187371
  0
LINE
  8
_0-4_
  6
CONTINUOUS
 62
    7
 10
2458.5954291032803
 20
1274.3929572187371
 11
2458.5399291032804
 21
1274.3949072187367
  0
LINE
  8
_0-4_
  6
CONTINUOUS
 62
    7
 10
2458.5399291032804
 20
1274.3949072187367
 11
2458.4770791032806
 21
1274.3964072187368
  0
LINE
  8
_0-4_
  6
CONTINUOUS
 62
    7
 10
2458.4770791032806
 20
1274.3964072187368
 11
2458.4068791032805
 21
1274.3976072187367
  0
LINE
  8
_0-4_
  6
CONTINUOUS
 62
    7
 10
2458.4068791032805
 20
1274.3976072187367
 11
2458.3294791032803
 21
1274.3980572187367
  0
LINE
  8
_0-4_
  6
CONTINUOUS
 62
    7
 10
2458.3294791032803
 20
1274.3980572187367
 11
2458.2447291032804
 21
1274.3977572187368
  0
LINE
  8
_0-4_
  6
CONTINUOUS
 62
    7
 10
2458.2447291032804
 20
1274.3977572187368
 11
2458.1529291032807
 21
1274.3965572187371
  0
LINE
  8
_0-4_
  6
CONTINUOUS
 62
    7
 10
2458.1529291032807
 20
1274.3965572187371
 11
2458.0540791032804
 21
1274.3938572187371
  0
LINE
  8
_0-4_
  6
CONTINUOUS
 62
    7
 10
2458.0540791032804
 20
1274.3938572187371
 11
2457.9483291032802
 21
1274.3895072187367
  0
LINE
  8
_0-4_
  6
CONTINUOUS
 62
    7
 10
2457.9483291032802
 20
1274.3895072187367
 11
2457.8356791032806
 21
1274.3830572187371
  0
LINE
  8
_0-4_
  6
CONTINUOUS
 62
    7
 10
2457.8356791032806
 20
1274.3830572187371
 11
2457.7162791032806
 21
1274.3740572187371
  0
LINE
  8
_0-4_
  6
CONTINUOUS
 62
    7
 10
2457.7162791032806
 20
1274.3740572187371
 11
2457.5904291032802
 21
1274.3620572187369
  0
LINE
  8
_0-4_
  6
CONTINUOUS
 62
    7
 10
2457.5904291032802
 20
1274.3620572187369
 11
2457.4582791032803
 21
1274.3469072187367
  0
LINE
  8
_0-4_
  6
CONTINUOUS
 62
    7
 10
2457.4582791032803
 20
1274.3469072187367
 11
2457.3196791032805
 21
1274.328157218737
  0
LINE
  8
_0-4_
  6
CONTINUOUS
 62
    7
 10
2457.3196791032805
 20
1274.328157218737
 11
2457.1750791032804
 21
1274.3053572187368
  0
LINE
  8
_0-4_
  6
CONTINUOUS
 62
    7
 10
2457.1750791032804
 20
1274.3053572187368
 11
2457.0255291032804
 21
1274.2786572187369
  0
LINE
  8
_0-4_
  6
CONTINUOUS
 62
    7
 10
2457.0255291032804
 20
1274.2786572187369
 11
2456.8722291032804
 21
1274.2485072187369
  0
LINE
  8
_0-4_
  6
CONTINUOUS
 62
    7
 10
2456.8722291032804
 20
1274.2485072187369
 11
2456.7163791032808
 21
1274.2147572187368
  0
LINE
  8
_0-4_
  6
CONTINUOUS
 62
    7
 10
2456.7163791032808
 20
1274.2147572187368
 11
2456.5591791032802
 21
1274.1777072187367
  0
LINE
  8
_0-4_
  6
CONTINUOUS
 62
    7
 10
2456.5591791032802
 20
1274.1777072187367
 11
2456.4016791032804
 21
1274.1376572187371
  0
LINE
  8
_0-4_
  6
CONTINUOUS
 62
    7
 10
2456.4016791032804
 20
1274.1376572187371
 11
2456.2453791032803
 21
1274.0947572187369
  0
LINE
  8
_0-4_
  6
CONTINUOUS
 62
    7
 10
2456.2453791032803
 20
1274.0947572187369
 11
2456.0911791032804
 21
1274.0490072187369
  0
LINE
  8
_0-4_
  6
CONTINUOUS
 62
    7
 10
2456.0911791032804
 20
1274.0490072187369
 11
2455.9402791032807
 21
1274.0010072187369
  0
LINE
  8
_0-4_
  6
CONTINUOUS
 62
    7
 10
2455.9402791032807
 20
1274.0010072187369
 11
2455.7934291032806
 21
1273.9509072187368
  0
LINE
  8
_0-4_
  6
CONTINUOUS
 62
    7
 10
2455.7934291032806
 20
1273.9509072187368
 11
2455.6507791032804
 21
1273.8993072187367
  0
LINE
  8
_0-4_
  6
CONTINUOUS
 62
    7
 10
2455.6507791032804
 20
1273.8993072187367
 11
2455.5130791032806
 21
1273.8466572187369
  0
LINE
  8
_0-4_
  6
CONTINUOUS
 62
    7
 10
2455.5130791032806
 20
1273.8466572187369
 11
2455.3809291032807
 21
1273.7932572187369
  0
LINE
  8
_0-4_
  6
CONTINUOUS
 62
    7
 10
2455.3809291032807
 20
1273.7932572187369
 11
2455.2544791032805
 21
1273.7397072187368
  0
LINE
  8
_0-4_
  6
CONTINUOUS
 62
    7
 10
2455.2544791032805
 20
1273.7397072187368
 11
2455.1344791032802
 21
1273.6864572187371
  0
LINE
  8
_0-4_
  6
CONTINUOUS
 62
    7
 10
2455.1344791032802
 20
1273.6864572187371
 11
2455.0212291032803
 21
1273.6341072187369
  0
LINE
  8
_0-4_
  6
CONTINUOUS
 62
    7
 10
2455.0212291032803
 20
1273.6341072187369
 11
2454.9153291032807
 21
1273.5828072187368
  0
LINE
  8
_0-4_
  6
CONTINUOUS
 62
    7
 10
2454.9153291032807
 20
1273.5828072187368
 11
2454.8166291032803
 21
1273.5328572187368
  0
LINE
  8
_0-4_
  6
CONTINUOUS
 62
    7
 10
2454.8166291032803
 20
1273.5328572187368
 11
2454.7248291032801
 21
1273.4847072187367
  0
LINE
  8
_0-4_
  6
CONTINUOUS
 62
    7
 10
2454.7248291032801
 20
1273.4847072187367
 11
2454.6397791032804
 21
1273.4385072187367
  0
LINE
  8
_0-4_
  6
CONTINUOUS
 62
    7
 10
2454.6397791032804
 20
1273.4385072187367
 11
2454.5614791032803
 21
1273.3945572187369
  0
LINE
  8
_0-4_
  6
CONTINUOUS
 62
    7
 10
2454.5614791032803
 20
1273.3945572187369
 11
2454.4896291032805
 21
1273.3528572187369
  0
LINE
  8
_0-4_
  6
CONTINUOUS
 62
    7
 10
2454.4896291032805
 20
1273.3528572187369
 11
2454.4240791032807
 21
1273.3138572187367
  0
LINE
  8
_0-4_
  6
CONTINUOUS
 62
    7
 10
2454.4240791032807
 20
1273.3138572187367
 11
2454.3645291032808
 21
1273.2778572187366
  0
LINE
  8
_0-4_
  6
CONTINUOUS
 62
    7
 10
2454.3645291032808
 20
1273.2778572187366
 11
2454.3109791032802
 21
1273.2448572187367
  0
LINE
  8
_0-4_
  6
CONTINUOUS
 62
    7
 10
2454.3109791032802
 20
1273.2448572187367
 11
2454.2631291032803
 21
1273.2150072187371
  0
LINE
  8
_0-4_
  6
CONTINUOUS
 62
    7
 10
2454.2631291032803
 20
1273.2150072187371
 11
2454.2208291032802
 21
1273.188007218737
  0
LINE
  8
_0-4_
  6
CONTINUOUS
 62
    7
 10
2454.2208291032802
 20
1273.188007218737
 11
2454.1836291032805
 21
1273.164157218737
  0
LINE
  8
_0-4_
  6
CONTINUOUS
 62
    7
 10
2454.1836291032805
 20
1273.164157218737
 11
2454.1513791032803
 21
1273.1431572187368
  0
LINE
  8
_0-4_
  6
CONTINUOUS
 62
    7
 10
2454.1513791032803
 20
1273.1431572187368
 11
2454.1240791032805
 21
1273.1251572187368
  0
LINE
  8
_0-4_
  6
CONTINUOUS
 62
    7
 10
2454.1240791032805
 20
1273.1251572187368
 11
2454.1012791032803
 21
1273.1100072187368
  0
LINE
  8
_0-4_
  6
CONTINUOUS
 62
    7
 10
2454.1012791032803
 20
1273.1100072187368
 11
2454.0390291032804
 21
1273.0681572187368
  0
LINE
  8
_0-4_
  6
CONTINUOUS
 62
    7
 10
2454.0390291032804
 20
1274.7643572187369
 11
2454.0390291032804
 21
1273.0681572187368
  0
LINE
  8
_0-4_
  6
CONTINUOUS
 62
    7
 10
2838.7390791032803
 20
1194.5004072187366
 11
2838.7390791032803
 21
1194.5020572187368
  0
LINE
  8
_0-4_
  6
CONTINUOUS
 62
    7
 10
2838.7390791032803
 20
1194.5020572187368
 11
2838.7390791032803
 21
1194.5026572187366
  0
LINE
  8
_0-4_
  6
CONTINUOUS
 62
    7
 10
2838.7390791032803
 20
1194.5026572187366
 11
2838.7390791032803
 21
1194.5034072187368
  0
LINE
  8
_0-4_
  6
CONTINUOUS
 62
    7
 10
2838.7390791032803
 20
1194.5034072187368
 11
2838.7390791032803
 21
1194.5043072187368
  0
LINE
  8
_0-4_
  6
CONTINUOUS
 62
    7
 10
2838.7390791032803
 20
1194.5043072187368
 11
2838.7390791032803
 21
1194.5053572187366
  0
LINE
  8
_0-4_
  6
CONTINUOUS
 62
    7
 10
2838.7390791032803
 20
1194.5053572187366
 11
2838.7390791032803
 21
1194.5067072187366
  0
LINE
  8
_0-4_
  6
CONTINUOUS
 62
    7
 10
2838.7390791032803
 20
1194.5067072187366
 11
2838.7390791032803
 21
1194.5080572187366
  0
LINE
  8
_0-4_
  6
CONTINUOUS
 62
    7
 10
2838.7390791032803
 20
1194.5080572187366
 11
2838.7390791032803
 21
1194.5095572187369
  0
LINE
  8
_0-4_
  6
CONTINUOUS
 62
    7
 10
2838.7390791032803
 20
1194.5095572187369
 11
2838.7390791032803
 21
1194.5112072187366
  0
LINE
  8
_0-4_
  6
CONTINUOUS
 62
    7
 10
2838.7390791032803
 20
1194.5112072187366
 11
2838.7390791032803
 21
1194.5130072187366
  0
LINE
  8
_0-4_
  6
CONTINUOUS
 62
    7
 10
2838.7390791032803
 20
1194.5130072187366
 11
2838.7390791032803
 21
1194.5152572187366
  0
LINE
  8
_0-4_
  6
CONTINUOUS
 62
    7
 10
2838.7390791032803
 20
1194.5152572187366
 11
2838.7390791032803
 21
1194.5181072187369
  0
LINE
  8
_0-4_
  6
CONTINUOUS
 62
    7
 10
2838.7390791032803
 20
1194.5181072187369
 11
2838.7390791032803
 21
1194.5218572187368
  0
LINE
  8
_0-4_
  6
CONTINUOUS
 62
    7
 10
2838.7390791032803
 20
1194.5218572187368
 11
2838.7390791032803
 21
1194.526657218737
  0
LINE
  8
_0-4_
  6
CONTINUOUS
 62
    7
 10
2838.7390791032803
 20
1194.526657218737
 11
2838.7390791032803
 21
1194.5328072187367
  0
LINE
  8
_0-4_
  6
CONTINUOUS
 62
    7
 10
2838.7390791032803
 20
1194.5328072187367
 11
2838.7390791032803
 21
1194.540607218737
  0
LINE
  8
_0-4_
  6
CONTINUOUS
 62
    7
 10
2838.7390791032803
 20
1194.540607218737
 11
2838.7390791032803
 21
1194.5503572187367
  0
LINE
  8
_0-4_
  6
CONTINUOUS
 62
    7
 10
2838.7390791032803
 20
1194.5503572187367
 11
2838.7390791032803
 21
1194.5620572187367
  0
LINE
  8
_0-4_
  6
CONTINUOUS
 62
    7
 10
2838.7390791032803
 20
1194.5620572187367
 11
2838.7390791032803
 21
1194.5757072187368
  0
LINE
  8
_0-4_
  6
CONTINUOUS
 62
    7
 10
2838.7390791032803
 20
1194.5757072187368
 11
2838.7390791032803
 21
1194.5911572187369
  0
LINE
  8
_0-4_
  6
CONTINUOUS
 62
    7
 10
2838.7390791032803
 20
1194.5911572187369
 11
2838.7390791032803
 21
1194.6085572187369
  0
LINE
  8
_0-4_
  6
CONTINUOUS
 62
    7
 10
2838.7390791032803
 20
1194.6085572187369
 11
2838.7390791032803
 21
1194.6276072187367
  0
LINE
  8
_0-4_
  6
CONTINUOUS
 62
    7
 10
2838.7390791032803
 20
1194.6276072187367
 11
2838.7390791032803
 21
1194.6481572187367
  0
LINE
  8
_0-4_
  6
CONTINUOUS
 62
    7
 10
2838.7390791032803
 20
1194.6481572187367
 11
2838.7390791032803
 21
1194.6702072187367
  0
LINE
  8
_0-4_
  6
CONTINUOUS
 62
    7
 10
2838.7390791032803
 20
1194.6702072187367
 11
2838.7390791032803
 21
1194.6937572187368
  0
LINE
  8
_0-4_
  6
CONTINUOUS
 62
    7
 10
2838.7390791032803
 20
1194.6937572187368
 11
2838.7390791032803
 21
1194.7185072187369
  0
LINE
  8
_0-4_
  6
CONTINUOUS
 62
    7
 10
2838.7390791032803
 20
1194.7185072187369
 11
2838.7390791032803
 21
1194.7446072187369
  0
LINE
  8
_0-4_
  6
CONTINUOUS
 62
    7
 10
2838.7390791032803
 20
1194.7446072187369
 11
2838.7390791032803
 21
1194.7719072187369
  0
LINE
  8
_0-4_
  6
CONTINUOUS
 62
    7
 10
2838.7390791032803
 20
1194.7719072187369
 11
2838.7390791032803
 21
1194.8005572187369
  0
LINE
  8
_0-4_
  6
CONTINUOUS
 62
    7
 10
2838.7390791032803
 20
1194.8005572187369
 11
2838.7390791032803
 21
1194.830407218737
  0
LINE
  8
_0-4_
  6
CONTINUOUS
 62
    7
 10
2838.7390791032803
 20
1194.830407218737
 11
2838.7390791032803
 21
1194.861457218737
  0
LINE
  8
_0-4_
  6
CONTINUOUS
 62
    7
 10
2838.7390791032803
 20
1194.861457218737
 11
2838.7390791032803
 21
1194.8937072187368
  0
LINE
  8
_0-4_
  6
CONTINUOUS
 62
    7
 10
2838.7390791032803
 20
1194.8937072187368
 11
2838.7390791032803
 21
1194.9271572187371
  0
LINE
  8
_0-4_
  6
CONTINUOUS
 62
    7
 10
2838.7390791032803
 20
1194.9271572187371
 11
2838.7390791032803
 21
1194.9619572187366
  0
LINE
  8
_0-4_
  6
CONTINUOUS
 62
    7
 10
2838.7390791032803
 20
1194.9619572187366
 11
2838.7390791032803
 21
1194.9978072187368
  0
LINE
  8
_0-4_
  6
CONTINUOUS
 62
    7
 10
2838.7390791032803
 20
1194.9978072187368
 11
2838.7390791032803
 21
1195.0348572187367
  0
LINE
  8
_0-4_
  6
CONTINUOUS
 62
    7
 10
2838.7390791032803
 20
1195.0348572187367
 11
2838.7390791032803
 21
1195.0729572187367
  0
LINE
  8
_0-4_
  6
CONTINUOUS
 62
    7
 10
2838.7390791032803
 20
1195.0729572187367
 11
2838.7390791032803
 21
1195.1121072187368
  0
LINE
  8
_0-4_
  6
CONTINUOUS
 62
    7
 10
2838.7390791032803
 20
1195.1121072187368
 11
2838.7390791032803
 21
1195.1523072187369
  0
LINE
  8
_0-4_
  6
CONTINUOUS
 62
    7
 10
2838.7390791032803
 20
1195.1523072187369
 11
2838.7390791032803
 21
1195.1934072187368
  0
LINE
  8
_0-4_
  6
CONTINUOUS
 62
    7
 10
2838.7390791032803
 20
1195.1934072187368
 11
2838.7390791032803
 21
1195.235407218737
  0
LINE
  8
_0-4_
  6
CONTINUOUS
 62
    7
 10
2838.7390791032803
 20
1195.235407218737
 11
2838.7390791032803
 21
1195.278157218737
  0
LINE
  8
_0-4_
  6
CONTINUOUS
 62
    7
 10
2838.7390791032803
 20
1195.278157218737
 11
2838.7390791032803
 21
1195.321657218737
  0
LINE
  8
_0-4_
  6
CONTINUOUS
 62
    7
 10
2838.7390791032803
 20
1195.321657218737
 11
2838.7390791032803
 21
1195.3653072187371
  0
LINE
  8
_0-4_
  6
CONTINUOUS
 62
    7
 10
2838.7390791032803
 20
1195.3653072187371
 11
2838.7390791032803
 21
1195.4089572187367
  0
LINE
  8
_0-4_
  6
CONTINUOUS
 62
    7
 10
2838.7390791032803
 20
1195.4089572187367
 11
2838.7390791032803
 21
1195.4523072187366
  0
LINE
  8
_0-4_
  6
CONTINUOUS
 62
    7
 10
2838.7390791032803
 20
1195.4523072187366
 11
2838.7390791032803
 21
1195.4950572187367
  0
LINE
  8
_0-4_
  6
CONTINUOUS
 62
    7
 10
2838.7390791032803
 20
1195.4950572187367
 11
2838.7390791032803
 21
1195.5369072187368
  0
LINE
  8
_0-4_
  6
CONTINUOUS
 62
    7
 10
2838.7390791032803
 20
1195.5369072187368
 11
2838.7390791032803
 21
1195.5775572187367
  0
LINE
  8
_0-4_
  6
CONTINUOUS
 62
    7
 10
2838.7390791032803
 20
1195.5775572187367
 11
2838.7390791032803
 21
1195.6165572187369
  0
LINE
  8
_0-4_
  6
CONTINUOUS
 62
    7
 10
2838.7390791032803
 20
1195.6165572187369
 11
2838.7390791032803
 21
1195.6542072187369
  0
LINE
  8
_0-4_
  6
CONTINUOUS
 62
    7
 10
2838.7390791032803
 20
1195.6542072187369
 11
2838.7390791032803
 21
1195.6900572187369
  0
LINE
  8
_0-4_
  6
CONTINUOUS
 62
    7
 10
2838.7390791032803
 20
1195.6900572187369
 11
2838.7390791032803
 21
1195.7242572187369
  0
LINE
  8
_0-4_
  6
CONTINUOUS
 62
    7
 10
2838.7390791032803
 20
1195.7242572187369
 11
2838.7390791032803
 21
1195.7565072187369
  0
LINE
  8
_0-4_
  6
CONTINUOUS
 62
    7
 10
2838.7390791032803
 20
1195.7565072187369
 11
2838.7390791032803
 21
1195.7869572187369
  0
LINE
  8
_0-4_
  6
CONTINUOUS
 62
    7
 10
2838.7390791032803
 20
1195.7869572187369
 11
2838.7390791032803
 21
1195.8154572187368
  0
LINE
  8
_0-4_
  6
CONTINUOUS
 62
    7
 10
2838.7390791032803
 20
1195.8154572187368
 11
2838.7390791032803
 21
1195.8418572187367
  0
LINE
  8
_0-4_
  6
CONTINUOUS
 62
    7
 10
2838.7390791032803
 20
1195.8418572187367
 11
2838.7390791032803
 21
1195.8663072187368
  0
LINE
  8
_0-4_
  6
CONTINUOUS
 62
    7
 10
2838.7390791032803
 20
1195.8663072187368
 11
2838.7390791032803
 21
1195.8885072187367
  0
LINE
  8
_0-4_
  6
CONTINUOUS
 62
    7
 10
2838.7390791032803
 20
1195.8885072187367
 11
2838.7390791032803
 21
1195.9086072187369
  0
LINE
  8
_0-4_
  6
CONTINUOUS
 62
    7
 10
2838.7390791032803
 20
1195.9086072187369
 11
2838.7390791032803
 21
1195.9266072187369
  0
LINE
  8
_0-4_
  6
CONTINUOUS
 62
    7
 10
2838.7390791032803
 20
1195.9266072187369
 11
2838.7390791032803
 21
1195.942357218737
  0
LINE
  8
_0-4_
  6
CONTINUOUS
 62
    7
 10
2838.7390791032803
 20
1195.942357218737
 11
2838.7390791032803
 21
1195.9561572187367
  0
LINE
  8
_0-4_
  6
CONTINUOUS
 62
    7
 10
2838.7390791032803
 20
1195.9561572187367
 11
2838.7390791032803
 21
1195.9678572187367
  0
LINE
  8
_0-4_
  6
CONTINUOUS
 62
    7
 10
2838.7390791032803
 20
1195.9678572187367
 11
2838.7390791032803
 21
1195.9999572187368
  0
LINE
  8
_0-4_
  6
CONTINUOUS
 62
    7
 10
2839.2817791032803
 20
1195.9999572187368
 11
2839.2664791032802
 21
1196.0026572187368
  0
LINE
  8
_0-4_
  6
CONTINUOUS
 62
    7
 10
2839.2664791032802
 20
1196.0026572187368
 11
2839.2600291032804
 21
1196.0037072187369
  0
LINE
  8
_0-4_
  6
CONTINUOUS
 62
    7
 10
2839.2600291032804
 20
1196.0037072187369
 11
2839.252229103281
 21
1196.0052072187368
  0
LINE
  8
_0-4_
  6
CONTINUOUS
 62
    7
 10
2839.252229103281
 20
1196.0052072187368
 11
2839.2435291032802
 21
1196.0067072187368
  0
LINE
  8
_0-4_
  6
CONTINUOUS
 62
    7
 10
2839.2435291032802
 20
1196.0067072187368
 11
2839.2337791032809
 21
1196.0085072187368
  0
LINE
  8
_0-4_
  6
CONTINUOUS
 62
    7
 10
2839.2337791032809
 20
1196.0085072187368
 11
2839.2234291032809
 21
1196.0103072187368
  0
LINE
  8
_0-4_
  6
CONTINUOUS
 62
    7
 10
2839.2234291032809
 20
1196.0103072187368
 11
2839.2124791032806
 21
1196.0122572187367
  0
LINE
  8
_0-4_
  6
CONTINUOUS
 62
    7
 10
2839.2124791032806
 20
1196.0122572187367
 11
2839.2010791032807
 21
1196.0143572187369
  0
LINE
  8
_0-4_
  6
CONTINUOUS
 62
    7
 10
2839.2010791032807
 20
1196.0143572187369
 11
2839.1896791032809
 21
1196.0166072187369
  0
LINE
  8
_0-4_
  6
CONTINUOUS
 62
    7
 10
2839.1896791032809
 20
1196.0166072187369
 11
2839.1781291032802
 21
1196.0187072187368
  0
LINE
  8
_0-4_
  6
CONTINUOUS
 62
    7
 10
2839.1781291032802
 20
1196.0187072187368
 11
2839.1665791032805
 21
1196.0209572187368
  0
LINE
  8
_0-4_
  6
CONTINUOUS
 62
    7
 10
2839.1665791032805
 20
1196.0209572187368
 11
2839.1547291032802
 21
1196.0232072187368
  0
LINE
  8
_0-4_
  6
CONTINUOUS
 62
    7
 10
2839.1547291032802
 20
1196.0232072187368
 11
2839.1427291032805
 21
1196.0256072187369
  0
LINE
  8
_0-4_
  6
CONTINUOUS
 62
    7
 10
2839.1427291032805
 20
1196.0256072187369
 11
2839.1304291032802
 21
1196.0283072187369
  0
LINE
  8
_0-4_
  6
CONTINUOUS
 62
    7
 10
2839.1304291032802
 20
1196.0283072187369
 11
2839.1175291032805
 21
1196.0310072187369
  0
LINE
  8
_0-4_
  6
CONTINUOUS
 62
    7
 10
2839.1175291032805
 20
1196.0310072187369
 11
2839.1043291032801
 21
1196.0340072187368
  0
LINE
  8
_0-4_
  6
CONTINUOUS
 62
    7
 10
2839.1043291032801
 20
1196.0340072187368
 11
2839.0903791032806
 21
1196.0371572187368
  0
LINE
  8
_0-4_
  6
CONTINUOUS
 62
    7
 10
2839.0903791032806
 20
1196.0371572187368
 11
2839.0758291032807
 21
1196.0406072187367
  0
LINE
  8
_0-4_
  6
CONTINUOUS
 62
    7
 10
2839.0758291032807
 20
1196.0406072187367
 11
2839.0608291032804
 21
1196.0442072187368
  0
LINE
  8
_0-4_
  6
CONTINUOUS
 62
    7
 10
2839.0608291032804
 20
1196.0442072187368
 11
2839.0456791032806
 21
1196.0479572187368
  0
LINE
  8
_0-4_
  6
CONTINUOUS
 62
    7
 10
2839.0456791032806
 20
1196.0479572187368
 11
2839.0306791032808
 21
1196.0518572187368
  0
LINE
  8
_0-4_
  6
CONTINUOUS
 62
    7
 10
2839.0306791032808
 20
1196.0518572187368
 11
2839.0159791032806
 21
1196.0556072187368
  0
LINE
  8
_0-4_
  6
CONTINUOUS
 62
    7
 10
2839.0159791032806
 20
1196.0556072187368
 11
2839.0020291032806
 21
1196.0592072187369
  0
LINE
  8
_0-4_
  6
CONTINUOUS
 62
    7
 10
2839.0020291032806
 20
1196.0592072187369
 11
2838.9888291032812
 21
1196.0626572187368
  0
LINE
  8
_0-4_
  6
CONTINUOUS
 62
    7
 10
2838.9888291032812
 20
1196.0626572187368
 11
2838.9768291032805
 21
1196.0658072187368
  0
LINE
  8
_0-4_
  6
CONTINUOUS
 62
    7
 10
2838.9768291032805
 20
1196.0658072187368
 11
2838.9661791032808
 21
1196.0686572187369
  0
LINE
  8
_0-4_
  6
CONTINUOUS
 62
    7
 10
2838.9661791032808
 20
1196.0686572187369
 11
2838.9567291032808
 21
1196.0712072187368
  0
LINE
  8
_0-4_
  6
CONTINUOUS
 62
    7
 10
2838.9567291032808
 20
1196.0712072187368
 11
2838.9483291032811
 21
1196.0734572187368
  0
LINE
  8
_0-4_
  6
CONTINUOUS
 62
    7
 10
2838.9483291032811
 20
1196.0734572187368
 11
2838.9405291032808
 21
1196.0757072187368
  0
LINE
  8
_0-4_
  6
CONTINUOUS
 62
    7
 10
2838.9405291032808
 20
1196.0757072187368
 11
2838.9334791032806
 21
1196.0778072187367
  0
LINE
  8
_0-4_
  6
CONTINUOUS
 62
    7
 10
2838.9334791032806
 20
1196.0778072187367
 11
2838.9265791032808
 21
1196.0799072187369
  0
LINE
  8
_0-4_
  6
CONTINUOUS
 62
    7
 10
2838.9265791032808
 20
1196.0799072187369
 11
2838.9199791032806
 21
1196.0820072187368
  0
LINE
  8
_0-4_
  6
CONTINUOUS
 62
    7
 10
2838.9199791032806
 20
1196.0820072187368
 11
2838.9130791032807
 21
1196.0842572187368
  0
LINE
  8
_0-4_
  6
CONTINUOUS
 62
    7
 10
2838.9130791032807
 20
1196.0842572187368
 11
2838.906029103281
 21
1196.0868072187367
  0
LINE
  8
_0-4_
  6
CONTINUOUS
 62
    7
 10
2838.906029103281
 20
1196.0868072187367
 11
2838.898829103281
 21
1196.0893572187369
  0
LINE
  8
_0-4_
  6
CONTINUOUS
 62
    7
 10
2838.898829103281
 20
1196.0893572187369
 11
2838.8914791032807
 21
1196.0919072187368
  0
LINE
  8
_0-4_
  6
CONTINUOUS
 62
    7
 10
2838.8914791032807
 20
1196.0919072187368
 11
2838.8841291032804
 21
1196.0946072187368
  0
LINE
  8
_0-4_
  6
CONTINUOUS
 62
    7
 10
2838.8841291032804
 20
1196.0946072187368
 11
2838.8770791032807
 21
1196.0971572187368
  0
LINE
  8
_0-4_
  6
CONTINUOUS
 62
    7
 10
2838.8770791032807
 20
1196.0971572187368
 11
2838.8703291032807
 21
1196.0997072187367
  0
LINE
  8
_0-4_
  6
CONTINUOUS
 62
    7
 10
2838.8703291032807
 20
1196.0997072187367
 11
2838.8638791032803
 21
1196.1021072187368
  0
LINE
  8
_0-4_
  6
CONTINUOUS
 62
    7
 10
2838.8638791032803
 20
1196.1021072187368
 11
2838.8581791032806
 21
1196.1042072187367
  0
LINE
  8
_0-4_
  6
CONTINUOUS
 62
    7
 10
2838.8581791032806
 20
1196.1042072187367
 11
2838.8529291032809
 21
1196.1063072187369
  0
LINE
  8
_0-4_
  6
CONTINUOUS
 62
    7
 10
2838.8529291032809
 20
1196.1063072187369
 11
2838.8484291032809
 21
1196.1081072187369
  0
LINE
  8
_0-4_
  6
CONTINUOUS
 62
    7
 10
2838.8484291032809
 20
1196.1081072187369
 11
2838.8442291032806
 21
1196.1097572187368
  0
LINE
  8
_0-4_
  6
CONTINUOUS
 62
    7
 10
2838.8442291032806
 20
1196.1097572187368
 11
2838.8404791032803
 21
1196.1112572187369
  0
LINE
  8
_0-4_
  6
CONTINUOUS
 62
    7
 10
2838.8404791032803
 20
1196.1112572187369
 11
2838.8368791032803
 21
1196.1127572187367
  0
LINE
  8
_0-4_
  6
CONTINUOUS
 62
    7
 10
2838.8368791032803
 20
1196.1127572187367
 11
2838.8332791032803
 21
1196.1144072187369
  0
LINE
  8
_0-4_
  6
CONTINUOUS
 62
    7
 10
2838.8332791032803
 20
1196.1144072187369
 11
2838.8296791032803
 21
1196.1160572187368
  0
LINE
  8
_0-4_
  6
CONTINUOUS
 62
    7
 10
2838.8296791032803
 20
1196.1160572187368
 11
2838.8259291032809
 21
1196.1178572187368
  0
LINE
  8
_0-4_
  6
CONTINUOUS
 62
    7
 10
2838.8259291032809
 20
1196.1178572187368
 11
2838.8218791032804
 21
1196.1199572187367
  0
LINE
  8
_0-4_
  6
CONTINUOUS
 62
    7
 10
2838.8218791032804
 20
1196.1199572187367
 11
2838.8175291032803
 21
1196.1220572187369
  0
LINE
  8
_0-4_
  6
CONTINUOUS
 62
    7
 10
2838.8175291032803
 20
1196.1220572187369
 11
2838.8130291032803
 21
1196.1243072187369
  0
LINE
  8
_0-4_
  6
CONTINUOUS
 62
    7
 10
2838.8130291032803
 20
1196.1243072187369
 11
2838.8085291032803
 21
1196.1265572187369
  0
LINE
  8
_0-4_
  6
CONTINUOUS
 62
    7
 10
2838.8085291032803
 20
1196.1265572187369
 11
2838.8040291032802
 21
1196.1289572187367
  0
LINE
  8
_0-4_
  6
CONTINUOUS
 62
    7
 10
2838.8040291032802
 20
1196.1289572187367
 11
2838.7995291032802
 21
1196.1313572187368
  0
LINE
  8
_0-4_
  6
CONTINUOUS
 62
    7
 10
2838.7995291032802
 20
1196.1313572187368
 11
2838.7953291032808
 21
1196.1336072187368
  0
LINE
  8
_0-4_
  6
CONTINUOUS
 62
    7
 10
2838.7953291032808
 20
1196.1336072187368
 11
2838.7912791032804
 21
1196.1357072187367
  0
LINE
  8
_0-4_
  6
CONTINUOUS
 62
    7
 10
2838.7912791032804
 20
1196.1357072187367
 11
2838.787529103281
 21
1196.1378072187369
  0
LINE
  8
_0-4_
  6
CONTINUOUS
 62
    7
 10
2838.787529103281
 20
1196.1378072187369
 11
2838.7840791032804
 21
1196.1397572187368
  0
LINE
  8
_0-4_
  6
CONTINUOUS
 62
    7
 10
2838.7840791032804
 20
1196.1397572187368
 11
2838.7809291032808
 21
1196.1415572187368
  0
LINE
  8
_0-4_
  6
CONTINUOUS
 62
    7
 10
2838.7809291032808
 20
1196.1415572187368
 11
2838.778079103281
 21
1196.1433572187368
  0
LINE
  8
_0-4_
  6
CONTINUOUS
 62
    7
 10
2838.778079103281
 20
1196.1433572187368
 11
2838.7752291032807
 21
1196.1451572187368
  0
LINE
  8
_0-4_
  6
CONTINUOUS
 62
    7
 10
2838.7752291032807
 20
1196.1451572187368
 11
2838.772679103281
 21
1196.1469572187368
  0
LINE
  8
_0-4_
  6
CONTINUOUS
 62
    7
 10
2838.772679103281
 20
1196.1469572187368
 11
2838.7702791032806
 21
1196.1487572187368
  0
LINE
  8
_0-4_
  6
CONTINUOUS
 62
    7
 10
2838.7702791032806
 20
1196.1487572187368
 11
2838.7680291032802
 21
1196.1505572187368
  0
LINE
  8
_0-4_
  6
CONTINUOUS
 62
    7
 10
2838.7680291032802
 20
1196.1505572187368
 11
2838.7657791032806
 21
1196.1525072187369
  0
LINE
  8
_0-4_
  6
CONTINUOUS
 62
    7
 10
2838.7657791032806
 20
1196.1525072187369
 11
2838.7636791032809
 21
1196.1546072187368
  0
LINE
  8
_0-4_
  6
CONTINUOUS
 62
    7
 10
2838.7636791032809
 20
1196.1546072187368
 11
2838.7617291032806
 21
1196.1565572187369
  0
LINE
  8
_0-4_
  6
CONTINUOUS
 62
    7
 10
2838.7617291032806
 20
1196.1565572187369
 11
2838.7599291032802
 21
1196.1585072187369
  0
LINE
  8
_0-4_
  6
CONTINUOUS
 62
    7
 10
2838.7599291032802
 20
1196.1585072187369
 11
2838.7582791032809
 21
1196.1604572187368
  0
LINE
  8
_0-4_
  6
CONTINUOUS
 62
    7
 10
2838.7582791032809
 20
1196.1604572187368
 11
2838.7567791032806
 21
1196.1621072187369
  0
LINE
  8
_0-4_
  6
CONTINUOUS
 62
    7
 10
2838.7567791032806
 20
1196.1621072187369
 11
2838.7555791032809
 21
1196.1636072187368
  0
LINE
  8
_0-4_
  6
CONTINUOUS
 62
    7
 10
2838.7555791032809
 20
1196.1636072187368
 11
2838.7519791032809
 21
1196.1681072187368
  0
LINE
  8
_0-4_
  6
CONTINUOUS
 62
    7
 10
2838.7390791032803
 20
1196.1979572187369
 11
2838.7390791032803
 21
1197.9999072187367
  0
LINE
  8
_0-4_
  6
CONTINUOUS
 62
    7
 10
2840.7390291032806
 20
1197.9999072187367
 11
2838.7390791032803
 21
1197.9999072187367
  0
LINE
  8
_0-4_
  6
CONTINUOUS
 62
    7
 10
2840.7390291032806
 20
1194.4962072187367
 11
2840.7390291032806
 21
1196.0008572187368
  0
LINE
  8
_0-4_
  6
CONTINUOUS
 62
    7
 10
2454.0390291032804
 20
1196.199907218737
 11
2454.0390291032804
 21
1194.4999572187366
  0
LINE
  8
_0-4_
  6
CONTINUOUS
 62
    7
 10
2454.0390291032804
 20
1196.199907218737
 11
2834.8545291032805
 21
1196.199907218737
  0
LINE
  8
_0-4_
  6
CONTINUOUS
 62
    7
 10
2509.0770291032804
 20
1271.7481572187368
 11
2458.7973291032803
 21
1274.3832072187367
  0
LINE
  8
_0-4_
  6
CONTINUOUS
 62
    7
 10
2513.6391291032805
 20
1271.6286072187367
 11
2825.5390791032805
 21
1271.6286072187367
  0
LINE
  8
_0-4_
  6
CONTINUOUS
 62
    7
 10
2834.8545291032805
 20
1195.9999572187368
 11
2834.8545291032805
 21
1196.199907218737
  0
LINE
  8
_0-4_
  6
CONTINUOUS
 62
    7
 10
2454.0390291032804
 20
1199.499907218737
 11
2454.0390291032804
 21
1196.199907218737
  0
LINE
  8
_0-4_
  6
CONTINUOUS
 62
    7
 10
2453.5390791032805
 20
1199.9998572187369
 11
2454.0390291032804
 21
1199.499907218737
  0
LINE
  8
_0-4_
  6
CONTINUOUS
 62
    7
 10
2453.5390791032805
 20
1225.9999572187368
 11
2453.5390791032805
 21
1199.9998572187369
  0
LINE
  8
_0-4_
  6
CONTINUOUS
 62
    7
 10
2465.2548291032808
 20
1228.9999572187368
 11
2456.5390791032805
 21
1228.9999572187368
  0
LINE
  8
_0-4_
  6
CONTINUOUS
 62
    7
 10
2478.7390791032803
 20
1233.7498572187369
 11
2471.1232791032803
 21
1233.7498572187369
  0
LINE
  8
_0-4_
  6
CONTINUOUS
 62
    7
 10
2479.2390291032806
 20
1233.6159072187367
 11
2479.2390291032806
 21
1224.4999572187366
  0
LINE
  8
_0-4_
  6
CONTINUOUS
 62
    7
 10
2485.0390791032805
 20
1224.4999572187366
 11
2479.2390291032806
 21
1224.4999572187366
  0
LINE
  8
_0-4_
  6
CONTINUOUS
 62
    7
 10
2485.2390291032806
 20
1251.2998572187368
 11
2485.2390291032806
 21
1224.6999072187368
  0
LINE
  8
_0-4_
  6
CONTINUOUS
 62
    7
 10
2479.2390291032806
 20
1251.4999572187368
 11
2485.0390791032805
 21
1251.4999572187368
  0
LINE
  8
_0-4_
  6
CONTINUOUS
 62
    7
 10
2479.2390291032806
 20
1251.4999572187368
 11
2479.2390291032806
 21
1242.3838572187369
  0
LINE
  8
_0-4_
  6
CONTINUOUS
 62
    7
 10
2471.1232791032803
 20
1242.2499072187367
 11
2478.7390791032803
 21
1242.2499072187367
  0
LINE
  8
_0-4_
  6
CONTINUOUS
 62
    7
 10
2456.5390791032805
 20
1246.9999572187366
 11
2465.2548291032808
 21
1246.9999572187366
  0
LINE
  8
_0-4_
  6
CONTINUOUS
 62
    7
 10
2453.5390791032805
 20
1271.499907218737
 11
2453.5390791032805
 21
1249.9999572187371
  0
LINE
  8
_0-4_
  6
CONTINUOUS
 62
    7
 10
2454.0390291032804
 20
1271.499907218737
 11
2453.5390791032805
 21
1271.499907218737
  0
LINE
  8
_0-4_
  6
CONTINUOUS
 62
    7
 10
2834.8545291032805
 20
1195.9999572187368
 11
2838.7390791032803
 21
1195.9999572187368
  0
LINE
  8
_0-4_
  6
CONTINUOUS
 62
    7
 10
2838.7390791032803
 20
1195.9999572187368
 11
2839.2817791032803
 21
1195.9999572187368
  0
LINE
  8
_0-4_
  6
CONTINUOUS
 62
    7
 10
2831.5390791032805
 20
1281.7999572187368
 11
2836.23242910328
 21
1281.7999572187368
  0
LINE
  8
_0-4_
  6
CONTINUOUS
 62
    7
 10
2454.0390291032804
 20
1273.0681572187368
 11
2454.0390291032804
 21
1271.499907218737
  0
LINE
  8
_0-4_
  6
CONTINUOUS
 62
    7
 10
2513.6391291032805
 20
1271.6286072187367
 11
2513.6391291032805
 21
1271.7603072187368
  0
LINE
  8
_0-4_
  6
CONTINUOUS
 62
    7
 10
2825.5390791032805
 20
1271.6286072187367
 11
2825.5390791032805
 21
1271.7603072187368
  0
LINE
  8
_0-4_
  6
CONTINUOUS
 62
    7
 10
2509.0770291032804
 20
1271.7481572187368
 11
2509.0839291032802
 21
1271.8795572187368
  0
LINE
  8
_0-4_
  6
CONTINUOUS
 62
    7
 10
2479.7389791032805
 20
1243.2499572187366
 11
2479.7389791032805
 21
1251.2998572187368
  0
LINE
  8
_0-4_
  6
CONTINUOUS
 62
    7
 10
2479.7389791032805
 20
1224.6999072187368
 11
2479.7389791032805
 21
1232.7499572187368
  0
LINE
  8
_0-4_
  6
CONTINUOUS
 62
    7
 10
2451.5389791032803
 20
1195.9999572187368
 11
2451.5389791032803
 21
1194.999907218737
  0
LINE
  8
_0-4_
  6
CONTINUOUS
 62
    7
 10
2451.5389791032803
 20
1194.999907218737
 11
2454.0390291032804
 21
1194.999907218737
  0
LINE
  8
_0-4_
  6
CONTINUOUS
 62
    7
 10
2454.0390291032804
 20
1195.9999572187368
 11
2451.5389791032803
 21
1195.9999572187368
  0
LINE
  8
_0-4_
  6
CONTINUOUS
 62
    7
 10
2850.4518291032809
 20
1195.9999572187368
 11
2850.4518291032809
 21
1270.2333072187368
  0
LINE
  8
_0-4_
  6
CONTINUOUS
 62
    7
 10
2850.4518291032809
 20
1277.3665572187369
 11
2850.4518291032809
 21
1281.7999572187368
  0
LINE
  8
_0-4_
  6
CONTINUOUS
 62
    7
 10
2841.5389791032803
 20
1273.7998572187368
 11
2841.5389791032803
 21
1274.2999572187368
  0
LINE
  8
_0-4_
  6
CONTINUOUS
 62
    7
 10
2841.5389791032803
 20
1273.7998572187368
 11
2841.0390291032808
 21
1273.7998572187368
  0
LINE
  8
_0-4_
  6
CONTINUOUS
 62
    7
 10
2841.5389791032803
 20
1273.7998572187368
 11
2841.5389791032803
 21
1273.2999072187367
  0
LINE
  8
_0-4_
  6
CONTINUOUS
 62
    7
 10
2841.5389791032803
 20
1273.7998572187368
 11
2842.0390791032809
 21
1273.7998572187368
  0
LINE
  8
_0-4_
  6
CONTINUOUS
 62
    7
 10
2841.5389791032803
 20
1274.7999072187369
 11
2841.5389791032803
 21
1283.8999572187367
  0
LINE
  8
_0-4_
  6
CONTINUOUS
 62
    7
 10
2840.5390791032805
 20
1273.7998572187368
 11
2831.4390291032805
 21
1273.7998572187368
  0
LINE
  8
_0-4_
  6
CONTINUOUS
 62
    7
 10
2841.5389791032803
 20
1272.7999572187368
 11
2841.5389791032803
 21
1263.6999072187368
  0
LINE
  8
_0-4_
  6
CONTINUOUS
 62
    7
 10
2842.5390291032808
 20
1273.7998572187368
 11
2851.6390791032799
 21
1273.7998572187368
  0
LINE
  8
_0-4_
  6
CENTER2
 62
    7
 10
2492.5309791032805
 20
1237.9999572187368
 11
2467.3732791032803
 21
1237.9999572187368
  0
ARC
  8
_0-4_
  6
CONTINUOUS
 62
    7
 10
2513.6391291032805
 20
1358.7999072187369
 40
87.039600000000021
 50
267
 51
270.00000000000005
  0
CIRCLE
  8
_0-4_
  6
CONTINUOUS
 62
    7
 10
2841.5389791032803
 20
1273.7998572187368
 40
9.6000000000000014
  0
ARC
  8
_0-4_
  6
CONTINUOUS
 62
    7
 10
2513.6391291032805
 20
1358.7999072187369
 40
87.171300000000002
 50
267
 51
270.00000000000005
  0
ARC
  8
_0-4_
  6
CONTINUOUS
 62
    7
 10
2827.6690791032806
 20
1280.599957218737
 40
1.9999500000000003
 50
270.00000000000005
 51
348.47200000000003
  0
ARC
  8
_0-4_
  6
CONTINUOUS
 62
    7
 10
2831.5884291032807
 20
1279.8004572187367
 40
1.9999500000000003
 50
91.413000000000025
 51
168.47200000000003
  0
ARC
  8
_0-4_
  6
CONTINUOUS
 62
    7
 10
2456.5390791032805
 20
1225.9999572187368
 40
3.0000000000000004
 50
90.000000000000028
 51
180.00000000000005
  0
ARC
  8
_0-4_
  6
CONTINUOUS
 62
    7
 10
2465.2548291032808
 20
1231.9999572187366
 40
3.0000000000000004
 50
270.00000000000005
 51
347.97500000000007
  0
ARC
  8
_0-4_
  6
CONTINUOUS
 62
    7
 10
2471.1232791032803
 20
1230.7498572187369
 40
3.0000000000000004
 50
90.000000000000028
 51
167.97500000000002
  0
ARC
  8
_0-4_
  6
CONTINUOUS
 62
    7
 10
2478.7390791032803
 20
1232.7499572187368
 40
1.0000500000000001
 50
60.000000000000007
 51
90.000000000000014
  0
ARC
  8
_0-4_
  6
CONTINUOUS
 62
    7
 10
2485.0390791032805
 20
1224.6999072187368
 40
0.19995
 50
270.00000000000005
 51
0.0000000000000763
  0
ARC
  8
_0-4_
  6
CONTINUOUS
 62
    7
 10
2485.0390791032805
 20
1251.2998572187368
 40
0.19995
 50
0
 51
90.000000000000028
  0
ARC
  8
_0-4_
  6
CONTINUOUS
 62
    7
 10
2478.7390791032803
 20
1243.2499572187366
 40
1.0000500000000001
 50
270.00000000000005
 51
300.00000000000005
  0
ARC
  8
_0-4_
  6
CONTINUOUS
 62
    7
 10
2471.1232791032803
 20
1245.249907218737
 40
3.0000000000000004
 50
192.02500000000003
 51
270.00000000000005
  0
ARC
  8
_0-4_
  6
CONTINUOUS
 62
    7
 10
2465.2548291032808
 20
1243.9999572187368
 40
3.0000000000000004
 50
12.025000000000002
 51
90.000000000000014
  0
ARC
  8
_0-4_
  6
CONTINUOUS
 62
    7
 10
2456.5390791032805
 20
1249.9999572187371
 40
3.0000000000000004
 50
180.00000000000005
 51
270.00000000000005
  0
ARC
  8
_0-4_
  6
CONTINUOUS
 62
    7
 10
2479.9390791032806
 20
1251.2998572187368
 40
0.19995
 50
90.000000000000028
 51
180.00000000000005
  0
ARC
  8
_0-4_
  6
CONTINUOUS
 62
    7
 10
2478.7390791032803
 20
1243.2499572187366
 40
1.0000500000000001
 50
300.00000000000005
 51
0.0000000000000763
  0
ARC
  8
_0-4_
  6
CONTINUOUS
 62
    7
 10
2479.9390791032806
 20
1224.6999072187368
 40
0.19995
 50
180.00000000000005
 51
270.00000000000005
  0
ARC
  8
_0-4_
  6
CONTINUOUS
 62
    7
 10
2478.7390791032803
 20
1232.7499572187368
 40
1.0000500000000001
 50
0
 51
60.000000000000007
  0
LINE
  8
_0-4_
  6
CONTINUOUS
 62
    7
 10
2458.1367791032807
 20
1051.3622000000004
 11
2458.1449791032805
 21
1051.1282000000005
  0
LINE
  8
_0-4_
  6
CONTINUOUS
 62
    7
 10
2458.1449791032805
 20
1051.1282000000005
 11
2458.1527791032808
 21
1050.9032000000006
  0
LINE
  8
_0-4_
  6
CONTINUOUS
 62
    7
 10
2458.1527791032808
 20
1050.9032000000006
 11
2458.160079103281
 21
1050.6959000000006
  0
LINE
  8
_0-4_
  6
CONTINUOUS
 62
    7
 10
2458.160079103281
 20
1050.6959000000006
 11
2458.166379103281
 21
1050.5142000000005
  0
LINE
  8
_0-4_
  6
CONTINUOUS
 62
    7
 10
2458.166379103281
 20
1050.5142000000005
 11
2458.1715791032811
 21
1050.3650000000006
  0
LINE
  8
_0-4_
  6
CONTINUOUS
 62
    7
 10
2458.1715791032811
 20
1050.3650000000006
 11
2458.1754791032808
 21
1050.2542000000005
  0
LINE
  8
_0-4_
  6
CONTINUOUS
 62
    7
 10
2458.1754791032808
 20
1050.2542000000005
 11
2458.1778791032811
 21
1050.1859000000008
  0
LINE
  8
_0-4_
  6
CONTINUOUS
 62
    7
 10
2458.1778791032811
 20
1050.1859000000008
 11
2458.1786791032809
 21
1050.1629000000004
  0
LINE
  8
_0-4_
  6
CONTINUOUS
 62
    7
 10
2454.0390791032809
 20
1054.1605000000006
 11
2455.2390791032808
 21
1054.1605000000006
  0
LINE
  8
_0-4_
  6
CONTINUOUS
 62
    7
 10
2454.0390791032809
 20
1054.1605000000006
 11
2454.0390791032809
 21
1077.8395000000004
  0
LINE
  8
_0-4_
  6
CONTINUOUS
 62
    7
 10
2454.0390791032809
 20
1077.8395000000004
 11
2455.2390791032808
 21
1077.8395000000004
  0
LINE
  8
_0-4_
  6
CONTINUOUS
 62
    7
 10
2455.2390791032808
 20
1077.8395000000004
 11
2455.2390791032808
 21
1054.1605000000006
  0
LINE
  8
_0-4_
  6
CONTINUOUS
 62
    7
 10
2458.1786791032809
 20
1081.8370000000006
 11
2458.1778791032811
 21
1081.8140000000005
  0
LINE
  8
_0-4_
  6
CONTINUOUS
 62
    7
 10
2458.1778791032811
 20
1081.8140000000005
 11
2458.1754791032808
 21
1081.7457000000008
  0
LINE
  8
_0-4_
  6
CONTINUOUS
 62
    7
 10
2458.1754791032808
 20
1081.7457000000008
 11
2458.1715791032811
 21
1081.6349000000004
  0
LINE
  8
_0-4_
  6
CONTINUOUS
 62
    7
 10
2458.1715791032811
 20
1081.6349000000004
 11
2458.166379103281
 21
1081.4858000000006
  0
LINE
  8
_0-4_
  6
CONTINUOUS
 62
    7
 10
2458.166379103281
 20
1081.4858000000006
 11
2458.160079103281
 21
1081.3040000000005
  0
LINE
  8
_0-4_
  6
CONTINUOUS
 62
    7
 10
2458.160079103281
 20
1081.3040000000005
 11
2458.1527791032808
 21
1081.0967000000007
  0
LINE
  8
_0-4_
  6
CONTINUOUS
 62
    7
 10
2458.1527791032808
 20
1081.0967000000007
 11
2458.1449791032805
 21
1080.8717000000006
  0
LINE
  8
_0-4_
  6
CONTINUOUS
 62
    7
 10
2458.1449791032805
 20
1080.8717000000006
 11
2458.1367791032807
 21
1080.6378000000006
  0
LINE
  8
_0-4_
  6
CONTINUOUS
 62
    7
 10
2458.1367791032807
 20
1051.3622000000004
 11
2482.758779103281
 21
1052.2220000000006
  0
LINE
  8
_0-4_
  6
CONTINUOUS
 62
    7
 10
2482.758779103281
 20
1079.7779000000004
 11
2458.1367791032807
 21
1080.6378000000006
  0
LINE
  8
_0-4_
  6
CONTINUOUS
 62
    7
 10
2458.1786791032809
 20
1081.8370000000006
 11
2482.8006791032807
 21
1080.9772000000004
  0
LINE
  8
_0-4_
  6
CONTINUOUS
 62
    7
 10
2482.8006791032807
 20
1080.9772000000004
 11
2482.799879103281
 21
1080.9542000000005
  0
LINE
  8
_0-4_
  6
CONTINUOUS
 62
    7
 10
2482.799879103281
 20
1080.9542000000005
 11
2482.7974791032811
 21
1080.8859000000006
  0
LINE
  8
_0-4_
  6
CONTINUOUS
 62
    7
 10
2482.7974791032811
 20
1080.8859000000006
 11
2482.7935791032809
 21
1080.7751000000007
  0
LINE
  8
_0-4_
  6
CONTINUOUS
 62
    7
 10
2482.7935791032809
 20
1080.7751000000007
 11
2482.7883791032809
 21
1080.6260000000006
  0
LINE
  8
_0-4_
  6
CONTINUOUS
 62
    7
 10
2482.7883791032809
 20
1080.6260000000006
 11
2482.7820791032809
 21
1080.4442000000005
  0
LINE
  8
_0-4_
  6
CONTINUOUS
 62
    7
 10
2482.7820791032809
 20
1080.4442000000005
 11
2482.7747791032807
 21
1080.2369000000005
  0
LINE
  8
_0-4_
  6
CONTINUOUS
 62
    7
 10
2482.7747791032807
 20
1080.2369000000005
 11
2482.7669791032808
 21
1080.0119000000006
  0
LINE
  8
_0-4_
  6
CONTINUOUS
 62
    7
 10
2482.7669791032808
 20
1080.0119000000006
 11
2482.758779103281
 21
1079.7779000000004
  0
LINE
  8
_0-4_
  6
CONTINUOUS
 62
    7
 10
2482.758779103281
 20
1052.2220000000006
 11
2482.7669791032808
 21
1051.9880000000007
  0
LINE
  8
_0-4_
  6
CONTINUOUS
 62
    7
 10
2482.7669791032808
 20
1051.9880000000007
 11
2482.7747791032807
 21
1051.7631000000005
  0
LINE
  8
_0-4_
  6
CONTINUOUS
 62
    7
 10
2482.7747791032807
 20
1051.7631000000005
 11
2482.7820791032809
 21
1051.5557000000007
  0
LINE
  8
_0-4_
  6
CONTINUOUS
 62
    7
 10
2482.7820791032809
 20
1051.5557000000007
 11
2482.7883791032809
 21
1051.3740000000007
  0
LINE
  8
_0-4_
  6
CONTINUOUS
 62
    7
 10
2482.7883791032809
 20
1051.3740000000007
 11
2482.7935791032809
 21
1051.2248000000004
  0
LINE
  8
_0-4_
  6
CONTINUOUS
 62
    7
 10
2482.7935791032809
 20
1051.2248000000004
 11
2482.7974791032811
 21
1051.1140000000004
  0
LINE
  8
_0-4_
  6
CONTINUOUS
 62
    7
 10
2482.7974791032811
 20
1051.1140000000004
 11
2482.799879103281
 21
1051.0458000000005
  0
LINE
  8
_0-4_
  6
CONTINUOUS
 62
    7
 10
2482.799879103281
 20
1051.0458000000005
 11
2482.8006791032807
 21
1051.0227000000006
  0
LINE
  8
_0-4_
  6
CONTINUOUS
 62
    7
 10
2482.8006791032807
 20
1051.0227000000006
 11
2458.1786791032809
 21
1050.1629000000004
  0
LINE
  8
_0-4_
  6
CONTINUOUS
 62
    7
 10
2487.7646791032807
 20
1056.4485000000008
 11
2487.9939791032807
 21
1056.4012000000004
  0
LINE
  8
_0-4_
  6
CONTINUOUS
 62
    7
 10
2487.9939791032807
 20
1056.4012000000004
 11
2488.2143791032808
 21
1056.3558000000007
  0
LINE
  8
_0-4_
  6
CONTINUOUS
 62
    7
 10
2488.2143791032808
 20
1056.3558000000007
 11
2488.4175791032807
 21
1056.3139000000005
  0
LINE
  8
_0-4_
  6
CONTINUOUS
 62
    7
 10
2488.4175791032807
 20
1056.3139000000005
 11
2488.5956791032808
 21
1056.2772000000006
  0
LINE
  8
_0-4_
  6
CONTINUOUS
 62
    7
 10
2488.5956791032808
 20
1056.2772000000006
 11
2488.741879103281
 21
1056.2470000000007
  0
LINE
  8
_0-4_
  6
CONTINUOUS
 62
    7
 10
2488.741879103281
 20
1056.2470000000007
 11
2488.850479103281
 21
1056.2246000000006
  0
LINE
  8
_0-4_
  6
CONTINUOUS
 62
    7
 10
2488.850479103281
 20
1056.2246000000006
 11
2488.9173791032808
 21
1056.2109000000004
  0
LINE
  8
_0-4_
  6
CONTINUOUS
 62
    7
 10
2488.9173791032808
 20
1056.2109000000004
 11
2488.9398791032808
 21
1056.2062000000005
  0
LINE
  8
_0-4_
  6
CONTINUOUS
 62
    7
 10
2487.7646791032807
 20
1075.5514000000007
 11
2487.9939791032807
 21
1075.5987000000006
  0
LINE
  8
_0-4_
  6
CONTINUOUS
 62
    7
 10
2487.9939791032807
 20
1075.5987000000006
 11
2488.2143791032808
 21
1075.6442000000006
  0
LINE
  8
_0-4_
  6
CONTINUOUS
 62
    7
 10
2488.2143791032808
 20
1075.6442000000006
 11
2488.4175791032807
 21
1075.6860000000006
  0
LINE
  8
_0-4_
  6
CONTINUOUS
 62
    7
 10
2488.4175791032807
 20
1075.6860000000006
 11
2488.5956791032808
 21
1075.7228000000004
  0
LINE
  8
_0-4_
  6
CONTINUOUS
 62
    7
 10
2488.5956791032808
 20
1075.7228000000004
 11
2488.741879103281
 21
1075.7529000000004
  0
LINE
  8
_0-4_
  6
CONTINUOUS
 62
    7
 10
2488.741879103281
 20
1075.7529000000004
 11
2488.850479103281
 21
1075.7753000000004
  0
LINE
  8
_0-4_
  6
CONTINUOUS
 62
    7
 10
2488.850479103281
 20
1075.7753000000004
 11
2488.9173791032808
 21
1075.7891000000006
  0
LINE
  8
_0-4_
  6
CONTINUOUS
 62
    7
 10
2488.9173791032808
 20
1075.7891000000006
 11
2488.9398791032808
 21
1075.7937000000006
  0
LINE
  8
_0-4_
  6
CONTINUOUS
 62
    7
 10
2452.5390791032809
 20
1085.7500000000006
 11
2452.5390791032809
 21
1083.5349000000007
  0
LINE
  8
_0-4_
  6
CONTINUOUS
 62
    7
 10
2452.5390791032809
 20
1083.5000000000009
 11
2451.7390791032808
 21
1083.5000000000009
  0
LINE
  8
_0-4_
  6
CONTINUOUS
 62
    7
 10
2451.7390791032808
 20
1085.7500000000006
 11
2451.7390791032808
 21
1083.5000000000009
  0
LINE
  8
_0-4_
  6
CONTINUOUS
 62
    7
 10
2452.5390791032809
 20
1085.7500000000006
 11
2451.7390791032808
 21
1085.7500000000006
  0
LINE
  8
_0-4_
  6
CONTINUOUS
 62
    7
 10
2450.5390791032809
 20
1083.1366000000004
 11
2450.5390791032809
 21
1085.3866000000007
  0
LINE
  8
_0-4_
  6
CONTINUOUS
 62
    7
 10
2451.7390791032808
 20
1083.5000000000009
 11
2451.7390791032808
 21
1048.5000000000009
  0
LINE
  8
_0-4_
  6
CONTINUOUS
 62
    7
 10
2450.5390791032809
 20
1048.8633000000006
 11
2450.5390791032809
 21
1083.1366000000004
  0
LINE
  8
_0-4_
  6
CONTINUOUS
 62
    7
 10
2451.7390791032808
 20
1048.5000000000009
 11
2451.7390791032808
 21
1046.2500000000004
  0
LINE
  8
_0-4_
  6
CONTINUOUS
 62
    7
 10
2450.5390791032809
 20
1046.6133000000008
 11
2450.5390791032809
 21
1048.8633000000006
  0
LINE
  8
_0-4_
  6
CONTINUOUS
 62
    7
 10
2452.5390791032809
 20
1048.4650000000006
 11
2482.852979103281
 21
1049.5236000000004
  0
LINE
  8
_0-4_
  6
CONTINUOUS
 62
    7
 10
2452.5390791032809
 20
1048.5000000000009
 11
2452.5390791032809
 21
1048.4650000000006
  0
LINE
  8
_0-4_
  6
CONTINUOUS
 62
    7
 10
2452.5390791032809
 20
1048.5000000000009
 11
2451.7390791032808
 21
1048.5000000000009
  0
LINE
  8
_0-4_
  6
CONTINUOUS
 62
    7
 10
2482.852979103281
 20
1082.4763000000007
 11
2452.5390791032809
 21
1083.5349000000007
  0
LINE
  8
_0-4_
  6
CONTINUOUS
 62
    7
 10
2452.5390791032809
 20
1083.5349000000007
 11
2452.5390791032809
 21
1083.5000000000009
  0
LINE
  8
_0-4_
  6
CONTINUOUS
 62
    7
 10
2452.5390791032809
 20
1048.4650000000006
 11
2452.5390791032809
 21
1046.2500000000004
  0
LINE
  8
_0-4_
  6
CONTINUOUS
 62
    7
 10
2452.5390791032809
 20
1046.2500000000004
 11
2451.7390791032808
 21
1046.2500000000004
  0
LINE
  8
_0-4_
  6
CONTINUOUS
 62
    7
 10
2451.7390791032808
 20
1092.0383000000006
 11
2451.7390791032808
 21
1085.7500000000006
  0
LINE
  8
_0-4_
  6
CONTINUOUS
 62
    7
 10
2451.7390791032808
 20
1092.0383000000006
 11
2450.5390791032809
 21
1092.0383000000006
  0
LINE
  8
_0-4_
  6
CONTINUOUS
 62
    7
 10
2450.5390791032809
 20
1085.3866000000007
 11
2450.5390791032809
 21
1092.0383000000006
  0
LINE
  8
_0-4_
  6
CONTINUOUS
 62
    7
 10
2451.7390791032808
 20
1026.2500000000004
 11
2451.7390791032808
 21
1023.2500000000005
  0
LINE
  8
_0-4_
  6
CONTINUOUS
 62
    7
 10
2451.7390791032808
 20
1026.2500000000004
 11
2450.5390791032809
 21
1026.2500000000004
  0
LINE
  8
_0-4_
  6
CONTINUOUS
 62
    7
 10
2450.5390791032809
 20
1024.4500000000005
 11
2450.5390791032809
 21
1026.2500000000004
  0
LINE
  8
_0-4_
  6
CONTINUOUS
 62
    7
 10
2451.7390791032808
 20
1108.7500000000004
 11
2451.7390791032808
 21
1105.7500000000006
  0
LINE
  8
_0-4_
  6
CONTINUOUS
 62
    7
 10
2451.7390791032808
 20
1105.7500000000006
 11
2450.5390791032809
 21
1105.7500000000006
  0
LINE
  8
_0-4_
  6
CONTINUOUS
 62
    7
 10
2450.5390791032809
 20
1105.7500000000006
 11
2450.5390791032809
 21
1107.5500000000006
  0
LINE
  8
_0-4_
  6
CONTINUOUS
 62
    7
 10
2451.7390791032808
 20
1046.2500000000004
 11
2451.7390791032808
 21
1039.7835000000006
  0
LINE
  8
_0-4_
  6
CONTINUOUS
 62
    7
 10
2450.5390791032809
 20
1039.7835000000006
 11
2451.7390791032808
 21
1039.7835000000006
  0
LINE
  8
_0-4_
  6
CONTINUOUS
 62
    7
 10
2450.5390791032809
 20
1039.7835000000006
 11
2450.5390791032809
 21
1046.6133000000008
  0
LINE
  8
_0-4_
  6
CONTINUOUS
 62
    7
 10
2451.7390791032808
 20
1039.7835000000006
 11
2451.7390791032808
 21
1026.2500000000004
  0
LINE
  8
_0-4_
  6
CONTINUOUS
 62
    7
 10
2450.5390791032809
 20
1026.2500000000004
 11
2450.5390791032809
 21
1039.7835000000006
  0
LINE
  8
_0-4_
  6
CONTINUOUS
 62
    7
 10
2451.7390791032808
 20
1105.7500000000006
 11
2451.7390791032808
 21
1092.0383000000006
  0
LINE
  8
_0-4_
  6
CONTINUOUS
 62
    7
 10
2450.5390791032809
 20
1092.0383000000006
 11
2450.5390791032809
 21
1105.7500000000006
  0
LINE
  8
_0-4_
  6
CONTINUOUS
 62
    7
 10
2452.5390791032809
 20
1023.2500000000005
 11
2451.7390791032808
 21
1023.2500000000005
  0
LINE
  8
_0-4_
  6
CONTINUOUS
 62
    7
 10
2451.7390791032808
 20
1026.2500000000004
 11
2452.5390791032809
 21
1026.2500000000004
  0
LINE
  8
_0-4_
  6
CONTINUOUS
 62
    7
 10
2452.5390791032809
 20
1026.2500000000004
 11
2452.5390791032809
 21
1023.2500000000005
  0
LINE
  8
_0-4_
  6
CONTINUOUS
 62
    7
 10
2452.5390791032809
 20
1105.7500000000006
 11
2451.7390791032808
 21
1105.7500000000006
  0
LINE
  8
_0-4_
  6
CONTINUOUS
 62
    7
 10
2451.7390791032808
 20
1108.7500000000004
 11
2452.5390791032809
 21
1108.7500000000004
  0
LINE
  8
_0-4_
  6
CONTINUOUS
 62
    7
 10
2452.5390791032809
 20
1108.7500000000004
 11
2452.5390791032809
 21
1105.7500000000006
  0
LINE
  8
_0-4_
  6
CONTINUOUS
 62
    7
 10
2452.5390791032809
 20
1105.7500000000006
 11
2452.5390791032809
 21
1085.7500000000006
  0
LINE
  8
_0-4_
  6
CONTINUOUS
 62
    7
 10
2452.5390791032809
 20
1046.2500000000004
 11
2452.5390791032809
 21
1026.2500000000004
  0
LINE
  8
_0-4_
  6
CONTINUOUS
 62
    7
 10
2482.8500791032811
 20
1082.4904000000005
 11
2452.5390791032809
 21
1083.5489000000006
  0
LINE
  8
_0-4_
  6
CONTINUOUS
 62
    7
 10
2452.5390791032809
 20
1048.4511000000006
 11
2482.8500791032811
 21
1049.5096000000007
  0
ARC
  8
_0-4_
  6
CONTINUOUS
 62
    7
 10
2458.0390791032809
 20
1054.1605000000006
 40
2.7999999999999998
 50
180.00000000000005
 51
272.00000000000005
  0
ARC
  8
_0-4_
  6
CONTINUOUS
 62
    7
 10
2458.0390791032809
 20
1054.1605000000006
 40
4
 50
180.00000000000005
 51
272.00000000000005
  0
ARC
  8
_0-4_
  6
CONTINUOUS
 62
    7
 10
2458.0390791032809
 20
1077.8395000000004
 40
4
 50
88.000000000000028
 51
180.00000000000005
  0
ARC
  8
_0-4_
  6
CONTINUOUS
 62
    7
 10
2458.0390791032809
 20
1077.8395000000004
 40
2.7999999999999998
 50
88.000000000000028
 51
180.00000000000005
  0
ARC
  8
_0-4_
  6
CONTINUOUS
 62
    7
 10
2482.5737791032806
 20
1057.5188000000005
 40
5.3000000000000015
 50
272.00000000000011
 51
348.35000000000013
  0
ARC
  8
_0-4_
  6
CONTINUOUS
 62
    7
 10
2482.5737791032806
 20
1074.4812000000006
 40
5.3000000000000015
 50
11.650000000000002
 51
88.000000000000014
  0
ARC
  8
_0-4_
  6
CONTINUOUS
 62
    7
 10
2441.439079103281
 20
1066.0000000000009
 40
47.299999999999997
 50
348.35000000000013
 51
11.650000000000073
  0
ARC
  8
_0-4_
  6
CONTINUOUS
 62
    7
 10
2482.5737791032806
 20
1057.5188000000005
 40
6.5
 50
272.00000000000011
 51
348.35000000000013
  0
ARC
  8
_0-4_
  6
CONTINUOUS
 62
    7
 10
2482.5737791032806
 20
1074.4812000000006
 40
6.5
 50
11.650000000000002
 51
88.000000000000014
  0
ARC
  8
_0-4_
  6
CONTINUOUS
 62
    7
 10
2441.439079103281
 20
1066.0000000000009
 40
48.500000000000014
 50
348.35000000000013
 51
11.650000000000073
  0
LINE
  8
_0-4_
  6
CONTINUOUS
 62
    7
 10
2451.7390791032867
 20
1083.4999307652406
 11
2451.7390791032867
 21
1083.4999307652406
  0
LINE
  8
_0-4_
  6
CONTINUOUS
 62
    7
 10
2451.7390791032867
 20
1083.4999307652406
 11
2451.5307012900866
 21
1083.4944109545169
  0
LINE
  8
_0-4_
  6
CONTINUOUS
 62
    7
 10
2451.5307012900866
 20
1083.4944109545169
 11
2451.3286549312956
 21
1083.4780192390016
  0
LINE
  8
_0-4_
  6
CONTINUOUS
 62
    7
 10
2451.3286549312956
 20
1083.4780192390016
 11
2451.1390791032858
 21
1083.4512536726756
  0
LINE
  8
_0-4_
  6
CONTINUOUS
 62
    7
 10
2451.1390791032858
 20
1083.4512536726756
 11
2450.9677339716618
 21
1083.4149275137278
  0
LINE
  8
_0-4_
  6
CONTINUOUS
 62
    7
 10
2450.9677339716618
 20
1083.4149275137278
 11
2450.8198257715421
 21
1083.3701445141161
  0
LINE
  8
_0-4_
  6
CONTINUOUS
 62
    7
 10
2450.8198257715421
 20
1083.3701445141161
 11
2450.6998486187426
 21
1083.318265382622
  0
LINE
  8
_0-4_
  6
CONTINUOUS
 62
    7
 10
2450.6998486187426
 20
1083.318265382622
 11
2450.6114479583397
 21
1083.2608664404042
  0
LINE
  8
_0-4_
  6
CONTINUOUS
 62
    7
 10
2450.6114479583397
 20
1083.2608664404042
 11
2450.5573097996671
 21
1083.1996917252765
  0
LINE
  8
_0-4_
  6
CONTINUOUS
 62
    7
 10
2450.5573097996671
 20
1083.1996917252765
 11
2450.5390791032809
 21
1083.1366000000041
  0
LINE
  8
_0-4_
  6
CONTINUOUS
 62
    7
 10
2451.7390791032867
 20
1085.7499307652408
 11
2451.7390791032867
 21
1085.7499307652408
  0
LINE
  8
_0-4_
  6
CONTINUOUS
 62
    7
 10
2451.7390791032867
 20
1085.7499307652408
 11
2451.5307012900866
 21
1085.7444109545172
  0
LINE
  8
_0-4_
  6
CONTINUOUS
 62
    7
 10
2451.5307012900866
 20
1085.7444109545172
 11
2451.3286549312956
 21
1085.7280192390019
  0
LINE
  8
_0-4_
  6
CONTINUOUS
 62
    7
 10
2451.3286549312956
 20
1085.7280192390019
 11
2451.1390791032858
 21
1085.7012536726758
  0
LINE
  8
_0-4_
  6
CONTINUOUS
 62
    7
 10
2451.1390791032858
 20
1085.7012536726758
 11
2450.9677339716618
 21
1085.6649275137281
  0
LINE
  8
_0-4_
  6
CONTINUOUS
 62
    7
 10
2450.9677339716618
 20
1085.6649275137281
 11
2450.8198257715421
 21
1085.6201445141164
  0
LINE
  8
_0-4_
  6
CONTINUOUS
 62
    7
 10
2450.8198257715421
 20
1085.6201445141164
 11
2450.6998486187426
 21
1085.5682653826222
  0
LINE
  8
_0-4_
  6
CONTINUOUS
 62
    7
 10
2450.6998486187426
 20
1085.5682653826222
 11
2450.6114479583397
 21
1085.5108664404044
  0
LINE
  8
_0-4_
  6
CONTINUOUS
 62
    7
 10
2450.6114479583397
 20
1085.5108664404044
 11
2450.5573097996671
 21
1085.4496917252768
  0
LINE
  8
_0-4_
  6
CONTINUOUS
 62
    7
 10
2450.5573097996671
 20
1085.4496917252768
 11
2450.5390791032809
 21
1085.3866000000043
  0
LINE
  8
_0-4_
  6
CONTINUOUS
 62
    7
 10
2450.5390791032809
 20
1048.8633000000045
 11
2450.5390791032809
 21
1048.8633000000045
  0
LINE
  8
_0-4_
  6
CONTINUOUS
 62
    7
 10
2450.5390791032809
 20
1048.8633000000045
 11
2450.5573097996639
 21
1048.80020827473
  0
LINE
  8
_0-4_
  6
CONTINUOUS
 62
    7
 10
2450.5573097996639
 20
1048.80020827473
 11
2450.6114479583334
 21
1048.7390335596021
  0
LINE
  8
_0-4_
  6
CONTINUOUS
 62
    7
 10
2450.6114479583334
 20
1048.7390335596021
 11
2450.699848618733
 21
1048.6816346173839
  0
LINE
  8
_0-4_
  6
CONTINUOUS
 62
    7
 10
2450.699848618733
 20
1048.6816346173839
 11
2450.8198257715298
 21
1048.6297554858892
  0
LINE
  8
_0-4_
  6
CONTINUOUS
 62
    7
 10
2450.8198257715298
 20
1048.6297554858892
 11
2450.9677339716472
 21
1048.5849724862769
  0
LINE
  8
_0-4_
  6
CONTINUOUS
 62
    7
 10
2450.9677339716472
 20
1048.5849724862769
 11
2451.1390791032699
 21
1048.5486463273282
  0
LINE
  8
_0-4_
  6
CONTINUOUS
 62
    7
 10
2451.1390791032699
 20
1048.5486463273282
 11
2451.3286549312783
 21
1048.5218807610015
  0
LINE
  8
_0-4_
  6
CONTINUOUS
 62
    7
 10
2451.3286549312783
 20
1048.5218807610015
 11
2451.5307012900684
 21
1048.505489045485
  0
LINE
  8
_0-4_
  6
CONTINUOUS
 62
    7
 10
2451.5307012900684
 20
1048.505489045485
 11
2451.7390791032626
 21
1048.4999692347605
  0
LINE
  8
_0-4_
  6
CONTINUOUS
 62
    7
 10
2450.5390791032809
 20
1046.6133000000045
 11
2450.5390791032809
 21
1046.6133000000045
  0
LINE
  8
_0-4_
  6
CONTINUOUS
 62
    7
 10
2450.5390791032809
 20
1046.6133000000045
 11
2450.5573097996639
 21
1046.5502082747302
  0
LINE
  8
_0-4_
  6
CONTINUOUS
 62
    7
 10
2450.5573097996639
 20
1046.5502082747302
 11
2450.6114479583334
 21
1046.4890335596023
  0
LINE
  8
_0-4_
  6
CONTINUOUS
 62
    7
 10
2450.6114479583334
 20
1046.4890335596023
 11
2450.6998486187335
 21
1046.4316346173841
  0
LINE
  8
_0-4_
  6
CONTINUOUS
 62
    7
 10
2450.6998486187335
 20
1046.4316346173841
 11
2450.8198257715303
 21
1046.3797554858895
  0
LINE
  8
_0-4_
  6
CONTINUOUS
 62
    7
 10
2450.8198257715303
 20
1046.3797554858895
 11
2450.9677339716477
 21
1046.3349724862769
  0
LINE
  8
_0-4_
  6
CONTINUOUS
 62
    7
 10
2450.9677339716477
 20
1046.3349724862769
 11
2451.1390791032699
 21
1046.2986463273284
  0
LINE
  8
_0-4_
  6
CONTINUOUS
 62
    7
 10
2451.1390791032699
 20
1046.2986463273284
 11
2451.3286549312783
 21
1046.2718807610017
  0
LINE
  8
_0-4_
  6
CONTINUOUS
 62
    7
 10
2451.3286549312783
 20
1046.2718807610017
 11
2451.5307012900684
 21
1046.2554890454853
  0
LINE
  8
_0-4_
  6
CONTINUOUS
 62
    7
 10
2451.5307012900684
 20
1046.2554890454853
 11
2451.7390791032626
 21
1046.2499692347607
  0
ARC
  8
_0-4_
  6
CONTINUOUS
 62
    7
 10
2482.5737791032806
 20
1074.4812000000006
 40
8
 50
11.650000000000002
 51
88.000000000000014
  0
ARC
  8
_0-4_
  6
CONTINUOUS
 62
    7
 10
2441.439079103281
 20
1066.0000000000009
 40
50
 50
348.35000000000013
 51
11.650000000000073
  0
ARC
  8
_0-4_
  6
CONTINUOUS
 62
    7
 10
2482.5737791032806
 20
1057.5188000000005
 40
8
 50
272.00000000000011
 51
348.35000000000013
  0
ARC
  8
_0-4_
  6
CONTINUOUS
 62
    7
 10
2451.7390791032808
 20
1024.4500000000005
 40
1.1999999999999999
 50
180.00000000000005
 51
270.00000000000005
  0
ARC
  8
_0-4_
  6
CONTINUOUS
 62
    7
 10
2451.7390791032808
 20
1107.5500000000006
 40
1.1999999999999999
 50
90.000000000000028
 51
180.00000000000005
  0
ARC
  8
_0-4_
  6
CONTINUOUS
 62
    7
 10
2482.5708791032811
 20
1074.4952000000007
 40
8
 50
11.670000000000001
 51
88.000000000000014
  0
ARC
  8
_0-4_
  6
CONTINUOUS
 62
    7
 10
2482.5708791032811
 20
1057.5047000000006
 40
8
 50
272.00000000000011
 51
348.33000000000009
  0
ARC
  8
_0-4_
  6
CONTINUOUS
 62
    7
 10
2513.6391291032805
 20
1186.7999072187367
 40
80.200050000000004
 50
267
 51
270.00000000000005
  0
ARC
  8
_0-4_
  6
CONTINUOUS
 62
    7
 10
2513.6391291032805
 20
1186.7999072187367
 40
80.200050000000004
 50
267
 51
270.00000000000005
  0
LINE
  8
_0-4_
  6
CONTINUOUS
 62
    7
 10
2838.7270791032806
 20
1022.4999572187368
 11
2839.7329791032802
 21
1022.4980072187368
  0
LINE
  8
_0-4_
  6
CONTINUOUS
 62
    7
 10
2839.7329791032802
 20
1022.4980072187368
 11
2840.7390291032806
 21
1022.4960572187367
  0
LINE
  8
_0-4_
  6
CONTINUOUS
 62
    7
 10
2454.0390291032804
 20
1022.4999572187368
 11
2838.7390791032803
 21
1022.4999572187368
  0
LINE
  8
_0-4_
  6
CONTINUOUS
 62
    7
 10
2454.0390291032804
 20
1109.6133572187368
 11
2454.0390291032804
 21
1102.7643572187369
  0
LINE
  8
_0-4_
  6
CONTINUOUS
 62
    7
 10
2509.4418291032807
 20
1106.7098072187368
 11
2454.0390291032804
 21
1109.6133572187368
  0
LINE
  8
_0-4_
  6
CONTINUOUS
 62
    7
 10
2828.2891791032807
 20
1106.5998572187368
 11
2513.6391291032805
 21
1106.5998572187368
  0
LINE
  8
_0-4_
  6
CONTINUOUS
 62
    7
 10
2828.2891791032807
 20
1099.7603072187368
 11
2828.2891791032807
 21
1106.5998572187368
  0
LINE
  8
_0-4_
  6
CONTINUOUS
 62
    7
 10
2513.6391291032805
 20
1099.7603072187368
 11
2828.2891791032807
 21
1099.7603072187368
  0
LINE
  8
_0-4_
  6
CONTINUOUS
 62
    7
 10
2454.0390291032804
 20
1102.7643572187369
 11
2509.0839291032802
 21
1099.8795572187368
  0
LINE
  8
_0-4_
  6
CONTINUOUS
 62
    7
 10
2851.5390291032804
 20
1023.9999572187367
 11
2851.5390291032804
 21
1109.7999572187368
  0
LINE
  8
_0-4_
  6
CONTINUOUS
 62
    7
 10
2850.4518291032809
 20
1023.9999572187367
 11
2851.5390291032804
 21
1023.9999572187367
  0
LINE
  8
_0-4_
  6
CONTINUOUS
 62
    7
 10
2851.5390291032804
 20
1109.7999572187368
 11
2850.4518291032809
 21
1109.7999572187368
  0
LINE
  8
_0-4_
  6
CONTINUOUS
 62
    7
 10
2840.5107291032804
 20
1023.9999572187367
 11
2840.7384291032803
 21
1023.9999572187367
  0
LINE
  8
_0-4_
  6
CONTINUOUS
 62
    7
 10
2840.7390291032806
 20
1024.2278072187368
 11
2840.7390291032806
 21
1024.2230072187367
  0
LINE
  8
_0-4_
  6
CONTINUOUS
 62
    7
 10
2840.7390291032806
 20
1024.2230072187367
 11
2840.7390291032806
 21
1024.2210572187368
  0
LINE
  8
_0-4_
  6
CONTINUOUS
 62
    7
 10
2840.7390291032806
 20
1024.2210572187368
 11
2840.7390291032806
 21
1024.218657218737
  0
LINE
  8
_0-4_
  6
CONTINUOUS
 62
    7
 10
2840.7390291032806
 20
1024.218657218737
 11
2840.7388791032803
 21
1024.215957218737
  0
LINE
  8
_0-4_
  6
CONTINUOUS
 62
    7
 10
2840.7388791032803
 20
1024.215957218737
 11
2840.7388791032803
 21
1024.2129572187368
  0
LINE
  8
_0-4_
  6
CONTINUOUS
 62
    7
 10
2840.7388791032803
 20
1024.2129572187368
 11
2840.7385791032806
 21
1024.2096572187369
  0
LINE
  8
_0-4_
  6
CONTINUOUS
 62
    7
 10
2840.7385791032806
 20
1024.2096572187369
 11
2840.7382791032805
 21
1024.2063572187366
  0
LINE
  8
_0-4_
  6
CONTINUOUS
 62
    7
 10
2840.7382791032805
 20
1024.2063572187366
 11
2840.7376791032806
 21
1024.2029072187369
  0
LINE
  8
_0-4_
  6
CONTINUOUS
 62
    7
 10
2840.7376791032806
 20
1024.2029072187369
 11
2840.7370791032803
 21
1024.1994572187368
  0
LINE
  8
_0-4_
  6
CONTINUOUS
 62
    7
 10
2840.7370791032803
 20
1024.1994572187368
 11
2840.7363291032806
 21
1024.1960072187366
  0
LINE
  8
_0-4_
  6
CONTINUOUS
 62
    7
 10
2840.7363291032806
 20
1024.1960072187366
 11
2840.7352791032803
 21
1024.1924072187366
  0
LINE
  8
_0-4_
  6
CONTINUOUS
 62
    7
 10
2840.7352791032803
 20
1024.1924072187366
 11
2840.7340791032806
 21
1024.1889572187369
  0
LINE
  8
_0-4_
  6
CONTINUOUS
 62
    7
 10
2840.7340791032806
 20
1024.1889572187369
 11
2840.7325791032803
 21
1024.1852072187366
  0
LINE
  8
_0-4_
  6
CONTINUOUS
 62
    7
 10
2840.7325791032803
 20
1024.1852072187366
 11
2840.7309291032806
 21
1024.1814572187367
  0
LINE
  8
_0-4_
  6
CONTINUOUS
 62
    7
 10
2840.7309291032806
 20
1024.1814572187367
 11
2840.7288291032809
 21
1024.1775572187366
  0
LINE
  8
_0-4_
  6
CONTINUOUS
 62
    7
 10
2840.7288291032809
 20
1024.1775572187366
 11
2840.7265791032805
 21
1024.1733572187367
  0
LINE
  8
_0-4_
  6
CONTINUOUS
 62
    7
 10
2840.7265791032805
 20
1024.1733572187367
 11
2840.7240291032803
 21
1024.1688572187367
  0
LINE
  8
_0-4_
  6
CONTINUOUS
 62
    7
 10
2840.7240291032803
 20
1024.1688572187367
 11
2840.7211791032805
 21
1024.1642072187369
  0
LINE
  8
_0-4_
  6
CONTINUOUS
 62
    7
 10
2840.7211791032805
 20
1024.1642072187369
 11
2840.7180291032809
 21
1024.1592572187369
  0
LINE
  8
_0-4_
  6
CONTINUOUS
 62
    7
 10
2840.7180291032809
 20
1024.1592572187369
 11
2840.7145791032803
 21
1024.1541572187368
  0
LINE
  8
_0-4_
  6
CONTINUOUS
 62
    7
 10
2840.7145791032803
 20
1024.1541572187368
 11
2840.7111291032806
 21
1024.1492072187368
  0
LINE
  8
_0-4_
  6
CONTINUOUS
 62
    7
 10
2840.7111291032806
 20
1024.1492072187368
 11
2840.7076791032804
 21
1024.1441072187367
  0
LINE
  8
_0-4_
  6
CONTINUOUS
 62
    7
 10
2840.7076791032804
 20
1024.1441072187367
 11
2840.7040791032804
 21
1024.1393072187368
  0
LINE
  8
_0-4_
  6
CONTINUOUS
 62
    7
 10
2840.7040791032804
 20
1024.1393072187368
 11
2840.7006291032803
 21
1024.1346572187367
  0
LINE
  8
_0-4_
  6
CONTINUOUS
 62
    7
 10
2840.7006291032803
 20
1024.1346572187367
 11
2840.6971791032806
 21
1024.1303072187367
  0
LINE
  8
_0-4_
  6
CONTINUOUS
 62
    7
 10
2840.6971791032806
 20
1024.1303072187367
 11
2840.6938791032803
 21
1024.1264072187368
  0
LINE
  8
_0-4_
  6
CONTINUOUS
 62
    7
 10
2840.6938791032803
 20
1024.1264072187368
 11
2840.6907291032803
 21
1024.1228072187368
  0
LINE
  8
_0-4_
  6
CONTINUOUS
 62
    7
 10
2840.6907291032803
 20
1024.1228072187368
 11
2840.6875791032803
 21
1024.1193572187371
  0
LINE
  8
_0-4_
  6
CONTINUOUS
 62
    7
 10
2840.6875791032803
 20
1024.1193572187371
 11
2840.6842791032804
 21
1024.1159072187367
  0
LINE
  8
_0-4_
  6
CONTINUOUS
 62
    7
 10
2840.6842791032804
 20
1024.1159072187367
 11
2840.6806791032804
 21
1024.1124572187368
  0
LINE
  8
_0-4_
  6
CONTINUOUS
 62
    7
 10
2840.6806791032804
 20
1024.1124572187368
 11
2840.6767791032802
 21
1024.1088572187368
  0
LINE
  8
_0-4_
  6
CONTINUOUS
 62
    7
 10
2840.6767791032802
 20
1024.1088572187368
 11
2840.6722791032802
 21
1024.1049572187371
  0
LINE
  8
_0-4_
  6
CONTINUOUS
 62
    7
 10
2840.6722791032802
 20
1024.1049572187371
 11
2840.6673291032802
 21
1024.1006072187369
  0
LINE
  8
_0-4_
  6
CONTINUOUS
 62
    7
 10
2840.6673291032802
 20
1024.1006072187369
 11
2840.6616291032805
 21
1024.0958072187368
  0
LINE
  8
_0-4_
  6
CONTINUOUS
 62
    7
 10
2840.6616291032805
 20
1024.0958072187368
 11
2840.6554791032804
 21
1024.0907072187369
  0
LINE
  8
_0-4_
  6
CONTINUOUS
 62
    7
 10
2840.6554791032804
 20
1024.0907072187369
 11
2840.6487291032808
 21
1024.085157218737
  0
LINE
  8
_0-4_
  6
CONTINUOUS
 62
    7
 10
2840.6487291032808
 20
1024.085157218737
 11
2840.6416791032802
 21
1024.0794572187369
  0
LINE
  8
_0-4_
  6
CONTINUOUS
 62
    7
 10
2840.6416791032802
 20
1024.0794572187369
 11
2840.6344791032806
 21
1024.0737572187367
  0
LINE
  8
_0-4_
  6
CONTINUOUS
 62
    7
 10
2840.6344791032806
 20
1024.0737572187367
 11
2840.6271291032808
 21
1024.068057218737
  0
LINE
  8
_0-4_
  6
CONTINUOUS
 62
    7
 10
2840.6271291032808
 20
1024.068057218737
 11
2840.6197791032809
 21
1024.062657218737
  0
LINE
  8
_0-4_
  6
CONTINUOUS
 62
    7
 10
2840.6197791032809
 20
1024.062657218737
 11
2840.6125791032809
 21
1024.0574072187368
  0
LINE
  8
_0-4_
  6
CONTINUOUS
 62
    7
 10
2840.6125791032809
 20
1024.0574072187368
 11
2840.6055291032807
 21
1024.0524572187368
  0
LINE
  8
_0-4_
  6
CONTINUOUS
 62
    7
 10
2840.6055291032807
 20
1024.0524572187368
 11
2840.5987791032803
 21
1024.0479572187368
  0
LINE
  8
_0-4_
  6
CONTINUOUS
 62
    7
 10
2840.5987791032803
 20
1024.0479572187368
 11
2840.5921791032806
 21
1024.043757218737
  0
LINE
  8
_0-4_
  6
CONTINUOUS
 62
    7
 10
2840.5921791032806
 20
1024.043757218737
 11
2840.5857291032807
 21
1024.0398572187368
  0
LINE
  8
_0-4_
  6
CONTINUOUS
 62
    7
 10
2840.5857291032807
 20
1024.0398572187368
 11
2840.5792791032808
 21
1024.0359572187369
  0
LINE
  8
_0-4_
  6
CONTINUOUS
 62
    7
 10
2840.5792791032808
 20
1024.0359572187369
 11
2840.5731291032807
 21
1024.032507218737
  0
LINE
  8
_0-4_
  6
CONTINUOUS
 62
    7
 10
2840.5731291032807
 20
1024.032507218737
 11
2840.5668291032807
 21
1024.0290572187368
  0
LINE
  8
_0-4_
  6
CONTINUOUS
 62
    7
 10
2840.5668291032807
 20
1024.0290572187368
 11
2840.5606791032805
 21
1024.0256072187369
  0
LINE
  8
_0-4_
  6
CONTINUOUS
 62
    7
 10
2840.5606791032805
 20
1024.0256072187369
 11
2840.5545291032808
 21
1024.0223072187368
  0
LINE
  8
_0-4_
  6
CONTINUOUS
 62
    7
 10
2840.5545291032808
 20
1024.0223072187368
 11
2840.5483791032802
 21
1024.0191572187368
  0
LINE
  8
_0-4_
  6
CONTINUOUS
 62
    7
 10
2840.5483791032802
 20
1024.0191572187368
 11
2840.5425291032806
 21
1024.0160072187368
  0
LINE
  8
_0-4_
  6
CONTINUOUS
 62
    7
 10
2840.5425291032806
 20
1024.0160072187368
 11
2840.5368291032805
 21
1024.0131572187369
  0
LINE
  8
_0-4_
  6
CONTINUOUS
 62
    7
 10
2840.5368291032805
 20
1024.0131572187369
 11
2840.5315791032808
 21
1024.0104572187369
  0
LINE
  8
_0-4_
  6
CONTINUOUS
 62
    7
 10
2840.5315791032808
 20
1024.0104572187369
 11
2840.5267791032802
 21
1024.0080572187368
  0
LINE
  8
_0-4_
  6
CONTINUOUS
 62
    7
 10
2840.5267791032802
 20
1024.0080572187368
 11
2840.5225791032808
 21
1024.0059572187369
  0
LINE
  8
_0-4_
  6
CONTINUOUS
 62
    7
 10
2840.5225791032808
 20
1024.0059572187369
 11
2840.5107291032804
 21
1023.9999572187367
  0
LINE
  8
_0-4_
  6
CONTINUOUS
 62
    7
 10
2840.7390291032806
 20
1024.219107218737
 11
2840.7390291032806
 21
1025.9999072187367
  0
LINE
  8
_0-4_
  6
CONTINUOUS
 62
    7
 10
2840.7390291032806
 20
1025.9999072187367
 11
2840.7390291032806
 21
1059.7998572187368
  0
LINE
  8
_0-4_
  6
CONTINUOUS
 62
    7
 10
2840.2083291032804
 20
1025.9999072187367
 11
2840.2083291032804
 21
1092.2925572187368
  0
LINE
  8
_0-4_
  6
CONTINUOUS
 62
    7
 10
2840.7384291032803
 20
1023.9999572187367
 11
2850.4518291032809
 21
1023.9999572187367
  0
LINE
  8
_0-4_
  6
CONTINUOUS
 62
    7
 10
2850.4518291032809
 20
1109.7999572187368
 11
2846.8456791032804
 21
1109.7999572187368
  0
LINE
  8
_0-4_
  6
CONTINUOUS
 62
    7
 10
2458.7973291032803
 20
1102.5149072187368
 11
2458.7973291032803
 21
1102.3832072187367
  0
LINE
  8
_0-4_
  6
CONTINUOUS
 62
    7
 10
2458.7973291032803
 20
1102.3832072187367
 11
2458.7179791032804
 21
1102.3872572187367
  0
LINE
  8
_0-4_
  6
CONTINUOUS
 62
    7
 10
2458.7179791032804
 20
1102.3872572187367
 11
2458.6845291032805
 21
1102.3890572187367
  0
LINE
  8
_0-4_
  6
CONTINUOUS
 62
    7
 10
2458.6845291032805
 20
1102.3890572187367
 11
2458.6437291032807
 21
1102.3910072187368
  0
LINE
  8
_0-4_
  6
CONTINUOUS
 62
    7
 10
2458.6437291032807
 20
1102.3910072187368
 11
2458.5954291032803
 21
1102.3929572187371
  0
LINE
  8
_0-4_
  6
CONTINUOUS
 62
    7
 10
2458.5954291032803
 20
1102.3929572187371
 11
2458.5399291032804
 21
1102.3949072187367
  0
LINE
  8
_0-4_
  6
CONTINUOUS
 62
    7
 10
2458.5399291032804
 20
1102.3949072187367
 11
2458.4770791032806
 21
1102.3964072187368
  0
LINE
  8
_0-4_
  6
CONTINUOUS
 62
    7
 10
2458.4770791032806
 20
1102.3964072187368
 11
2458.4068791032805
 21
1102.3976072187367
  0
LINE
  8
_0-4_
  6
CONTINUOUS
 62
    7
 10
2458.4068791032805
 20
1102.3976072187367
 11
2458.3294791032803
 21
1102.3980572187367
  0
LINE
  8
_0-4_
  6
CONTINUOUS
 62
    7
 10
2458.3294791032803
 20
1102.3980572187367
 11
2458.2447291032804
 21
1102.3977572187368
  0
LINE
  8
_0-4_
  6
CONTINUOUS
 62
    7
 10
2458.2447291032804
 20
1102.3977572187368
 11
2458.1529291032807
 21
1102.3965572187371
  0
LINE
  8
_0-4_
  6
CONTINUOUS
 62
    7
 10
2458.1529291032807
 20
1102.3965572187371
 11
2458.0540791032804
 21
1102.3938572187371
  0
LINE
  8
_0-4_
  6
CONTINUOUS
 62
    7
 10
2458.0540791032804
 20
1102.3938572187371
 11
2457.9483291032802
 21
1102.3895072187367
  0
LINE
  8
_0-4_
  6
CONTINUOUS
 62
    7
 10
2457.9483291032802
 20
1102.3895072187367
 11
2457.8356791032806
 21
1102.3830572187371
  0
LINE
  8
_0-4_
  6
CONTINUOUS
 62
    7
 10
2457.8356791032806
 20
1102.3830572187371
 11
2457.7162791032806
 21
1102.3740572187371
  0
LINE
  8
_0-4_
  6
CONTINUOUS
 62
    7
 10
2457.7162791032806
 20
1102.3740572187371
 11
2457.5904291032802
 21
1102.3620572187369
  0
LINE
  8
_0-4_
  6
CONTINUOUS
 62
    7
 10
2457.5904291032802
 20
1102.3620572187369
 11
2457.4582791032803
 21
1102.3469072187367
  0
LINE
  8
_0-4_
  6
CONTINUOUS
 62
    7
 10
2457.4582791032803
 20
1102.3469072187367
 11
2457.3196791032805
 21
1102.328157218737
  0
LINE
  8
_0-4_
  6
CONTINUOUS
 62
    7
 10
2457.3196791032805
 20
1102.328157218737
 11
2457.1750791032804
 21
1102.3053572187368
  0
LINE
  8
_0-4_
  6
CONTINUOUS
 62
    7
 10
2457.1750791032804
 20
1102.3053572187368
 11
2457.0255291032804
 21
1102.2786572187369
  0
LINE
  8
_0-4_
  6
CONTINUOUS
 62
    7
 10
2457.0255291032804
 20
1102.2786572187369
 11
2456.8722291032804
 21
1102.2485072187369
  0
LINE
  8
_0-4_
  6
CONTINUOUS
 62
    7
 10
2456.8722291032804
 20
1102.2485072187369
 11
2456.7163791032808
 21
1102.2147572187368
  0
LINE
  8
_0-4_
  6
CONTINUOUS
 62
    7
 10
2456.7163791032808
 20
1102.2147572187368
 11
2456.5591791032802
 21
1102.1777072187367
  0
LINE
  8
_0-4_
  6
CONTINUOUS
 62
    7
 10
2456.5591791032802
 20
1102.1777072187367
 11
2456.4016791032804
 21
1102.1376572187368
  0
LINE
  8
_0-4_
  6
CONTINUOUS
 62
    7
 10
2456.4016791032804
 20
1102.1376572187368
 11
2456.2453791032803
 21
1102.0947572187369
  0
LINE
  8
_0-4_
  6
CONTINUOUS
 62
    7
 10
2456.2453791032803
 20
1102.0947572187369
 11
2456.0911791032804
 21
1102.0490072187367
  0
LINE
  8
_0-4_
  6
CONTINUOUS
 62
    7
 10
2456.0911791032804
 20
1102.0490072187367
 11
2455.9402791032807
 21
1102.0010072187369
  0
LINE
  8
_0-4_
  6
CONTINUOUS
 62
    7
 10
2455.9402791032807
 20
1102.0010072187369
 11
2455.7934291032806
 21
1101.9509072187368
  0
LINE
  8
_0-4_
  6
CONTINUOUS
 62
    7
 10
2455.7934291032806
 20
1101.9509072187368
 11
2455.6507791032804
 21
1101.8993072187367
  0
LINE
  8
_0-4_
  6
CONTINUOUS
 62
    7
 10
2455.6507791032804
 20
1101.8993072187367
 11
2455.5130791032806
 21
1101.8466572187369
  0
LINE
  8
_0-4_
  6
CONTINUOUS
 62
    7
 10
2455.5130791032806
 20
1101.8466572187369
 11
2455.3809291032807
 21
1101.7932572187369
  0
LINE
  8
_0-4_
  6
CONTINUOUS
 62
    7
 10
2455.3809291032807
 20
1101.7932572187369
 11
2455.2544791032805
 21
1101.7397072187368
  0
LINE
  8
_0-4_
  6
CONTINUOUS
 62
    7
 10
2455.2544791032805
 20
1101.7397072187368
 11
2455.1344791032802
 21
1101.6864572187369
  0
LINE
  8
_0-4_
  6
CONTINUOUS
 62
    7
 10
2455.1344791032802
 20
1101.6864572187369
 11
2455.0212291032803
 21
1101.6341072187369
  0
LINE
  8
_0-4_
  6
CONTINUOUS
 62
    7
 10
2455.0212291032803
 20
1101.6341072187369
 11
2454.9153291032807
 21
1101.5828072187368
  0
LINE
  8
_0-4_
  6
CONTINUOUS
 62
    7
 10
2454.9153291032807
 20
1101.5828072187368
 11
2454.8166291032803
 21
1101.5328572187368
  0
LINE
  8
_0-4_
  6
CONTINUOUS
 62
    7
 10
2454.8166291032803
 20
1101.5328572187368
 11
2454.7248291032801
 21
1101.4847072187367
  0
LINE
  8
_0-4_
  6
CONTINUOUS
 62
    7
 10
2454.7248291032801
 20
1101.4847072187367
 11
2454.6397791032804
 21
1101.4385072187367
  0
LINE
  8
_0-4_
  6
CONTINUOUS
 62
    7
 10
2454.6397791032804
 20
1101.4385072187367
 11
2454.5614791032803
 21
1101.3945572187369
  0
LINE
  8
_0-4_
  6
CONTINUOUS
 62
    7
 10
2454.5614791032803
 20
1101.3945572187369
 11
2454.4896291032805
 21
1101.3528572187369
  0
LINE
  8
_0-4_
  6
CONTINUOUS
 62
    7
 10
2454.4896291032805
 20
1101.3528572187369
 11
2454.4240791032807
 21
1101.3138572187369
  0
LINE
  8
_0-4_
  6
CONTINUOUS
 62
    7
 10
2454.4240791032807
 20
1101.3138572187369
 11
2454.3645291032808
 21
1101.2778572187369
  0
LINE
  8
_0-4_
  6
CONTINUOUS
 62
    7
 10
2454.3645291032808
 20
1101.2778572187369
 11
2454.3109791032802
 21
1101.2448572187367
  0
LINE
  8
_0-4_
  6
CONTINUOUS
 62
    7
 10
2454.3109791032802
 20
1101.2448572187367
 11
2454.2631291032803
 21
1101.2150072187369
  0
LINE
  8
_0-4_
  6
CONTINUOUS
 62
    7
 10
2454.2631291032803
 20
1101.2150072187369
 11
2454.2208291032802
 21
1101.1880072187368
  0
LINE
  8
_0-4_
  6
CONTINUOUS
 62
    7
 10
2454.2208291032802
 20
1101.1880072187368
 11
2454.1836291032805
 21
1101.1641572187368
  0
LINE
  8
_0-4_
  6
CONTINUOUS
 62
    7
 10
2454.1836291032805
 20
1101.1641572187368
 11
2454.1513791032803
 21
1101.1431572187368
  0
LINE
  8
_0-4_
  6
CONTINUOUS
 62
    7
 10
2454.1513791032803
 20
1101.1431572187368
 11
2454.1240791032805
 21
1101.1251572187368
  0
LINE
  8
_0-4_
  6
CONTINUOUS
 62
    7
 10
2454.1240791032805
 20
1101.1251572187368
 11
2454.1012791032803
 21
1101.1100072187368
  0
LINE
  8
_0-4_
  6
CONTINUOUS
 62
    7
 10
2454.1012791032803
 20
1101.1100072187368
 11
2454.0390291032804
 21
1101.0681572187368
  0
LINE
  8
_0-4_
  6
CONTINUOUS
 62
    7
 10
2454.0390291032804
 20
1102.7643572187369
 11
2454.0390291032804
 21
1101.0681572187368
  0
LINE
  8
_0-4_
  6
CONTINUOUS
 62
    7
 10
2838.7390791032803
 20
1022.5004072187368
 11
2838.7390791032803
 21
1022.5020572187368
  0
LINE
  8
_0-4_
  6
CONTINUOUS
 62
    7
 10
2838.7390791032803
 20
1022.5020572187368
 11
2838.7390791032803
 21
1022.5026572187368
  0
LINE
  8
_0-4_
  6
CONTINUOUS
 62
    7
 10
2838.7390791032803
 20
1022.5026572187368
 11
2838.7390791032803
 21
1022.5034072187368
  0
LINE
  8
_0-4_
  6
CONTINUOUS
 62
    7
 10
2838.7390791032803
 20
1022.5034072187368
 11
2838.7390791032803
 21
1022.5043072187368
  0
LINE
  8
_0-4_
  6
CONTINUOUS
 62
    7
 10
2838.7390791032803
 20
1022.5043072187368
 11
2838.7390791032803
 21
1022.5053572187368
  0
LINE
  8
_0-4_
  6
CONTINUOUS
 62
    7
 10
2838.7390791032803
 20
1022.5053572187368
 11
2838.7390791032803
 21
1022.5067072187368
  0
LINE
  8
_0-4_
  6
CONTINUOUS
 62
    7
 10
2838.7390791032803
 20
1022.5067072187368
 11
2838.7390791032803
 21
1022.5080572187368
  0
LINE
  8
_0-4_
  6
CONTINUOUS
 62
    7
 10
2838.7390791032803
 20
1022.5080572187368
 11
2838.7390791032803
 21
1022.5095572187367
  0
LINE
  8
_0-4_
  6
CONTINUOUS
 62
    7
 10
2838.7390791032803
 20
1022.5095572187367
 11
2838.7390791032803
 21
1022.5112072187368
  0
LINE
  8
_0-4_
  6
CONTINUOUS
 62
    7
 10
2838.7390791032803
 20
1022.5112072187368
 11
2838.7390791032803
 21
1022.5130072187369
  0
LINE
  8
_0-4_
  6
CONTINUOUS
 62
    7
 10
2838.7390791032803
 20
1022.5130072187369
 11
2838.7390791032803
 21
1022.5152572187369
  0
LINE
  8
_0-4_
  6
CONTINUOUS
 62
    7
 10
2838.7390791032803
 20
1022.5152572187369
 11
2838.7390791032803
 21
1022.5181072187367
  0
LINE
  8
_0-4_
  6
CONTINUOUS
 62
    7
 10
2838.7390791032803
 20
1022.5181072187367
 11
2838.7390791032803
 21
1022.5218572187367
  0
LINE
  8
_0-4_
  6
CONTINUOUS
 62
    7
 10
2838.7390791032803
 20
1022.5218572187367
 11
2838.7390791032803
 21
1022.5266572187367
  0
LINE
  8
_0-4_
  6
CONTINUOUS
 62
    7
 10
2838.7390791032803
 20
1022.5266572187367
 11
2838.7390791032803
 21
1022.5328072187369
  0
LINE
  8
_0-4_
  6
CONTINUOUS
 62
    7
 10
2838.7390791032803
 20
1022.5328072187369
 11
2838.7390791032803
 21
1022.5406072187367
  0
LINE
  8
_0-4_
  6
CONTINUOUS
 62
    7
 10
2838.7390791032803
 20
1022.5406072187367
 11
2838.7390791032803
 21
1022.5503572187369
  0
LINE
  8
_0-4_
  6
CONTINUOUS
 62
    7
 10
2838.7390791032803
 20
1022.5503572187369
 11
2838.7390791032803
 21
1022.5620572187369
  0
LINE
  8
_0-4_
  6
CONTINUOUS
 62
    7
 10
2838.7390791032803
 20
1022.5620572187369
 11
2838.7390791032803
 21
1022.5757072187367
  0
LINE
  8
_0-4_
  6
CONTINUOUS
 62
    7
 10
2838.7390791032803
 20
1022.5757072187367
 11
2838.7390791032803
 21
1022.5911572187368
  0
LINE
  8
_0-4_
  6
CONTINUOUS
 62
    7
 10
2838.7390791032803
 20
1022.5911572187368
 11
2838.7390791032803
 21
1022.6085572187367
  0
LINE
  8
_0-4_
  6
CONTINUOUS
 62
    7
 10
2838.7390791032803
 20
1022.6085572187367
 11
2838.7390791032803
 21
1022.6276072187368
  0
LINE
  8
_0-4_
  6
CONTINUOUS
 62
    7
 10
2838.7390791032803
 20
1022.6276072187368
 11
2838.7390791032803
 21
1022.6481572187367
  0
LINE
  8
_0-4_
  6
CONTINUOUS
 62
    7
 10
2838.7390791032803
 20
1022.6481572187367
 11
2838.7390791032803
 21
1022.6702072187367
  0
LINE
  8
_0-4_
  6
CONTINUOUS
 62
    7
 10
2838.7390791032803
 20
1022.6702072187367
 11
2838.7390791032803
 21
1022.693757218737
  0
LINE
  8
_0-4_
  6
CONTINUOUS
 62
    7
 10
2838.7390791032803
 20
1022.693757218737
 11
2838.7390791032803
 21
1022.718507218737
  0
LINE
  8
_0-4_
  6
CONTINUOUS
 62
    7
 10
2838.7390791032803
 20
1022.718507218737
 11
2838.7390791032803
 21
1022.7446072187367
  0
LINE
  8
_0-4_
  6
CONTINUOUS
 62
    7
 10
2838.7390791032803
 20
1022.7446072187367
 11
2838.7390791032803
 21
1022.7719072187369
  0
LINE
  8
_0-4_
  6
CONTINUOUS
 62
    7
 10
2838.7390791032803
 20
1022.7719072187369
 11
2838.7390791032803
 21
1022.8005572187367
  0
LINE
  8
_0-4_
  6
CONTINUOUS
 62
    7
 10
2838.7390791032803
 20
1022.8005572187367
 11
2838.7390791032803
 21
1022.830407218737
  0
LINE
  8
_0-4_
  6
CONTINUOUS
 62
    7
 10
2838.7390791032803
 20
1022.830407218737
 11
2838.7390791032803
 21
1022.8614572187368
  0
LINE
  8
_0-4_
  6
CONTINUOUS
 62
    7
 10
2838.7390791032803
 20
1022.8614572187368
 11
2838.7390791032803
 21
1022.8937072187369
  0
LINE
  8
_0-4_
  6
CONTINUOUS
 62
    7
 10
2838.7390791032803
 20
1022.8937072187369
 11
2838.7390791032803
 21
1022.9271572187369
  0
LINE
  8
_0-4_
  6
CONTINUOUS
 62
    7
 10
2838.7390791032803
 20
1022.9271572187369
 11
2838.7390791032803
 21
1022.9619572187368
  0
LINE
  8
_0-4_
  6
CONTINUOUS
 62
    7
 10
2838.7390791032803
 20
1022.9619572187368
 11
2838.7390791032803
 21
1022.9978072187367
  0
LINE
  8
_0-4_
  6
CONTINUOUS
 62
    7
 10
2838.7390791032803
 20
1022.9978072187367
 11
2838.7390791032803
 21
1023.0348572187369
  0
LINE
  8
_0-4_
  6
CONTINUOUS
 62
    7
 10
2838.7390791032803
 20
1023.0348572187369
 11
2838.7390791032803
 21
1023.0729572187368
  0
LINE
  8
_0-4_
  6
CONTINUOUS
 62
    7
 10
2838.7390791032803
 20
1023.0729572187368
 11
2838.7390791032803
 21
1023.1121072187369
  0
LINE
  8
_0-4_
  6
CONTINUOUS
 62
    7
 10
2838.7390791032803
 20
1023.1121072187369
 11
2838.7390791032803
 21
1023.1523072187369
  0
LINE
  8
_0-4_
  6
CONTINUOUS
 62
    7
 10
2838.7390791032803
 20
1023.1523072187369
 11
2838.7390791032803
 21
1023.1934072187368
  0
LINE
  8
_0-4_
  6
CONTINUOUS
 62
    7
 10
2838.7390791032803
 20
1023.1934072187368
 11
2838.7390791032803
 21
1023.2354072187367
  0
LINE
  8
_0-4_
  6
CONTINUOUS
 62
    7
 10
2838.7390791032803
 20
1023.2354072187367
 11
2838.7390791032803
 21
1023.2781572187368
  0
LINE
  8
_0-4_
  6
CONTINUOUS
 62
    7
 10
2838.7390791032803
 20
1023.2781572187368
 11
2838.7390791032803
 21
1023.3216572187368
  0
LINE
  8
_0-4_
  6
CONTINUOUS
 62
    7
 10
2838.7390791032803
 20
1023.3216572187368
 11
2838.7390791032803
 21
1023.3653072187369
  0
LINE
  8
_0-4_
  6
CONTINUOUS
 62
    7
 10
2838.7390791032803
 20
1023.3653072187369
 11
2838.7390791032803
 21
1023.4089572187367
  0
LINE
  8
_0-4_
  6
CONTINUOUS
 62
    7
 10
2838.7390791032803
 20
1023.4089572187367
 11
2838.7390791032803
 21
1023.4523072187369
  0
LINE
  8
_0-4_
  6
CONTINUOUS
 62
    7
 10
2838.7390791032803
 20
1023.4523072187369
 11
2838.7390791032803
 21
1023.4950572187369
  0
LINE
  8
_0-4_
  6
CONTINUOUS
 62
    7
 10
2838.7390791032803
 20
1023.4950572187369
 11
2838.7390791032803
 21
1023.536907218737
  0
LINE
  8
_0-4_
  6
CONTINUOUS
 62
    7
 10
2838.7390791032803
 20
1023.536907218737
 11
2838.7390791032803
 21
1023.5775572187367
  0
LINE
  8
_0-4_
  6
CONTINUOUS
 62
    7
 10
2838.7390791032803
 20
1023.5775572187367
 11
2838.7390791032803
 21
1023.6165572187369
  0
LINE
  8
_0-4_
  6
CONTINUOUS
 62
    7
 10
2838.7390791032803
 20
1023.6165572187369
 11
2838.7390791032803
 21
1023.654207218737
  0
LINE
  8
_0-4_
  6
CONTINUOUS
 62
    7
 10
2838.7390791032803
 20
1023.654207218737
 11
2838.7390791032803
 21
1023.6900572187369
  0
LINE
  8
_0-4_
  6
CONTINUOUS
 62
    7
 10
2838.7390791032803
 20
1023.6900572187369
 11
2838.7390791032803
 21
1023.7242572187369
  0
LINE
  8
_0-4_
  6
CONTINUOUS
 62
    7
 10
2838.7390791032803
 20
1023.7242572187369
 11
2838.7390791032803
 21
1023.7565072187368
  0
LINE
  8
_0-4_
  6
CONTINUOUS
 62
    7
 10
2838.7390791032803
 20
1023.7565072187368
 11
2838.7390791032803
 21
1023.7869572187368
  0
LINE
  8
_0-4_
  6
CONTINUOUS
 62
    7
 10
2838.7390791032803
 20
1023.7869572187368
 11
2838.7390791032803
 21
1023.8154572187369
  0
LINE
  8
_0-4_
  6
CONTINUOUS
 62
    7
 10
2838.7390791032803
 20
1023.8154572187369
 11
2838.7390791032803
 21
1023.8418572187367
  0
LINE
  8
_0-4_
  6
CONTINUOUS
 62
    7
 10
2838.7390791032803
 20
1023.8418572187367
 11
2838.7390791032803
 21
1023.866307218737
  0
LINE
  8
_0-4_
  6
CONTINUOUS
 62
    7
 10
2838.7390791032803
 20
1023.866307218737
 11
2838.7390791032803
 21
1023.8885072187367
  0
LINE
  8
_0-4_
  6
CONTINUOUS
 62
    7
 10
2838.7390791032803
 20
1023.8885072187367
 11
2838.7390791032803
 21
1023.9086072187367
  0
LINE
  8
_0-4_
  6
CONTINUOUS
 62
    7
 10
2838.7390791032803
 20
1023.9086072187367
 11
2838.7390791032803
 21
1023.9266072187367
  0
LINE
  8
_0-4_
  6
CONTINUOUS
 62
    7
 10
2838.7390791032803
 20
1023.9266072187367
 11
2838.7390791032803
 21
1023.9423572187367
  0
LINE
  8
_0-4_
  6
CONTINUOUS
 62
    7
 10
2838.7390791032803
 20
1023.9423572187367
 11
2838.7390791032803
 21
1023.9561572187369
  0
LINE
  8
_0-4_
  6
CONTINUOUS
 62
    7
 10
2838.7390791032803
 20
1023.9561572187369
 11
2838.7390791032803
 21
1023.9678572187369
  0
LINE
  8
_0-4_
  6
CONTINUOUS
 62
    7
 10
2838.7390791032803
 20
1023.9678572187369
 11
2838.7390791032803
 21
1023.9999572187367
  0
LINE
  8
_0-4_
  6
CONTINUOUS
 62
    7
 10
2839.2817791032803
 20
1023.9999572187367
 11
2839.2664791032802
 21
1024.0026572187368
  0
LINE
  8
_0-4_
  6
CONTINUOUS
 62
    7
 10
2839.2664791032802
 20
1024.0026572187368
 11
2839.2600291032804
 21
1024.0037072187369
  0
LINE
  8
_0-4_
  6
CONTINUOUS
 62
    7
 10
2839.2600291032804
 20
1024.0037072187369
 11
2839.252229103281
 21
1024.005207218737
  0
LINE
  8
_0-4_
  6
CONTINUOUS
 62
    7
 10
2839.252229103281
 20
1024.005207218737
 11
2839.2435291032802
 21
1024.0067072187368
  0
LINE
  8
_0-4_
  6
CONTINUOUS
 62
    7
 10
2839.2435291032802
 20
1024.0067072187368
 11
2839.2337791032809
 21
1024.0085072187368
  0
LINE
  8
_0-4_
  6
CONTINUOUS
 62
    7
 10
2839.2337791032809
 20
1024.0085072187368
 11
2839.2234291032809
 21
1024.0103072187368
  0
LINE
  8
_0-4_
  6
CONTINUOUS
 62
    7
 10
2839.2234291032809
 20
1024.0103072187368
 11
2839.2124791032806
 21
1024.0122572187369
  0
LINE
  8
_0-4_
  6
CONTINUOUS
 62
    7
 10
2839.2124791032806
 20
1024.0122572187369
 11
2839.2010791032807
 21
1024.0143572187369
  0
LINE
  8
_0-4_
  6
CONTINUOUS
 62
    7
 10
2839.2010791032807
 20
1024.0143572187369
 11
2839.1896791032809
 21
1024.0166072187369
  0
LINE
  8
_0-4_
  6
CONTINUOUS
 62
    7
 10
2839.1896791032809
 20
1024.0166072187369
 11
2839.1781291032802
 21
1024.0187072187368
  0
LINE
  8
_0-4_
  6
CONTINUOUS
 62
    7
 10
2839.1781291032802
 20
1024.0187072187368
 11
2839.1665791032805
 21
1024.0209572187368
  0
LINE
  8
_0-4_
  6
CONTINUOUS
 62
    7
 10
2839.1665791032805
 20
1024.0209572187368
 11
2839.1547291032802
 21
1024.0232072187368
  0
LINE
  8
_0-4_
  6
CONTINUOUS
 62
    7
 10
2839.1547291032802
 20
1024.0232072187368
 11
2839.1427291032805
 21
1024.0256072187369
  0
LINE
  8
_0-4_
  6
CONTINUOUS
 62
    7
 10
2839.1427291032805
 20
1024.0256072187369
 11
2839.1304291032802
 21
1024.0283072187369
  0
LINE
  8
_0-4_
  6
CONTINUOUS
 62
    7
 10
2839.1304291032802
 20
1024.0283072187369
 11
2839.1175291032805
 21
1024.0310072187369
  0
LINE
  8
_0-4_
  6
CONTINUOUS
 62
    7
 10
2839.1175291032805
 20
1024.0310072187369
 11
2839.1043291032801
 21
1024.0340072187368
  0
LINE
  8
_0-4_
  6
CONTINUOUS
 62
    7
 10
2839.1043291032801
 20
1024.0340072187368
 11
2839.0903791032806
 21
1024.0371572187368
  0
LINE
  8
_0-4_
  6
CONTINUOUS
 62
    7
 10
2839.0903791032806
 20
1024.0371572187368
 11
2839.0758291032807
 21
1024.040607218737
  0
LINE
  8
_0-4_
  6
CONTINUOUS
 62
    7
 10
2839.0758291032807
 20
1024.040607218737
 11
2839.0608291032804
 21
1024.044207218737
  0
LINE
  8
_0-4_
  6
CONTINUOUS
 62
    7
 10
2839.0608291032804
 20
1024.044207218737
 11
2839.0456791032806
 21
1024.0479572187368
  0
LINE
  8
_0-4_
  6
CONTINUOUS
 62
    7
 10
2839.0456791032806
 20
1024.0479572187368
 11
2839.0306791032808
 21
1024.051857218737
  0
LINE
  8
_0-4_
  6
CONTINUOUS
 62
    7
 10
2839.0306791032808
 20
1024.051857218737
 11
2839.0159791032806
 21
1024.0556072187368
  0
LINE
  8
_0-4_
  6
CONTINUOUS
 62
    7
 10
2839.0159791032806
 20
1024.0556072187368
 11
2839.0020291032806
 21
1024.0592072187369
  0
LINE
  8
_0-4_
  6
CONTINUOUS
 62
    7
 10
2839.0020291032806
 20
1024.0592072187369
 11
2838.9888291032812
 21
1024.062657218737
  0
LINE
  8
_0-4_
  6
CONTINUOUS
 62
    7
 10
2838.9888291032812
 20
1024.062657218737
 11
2838.9768291032805
 21
1024.065807218737
  0
LINE
  8
_0-4_
  6
CONTINUOUS
 62
    7
 10
2838.9768291032805
 20
1024.065807218737
 11
2838.9661791032808
 21
1024.0686572187369
  0
LINE
  8
_0-4_
  6
CONTINUOUS
 62
    7
 10
2838.9661791032808
 20
1024.0686572187369
 11
2838.9567291032808
 21
1024.071207218737
  0
LINE
  8
_0-4_
  6
CONTINUOUS
 62
    7
 10
2838.9567291032808
 20
1024.071207218737
 11
2838.9483291032811
 21
1024.073457218737
  0
LINE
  8
_0-4_
  6
CONTINUOUS
 62
    7
 10
2838.9483291032811
 20
1024.073457218737
 11
2838.9405291032808
 21
1024.075707218737
  0
LINE
  8
_0-4_
  6
CONTINUOUS
 62
    7
 10
2838.9405291032808
 20
1024.075707218737
 11
2838.9334791032806
 21
1024.0778072187367
  0
LINE
  8
_0-4_
  6
CONTINUOUS
 62
    7
 10
2838.9334791032806
 20
1024.0778072187367
 11
2838.9265791032808
 21
1024.0799072187369
  0
LINE
  8
_0-4_
  6
CONTINUOUS
 62
    7
 10
2838.9265791032808
 20
1024.0799072187369
 11
2838.9199791032806
 21
1024.082007218737
  0
LINE
  8
_0-4_
  6
CONTINUOUS
 62
    7
 10
2838.9199791032806
 20
1024.082007218737
 11
2838.9130791032807
 21
1024.084257218737
  0
LINE
  8
_0-4_
  6
CONTINUOUS
 62
    7
 10
2838.9130791032807
 20
1024.084257218737
 11
2838.906029103281
 21
1024.0868072187367
  0
LINE
  8
_0-4_
  6
CONTINUOUS
 62
    7
 10
2838.906029103281
 20
1024.0868072187367
 11
2838.898829103281
 21
1024.0893572187369
  0
LINE
  8
_0-4_
  6
CONTINUOUS
 62
    7
 10
2838.898829103281
 20
1024.0893572187369
 11
2838.8914791032807
 21
1024.0919072187371
  0
LINE
  8
_0-4_
  6
CONTINUOUS
 62
    7
 10
2838.8914791032807
 20
1024.0919072187371
 11
2838.8841291032804
 21
1024.0946072187371
  0
LINE
  8
_0-4_
  6
CONTINUOUS
 62
    7
 10
2838.8841291032804
 20
1024.0946072187371
 11
2838.8770791032807
 21
1024.0971572187368
  0
LINE
  8
_0-4_
  6
CONTINUOUS
 62
    7
 10
2838.8770791032807
 20
1024.0971572187368
 11
2838.8703291032807
 21
1024.0997072187367
  0
LINE
  8
_0-4_
  6
CONTINUOUS
 62
    7
 10
2838.8703291032807
 20
1024.0997072187367
 11
2838.8638791032803
 21
1024.1021072187368
  0
LINE
  8
_0-4_
  6
CONTINUOUS
 62
    7
 10
2838.8638791032803
 20
1024.1021072187368
 11
2838.8581791032806
 21
1024.1042072187367
  0
LINE
  8
_0-4_
  6
CONTINUOUS
 62
    7
 10
2838.8581791032806
 20
1024.1042072187367
 11
2838.8529291032809
 21
1024.1063072187371
  0
LINE
  8
_0-4_
  6
CONTINUOUS
 62
    7
 10
2838.8529291032809
 20
1024.1063072187371
 11
2838.8484291032809
 21
1024.1081072187371
  0
LINE
  8
_0-4_
  6
CONTINUOUS
 62
    7
 10
2838.8484291032809
 20
1024.1081072187371
 11
2838.8442291032806
 21
1024.1097572187368
  0
LINE
  8
_0-4_
  6
CONTINUOUS
 62
    7
 10
2838.8442291032806
 20
1024.1097572187368
 11
2838.8404791032803
 21
1024.1112572187371
  0
LINE
  8
_0-4_
  6
CONTINUOUS
 62
    7
 10
2838.8404791032803
 20
1024.1112572187371
 11
2838.8368791032803
 21
1024.1127572187367
  0
LINE
  8
_0-4_
  6
CONTINUOUS
 62
    7
 10
2838.8368791032803
 20
1024.1127572187367
 11
2838.8332791032803
 21
1024.1144072187371
  0
LINE
  8
_0-4_
  6
CONTINUOUS
 62
    7
 10
2838.8332791032803
 20
1024.1144072187371
 11
2838.8296791032803
 21
1024.1160572187368
  0
LINE
  8
_0-4_
  6
CONTINUOUS
 62
    7
 10
2838.8296791032803
 20
1024.1160572187368
 11
2838.8259291032809
 21
1024.1178572187368
  0
LINE
  8
_0-4_
  6
CONTINUOUS
 62
    7
 10
2838.8259291032809
 20
1024.1178572187368
 11
2838.8218791032804
 21
1024.1199572187367
  0
LINE
  8
_0-4_
  6
CONTINUOUS
 62
    7
 10
2838.8218791032804
 20
1024.1199572187367
 11
2838.8175291032803
 21
1024.1220572187371
  0
LINE
  8
_0-4_
  6
CONTINUOUS
 62
    7
 10
2838.8175291032803
 20
1024.1220572187371
 11
2838.8130291032803
 21
1024.1243072187371
  0
LINE
  8
_0-4_
  6
CONTINUOUS
 62
    7
 10
2838.8130291032803
 20
1024.1243072187371
 11
2838.8085291032803
 21
1024.1265572187371
  0
LINE
  8
_0-4_
  6
CONTINUOUS
 62
    7
 10
2838.8085291032803
 20
1024.1265572187371
 11
2838.8040291032802
 21
1024.1289572187367
  0
LINE
  8
_0-4_
  6
CONTINUOUS
 62
    7
 10
2838.8040291032802
 20
1024.1289572187367
 11
2838.7995291032802
 21
1024.1313572187368
  0
LINE
  8
_0-4_
  6
CONTINUOUS
 62
    7
 10
2838.7995291032802
 20
1024.1313572187368
 11
2838.7953291032808
 21
1024.1336072187368
  0
LINE
  8
_0-4_
  6
CONTINUOUS
 62
    7
 10
2838.7953291032808
 20
1024.1336072187368
 11
2838.7912791032804
 21
1024.1357072187367
  0
LINE
  8
_0-4_
  6
CONTINUOUS
 62
    7
 10
2838.7912791032804
 20
1024.1357072187367
 11
2838.787529103281
 21
1024.1378072187367
  0
LINE
  8
_0-4_
  6
CONTINUOUS
 62
    7
 10
2838.787529103281
 20
1024.1378072187367
 11
2838.7840791032804
 21
1024.1397572187368
  0
LINE
  8
_0-4_
  6
CONTINUOUS
 62
    7
 10
2838.7840791032804
 20
1024.1397572187368
 11
2838.7809291032808
 21
1024.1415572187368
  0
LINE
  8
_0-4_
  6
CONTINUOUS
 62
    7
 10
2838.7809291032808
 20
1024.1415572187368
 11
2838.778079103281
 21
1024.1433572187368
  0
LINE
  8
_0-4_
  6
CONTINUOUS
 62
    7
 10
2838.778079103281
 20
1024.1433572187368
 11
2838.7752291032807
 21
1024.1451572187368
  0
LINE
  8
_0-4_
  6
CONTINUOUS
 62
    7
 10
2838.7752291032807
 20
1024.1451572187368
 11
2838.772679103281
 21
1024.1469572187368
  0
LINE
  8
_0-4_
  6
CONTINUOUS
 62
    7
 10
2838.772679103281
 20
1024.1469572187368
 11
2838.7702791032806
 21
1024.1487572187368
  0
LINE
  8
_0-4_
  6
CONTINUOUS
 62
    7
 10
2838.7702791032806
 20
1024.1487572187368
 11
2838.7680291032802
 21
1024.1505572187368
  0
LINE
  8
_0-4_
  6
CONTINUOUS
 62
    7
 10
2838.7680291032802
 20
1024.1505572187368
 11
2838.7657791032806
 21
1024.1525072187369
  0
LINE
  8
_0-4_
  6
CONTINUOUS
 62
    7
 10
2838.7657791032806
 20
1024.1525072187369
 11
2838.7636791032809
 21
1024.1546072187368
  0
LINE
  8
_0-4_
  6
CONTINUOUS
 62
    7
 10
2838.7636791032809
 20
1024.1546072187368
 11
2838.7617291032806
 21
1024.1565572187369
  0
LINE
  8
_0-4_
  6
CONTINUOUS
 62
    7
 10
2838.7617291032806
 20
1024.1565572187369
 11
2838.7599291032802
 21
1024.1585072187367
  0
LINE
  8
_0-4_
  6
CONTINUOUS
 62
    7
 10
2838.7599291032802
 20
1024.1585072187367
 11
2838.7582791032809
 21
1024.1604572187366
  0
LINE
  8
_0-4_
  6
CONTINUOUS
 62
    7
 10
2838.7582791032809
 20
1024.1604572187366
 11
2838.7567791032806
 21
1024.1621072187367
  0
LINE
  8
_0-4_
  6
CONTINUOUS
 62
    7
 10
2838.7567791032806
 20
1024.1621072187367
 11
2838.7555791032809
 21
1024.1636072187366
  0
LINE
  8
_0-4_
  6
CONTINUOUS
 62
    7
 10
2838.7555791032809
 20
1024.1636072187366
 11
2838.7519791032809
 21
1024.1681072187366
  0
LINE
  8
_0-4_
  6
CONTINUOUS
 62
    7
 10
2838.7390791032803
 20
1024.1979572187369
 11
2838.7390791032803
 21
1025.9999072187367
  0
LINE
  8
_0-4_
  6
CONTINUOUS
 62
    7
 10
2840.7390291032806
 20
1025.9999072187367
 11
2838.7390791032803
 21
1025.9999072187367
  0
LINE
  8
_0-4_
  6
CONTINUOUS
 62
    7
 10
2840.7390291032806
 20
1022.4962072187367
 11
2840.7390291032806
 21
1024.0008572187368
  0
LINE
  8
_0-4_
  6
CONTINUOUS
 62
    7
 10
2454.0390291032804
 20
1024.1999072187368
 11
2454.0390291032804
 21
1022.4999572187368
  0
LINE
  8
_0-4_
  6
CONTINUOUS
 62
    7
 10
2454.0390291032804
 20
1024.1999072187368
 11
2834.8545291032805
 21
1024.1999072187368
  0
LINE
  8
_0-4_
  6
CONTINUOUS
 62
    7
 10
2509.0770291032804
 20
1099.7481572187368
 11
2458.7973291032803
 21
1102.3832072187367
  0
LINE
  8
_0-4_
  6
CONTINUOUS
 62
    7
 10
2513.6391291032805
 20
1099.6286072187367
 11
2825.5390791032805
 21
1099.6286072187367
  0
LINE
  8
_0-4_
  6
CONTINUOUS
 62
    7
 10
2834.8545291032805
 20
1023.9999572187367
 11
2834.8545291032805
 21
1024.1999072187368
  0
LINE
  8
_0-4_
  6
CONTINUOUS
 62
    7
 10
2454.0390291032804
 20
1027.499907218737
 11
2454.0390291032804
 21
1024.1999072187368
  0
LINE
  8
_0-4_
  6
CONTINUOUS
 62
    7
 10
2453.5390791032805
 20
1027.9998572187369
 11
2454.0390291032804
 21
1027.499907218737
  0
LINE
  8
_0-4_
  6
CONTINUOUS
 62
    7
 10
2453.5390791032805
 20
1053.9999572187368
 11
2453.5390791032805
 21
1027.9998572187369
  0
LINE
  8
_0-4_
  6
CONTINUOUS
 62
    7
 10
2465.2548291032808
 20
1056.9999572187368
 11
2456.5390791032805
 21
1056.9999572187368
  0
LINE
  8
_0-4_
  6
CONTINUOUS
 62
    7
 10
2478.7390791032803
 20
1061.7498572187369
 11
2471.1232791032803
 21
1061.7498572187369
  0
LINE
  8
_0-4_
  6
CONTINUOUS
 62
    7
 10
2479.2390291032806
 20
1061.6159072187367
 11
2479.2390291032806
 21
1052.4999572187368
  0
LINE
  8
_0-4_
  6
CONTINUOUS
 62
    7
 10
2485.0390791032805
 20
1052.4999572187368
 11
2479.2390291032806
 21
1052.4999572187368
  0
LINE
  8
_0-4_
  6
CONTINUOUS
 62
    7
 10
2485.2390291032806
 20
1079.2998572187368
 11
2485.2390291032806
 21
1052.6999072187368
  0
LINE
  8
_0-4_
  6
CONTINUOUS
 62
    7
 10
2479.2390291032806
 20
1079.4999572187366
 11
2485.0390791032805
 21
1079.4999572187366
  0
LINE
  8
_0-4_
  6
CONTINUOUS
 62
    7
 10
2479.2390291032806
 20
1079.4999572187366
 11
2479.2390291032806
 21
1070.3838572187369
  0
LINE
  8
_0-4_
  6
CONTINUOUS
 62
    7
 10
2471.1232791032803
 20
1070.2499072187367
 11
2478.7390791032803
 21
1070.2499072187367
  0
LINE
  8
_0-4_
  6
CONTINUOUS
 62
    7
 10
2456.5390791032805
 20
1074.9999572187368
 11
2465.2548291032808
 21
1074.9999572187368
  0
LINE
  8
_0-4_
  6
CONTINUOUS
 62
    7
 10
2453.5390791032805
 20
1099.499907218737
 11
2453.5390791032805
 21
1077.9999572187371
  0
LINE
  8
_0-4_
  6
CONTINUOUS
 62
    7
 10
2454.0390291032804
 20
1099.499907218737
 11
2453.5390791032805
 21
1099.499907218737
  0
LINE
  8
_0-4_
  6
CONTINUOUS
 62
    7
 10
2834.8545291032805
 20
1023.9999572187367
 11
2838.7390791032803
 21
1023.9999572187367
  0
LINE
  8
_0-4_
  6
CONTINUOUS
 62
    7
 10
2838.7390791032803
 20
1023.9999572187367
 11
2839.2817791032803
 21
1023.9999572187367
  0
LINE
  8
_0-4_
  6
CONTINUOUS
 62
    7
 10
2831.5390791032805
 20
1109.7999572187368
 11
2836.23242910328
 21
1109.7999572187368
  0
LINE
  8
_0-4_
  6
CONTINUOUS
 62
    7
 10
2454.0390291032804
 20
1101.0681572187368
 11
2454.0390291032804
 21
1099.499907218737
  0
LINE
  8
_0-4_
  6
CONTINUOUS
 62
    7
 10
2513.6391291032805
 20
1099.6286072187367
 11
2513.6391291032805
 21
1099.7603072187368
  0
LINE
  8
_0-4_
  6
CONTINUOUS
 62
    7
 10
2825.5390791032805
 20
1099.6286072187367
 11
2825.5390791032805
 21
1099.7603072187368
  0
LINE
  8
_0-4_
  6
CONTINUOUS
 62
    7
 10
2509.0770291032804
 20
1099.7481572187368
 11
2509.0839291032802
 21
1099.8795572187368
  0
LINE
  8
_0-4_
  6
CONTINUOUS
 62
    7
 10
2479.7389791032805
 20
1071.2499572187368
 11
2479.7389791032805
 21
1079.2998572187368
  0
LINE
  8
_0-4_
  6
CONTINUOUS
 62
    7
 10
2479.7389791032805
 20
1052.6999072187368
 11
2479.7389791032805
 21
1060.7499572187366
  0
LINE
  8
_0-4_
  6
CONTINUOUS
 62
    7
 10
2451.5389791032803
 20
1023.9999572187367
 11
2451.5389791032803
 21
1022.9999072187367
  0
LINE
  8
_0-4_
  6
CONTINUOUS
 62
    7
 10
2451.5389791032803
 20
1022.9999072187367
 11
2454.0390291032804
 21
1022.9999072187367
  0
LINE
  8
_0-4_
  6
CONTINUOUS
 62
    7
 10
2454.0390291032804
 20
1023.9999572187367
 11
2451.5389791032803
 21
1023.9999572187367
  0
LINE
  8
_0-4_
  6
CONTINUOUS
 62
    7
 10
2850.4518291032809
 20
1023.9999572187367
 11
2850.4518291032809
 21
1098.2333072187368
  0
LINE
  8
_0-4_
  6
CONTINUOUS
 62
    7
 10
2850.4518291032809
 20
1105.3665572187369
 11
2850.4518291032809
 21
1109.7999572187368
  0
LINE
  8
_0-4_
  6
CONTINUOUS
 62
    7
 10
2841.5389791032803
 20
1101.7998572187368
 11
2841.5389791032803
 21
1102.2999572187368
  0
LINE
  8
_0-4_
  6
CONTINUOUS
 62
    7
 10
2841.5389791032803
 20
1101.7998572187368
 11
2841.0390291032808
 21
1101.7998572187368
  0
LINE
  8
_0-4_
  6
CONTINUOUS
 62
    7
 10
2841.5389791032803
 20
1101.7998572187368
 11
2841.5389791032803
 21
1101.2999072187369
  0
LINE
  8
_0-4_
  6
CONTINUOUS
 62
    7
 10
2841.5389791032803
 20
1101.7998572187368
 11
2842.0390791032809
 21
1101.7998572187368
  0
LINE
  8
_0-4_
  6
CONTINUOUS
 62
    7
 10
2841.5389791032803
 20
1102.7999072187369
 11
2841.5389791032803
 21
1111.8999572187367
  0
LINE
  8
_0-4_
  6
CONTINUOUS
 62
    7
 10
2840.5390791032805
 20
1101.7998572187368
 11
2831.4390291032805
 21
1101.7998572187368
  0
LINE
  8
_0-4_
  6
CONTINUOUS
 62
    7
 10
2841.5389791032803
 20
1100.7999572187368
 11
2841.5389791032803
 21
1091.6999072187368
  0
LINE
  8
_0-4_
  6
CONTINUOUS
 62
    7
 10
2842.5390291032808
 20
1101.7998572187368
 11
2851.6390791032799
 21
1101.7998572187368
  0
LINE
  8
_0-4_
  6
CENTER2
 62
    7
 10
2492.5309791032805
 20
1065.9999572187368
 11
2467.3732791032803
 21
1065.9999572187368
  0
ARC
  8
_0-4_
  6
CONTINUOUS
 62
    7
 10
2513.6391291032805
 20
1186.7999072187367
 40
87.039600000000021
 50
267
 51
270.00000000000005
  0
CIRCLE
  8
_0-4_
  6
CONTINUOUS
 62
    7
 10
2841.5389791032803
 20
1101.7998572187368
 40
9.6000000000000014
  0
ARC
  8
_0-4_
  6
CONTINUOUS
 62
    7
 10
2513.6391291032805
 20
1186.7999072187367
 40
87.171300000000002
 50
267
 51
270.00000000000005
  0
ARC
  8
_0-4_
  6
CONTINUOUS
 62
    7
 10
2827.6690791032806
 20
1108.599957218737
 40
1.9999500000000003
 50
270.00000000000005
 51
348.47200000000003
  0
ARC
  8
_0-4_
  6
CONTINUOUS
 62
    7
 10
2831.5884291032807
 20
1107.8004572187367
 40
1.9999500000000003
 50
91.413000000000025
 51
168.47200000000003
  0
ARC
  8
_0-4_
  6
CONTINUOUS
 62
    7
 10
2456.5390791032805
 20
1053.9999572187368
 40
3.0000000000000004
 50
90.000000000000028
 51
180.00000000000005
  0
ARC
  8
_0-4_
  6
CONTINUOUS
 62
    7
 10
2465.2548291032808
 20
1059.9999572187368
 40
3.0000000000000004
 50
270.00000000000005
 51
347.97500000000007
  0
ARC
  8
_0-4_
  6
CONTINUOUS
 62
    7
 10
2471.1232791032803
 20
1058.7498572187369
 40
3.0000000000000004
 50
90.000000000000028
 51
167.97500000000002
  0
ARC
  8
_0-4_
  6
CONTINUOUS
 62
    7
 10
2478.7390791032803
 20
1060.7499572187366
 40
1.0000500000000001
 50
60.000000000000007
 51
90.000000000000014
  0
ARC
  8
_0-4_
  6
CONTINUOUS
 62
    7
 10
2485.0390791032805
 20
1052.6999072187368
 40
0.19995
 50
270.00000000000005
 51
0.0000000000000763
  0
ARC
  8
_0-4_
  6
CONTINUOUS
 62
    7
 10
2485.0390791032805
 20
1079.2998572187368
 40
0.19995
 50
0
 51
90.000000000000028
  0
ARC
  8
_0-4_
  6
CONTINUOUS
 62
    7
 10
2478.7390791032803
 20
1071.2499572187368
 40
1.0000500000000001
 50
270.00000000000005
 51
300.00000000000005
  0
ARC
  8
_0-4_
  6
CONTINUOUS
 62
    7
 10
2471.1232791032803
 20
1073.249907218737
 40
3.0000000000000004
 50
192.02500000000003
 51
270.00000000000005
  0
ARC
  8
_0-4_
  6
CONTINUOUS
 62
    7
 10
2465.2548291032808
 20
1071.9999572187366
 40
3.0000000000000004
 50
12.025000000000002
 51
90.000000000000014
  0
ARC
  8
_0-4_
  6
CONTINUOUS
 62
    7
 10
2456.5390791032805
 20
1077.9999572187371
 40
3.0000000000000004
 50
180.00000000000005
 51
270.00000000000005
  0
ARC
  8
_0-4_
  6
CONTINUOUS
 62
    7
 10
2479.9390791032806
 20
1079.2998572187368
 40
0.19995
 50
90.000000000000028
 51
180.00000000000005
  0
ARC
  8
_0-4_
  6
CONTINUOUS
 62
    7
 10
2478.7390791032803
 20
1071.2499572187368
 40
1.0000500000000001
 50
300.00000000000005
 51
0.0000000000000763
  0
ARC
  8
_0-4_
  6
CONTINUOUS
 62
    7
 10
2479.9390791032806
 20
1052.6999072187368
 40
0.19995
 50
180.00000000000005
 51
270.00000000000005
  0
ARC
  8
_0-4_
  6
CONTINUOUS
 62
    7
 10
2478.7390791032803
 20
1060.7499572187366
 40
1.0000500000000001
 50
0
 51
60.000000000000007
  0
LINE
  8
_0-4_
  6
CONTINUOUS
 62
    7
 10
2458.1367791032807
 20
721.36220000000071
 11
2458.1449791032805
 21
721.12820000000067
  0
LINE
  8
_0-4_
  6
CONTINUOUS
 62
    7
 10
2458.1449791032805
 20
721.12820000000067
 11
2458.1527791032808
 21
720.90320000000087
  0
LINE
  8
_0-4_
  6
CONTINUOUS
 62
    7
 10
2458.1527791032808
 20
720.90320000000087
 11
2458.160079103281
 21
720.69590000000073
  0
LINE
  8
_0-4_
  6
CONTINUOUS
 62
    7
 10
2458.160079103281
 20
720.69590000000073
 11
2458.166379103281
 21
720.51420000000075
  0
LINE
  8
_0-4_
  6
CONTINUOUS
 62
    7
 10
2458.166379103281
 20
720.51420000000075
 11
2458.1715791032811
 21
720.36500000000069
  0
LINE
  8
_0-4_
  6
CONTINUOUS
 62
    7
 10
2458.1715791032811
 20
720.36500000000069
 11
2458.1754791032808
 21
720.25420000000065
  0
LINE
  8
_0-4_
  6
CONTINUOUS
 62
    7
 10
2458.1754791032808
 20
720.25420000000065
 11
2458.1778791032811
 21
720.18590000000085
  0
LINE
  8
_0-4_
  6
CONTINUOUS
 62
    7
 10
2458.1778791032811
 20
720.18590000000085
 11
2458.1786791032809
 21
720.16290000000071
  0
LINE
  8
_0-4_
  6
CONTINUOUS
 62
    7
 10
2454.0390791032809
 20
724.16050000000063
 11
2455.2390791032808
 21
724.16050000000063
  0
LINE
  8
_0-4_
  6
CONTINUOUS
 62
    7
 10
2454.0390791032809
 20
724.16050000000063
 11
2454.0390791032809
 21
747.83950000000072
  0
LINE
  8
_0-4_
  6
CONTINUOUS
 62
    7
 10
2454.0390791032809
 20
747.83950000000072
 11
2455.2390791032808
 21
747.83950000000072
  0
LINE
  8
_0-4_
  6
CONTINUOUS
 62
    7
 10
2455.2390791032808
 20
747.83950000000072
 11
2455.2390791032808
 21
724.16050000000063
  0
LINE
  8
_0-4_
  6
CONTINUOUS
 62
    7
 10
2458.1786791032809
 20
751.83700000000067
 11
2458.1778791032811
 21
751.81400000000064
  0
LINE
  8
_0-4_
  6
CONTINUOUS
 62
    7
 10
2458.1778791032811
 20
751.81400000000064
 11
2458.1754791032808
 21
751.74570000000085
  0
LINE
  8
_0-4_
  6
CONTINUOUS
 62
    7
 10
2458.1754791032808
 20
751.74570000000085
 11
2458.1715791032811
 21
751.63490000000069
  0
LINE
  8
_0-4_
  6
CONTINUOUS
 62
    7
 10
2458.1715791032811
 20
751.63490000000069
 11
2458.166379103281
 21
751.4858000000006
  0
LINE
  8
_0-4_
  6
CONTINUOUS
 62
    7
 10
2458.166379103281
 20
751.4858000000006
 11
2458.160079103281
 21
751.30400000000076
  0
LINE
  8
_0-4_
  6
CONTINUOUS
 62
    7
 10
2458.160079103281
 20
751.30400000000076
 11
2458.1527791032808
 21
751.09670000000073
  0
LINE
  8
_0-4_
  6
CONTINUOUS
 62
    7
 10
2458.1527791032808
 20
751.09670000000073
 11
2458.1449791032805
 21
750.87170000000082
  0
LINE
  8
_0-4_
  6
CONTINUOUS
 62
    7
 10
2458.1449791032805
 20
750.87170000000082
 11
2458.1367791032807
 21
750.63780000000065
  0
LINE
  8
_0-4_
  6
CONTINUOUS
 62
    7
 10
2458.1367791032807
 20
721.36220000000071
 11
2482.758779103281
 21
722.22200000000066
  0
LINE
  8
_0-4_
  6
CONTINUOUS
 62
    7
 10
2482.758779103281
 20
749.77790000000072
 11
2458.1367791032807
 21
750.63780000000065
  0
LINE
  8
_0-4_
  6
CONTINUOUS
 62
    7
 10
2458.1786791032809
 20
751.83700000000067
 11
2482.8006791032807
 21
750.97720000000072
  0
LINE
  8
_0-4_
  6
CONTINUOUS
 62
    7
 10
2482.8006791032807
 20
750.97720000000072
 11
2482.799879103281
 21
750.95420000000081
  0
LINE
  8
_0-4_
  6
CONTINUOUS
 62
    7
 10
2482.799879103281
 20
750.95420000000081
 11
2482.7974791032811
 21
750.88590000000067
  0
LINE
  8
_0-4_
  6
CONTINUOUS
 62
    7
 10
2482.7974791032811
 20
750.88590000000067
 11
2482.7935791032809
 21
750.77510000000074
  0
LINE
  8
_0-4_
  6
CONTINUOUS
 62
    7
 10
2482.7935791032809
 20
750.77510000000074
 11
2482.7883791032809
 21
750.62600000000077
  0
LINE
  8
_0-4_
  6
CONTINUOUS
 62
    7
 10
2482.7883791032809
 20
750.62600000000077
 11
2482.7820791032809
 21
750.4442000000007
  0
LINE
  8
_0-4_
  6
CONTINUOUS
 62
    7
 10
2482.7820791032809
 20
750.4442000000007
 11
2482.7747791032807
 21
750.23690000000078
  0
LINE
  8
_0-4_
  6
CONTINUOUS
 62
    7
 10
2482.7747791032807
 20
750.23690000000078
 11
2482.7669791032808
 21
750.01190000000065
  0
LINE
  8
_0-4_
  6
CONTINUOUS
 62
    7
 10
2482.7669791032808
 20
750.01190000000065
 11
2482.758779103281
 21
749.77790000000072
  0
LINE
  8
_0-4_
  6
CONTINUOUS
 62
    7
 10
2482.758779103281
 20
722.22200000000066
 11
2482.7669791032808
 21
721.98800000000073
  0
LINE
  8
_0-4_
  6
CONTINUOUS
 62
    7
 10
2482.7669791032808
 20
721.98800000000073
 11
2482.7747791032807
 21
721.76310000000069
  0
LINE
  8
_0-4_
  6
CONTINUOUS
 62
    7
 10
2482.7747791032807
 20
721.76310000000069
 11
2482.7820791032809
 21
721.55570000000079
  0
LINE
  8
_0-4_
  6
CONTINUOUS
 62
    7
 10
2482.7820791032809
 20
721.55570000000079
 11
2482.7883791032809
 21
721.3740000000007
  0
LINE
  8
_0-4_
  6
CONTINUOUS
 62
    7
 10
2482.7883791032809
 20
721.3740000000007
 11
2482.7935791032809
 21
721.22480000000064
  0
LINE
  8
_0-4_
  6
CONTINUOUS
 62
    7
 10
2482.7935791032809
 20
721.22480000000064
 11
2482.7974791032811
 21
721.11400000000071
  0
LINE
  8
_0-4_
  6
CONTINUOUS
 62
    7
 10
2482.7974791032811
 20
721.11400000000071
 11
2482.799879103281
 21
721.04580000000066
  0
LINE
  8
_0-4_
  6
CONTINUOUS
 62
    7
 10
2482.799879103281
 20
721.04580000000066
 11
2482.8006791032807
 21
721.02270000000078
  0
LINE
  8
_0-4_
  6
CONTINUOUS
 62
    7
 10
2482.8006791032807
 20
721.02270000000078
 11
2458.1786791032809
 21
720.16290000000071
  0
LINE
  8
_0-4_
  6
CONTINUOUS
 62
    7
 10
2487.7646791032807
 20
726.44850000000087
 11
2487.9939791032807
 21
726.40120000000069
  0
LINE
  8
_0-4_
  6
CONTINUOUS
 62
    7
 10
2487.9939791032807
 20
726.40120000000069
 11
2488.2143791032808
 21
726.35580000000072
  0
LINE
  8
_0-4_
  6
CONTINUOUS
 62
    7
 10
2488.2143791032808
 20
726.35580000000072
 11
2488.4175791032807
 21
726.31390000000078
  0
LINE
  8
_0-4_
  6
CONTINUOUS
 62
    7
 10
2488.4175791032807
 20
726.31390000000078
 11
2488.5956791032808
 21
726.27720000000067
  0
LINE
  8
_0-4_
  6
CONTINUOUS
 62
    7
 10
2488.5956791032808
 20
726.27720000000067
 11
2488.741879103281
 21
726.24700000000075
  0
LINE
  8
_0-4_
  6
CONTINUOUS
 62
    7
 10
2488.741879103281
 20
726.24700000000075
 11
2488.850479103281
 21
726.22460000000069
  0
LINE
  8
_0-4_
  6
CONTINUOUS
 62
    7
 10
2488.850479103281
 20
726.22460000000069
 11
2488.9173791032808
 21
726.21090000000071
  0
LINE
  8
_0-4_
  6
CONTINUOUS
 62
    7
 10
2488.9173791032808
 20
726.21090000000071
 11
2488.9398791032808
 21
726.20620000000076
  0
LINE
  8
_0-4_
  6
CONTINUOUS
 62
    7
 10
2487.7646791032807
 20
745.55140000000073
 11
2487.9939791032807
 21
745.59870000000069
  0
LINE
  8
_0-4_
  6
CONTINUOUS
 62
    7
 10
2487.9939791032807
 20
745.59870000000069
 11
2488.2143791032808
 21
745.64420000000063
  0
LINE
  8
_0-4_
  6
CONTINUOUS
 62
    7
 10
2488.2143791032808
 20
745.64420000000063
 11
2488.4175791032807
 21
745.68600000000071
  0
LINE
  8
_0-4_
  6
CONTINUOUS
 62
    7
 10
2488.4175791032807
 20
745.68600000000071
 11
2488.5956791032808
 21
745.72280000000068
  0
LINE
  8
_0-4_
  6
CONTINUOUS
 62
    7
 10
2488.5956791032808
 20
745.72280000000068
 11
2488.741879103281
 21
745.75290000000063
  0
LINE
  8
_0-4_
  6
CONTINUOUS
 62
    7
 10
2488.741879103281
 20
745.75290000000063
 11
2488.850479103281
 21
745.77530000000069
  0
LINE
  8
_0-4_
  6
CONTINUOUS
 62
    7
 10
2488.850479103281
 20
745.77530000000069
 11
2488.9173791032808
 21
745.78910000000064
  0
LINE
  8
_0-4_
  6
CONTINUOUS
 62
    7
 10
2488.9173791032808
 20
745.78910000000064
 11
2488.9398791032808
 21
745.79370000000062
  0
LINE
  8
_0-4_
  6
CONTINUOUS
 62
    7
 10
2452.5390791032809
 20
755.75000000000068
 11
2452.5390791032809
 21
753.53490000000078
  0
LINE
  8
_0-4_
  6
CONTINUOUS
 62
    7
 10
2452.5390791032809
 20
753.5000000000009
 11
2451.7390791032808
 21
753.5000000000009
  0
LINE
  8
_0-4_
  6
CONTINUOUS
 62
    7
 10
2451.7390791032808
 20
755.75000000000068
 11
2451.7390791032808
 21
753.5000000000009
  0
LINE
  8
_0-4_
  6
CONTINUOUS
 62
    7
 10
2452.5390791032809
 20
755.75000000000068
 11
2451.7390791032808
 21
755.75000000000068
  0
LINE
  8
_0-4_
  6
CONTINUOUS
 62
    7
 10
2450.5390791032809
 20
753.13660000000072
 11
2450.5390791032809
 21
755.38660000000072
  0
LINE
  8
_0-4_
  6
CONTINUOUS
 62
    7
 10
2451.7390791032808
 20
753.5000000000009
 11
2451.7390791032808
 21
718.50000000000079
  0
LINE
  8
_0-4_
  6
CONTINUOUS
 62
    7
 10
2450.5390791032809
 20
718.86330000000066
 11
2450.5390791032809
 21
753.13660000000072
  0
LINE
  8
_0-4_
  6
CONTINUOUS
 62
    7
 10
2451.7390791032808
 20
718.50000000000079
 11
2451.7390791032808
 21
716.2500000000009
  0
LINE
  8
_0-4_
  6
CONTINUOUS
 62
    7
 10
2450.5390791032809
 20
716.61330000000077
 11
2450.5390791032809
 21
718.86330000000066
  0
LINE
  8
_0-4_
  6
CONTINUOUS
 62
    7
 10
2452.5390791032809
 20
718.46500000000082
 11
2482.852979103281
 21
719.52360000000089
  0
LINE
  8
_0-4_
  6
CONTINUOUS
 62
    7
 10
2452.5390791032809
 20
718.50000000000079
 11
2452.5390791032809
 21
718.46500000000082
  0
LINE
  8
_0-4_
  6
CONTINUOUS
 62
    7
 10
2452.5390791032809
 20
718.50000000000079
 11
2451.7390791032808
 21
718.50000000000079
  0
LINE
  8
_0-4_
  6
CONTINUOUS
 62
    7
 10
2482.852979103281
 20
752.47630000000071
 11
2452.5390791032809
 21
753.53490000000078
  0
LINE
  8
_0-4_
  6
CONTINUOUS
 62
    7
 10
2452.5390791032809
 20
753.53490000000078
 11
2452.5390791032809
 21
753.5000000000009
  0
LINE
  8
_0-4_
  6
CONTINUOUS
 62
    7
 10
2452.5390791032809
 20
718.46500000000082
 11
2452.5390791032809
 21
716.2500000000009
  0
LINE
  8
_0-4_
  6
CONTINUOUS
 62
    7
 10
2452.5390791032809
 20
716.2500000000009
 11
2451.7390791032808
 21
716.2500000000009
  0
LINE
  8
_0-4_
  6
CONTINUOUS
 62
    7
 10
2451.7390791032808
 20
762.03830000000061
 11
2451.7390791032808
 21
755.75000000000068
  0
LINE
  8
_0-4_
  6
CONTINUOUS
 62
    7
 10
2451.7390791032808
 20
762.03830000000061
 11
2450.5390791032809
 21
762.03830000000061
  0
LINE
  8
_0-4_
  6
CONTINUOUS
 62
    7
 10
2450.5390791032809
 20
755.38660000000072
 11
2450.5390791032809
 21
762.03830000000061
  0
LINE
  8
_0-4_
  6
CONTINUOUS
 62
    7
 10
2451.7390791032808
 20
696.2500000000009
 11
2451.7390791032808
 21
693.25000000000068
  0
LINE
  8
_0-4_
  6
CONTINUOUS
 62
    7
 10
2451.7390791032808
 20
696.2500000000009
 11
2450.5390791032809
 21
696.2500000000009
  0
LINE
  8
_0-4_
  6
CONTINUOUS
 62
    7
 10
2450.5390791032809
 20
694.45000000000072
 11
2450.5390791032809
 21
696.2500000000009
  0
LINE
  8
_0-4_
  6
CONTINUOUS
 62
    7
 10
2451.7390791032808
 20
778.75000000000068
 11
2451.7390791032808
 21
775.75000000000068
  0
LINE
  8
_0-4_
  6
CONTINUOUS
 62
    7
 10
2451.7390791032808
 20
775.75000000000068
 11
2450.5390791032809
 21
775.75000000000068
  0
LINE
  8
_0-4_
  6
CONTINUOUS
 62
    7
 10
2450.5390791032809
 20
775.75000000000068
 11
2450.5390791032809
 21
777.55000000000063
  0
LINE
  8
_0-4_
  6
CONTINUOUS
 62
    7
 10
2451.7390791032808
 20
716.2500000000009
 11
2451.7390791032808
 21
709.78350000000079
  0
LINE
  8
_0-4_
  6
CONTINUOUS
 62
    7
 10
2450.5390791032809
 20
709.78350000000079
 11
2451.7390791032808
 21
709.78350000000079
  0
LINE
  8
_0-4_
  6
CONTINUOUS
 62
    7
 10
2450.5390791032809
 20
709.78350000000079
 11
2450.5390791032809
 21
716.61330000000077
  0
LINE
  8
_0-4_
  6
CONTINUOUS
 62
    7
 10
2451.7390791032808
 20
709.78350000000079
 11
2451.7390791032808
 21
696.2500000000009
  0
LINE
  8
_0-4_
  6
CONTINUOUS
 62
    7
 10
2450.5390791032809
 20
696.2500000000009
 11
2450.5390791032809
 21
709.78350000000079
  0
LINE
  8
_0-4_
  6
CONTINUOUS
 62
    7
 10
2451.7390791032808
 20
775.75000000000068
 11
2451.7390791032808
 21
762.03830000000061
  0
LINE
  8
_0-4_
  6
CONTINUOUS
 62
    7
 10
2450.5390791032809
 20
762.03830000000061
 11
2450.5390791032809
 21
775.75000000000068
  0
LINE
  8
_0-4_
  6
CONTINUOUS
 62
    7
 10
2452.5390791032809
 20
693.25000000000068
 11
2451.7390791032808
 21
693.25000000000068
  0
LINE
  8
_0-4_
  6
CONTINUOUS
 62
    7
 10
2451.7390791032808
 20
696.2500000000009
 11
2452.5390791032809
 21
696.2500000000009
  0
LINE
  8
_0-4_
  6
CONTINUOUS
 62
    7
 10
2452.5390791032809
 20
696.2500000000009
 11
2452.5390791032809
 21
693.25000000000068
  0
LINE
  8
_0-4_
  6
CONTINUOUS
 62
    7
 10
2452.5390791032809
 20
775.75000000000068
 11
2451.7390791032808
 21
775.75000000000068
  0
LINE
  8
_0-4_
  6
CONTINUOUS
 62
    7
 10
2451.7390791032808
 20
778.75000000000068
 11
2452.5390791032809
 21
778.75000000000068
  0
LINE
  8
_0-4_
  6
CONTINUOUS
 62
    7
 10
2452.5390791032809
 20
778.75000000000068
 11
2452.5390791032809
 21
775.75000000000068
  0
LINE
  8
_0-4_
  6
CONTINUOUS
 62
    7
 10
2452.5390791032809
 20
775.75000000000068
 11
2452.5390791032809
 21
755.75000000000068
  0
LINE
  8
_0-4_
  6
CONTINUOUS
 62
    7
 10
2452.5390791032809
 20
716.2500000000009
 11
2452.5390791032809
 21
696.2500000000009
  0
LINE
  8
_0-4_
  6
CONTINUOUS
 62
    7
 10
2482.8500791032811
 20
752.49040000000059
 11
2452.5390791032809
 21
753.54890000000068
  0
LINE
  8
_0-4_
  6
CONTINUOUS
 62
    7
 10
2452.5390791032809
 20
718.45110000000079
 11
2482.8500791032811
 21
719.50960000000065
  0
ARC
  8
_0-4_
  6
CONTINUOUS
 62
    7
 10
2458.0390791032809
 20
724.16050000000063
 40
2.7999999999999998
 50
180.00000000000005
 51
272.00000000000005
  0
ARC
  8
_0-4_
  6
CONTINUOUS
 62
    7
 10
2458.0390791032809
 20
724.16050000000063
 40
4
 50
180.00000000000005
 51
272.00000000000005
  0
ARC
  8
_0-4_
  6
CONTINUOUS
 62
    7
 10
2458.0390791032809
 20
747.83950000000072
 40
4
 50
88.000000000000028
 51
180.00000000000005
  0
ARC
  8
_0-4_
  6
CONTINUOUS
 62
    7
 10
2458.0390791032809
 20
747.83950000000072
 40
2.7999999999999998
 50
88.000000000000028
 51
180.00000000000005
  0
ARC
  8
_0-4_
  6
CONTINUOUS
 62
    7
 10
2482.5737791032806
 20
727.51880000000073
 40
5.3000000000000015
 50
272.00000000000011
 51
348.35000000000013
  0
ARC
  8
_0-4_
  6
CONTINUOUS
 62
    7
 10
2482.5737791032806
 20
744.48120000000085
 40
5.3000000000000015
 50
11.650000000000002
 51
88.000000000000014
  0
ARC
  8
_0-4_
  6
CONTINUOUS
 62
    7
 10
2441.439079103281
 20
736.0000000000009
 40
47.299999999999997
 50
348.35000000000013
 51
11.650000000000073
  0
ARC
  8
_0-4_
  6
CONTINUOUS
 62
    7
 10
2482.5737791032806
 20
727.51880000000073
 40
6.5
 50
272.00000000000011
 51
348.35000000000013
  0
ARC
  8
_0-4_
  6
CONTINUOUS
 62
    7
 10
2482.5737791032806
 20
744.48120000000085
 40
6.5
 50
11.650000000000002
 51
88.000000000000014
  0
ARC
  8
_0-4_
  6
CONTINUOUS
 62
    7
 10
2441.439079103281
 20
736.0000000000009
 40
48.500000000000014
 50
348.35000000000013
 51
11.650000000000073
  0
LINE
  8
_0-4_
  6
CONTINUOUS
 62
    7
 10
2451.7390791032867
 20
753.49993076524071
 11
2451.7390791032867
 21
753.49993076524071
  0
LINE
  8
_0-4_
  6
CONTINUOUS
 62
    7
 10
2451.7390791032867
 20
753.49993076524071
 11
2451.5307012900866
 21
753.4944109545172
  0
LINE
  8
_0-4_
  6
CONTINUOUS
 62
    7
 10
2451.5307012900866
 20
753.4944109545172
 11
2451.3286549312956
 21
753.47801923900192
  0
LINE
  8
_0-4_
  6
CONTINUOUS
 62
    7
 10
2451.3286549312956
 20
753.47801923900192
 11
2451.1390791032858
 21
753.45125367267598
  0
LINE
  8
_0-4_
  6
CONTINUOUS
 62
    7
 10
2451.1390791032858
 20
753.45125367267598
 11
2450.9677339716618
 21
753.41492751372823
  0
LINE
  8
_0-4_
  6
CONTINUOUS
 62
    7
 10
2450.9677339716618
 20
753.41492751372823
 11
2450.8198257715421
 21
753.3701445141163
  0
LINE
  8
_0-4_
  6
CONTINUOUS
 62
    7
 10
2450.8198257715421
 20
753.3701445141163
 11
2450.6998486187426
 21
753.31826538262237
  0
LINE
  8
_0-4_
  6
CONTINUOUS
 62
    7
 10
2450.6998486187426
 20
753.31826538262237
 11
2450.6114479583397
 21
753.26086644040447
  0
LINE
  8
_0-4_
  6
CONTINUOUS
 62
    7
 10
2450.6114479583397
 20
753.26086644040447
 11
2450.5573097996671
 21
753.1996917252768
  0
LINE
  8
_0-4_
  6
CONTINUOUS
 62
    7
 10
2450.5573097996671
 20
753.1996917252768
 11
2450.5390791032809
 21
753.13660000000447
  0
LINE
  8
_0-4_
  6
CONTINUOUS
 62
    7
 10
2451.7390791032867
 20
755.74993076524071
 11
2451.7390791032867
 21
755.74993076524071
  0
LINE
  8
_0-4_
  6
CONTINUOUS
 62
    7
 10
2451.7390791032867
 20
755.74993076524071
 11
2451.5307012900866
 21
755.7444109545172
  0
LINE
  8
_0-4_
  6
CONTINUOUS
 62
    7
 10
2451.5307012900866
 20
755.7444109545172
 11
2451.3286549312956
 21
755.72801923900192
  0
LINE
  8
_0-4_
  6
CONTINUOUS
 62
    7
 10
2451.3286549312956
 20
755.72801923900192
 11
2451.1390791032858
 21
755.70125367267598
  0
LINE
  8
_0-4_
  6
CONTINUOUS
 62
    7
 10
2451.1390791032858
 20
755.70125367267598
 11
2450.9677339716618
 21
755.66492751372823
  0
LINE
  8
_0-4_
  6
CONTINUOUS
 62
    7
 10
2450.9677339716618
 20
755.66492751372823
 11
2450.8198257715421
 21
755.6201445141163
  0
LINE
  8
_0-4_
  6
CONTINUOUS
 62
    7
 10
2450.8198257715421
 20
755.6201445141163
 11
2450.6998486187426
 21
755.56826538262237
  0
LINE
  8
_0-4_
  6
CONTINUOUS
 62
    7
 10
2450.6998486187426
 20
755.56826538262237
 11
2450.6114479583397
 21
755.51086644040447
  0
LINE
  8
_0-4_
  6
CONTINUOUS
 62
    7
 10
2450.6114479583397
 20
755.51086644040447
 11
2450.5573097996671
 21
755.4496917252768
  0
LINE
  8
_0-4_
  6
CONTINUOUS
 62
    7
 10
2450.5573097996671
 20
755.4496917252768
 11
2450.5390791032809
 21
755.38660000000447
  0
LINE
  8
_0-4_
  6
CONTINUOUS
 62
    7
 10
2450.5390791032809
 20
718.86330000000441
 11
2450.5390791032809
 21
718.86330000000441
  0
LINE
  8
_0-4_
  6
CONTINUOUS
 62
    7
 10
2450.5390791032809
 20
718.86330000000441
 11
2450.5573097996639
 21
718.80020827473015
  0
LINE
  8
_0-4_
  6
CONTINUOUS
 62
    7
 10
2450.5573097996639
 20
718.80020827473015
 11
2450.6114479583334
 21
718.73903355960214
  0
LINE
  8
_0-4_
  6
CONTINUOUS
 62
    7
 10
2450.6114479583334
 20
718.73903355960214
 11
2450.699848618733
 21
718.6816346173839
  0
LINE
  8
_0-4_
  6
CONTINUOUS
 62
    7
 10
2450.699848618733
 20
718.6816346173839
 11
2450.8198257715298
 21
718.62975548588929
  0
LINE
  8
_0-4_
  6
CONTINUOUS
 62
    7
 10
2450.8198257715298
 20
718.62975548588929
 11
2450.9677339716472
 21
718.58497248627679
  0
LINE
  8
_0-4_
  6
CONTINUOUS
 62
    7
 10
2450.9677339716472
 20
718.58497248627679
 11
2451.1390791032699
 21
718.54864632732824
  0
LINE
  8
_0-4_
  6
CONTINUOUS
 62
    7
 10
2451.1390791032699
 20
718.54864632732824
 11
2451.3286549312783
 21
718.52188076100139
  0
LINE
  8
_0-4_
  6
CONTINUOUS
 62
    7
 10
2451.3286549312783
 20
718.52188076100139
 11
2451.5307012900684
 21
718.50548904548509
  0
LINE
  8
_0-4_
  6
CONTINUOUS
 62
    7
 10
2451.5307012900684
 20
718.50548904548509
 11
2451.7390791032626
 21
718.49996923476066
  0
LINE
  8
_0-4_
  6
CONTINUOUS
 62
    7
 10
2450.5390791032809
 20
716.61330000000452
 11
2450.5390791032809
 21
716.61330000000452
  0
LINE
  8
_0-4_
  6
CONTINUOUS
 62
    7
 10
2450.5390791032809
 20
716.61330000000452
 11
2450.5573097996639
 21
716.55020827473015
  0
LINE
  8
_0-4_
  6
CONTINUOUS
 62
    7
 10
2450.5573097996639
 20
716.55020827473015
 11
2450.6114479583334
 21
716.48903355960226
  0
LINE
  8
_0-4_
  6
CONTINUOUS
 62
    7
 10
2450.6114479583334
 20
716.48903355960226
 11
2450.6998486187335
 21
716.43163461738402
  0
LINE
  8
_0-4_
  6
CONTINUOUS
 62
    7
 10
2450.6998486187335
 20
716.43163461738402
 11
2450.8198257715303
 21
716.3797554858894
  0
LINE
  8
_0-4_
  6
CONTINUOUS
 62
    7
 10
2450.8198257715303
 20
716.3797554858894
 11
2450.9677339716477
 21
716.33497248627691
  0
LINE
  8
_0-4_
  6
CONTINUOUS
 62
    7
 10
2450.9677339716477
 20
716.33497248627691
 11
2451.1390791032699
 21
716.29864632732835
  0
LINE
  8
_0-4_
  6
CONTINUOUS
 62
    7
 10
2451.1390791032699
 20
716.29864632732835
 11
2451.3286549312783
 21
716.27188076100151
  0
LINE
  8
_0-4_
  6
CONTINUOUS
 62
    7
 10
2451.3286549312783
 20
716.27188076100151
 11
2451.5307012900684
 21
716.2554890454852
  0
LINE
  8
_0-4_
  6
CONTINUOUS
 62
    7
 10
2451.5307012900684
 20
716.2554890454852
 11
2451.7390791032626
 21
716.24996923476078
  0
ARC
  8
_0-4_
  6
CONTINUOUS
 62
    7
 10
2482.5737791032806
 20
744.48120000000085
 40
8
 50
11.650000000000002
 51
88.000000000000014
  0
ARC
  8
_0-4_
  6
CONTINUOUS
 62
    7
 10
2441.439079103281
 20
736.0000000000009
 40
50
 50
348.35000000000013
 51
11.650000000000073
  0
ARC
  8
_0-4_
  6
CONTINUOUS
 62
    7
 10
2482.5737791032806
 20
727.51880000000073
 40
8
 50
272.00000000000011
 51
348.35000000000013
  0
ARC
  8
_0-4_
  6
CONTINUOUS
 62
    7
 10
2451.7390791032808
 20
694.45000000000072
 40
1.1999999999999999
 50
180.00000000000005
 51
270.00000000000005
  0
ARC
  8
_0-4_
  6
CONTINUOUS
 62
    7
 10
2451.7390791032808
 20
777.55000000000063
 40
1.1999999999999999
 50
90.000000000000028
 51
180.00000000000005
  0
ARC
  8
_0-4_
  6
CONTINUOUS
 62
    7
 10
2482.5708791032811
 20
744.49520000000075
 40
8
 50
11.670000000000001
 51
88.000000000000014
  0
ARC
  8
_0-4_
  6
CONTINUOUS
 62
    7
 10
2482.5708791032811
 20
727.50470000000063
 40
8
 50
272.00000000000011
 51
348.33000000000009
  0
ARC
  8
_0-4_
  6
CONTINUOUS
 62
    7
 10
2513.6391291032805
 20
856.79990721873696
 40
80.200050000000004
 50
267
 51
270.00000000000005
  0
ARC
  8
_0-4_
  6
CONTINUOUS
 62
    7
 10
2513.6391291032805
 20
856.79990721873696
 40
80.200050000000004
 50
267
 51
270.00000000000005
  0
LINE
  8
_0-4_
  6
CONTINUOUS
 62
    7
 10
2838.7270791032806
 20
692.49995721873688
 11
2839.7329791032802
 21
692.49800721873702
  0
LINE
  8
_0-4_
  6
CONTINUOUS
 62
    7
 10
2839.7329791032802
 20
692.49800721873702
 11
2840.7390291032806
 21
692.49605721873695
  0
LINE
  8
_0-4_
  6
CONTINUOUS
 62
    7
 10
2454.0390291032804
 20
692.49995721873688
 11
2838.7390791032803
 21
692.49995721873688
  0
LINE
  8
_0-4_
  6
CONTINUOUS
 62
    7
 10
2454.0390291032804
 20
779.61335721873706
 11
2454.0390291032804
 21
772.7643572187369
  0
LINE
  8
_0-4_
  6
CONTINUOUS
 62
    7
 10
2509.4418291032807
 20
776.70980721873684
 11
2454.0390291032804
 21
779.61335721873706
  0
LINE
  8
_0-4_
  6
CONTINUOUS
 62
    7
 10
2828.2891791032807
 20
776.59985721873692
 11
2513.6391291032805
 21
776.59985721873692
  0
LINE
  8
_0-4_
  6
CONTINUOUS
 62
    7
 10
2828.2891791032807
 20
769.76030721873701
 11
2828.2891791032807
 21
776.59985721873692
  0
LINE
  8
_0-4_
  6
CONTINUOUS
 62
    7
 10
2513.6391291032805
 20
769.76030721873701
 11
2828.2891791032807
 21
769.76030721873701
  0
LINE
  8
_0-4_
  6
CONTINUOUS
 62
    7
 10
2454.0390291032804
 20
772.7643572187369
 11
2509.0839291032802
 21
769.87955721873709
  0
LINE
  8
_0-4_
  6
CONTINUOUS
 62
    7
 10
2851.5390291032804
 20
693.99995721873688
 11
2851.5390291032804
 21
779.79995721873694
  0
LINE
  8
_0-4_
  6
CONTINUOUS
 62
    7
 10
2850.4518291032809
 20
693.99995721873688
 11
2851.5390291032804
 21
693.99995721873688
  0
LINE
  8
_0-4_
  6
CONTINUOUS
 62
    7
 10
2851.5390291032804
 20
779.79995721873694
 11
2850.4518291032809
 21
779.79995721873694
  0
LINE
  8
_0-4_
  6
CONTINUOUS
 62
    7
 10
2840.5107291032804
 20
693.99995721873688
 11
2840.7384291032803
 21
693.99995721873688
  0
LINE
  8
_0-4_
  6
CONTINUOUS
 62
    7
 10
2840.7390291032806
 20
694.22780721873687
 11
2840.7390291032806
 21
694.22300721873716
  0
LINE
  8
_0-4_
  6
CONTINUOUS
 62
    7
 10
2840.7390291032806
 20
694.22300721873716
 11
2840.7390291032806
 21
694.22105721873685
  0
LINE
  8
_0-4_
  6
CONTINUOUS
 62
    7
 10
2840.7390291032806
 20
694.22105721873685
 11
2840.7390291032806
 21
694.218657218737
  0
LINE
  8
_0-4_
  6
CONTINUOUS
 62
    7
 10
2840.7390291032806
 20
694.218657218737
 11
2840.7388791032803
 21
694.215957218737
  0
LINE
  8
_0-4_
  6
CONTINUOUS
 62
    7
 10
2840.7388791032803
 20
694.215957218737
 11
2840.7388791032803
 21
694.21295721873707
  0
LINE
  8
_0-4_
  6
CONTINUOUS
 62
    7
 10
2840.7388791032803
 20
694.21295721873707
 11
2840.7385791032806
 21
694.20965721873699
  0
LINE
  8
_0-4_
  6
CONTINUOUS
 62
    7
 10
2840.7385791032806
 20
694.20965721873699
 11
2840.7382791032805
 21
694.20635721873713
  0
LINE
  8
_0-4_
  6
CONTINUOUS
 62
    7
 10
2840.7382791032805
 20
694.20635721873713
 11
2840.7376791032806
 21
694.20290721873698
  0
LINE
  8
_0-4_
  6
CONTINUOUS
 62
    7
 10
2840.7376791032806
 20
694.20290721873698
 11
2840.7370791032803
 21
694.19945721873705
  0
LINE
  8
_0-4_
  6
CONTINUOUS
 62
    7
 10
2840.7370791032803
 20
694.19945721873705
 11
2840.7363291032806
 21
694.19600721873712
  0
LINE
  8
_0-4_
  6
CONTINUOUS
 62
    7
 10
2840.7363291032806
 20
694.19600721873712
 11
2840.7352791032803
 21
694.19240721873711
  0
LINE
  8
_0-4_
  6
CONTINUOUS
 62
    7
 10
2840.7352791032803
 20
694.19240721873711
 11
2840.7340791032806
 21
694.18895721873695
  0
LINE
  8
_0-4_
  6
CONTINUOUS
 62
    7
 10
2840.7340791032806
 20
694.18895721873695
 11
2840.7325791032803
 21
694.1852072187371
  0
LINE
  8
_0-4_
  6
CONTINUOUS
 62
    7
 10
2840.7325791032803
 20
694.1852072187371
 11
2840.7309291032806
 21
694.18145721873702
  0
LINE
  8
_0-4_
  6
CONTINUOUS
 62
    7
 10
2840.7309291032806
 20
694.18145721873702
 11
2840.7288291032809
 21
694.17755721873709
  0
LINE
  8
_0-4_
  6
CONTINUOUS
 62
    7
 10
2840.7288291032809
 20
694.17755721873709
 11
2840.7265791032805
 21
694.17335721873701
  0
LINE
  8
_0-4_
  6
CONTINUOUS
 62
    7
 10
2840.7265791032805
 20
694.17335721873701
 11
2840.7240291032803
 21
694.168857218737
  0
LINE
  8
_0-4_
  6
CONTINUOUS
 62
    7
 10
2840.7240291032803
 20
694.168857218737
 11
2840.7211791032805
 21
694.16420721873691
  0
LINE
  8
_0-4_
  6
CONTINUOUS
 62
    7
 10
2840.7211791032805
 20
694.16420721873691
 11
2840.7180291032809
 21
694.15925721873691
  0
LINE
  8
_0-4_
  6
CONTINUOUS
 62
    7
 10
2840.7180291032809
 20
694.15925721873691
 11
2840.7145791032803
 21
694.15415721873705
  0
LINE
  8
_0-4_
  6
CONTINUOUS
 62
    7
 10
2840.7145791032803
 20
694.15415721873705
 11
2840.7111291032806
 21
694.14920721873704
  0
LINE
  8
_0-4_
  6
CONTINUOUS
 62
    7
 10
2840.7111291032806
 20
694.14920721873704
 11
2840.7076791032804
 21
694.14410721873696
  0
LINE
  8
_0-4_
  6
CONTINUOUS
 62
    7
 10
2840.7076791032804
 20
694.14410721873696
 11
2840.7040791032804
 21
694.13930721873703
  0
LINE
  8
_0-4_
  6
CONTINUOUS
 62
    7
 10
2840.7040791032804
 20
694.13930721873703
 11
2840.7006291032803
 21
694.13465721873694
  0
LINE
  8
_0-4_
  6
CONTINUOUS
 62
    7
 10
2840.7006291032803
 20
694.13465721873694
 11
2840.6971791032806
 21
694.13030721873701
  0
LINE
  8
_0-4_
  6
CONTINUOUS
 62
    7
 10
2840.6971791032806
 20
694.13030721873701
 11
2840.6938791032803
 21
694.12640721873708
  0
LINE
  8
_0-4_
  6
CONTINUOUS
 62
    7
 10
2840.6938791032803
 20
694.12640721873708
 11
2840.6907291032803
 21
694.12280721873707
  0
LINE
  8
_0-4_
  6
CONTINUOUS
 62
    7
 10
2840.6907291032803
 20
694.12280721873707
 11
2840.6875791032803
 21
694.11935721873703
  0
LINE
  8
_0-4_
  6
CONTINUOUS
 62
    7
 10
2840.6875791032803
 20
694.11935721873703
 11
2840.6842791032804
 21
694.11590721873699
  0
LINE
  8
_0-4_
  6
CONTINUOUS
 62
    7
 10
2840.6842791032804
 20
694.11590721873699
 11
2840.6806791032804
 21
694.11245721873706
  0
LINE
  8
_0-4_
  6
CONTINUOUS
 62
    7
 10
2840.6806791032804
 20
694.11245721873706
 11
2840.6767791032802
 21
694.10885721873705
  0
LINE
  8
_0-4_
  6
CONTINUOUS
 62
    7
 10
2840.6767791032802
 20
694.10885721873705
 11
2840.6722791032802
 21
694.10495721873701
  0
LINE
  8
_0-4_
  6
CONTINUOUS
 62
    7
 10
2840.6722791032802
 20
694.10495721873701
 11
2840.6673291032802
 21
694.10060721873708
  0
LINE
  8
_0-4_
  6
CONTINUOUS
 62
    7
 10
2840.6673291032802
 20
694.10060721873708
 11
2840.6616291032805
 21
694.09580721873703
  0
LINE
  8
_0-4_
  6
CONTINUOUS
 62
    7
 10
2840.6616291032805
 20
694.09580721873703
 11
2840.6554791032804
 21
694.09070721873706
  0
LINE
  8
_0-4_
  6
CONTINUOUS
 62
    7
 10
2840.6554791032804
 20
694.09070721873706
 11
2840.6487291032808
 21
694.08515721873698
  0
LINE
  8
_0-4_
  6
CONTINUOUS
 62
    7
 10
2840.6487291032808
 20
694.08515721873698
 11
2840.6416791032802
 21
694.07945721873704
  0
LINE
  8
_0-4_
  6
CONTINUOUS
 62
    7
 10
2840.6416791032802
 20
694.07945721873704
 11
2840.6344791032806
 21
694.073757218737
  0
LINE
  8
_0-4_
  6
CONTINUOUS
 62
    7
 10
2840.6344791032806
 20
694.073757218737
 11
2840.6271291032808
 21
694.06805721873695
  0
LINE
  8
_0-4_
  6
CONTINUOUS
 62
    7
 10
2840.6271291032808
 20
694.06805721873695
 11
2840.6197791032809
 21
694.06265721873694
  0
LINE
  8
_0-4_
  6
CONTINUOUS
 62
    7
 10
2840.6197791032809
 20
694.06265721873694
 11
2840.6125791032809
 21
694.05740721873701
  0
LINE
  8
_0-4_
  6
CONTINUOUS
 62
    7
 10
2840.6125791032809
 20
694.05740721873701
 11
2840.6055291032807
 21
694.052457218737
  0
LINE
  8
_0-4_
  6
CONTINUOUS
 62
    7
 10
2840.6055291032807
 20
694.052457218737
 11
2840.5987791032803
 21
694.04795721873699
  0
LINE
  8
_0-4_
  6
CONTINUOUS
 62
    7
 10
2840.5987791032803
 20
694.04795721873699
 11
2840.5921791032806
 21
694.04375721873691
  0
LINE
  8
_0-4_
  6
CONTINUOUS
 62
    7
 10
2840.5921791032806
 20
694.04375721873691
 11
2840.5857291032807
 21
694.03985721873698
  0
LINE
  8
_0-4_
  6
CONTINUOUS
 62
    7
 10
2840.5857291032807
 20
694.03985721873698
 11
2840.5792791032808
 21
694.03595721873693
  0
LINE
  8
_0-4_
  6
CONTINUOUS
 62
    7
 10
2840.5792791032808
 20
694.03595721873693
 11
2840.5731291032807
 21
694.03250721873689
  0
LINE
  8
_0-4_
  6
CONTINUOUS
 62
    7
 10
2840.5731291032807
 20
694.03250721873689
 11
2840.5668291032807
 21
694.02905721873696
  0
LINE
  8
_0-4_
  6
CONTINUOUS
 62
    7
 10
2840.5668291032807
 20
694.02905721873696
 11
2840.5606791032805
 21
694.02560721873692
  0
LINE
  8
_0-4_
  6
CONTINUOUS
 62
    7
 10
2840.5606791032805
 20
694.02560721873692
 11
2840.5545291032808
 21
694.02230721873695
  0
LINE
  8
_0-4_
  6
CONTINUOUS
 62
    7
 10
2840.5545291032808
 20
694.02230721873695
 11
2840.5483791032802
 21
694.01915721873695
  0
LINE
  8
_0-4_
  6
CONTINUOUS
 62
    7
 10
2840.5483791032802
 20
694.01915721873695
 11
2840.5425291032806
 21
694.01600721873694
  0
LINE
  8
_0-4_
  6
CONTINUOUS
 62
    7
 10
2840.5425291032806
 20
694.01600721873694
 11
2840.5368291032805
 21
694.01315721873686
  0
LINE
  8
_0-4_
  6
CONTINUOUS
 62
    7
 10
2840.5368291032805
 20
694.01315721873686
 11
2840.5315791032808
 21
694.01045721873686
  0
LINE
  8
_0-4_
  6
CONTINUOUS
 62
    7
 10
2840.5315791032808
 20
694.01045721873686
 11
2840.5267791032802
 21
694.00805721873689
  0
LINE
  8
_0-4_
  6
CONTINUOUS
 62
    7
 10
2840.5267791032802
 20
694.00805721873689
 11
2840.5225791032808
 21
694.00595721873685
  0
LINE
  8
_0-4_
  6
CONTINUOUS
 62
    7
 10
2840.5225791032808
 20
694.00595721873685
 11
2840.5107291032804
 21
693.99995721873688
  0
LINE
  8
_0-4_
  6
CONTINUOUS
 62
    7
 10
2840.7390291032806
 20
694.219107218737
 11
2840.7390291032806
 21
695.999907218737
  0
LINE
  8
_0-4_
  6
CONTINUOUS
 62
    7
 10
2840.7390291032806
 20
695.999907218737
 11
2840.7390291032806
 21
729.79985721873708
  0
LINE
  8
_0-4_
  6
CONTINUOUS
 62
    7
 10
2840.2083291032804
 20
695.999907218737
 11
2840.2083291032804
 21
762.2925572187371
  0
LINE
  8
_0-4_
  6
CONTINUOUS
 62
    7
 10
2840.7384291032803
 20
693.99995721873688
 11
2850.4518291032809
 21
693.99995721873688
  0
LINE
  8
_0-4_
  6
CONTINUOUS
 62
    7
 10
2850.4518291032809
 20
779.79995721873694
 11
2846.8456791032804
 21
779.79995721873694
  0
LINE
  8
_0-4_
  6
CONTINUOUS
 62
    7
 10
2458.7973291032803
 20
772.51490721873688
 11
2458.7973291032803
 21
772.38320721873697
  0
LINE
  8
_0-4_
  6
CONTINUOUS
 62
    7
 10
2458.7973291032803
 20
772.38320721873697
 11
2458.7179791032804
 21
772.38725721873697
  0
LINE
  8
_0-4_
  6
CONTINUOUS
 62
    7
 10
2458.7179791032804
 20
772.38725721873697
 11
2458.6845291032805
 21
772.38905721873697
  0
LINE
  8
_0-4_
  6
CONTINUOUS
 62
    7
 10
2458.6845291032805
 20
772.38905721873697
 11
2458.6437291032807
 21
772.39100721873694
  0
LINE
  8
_0-4_
  6
CONTINUOUS
 62
    7
 10
2458.6437291032807
 20
772.39100721873694
 11
2458.5954291032803
 21
772.39295721873713
  0
LINE
  8
_0-4_
  6
CONTINUOUS
 62
    7
 10
2458.5954291032803
 20
772.39295721873713
 11
2458.5399291032804
 21
772.39490721873698
  0
LINE
  8
_0-4_
  6
CONTINUOUS
 62
    7
 10
2458.5399291032804
 20
772.39490721873698
 11
2458.4770791032806
 21
772.39640721873695
  0
LINE
  8
_0-4_
  6
CONTINUOUS
 62
    7
 10
2458.4770791032806
 20
772.39640721873695
 11
2458.4068791032805
 21
772.39760721873699
  0
LINE
  8
_0-4_
  6
CONTINUOUS
 62
    7
 10
2458.4068791032805
 20
772.39760721873699
 11
2458.3294791032803
 21
772.39805721873699
  0
LINE
  8
_0-4_
  6
CONTINUOUS
 62
    7
 10
2458.3294791032803
 20
772.39805721873699
 11
2458.2447291032804
 21
772.39775721873695
  0
LINE
  8
_0-4_
  6
CONTINUOUS
 62
    7
 10
2458.2447291032804
 20
772.39775721873695
 11
2458.1529291032807
 21
772.39655721873714
  0
LINE
  8
_0-4_
  6
CONTINUOUS
 62
    7
 10
2458.1529291032807
 20
772.39655721873714
 11
2458.0540791032804
 21
772.39385721873713
  0
LINE
  8
_0-4_
  6
CONTINUOUS
 62
    7
 10
2458.0540791032804
 20
772.39385721873713
 11
2457.9483291032802
 21
772.38950721873698
  0
LINE
  8
_0-4_
  6
CONTINUOUS
 62
    7
 10
2457.9483291032802
 20
772.38950721873698
 11
2457.8356791032806
 21
772.38305721873712
  0
LINE
  8
_0-4_
  6
CONTINUOUS
 62
    7
 10
2457.8356791032806
 20
772.38305721873712
 11
2457.7162791032806
 21
772.3740572187371
  0
LINE
  8
_0-4_
  6
CONTINUOUS
 62
    7
 10
2457.7162791032806
 20
772.3740572187371
 11
2457.5904291032802
 21
772.36205721873704
  0
LINE
  8
_0-4_
  6
CONTINUOUS
 62
    7
 10
2457.5904291032802
 20
772.36205721873704
 11
2457.4582791032803
 21
772.34690721873687
  0
LINE
  8
_0-4_
  6
CONTINUOUS
 62
    7
 10
2457.4582791032803
 20
772.34690721873687
 11
2457.3196791032805
 21
772.32815721873703
  0
LINE
  8
_0-4_
  6
CONTINUOUS
 62
    7
 10
2457.3196791032805
 20
772.32815721873703
 11
2457.1750791032804
 21
772.30535721873695
  0
LINE
  8
_0-4_
  6
CONTINUOUS
 62
    7
 10
2457.1750791032804
 20
772.30535721873695
 11
2457.0255291032804
 21
772.27865721873695
  0
LINE
  8
_0-4_
  6
CONTINUOUS
 62
    7
 10
2457.0255291032804
 20
772.27865721873695
 11
2456.8722291032804
 21
772.2485072187369
  0
LINE
  8
_0-4_
  6
CONTINUOUS
 62
    7
 10
2456.8722291032804
 20
772.2485072187369
 11
2456.7163791032808
 21
772.21475721873707
  0
LINE
  8
_0-4_
  6
CONTINUOUS
 62
    7
 10
2456.7163791032808
 20
772.21475721873707
 11
2456.5591791032802
 21
772.17770721873694
  0
LINE
  8
_0-4_
  6
CONTINUOUS
 62
    7
 10
2456.5591791032802
 20
772.17770721873694
 11
2456.4016791032804
 21
772.1376572187371
  0
LINE
  8
_0-4_
  6
CONTINUOUS
 62
    7
 10
2456.4016791032804
 20
772.1376572187371
 11
2456.2453791032803
 21
772.09475721873695
  0
LINE
  8
_0-4_
  6
CONTINUOUS
 62
    7
 10
2456.2453791032803
 20
772.09475721873695
 11
2456.0911791032804
 21
772.04900721873696
  0
LINE
  8
_0-4_
  6
CONTINUOUS
 62
    7
 10
2456.0911791032804
 20
772.04900721873696
 11
2455.9402791032807
 21
772.00100721873695
  0
LINE
  8
_0-4_
  6
CONTINUOUS
 62
    7
 10
2455.9402791032807
 20
772.00100721873695
 11
2455.7934291032806
 21
771.95090721873702
  0
LINE
  8
_0-4_
  6
CONTINUOUS
 62
    7
 10
2455.7934291032806
 20
771.95090721873702
 11
2455.6507791032804
 21
771.8993072187369
  0
LINE
  8
_0-4_
  6
CONTINUOUS
 62
    7
 10
2455.6507791032804
 20
771.8993072187369
 11
2455.5130791032806
 21
771.84665721873693
  0
LINE
  8
_0-4_
  6
CONTINUOUS
 62
    7
 10
2455.5130791032806
 20
771.84665721873693
 11
2455.3809291032807
 21
771.79325721873692
  0
LINE
  8
_0-4_
  6
CONTINUOUS
 62
    7
 10
2455.3809291032807
 20
771.79325721873692
 11
2455.2544791032805
 21
771.73970721873706
  0
LINE
  8
_0-4_
  6
CONTINUOUS
 62
    7
 10
2455.2544791032805
 20
771.73970721873706
 11
2455.1344791032802
 21
771.68645721873713
  0
LINE
  8
_0-4_
  6
CONTINUOUS
 62
    7
 10
2455.1344791032802
 20
771.68645721873713
 11
2455.0212291032803
 21
771.63410721873697
  0
LINE
  8
_0-4_
  6
CONTINUOUS
 62
    7
 10
2455.0212291032803
 20
771.63410721873697
 11
2454.9153291032807
 21
771.58280721873688
  0
LINE
  8
_0-4_
  6
CONTINUOUS
 62
    7
 10
2454.9153291032807
 20
771.58280721873688
 11
2454.8166291032803
 21
771.53285721873703
  0
LINE
  8
_0-4_
  6
CONTINUOUS
 62
    7
 10
2454.8166291032803
 20
771.53285721873703
 11
2454.7248291032801
 21
771.48470721873695
  0
LINE
  8
_0-4_
  6
CONTINUOUS
 62
    7
 10
2454.7248291032801
 20
771.48470721873695
 11
2454.6397791032804
 21
771.43850721873695
  0
LINE
  8
_0-4_
  6
CONTINUOUS
 62
    7
 10
2454.6397791032804
 20
771.43850721873695
 11
2454.5614791032803
 21
771.39455721873696
  0
LINE
  8
_0-4_
  6
CONTINUOUS
 62
    7
 10
2454.5614791032803
 20
771.39455721873696
 11
2454.4896291032805
 21
771.35285721873697
  0
LINE
  8
_0-4_
  6
CONTINUOUS
 62
    7
 10
2454.4896291032805
 20
771.35285721873697
 11
2454.4240791032807
 21
771.31385721873698
  0
LINE
  8
_0-4_
  6
CONTINUOUS
 62
    7
 10
2454.4240791032807
 20
771.31385721873698
 11
2454.3645291032808
 21
771.27785721873692
  0
LINE
  8
_0-4_
  6
CONTINUOUS
 62
    7
 10
2454.3645291032808
 20
771.27785721873692
 11
2454.3109791032802
 21
771.24485721873702
  0
LINE
  8
_0-4_
  6
CONTINUOUS
 62
    7
 10
2454.3109791032802
 20
771.24485721873702
 11
2454.2631291032803
 21
771.21500721873712
  0
LINE
  8
_0-4_
  6
CONTINUOUS
 62
    7
 10
2454.2631291032803
 20
771.21500721873712
 11
2454.2208291032802
 21
771.18800721873708
  0
LINE
  8
_0-4_
  6
CONTINUOUS
 62
    7
 10
2454.2208291032802
 20
771.18800721873708
 11
2454.1836291032805
 21
771.16415721873704
  0
LINE
  8
_0-4_
  6
CONTINUOUS
 62
    7
 10
2454.1836291032805
 20
771.16415721873704
 11
2454.1513791032803
 21
771.14315721873697
  0
LINE
  8
_0-4_
  6
CONTINUOUS
 62
    7
 10
2454.1513791032803
 20
771.14315721873697
 11
2454.1240791032805
 21
771.12515721873694
  0
LINE
  8
_0-4_
  6
CONTINUOUS
 62
    7
 10
2454.1240791032805
 20
771.12515721873694
 11
2454.1012791032803
 21
771.11000721873688
  0
LINE
  8
_0-4_
  6
CONTINUOUS
 62
    7
 10
2454.1012791032803
 20
771.11000721873688
 11
2454.0390291032804
 21
771.06815721873704
  0
LINE
  8
_0-4_
  6
CONTINUOUS
 62
    7
 10
2454.0390291032804
 20
772.7643572187369
 11
2454.0390291032804
 21
771.06815721873704
  0
LINE
  8
_0-4_
  6
CONTINUOUS
 62
    7
 10
2838.7390791032803
 20
692.50040721873688
 11
2838.7390791032803
 21
692.50205721873703
  0
LINE
  8
_0-4_
  6
CONTINUOUS
 62
    7
 10
2838.7390791032803
 20
692.50205721873703
 11
2838.7390791032803
 21
692.50265721873688
  0
LINE
  8
_0-4_
  6
CONTINUOUS
 62
    7
 10
2838.7390791032803
 20
692.50265721873688
 11
2838.7390791032803
 21
692.50340721873703
  0
LINE
  8
_0-4_
  6
CONTINUOUS
 62
    7
 10
2838.7390791032803
 20
692.50340721873703
 11
2838.7390791032803
 21
692.50430721873703
  0
LINE
  8
_0-4_
  6
CONTINUOUS
 62
    7
 10
2838.7390791032803
 20
692.50430721873703
 11
2838.7390791032803
 21
692.50535721873688
  0
LINE
  8
_0-4_
  6
CONTINUOUS
 62
    7
 10
2838.7390791032803
 20
692.50535721873688
 11
2838.7390791032803
 21
692.50670721873689
  0
LINE
  8
_0-4_
  6
CONTINUOUS
 62
    7
 10
2838.7390791032803
 20
692.50670721873689
 11
2838.7390791032803
 21
692.50805721873689
  0
LINE
  8
_0-4_
  6
CONTINUOUS
 62
    7
 10
2838.7390791032803
 20
692.50805721873689
 11
2838.7390791032803
 21
692.50955721873697
  0
LINE
  8
_0-4_
  6
CONTINUOUS
 62
    7
 10
2838.7390791032803
 20
692.50955721873697
 11
2838.7390791032803
 21
692.51120721873689
  0
LINE
  8
_0-4_
  6
CONTINUOUS
 62
    7
 10
2838.7390791032803
 20
692.51120721873689
 11
2838.7390791032803
 21
692.5130072187369
  0
LINE
  8
_0-4_
  6
CONTINUOUS
 62
    7
 10
2838.7390791032803
 20
692.5130072187369
 11
2838.7390791032803
 21
692.5152572187369
  0
LINE
  8
_0-4_
  6
CONTINUOUS
 62
    7
 10
2838.7390791032803
 20
692.5152572187369
 11
2838.7390791032803
 21
692.51810721873698
  0
LINE
  8
_0-4_
  6
CONTINUOUS
 62
    7
 10
2838.7390791032803
 20
692.51810721873698
 11
2838.7390791032803
 21
692.52185721873706
  0
LINE
  8
_0-4_
  6
CONTINUOUS
 62
    7
 10
2838.7390791032803
 20
692.52185721873706
 11
2838.7390791032803
 21
692.526657218737
  0
LINE
  8
_0-4_
  6
CONTINUOUS
 62
    7
 10
2838.7390791032803
 20
692.526657218737
 11
2838.7390791032803
 21
692.53280721873693
  0
LINE
  8
_0-4_
  6
CONTINUOUS
 62
    7
 10
2838.7390791032803
 20
692.53280721873693
 11
2838.7390791032803
 21
692.54060721873702
  0
LINE
  8
_0-4_
  6
CONTINUOUS
 62
    7
 10
2838.7390791032803
 20
692.54060721873702
 11
2838.7390791032803
 21
692.55035721873696
  0
LINE
  8
_0-4_
  6
CONTINUOUS
 62
    7
 10
2838.7390791032803
 20
692.55035721873696
 11
2838.7390791032803
 21
692.56205721873698
  0
LINE
  8
_0-4_
  6
CONTINUOUS
 62
    7
 10
2838.7390791032803
 20
692.56205721873698
 11
2838.7390791032803
 21
692.57570721873685
  0
LINE
  8
_0-4_
  6
CONTINUOUS
 62
    7
 10
2838.7390791032803
 20
692.57570721873685
 11
2838.7390791032803
 21
692.59115721873718
  0
LINE
  8
_0-4_
  6
CONTINUOUS
 62
    7
 10
2838.7390791032803
 20
692.59115721873718
 11
2838.7390791032803
 21
692.6085572187369
  0
LINE
  8
_0-4_
  6
CONTINUOUS
 62
    7
 10
2838.7390791032803
 20
692.6085572187369
 11
2838.7390791032803
 21
692.62760721873689
  0
LINE
  8
_0-4_
  6
CONTINUOUS
 62
    7
 10
2838.7390791032803
 20
692.62760721873689
 11
2838.7390791032803
 21
692.64815721873696
  0
LINE
  8
_0-4_
  6
CONTINUOUS
 62
    7
 10
2838.7390791032803
 20
692.64815721873696
 11
2838.7390791032803
 21
692.670207218737
  0
LINE
  8
_0-4_
  6
CONTINUOUS
 62
    7
 10
2838.7390791032803
 20
692.670207218737
 11
2838.7390791032803
 21
692.693757218737
  0
LINE
  8
_0-4_
  6
CONTINUOUS
 62
    7
 10
2838.7390791032803
 20
692.693757218737
 11
2838.7390791032803
 21
692.71850721873704
  0
LINE
  8
_0-4_
  6
CONTINUOUS
 62
    7
 10
2838.7390791032803
 20
692.71850721873704
 11
2838.7390791032803
 21
692.74460721873697
  0
LINE
  8
_0-4_
  6
CONTINUOUS
 62
    7
 10
2838.7390791032803
 20
692.74460721873697
 11
2838.7390791032803
 21
692.77190721873694
  0
LINE
  8
_0-4_
  6
CONTINUOUS
 62
    7
 10
2838.7390791032803
 20
692.77190721873694
 11
2838.7390791032803
 21
692.80055721873713
  0
LINE
  8
_0-4_
  6
CONTINUOUS
 62
    7
 10
2838.7390791032803
 20
692.80055721873713
 11
2838.7390791032803
 21
692.83040721873703
  0
LINE
  8
_0-4_
  6
CONTINUOUS
 62
    7
 10
2838.7390791032803
 20
692.83040721873703
 11
2838.7390791032803
 21
692.86145721873697
  0
LINE
  8
_0-4_
  6
CONTINUOUS
 62
    7
 10
2838.7390791032803
 20
692.86145721873697
 11
2838.7390791032803
 21
692.89370721873694
  0
LINE
  8
_0-4_
  6
CONTINUOUS
 62
    7
 10
2838.7390791032803
 20
692.89370721873694
 11
2838.7390791032803
 21
692.92715721873707
  0
LINE
  8
_0-4_
  6
CONTINUOUS
 62
    7
 10
2838.7390791032803
 20
692.92715721873707
 11
2838.7390791032803
 21
692.96195721873687
  0
LINE
  8
_0-4_
  6
CONTINUOUS
 62
    7
 10
2838.7390791032803
 20
692.96195721873687
 11
2838.7390791032803
 21
692.99780721873707
  0
LINE
  8
_0-4_
  6
CONTINUOUS
 62
    7
 10
2838.7390791032803
 20
692.99780721873707
 11
2838.7390791032803
 21
693.03485721873698
  0
LINE
  8
_0-4_
  6
CONTINUOUS
 62
    7
 10
2838.7390791032803
 20
693.03485721873698
 11
2838.7390791032803
 21
693.07295721873686
  0
LINE
  8
_0-4_
  6
CONTINUOUS
 62
    7
 10
2838.7390791032803
 20
693.07295721873686
 11
2838.7390791032803
 21
693.11210721873692
  0
LINE
  8
_0-4_
  6
CONTINUOUS
 62
    7
 10
2838.7390791032803
 20
693.11210721873692
 11
2838.7390791032803
 21
693.15230721873706
  0
LINE
  8
_0-4_
  6
CONTINUOUS
 62
    7
 10
2838.7390791032803
 20
693.15230721873706
 11
2838.7390791032803
 21
693.19340721873686
  0
LINE
  8
_0-4_
  6
CONTINUOUS
 62
    7
 10
2838.7390791032803
 20
693.19340721873686
 11
2838.7390791032803
 21
693.235407218737
  0
LINE
  8
_0-4_
  6
CONTINUOUS
 62
    7
 10
2838.7390791032803
 20
693.235407218737
 11
2838.7390791032803
 21
693.27815721873707
  0
LINE
  8
_0-4_
  6
CONTINUOUS
 62
    7
 10
2838.7390791032803
 20
693.27815721873707
 11
2838.7390791032803
 21
693.32165721873695
  0
LINE
  8
_0-4_
  6
CONTINUOUS
 62
    7
 10
2838.7390791032803
 20
693.32165721873695
 11
2838.7390791032803
 21
693.36530721873702
  0
LINE
  8
_0-4_
  6
CONTINUOUS
 62
    7
 10
2838.7390791032803
 20
693.36530721873702
 11
2838.7390791032803
 21
693.40895721873698
  0
LINE
  8
_0-4_
  6
CONTINUOUS
 62
    7
 10
2838.7390791032803
 20
693.40895721873698
 11
2838.7390791032803
 21
693.4523072187369
  0
LINE
  8
_0-4_
  6
CONTINUOUS
 62
    7
 10
2838.7390791032803
 20
693.4523072187369
 11
2838.7390791032803
 21
693.49505721873697
  0
LINE
  8
_0-4_
  6
CONTINUOUS
 62
    7
 10
2838.7390791032803
 20
693.49505721873697
 11
2838.7390791032803
 21
693.53690721873704
  0
LINE
  8
_0-4_
  6
CONTINUOUS
 62
    7
 10
2838.7390791032803
 20
693.53690721873704
 11
2838.7390791032803
 21
693.57755721873695
  0
LINE
  8
_0-4_
  6
CONTINUOUS
 62
    7
 10
2838.7390791032803
 20
693.57755721873695
 11
2838.7390791032803
 21
693.61655721873705
  0
LINE
  8
_0-4_
  6
CONTINUOUS
 62
    7
 10
2838.7390791032803
 20
693.61655721873705
 11
2838.7390791032803
 21
693.65420721873704
  0
LINE
  8
_0-4_
  6
CONTINUOUS
 62
    7
 10
2838.7390791032803
 20
693.65420721873704
 11
2838.7390791032803
 21
693.69005721873691
  0
LINE
  8
_0-4_
  6
CONTINUOUS
 62
    7
 10
2838.7390791032803
 20
693.69005721873691
 11
2838.7390791032803
 21
693.72425721873696
  0
LINE
  8
_0-4_
  6
CONTINUOUS
 62
    7
 10
2838.7390791032803
 20
693.72425721873696
 11
2838.7390791032803
 21
693.75650721873716
  0
LINE
  8
_0-4_
  6
CONTINUOUS
 62
    7
 10
2838.7390791032803
 20
693.75650721873716
 11
2838.7390791032803
 21
693.78695721873691
  0
LINE
  8
_0-4_
  6
CONTINUOUS
 62
    7
 10
2838.7390791032803
 20
693.78695721873691
 11
2838.7390791032803
 21
693.81545721873692
  0
LINE
  8
_0-4_
  6
CONTINUOUS
 62
    7
 10
2838.7390791032803
 20
693.81545721873692
 11
2838.7390791032803
 21
693.841857218737
  0
LINE
  8
_0-4_
  6
CONTINUOUS
 62
    7
 10
2838.7390791032803
 20
693.841857218737
 11
2838.7390791032803
 21
693.866307218737
  0
LINE
  8
_0-4_
  6
CONTINUOUS
 62
    7
 10
2838.7390791032803
 20
693.866307218737
 11
2838.7390791032803
 21
693.888507218737
  0
LINE
  8
_0-4_
  6
CONTINUOUS
 62
    7
 10
2838.7390791032803
 20
693.888507218737
 11
2838.7390791032803
 21
693.90860721873696
  0
LINE
  8
_0-4_
  6
CONTINUOUS
 62
    7
 10
2838.7390791032803
 20
693.90860721873696
 11
2838.7390791032803
 21
693.92660721873699
  0
LINE
  8
_0-4_
  6
CONTINUOUS
 62
    7
 10
2838.7390791032803
 20
693.92660721873699
 11
2838.7390791032803
 21
693.94235721873701
  0
LINE
  8
_0-4_
  6
CONTINUOUS
 62
    7
 10
2838.7390791032803
 20
693.94235721873701
 11
2838.7390791032803
 21
693.95615721873696
  0
LINE
  8
_0-4_
  6
CONTINUOUS
 62
    7
 10
2838.7390791032803
 20
693.95615721873696
 11
2838.7390791032803
 21
693.96785721873698
  0
LINE
  8
_0-4_
  6
CONTINUOUS
 62
    7
 10
2838.7390791032803
 20
693.96785721873698
 11
2838.7390791032803
 21
693.99995721873688
  0
LINE
  8
_0-4_
  6
CONTINUOUS
 62
    7
 10
2839.2817791032803
 20
693.99995721873688
 11
2839.2664791032802
 21
694.00265721873688
  0
LINE
  8
_0-4_
  6
CONTINUOUS
 62
    7
 10
2839.2664791032802
 20
694.00265721873688
 11
2839.2600291032804
 21
694.00370721873719
  0
LINE
  8
_0-4_
  6
CONTINUOUS
 62
    7
 10
2839.2600291032804
 20
694.00370721873719
 11
2839.252229103281
 21
694.00520721873704
  0
LINE
  8
_0-4_
  6
CONTINUOUS
 62
    7
 10
2839.252229103281
 20
694.00520721873704
 11
2839.2435291032802
 21
694.00670721873689
  0
LINE
  8
_0-4_
  6
CONTINUOUS
 62
    7
 10
2839.2435291032802
 20
694.00670721873689
 11
2839.2337791032809
 21
694.00850721873689
  0
LINE
  8
_0-4_
  6
CONTINUOUS
 62
    7
 10
2839.2337791032809
 20
694.00850721873689
 11
2839.2234291032809
 21
694.01030721873689
  0
LINE
  8
_0-4_
  6
CONTINUOUS
 62
    7
 10
2839.2234291032809
 20
694.01030721873689
 11
2839.2124791032806
 21
694.01225721873686
  0
LINE
  8
_0-4_
  6
CONTINUOUS
 62
    7
 10
2839.2124791032806
 20
694.01225721873686
 11
2839.2010791032807
 21
694.0143572187369
  0
LINE
  8
_0-4_
  6
CONTINUOUS
 62
    7
 10
2839.2010791032807
 20
694.0143572187369
 11
2839.1896791032809
 21
694.0166072187369
  0
LINE
  8
_0-4_
  6
CONTINUOUS
 62
    7
 10
2839.1896791032809
 20
694.0166072187369
 11
2839.1781291032802
 21
694.01870721873694
  0
LINE
  8
_0-4_
  6
CONTINUOUS
 62
    7
 10
2839.1781291032802
 20
694.01870721873694
 11
2839.1665791032805
 21
694.02095721873695
  0
LINE
  8
_0-4_
  6
CONTINUOUS
 62
    7
 10
2839.1665791032805
 20
694.02095721873695
 11
2839.1547291032802
 21
694.02320721873695
  0
LINE
  8
_0-4_
  6
CONTINUOUS
 62
    7
 10
2839.1547291032802
 20
694.02320721873695
 11
2839.1427291032805
 21
694.02560721873692
  0
LINE
  8
_0-4_
  6
CONTINUOUS
 62
    7
 10
2839.1427291032805
 20
694.02560721873692
 11
2839.1304291032802
 21
694.02830721873692
  0
LINE
  8
_0-4_
  6
CONTINUOUS
 62
    7
 10
2839.1304291032802
 20
694.02830721873692
 11
2839.1175291032805
 21
694.03100721873693
  0
LINE
  8
_0-4_
  6
CONTINUOUS
 62
    7
 10
2839.1175291032805
 20
694.03100721873693
 11
2839.1043291032801
 21
694.03400721873697
  0
LINE
  8
_0-4_
  6
CONTINUOUS
 62
    7
 10
2839.1043291032801
 20
694.03400721873697
 11
2839.0903791032806
 21
694.03715721873697
  0
LINE
  8
_0-4_
  6
CONTINUOUS
 62
    7
 10
2839.0903791032806
 20
694.03715721873697
 11
2839.0758291032807
 21
694.0406072187369
  0
LINE
  8
_0-4_
  6
CONTINUOUS
 62
    7
 10
2839.0758291032807
 20
694.0406072187369
 11
2839.0608291032804
 21
694.04420721873691
  0
LINE
  8
_0-4_
  6
CONTINUOUS
 62
    7
 10
2839.0608291032804
 20
694.04420721873691
 11
2839.0456791032806
 21
694.04795721873699
  0
LINE
  8
_0-4_
  6
CONTINUOUS
 62
    7
 10
2839.0456791032806
 20
694.04795721873699
 11
2839.0306791032808
 21
694.05185721873692
  0
LINE
  8
_0-4_
  6
CONTINUOUS
 62
    7
 10
2839.0306791032808
 20
694.05185721873692
 11
2839.0159791032806
 21
694.055607218737
  0
LINE
  8
_0-4_
  6
CONTINUOUS
 62
    7
 10
2839.0159791032806
 20
694.055607218737
 11
2839.0020291032806
 21
694.05920721873701
  0
LINE
  8
_0-4_
  6
CONTINUOUS
 62
    7
 10
2839.0020291032806
 20
694.05920721873701
 11
2838.9888291032812
 21
694.06265721873694
  0
LINE
  8
_0-4_
  6
CONTINUOUS
 62
    7
 10
2838.9888291032812
 20
694.06265721873694
 11
2838.9768291032805
 21
694.06580721873694
  0
LINE
  8
_0-4_
  6
CONTINUOUS
 62
    7
 10
2838.9768291032805
 20
694.06580721873694
 11
2838.9661791032808
 21
694.06865721873703
  0
LINE
  8
_0-4_
  6
CONTINUOUS
 62
    7
 10
2838.9661791032808
 20
694.06865721873703
 11
2838.9567291032808
 21
694.07120721873695
  0
LINE
  8
_0-4_
  6
CONTINUOUS
 62
    7
 10
2838.9567291032808
 20
694.07120721873695
 11
2838.9483291032811
 21
694.07345721873696
  0
LINE
  8
_0-4_
  6
CONTINUOUS
 62
    7
 10
2838.9483291032811
 20
694.07345721873696
 11
2838.9405291032808
 21
694.07570721873696
  0
LINE
  8
_0-4_
  6
CONTINUOUS
 62
    7
 10
2838.9405291032808
 20
694.07570721873696
 11
2838.9334791032806
 21
694.077807218737
  0
LINE
  8
_0-4_
  6
CONTINUOUS
 62
    7
 10
2838.9334791032806
 20
694.077807218737
 11
2838.9265791032808
 21
694.07990721873704
  0
LINE
  8
_0-4_
  6
CONTINUOUS
 62
    7
 10
2838.9265791032808
 20
694.07990721873704
 11
2838.9199791032806
 21
694.08200721873697
  0
LINE
  8
_0-4_
  6
CONTINUOUS
 62
    7
 10
2838.9199791032806
 20
694.08200721873697
 11
2838.9130791032807
 21
694.08425721873697
  0
LINE
  8
_0-4_
  6
CONTINUOUS
 62
    7
 10
2838.9130791032807
 20
694.08425721873697
 11
2838.906029103281
 21
694.08680721873702
  0
LINE
  8
_0-4_
  6
CONTINUOUS
 62
    7
 10
2838.906029103281
 20
694.08680721873702
 11
2838.898829103281
 21
694.08935721873706
  0
LINE
  8
_0-4_
  6
CONTINUOUS
 62
    7
 10
2838.898829103281
 20
694.08935721873706
 11
2838.8914791032807
 21
694.09190721873699
  0
LINE
  8
_0-4_
  6
CONTINUOUS
 62
    7
 10
2838.8914791032807
 20
694.09190721873699
 11
2838.8841291032804
 21
694.09460721873699
  0
LINE
  8
_0-4_
  6
CONTINUOUS
 62
    7
 10
2838.8841291032804
 20
694.09460721873699
 11
2838.8770791032807
 21
694.09715721873703
  0
LINE
  8
_0-4_
  6
CONTINUOUS
 62
    7
 10
2838.8770791032807
 20
694.09715721873703
 11
2838.8703291032807
 21
694.09970721873696
  0
LINE
  8
_0-4_
  6
CONTINUOUS
 62
    7
 10
2838.8703291032807
 20
694.09970721873696
 11
2838.8638791032803
 21
694.10210721873704
  0
LINE
  8
_0-4_
  6
CONTINUOUS
 62
    7
 10
2838.8638791032803
 20
694.10210721873704
 11
2838.8581791032806
 21
694.10420721873697
  0
LINE
  8
_0-4_
  6
CONTINUOUS
 62
    7
 10
2838.8581791032806
 20
694.10420721873697
 11
2838.8529291032809
 21
694.10630721873701
  0
LINE
  8
_0-4_
  6
CONTINUOUS
 62
    7
 10
2838.8529291032809
 20
694.10630721873701
 11
2838.8484291032809
 21
694.10810721873701
  0
LINE
  8
_0-4_
  6
CONTINUOUS
 62
    7
 10
2838.8484291032809
 20
694.10810721873701
 11
2838.8442291032806
 21
694.10975721873705
  0
LINE
  8
_0-4_
  6
CONTINUOUS
 62
    7
 10
2838.8442291032806
 20
694.10975721873705
 11
2838.8404791032803
 21
694.11125721873702
  0
LINE
  8
_0-4_
  6
CONTINUOUS
 62
    7
 10
2838.8404791032803
 20
694.11125721873702
 11
2838.8368791032803
 21
694.11275721873698
  0
LINE
  8
_0-4_
  6
CONTINUOUS
 62
    7
 10
2838.8368791032803
 20
694.11275721873698
 11
2838.8332791032803
 21
694.11440721873702
  0
LINE
  8
_0-4_
  6
CONTINUOUS
 62
    7
 10
2838.8332791032803
 20
694.11440721873702
 11
2838.8296791032803
 21
694.11605721873706
  0
LINE
  8
_0-4_
  6
CONTINUOUS
 62
    7
 10
2838.8296791032803
 20
694.11605721873706
 11
2838.8259291032809
 21
694.11785721873707
  0
LINE
  8
_0-4_
  6
CONTINUOUS
 62
    7
 10
2838.8259291032809
 20
694.11785721873707
 11
2838.8218791032804
 21
694.11995721873699
  0
LINE
  8
_0-4_
  6
CONTINUOUS
 62
    7
 10
2838.8218791032804
 20
694.11995721873699
 11
2838.8175291032803
 21
694.12205721873704
  0
LINE
  8
_0-4_
  6
CONTINUOUS
 62
    7
 10
2838.8175291032803
 20
694.12205721873704
 11
2838.8130291032803
 21
694.12430721873704
  0
LINE
  8
_0-4_
  6
CONTINUOUS
 62
    7
 10
2838.8130291032803
 20
694.12430721873704
 11
2838.8085291032803
 21
694.12655721873704
  0
LINE
  8
_0-4_
  6
CONTINUOUS
 62
    7
 10
2838.8085291032803
 20
694.12655721873704
 11
2838.8040291032802
 21
694.12895721873701
  0
LINE
  8
_0-4_
  6
CONTINUOUS
 62
    7
 10
2838.8040291032802
 20
694.12895721873701
 11
2838.7995291032802
 21
694.13135721873686
  0
LINE
  8
_0-4_
  6
CONTINUOUS
 62
    7
 10
2838.7995291032802
 20
694.13135721873686
 11
2838.7953291032808
 21
694.13360721873686
  0
LINE
  8
_0-4_
  6
CONTINUOUS
 62
    7
 10
2838.7953291032808
 20
694.13360721873686
 11
2838.7912791032804
 21
694.13570721873702
  0
LINE
  8
_0-4_
  6
CONTINUOUS
 62
    7
 10
2838.7912791032804
 20
694.13570721873702
 11
2838.787529103281
 21
694.13780721873695
  0
LINE
  8
_0-4_
  6
CONTINUOUS
 62
    7
 10
2838.787529103281
 20
694.13780721873695
 11
2838.7840791032804
 21
694.13975721873703
  0
LINE
  8
_0-4_
  6
CONTINUOUS
 62
    7
 10
2838.7840791032804
 20
694.13975721873703
 11
2838.7809291032808
 21
694.14155721873703
  0
LINE
  8
_0-4_
  6
CONTINUOUS
 62
    7
 10
2838.7809291032808
 20
694.14155721873703
 11
2838.778079103281
 21
694.14335721873703
  0
LINE
  8
_0-4_
  6
CONTINUOUS
 62
    7
 10
2838.778079103281
 20
694.14335721873703
 11
2838.7752291032807
 21
694.14515721873704
  0
LINE
  8
_0-4_
  6
CONTINUOUS
 62
    7
 10
2838.7752291032807
 20
694.14515721873704
 11
2838.772679103281
 21
694.14695721873704
  0
LINE
  8
_0-4_
  6
CONTINUOUS
 62
    7
 10
2838.772679103281
 20
694.14695721873704
 11
2838.7702791032806
 21
694.14875721873704
  0
LINE
  8
_0-4_
  6
CONTINUOUS
 62
    7
 10
2838.7702791032806
 20
694.14875721873704
 11
2838.7680291032802
 21
694.15055721873704
  0
LINE
  8
_0-4_
  6
CONTINUOUS
 62
    7
 10
2838.7680291032802
 20
694.15055721873704
 11
2838.7657791032806
 21
694.1525072187369
  0
LINE
  8
_0-4_
  6
CONTINUOUS
 62
    7
 10
2838.7657791032806
 20
694.1525072187369
 11
2838.7636791032809
 21
694.15460721873705
  0
LINE
  8
_0-4_
  6
CONTINUOUS
 62
    7
 10
2838.7636791032809
 20
694.15460721873705
 11
2838.7617291032806
 21
694.1565572187369
  0
LINE
  8
_0-4_
  6
CONTINUOUS
 62
    7
 10
2838.7617291032806
 20
694.1565572187369
 11
2838.7599291032802
 21
694.15850721873698
  0
LINE
  8
_0-4_
  6
CONTINUOUS
 62
    7
 10
2838.7599291032802
 20
694.15850721873698
 11
2838.7582791032809
 21
694.16045721873706
  0
LINE
  8
_0-4_
  6
CONTINUOUS
 62
    7
 10
2838.7582791032809
 20
694.16045721873706
 11
2838.7567791032806
 21
694.16210721873699
  0
LINE
  8
_0-4_
  6
CONTINUOUS
 62
    7
 10
2838.7567791032806
 20
694.16210721873699
 11
2838.7555791032809
 21
694.16360721873707
  0
LINE
  8
_0-4_
  6
CONTINUOUS
 62
    7
 10
2838.7555791032809
 20
694.16360721873707
 11
2838.7519791032809
 21
694.16810721873707
  0
LINE
  8
_0-4_
  6
CONTINUOUS
 62
    7
 10
2838.7390791032803
 20
694.19795721873697
 11
2838.7390791032803
 21
695.999907218737
  0
LINE
  8
_0-4_
  6
CONTINUOUS
 62
    7
 10
2840.7390291032806
 20
695.999907218737
 11
2838.7390791032803
 21
695.999907218737
  0
LINE
  8
_0-4_
  6
CONTINUOUS
 62
    7
 10
2840.7390291032806
 20
692.49620721873702
 11
2840.7390291032806
 21
694.00085721873688
  0
LINE
  8
_0-4_
  6
CONTINUOUS
 62
    7
 10
2454.0390291032804
 20
694.19990721873705
 11
2454.0390291032804
 21
692.49995721873688
  0
LINE
  8
_0-4_
  6
CONTINUOUS
 62
    7
 10
2454.0390291032804
 20
694.19990721873705
 11
2834.8545291032805
 21
694.19990721873705
  0
LINE
  8
_0-4_
  6
CONTINUOUS
 62
    7
 10
2509.0770291032804
 20
769.74815721873699
 11
2458.7973291032803
 21
772.38320721873697
  0
LINE
  8
_0-4_
  6
CONTINUOUS
 62
    7
 10
2513.6391291032805
 20
769.62860721873698
 11
2825.5390791032805
 21
769.62860721873698
  0
LINE
  8
_0-4_
  6
CONTINUOUS
 62
    7
 10
2834.8545291032805
 20
693.99995721873688
 11
2834.8545291032805
 21
694.19990721873705
  0
LINE
  8
_0-4_
  6
CONTINUOUS
 62
    7
 10
2454.0390291032804
 20
697.499907218737
 11
2454.0390291032804
 21
694.19990721873705
  0
LINE
  8
_0-4_
  6
CONTINUOUS
 62
    7
 10
2453.5390791032805
 20
697.9998572187369
 11
2454.0390291032804
 21
697.499907218737
  0
LINE
  8
_0-4_
  6
CONTINUOUS
 62
    7
 10
2453.5390791032805
 20
723.99995721873688
 11
2453.5390791032805
 21
697.9998572187369
  0
LINE
  8
_0-4_
  6
CONTINUOUS
 62
    7
 10
2465.2548291032808
 20
726.9999572187371
 11
2456.5390791032805
 21
726.9999572187371
  0
LINE
  8
_0-4_
  6
CONTINUOUS
 62
    7
 10
2478.7390791032803
 20
731.7498572187369
 11
2471.1232791032803
 21
731.7498572187369
  0
LINE
  8
_0-4_
  6
CONTINUOUS
 62
    7
 10
2479.2390291032806
 20
731.61590721873699
 11
2479.2390291032806
 21
722.49995721873688
  0
LINE
  8
_0-4_
  6
CONTINUOUS
 62
    7
 10
2485.0390791032805
 20
722.49995721873688
 11
2479.2390291032806
 21
722.49995721873688
  0
LINE
  8
_0-4_
  6
CONTINUOUS
 62
    7
 10
2485.2390291032806
 20
749.29985721873686
 11
2485.2390291032806
 21
722.69990721873693
  0
LINE
  8
_0-4_
  6
CONTINUOUS
 62
    7
 10
2479.2390291032806
 20
749.49995721873688
 11
2485.0390791032805
 21
749.49995721873688
  0
LINE
  8
_0-4_
  6
CONTINUOUS
 62
    7
 10
2479.2390291032806
 20
749.49995721873688
 11
2479.2390291032806
 21
740.38385721873692
  0
LINE
  8
_0-4_
  6
CONTINUOUS
 62
    7
 10
2471.1232791032803
 20
740.24990721873689
 11
2478.7390791032803
 21
740.24990721873689
  0
LINE
  8
_0-4_
  6
CONTINUOUS
 62
    7
 10
2456.5390791032805
 20
744.99995721873688
 11
2465.2548291032808
 21
744.99995721873688
  0
LINE
  8
_0-4_
  6
CONTINUOUS
 62
    7
 10
2453.5390791032805
 20
769.499907218737
 11
2453.5390791032805
 21
747.9999572187371
  0
LINE
  8
_0-4_
  6
CONTINUOUS
 62
    7
 10
2454.0390291032804
 20
769.499907218737
 11
2453.5390791032805
 21
769.499907218737
  0
LINE
  8
_0-4_
  6
CONTINUOUS
 62
    7
 10
2834.8545291032805
 20
693.99995721873688
 11
2838.7390791032803
 21
693.99995721873688
  0
LINE
  8
_0-4_
  6
CONTINUOUS
 62
    7
 10
2838.7390791032803
 20
693.99995721873688
 11
2839.2817791032803
 21
693.99995721873688
  0
LINE
  8
_0-4_
  6
CONTINUOUS
 62
    7
 10
2831.5390791032805
 20
779.79995721873694
 11
2836.23242910328
 21
779.79995721873694
  0
LINE
  8
_0-4_
  6
CONTINUOUS
 62
    7
 10
2454.0390291032804
 20
771.06815721873704
 11
2454.0390291032804
 21
769.499907218737
  0
LINE
  8
_0-4_
  6
CONTINUOUS
 62
    7
 10
2513.6391291032805
 20
769.62860721873698
 11
2513.6391291032805
 21
769.76030721873701
  0
LINE
  8
_0-4_
  6
CONTINUOUS
 62
    7
 10
2825.5390791032805
 20
769.62860721873698
 11
2825.5390791032805
 21
769.76030721873701
  0
LINE
  8
_0-4_
  6
CONTINUOUS
 62
    7
 10
2509.0770291032804
 20
769.74815721873699
 11
2509.0839291032802
 21
769.87955721873709
  0
LINE
  8
_0-4_
  6
CONTINUOUS
 62
    7
 10
2479.7389791032805
 20
741.24995721873688
 11
2479.7389791032805
 21
749.29985721873686
  0
LINE
  8
_0-4_
  6
CONTINUOUS
 62
    7
 10
2479.7389791032805
 20
722.69990721873693
 11
2479.7389791032805
 21
730.74995721873688
  0
LINE
  8
_0-4_
  6
CONTINUOUS
 62
    7
 10
2451.5389791032803
 20
693.99995721873688
 11
2451.5389791032803
 21
692.999907218737
  0
LINE
  8
_0-4_
  6
CONTINUOUS
 62
    7
 10
2451.5389791032803
 20
692.999907218737
 11
2454.0390291032804
 21
692.999907218737
  0
LINE
  8
_0-4_
  6
CONTINUOUS
 62
    7
 10
2454.0390291032804
 20
693.99995721873688
 11
2451.5389791032803
 21
693.99995721873688
  0
LINE
  8
_0-4_
  6
CONTINUOUS
 62
    7
 10
2850.4518291032809
 20
693.99995721873688
 11
2850.4518291032809
 21
768.23330721873708
  0
LINE
  8
_0-4_
  6
CONTINUOUS
 62
    7
 10
2850.4518291032809
 20
775.36655721873694
 11
2850.4518291032809
 21
779.79995721873694
  0
LINE
  8
_0-4_
  6
CONTINUOUS
 62
    7
 10
2841.5389791032803
 20
771.79985721873686
 11
2841.5389791032803
 21
772.29995721873694
  0
LINE
  8
_0-4_
  6
CONTINUOUS
 62
    7
 10
2841.5389791032803
 20
771.79985721873686
 11
2841.0390291032808
 21
771.79985721873686
  0
LINE
  8
_0-4_
  6
CONTINUOUS
 62
    7
 10
2841.5389791032803
 20
771.79985721873686
 11
2841.5389791032803
 21
771.29990721873696
  0
LINE
  8
_0-4_
  6
CONTINUOUS
 62
    7
 10
2841.5389791032803
 20
771.79985721873686
 11
2842.0390791032809
 21
771.79985721873686
  0
LINE
  8
_0-4_
  6
CONTINUOUS
 62
    7
 10
2841.5389791032803
 20
772.79990721873696
 11
2841.5389791032803
 21
781.89995721873697
  0
LINE
  8
_0-4_
  6
CONTINUOUS
 62
    7
 10
2840.5390791032805
 20
771.79985721873686
 11
2831.4390291032805
 21
771.79985721873686
  0
LINE
  8
_0-4_
  6
CONTINUOUS
 62
    7
 10
2841.5389791032803
 20
770.79995721873706
 11
2841.5389791032803
 21
761.69990721873705
  0
LINE
  8
_0-4_
  6
CONTINUOUS
 62
    7
 10
2842.5390291032808
 20
771.79985721873686
 11
2851.6390791032799
 21
771.79985721873686
  0
LINE
  8
_0-4_
  6
CENTER2
 62
    7
 10
2492.5309791032805
 20
735.99995721873699
 11
2467.3732791032803
 21
735.99995721873699
  0
ARC
  8
_0-4_
  6
CONTINUOUS
 62
    7
 10
2513.6391291032805
 20
856.79990721873696
 40
87.039600000000021
 50
267
 51
270.00000000000005
  0
CIRCLE
  8
_0-4_
  6
CONTINUOUS
 62
    7
 10
2841.5389791032803
 20
771.79985721873686
 40
9.6000000000000014
  0
ARC
  8
_0-4_
  6
CONTINUOUS
 62
    7
 10
2513.6391291032805
 20
856.79990721873696
 40
87.171300000000002
 50
267
 51
270.00000000000005
  0
ARC
  8
_0-4_
  6
CONTINUOUS
 62
    7
 10
2827.6690791032806
 20
778.59995721873701
 40
1.9999500000000003
 50
270.00000000000005
 51
348.47200000000003
  0
ARC
  8
_0-4_
  6
CONTINUOUS
 62
    7
 10
2831.5884291032807
 20
777.80045721873693
 40
1.9999500000000003
 50
91.413000000000025
 51
168.47200000000003
  0
ARC
  8
_0-4_
  6
CONTINUOUS
 62
    7
 10
2456.5390791032805
 20
723.99995721873688
 40
3.0000000000000004
 50
90.000000000000028
 51
180.00000000000005
  0
ARC
  8
_0-4_
  6
CONTINUOUS
 62
    7
 10
2465.2548291032808
 20
729.99995721873688
 40
3.0000000000000004
 50
270.00000000000005
 51
347.97500000000007
  0
ARC
  8
_0-4_
  6
CONTINUOUS
 62
    7
 10
2471.1232791032803
 20
728.74985721873702
 40
3.0000000000000004
 50
90.000000000000028
 51
167.97500000000002
  0
ARC
  8
_0-4_
  6
CONTINUOUS
 62
    7
 10
2478.7390791032803
 20
730.74995721873688
 40
1.0000500000000001
 50
60.000000000000007
 51
90.000000000000014
  0
ARC
  8
_0-4_
  6
CONTINUOUS
 62
    7
 10
2485.0390791032805
 20
722.69990721873693
 40
0.19995
 50
270.00000000000005
 51
0.0000000000000763
  0
ARC
  8
_0-4_
  6
CONTINUOUS
 62
    7
 10
2485.0390791032805
 20
749.29985721873686
 40
0.19995
 50
0
 51
90.000000000000028
  0
ARC
  8
_0-4_
  6
CONTINUOUS
 62
    7
 10
2478.7390791032803
 20
741.24995721873688
 40
1.0000500000000001
 50
270.00000000000005
 51
300.00000000000005
  0
ARC
  8
_0-4_
  6
CONTINUOUS
 62
    7
 10
2471.1232791032803
 20
743.249907218737
 40
3.0000000000000004
 50
192.02500000000003
 51
270.00000000000005
  0
ARC
  8
_0-4_
  6
CONTINUOUS
 62
    7
 10
2465.2548291032808
 20
741.99995721873688
 40
3.0000000000000004
 50
12.025000000000002
 51
90.000000000000014
  0
ARC
  8
_0-4_
  6
CONTINUOUS
 62
    7
 10
2456.5390791032805
 20
747.9999572187371
 40
3.0000000000000004
 50
180.00000000000005
 51
270.00000000000005
  0
ARC
  8
_0-4_
  6
CONTINUOUS
 62
    7
 10
2479.9390791032806
 20
749.29985721873686
 40
0.19995
 50
90.000000000000028
 51
180.00000000000005
  0
ARC
  8
_0-4_
  6
CONTINUOUS
 62
    7
 10
2478.7390791032803
 20
741.24995721873688
 40
1.0000500000000001
 50
300.00000000000005
 51
0.0000000000000763
  0
ARC
  8
_0-4_
  6
CONTINUOUS
 62
    7
 10
2479.9390791032806
 20
722.69990721873693
 40
0.19995
 50
180.00000000000005
 51
270.00000000000005
  0
ARC
  8
_0-4_
  6
CONTINUOUS
 62
    7
 10
2478.7390791032803
 20
730.74995721873688
 40
1.0000500000000001
 50
0
 51
60.000000000000007
  0
POINT
  8
_0-9_
 62
    3
 10
954
 20
417.91153053655847
  0
POINT
  8
_0-9_
 62
    3
 10
1246
 20
417.91153053655847
  0
TEXT
  8
_f-8_
 62
    7
 10
3582
 20
145
 40
30
 41
0.7333333333333333
 50
0
  1
Ｔ．Ｋ
  0
TEXT
  8
_f-8_
 62
    7
 10
3041.2961544433519
 20
139.58866000724611
 40
35
 41
0.5714285714285713
 50
0
  1
２０２３．０５．０１
  0
LINE
  8
_e-0_
  6
CONTINUOUS
 62
    7
 10
2243.7859302690862
 20
199.51965480360598
 11
2272.9339284698526
 21
210.1286585371298
  0
LINE
  8
_e-0_
  6
CONTINUOUS
 62
    7
 10
2237.6336615052869
 20
191.95952323799758
 11
2287.5529504706664
 21
210.12865853712895
  0
LINE
  8
_e-0_
  6
CONTINUOUS
 62
    7
 10
2234.2067375789874
 20
185.39133607135255
 11
2263.8643430051365
 21
196.18582166608263
  0
LINE
  8
_e-0_
  6
CONTINUOUS
 62
    7
 10
2232.2119570371696
 20
179.34440646785787
 11
2253.9586582709303
 21
187.25955841042662
  0
LINE
  8
_e-0_
  6
CONTINUOUS
 62
    7
 10
2231.2024514117433
 20
173.65608760649877
 11
2249.4574587956462
 21
180.3003669205492
  0
LINE
  8
_e-0_
  6
CONTINUOUS
 62
    7
 10
2230.9649088875535
 20
168.248740335938
 11
2249.3748102388385
 21
174.94939644358311
  0
LINE
  8
_e-0_
  6
CONTINUOUS
 62
    7
 10
2231.3837497438626
 20
163.08029707814966
 11
2249.8286640768283
 21
169.79369686893903
  0
LINE
  8
_e-0_
  6
CONTINUOUS
 62
    7
 10
2232.3950068941753
 20
158.12747571767488
 11
2251.269568818267
 21
164.99725444285843
  0
LINE
  8
_e-0_
  6
CONTINUOUS
 62
    7
 10
2233.9675550564961
 20
153.37894757832998
 11
2253.6625167678694
 21
160.54732740628253
  0
LINE
  8
_e-0_
  6
CONTINUOUS
 62
    7
 10
2236.0955302019183
 20
148.83257832814223
 11
2257.099910488102
 21
156.47754754152117
  0
LINE
  8
_e-0_
  6
CONTINUOUS
 62
    7
 10
2238.7970089264299
 20
144.49494730998821
 11
2261.880116002736
 21
152.89651120014326
  0
LINE
  8
_e-0_
  6
CONTINUOUS
 62
    7
 10
2242.1181877425701
 20
140.38286867935909
 11
2268.9468388985251
 21
150.14769912563821
  0
LINE
  8
_e-0_
  6
CONTINUOUS
 62
    7
 10
2246.1455691824353
 20
136.52782678312661
 11
2284.5651405528201
 21
150.51140717521263
  0
LINE
  8
_e-0_
  6
CONTINUOUS
 62
    7
 10
2251.0351047702797
 20
132.98658333410969
 11
2279.1844822576495
 21
143.2321188526356
  0
LINE
  8
_e-0_
  6
CONTINUOUS
 62
    7
 10
2279.5849322183671
 20
201.90764820482513
 11
2302.1719724714803
 21
210.12865853713066
  0
LINE
  8
_e-0_
  6
CONTINUOUS
 62
    7
 10
2260.5624543087296
 20
189.663143601351
 11
2313.0511299164636
 21
208.76745915862045
  0
LINE
  8
_e-0_
  6
CONTINUOUS
 62
    7
 10
2273.069618849473
 20
188.89449034687174
 11
2313.0511299164636
 21
203.44657029624102
  0
LINE
  8
_e-0_
  6
CONTINUOUS
 62
    7
 10
2287.6886408502887
 20
188.89449034687174
 11
2313.0511299164636
 21
198.12568143386158
  0
LINE
  8
_e-0_
  6
CONTINUOUS
 62
    7
 10
2291.8751463425487
 20
185.09736486926669
 11
2313.0511299164636
 21
192.80479257148215
  0
LINE
  8
_e-0_
  6
CONTINUOUS
 62
    7
 10
2291.8751463425487
 20
179.77647600688726
 11
2313.0511299164636
 21
187.48390370910215
  0
LINE
  8
_e-0_
  6
CONTINUOUS
 62
    7
 10
2291.8751463425487
 20
174.45558714450783
 11
2313.0511299164636
 21
182.16301484672271
  0
LINE
  8
_e-0_
  6
CONTINUOUS
 62
    7
 10
2291.8751463425487
 20
169.13469828212839
 11
2313.0511299164636
 21
176.84212598434328
  0
LINE
  8
_e-0_
  6
CONTINUOUS
 62
    7
 10
2291.8008475696451
 20
163.78676687796939
 11
2313.0511299164636
 21
171.52123712196384
  0
LINE
  8
_e-0_
  6
CONTINUOUS
 62
    7
 10
2290.6539909363364
 20
158.04845633809463
 11
2313.0511299164636
 21
166.20034825958413
  0
LINE
  8
_e-0_
  6
CONTINUOUS
 62
    7
 10
2288.3949962857823
 20
151.90536066354695
 11
2313.0511299164636
 21
160.87945939720469
  0
LINE
  8
_e-0_
  6
CONTINUOUS
 62
    7
 10
2284.4003861827632
 20
145.13055262616916
 11
2311.8608666367176
 21
155.12535013005759
  0
LINE
  8
_e-0_
  6
CONTINUOUS
 62
    7
 10
2275.7463468865153
 20
136.65985105378524
 11
2309.0387712913652
 21
148.77730256370853
  0
LINE
  8
_e-0_
  6
CONTINUOUS
 62
    7
 10
2266.9791201478205
 20
128.14795262145821
 11
2304.1703780821812
 21
141.68446348448242
  0
LINE
  8
_e-0_
  6
CONTINUOUS
 62
    7
 10
2282.1376414569663
 20
128.34431431109749
 11
2292.724458387317
 21
132.19760054937069
  0
LINE
  8
_e-0_
  6
CONTINUOUS
 62
    3
 10
2266.4464672734898
 20
197.56612819678269
 11
2266.4464672734898
 21
197.56612819678269
  0
LINE
  8
_e-0_
  6
CONTINUOUS
 62
    3
 10
2266.4464672734898
 20
197.56612819678269
 11
2262.3244734593249
 21
194.75680664380121
  0
LINE
  8
_e-0_
  6
CONTINUOUS
 62
    3
 10
2282.3868421919432
 20
128.14795262145651
 11
2266.9204010401704
 21
128.14795262145651
  0
ARC
  8
_e-0_
  6
CONTINUOUS
 62
    3
 10
2282.3868421919432
 20
133.14795262145651
 40
5
 50
270
 51
286.20399351045659
  0
LINE
  8
_e-0_
  6
CONTINUOUS
 62
    3
 10
2313.2288608412613
 20
210.12865853712895
 11
2313.2288608412613
 21
159.77346730566921
  0
ARC
  8
_e-0_
  6
CONTINUOUS
 62
    3
 10
2271.9221657766447
 20
169.15823653484835
 40
42.5
 50
286.20399351045648
 51
345.50707147989851
  0
ARC
  8
_e-0_
  6
CONTINUOUS
 62
    3
 10
2308.2288608412613
 20
159.77346730566921
 40
5
 50
345.50707147989879
 51
0
  0
ARC
  8
_e-0_
  6
CONTINUOUS
 62
    3
 10
2250.0927387377205
 20
170.4956084628958
 40
40
 50
279.71265316664215
 51
332.69093929010892
  0
ARC
  8
_e-0_
  6
CONTINUOUS
 62
    3
 10
2255.9974857549714
 20
135.99729020443191
 40
5
 50
241.94526281180003
 51
279.71265316664226
  0
ARC
  8
_e-0_
  6
CONTINUOUS
 62
    3
 10
2263.2643122966178
 20
205.12865853712895
 40
5
 50
90
 51
106.05338143786269
  0
LINE
  8
_e-0_
  6
CONTINUOUS
 62
    3
 10
2288.4334989152221
 20
210.12865853712884
 11
2288.4334989152221
 21
210.12865853712884
  0
LINE
  8
_e-0_
  6
CONTINUOUS
 62
    3
 10
2288.4334989152221
 20
210.12865853712884
 11
2278.2181989551913
 21
205.24067691222057
  0
LINE
  8
_e-0_
  6
CONTINUOUS
 62
    3
 10
2278.2181989551913
 20
205.24067691222057
 11
2272.2994583375816
 21
201.44448978984021
  0
LINE
  8
_e-0_
  6
CONTINUOUS
 62
    3
 10
2266.4464672734898
 20
197.56612819678252
 11
2272.2994583375816
 21
201.4444897898403
  0
ARC
  8
_e-0_
  6
CONTINUOUS
 62
    3
 10
2263.2643122966178
 20
205.12865853712895
 40
5
 50
90
 51
106.05338143786269
  0
ARC
  8
_e-0_
  6
CONTINUOUS
 62
    3
 10
2263.2643122966178
 20
205.12865853712895
 40
5
 50
90
 51
106.05338143786269
  0
LINE
  8
_e-0_
  6
CONTINUOUS
 62
    3
 10
2288.4334989152221
 20
210.12865853712895
 11
2263.2643122966178
 21
210.12865853712895
  0
ARC
  8
_e-0_
  6
CONTINUOUS
 62
    3
 10
2273.6342932765642
 20
169.09099082020304
 40
42.5
 50
106.05338143786269
 51
241.94526281180051
  0
ARC
  8
_e-0_
  6
CONTINUOUS
 62
    3
 10
2263.2643122966178
 20
205.12865853712895
 40
5
 50
90
 51
106.05338143786269
  0
LINE
  8
_e-0_
  6
CONTINUOUS
 62
    3
 10
2299.1719829458552
 20
210.12865853712895
 11
2313.2288608412613
 21
210.12865853712895
  0
ARC
  8
_e-0_
  6
CONTINUOUS
 62
    3
 10
2299.1719829458552
 20
205.12865853712895
 40
5
 50
90
 51
112.84552721528329
  0
LINE
  8
_e-0_
  6
CONTINUOUS
 62
    3
 10
2292.0528772673465
 20
188.89449034687004
 11
2269.0173546029673
 21
188.89449034687004
  0
ARC
  8
_e-0_
  6
CONTINUOUS
 62
    3
 10
2269.0173546029673
 20
183.89449034687004
 40
5
 50
90
 51
110.93110431809542
  0
ARC
  8
_e-0_
  6
CONTINUOUS
 62
    3
 10
2254.2292662802574
 20
177.70386452217394
 40
0.5
 50
165.368776721252
 51
224.67319701305797
  0
LINE
  8
_e-0_
  6
CONTINUOUS
 62
    3
 10
2253.8737020580624
 20
177.3523334653737
 11
2253.6837582739271
 21
177.54445650133447
  0
ARC
  8
_e-0_
  6
CONTINUOUS
 62
    3
 10
2276.1622566207875
 20
165.2142768803236
 40
25
 50
110.93110431809527
 51
150.17701829297229
  0
ARC
  8
_e-0_
  6
CONTINUOUS
 62
    3
 10
2254.0393224961217
 20
177.89598755813472
 40
0.5
 50
224.67319701305652
 51
330.17701829297561
  0
LINE
  8
_e-0_
  6
CONTINUOUS
 62
    3
 10
2297.2307430642558
 20
209.73643324104926
 11
2283.5233941157548
 21
203.96157353985984
  0
LINE
  8
_e-0_
  6
CONTINUOUS
 62
    3
 10
2283.5233941157548
 20
203.96157353985984
 11
2277.114528385443
 21
200.4613679180602
  0
ARC
  8
_e-0_
  6
CONTINUOUS
 62
    3
 10
2277.9347719955744
 20
171.51524603489747
 40
25
 50
126.05682261028304
 51
165.36877672125814
  0
ARC
  8
_e-0_
  6
CONTINUOUS
 62
    3
 10
2322.0287923520791
 20
111.11536133502738
 40
100
 50
116.6886898974924
 51
126.03335467187628
  0
LINE
  8
_e-0_
  6
CONTINUOUS
 62
    3
 10
2262.3244734593245
 20
194.75680664380129
 11
2262.3244734593245
 21
194.75680664380129
  0
LINE
  8
_e-0_
  6
CONTINUOUS
 62
    3
 10
2262.3244734593245
 20
194.75680664380129
 11
2254.3560414411385
 21
187.5018589393544
  0
LINE
  8
_e-0_
  6
CONTINUOUS
 62
    3
 10
2254.3560414411385
 20
187.5018589393544
 11
2252.5108960046536
 21
185.36863764275497
  0
ARC
  8
_e-0_
  6
CONTINUOUS
 62
    3
 10
2274.5493829743445
 20
174.5520307550089
 40
25
 50
169.07329675873063
 51
296.32138326661799
  0
LINE
  8
_e-0_
  6
CONTINUOUS
 62
    3
 10
2252.5108960046536
 20
185.36863764275483
 11
2252.5108960046536
 21
185.36863764275483
  0
LINE
  8
_e-0_
  6
CONTINUOUS
 62
    3
 10
2252.5108960046536
 20
185.36863764275483
 11
2250.0026210661126
 21
179.29085759512346
  0
LINE
  8
_e-0_
  6
CONTINUOUS
 62
    3
 10
2292.0528772673465
 20
188.89449034687004
 11
2292.0528772673465
 21
164.42425885831653
  0
ARC
  8
_e-0_
  6
CONTINUOUS
 62
    3
 10
2277.2840925230507
 20
144.13090983307199
 40
5
 50
311.4163090429962
 51
326.13300916724881
  0
ARC
  8
_e-0_
  6
CONTINUOUS
 62
    3
 10
2252.285941088533
 20
168.73596234419835
 40
40
 50
316.78132524618342
 51
353.81191653224226
  0
ARC
  8
_e-0_
  6
CONTINUOUS
 62
    3
 10
2240.9001979970053
 20
185.376663785662
 40
60
 50
294.69555798319504
 51
311.41630904299643
  0
ARC
  8
_e-0_
  6
CONTINUOUS
 62
    3
 10
2271.9268153318698
 20
202.98067150791609
 40
75
 50
264.68313230529076
 51
266.17253517307824
  0
ARC
  8
_e-0_
  6
CONTINUOUS
 62
    3
 10
2265.0233680716155
 20
128.80121063143832
 40
0.5
 50
174.02086603460466
 51
264.68313230528985
  0
ARC
  8
_e-0_
  6
CONTINUOUS
 62
    3
 10
2267.0124878650103
 20
128.59287809071872
 40
2.5
 50
114.69555798319522
 51
174.02086603461154
  0
LINE
  8
_e-0_
  6
CONTINUOUS
 62
    7
 10
2376.8899919095943
 20
169.43032024062034
 11
2388.2618909747957
 21
173.56935300743344
  0
LINE
  8
_e-0_
  6
CONTINUOUS
 62
    3
 10
2436.2585234464268
 20
162.63312492519389
 11
2436.2585234464268
 21
136.49018622829544
  0
CIRCLE
  8
_e-0_
  6
CONTINUOUS
 62
    3
 10
2365.5167430510387
 20
162.46293449130519
 40
13.33773795583065
  0
CIRCLE
  8
_e-0_
  6
CONTINUOUS
 62
    3
 10
2365.2330256036634
 20
162.17921704393006
 40
25.691707563897665
  0
LINE
  8
_e-0_
  6
CONTINUOUS
 62
    3
 10
2399.4939617252575
 20
188.26250382114977
 11
2399.4939617252575
 21
136.49018622829544
  0
LINE
  8
_e-0_
  6
CONTINUOUS
 62
    3
 10
2399.4939617252575
 20
136.49018622829544
 11
2414.856930753669
 21
136.49018622829544
  0
LINE
  8
_e-0_
  6
CONTINUOUS
 62
    3
 10
2414.856930753669
 20
136.49018622829544
 11
2414.856930753669
 21
172.63312492519389
  0
LINE
  8
_e-0_
  6
CONTINUOUS
 62
    3
 10
2451.1774760289299
 20
136.49018622829544
 11
2436.2585234464268
 21
136.49018622829544
  0
LINE
  8
_e-0_
  6
CONTINUOUS
 62
    3
 10
2426.2585234464268
 20
172.63312492519389
 11
2414.856930753669
 21
172.63312492519389
  0
ARC
  8
_e-0_
  6
CONTINUOUS
 62
    3
 10
2426.2585234464268
 20
162.63312492519389
 40
10
 50
0
 51
90
  0
LINE
  8
_e-0_
  6
CONTINUOUS
 62
    3
 10
2426.1774760289299
 20
188.26250382114977
 11
2399.4939617252575
 21
188.26250382114977
  0
LINE
  8
_e-0_
  6
CONTINUOUS
 62
    3
 10
2451.1774760289299
 20
163.26250382114977
 11
2451.1774760289299
 21
136.49018622829544
  0
ARC
  8
_e-0_
  6
CONTINUOUS
 62
    3
 10
2426.1774760289299
 20
163.26250382114977
 40
25
 50
0
 51
90
  0
ARC
  8
_e-0_
  6
CONTINUOUS
 62
    3
 10
2486.2452606175229
 20
162.17653762406428
 40
13.33773795583065
 50
23.422555400004952
 51
97.191484740792631
  0
LINE
  8
_e-0_
  6
CONTINUOUS
 62
    3
 10
2474.0065761310629
 20
167.47841048365671
 11
2498.4839451039833
 21
167.47841048365671
  0
ARC
  8
_e-0_
  6
CONTINUOUS
 62
    3
 10
2486.2452606175229
 20
162.17653762406428
 40
13.33773795583065
 50
92.530763017635266
 51
156.57744459999506
  0
ARC
  8
_e-0_
  6
CONTINUOUS
 62
    3
 10
2486.2452606175229
 20
162.17653762406428
 40
13.33773795583065
 50
204.21097500392608
 51
316.0067678116265
  0
LINE
  8
_e-0_
  6
CONTINUOUS
 62
    3
 10
2474.0806890359867
 20
156.70676139316753
 11
2511.5200753562385
 21
156.70676139316753
  0
LINE
  8
_e-0_
  6
CONTINUOUS
 62
    3
 10
2495.8407207162626
 20
152.91249966689292
 11
2508.7092412098891
 21
149.78943472664496
  0
ARC
  8
_e-0_
  6
CONTINUOUS
 62
    3
 10
2486.5655867677851
 20
162.8171899245882
 40
25.691707563897665
 50
346.24110979921471
 51
329.53046432565105
  0
ARC
  8
_e-0_
  6
CONTINUOUS
 62
    3
 10
2546.5135590423406
 20
162.14309845353909
 40
11.089756641867943
 50
94.502189492040685
 51
357.22978420280037
  0
LINE
  8
_e-0_
  6
CONTINUOUS
 62
    3
 10
2556.5903561511468
 20
173.19863581905565
 11
2545.6430442891501
 21
173.19863581905565
  0
LINE
  8
_e-0_
  6
CONTINUOUS
 62
    3
 10
2557.5903561511468
 20
172.19863581905599
 11
2557.5903561511468
 21
161.60712439988742
  0
ARC
  8
_e-0_
  6
CONTINUOUS
 62
    3
 10
2556.5903561511468
 20
172.19863581905599
 40
1
 50
0
 51
90
  0
LINE
  8
_e-0_
  6
CONTINUOUS
 62
    3
 10
2548.9703457355517
 20
188.29058742736094
 11
2557.393077545817
 21
188.29058742736094
  0
ARC
  8
_e-0_
  6
CONTINUOUS
 62
    3
 10
2546.9662856612039
 20
162.67716163604518
 40
25.691707563897665
 50
85.526146014136969
 51
347.40557840019874
  0
LINE
  8
_e-0_
  6
CONTINUOUS
 62
    3
 10
2557.393077545817
 20
209.12865853712901
 11
2557.393077545817
 21
188.29058742736094
  0
ARC
  8
_e-0_
  6
CONTINUOUS
 62
    3
 10
2558.3930775458175
 20
209.12865853712901
 40
1
 50
90
 51
180
  0
LINE
  8
_e-0_
  6
CONTINUOUS
 62
    3
 10
2572.0397992563612
 20
209.12865853712901
 11
2572.0397992563612
 21
157.07513043814088
  0
LINE
  8
_e-0_
  6
CONTINUOUS
 62
    3
 10
2571.0397992563616
 20
210.12865853712895
 11
2558.3930775458175
 21
210.12865853712895
  0
ARC
  8
_e-0_
  6
CONTINUOUS
 62
    3
 10
2571.0397992563616
 20
209.12865853712901
 40
1
 50
0
 51
90
  0
CIRCLE
  8
_e-0_
  6
CONTINUOUS
 62
    3
 10
2607.4932845795829
 20
162.61858771142584
 40
13.33773795583065
  0
CIRCLE
  8
_e-0_
  6
CONTINUOUS
 62
    3
 10
2607.2095671322085
 20
162.334870264051
 40
25.691707563897665
  0
ARC
  8
_e-0_
  6
CONTINUOUS
 62
    3
 10
2361.3056445788688
 20
183.56108960512415
 40
5
 50
90
 51
106.05338143786269
  0
ARC
  8
_e-0_
  6
CONTINUOUS
 62
    3
 10
2361.3056445788688
 20
183.56108960512415
 40
5
 50
90
 51
106.05338143786269
  0
ARC
  8
_e-0_
  6
CONTINUOUS
 62
    3
 10
2361.3056445788688
 20
183.56108960512415
 40
5
 50
90
 51
106.05338143786269
  0
ARC
  8
_e-0_
  6
CONTINUOUS
 62
    3
 10
2361.3056445788688
 20
183.56108960512415
 40
5
 50
90
 51
106.05338143786269
  0
LINE
  8
_e-0_
  6
CONTINUOUS
 62
    7
 10
2346.3470804331013
 20
179.59716504486777
 11
2368.504457793455
 21
187.66179087344028
  0
LINE
  8
_e-0_
  6
CONTINUOUS
 62
    7
 10
2361.2415063076141
 20
179.69740385729494
 11
2376.5205845613304
 21
185.25853354867166
  0
LINE
  8
_e-0_
  6
CONTINUOUS
 62
    7
 10
2341.7511550984831
 20
172.60349616177705
 11
2361.2415063076145
 21
179.69740385729494
  0
LINE
  8
_e-0_
  6
CONTINUOUS
 62
    7
 10
2339.9278406436087
 20
166.61897511011602
 11
2357.2356669233163
 21
172.91850869577984
  0
LINE
  8
_e-0_
  6
CONTINUOUS
 62
    7
 10
2339.5613566552269
 20
161.16469698463049
 11
2352.6357267551816
 21
165.92337853279389
  0
LINE
  8
_e-0_
  6
CONTINUOUS
 62
    7
 10
2340.2704529847874
 20
156.10189807943811
 11
2352.3257797311662
 21
160.489678179473
  0
LINE
  8
_e-0_
  6
CONTINUOUS
 62
    7
 10
2341.9204823498939
 20
151.38157079162255
 11
2353.9794571535694
 21
155.77067867592631
  0
LINE
  8
_e-0_
  6
CONTINUOUS
 62
    7
 10
2344.504128974107
 20
147.00105239631881
 11
2357.564943671171
 21
151.75480018131679
  0
LINE
  8
_e-0_
  6
CONTINUOUS
 62
    7
 10
2348.1361647674007
 20
143.00211645248765
 11
2364.9879954656798
 21
149.13568121955449
  0
LINE
  8
_e-0_
  6
CONTINUOUS
 62
    7
 10
2353.1501292054063
 20
139.50616140121155
 11
2375.2534753949121
 21
147.55112149187283
  0
LINE
  8
_e-0_
  6
CONTINUOUS
 62
    7
 10
2360.6217579801264
 20
136.90472301431668
 11
2375.3071030149835
 21
142.24975148693374
  0
LINE
  8
_e-0_
  6
CONTINUOUS
 62
    7
 10
2375.3071030149835
 20
142.24975148693374
 11
2385.0115931457403
 21
145.78189703325932
  0
LINE
  8
_e-0_
  6
CONTINUOUS
 62
    7
 10
2374.4001538198344
 20
147.24053783828736
 11
2389.0630204872036
 21
152.57738485422379
  0
LINE
  8
_e-0_
  6
CONTINUOUS
 62
    7
 10
2374.4883804748506
 20
152.59353857696169
 11
2390.6567834919524
 21
158.47835601080646
  0
LINE
  8
_e-0_
  6
CONTINUOUS
 62
    7
 10
2378.4912308361022
 20
159.37134582305873
 11
2390.8686178519897
 21
163.87634627483464
  0
LINE
  8
_e-0_
  6
CONTINUOUS
 62
    7
 10
2378.6565159204474
 20
164.75239353630797
 11
2390.0320630429459
 21
168.89275408738967
  0
LINE
  8
_e-0_
  6
CONTINUOUS
 62
    7
 10
2365.1397018509305
 20
175.7953421400316
 11
2381.7641004494612
 21
181.84612839247364
  0
LINE
  8
_e-0_
  6
CONTINUOUS
 62
    7
 10
2373.159843452322
 20
173.39354609515908
 11
2385.5507858710998
 21
177.90348031010012
  0
LINE
  8
_e-0_
  6
CONTINUOUS
 62
    7
 10
2399.4939617252575
 20
182.97838129215278
 11
2414.0119690553083
 21
188.26250382114977
  0
LINE
  8
_e-0_
  6
CONTINUOUS
 62
    7
 10
2399.4939617252575
 20
177.65749242977335
 11
2428.3670442872125
 21
188.16643505383524
  0
LINE
  8
_e-0_
  6
CONTINUOUS
 62
    7
 10
2399.4939617252575
 20
172.33660356739392
 11
2436.7743097980664
 21
185.90554058897964
  0
LINE
  8
_e-0_
  6
CONTINUOUS
 62
    7
 10
2399.4939617252575
 20
167.01571470501448
 11
2442.1110032081055
 21
182.52704927725858
  0
LINE
  8
_e-0_
  6
CONTINUOUS
 62
    7
 10
2399.4939617252575
 20
161.69482584263505
 11
2414.856930753669
 21
167.28648927893004
  0
LINE
  8
_e-0_
  6
CONTINUOUS
 62
    7
 10
2428.7090082786239
 20
172.32823318076128
 11
2445.9244086202584
 21
178.5941264760919
  0
LINE
  8
_e-0_
  6
CONTINUOUS
 62
    7
 10
2399.4939617252575
 20
156.37393698025562
 11
2414.856930753669
 21
161.96560041655061
  0
LINE
  8
_e-0_
  6
CONTINUOUS
 62
    7
 10
2403.3398935234458
 20
136.49018622829544
 11
2414.856930753669
 21
140.68204496703231
  0
LINE
  8
_e-0_
  6
CONTINUOUS
 62
    7
 10
2399.4939617252575
 20
140.41127039311675
 11
2414.856930753669
 21
146.00293382941202
  0
LINE
  8
_e-0_
  6
CONTINUOUS
 62
    7
 10
2399.4939617252575
 20
145.73215925549646
 11
2414.856930753669
 21
151.32382269179146
  0
LINE
  8
_e-0_
  6
CONTINUOUS
 62
    7
 10
2399.4939617252575
 20
151.0530481178759
 11
2414.856930753669
 21
156.64471155417118
  0
LINE
  8
_e-0_
  6
CONTINUOUS
 62
    7
 10
2436.2585234464268
 20
159.113365397844
 11
2451.1774760289299
 21
164.5434200643038
  0
LINE
  8
_e-0_
  6
CONTINUOUS
 62
    7
 10
2436.2585234464268
 20
153.79247653546485
 11
2451.1774760289299
 21
159.22253120192465
  0
LINE
  8
_e-0_
  6
CONTINUOUS
 62
    7
 10
2436.105047565391
 20
164.37839360784892
 11
2450.3687179376247
 21
169.56994505472636
  0
LINE
  8
_e-0_
  6
CONTINUOUS
 62
    7
 10
2436.2585234464268
 20
148.47158767308542
 11
2451.1774760289299
 21
153.90164233954521
  0
LINE
  8
_e-0_
  6
CONTINUOUS
 62
    7
 10
2436.2585234464268
 20
143.1506988107057
 11
2451.1774760289299
 21
148.5807534771655
  0
LINE
  8
_e-0_
  6
CONTINUOUS
 62
    7
 10
2436.2585234464268
 20
137.82980994832598
 11
2451.1774760289299
 21
143.25986461478606
  0
LINE
  8
_e-0_
  6
CONTINUOUS
 62
    7
 10
2447.1969595258929
 20
136.49018622829544
 11
2451.1774760289299
 21
137.93897575240634
  0
LINE
  8
_e-0_
  6
CONTINUOUS
 62
    7
 10
2434.0189024056153
 20
168.93998772771169
 11
2448.6296862431445
 21
174.25787814386978
  0
LINE
  8
_e-0_
  6
CONTINUOUS
 62
    7
 10
2469.1883842563338
 20
181.74063227593791
 11
2487.7135419125711
 21
188.48323824789645
  0
LINE
  8
_e-0_
  6
CONTINUOUS
 62
    7
 10
2463.6316388937825
 20
174.39725350219305
 11
2496.6904887083792
 21
186.42969081378254
  0
LINE
  8
_e-0_
  6
CONTINUOUS
 62
    7
 10
2461.4628990865917
 20
168.28700790412767
 11
2502.2794299488264
 21
183.14301020398858
  0
LINE
  8
_e-0_
  6
CONTINUOUS
 62
    7
 10
2461.4992419870632
 20
162.97934677574687
 11
2473.9894671720021
 21
167.52541696234658
  0
LINE
  8
_e-0_
  6
CONTINUOUS
 62
    7
 10
2492.1508316310541
 20
174.13561303910114
 11
2506.2885679576879
 21
179.28132824190015
  0
LINE
  8
_e-0_
  6
CONTINUOUS
 62
    7
 10
2496.6927278595248
 20
170.46783921101109
 11
2509.1784918759253
 21
175.01228566505261
  0
LINE
  8
_e-0_
  6
CONTINUOUS
 62
    7
 10
2463.2093427036916
 20
158.28088367181749
 11
2488.4793399340492
 21
167.47841048365671
  0
LINE
  8
_e-0_
  6
CONTINUOUS
 62
    7
 10
2462.888879459625
 20
152.84335572742151
 11
2511.1140538755621
 21
170.39588375711787
  0
LINE
  8
_e-0_
  6
CONTINUOUS
 62
    7
 10
2465.300291731432
 20
148.400149154524
 11
2476.9283430630939
 21
152.63241372176821
  0
LINE
  8
_e-0_
  6
CONTINUOUS
 62
    7
 10
2488.1225212892718
 20
156.70676139316753
 11
2512.1228430370119
 21
165.44216412215632
  0
LINE
  8
_e-0_
  6
CONTINUOUS
 62
    7
 10
2502.7415432900879
 20
156.70676139316753
 11
2512.1151621126959
 21
160.11847963195407
  0
LINE
  8
_e-0_
  6
CONTINUOUS
 62
    7
 10
2468.7281740890052
 20
144.32690743686691
 11
2482.5550140975401
 21
149.35946563393486
  0
LINE
  8
_e-0_
  6
CONTINUOUS
 62
    7
 10
2473.4508580764295
 20
140.72493497175571
 11
2502.4973614552441
 21
151.29699761115659
  0
LINE
  8
_e-0_
  6
CONTINUOUS
 62
    7
 10
2480.3069495598269
 20
137.89945933273884
 11
2507.3767895083869
 21
147.75207532036432
  0
LINE
  8
_e-0_
  6
CONTINUOUS
 62
    7
 10
2552.6231690921717
 20
137.61596638527407
 11
2558.7418873346696
 21
139.84299769740459
  0
LINE
  8
_e-0_
  6
CONTINUOUS
 62
    7
 10
2539.4012676014826
 20
138.12447666464265
 11
2568.5435873921023
 21
148.73141362589478
  0
LINE
  8
_e-0_
  6
CONTINUOUS
 62
    7
 10
2532.9976800904732
 20
141.11465028049622
 11
2571.5269734698549
 21
155.13816621790056
  0
LINE
  8
_e-0_
  6
CONTINUOUS
 62
    7
 10
2522.081864354775
 20
169.06695144424446
 11
2572.0397992563612
 21
187.25015271383
  0
LINE
  8
_e-0_
  6
CONTINUOUS
 62
    7
 10
2524.5896829795606
 20
175.30061163898437
 11
2572.0397992563612
 21
192.57104157620943
  0
LINE
  8
_e-0_
  6
CONTINUOUS
 62
    7
 10
2557.393077545817
 20
208.5236262935092
 11
2561.8028673926596
 21
210.12865853712895
  0
LINE
  8
_e-0_
  6
CONTINUOUS
 62
    7
 10
2557.393077545817
 20
203.20273743112977
 11
2572.0397992563612
 21
208.53370816334802
  0
LINE
  8
_e-0_
  6
CONTINUOUS
 62
    7
 10
2557.393077545817
 20
197.88184856875005
 11
2572.0397992563612
 21
203.21281930096859
  0
LINE
  8
_e-0_
  6
CONTINUOUS
 62
    7
 10
2557.393077545817
 20
192.56095970637034
 11
2572.0397992563612
 21
197.89193043858915
  0
LINE
  8
_e-0_
  6
CONTINUOUS
 62
    7
 10
2531.3600319802562
 20
183.08570601321093
 11
2545.8030101140193
 21
188.34252014805827
  0
LINE
  8
_e-0_
  6
CONTINUOUS
 62
    7
 10
2548.0525958796984
 20
173.19863581905565
 11
2572.0397992563612
 21
181.92926385145057
  0
LINE
  8
_e-0_
  6
CONTINUOUS
 62
    7
 10
2521.2864022906337
 20
163.45653806802943
 11
2538.3752084417083
 21
169.67635484616607
  0
LINE
  8
_e-0_
  6
CONTINUOUS
 62
    7
 10
2521.6554107736328
 20
158.26995730965364
 11
2535.4846691325356
 21
163.30339571427089
  0
LINE
  8
_e-0_
  6
CONTINUOUS
 62
    7
 10
2522.9940114609526
 20
153.43627925302655
 11
2536.1404517985765
 21
158.22119222247806
  0
LINE
  8
_e-0_
  6
CONTINUOUS
 62
    7
 10
2525.2563435788042
 20
148.93881194156961
 11
2539.0354883761392
 21
153.95401050144357
  0
LINE
  8
_e-0_
  6
CONTINUOUS
 62
    7
 10
2528.5117312327797
 20
144.80278728623488
 11
2545.7561370732082
 21
151.07923771975691
  0
LINE
  8
_e-0_
  6
CONTINUOUS
 62
    7
 10
2554.2054905278623
 20
154.15455087604527
 11
2572.0397992563612
 21
160.64570840193255
  0
LINE
  8
_e-0_
  6
CONTINUOUS
 62
    7
 10
2557.505937791675
 20
160.67670430221767
 11
2572.0397992563612
 21
165.96659726431198
  0
LINE
  8
_e-0_
  6
CONTINUOUS
 62
    7
 10
2557.5903561511468
 20
166.02831893467055
 11
2572.0397992563612
 21
171.28748612669141
  0
LINE
  8
_e-0_
  6
CONTINUOUS
 62
    7
 10
2557.5903561511468
 20
171.34920779704998
 11
2572.0397992563612
 21
176.60837498907085
  0
LINE
  8
_e-0_
  6
CONTINUOUS
 62
    7
 10
2595.1467628188602
 20
185.01862193009401
 11
2601.869376832742
 21
187.46545332760774
  0
LINE
  8
_e-0_
  6
CONTINUOUS
 62
    7
 10
2585.5936460434281
 20
176.22068291698809
 11
2614.8426950414304
 21
186.86646613285404
  0
LINE
  8
_e-0_
  6
CONTINUOUS
 62
    7
 10
2608.5181174973604
 20
136.67650840108905
 11
2622.7000364868072
 21
141.83830477802189
  0
LINE
  8
_e-0_
  6
CONTINUOUS
 62
    7
 10
2598.2444761483161
 20
138.25809761488983
 11
2629.5534764025942
 21
149.65364177207987
  0
LINE
  8
_e-0_
  6
CONTINUOUS
 62
    7
 10
2582.6330921261528
 20
169.82224055178022
 11
2621.2234503919626
 21
183.86798229020314
  0
LINE
  8
_e-0_
  6
CONTINUOUS
 62
    7
 10
2592.2968185805402
 20
141.41421615899105
 11
2632.0809325371146
 21
155.89444943583799
  0
LINE
  8
_e-0_
  6
CONTINUOUS
 62
    7
 10
2588.0695495912832
 20
145.19650493704432
 11
2602.246111940276
 21
150.35635165629656
  0
LINE
  8
_e-0_
  6
CONTINUOUS
 62
    7
 10
2585.0094293819529
 20
149.40360112995108
 11
2597.3909335115822
 21
153.91010008858017
  0
LINE
  8
_e-0_
  6
CONTINUOUS
 62
    7
 10
2582.919829983693
 20
153.96393800982366
 11
2594.8695180063709
 21
158.31326875884542
  0
LINE
  8
_e-0_
  6
CONTINUOUS
 62
    7
 10
2581.7538748691904
 20
158.86045391603374
 11
2594.1774270088017
 21
163.38225709870641
  0
LINE
  8
_e-0_
  6
CONTINUOUS
 62
    7
 10
2581.5798124660104
 20
164.11798924475078
 11
2595.9853391150809
 21
169.36117215394091
  0
LINE
  8
_e-0_
  6
CONTINUOUS
 62
    7
 10
2611.9748325174678
 20
175.18087181340547
 11
2625.6969314853613
 21
180.17530738937352
  0
LINE
  8
_e-0_
  6
CONTINUOUS
 62
    7
 10
2617.2029460570038
 20
171.76286066078091
 11
2628.9430705154381
 21
176.03591651023151
  0
LINE
  8
_e-0_
  6
CONTINUOUS
 62
    7
 10
2619.9310564926913
 20
167.43492279278257
 11
2631.1973168341919
 21
171.53550620858254
  0
LINE
  8
_e-0_
  6
CONTINUOUS
 62
    7
 10
2620.8298424207368
 20
162.44116525518904
 11
2632.5279188691888
 21
166.69891688059578
  0
LINE
  8
_e-0_
  6
CONTINUOUS
 62
    7
 10
2619.394865425299
 20
156.5979874796136
 11
2632.8880000931144
 21
161.50908686564349
  0
LINE
  8
ADD_LINE
  6
DOT
 62
    9
 10
2339.5613566552269
 20
120
 11
2339.5613566552269
 21
220
  0
LINE
  8
ADD_LINE
  6
DOT
 62
    9
 10
2486.2246783741707
 20
220
 11
2486.2246783741707
 21
120
  0
LINE
  8
ADD_LINE
  6
DOT
 62
    9
 10
2632.8880000931144
 20
120
 11
2632.8880000931144
 21
220
  0
LINE
  8
ADD_LINE
  6
DOT
 62
    9
 10
2220
 20
220
 11
2220
 21
120
  0
LINE
  8
ADD_LINE
  6
DOT
 62
    9
 10
2710
 20
220
 11
2710
 21
120
  0
TEXT
  8
_e-0_
 62
    7
 10
2642.8586825750176
 20
180.56247057449553
 40
35
 41
0.5714285714285713
 50
0
  1
ワンド
  0
TEXT
  8
_e-0_
 62
    7
 10
2649.7045100149039
 20
147.0179161190498
 40
30
 41
0.6666666666666666
 50
0
  1
株式
  0
TEXT
  8
_e-0_
 62
    7
 10
2649.0199272709155
 20
118.95002361551377
 40
30
 41
0.6666666666666666
 50
0
  1
会社
  0
LINE
  8
ADD_LINE
  6
DOT
 62
    9
 10
4115
 20
2845
 11
4130
 21
2845
  0
LINE
  8
ADD_LINE
  6
DOT
 62
    9
 10
4130
 20
2845
 11
4130
 21
2860
  0
LINE
  8
ADD_LINE
  6
DOT
 62
    9
 10
4130
 20
2860
 11
4115
 21
2860
  0
LINE
  8
ADD_LINE
  6
DOT
 62
    9
 10
4115
 20
2860
 11
4115
 21
2845
  0
LINE
  8
_0-d_
  6
CONTINUOUS
 62
    3
 10
4115
 20
2145
 11
3129.9989999999997
 21
2145
  0
LINE
  8
_0-d_
  6
CONTINUOUS
 62
    3
 10
4115
 20
2845
 11
3129.9989999999997
 21
2845
  0
LINE
  8
_0-d_
  6
CONTINUOUS
 62
    7
 10
4115
 20
2285
 11
3129.9989999999997
 21
2285
  0
LINE
  8
_0-d_
  6
CONTINUOUS
 62
    7
 10
4115
 20
2355
 11
3129.9989999999997
 21
2355
  0
LINE
  8
_0-d_
  6
CONTINUOUS
 62
    7
 10
4115
 20
2425
 11
3129.9989999999997
 21
2425
  0
LINE
  8
_0-d_
  6
CONTINUOUS
 62
    7
 10
4115
 20
2495
 11
3129.9989999999997
 21
2495
  0
LINE
  8
_0-d_
  6
CONTINUOUS
 62
    7
 10
4115
 20
2565
 11
3129.9989999999997
 21
2565
  0
LINE
  8
_0-d_
  6
CONTINUOUS
 62
    7
 10
4115
 20
2635
 11
3129.9989999999997
 21
2635
  0
LINE
  8
_0-d_
  6
CONTINUOUS
 62
    7
 10
4115
 20
2705
 11
3129.9989999999997
 21
2705
  0
LINE
  8
_0-d_
  6
CONTINUOUS
 62
    7
 10
4115
 20
2775
 11
3129.9989999999997
 21
2775
  0
LINE
  8
_0-d_
  6
CONTINUOUS
 62
    7
 10
4115
 20
2780
 11
3129.9989999999997
 21
2780
  0
LINE
  8
ADD_LINE
  6
DOT
 62
    9
 10
3129.9989999999997
 20
2812.5
 11
4115
 21
2812.5
  0
LINE
  8
ADD_LINE
  6
DOT
 62
    9
 10
4115
 20
2740
 11
3129.9989999999997
 21
2740
  0
LINE
  8
ADD_LINE
  6
DOT
 62
    9
 10
4115
 20
2670
 11
3129.9989999999997
 21
2670
  0
LINE
  8
ADD_LINE
  6
DOT
 62
    9
 10
4115
 20
2600
 11
3129.9989999999997
 21
2600
  0
LINE
  8
ADD_LINE
  6
DOT
 62
    9
 10
4115
 20
2530
 11
3129.9989999999997
 21
2530
  0
LINE
  8
ADD_LINE
  6
DOT
 62
    9
 10
4115
 20
2460
 11
3129.9989999999997
 21
2460
  0
LINE
  8
ADD_LINE
  6
DOT
 62
    9
 10
4115
 20
2390
 11
3129.9989999999997
 21
2390
  0
LINE
  8
ADD_LINE
  6
DOT
 62
    9
 10
4115
 20
2180
 11
3129.9989999999997
 21
2180
  0
TEXT
  8
_0-d_
 62
    7
 10
3527.4994999999998
 20
2795
 40
35
 41
0.857142857142857
 50
0
  1
仕　　　　様
  0
TEXT
  8
_0-d_
 62
    7
 10
3200.9989999999997
 20
2722.5
 40
35
 41
0.857142857142857
 50
0
  1
ト　ッ　プ
  0
TEXT
  8
_0-d_
 62
    7
 10
3216.9990000000002
 20
2652.5
 40
35
 41
0.857142857142857
 50
0
  1
側　　板
  0
TEXT
  8
_0-d_
 62
    7
 10
3454.9990000000002
 20
2652.5
 40
35
 41
0.7714285714285714
 50
0
  1
低圧メラミン化粧パーティクルボード　１２ｔ
  0
TEXT
  8
_0-d_
 62
    7
 10
3216.9990000000002
 20
2582.5
 40
35
 41
0.857142857142857
 50
0
  1
地　　板
  0
TEXT
  8
_0-d_
 62
    7
 10
3216.9990000000002
 20
2512.5
 40
35
 41
0.857142857142857
 50
0
  1
背　　板
  0
LINE
  8
ADD_LINE
  6
DOT
 62
    9
 10
3622.4994999999998
 20
2780
 11
3622.4994999999998
 21
2845
  0
TEXT
  8
_0-d_
 62
    7
 10
3264.9989999999997
 20
2442.5
 40
35
 41
0.857142857142857
 50
0
  1
扉
  0
TEXT
  8
_0-d_
 62
    7
 10
3454.9989999999988
 20
2442.5
 40
35
 41
0.7714285714285714
 50
0
  1
両面化粧パーティクルボード　１２ｔ
  0
TEXT
  8
_0-d_
 62
    7
 10
3216.9990000000002
 20
2372.5
 40
35
 41
0.857142857142857
 50
0
  1
丁　　番
  0
TEXT
  8
_0-d_
 62
    7
 10
3454.9990000000002
 20
2372.5
 40
35
 41
0.857142857142857
 50
0
  1
スライド式丁番
  0
LINE
  8
ADD_LINE
  6
DOT
 62
    9
 10
4115
 20
2320
 11
3129.9989999999997
 21
2320
  0
LINE
  8
_0-d_
  6
CONTINUOUS
 62
    3
 10
4115
 20
2145
 11
3129.9989999999997
 21
2145
  0
LINE
  8
_0-d_
  6
CONTINUOUS
 62
    7
 10
4115
 20
2285
 11
3129.9989999999997
 21
2285
  0
LINE
  8
ADD_LINE
  6
DOT
 62
    9
 10
4115
 20
2250
 11
3129.9989999999997
 21
2250
  0
LINE
  8
ADD_LINE
  6
DOT
 62
    9
 10
4115
 20
2180
 11
3129.9989999999997
 21
2180
  0
LINE
  8
_0-d_
  6
CONTINUOUS
 62
    7
 10
4115
 20
2145
 11
3129.9989999999997
 21
2145
  0
TEXT
  8
_0-d_
 62
    7
 10
3216.9990000000002
 20
2302.5
 40
35
 41
0.857142857142857
 50
0
  1
把　　手
  0
TEXT
  8
_0-d_
 62
    7
 10
3454.9989999999988
 20
2302.5
 40
35
 41
0.857142857142857
 50
0
  1
アルミ一文字把手
  0
LINE
  8
_0-d_
  6
CONTINUOUS
 62
    7
 10
4115
 20
2215
 11
3429.9989999999997
 21
2215
  0
TEXT
  8
_0-d_
 62
    7
 10
3454.9989999999988
 20
2232.5
 40
35
 41
0.7714285714285714
 50
0
  1
メタルボックス　スライドレール
  0
TEXT
  8
_0-d_
 62
    7
 10
3168.9989999999993
 20
2197.5
 40
35
 41
0.857142857142857
 50
0
  1
引　き　出　し
  0
LINE
  8
_0-d_
  6
CONTINUOUS
 62
    3
 10
4115
 20
2145
 11
4115
 21
2845
  0
LINE
  8
_0-d_
  6
CONTINUOUS
 62
    7
 10
3429.9989999999997
 20
2775
 11
3429.9989999999997
 21
2145
  0
LINE
  8
_0-d_
  6
CONTINUOUS
 62
    3
 10
3129.9989999999997
 20
2845
 11
3129.9989999999997
 21
2145
  0
TEXT
  8
_0-d_
 62
    7
 10
3454.9990000000002
 20
2722.5
 40
35
 41
0.857142857142857
 50
0
  1
ステンレスＳＵＳ４４３ＣＴ
  0
TEXT
  8
_0-d_
 62
    7
 10
3454.9989999999988
 20
2512.5
 40
35
 41
0.857142857142857
 50
0
  1
ＭＤＦ　２．５ｔ
  0
TEXT
  8
_0-d_
 62
    7
 10
3454.9989999999997
 20
2582.5
 40
35
 41
0.857142857142857
 50
0
  1
ラワン合板（素地）　片面フラッシュ
  0
LINE
  8
ADD_LINE
  6
DOT
 62
    9
 10
3454.9989999999997
 20
2775
 11
3454.9989999999997
 21
2145
  0
LINE
  8
ADD_LINE
  6
DOT
 62
    9
 10
3279.9989999999997
 20
2145
 11
3279.9989999999997
 21
2775
  0
LINE
  8
ADD_LINE
  6
DOT
 62
    9
 10
3685.2421204263209
 20
2130
 11
3700.2421204263209
 21
2130
  0
LINE
  8
ADD_LINE
  6
DOT
 62
    9
 10
3700.2421204263209
 20
2130
 11
3700.2421204263209
 21
2145
  0
LINE
  8
ADD_LINE
  6
DOT
 62
    9
 10
3700.2421204263209
 20
2145
 11
3685.2421204263209
 21
2145
  0
LINE
  8
ADD_LINE
  6
DOT
 62
    9
 10
3685.2421204263209
 20
2145
 11
3685.2421204263209
 21
2130
  0
LINE
  8
_0-d_
  6
CONTINUOUS
 62
    3
 10
4115
 20
2130
 11
4115
 21
1634.9999999999995
  0
LINE
  8
ADD_LINE
  6
DOT
 62
    9
 10
3830.24212042632
 20
2060
 11
3830.24212042632
 21
1940
  0
LINE
  8
_0-d_
  6
CONTINUOUS
 62
    7
 10
3800.2421204263214
 20
2060
 11
3800.2421204263214
 21
1940
  0
TEXT
  8
_0-d_
 62
    7
 10
3830.24212042632
 20
2012.5
 40
35
 41
0.857142857142857
 50
0
  1
ホワイト
  0
TEXT
  8
_0-d_
 62
    7
 10
3830.3411143313564
 20
1953.0893268157801
 40
35
 41
0.857142857142857
 50
0
  1
木　　目
  0
TEXT
  8
_0-d_
 62
    7
 10
3715.7122200188969
 20
2012.5
 40
35
 41
0.857142857142857
 50
0
  1
ＳＷ
  0
TEXT
  8
_0-d_
 62
    7
 10
3720.7036754285845
 20
1953.0893268157801
 40
35
 41
0.857142857142857
 50
0
  1
ＬＧ
  0
LINE
  8
ADD_LINE
  6
DOT
 62
    9
 10
3750.2421204263214
 20
2060
 11
3750.2421204263214
 21
1940
  0
LINE
  8
_0-d_
  6
CONTINUOUS
 62
    3
 10
3700.2421204263214
 20
2130
 11
3700.2421204263214
 21
1634.9999999999995
  0
LINE
  8
_0-d_
  6
CONTINUOUS
 62
    7
 10
3800.2421204263214
 20
1935
 11
3800.2421204263214
 21
1634.9999999999995
  0
LINE
  8
ADD_LINE
  6
DOT
 62
    9
 10
3830.24212042632
 20
1935
 11
3830.24212042632
 21
1634.9999999999995
  0
LINE
  8
ADD_LINE
  6
DOT
 62
    9
 10
3750.2421204263214
 20
1935
 11
3750.2421204263214
 21
1634.9999999999995
  0
TEXT
  8
_0-d_
 62
    7
 10
3715.7122200188969
 20
1887.5
 40
35
 41
0.857142857142857
 50
0
  1
ＵＷ
  0
TEXT
  8
_0-d_
 62
    7
 10
3720.7036754285845
 20
1828.0893268157801
 40
35
 41
0.857142857142857
 50
0
  1
ＷＮ
  0
TEXT
  8
_0-d_
 62
    7
 10
3720.7036754285845
 20
1768.0893268157799
 40
35
 41
0.857142857142857
 50
0
  1
ＢＳ
  0
TEXT
  8
_0-d_
 62
    7
 10
3720.7036754285845
 20
1708.0893268157797
 40
35
 41
0.857142857142857
 50
0
  1
ＰＭ
  0
TEXT
  8
_0-d_
 62
    7
 10
3720.7036754285845
 20
1648.0893268157797
 40
35
 41
0.857142857142857
 50
0
  1
ＭＤ
  0
TEXT
  8
_0-d_
 62
    7
 10
3830.3411143313564
 20
1648.0893268157797
 40
35
 41
0.857142857142857
 50
0
  1
ダークグレイン
  0
TEXT
  8
_0-d_
 62
    7
 10
3830.3411143313564
 20
1708.0893268157797
 40
35
 41
0.857142857142857
 50
0
  1
ペールグレイン
  0
TEXT
  8
_0-d_
 62
    7
 10
3830.3411143313564
 20
1768.0893268157799
 40
35
 41
0.857142857142857
 50
0
  1
ブラックストーン
  0
TEXT
  8
_0-d_
 62
    7
 10
3830.24212042632
 20
1827.4999999999997
 40
35
 41
0.857142857142857
 50
0
  1
ｳｨﾝｻﾞｰﾅｯﾄ（艶有）
  0
TEXT
  8
_0-d_
 62
    7
 10
3830.24212042632
 20
1887.5
 40
35
 41
0.857142857142857
 50
0
  1
ｳﾙﾄﾗﾎﾜｲﾄ（艶有）
  0
LINE
  8
_0-d_
  6
CONTINUOUS
 62
    3
 10
4115
 20
2130
 11
3700.2421204263214
 21
2130
  0
LINE
  8
_0-d_
  6
CONTINUOUS
 62
    3
 10
4115
 20
1634.9999999999995
 11
3700.2421204263214
 21
1634.9999999999995
  0
LINE
  8
_0-d_
  6
CONTINUOUS
 62
    7
 10
3700.2421204263214
 20
2000
 11
4115
 21
2000
  0
LINE
  8
_0-d_
  6
CONTINUOUS
 62
    7
 10
4115
 20
2000
 11
3700.2421204263214
 21
2000
  0
LINE
  8
_0-d_
  6
CONTINUOUS
 62
    3
 10
4115
 20
2000
 11
3700.2421204263214
 21
2000
  0
LINE
  8
_0-d_
  6
CONTINUOUS
 62
    3
 10
4115
 20
1940
 11
3700.2421204263214
 21
1940
  0
LINE
  8
ADD_LINE
  6
DOT
 62
    9
 10
3700.2421204263214
 20
1970
 11
4115
 21
1970
  0
LINE
  8
_0-d_
  6
CONTINUOUS
 62
    7
 10
4115
 20
1875
 11
3700.2421204263214
 21
1875
  0
LINE
  8
_0-d_
  6
CONTINUOUS
 62
    3
 10
4115
 20
1875
 11
3700.2421204263214
 21
1875
  0
LINE
  8
_0-d_
  6
CONTINUOUS
 62
    3
 10
4115
 20
1814.9999999999997
 11
3700.2421204263214
 21
1814.9999999999997
  0
LINE
  8
_0-d_
  6
CONTINUOUS
 62
    7
 10
3700.2421204263214
 20
1875
 11
4115
 21
1875
  0
LINE
  8
_0-d_
  6
CONTINUOUS
 62
    7
 10
4115
 20
1940
 11
3700.2421204263214
 21
1940
  0
LINE
  8
_0-d_
  6
CONTINUOUS
 62
    7
 10
4115
 20
1935
 11
3700.2421204263214
 21
1935
  0
LINE
  8
ADD_LINE
  6
DOT
 62
    9
 10
3700.2421204263214
 20
1905
 11
4115
 21
1905
  0
LINE
  8
ADD_LINE
  6
DOT
 62
    9
 10
3700.2421204263214
 20
1844.9999999999997
 11
4115
 21
1844.9999999999997
  0
LINE
  8
_0-d_
  6
CONTINUOUS
 62
    7
 10
4115
 20
1814.9999999999997
 11
3700.2421204263214
 21
1814.9999999999997
  0
LINE
  8
_0-d_
  6
CONTINUOUS
 62
    3
 10
4115
 20
1814.9999999999997
 11
3700.2421204263214
 21
1814.9999999999997
  0
LINE
  8
_0-d_
  6
CONTINUOUS
 62
    3
 10
4115
 20
1754.9999999999995
 11
3700.2421204263214
 21
1754.9999999999995
  0
LINE
  8
_0-d_
  6
CONTINUOUS
 62
    7
 10
3700.2421204263214
 20
1814.9999999999997
 11
4115
 21
1814.9999999999997
  0
LINE
  8
ADD_LINE
  6
DOT
 62
    9
 10
3700.2421204263214
 20
1784.9999999999995
 11
4115
 21
1784.9999999999995
  0
LINE
  8
_0-d_
  6
CONTINUOUS
 62
    7
 10
4115
 20
1754.9999999999995
 11
3700.2421204263214
 21
1754.9999999999995
  0
LINE
  8
_0-d_
  6
CONTINUOUS
 62
    3
 10
4115
 20
1754.9999999999995
 11
3700.2421204263214
 21
1754.9999999999995
  0
LINE
  8
_0-d_
  6
CONTINUOUS
 62
    3
 10
4115
 20
1694.9999999999995
 11
3700.2421204263214
 21
1694.9999999999995
  0
LINE
  8
_0-d_
  6
CONTINUOUS
 62
    7
 10
3700.2421204263214
 20
1754.9999999999995
 11
4115
 21
1754.9999999999995
  0
LINE
  8
ADD_LINE
  6
DOT
 62
    9
 10
3700.2421204263214
 20
1724.9999999999995
 11
4115
 21
1724.9999999999995
  0
LINE
  8
_0-d_
  6
CONTINUOUS
 62
    7
 10
4115
 20
1694.9999999999995
 11
3700.2421204263214
 21
1694.9999999999995
  0
LINE
  8
_0-d_
  6
CONTINUOUS
 62
    3
 10
4115
 20
1694.9999999999995
 11
3700.2421204263214
 21
1694.9999999999995
  0
LINE
  8
_0-d_
  6
CONTINUOUS
 62
    7
 10
3700.2421204263214
 20
1694.9999999999995
 11
4115
 21
1694.9999999999995
  0
LINE
  8
ADD_LINE
  6
DOT
 62
    9
 10
3700.2421204263214
 20
1664.9999999999995
 11
4115
 21
1664.9999999999995
  0
LINE
  8
ADD_LINE
  6
DOT
 62
    9
 10
3700.2421204263214
 20
2030
 11
4115
 21
2030
  0
LINE
  8
_0-d_
  6
CONTINUOUS
 62
    7
 10
4115
 20
2060
 11
3700.2421204263214
 21
2060
  0
LINE
  8
ADD_LINE
  6
DOT
 62
    9
 10
3700.2421204263214
 20
2097.5
 11
4115
 21
2097.5
  0
LINE
  8
_0-d_
  6
CONTINUOUS
 62
    7
 10
4115
 20
2065
 11
3700.2421204263214
 21
2065
  0
LINE
  8
ADD_LINE
  6
DOT
 62
    9
 10
3907.6210602131604
 20
2130
 11
3907.6210602131604
 21
2065
  0
TEXT
  8
_0-d_
 62
    7
 10
3860.6210602131609
 20
2080
 40
35
 41
0.857142857142857
 50
0
  1
扉　色
  0
LINE
  8
_0-3_
  6
DASHED1
 62
    2
 10
962.00000000000045
 20
1379.9999999999997
 11
962.00000000000045
 21
580
  0
LINE
  8
_0-3_
  6
CONTINUOUS
 62
    5
 10
950
 20
1352.0000000000002
 11
950
 21
580
  0
LINE
  8
_0-3_
  6
DASHED1
 62
    2
 10
1238
 20
1379.9999999999997
 11
1238
 21
580
  0
LINE
  8
_0-3_
  6
CONTINUOUS
 62
    5
 10
1250
 20
1352.0000000000002
 11
1250
 21
580
  0
LINE
  8
_0-3_
  6
DASHED1
 62
    2
 10
1238
 20
1372.5
 11
962.00000000000045
 21
1372.5
  0
LINE
  8
_0-3_
  6
DASHED1
 62
    9
 10
1238
 20
686.99999999999988
 11
962.00000000000045
 21
686.99999999999988
  0
LINE
  8
_0-3_
  6
DASHED1
 62
    2
 10
1238
 20
955.50000000000011
 11
962.00000000000045
 21
955.50000000000011
  0
LINE
  8
_0-3_
  6
DASHED1
 62
    2
 10
1238
 20
1013.5
 11
962.00000000000045
 21
1013.5
  0
LINE
  8
_0-3_
  6
DASHED1
 62
    2
 10
1238
 20
1128.5000000000002
 11
962.00000000000045
 21
1128.5000000000002
  0
LINE
  8
_0-3_
  6
DASHED1
 62
    2
 10
1238
 20
1186.5
 11
962.00000000000045
 21
1186.5
  0
LINE
  8
_0-3_
  6
DASHED1
 62
    2
 10
1238
 20
1314.5000000000004
 11
962.00000000000045
 21
1314.5000000000004
  0
LINE
  8
_0-3_
  6
CONTINUOUS
 62
    4
 10
1250
 20
669.99999999999988
 11
950
 21
669.99999999999988
  0
LINE
  8
_0-3_
  6
CONTINUOUS
 62
    5
 10
1250
 20
580
 11
950
 21
580
  0
TEXT
  8
_f-8_
 62
    7
 10
1560.2161986690473
 20
136.02970297029685
 40
45
 41
0.6666666666666666
 50
0
  1
ＫＴＤ５－８０－３０ＴＤ
  0
POINT
  8
_0-9_
 62
    3
 10
954
 20
417.91153053655847
  0
POINT
  8
_0-9_
 62
    3
 10
1246
 20
417.91153053655847
  0
LINE
  8
_0-9_
  6
CONTINUOUS
 62
    4
 10
954
 20
417.91153053655847
 11
1246
 21
417.91153053655847
  0
TEXT
  8
_0-9_
 62
    7
 10
1066.9
 20
422.91153053655847
 40
35
 41
0.6285714285714286
 50
0
  1
２９４
  0
ENDSEC
  0
EOF
