  0
SECTION
  2
HEADER
  9
$ACADVER
  1
AC1009
  9
$INSBASE
 10
0
 20
0
 30
0
  9
$EXTMIN
 10
0
 20
0
  9
$EXTMAX
 10
420
 20
297
  9
$LIMMIN
 10
0
 20
0
  9
$LIMMAX
 10
420
 20
297
  9
$LTSCALE
 40
1
  0
ENDSEC
  0
SECTION
  2
TABLES
  0
TABLE
  2
LTYPE
 70
     9
  0
LTYPE
  2
CONTINUOUS
 70
    64
  3
実線
 72
    65
 73
     0
 40
0.0
  0
LTYPE
  2
DASHED1
 70
    64
  3
--  --  --  --  --  --  --  --  
 72
    65
 73
     2
 40
2.5
 49
1.25
 49
-1.25
  0
LTYPE
  2
DASHED2
 70
    64
  3
----    ----    ----    ----    
 72
    65
 73
     2
 40
5.0
 49
2.5
 49
-2.5
  0
LTYPE
  2
DASHED3
 70
    64
  3
------  ------  ------  ------  
 72
    65
 73
     2
 40
5.0
 49
3.75
 49
-1.25
  0
LTYPE
  2
CENTER1
 70
    64
  3
----- - ----- - ----- - ----- - 
 72
    65
 73
     4
 40
10.0
 49
6.25
 49
-1.25
 49
1.25
 49
-1.25
  0
LTYPE
  2
CENTER2
 70
    64
  3
----------  --  ----------  --  
 72
    65
 73
     4
 40
20.0
 49
12.5
 49
-2.5
 49
2.5
 49
-2.5
  0
LTYPE
  2
PHANTOM1
 70
    64
  3
--- - - --- - - --- - - --- - - 
 72
    65
 73
     6
 40
10.0
 49
3.25
 49
-1.25
 49
1.25
 49
-1.25
 49
1.25
 49
-1.25
  0
LTYPE
  2
PHANTOM2
 70
    64
  3
--------  -  -  --------  -  -  
 72
    65
 73
     6
 40
20.0
 49
10.0
 49
-2.5
 49
1.25
 49
-2.5
 49
1.25
 49
-2.5
  0
LTYPE
  2
DOT
 70
    64
  3
-   -   -   -   -   -   -   -   
 72
    65
 73
     2
 40
2.5
 49
0.625
 49
-1.875
  0
LTYPE
  2
DUMMY
 70
    64
  3
ダミー
 72
    65
 73
     0
 40
0.0
  0
LTYPE
  2
RAND1
 70
    64
  3
ランダム線1
 72
    65
 73
     4
 40
10.0
 49
1.0
 49
-2.0
 49
3.0
 49
-4.0
  0
LTYPE
  2
RAND2
 70
    64
  3
ランダム線2
 72
    65
 73
     4
 40
14.0
 49
2.0
 49
-3.0
 49
4.0
 49
-5.0
  0
LTYPE
  2
RAND3
 70
    64
  3
ランダム線3
 72
    65
 73
     4
 40
18.0
 49
3.0
 49
-4.0
 49
5.0
 49
-6.0
  0
LTYPE
  2
RAND4
 70
    64
  3
ランダム線4
 72
    65
 73
     4
 40
22.0
 49
4.0
 49
-5.0
 49
6.0
 49
-7.0
  0
LTYPE
  2
RAND5
 70
    64
  3
ランダム線5
 72
    65
 73
     4
 40
26.0
 49
5.0
 49
-6.0
 49
7.0
 49
-8.0
  0
LTYPE
  2
LONG1
 70
    64
  3
----------  --  ----------  --  
 72
    65
 73
     4
 40
40.0
 49
32.5
 49
-2.5
 49
2.5
 49
-2.5
  0
LTYPE
  2
LONG2
 70
    64
  3
--------  -  -  --------  -  -  
 72
    65
 73
     6
 40
40.0
 49
30.0
 49
-2.5
 49
1.25
 49
-2.5
 49
1.25
 49
-2.5
  0
LTYPE
  2
LONG3
 70
    64
  3
+++++++++++++++..+++++++++++++++
 72
    65
 73
     2
 40
40.0
 49
37.5
 49
-2.5
  0
LTYPE
  2
LONG4
 70
    64
  3
+++++++++++++++..+++++++++++++++
 72
    65
 73
     2
 40
80.0
 49
75.0
 49
-5.0
  0
LTYPE
  2
LONG5
 70
    64
  3
----------  --  ----------  --  
 72
    65
 73
     4
 40
60.0
 49
37.5
 49
-7.5
 49
7.5
 49
-7.5
  0
LTYPE
  2
dashed
 70
   64
  3
-------   -------------   ------
 72
   65
 73
    2
 40
7.5
 49
6
 49
-1.5
  0
LTYPE
  2
dashed_spaced
 70
   64
  3
----        --------        ----
 72
   65
 73
    2
 40
12
 49
6
 49
-6
  0
LTYPE
  2
long_dashed_dotted
 70
   64
  3
------------- --- --------------
 72
   65
 73
    4
 40
15.25
 49
12
 49
-1.5
 49
0.25
 49
-1.5
  0
LTYPE
  2
long_dashed_double-dotted
 70
   64
  3
----------- --- --- ------------
 72
   65
 73
    6
 40
17
 49
12
 49
-1.5
 49
0.25
 49
-1.5
 49
0.25
 49
-1.5
  0
LTYPE
  2
long_dashed_triplicate-dotted
 70
   64
  3
--------- --- --- --- ----------
 72
   65
 73
    8
 40
18.75
 49
12
 49
-1.5
 49
0.25
 49
-1.5
 49
0.25
 49
-1.5
 49
0.25
 49
-1.5
  0
LTYPE
  2
dotted
 70
   64
  3
   -       -       -       -    
 72
   65
 73
    2
 40
1.75
 49
0.25
 49
-1.5
  0
LTYPE
  2
chain
 70
   64
  3
-------------- -- --------------
 72
   65
 73
    4
 40
18.5
 49
12
 49
-1.5
 49
3.5
 49
-1.5
  0
LTYPE
  2
chain_double_dash
 70
   64
  3
------------ -- -- -------------
 72
   65
 73
    6
 40
23.5
 49
12
 49
-1.5
 49
3.5
 49
-1.5
 49
3.5
 49
-1.5
  0
LTYPE
  2
dashed_dotted
 70
   64
  3
-----------     -     ----------
 72
   65
 73
    4
 40
9.25
 49
6
 49
-1.5
 49
0.25
 49
-1.5
  0
LTYPE
  2
double-dashed_dotted
 70
   64
  3
------   -----------   -   -----
 72
   65
 73
    6
 40
16.75
 49
6
 49
-1.5
 49
6
 49
-1.5
 49
0.25
 49
-1.5
  0
LTYPE
  2
dashed_double-dotted
 70
   64
  3
---------    -    -    ---------
 72
   65
 73
    6
 40
11
 49
6
 49
-1.5
 49
0.25
 49
-1.5
 49
0.25
 49
-1.5
  0
LTYPE
  2
double-dashed_double-dotted
 70
   64
  3
-----   ---------   -   -   ----
 72
   65
 73
    8
 40
18.5
 49
6
 49
-1.5
 49
6
 49
-1.5
 49
0.25
 49
-1.5
 49
0.25
 49
-1.5
  0
LTYPE
  2
dashed_triplicate-dotted
 70
   64
  3
-------    -    -    -    ------
 72
   65
 73
    8
 40
12.75
 49
6
 49
-1.5
 49
0.25
 49
-1.5
 49
0.25
 49
-1.5
 49
0.25
 49
-1.5
  0
LTYPE
  2
double-dashed_triplicate-dotted
 70
   64
  3
-----  ---------  -  -  -  -----
 72
   65
 73
   10
 40
20.25
 49
6
 49
-1.5
 49
6
 49
-1.5
 49
0.25
 49
-1.5
 49
0.25
 49
-1.5
 49
0.25
 49
-1.5
  0
LTYPE
  2
undefined
 70
   64
  3
--------------------------------
 72
   65
 73
    0
 40
0
  0
LTYPE
  2
DASHED
 70
   64
  3
------     -----------     -----
 72
   65
 73
    2
 40
0.75
 49
0.5
 49
-0.25
  0
LTYPE
  2
HIDDEN
 70
   64
  3
------     -----------     -----
 72
   65
 73
    2
 40
0.375
 49
0.25
 49
-0.125
  0
LTYPE
  2
CENTER
 70
   64
  3
----------    ----    ----------
 72
   65
 73
    4
 40
2
 49
1.25
 49
-0.25
 49
0.25
 49
-0.25
  0
LTYPE
  2
_
 70
   64
  3
                                
 72
   65
 73
    0
 40
0
  0
LTYPE
  2
__21
 70
   64
  3
                                
 72
   65
 73
    0
 40
0
  0
LTYPE
  2
__22
 70
   64
  3
                                
 72
   65
 73
    0
 40
0
  0
LTYPE
  2
__23
 70
   64
  3
                                
 72
   65
 73
    0
 40
0
  0
LTYPE
  2
__24
 70
   64
  3
                                
 72
   65
 73
    0
 40
0
  0
LTYPE
  2
__25
 70
   64
  3
                                
 72
   65
 73
    0
 40
0
  0
LTYPE
  2
__26
 70
   64
  3
                                
 72
   65
 73
    0
 40
0
  0
LTYPE
  2
__27
 70
   64
  3
                                
 72
   65
 73
    0
 40
0
  0
LTYPE
  2
__28
 70
   64
  3
                                
 72
   65
 73
    0
 40
0
  0
LTYPE
  2
__29
 70
   64
  3
                                
 72
   65
 73
    0
 40
0
  0
LTYPE
  2
__30
 70
   64
  3
                                
 72
   65
 73
    0
 40
0
  0
LTYPE
  2
__31
 70
   64
  3
                                
 72
   65
 73
    0
 40
0
  0
LTYPE
  2
__32
 70
   64
  3
                                
 72
   65
 73
    0
 40
0
  0
ENDTAB
  0
TABLE
  2
STYLE
  5
3
100
AcDbSymbolTable
 70
     1
  0
STYLE
  5
10
100
AcDbSymbolTableRecord
100
AcDbTextStyleTableRecord
  2
STANDARD
 70
     0
 40
0.0
 41
1.0
 50
0.0
 71
     0
 42
0.2
  3
txt
  4
bigfont.shx
  0
STYLE
  5
26
100
AcDbSymbolTableRecord
100
AcDbTextStyleTableRecord
  2
TATEGAKI
 70
    68
 40
0.0
 41
1.0
 50
0.0
 71
     0
 42
1.0
  3
txt
  4
bigfont.shx
  0
ENDTAB
  0
TABLE
  2
LAYER
 70
    4
  0
LAYER
  2
_0-0_0
 70
   64
 62
    7
  6
CONTINUOUS
  0
LAYER
  2
_0-1_H0
 70
   64
 62
    7
  6
CONTINUOUS
  0
LAYER
  2
_0-3_A0
 70
   64
 62
    7
  6
CONTINUOUS
  0
LAYER
  2
ADD_LINE
 70
   64
 62
    7
  6
CONTINUOUS
  0
ENDTAB
  0
ENDSEC
  0
SECTION
  2
BLOCKS
  0
BLOCK
  2
-000-_OPEN
 70
   64
 10
0
 20
0
 30
0
  0
LINE
  8
_0-0_0
  6
CONTINUOUS
 62
    7
 10
-1
 20
0.166667
 11
0
 21
0
  0
LINE
  8
_0-0_0
  6
CONTINUOUS
 62
    7
 10
0
 20
0
 11
-1
 21
-0.166667
  0
LINE
  8
_0-0_0
  6
CONTINUOUS
 62
    7
 10
0
 20
0
 11
-1
 21
0
  0
ENDBLK
  0
BLOCK
  2
-002-_U81
 70
   64
 10
0
 20
0
 30
0
  0
TEXT
  8
_0-3_A0
 62
    7
 10
145.6166429441682
 20
255.93522580505009
 40
4
 41
1
 50
0
  1
190
  0
ENDBLK
  0
BLOCK
  2
-003-_D14
 70
   64
 10
0
 20
0
 30
0
  0
LINE
  8
_0-3_A0
  6
CONTINUOUS
 62
    7
 10
102.4499762775016
 20
233.0167849304704
 11
102.4499762775016
 21
256.43522580505009
  0
LINE
  8
_0-3_A0
  6
CONTINUOUS
 62
    7
 10
105.4499762775016
 20
255.43522580505009
 11
194.4499762775016
 21
255.43522580505009
  0
INSERT
  2
-000-_OPEN
  8
_0-3_A0
 10
102.4499762775016
 20
255.43522580505009
 41
3
 42
3
 50
180
  0
INSERT
  2
-000-_OPEN
  8
_0-3_A0
 10
197.4499762775016
 20
255.43522580505009
 41
3
 42
3
 50
0
  0
LINE
  8
_0-3_A0
  6
CONTINUOUS
 62
    7
 10
197.4499762775016
 20
233.01678493060708
 11
197.4499762775016
 21
256.43522580505009
  0
INSERT
  2
-002-_U81
  8
_0-0_0
 10
0
 20
0
 41
1
 42
1
 50
0
  0
ENDBLK
  0
BLOCK
  2
-004-_U82
 70
   64
 10
0
 20
0
 30
0
  0
TEXT
  8
_0-3_A0
 62
    7
 10
144.9499762774846
 20
263.10677942784639
 40
4
 41
1
 50
0
  1
205
  0
ENDBLK
  0
BLOCK
  2
-005-_D15
 70
   64
 10
0
 20
0
 30
0
  0
LINE
  8
_0-3_A0
  6
CONTINUOUS
 62
    7
 10
98.699976277484566
 20
244.86469963087199
 11
98.699976277484566
 21
263.60677942784639
  0
LINE
  8
_0-3_A0
  6
CONTINUOUS
 62
    7
 10
101.69997627748459
 20
262.60677942784639
 11
198.1999762774846
 21
262.60677942784639
  0
INSERT
  2
-000-_OPEN
  8
_0-3_A0
 10
98.699976277484566
 20
262.60677942784639
 41
3
 42
3
 50
180
  0
INSERT
  2
-000-_OPEN
  8
_0-3_A0
 10
201.1999762774846
 20
262.60677942784639
 41
3
 42
3
 50
0
  0
LINE
  8
_0-3_A0
  6
CONTINUOUS
 62
    7
 10
201.1999762774846
 20
244.8646996310195
 11
201.1999762774846
 21
263.60677942784639
  0
INSERT
  2
-004-_U82
  8
_0-0_0
 10
0
 20
0
 41
1
 42
1
 50
0
  0
ENDBLK
  0
BLOCK
  2
-006-_U83
 70
   64
 10
0
 20
0
 30
0
  0
TEXT
  8
_0-3_A0
 62
    7
 10
207.54298161706648
 20
197.89803295216819
 40
4
 41
1
 50
90
  1
110
  0
ENDBLK
  0
BLOCK
  2
-007-_D16
 70
   64
 10
0
 20
0
 30
0
  0
LINE
  8
_0-3_A0
  6
CONTINUOUS
 62
    7
 10
203.0442396687479
 20
174.06469961883479
 11
209.04298161706648
 21
174.06469961883479
  0
LINE
  8
_0-3_A0
  6
CONTINUOUS
 62
    7
 10
208.04298161706648
 20
177.06469961883479
 11
208.04298161706648
 21
226.06469961883499
  0
INSERT
  2
-000-_OPEN
  8
_0-3_A0
 10
208.04298161706648
 20
174.06469961883479
 41
3
 42
3
 50
270
  0
INSERT
  2
-000-_OPEN
  8
_0-3_A0
 10
208.04298161706648
 20
229.06469961883499
 41
3
 42
3
 50
90
  0
LINE
  8
_0-3_A0
  6
CONTINUOUS
 62
    7
 10
203.2230341411475
 20
229.06469961883499
 11
209.04298161706648
 21
229.06469961883499
  0
INSERT
  2
-006-_U83
  8
_0-0_0
 10
0
 20
0
 41
1
 42
1
 50
0
  0
ENDBLK
  0
BLOCK
  2
-008-_U84
 70
   64
 10
0
 20
0
 30
0
  0
TEXT
  8
_0-3_A0
 62
    7
 10
215.07575983546558
 20
171.48136628555988
 40
4
 41
1
 50
90
  1
103
  0
ENDBLK
  0
BLOCK
  2
-009-_D17
 70
   64
 10
0
 20
0
 30
0
  0
LINE
  8
_0-3_A0
  6
CONTINUOUS
 62
    7
 10
215.57575983546558
 20
153.06469961893569
 11
215.57575983546558
 21
198.5646996188509
  0
INSERT
  2
-000-_OPEN
  8
_0-3_A0
 10
215.57575983546558
 20
150.06469961893569
 41
3
 42
3
 50
270
  0
INSERT
  2
-000-_OPEN
  8
_0-3_A0
 10
215.57575983546558
 20
201.5646996188509
 41
3
 42
3
 50
90
  0
LINE
  8
_0-3_A0
  6
CONTINUOUS
 62
    7
 10
214.2595051606039
 20
201.5646996188509
 11
216.57575983546558
 21
201.5646996188509
  0
INSERT
  2
-008-_U84
  8
_0-0_0
 10
0
 20
0
 41
1
 42
1
 50
0
  0
ENDBLK
  0
BLOCK
  2
-010-_U85
 70
   64
 10
0
 20
0
 30
0
  0
TEXT
  8
_0-3_A0
 62
    7
 10
223.43599583621949
 20
195.14803295234679
 40
4
 41
1
 50
90
  1
199
  0
ENDBLK
  0
BLOCK
  2
-011-_D18
 70
   64
 10
0
 20
0
 30
0
  0
LINE
  8
_0-3_A0
  6
CONTINUOUS
 62
    7
 10
193.84997628954189
 20
150.06469961893569
 11
224.93599583621949
 21
150.06469961893569
  0
LINE
  8
_0-3_A0
  6
CONTINUOUS
 62
    7
 10
223.93599583621949
 20
153.06469961893569
 11
223.93599583621949
 21
246.56469961909141
  0
INSERT
  2
-000-_OPEN
  8
_0-3_A0
 10
223.93599583621949
 20
150.06469961893569
 41
3
 42
3
 50
270
  0
INSERT
  2
-000-_OPEN
  8
_0-3_A0
 10
223.93599583621949
 20
249.56469961909141
 41
3
 42
3
 50
90
  0
LINE
  8
_0-3_A0
  6
CONTINUOUS
 62
    7
 10
196.49997628939829
 20
249.56469961909141
 11
224.93599583621949
 21
249.56469961909141
  0
INSERT
  2
-010-_U85
  8
_0-0_0
 10
0
 20
0
 41
1
 42
1
 50
0
  0
ENDBLK
  0
BLOCK
  2
-013-_U87
 70
   64
 10
0
 20
0
 30
0
  0
TEXT
  8
_0-3_A0
 62
    7
 10
284.53602397586297
 20
139.31231434090719
 40
4
 41
1
 50
0
  1
170
  0
ENDBLK
  0
BLOCK
  2
-014-_D20
 70
   64
 10
0
 20
0
 30
0
  0
LINE
  8
_0-3_A0
  6
CONTINUOUS
 62
    7
 10
246.3693573092672
 20
145.9339403794863
 11
246.3693573092672
 21
137.81231434090719
  0
LINE
  8
_0-3_A0
  6
CONTINUOUS
 62
    7
 10
249.3693573092672
 20
138.81231434090719
 11
328.36935730912551
 21
138.81231434090719
  0
INSERT
  2
-000-_OPEN
  8
_0-3_A0
 10
246.3693573092672
 20
138.81231434090719
 41
3
 42
3
 50
180
  0
INSERT
  2
-000-_OPEN
  8
_0-3_A0
 10
331.36935730912551
 20
138.81231434090719
 41
3
 42
3
 50
0
  0
LINE
  8
_0-3_A0
  6
CONTINUOUS
 62
    7
 10
331.36935730912551
 20
145.83502671012078
 11
331.36935730912551
 21
137.81231434090719
  0
INSERT
  2
-013-_U87
  8
_0-0_0
 10
0
 20
0
 41
1
 42
1
 50
0
  0
ENDBLK
  0
BLOCK
  2
-015-_U88
 70
   64
 10
0
 20
0
 30
0
  0
TEXT
  8
_0-3_A0
 62
    7
 10
255.70661710850259
 20
187.52685784621951
 40
4
 41
1
 50
0
  1
（67.6）
  0
ENDBLK
  0
BLOCK
  2
-016-_D21
 70
   64
 10
0
 20
0
 30
0
  0
LINE
  8
_0-3_A0
  6
CONTINUOUS
 62
    7
 10
258.06935730914949
 20
187.02685784621951
 11
285.86935730914257
 21
187.02685784621951
  0
INSERT
  2
-000-_OPEN
  8
_0-3_A0
 10
255.06935730914949
 20
187.02685784621951
 41
3
 42
3
 50
180
  0
INSERT
  2
-000-_OPEN
  8
_0-3_A0
 10
288.86935730914257
 20
187.02685784621951
 41
3
 42
3
 50
0
  0
LINE
  8
_0-3_A0
  6
CONTINUOUS
 62
    7
 10
288.86935730914257
 20
164.17350558445059
 11
288.86935730914257
 21
188.0268578462194
  0
INSERT
  2
-015-_U88
  8
_0-0_0
 10
0
 20
0
 41
1
 42
1
 50
0
  0
ENDBLK
  0
BLOCK
  2
-017-_U89
 70
   64
 10
0
 20
0
 30
0
  0
TEXT
  8
_0-3_A0
 62
    7
 10
229.76782211716428
 20
63.240765448223932
 40
4
 41
1
 50
90
  1
170
  0
ENDBLK
  0
BLOCK
  2
-018-_D22
 70
   64
 10
0
 20
0
 30
0
  0
LINE
  8
_0-3_A0
  6
CONTINUOUS
 62
    7
 10
196.49997628959511
 20
110.07409878155729
 11
231.26782211716428
 21
110.07409878155729
  0
LINE
  8
_0-3_A0
  6
CONTINUOUS
 62
    7
 10
230.26782211716428
 20
107.07409878155729
 11
230.26782211716428
 21
28.074098781557271
  0
INSERT
  2
-000-_OPEN
  8
_0-3_A0
 10
230.26782211716428
 20
110.07409878155729
 41
3
 42
3
 50
90
  0
INSERT
  2
-000-_OPEN
  8
_0-3_A0
 10
230.26782211716428
 20
25.074098781557271
 41
3
 42
3
 50
270
  0
LINE
  8
_0-3_A0
  6
CONTINUOUS
 62
    7
 10
196.49997628961449
 20
25.07409878155726
 11
231.26782211716428
 21
25.074098781557271
  0
INSERT
  2
-017-_U89
  8
_0-0_0
 10
0
 20
0
 41
1
 42
1
 50
0
  0
ENDBLK
  0
BLOCK
  2
-019-_U90
 70
   64
 10
0
 20
0
 30
0
  0
TEXT
  8
_0-3_A0
 62
    7
 10
209.51009480134538
 20
65.296384071917159
 40
4
 41
1
 50
90
  1
110
  0
ENDBLK
  0
BLOCK
  2
-020-_D23
 70
   64
 10
0
 20
0
 30
0
  0
LINE
  8
_0-3_A0
  6
CONTINUOUS
 62
    7
 10
204.19379216633089
 20
40.074098781568409
 11
211.01009480134538
 21
40.074098781568409
  0
LINE
  8
_0-3_A0
  6
CONTINUOUS
 62
    7
 10
210.01009480134538
 20
43.074098781568402
 11
210.01009480134538
 21
92.074098781568224
  0
INSERT
  2
-000-_OPEN
  8
_0-3_A0
 10
210.01009480134538
 20
40.074098781568409
 41
3
 42
3
 50
270
  0
INSERT
  2
-000-_OPEN
  8
_0-3_A0
 10
210.01009480134538
 20
95.074098781568238
 41
3
 42
3
 50
90
  0
LINE
  8
_0-3_A0
  6
CONTINUOUS
 62
    7
 10
204.1049080016925
 20
95.074098781568238
 11
211.01009480134538
 21
95.074098781568238
  0
INSERT
  2
-019-_U90
  8
_0-0_0
 10
0
 20
0
 41
1
 42
1
 50
0
  0
ENDBLK
  0
BLOCK
  2
-021-_U91
 70
   64
 10
0
 20
0
 30
0
  0
TEXT
  8
_0-3_A0
 62
    7
 10
145.61664294434311
 20
125.19253704814569
 40
4
 41
1
 50
0
  1
190
  0
ENDBLK
  0
BLOCK
  2
-022-_D24
 70
   64
 10
0
 20
0
 30
0
  0
LINE
  8
_0-3_A0
  6
CONTINUOUS
 62
    7
 10
102.44997627767648
 20
100.4003347573297
 11
102.44997627767648
 21
125.69253704814569
  0
LINE
  8
_0-3_A0
  6
CONTINUOUS
 62
    7
 10
105.44997627767648
 20
124.69253704814569
 11
194.44997627767639
 21
124.69253704814569
  0
INSERT
  2
-000-_OPEN
  8
_0-3_A0
 10
102.44997627767648
 20
124.69253704814569
 41
3
 42
3
 50
180
  0
INSERT
  2
-000-_OPEN
  8
_0-3_A0
 10
197.44997627767639
 20
124.69253704814569
 41
3
 42
3
 50
0
  0
LINE
  8
_0-3_A0
  6
CONTINUOUS
 62
    7
 10
197.44997627767639
 20
100.4003347573513
 11
197.44997627767639
 21
125.69253704814569
  0
INSERT
  2
-021-_U91
  8
_0-0_0
 10
0
 20
0
 41
1
 42
1
 50
0
  0
ENDBLK
  0
BLOCK
  2
-023-_U92
 70
   64
 10
0
 20
0
 30
0
  0
TEXT
  8
_0-3_A0
 62
    7
 10
144.94997627767529
 20
131.91173461928389
 40
4
 41
1
 50
0
  1
205
  0
ENDBLK
  0
BLOCK
  2
-024-_D25
 70
   64
 10
0
 20
0
 30
0
  0
LINE
  8
_0-3_A0
  6
CONTINUOUS
 62
    7
 10
98.699976277675304
 20
105.37409879346209
 11
98.699976277675304
 21
132.41173461928389
  0
LINE
  8
_0-3_A0
  6
CONTINUOUS
 62
    7
 10
101.6999762776753
 20
131.41173461928389
 11
198.19997627767529
 21
131.41173461928389
  0
INSERT
  2
-000-_OPEN
  8
_0-3_A0
 10
98.699976277675304
 20
131.41173461928389
 41
3
 42
3
 50
180
  0
INSERT
  2
-000-_OPEN
  8
_0-3_A0
 10
201.19997627767529
 20
131.41173461928389
 41
3
 42
3
 50
0
  0
LINE
  8
_0-3_A0
  6
CONTINUOUS
 62
    7
 10
201.19997627767529
 20
105.3740987934854
 11
201.19997627767529
 21
132.41173461928389
  0
INSERT
  2
-023-_U92
  8
_0-0_0
 10
0
 20
0
 41
1
 42
1
 50
0
  0
ENDBLK
  0
BLOCK
  2
-025-_U93
 70
   64
 10
0
 20
0
 30
0
  0
TEXT
  8
_0-3_A0
 62
    7
 10
216.09438344778621
 20
45.490765448224159
 40
4
 41
1
 50
90
  1
75
  0
ENDBLK
  0
BLOCK
  2
-026-_D26
 70
   64
 10
0
 20
0
 30
0
  0
LINE
  8
_0-3_A0
  6
CONTINUOUS
 62
    7
 10
194.4289084778349
 20
30.074098781546208
 11
217.59438344778621
 21
30.074098781546208
  0
LINE
  8
_0-3_A0
  6
CONTINUOUS
 62
    7
 10
216.59438344778621
 20
33.074098781546211
 11
216.59438344778621
 21
64.574098781568778
  0
INSERT
  2
-000-_OPEN
  8
_0-3_A0
 10
216.59438344778621
 20
30.074098781546208
 41
3
 42
3
 50
270
  0
INSERT
  2
-000-_OPEN
  8
_0-3_A0
 10
216.59438344778621
 20
67.574098781568764
 41
3
 42
3
 50
90
  0
INSERT
  2
-025-_U93
  8
_0-0_0
 10
0
 20
0
 41
1
 42
1
 50
0
  0
ENDBLK
  0
BLOCK
  2
-027-_U94
 70
   64
 10
0
 20
0
 30
0
  0
TEXT
  8
_0-3_A0
 62
    7
 10
145.61664294427069
 20
118.74398264862189
 40
4
 41
1
 50
0
  1
150
  0
ENDBLK
  0
BLOCK
  2
-028-_D27
 70
   64
 10
0
 20
0
 30
0
  0
LINE
  8
_0-3_A0
  6
CONTINUOUS
 62
    7
 10
187.8499762776766
 20
99.774098793465725
 11
187.8499762776766
 21
119.24398264862189
  0
LINE
  8
_0-3_A0
  6
CONTINUOUS
 62
    7
 10
184.8499762776766
 20
118.24398264862189
 11
115.04997627753158
 21
118.24398264862189
  0
INSERT
  2
-000-_OPEN
  8
_0-3_A0
 10
187.8499762776766
 20
118.24398264862189
 41
3
 42
3
 50
0
  0
INSERT
  2
-000-_OPEN
  8
_0-3_A0
 10
112.04997627753158
 20
118.24398264862189
 41
3
 42
3
 50
180
  0
LINE
  8
_0-3_A0
  6
CONTINUOUS
 62
    7
 10
112.04997627753158
 20
99.774098793378982
 11
112.04997627753158
 21
119.24398264862189
  0
INSERT
  2
-027-_U94
  8
_0-0_0
 10
0
 20
0
 41
1
 42
1
 50
0
  0
ENDBLK
  0
BLOCK
  2
-029-_U95
 70
   64
 10
0
 20
0
 30
0
  0
TEXT
  8
_0-3_A0
 62
    7
 10
216.09438344778621
 20
78.847227862151726
 40
4
 41
1
 50
90
  1
65
  0
ENDBLK
  0
BLOCK
  2
-030-_D28
 70
   64
 10
0
 20
0
 30
0
  0
LINE
  8
_0-3_A0
  6
CONTINUOUS
 62
    7
 10
187.1499762895973
 20
100.47409878154458
 11
217.59438344778621
 21
100.47409878154458
  0
LINE
  8
_0-3_A0
  6
CONTINUOUS
 62
    7
 10
216.59438344778621
 20
97.474098781544554
 11
216.59438344778621
 21
70.574098781568778
  0
INSERT
  2
-000-_OPEN
  8
_0-3_A0
 10
216.59438344778621
 20
100.47409878154458
 41
3
 42
3
 50
90
  0
INSERT
  2
-000-_OPEN
  8
_0-3_A0
 10
216.59438344778621
 20
67.574098781568764
 41
3
 42
3
 50
270
  0
INSERT
  2
-029-_U95
  8
_0-0_0
 10
0
 20
0
 41
1
 42
1
 50
0
  0
ENDBLK
  0
BLOCK
  2
-031-_X29
 70
   64
 10
0
 20
0
 30
0
  0
LINE
  8
_0-3_A0
  6
CONTINUOUS
 62
    7
 10
147.44997627761878
 20
146.56469961886949
 11
149.94997627762271
 21
149.0646996188735
  0
LINE
  8
_0-3_A0
  6
CONTINUOUS
 62
    7
 10
144.62154915286939
 20
146.5646996188658
 11
147.12154915287229
 21
149.0646996188689
  0
LINE
  8
_0-3_A0
  6
CONTINUOUS
 62
    7
 10
141.793122028119
 20
146.56469961886151
 11
144.29312202812261
 21
149.06469961886489
  0
LINE
  8
_0-3_A0
  6
CONTINUOUS
 62
    7
 10
138.9646949033696
 20
146.5646996188577
 11
141.46469490337321
 21
149.06469961886111
  0
LINE
  8
_0-3_A0
  6
CONTINUOUS
 62
    7
 10
136.13626777861981
 20
146.56469961885369
 11
138.63626777862299
 21
149.0646996188569
  0
LINE
  8
_0-3_A0
  6
CONTINUOUS
 62
    7
 10
133.3078406538697
 20
146.56469961884948
 11
135.80784065387331
 21
149.06469961885289
  0
LINE
  8
_0-3_A0
  6
CONTINUOUS
 62
    7
 10
130.47941352911999
 20
146.5646996188455
 11
132.9794135291232
 21
149.0646996188484
  0
LINE
  8
_0-3_A0
  6
CONTINUOUS
 62
    7
 10
127.65098640437058
 20
146.56469961884178
 11
130.15098640437349
 21
149.06469961884479
  0
LINE
  8
_0-3_A0
  6
CONTINUOUS
 62
    7
 10
124.8225592796204
 20
146.5646996188372
 11
127.322559279624
 21
149.06469961884099
  0
LINE
  8
_0-3_A0
  6
CONTINUOUS
 62
    7
 10
121.99413215487068
 20
146.5646996188336
 11
124.49413215487389
 21
149.06469961883641
  0
LINE
  8
_0-3_A0
  6
CONTINUOUS
 62
    7
 10
119.1657050301206
 20
146.56469961882899
 11
121.6657050301242
 21
149.0646996188324
  0
LINE
  8
_0-3_A0
  6
CONTINUOUS
 62
    7
 10
116.33727790537089
 20
146.56469961882498
 11
118.83727790537399
 21
149.0646996188282
  0
LINE
  8
_0-3_A0
  6
CONTINUOUS
 62
    7
 10
113.5088507806214
 20
146.5646996188212
 11
116.0088507806243
 21
149.0646996188243
  0
LINE
  8
_0-3_A0
  6
CONTINUOUS
 62
    7
 10
110.68042365587129
 20
146.564699618817
 11
113.1804236558749
 21
149.06469961882049
  0
LINE
  8
_0-3_A0
  6
CONTINUOUS
 62
    7
 10
107.85199653112158
 20
146.5646996188131
 11
110.35199653112458
 21
149.06469961881609
  0
LINE
  8
_0-3_A0
  6
CONTINUOUS
 62
    7
 10
105.02356940637149
 20
146.5646996188085
 11
107.5235694063751
 21
149.06469961881231
  0
LINE
  8
_0-3_A0
  6
CONTINUOUS
 62
    7
 10
102.19514228162178
 20
146.56469961880489
 11
104.69514228162489
 21
149.0646996188077
  0
LINE
  8
_0-3_A0
  6
CONTINUOUS
 62
    7
 10
99.366715156872302
 20
146.56469961880108
 11
101.8667151568752
 21
149.06469961880409
  0
LINE
  8
_0-3_A0
  6
CONTINUOUS
 62
    7
 10
98.699976277622127
 20
148.72638786429681
 11
99.038288032125606
 21
149.0646996188002
  0
LINE
  8
_0-3_A0
  6
CONTINUOUS
 62
    7
 10
150.278403402369
 20
146.56469961887418
 11
152.7784034023719
 21
149.064699618877
  0
LINE
  8
_0-3_A0
  6
CONTINUOUS
 62
    7
 10
153.1068305271184
 20
146.56469961887779
 11
155.60683052712158
 21
149.0646996188808
  0
LINE
  8
_0-3_A0
  6
CONTINUOUS
 62
    7
 10
155.93525765186819
 20
146.5646996188818
 11
158.435257651872
 21
149.06469961888549
  0
LINE
  8
_0-3_A0
  6
CONTINUOUS
 62
    7
 10
158.7636847766185
 20
146.5646996188864
 11
161.2636847766216
 21
149.06469961888939
  0
LINE
  8
_0-3_A0
  6
CONTINUOUS
 62
    7
 10
161.59211190136821
 20
146.56469961889018
 11
164.09211190137159
 21
149.06469961889359
  0
LINE
  8
_0-3_A0
  6
CONTINUOUS
 62
    7
 10
164.42053902611809
 20
146.5646996188943
 11
166.92053902612119
 21
149.0646996188976
  0
LINE
  8
_0-3_A0
  6
CONTINUOUS
 62
    7
 10
167.2489661508678
 20
146.5646996188984
 11
169.74896615087101
 21
149.06469961890161
  0
LINE
  8
_0-3_A0
  6
CONTINUOUS
 62
    7
 10
170.0773932756175
 20
146.56469961890229
 11
172.57739327562089
 21
149.0646996189057
  0
LINE
  8
_0-3_A0
  6
CONTINUOUS
 62
    7
 10
172.90582040036738
 20
146.5646996189065
 11
175.40582040037048
 21
149.06469961890948
  0
LINE
  8
_0-3_A0
  6
CONTINUOUS
 62
    7
 10
175.73424752511709
 20
146.56469961891031
 11
178.2342475251209
 21
149.06469961891409
  0
LINE
  8
_0-3_A0
  6
CONTINUOUS
 62
    7
 10
178.5626746498674
 20
146.564699618915
 11
181.06267464987018
 21
149.0646996189177
  0
LINE
  8
_0-3_A0
  6
CONTINUOUS
 62
    7
 10
181.39110177461699
 20
146.5646996189188
 11
183.89110177461981
 21
149.0646996189217
  0
LINE
  8
_0-3_A0
  6
CONTINUOUS
 62
    7
 10
184.21952889936639
 20
146.5646996189225
 11
186.7195288993702
 21
149.06469961892611
  0
LINE
  8
_0-3_A0
  6
CONTINUOUS
 62
    7
 10
187.04795602411658
 20
146.56469961892699
 11
189.54795602411991
 21
149.06469961893
  0
LINE
  8
_0-3_A0
  6
CONTINUOUS
 62
    7
 10
189.8763831488664
 20
146.564699618931
 11
192.3763831488699
 21
149.06469961893421
  0
LINE
  8
_0-3_A0
  6
CONTINUOUS
 62
    7
 10
192.7048102736164
 20
146.5646996189352
 11
195.2048102736195
 21
149.06469961893819
  0
LINE
  8
_0-3_A0
  6
CONTINUOUS
 62
    7
 10
195.53323739836599
 20
146.5646996189389
 11
198.03323739836909
 21
149.06469961894208
  0
LINE
  8
_0-3_A0
  6
CONTINUOUS
 62
    7
 10
198.36166452311579
 20
146.56469961894299
 11
200.8616645231192
 21
149.0646996189464
  0
LINE
  8
_0-3_A0
  6
CONTINUOUS
 62
    7
 10
201.19009164786558
 20
146.56469961894708
 11
201.19997627762481
 21
146.57458424870628
  0
ENDBLK
  0
BLOCK
  2
-032-_X30
 70
   64
 10
0
 20
0
 30
0
  0
LINE
  8
_0-3_A0
  6
CONTINUOUS
 62
    7
 10
286.36935730919037
 20
146.56469961878769
 11
288.86935730919657
 21
149.06469961879361
  0
LINE
  8
_0-3_A0
  6
CONTINUOUS
 62
    7
 10
283.54093018443717
 20
146.56469961878011
 11
286.04093018444308
 21
149.06469961878619
  0
LINE
  8
_0-3_A0
  6
CONTINUOUS
 62
    7
 10
280.71250305968419
 20
146.56469961877289
 11
283.21250305968982
 21
149.06469961877849
  0
LINE
  8
_0-3_A0
  6
CONTINUOUS
 62
    7
 10
277.88407593493087
 20
146.5646996187651
 11
280.38407593493701
 21
149.0646996187711
  0
LINE
  8
_0-3_A0
  6
CONTINUOUS
 62
    7
 10
275.05564881017761
 20
146.56469961875779
 11
277.55564881018369
 21
149.06469961876391
  0
LINE
  8
_0-3_A0
  6
CONTINUOUS
 62
    7
 10
272.22722168542469
 20
146.5646996187506
 11
274.727221685431
 21
149.064699618757
  0
LINE
  8
_0-3_A0
  6
CONTINUOUS
 62
    7
 10
269.39879456067131
 20
146.5646996187429
 11
271.89879456067751
 21
149.06469961874918
  0
LINE
  8
_0-3_A0
  6
CONTINUOUS
 62
    7
 10
266.57036743591868
 20
146.56469961873631
 11
269.07036743592431
 21
149.06469961874191
  0
LINE
  8
_0-3_A0
  6
CONTINUOUS
 62
    7
 10
263.74194031116542
 20
146.56469961872869
 11
266.24194031117167
 21
149.06469961873509
  0
LINE
  8
_0-3_A0
  6
CONTINUOUS
 62
    7
 10
260.91351318641261
 20
146.5646996187215
 11
263.41351318641807
 21
149.0646996187271
  0
LINE
  8
_0-3_A0
  6
CONTINUOUS
 62
    7
 10
258.08508606165918
 20
146.56469961871408
 11
260.5850860616656
 21
149.06469961872011
  0
LINE
  8
_0-3_A0
  6
CONTINUOUS
 62
    7
 10
255.25665893690589
 20
146.56469961870641
 11
257.75665893691217
 21
149.0646996187128
  0
LINE
  8
_0-3_A0
  6
CONTINUOUS
 62
    7
 10
252.42823181215308
 20
146.5646996186993
 11
254.92823181215871
 21
149.0646996187049
  0
LINE
  8
_0-3_A0
  6
CONTINUOUS
 62
    7
 10
249.59980468739971
 20
146.564699618692
 11
252.09980468740599
 21
149.06469961869788
  0
LINE
  8
_0-3_A0
  6
CONTINUOUS
 62
    7
 10
246.77137756264718
 20
146.56469961868509
 11
249.2713775626527
 21
149.06469961869061
  0
LINE
  8
_0-3_A0
  6
CONTINUOUS
 62
    7
 10
246.36935730926759
 20
148.99110649005129
 11
246.4429504379
 21
149.06469961868359
  0
LINE
  8
_0-3_A0
  6
CONTINUOUS
 62
    7
 10
289.19778443394318
 20
146.56469961879449
 11
291.6977844339492
 21
149.0646996188006
  0
LINE
  8
_0-3_A0
  6
CONTINUOUS
 62
    7
 10
292.02621155869627
 20
146.56469961880199
 11
294.52621155870269
 21
149.0646996188083
  0
LINE
  8
_0-3_A0
  6
CONTINUOUS
 62
    7
 10
294.8546386834501
 20
146.56469961881001
 11
297.35463868345522
 21
149.06469961881521
  0
LINE
  8
_0-3_A0
  6
CONTINUOUS
 62
    7
 10
297.6830658082024
 20
146.5646996188166
 11
300.18306580820848
 21
149.06469961882268
  0
LINE
  8
_0-3_A0
  6
CONTINUOUS
 62
    7
 10
300.51149293295577
 20
146.56469961882439
 11
303.01149293296208
 21
149.0646996188305
  0
LINE
  8
_0-3_A0
  6
CONTINUOUS
 62
    7
 10
303.3399200577088
 20
146.56469961883129
 11
305.8399200577146
 21
149.0646996188372
  0
LINE
  8
_0-3_A0
  6
CONTINUOUS
 62
    7
 10
306.16834718246167
 20
146.5646996188388
 11
308.66834718246798
 21
149.06469961884491
  0
LINE
  8
_0-3_A0
  6
CONTINUOUS
 62
    7
 10
308.99677430721527
 20
146.5646996188465
 11
311.4967743072209
 21
149.0646996188521
  0
LINE
  8
_0-3_A0
  6
CONTINUOUS
 62
    7
 10
311.82520143196808
 20
146.5646996188536
 11
314.32520143197388
 21
149.06469961885929
  0
LINE
  8
_0-3_A0
  6
CONTINUOUS
 62
    7
 10
314.65362855672128
 20
146.56469961886091
 11
317.15362855672748
 21
149.0646996188671
  0
LINE
  8
_0-3_A0
  6
CONTINUOUS
 62
    7
 10
317.48205568147398
 20
146.5646996188679
 11
319.98205568148028
 21
149.0646996188743
  0
LINE
  8
_0-3_A0
  6
CONTINUOUS
 62
    7
 10
320.31048280622769
 20
146.5646996188758
 11
322.8104828062336
 21
149.06469961888149
  0
LINE
  8
_0-3_A0
  6
CONTINUOUS
 62
    7
 10
323.1389099309805
 20
146.56469961888259
 11
325.6389099309863
 21
149.06469961888851
  0
LINE
  8
_0-3_A0
  6
CONTINUOUS
 62
    7
 10
325.96733705573348
 20
146.5646996188899
 11
328.4673370557399
 21
149.06469961889641
  0
LINE
  8
_0-3_A0
  6
CONTINUOUS
 62
    7
 10
328.79576418048719
 20
146.564699618898
 11
331.29576418049299
 21
149.0646996189038
  0
ENDBLK
  0
BLOCK
  2
-033-_X31
 70
   64
 10
0
 20
0
 30
0
  0
LINE
  8
_0-3_A0
  6
CONTINUOUS
 62
    7
 10
126.9426169651266
 20
25.074098781540929
 11
131.94261696511819
 21
30.07409878153285
  0
LINE
  8
_0-3_A0
  6
CONTINUOUS
 62
    7
 10
192.7153423082112
 20
90.846824124519443
 11
195.91909751400601
 21
94.050579330247273
  0
LINE
  8
_0-3_A0
  6
CONTINUOUS
 62
    7
 10
124.11418984037959
 20
25.07409878153987
 11
129.114189840372
 21
30.074098781532239
  0
LINE
  8
_0-3_A0
  6
CONTINUOUS
 62
    7
 10
192.349976277443
 20
93.309885218603284
 11
201.19997627767659
 21
102.1598852188368
  0
LINE
  8
_0-3_A0
  6
CONTINUOUS
 62
    7
 10
121.28576271563349
 20
25.074098781539628
 11
126.28576271562509
 21
30.07409878153118
  0
LINE
  8
_0-3_A0
  6
CONTINUOUS
 62
    7
 10
192.34997627744618
 20
96.138312343352296
 11
201.199976277676
 21
104.98831234358199
  0
LINE
  8
_0-3_A0
  6
CONTINUOUS
 62
    7
 10
118.45733559088729
 20
25.074098781538978
 11
123.45733559087878
 21
30.07409878153054
  0
LINE
  8
_0-3_A0
  6
CONTINUOUS
 62
    7
 10
192.7368232961227
 20
99.353586486649803
 11
195.45707399002429
 21
102.0738371788946
  0
LINE
  8
_0-3_A0
  6
CONTINUOUS
 62
    7
 10
195.7149565061035
 20
102.33171969497398
 11
199.8286559342932
 21
106.445419124945
  0
LINE
  8
_0-3_A0
  6
CONTINUOUS
 62
    7
 10
115.6289084661406
 20
25.074098781538101
 11
120.6289084661325
 21
30.07409878152983
  0
LINE
  8
_0-3_A0
  6
CONTINUOUS
 62
    7
 10
194.87890846598631
 20
104.32409878138379
 11
198.4144423719193
 21
107.8596326873169
  0
LINE
  8
_0-3_A0
  6
CONTINUOUS
 62
    7
 10
112.8004813413945
 20
25.07409878153788
 11
117.8004813413863
 21
30.07409878152961
  0
LINE
  8
_0-3_A0
  6
CONTINUOUS
 62
    7
 10
192.80048134140199
 20
105.0740987815453
 11
197.000228809545
 21
109.2738462496883
  0
LINE
  8
_0-3_A0
  6
CONTINUOUS
 62
    7
 10
109.9720542166477
 20
25.07409878153663
 11
114.9720542166398
 21
30.074098781528778
  0
LINE
  8
_0-3_A0
  6
CONTINUOUS
 62
    7
 10
189.9720542166564
 20
105.0740987815456
 11
194.9720542166678
 21
110.07409878155698
  0
LINE
  8
_0-3_A0
  6
CONTINUOUS
 62
    7
 10
107.1436270919017
 20
25.074098781536459
 11
112.1436270918936
 21
30.074098781528579
  0
LINE
  8
_0-3_A0
  6
CONTINUOUS
 62
    7
 10
187.14362709190999
 20
105.0740987815447
 11
192.14362709192118
 21
110.0740987815559
  0
LINE
  8
_0-3_A0
  6
CONTINUOUS
 62
    7
 10
104.31519996715489
 20
25.074098781535539
 11
109.31519996714658
 21
30.074098781527109
  0
LINE
  8
_0-3_A0
  6
CONTINUOUS
 62
    7
 10
184.3151999671634
 20
105.07409878154389
 11
189.31519996717509
 21
110.0740987815557
  0
LINE
  8
_0-3_A0
  6
CONTINUOUS
 62
    7
 10
102.59337456005249
 20
26.18070049917884
 11
106.48677284240028
 21
30.074098781526828
  0
LINE
  8
_0-3_A0
  6
CONTINUOUS
 62
    7
 10
181.48677284241719
 20
105.07409878154328
 11
186.48677284242839
 21
110.07409878155449
  0
LINE
  8
_0-3_A0
  6
CONTINUOUS
 62
    7
 10
101.17916099768018
 20
27.594914061552298
 11
104.714694903513
 21
31.130447967384949
  0
LINE
  8
_0-3_A0
  6
CONTINUOUS
 62
    7
 10
178.65834571767049
 20
105.0740987815427
 11
183.65834571768201
 21
110.07409878155408
  0
LINE
  8
_0-3_A0
  6
CONTINUOUS
 62
    7
 10
99.764947435307774
 20
29.009127623925781
 11
107.44109653379608
 21
36.68527672253306
  0
LINE
  8
_0-3_A0
  6
CONTINUOUS
 62
    7
 10
175.8299185929242
 20
105.0740987815421
 11
180.82991859293591
 21
110.0740987815538
  0
LINE
  8
_0-3_A0
  6
CONTINUOUS
 62
    7
 10
98.6999762776923
 20
30.772583591055958
 11
107.54997627781928
 21
39.622583591182831
  0
LINE
  8
_0-3_A0
  6
CONTINUOUS
 62
    7
 10
173.00149146817759
 20
105.07409878154129
 11
178.0014914681893
 21
110.0740987815526
  0
LINE
  8
_0-3_A0
  6
CONTINUOUS
 62
    7
 10
98.69997627769159
 20
33.601010715801038
 11
103.10574119678379
 21
38.00677563470748
  0
LINE
  8
_0-3_A0
  6
CONTINUOUS
 62
    7
 10
103.7672994247208
 20
38.668333862644402
 11
107.54990980687719
 21
42.450944245034747
  0
LINE
  8
_0-3_A0
  6
CONTINUOUS
 62
    7
 10
170.17306434343129
 20
105.07409878154058
 11
175.173064343443
 21
110.07409878155229
  0
LINE
  8
_0-3_A0
  6
CONTINUOUS
 62
    7
 10
103.76043881113149
 20
41.489900374001742
 11
106.9916612689894
 21
44.72112283177735
  0
LINE
  8
_0-3_A0
  6
CONTINUOUS
 62
    7
 10
167.3446372186857
 20
105.07409878154058
 11
172.3446372186965
 21
110.07409878155158
  0
LINE
  8
_0-3_A0
  6
CONTINUOUS
 62
    7
 10
101.99834183770549
 20
42.556230525086341
 11
105.72764178795719
 21
46.285530475556448
  0
LINE
  8
_0-3_A0
  6
CONTINUOUS
 62
    7
 10
164.51621009393841
 20
105.0740987815394
 11
169.51621009395029
 21
110.0740987815509
  0
LINE
  8
_0-3_A0
  6
CONTINUOUS
 62
    7
 10
99.836627583820032
 20
43.222943396190636
 11
103.96371330947478
 21
47.350029121696429
  0
LINE
  8
_0-3_A0
  6
CONTINUOUS
 62
    7
 10
161.68778296919259
 20
105.0740987815394
 11
166.6877829692041
 21
110.0740987815507
  0
LINE
  8
_0-3_A0
  6
CONTINUOUS
 62
    7
 10
98.760379765040184
 20
44.975122702244448
 11
103.6999762776344
 21
49.914719214726922
  0
LINE
  8
_0-3_A0
  6
CONTINUOUS
 62
    7
 10
158.85935584444558
 20
105.07409878153788
 11
163.85935584445749
 21
110.0740987815499
  0
LINE
  8
_0-3_A0
  6
CONTINUOUS
 62
    7
 10
98.699976277688463
 20
47.74314633952671
 11
103.69997627762859
 21
52.743146339466669
  0
LINE
  8
_0-3_A0
  6
CONTINUOUS
 62
    7
 10
156.03092871969968
 20
105.07409878153778
 11
161.03092871971131
 21
110.07409878154919
  0
LINE
  8
_0-3_A0
  6
CONTINUOUS
 62
    7
 10
98.699976277688094
 20
50.571573464271992
 11
103.69997627762269
 21
55.571573464206799
  0
LINE
  8
_0-3_A0
  6
CONTINUOUS
 62
    7
 10
153.2025015949527
 20
105.0740987815368
 11
158.2025015949643
 21
110.0740987815482
  0
LINE
  8
_0-3_A0
  6
CONTINUOUS
 62
    7
 10
98.699976277687269
 20
53.400000589016983
 11
103.69997627761688
 21
58.40000058894649
  0
LINE
  8
_0-3_A0
  6
CONTINUOUS
 62
    7
 10
150.37407447020689
 20
105.0740987815367
 11
155.37407447021828
 21
110.0740987815481
  0
LINE
  8
_0-3_A0
  6
CONTINUOUS
 62
    7
 10
98.699976277686943
 20
56.228427713762222
 11
103.69997627761108
 21
61.228427713686599
  0
LINE
  8
_0-3_A0
  6
CONTINUOUS
 62
    7
 10
147.54564734545979
 20
105.07409878153518
 11
152.54564734547139
 21
110.07409878154699
  0
LINE
  8
_0-3_A0
  6
CONTINUOUS
 62
    7
 10
98.699976277685792
 20
59.056854838507028
 11
103.6999762776052
 21
64.056854838426374
  0
LINE
  8
_0-3_A0
  6
CONTINUOUS
 62
    7
 10
144.71722022071401
 20
105.07409878153518
 11
149.71722022072529
 21
110.07409878154628
  0
LINE
  8
_0-3_A0
  6
CONTINUOUS
 62
    7
 10
98.699976277685507
 20
61.88528196325236
 11
103.6999762775994
 21
66.885281963166562
  0
LINE
  8
_0-3_A0
  6
CONTINUOUS
 62
    7
 10
141.888793095967
 20
105.0740987815338
 11
146.8887930959793
 21
110.07409878154639
  0
LINE
  8
_0-3_A0
  6
CONTINUOUS
 62
    7
 10
98.699976277685124
 20
64.71370908799787
 11
103.6999762775935
 21
69.713709087906181
  0
LINE
  8
_0-3_A0
  6
CONTINUOUS
 62
    7
 10
139.0603659712213
 20
105.0740987815338
 11
144.06036597123249
 21
110.0740987815453
  0
LINE
  8
_0-3_A0
  6
CONTINUOUS
 62
    7
 10
98.699976277684115
 20
67.542136212742718
 11
103.69997627758779
 21
72.542136212646354
  0
LINE
  8
_0-3_A0
  6
CONTINUOUS
 62
    7
 10
136.2319388464742
 20
105.07409878153258
 11
141.23193884648628
 21
110.0740987815446
  0
LINE
  8
_0-3_A0
  6
CONTINUOUS
 62
    7
 10
98.699976277683788
 20
70.370563337487993
 11
103.69997627758199
 21
75.370563337386116
  0
LINE
  8
_0-3_A0
  6
CONTINUOUS
 62
    7
 10
133.4035117217283
 20
105.07409878153248
 11
138.4035117217395
 21
110.07409878154369
  0
LINE
  8
_0-3_A0
  6
CONTINUOUS
 62
    7
 10
98.699976277682694
 20
73.198990462232799
 11
103.69997627757598
 21
78.198990462126175
  0
LINE
  8
_0-3_A0
  6
CONTINUOUS
 62
    7
 10
130.57508459698181
 20
105.0740987815318
 11
135.5750845969934
 21
110.07409878154348
  0
LINE
  8
_0-3_A0
  6
CONTINUOUS
 62
    7
 10
98.699976277682367
 20
76.027417586978046
 11
103.6999762775703
 21
81.027417586865965
  0
LINE
  8
_0-3_A0
  6
CONTINUOUS
 62
    7
 10
127.74665747223558
 20
105.0740987815312
 11
132.74665747224679
 21
110.0740987815424
  0
LINE
  8
_0-3_A0
  6
CONTINUOUS
 62
    7
 10
98.6999762776815
 20
78.855844711723122
 11
103.6999762775644
 21
83.855844711606096
  0
LINE
  8
_0-3_A0
  6
CONTINUOUS
 62
    7
 10
124.918230347489
 20
105.07409878153029
 11
129.91823034750049
 21
110.074098781542
  0
LINE
  8
_0-3_A0
  6
CONTINUOUS
 62
    7
 10
98.699976277681216
 20
81.684271836468369
 11
103.6999762775586
 21
86.684271836345857
  0
LINE
  8
_0-3_A0
  6
CONTINUOUS
 62
    7
 10
122.0898032227425
 20
105.07409878152988
 11
127.08980322275438
 21
110.0740987815419
  0
LINE
  8
_0-3_A0
  6
CONTINUOUS
 62
    7
 10
98.699976277680065
 20
84.512698961213146
 11
107.54997627777939
 21
93.362698961312432
  0
LINE
  8
_0-3_A0
  6
CONTINUOUS
 62
    7
 10
119.2613760979961
 20
105.0740987815291
 11
124.2613760980076
 21
110.07409878154048
  0
LINE
  8
_0-3_A0
  6
CONTINUOUS
 62
    7
 10
98.699976277679766
 20
87.341126085958734
 11
107.5499762777696
 21
96.191126086048541
  0
LINE
  8
_0-3_A0
  6
CONTINUOUS
 62
    7
 10
116.4329489732503
 20
105.0740987815291
 11
121.4329489732615
 21
110.0740987815403
  0
LINE
  8
_0-3_A0
  6
CONTINUOUS
 62
    7
 10
98.7761154731527
 20
90.245692406013873
 11
101.02838265303199
 21
92.497959585892786
  0
LINE
  8
_0-3_A0
  6
CONTINUOUS
 62
    7
 10
104.1416034676844
 20
95.611180401187439
 11
107.35124121126
 21
98.82081814421798
  0
LINE
  8
_0-3_A0
  6
CONTINUOUS
 62
    7
 10
113.60452184850329
 20
105.07409878152769
 11
118.6045218485149
 21
110.0740987815395
  0
LINE
  8
_0-3_A0
  6
CONTINUOUS
 62
    7
 10
102.94437975659279
 20
97.242383813980353
 11
106.3623032707524
 21
100.66030732849948
  0
LINE
  8
_0-3_A0
  6
CONTINUOUS
 62
    7
 10
110.77609472375749
 20
105.07409878152759
 11
115.77609472376869
 21
110.07409878153879
  0
LINE
  8
_0-3_A0
  6
CONTINUOUS
 62
    7
 10
100.64084657291739
 20
97.767277755667649
 11
104.77591663502599
 21
101.9023478175101
  0
LINE
  8
_0-3_A0
  6
CONTINUOUS
 62
    7
 10
107.9476675990105
 20
105.0740987815266
 11
112.94766759902178
 21
110.07409878153778
  0
LINE
  8
_0-3_A0
  6
CONTINUOUS
 62
    7
 10
99.108266734117776
 20
99.063125041225873
 11
110.1192404742755
 21
110.0740987815375
  0
LINE
  8
_0-3_A0
  6
CONTINUOUS
 62
    7
 10
98.699976277676483
 20
101.4832617096841
 11
107.29081334952958
 21
110.0740987815371
  0
LINE
  8
_0-3_A0
  6
CONTINUOUS
 62
    7
 10
98.699976277676199
 20
104.3116888344294
 11
104.4623862247828
 21
110.07409878153599
  0
LINE
  8
_0-3_A0
  6
CONTINUOUS
 62
    7
 10
129.77104408987258
 20
25.074098781541358
 11
134.77104408986448
 21
30.074098781533088
  0
LINE
  8
_0-3_A0
  6
CONTINUOUS
 62
    7
 10
193.84961774946521
 20
89.152672441137738
 11
197.4018636060135
 21
92.704918297942853
  0
LINE
  8
_0-3_A0
  6
CONTINUOUS
 62
    7
 10
132.59947121461939
 20
25.07409878154241
 11
137.59947121461098
 21
30.074098781533969
  0
LINE
  8
_0-3_A0
  6
CONTINUOUS
 62
    7
 10
195.57418845565209
 20
88.048816021415177
 11
199.69843606160819
 21
92.173063628604637
  0
LINE
  8
_0-3_A0
  6
CONTINUOUS
 62
    7
 10
135.42789833936561
 20
25.074098781542691
 11
140.42789833935719
 21
30.074098781534228
  0
LINE
  8
_0-3_A0
  6
CONTINUOUS
 62
    7
 10
196.19997627767949
 20
85.84617671985697
 11
201.00135087749379
 21
90.647551319684481
  0
LINE
  8
_0-3_A0
  6
CONTINUOUS
 62
    7
 10
138.25632546411219
 20
25.074098781543519
 11
143.25632546410409
 21
30.074098781535628
  0
LINE
  8
_0-3_A0
  6
CONTINUOUS
 62
    7
 10
196.19997627768
 20
83.017749595111382
 11
201.19997627767949
 21
88.017749595110814
  0
LINE
  8
_0-3_A0
  6
CONTINUOUS
 62
    7
 10
141.08475258885849
 20
25.07409878154413
 11
146.0847525888505
 21
30.07409878153588
  0
LINE
  8
_0-3_A0
  6
CONTINUOUS
 62
    7
 10
196.19997627768108
 20
80.189322470366619
 11
201.1999762776806
 21
85.189322470366434
  0
LINE
  8
_0-3_A0
  6
CONTINUOUS
 62
    7
 10
143.91317971360459
 20
25.074098781544499
 11
148.91317971359669
 21
30.074098781536608
  0
LINE
  8
_0-3_A0
  6
CONTINUOUS
 62
    7
 10
196.1999762776814
 20
77.360895345621372
 11
201.1999762776808
 21
82.360895345620718
  0
LINE
  8
_0-3_A0
  6
CONTINUOUS
 62
    7
 10
146.74160683835128
 20
25.074098781545288
 11
151.7416068383429
 21
30.074098781537198
  0
LINE
  8
_0-3_A0
  6
CONTINUOUS
 62
    7
 10
196.19997627768231
 20
74.532468220876339
 11
201.19997627768199
 21
79.532468220875941
  0
LINE
  8
_0-3_A0
  6
CONTINUOUS
 62
    7
 10
149.5700339630975
 20
25.07409878154592
 11
154.5700339630894
 21
30.074098781537678
  0
LINE
  8
_0-3_A0
  6
CONTINUOUS
 62
    7
 10
196.1999762776825
 20
71.704041096131049
 11
201.19997627768219
 21
76.704041096130708
  0
LINE
  8
_0-3_A0
  6
CONTINUOUS
 62
    7
 10
152.39846108784411
 20
25.074098781546769
 11
157.39846108783561
 21
30.07409878153831
  0
LINE
  8
_0-3_A0
  6
CONTINUOUS
 62
    7
 10
196.19997627768358
 20
68.875613971386243
 11
201.1999762776833
 21
73.87561397138586
  0
LINE
  8
_0-3_A0
  6
CONTINUOUS
 62
    7
 10
155.22688821259029
 20
25.07409878154743
 11
160.22688821258259
 21
30.074098781539419
  0
LINE
  8
_0-3_A0
  6
CONTINUOUS
 62
    7
 10
196.1999762776839
 20
66.047186846640599
 11
201.19997627768358
 21
71.047186846640599
  0
LINE
  8
_0-3_A0
  6
CONTINUOUS
 62
    7
 10
158.0553153373371
 20
25.074098781548258
 11
163.05531533732889
 21
30.074098781540019
  0
LINE
  8
_0-3_A0
  6
CONTINUOUS
 62
    7
 10
196.1999762776841
 20
63.218759721895281
 11
201.19997627768441
 21
68.21875972189548
  0
LINE
  8
_0-3_A0
  6
CONTINUOUS
 62
    7
 10
160.8837424620832
 20
25.074098781548439
 11
165.8837424620751
 21
30.074098781540609
  0
LINE
  8
_0-3_A0
  6
CONTINUOUS
 62
    7
 10
196.1999762776852
 20
60.39033259715044
 11
201.19997627768469
 21
65.390332597150219
  0
LINE
  8
_0-3_A0
  6
CONTINUOUS
 62
    7
 10
163.71216958682938
 20
25.074098781549189
 11
168.7121695868214
 21
30.074098781540911
  0
LINE
  8
_0-3_A0
  6
CONTINUOUS
 62
    7
 10
196.1999762776854
 20
57.561905472405122
 11
201.19997627768589
 21
62.561905472405491
  0
LINE
  8
_0-3_A0
  6
CONTINUOUS
 62
    7
 10
166.540596711576
 20
25.07409878154996
 11
171.54059671156758
 21
30.074098781541579
  0
LINE
  8
_0-3_A0
  6
CONTINUOUS
 62
    7
 10
196.1999762776864
 20
54.733478347660302
 11
201.1999762776862
 21
59.733478347659847
  0
LINE
  8
_0-3_A0
  6
CONTINUOUS
 62
    7
 10
169.36902383632221
 20
25.07409878155029
 11
174.36902383631399
 21
30.074098781542009
  0
LINE
  8
_0-3_A0
  6
CONTINUOUS
 62
    7
 10
196.1999762776868
 20
51.905051222915076
 11
201.19997627768731
 21
56.905051222915439
  0
LINE
  8
_0-3_A0
  6
CONTINUOUS
 62
    7
 10
172.1974509610691
 20
25.074098781551271
 11
177.197450961061
 21
30.074098781543401
  0
LINE
  8
_0-3_A0
  6
CONTINUOUS
 62
    7
 10
196.1999762776879
 20
49.076624098170242
 11
201.19997627768759
 21
54.076624098169823
  0
LINE
  8
_0-3_A0
  6
CONTINUOUS
 62
    7
 10
175.02587808581529
 20
25.074098781552049
 11
180.02587808580719
 21
30.074098781543771
  0
LINE
  8
_0-3_A0
  6
CONTINUOUS
 62
    7
 10
192.34997627751511
 20
42.398196973251629
 11
201.1999762776879
 21
51.248196973424597
  0
LINE
  8
_0-3_A0
  6
CONTINUOUS
 62
    7
 10
177.85430521056119
 20
25.074098781552049
 11
182.8543052105534
 21
30.074098781544339
  0
LINE
  8
_0-3_A0
  6
CONTINUOUS
 62
    7
 10
192.34997627752551
 20
39.569769848516571
 11
201.1999762776887
 21
48.419769848679592
  0
LINE
  8
_0-3_A0
  6
CONTINUOUS
 62
    7
 10
180.68273233530808
 20
25.074098781553118
 11
185.68273233529978
 21
30.074098781545078
  0
LINE
  8
_0-3_A0
  6
CONTINUOUS
 62
    7
 10
192.431647174104
 20
36.823013620230611
 11
195.70003616257059
 21
40.091402608815492
  0
LINE
  8
_0-3_A0
  6
CONTINUOUS
 62
    7
 10
198.18267245011068
 20
42.574038896355148
 11
201.19997627768898
 21
45.591342723934182
  0
LINE
  8
_0-3_A0
  6
CONTINUOUS
 62
    7
 10
183.5111594600543
 20
25.074098781553701
 11
188.511159460046
 21
30.074098781545231
  0
LINE
  8
_0-3_A0
  6
CONTINUOUS
 62
    7
 10
193.26991826354719
 20
34.832857584964017
 11
196.59466149506229
 21
38.15760081659441
  0
LINE
  8
_0-3_A0
  6
CONTINUOUS
 62
    7
 10
186.33958658480111
 20
25.074098781554599
 11
191.3395865847923
 21
30.074098781545931
  0
LINE
  8
_0-3_A0
  6
CONTINUOUS
 62
    7
 10
194.72994866642289
 20
33.464460863233028
 11
198.7824896104567
 21
37.517001807366952
  0
LINE
  8
_0-3_A0
  6
CONTINUOUS
 62
    7
 10
189.16801370954709
 20
25.07409878155477
 11
200.542367646054
 21
36.448452718015687
  0
LINE
  8
_0-3_A0
  6
CONTINUOUS
 62
    7
 10
191.9964408342939
 20
25.07409878155606
 11
201.199976277692
 21
34.277634224954127
  0
LINE
  8
_0-3_A0
  6
CONTINUOUS
 62
    7
 10
194.82486795903989
 20
25.074098781556369
 11
201.19997627769251
 21
31.449207100208809
  0
ENDBLK
  0
BLOCK
  2
-036-_U34
 70
   64
 10
0
 20
0
 30
0
  0
TEXT
  8
_0-1_H0
 62
    7
 10
351.25
 20
17.71
 40
5.58
 41
1
 50
0
  1
１０９２２５３
  0
ENDBLK
  0
BLOCK
  2
-037-_U35
 70
   64
 10
0
 20
0
 30
0
  0
TEXT
  8
_0-1_H0
 62
    7
 10
351.01600000000001
 20
10.71
 40
5.58
 41
1
 50
0
  1
製 品 姿 図
  0
ENDBLK
  0
BLOCK
  2
-039-_U37
 70
   64
 10
0
 20
0
 30
0
  0
TEXT
  8
_0-1_H0
 62
    7
 10
57.205600116729726
 20
283.66300002574922
 40
1.673999948501587
 41
1
 50
0
  1
技連番号
  0
ENDBLK
  0
BLOCK
  2
-040-_U38
 70
   64
 10
0
 20
0
 30
0
  0
TEXT
  8
_0-1_H0
 62
    7
 10
68.976200123786924
 20
283.58550002813342
 40
1.8289999437332149
 41
1
 50
0
  1
年 月 日
  0
ENDBLK
  0
BLOCK
  2
-041-_U39
 70
   64
 10
0
 20
0
 30
0
  0
TEXT
  8
_0-1_H0
 62
    7
 10
80.602666740417475
 20
283.60100002765659
 40
1.797999944686889
 41
1
 50
0
  1
担 当
  0
ENDBLK
  0
BLOCK
  2
-042-_U40
 70
   64
 10
0
 20
0
 30
0
  0
TEXT
  8
_0-1_H0
 62
    7
 10
15.850666732788079
 20
283.4925000309945
 40
2.0149999380111691
 41
1
 50
0
  1
記号
  0
ENDBLK
  0
BLOCK
  2
-043-_U41
 70
   64
 10
0
 20
0
 30
0
  0
TEXT
  8
_0-1_H0
 62
    7
 10
29.805666918754578
 20
283.4925000309945
 40
2.0149999380111691
 41
1
 50
0
  1
変　更　履　歴
  0
ENDBLK
  0
BLOCK
  2
-044-_U42
 70
   64
 10
0
 20
0
 30
0
  0
TEXT
  8
_0-1_H0
 62
    7
 10
17.199999999999999
 20
273.93817062273467
 40
1.6639999389648429
 41
1
 50
0
  1
B
  0
ENDBLK
  0
BLOCK
  2
-045-_U43
 70
   64
 10
0
 20
0
 30
0
  0
TEXT
  8
_0-1_H0
 62
    7
 10
17.199999999999999
 20
278.43817062273467
 40
1.6639999389648429
 41
1
 50
0
  1
A
  0
ENDBLK
  0
BLOCK
  2
-046-_U44
 70
   64
 10
0
 20
0
 30
0
  0
TEXT
  8
_0-1_H0
 62
    7
 10
17.199999999999999
 20
269.43800003051762
 40
1.6639999389648429
 41
1
 50
0
  1
C
  0
ENDBLK
  0
BLOCK
  2
-047-_U45
 70
   64
 10
0
 20
0
 30
0
  0
TEXT
  8
_0-1_H0
 62
    7
 10
17.199999999999999
 20
264.93800003051762
 40
1.6639999389648429
 41
1
 50
0
  1
D
  0
ENDBLK
  0
BLOCK
  2
-048-_U46
 70
   64
 10
0
 20
0
 30
0
  0
TEXT
  8
_0-1_H0
 62
    7
 10
17.199999999999999
 20
260.43800003051762
 40
1.6639999389648429
 41
1
 50
0
  1
E
  0
ENDBLK
  0
BLOCK
  2
-049-_U47
 70
   64
 10
0
 20
0
 30
0
  0
TEXT
  8
_0-1_H0
 62
    7
 10
400.0200000047684
 20
17.240000081062309
 40
2.2000000476837149
 41
1
 50
0
  1
変更歴
  0
ENDBLK
  0
BLOCK
  2
-050-_U48
 70
   64
 10
0
 20
0
 30
0
  0
TEXT
  8
_0-1_H0
 62
    7
 10
340.99999999989341
 20
28.3
 40
4.6500000000000003
 41
1
 50
0
  1
FAN-15LDFH
  0
ENDBLK
  0
BLOCK
  2
-051-_U49
 70
   64
 10
0
 20
0
 30
0
  0
TEXT
  8
_0-1_H0
 62
    7
 10
340.61146667850749
 20
24.3
 40
2.913999910354613
 41
1
 50
0
  1
ワンド株式会社殿向け 平型用L形ダクト
  0
ENDBLK
  0
BLOCK
  2
-052-_U50
 70
   64
 10
0
 20
0
 30
0
  0
TEXT
  8
_0-1_H0
 62
    7
 10
308.0496000843749
 20
31.408000018666811
 40
2.183999962806701
 41
1
 50
0
  1
変更承認
  0
ENDBLK
  0
BLOCK
  2
-053-_U51
 70
   64
 10
0
 20
0
 30
0
  0
TEXT
  8
_0-1_H0
 62
    7
 10
295.4328000608192
 20
31.408000018666811
 40
2.183999962806701
 41
1
 50
0
  1
製　図
  0
ENDBLK
  0
BLOCK
  2
-054-_U52
 70
   64
 10
0
 20
0
 30
0
  0
TEXT
  8
_0-1_H0
 62
    7
 10
280.7533334057237
 20
31.22600002176625
 40
2.5479999566078181
 41
1
 50
0
  1
設　計
  0
ENDBLK
  0
BLOCK
  2
-055-_U53
 70
   64
 10
0
 20
0
 30
0
  0
TEXT
  8
_0-1_H0
 62
    7
 10
266.7533334057237
 20
31.22600002176625
 40
2.5479999566078181
 41
1
 50
0
  1
照　査
  0
ENDBLK
  0
BLOCK
  2
-056-_U54
 70
   64
 10
0
 20
0
 30
0
  0
TEXT
  8
_0-1_H0
 62
    7
 10
252.7533334057237
 20
31.22600002176625
 40
2.5479999566078181
 41
1
 50
0
  1
承　認
  0
ENDBLK
  0
BLOCK
  2
-057-_U55
 70
   64
 10
0
 20
0
 30
0
  0
TEXT
  8
_0-1_H0
 62
    7
 10
322.0496000843749
 20
31.408000018666811
 40
2.183999962806701
 41
1
 50
0
  1
変更照査
  0
ENDBLK
  0
BLOCK
  2
-058-_U56
 70
   64
 10
0
 20
0
 30
0
  0
TEXT
  8
_0-1_H0
 62
    7
 10
307.3999999999998
 20
11.82
 40
3.3599999999999989
 41
1
 50
0
  1
三角法
  0
ENDBLK
  0
BLOCK
  2
-059-_U57
 70
   64
 10
0
 20
0
 30
0
  0
TEXT
  8
_0-1_H0
 62
    7
 10
329.73466667970012
 20
10.75200001955033
 40
2.295999960899353
 41
1
 50
0
  1
2
  0
ENDBLK
  0
BLOCK
  2
-060-_U58
 70
   64
 10
0
 20
0
 30
0
  0
TEXT
  8
_0-1_H0
 62
    7
 10
327.11733333985029
 20
13.95200001954732
 40
2.295999960899353
 41
1
 50
0
  1
1
  0
ENDBLK
  0
BLOCK
  2
-061-_U59
 70
   64
 10
0
 20
0
 30
0
  0
TEXT
  8
_0-1_H0
 62
    7
 10
322.00999999046308
 20
16.90666656494141
 40
3.0999999046325679
 41
1
 50
0
  1
尺度
  0
ENDBLK
  0
BLOCK
  2
-062-_U62
 70
   64
 10
0
 20
0
 30
0
  0
TEXT
  8
_0-1_H0
 62
    7
 10
295.90390862944161
 20
25.859010152284259
 40
2.4300000000000001
 41
1
 50
0
  1
篠原
  0
ENDBLK
  0
BLOCK
  2
-063-_U63
 70
   64
 10
0
 20
0
 30
0
  0
TEXT
  8
_0-1_H0
 62
    7
 10
293.27371583355858
 20
19.68068021699862
 40
1.7639999699592578
 41
1
 50
0
  1
2023/03/28
  0
ENDBLK
  0
BLOCK
  2
-064-_U64
 70
   64
 10
0
 20
0
 30
0
  0
TEXT
  8
_0-1_H0
 62
    7
 10
281.90390862944161
 20
25.859010152284259
 40
2.4300000000000001
 41
1
 50
0
  1
篠原
  0
ENDBLK
  0
BLOCK
  2
-065-_U65
 70
   64
 10
0
 20
0
 30
0
  0
TEXT
  8
_0-1_H0
 62
    7
 10
279.27371583355869
 20
19.68068021699862
 40
1.7639999699592578
 41
1
 50
0
  1
2023/03/28
  0
ENDBLK
  0
BLOCK
  2
-066-_U66
 70
   64
 10
0
 20
0
 30
0
  0
TEXT
  8
_0-1_H0
 62
    7
 10
251
 20
40.039999999999999
 40
2.919999999999999
 41
1
 50
0
  1
FAN-15LDFH
  0
ENDBLK
  0
BLOCK
  2
-067-_U67
 70
   64
 10
0
 20
0
 30
0
  0
TEXT
  8
_0-1_H0
 62
    7
 10
295.53666666666669
 20
40.039999999999999
 40
2.919999999999999
 41
1
 50
0
  1
109WK900
  0
ENDBLK
  0
BLOCK
  2
-068-_U68
 70
   64
 10
0
 20
0
 30
0
  0
TEXT
  8
_0-1_H0
 62
    7
 10
262.06666666666671
 20
34.499999999999992
 40
4
 41
1
 50
0
  1
型　　名
  0
ENDBLK
  0
BLOCK
  2
-069-_U69
 70
   64
 10
0
 20
0
 30
0
  0
TEXT
  8
_0-1_H0
 62
    7
 10
294.80000000000001
 20
34.499999999999992
 40
4
 41
1
 50
0
  1
製品コード
  0
ENDBLK
  0
BLOCK
  2
-070-_U70
 70
   64
 10
0
 20
0
 30
0
  0
TEXT
  8
_0-1_H0
 62
    7
 10
392.58533333333349
 20
34.84000000000001
 40
3.3199999999999989
 41
1
 50
0
  1
区分No.
  0
ENDBLK
  0
BLOCK
  2
-071-_U71
 70
   64
 10
0
 20
0
 30
0
  0
TEXT
  8
_0-1_H0
 62
    7
 10
331.93333333333328
 20
34.499999999999992
 40
4
 41
1
 50
0
  1
色　　調
  0
ENDBLK
  0
BLOCK
  2
-072-_U72
 70
   64
 10
0
 20
0
 30
0
  0
TEXT
  8
_0-1_H0
 62
    7
 10
340.02666666666669
 20
40.039999999999956
 40
2.919999999999999
 41
1
 50
0
  1
-
  0
ENDBLK
  0
BLOCK
  2
-073-_U73
 70
   64
 10
0
 20
0
 30
0
  0
TEXT
  8
_0-1_H0
 62
    7
 10
399.02666666666681
 20
40.039999999999999
 40
2.919999999999999
 41
1
 50
0
  1
-
  0
ENDBLK
  0
BLOCK
  2
-074-_U74
 70
   64
 10
0
 20
0
 30
0
  0
INSERT
  2
-000-_OPEN
  8
_0-3_A0
 10
100.6705438407033
 20
172.5297337550408
 41
3
 42
3
 50
43.899290385452566
  0
LINE
  8
_0-3_A0
  6
CONTINUOUS
 62
    7
 10
98.508864742253777
 20
170.44955504268779
 11
91.385173326873754
 21
163.5944435479827
  0
LINE
  8
_0-3_A0
  6
CONTINUOUS
 62
    7
 10
91.385173326873754
 20
163.5944435479827
 11
50.697441152954077
 21
163.5944435479827
  0
ENDBLK
  0
BLOCK
  2
-075-_U75
 70
   64
 10
0
 20
0
 30
0
  0
TEXT
  8
_0-3_A0
 62
    7
 10
50.486172456645952
 20
164.28044354226071
 40
2.913999910354613
 41
1
 50
0
  1
排気口取付用ねじ：４本
  0
ENDBLK
  0
BLOCK
  2
-076-_U76
 70
   64
 10
0
 20
0
 30
0
  0
TEXT
  8
_0-3_A0
 62
    7
 10
312.80108798775262
 20
129.12222113333911
 40
2.913999910354613
 41
1
 50
0
  1
漏風防止クッション
  0
LINE
  8
_0-3_A0
  6
CONTINUOUS
 62
    7
 10
310.87508804354257
 20
128.43622113906118
 11
312.80108798775268
 21
128.43622113906118
  0
LINE
  8
_0-3_A0
  6
CONTINUOUS
 62
    7
 10
304.9593714332031
 20
143.7658695284453
 11
310.87508804354257
 21
128.43622113906118
  0
INSERT
  2
-000-_OPEN
  8
_0-3_A0
 10
303.87930193408567
 20
146.56469961922908
 41
3
 42
3
 50
111.10161875676969
  0
LINE
  8
_0-3_A0
  6
CONTINUOUS
 62
    7
 10
312.80108798775262
 20
128.43622113906118
 11
343.31095371613099
 21
128.43622113906118
  0
ENDBLK
  0
BLOCK
  2
-077-_U77
 70
   64
 10
0
 20
0
 30
0
  0
TEXT
  8
_0-3_A0
 62
    7
 10
324.17883613079902
 20
228.79154502845298
 40
2.913999910354613
 41
1
 50
0
  1
本体：亜鉛めっき鋼板
  0
LINE
  8
_0-3_A0
  6
CONTINUOUS
 62
    7
 10
322.25283618658892
 20
228.105545034175
 11
324.17883613079891
 21
228.105545034175
  0
LINE
  8
_0-3_A0
  6
CONTINUOUS
 62
    7
 10
312.8307617187209
 20
220.42742141144418
 11
322.25283618658892
 21
228.105545034175
  0
INSERT
  2
-000-_OPEN
  8
_0-3_A0
 10
310.50516285954302
 20
218.53227235498698
 41
3
 42
3
 50
219.17686570787992
  0
LINE
  8
_0-3_A0
  6
CONTINUOUS
 62
    7
 10
324.17883613079902
 20
228.105545034175
 11
358.37976841229311
 21
228.105545034175
  0
ENDBLK
  0
BLOCK
  2
-078-_U78
 70
   64
 10
0
 20
0
 30
0
  0
INSERT
  2
-000-_OPEN
  8
_0-3_A0
 10
100.84872334636679
 20
95.780136351336949
 41
3
 42
3
 50
334.60766410774448
  0
LINE
  8
_0-3_A0
  6
CONTINUOUS
 62
    7
 10
98.138545363894834
 20
97.066579239040919
 11
90.930622182417863
 21
100.4879713291169
  0
LINE
  8
_0-3_A0
  6
CONTINUOUS
 62
    7
 10
90.930622182417863
 20
100.4879713291169
 11
75.301288849084528
 21
100.4879713291169
  0
ENDBLK
  0
ENDSEC
  0
SECTION
  2
ENTITIES
  0
LINE
  8
_0-1_H0
  6
CONTINUOUS
 62
    3
 10
407.5
 20
10.241136363636371
 11
407.5
 21
287.24113636363637
  0
LINE
  8
_0-1_H0
  6
CONTINUOUS
 62
    3
 10
407.5
 20
287.24113636363637
 11
12.5
 21
287.24113636363637
  0
LINE
  8
_0-1_H0
  6
CONTINUOUS
 62
    3
 10
12.5
 20
287.24113636363637
 11
12.5
 21
10.241136363636371
  0
LINE
  8
_0-1_H0
  6
CONTINUOUS
 62
    3
 10
247.5
 20
34.241136363636371
 11
407.49999999999977
 21
34.241136363636371
  0
LINE
  8
_0-1_H0
  6
CONTINUOUS
 62
    3
 10
336.49999999999988
 20
34.241136363636371
 11
336.49999999999988
 21
10.241136363636371
  0
LINE
  8
_0-1_H0
  6
CONTINUOUS
 62
    3
 10
331.49999999999988
 20
34.241136363636371
 11
331.49999999999988
 21
10.241136363636371
  0
LINE
  8
_0-1_H0
  6
CONTINUOUS
 62
    3
 10
247.5
 20
39.241136363636371
 11
407.49999999999977
 21
39.241136363636371
  0
LINE
  8
_0-1_H0
  6
CONTINUOUS
 62
    3
 10
247.5
 20
44.241136363636371
 11
247.5
 21
39.241136363636371
  0
LINE
  8
_0-1_H0
  6
CONTINUOUS
 62
    3
 10
289.49999999999988
 20
44.241136363636371
 11
289.49999999999988
 21
39.241136363636371
  0
LINE
  8
_0-1_H0
  6
CONTINUOUS
 62
    3
 10
289.49999999999988
 20
39.241136363636371
 11
289.49999999999988
 21
34.241136363636371
  0
INSERT
  2
-036-_U34
  8
_0-0_0
 10
-2.5
 20
0.2411363636363716
 41
1
 42
1
 50
0
  0
INSERT
  2
-037-_U35
  8
_0-0_0
 10
-2.5
 20
0.2411363636363716
 41
1
 42
1
 50
0
  0
POINT
  8
_0-1_H0
 62
    7
 10
397.5
 20
15.241136363636371
  0
LINE
  8
_0-1_H0
  6
CONTINUOUS
 62
    3
 10
84.5
 20
282.24113636363637
 11
12.5
 21
282.24113636363637
  0
LINE
  8
_0-1_H0
  6
CONTINUOUS
 62
    3
 10
53.5
 20
287.24113636363637
 11
53.5
 21
259.74113636363637
  0
LINE
  8
_0-1_H0
  6
CONTINUOUS
 62
    3
 10
84.5
 20
277.74113636363637
 11
12.5
 21
277.74113636363637
  0
LINE
  8
_0-1_H0
  6
CONTINUOUS
 62
    3
 10
84.5
 20
268.74113636363637
 11
12.5
 21
268.74113636363637
  0
LINE
  8
_0-1_H0
  6
CONTINUOUS
 62
    3
 10
84.5
 20
264.24113636363637
 11
12.5
 21
264.24113636363637
  0
LINE
  8
_0-1_H0
  6
CONTINUOUS
 62
    3
 10
84.5
 20
259.74113636363637
 11
12.5
 21
259.74113636363637
  0
INSERT
  2
-039-_U37
  8
_0-0_0
 10
-2.5
 20
0.2411363636363716
 41
1
 42
1
 50
0
  0
INSERT
  2
-040-_U38
  8
_0-0_0
 10
-2.5
 20
0.2411363636363716
 41
1
 42
1
 50
0
  0
INSERT
  2
-041-_U39
  8
_0-0_0
 10
-2.5
 20
0.2411363636363716
 41
1
 42
1
 50
0
  0
LINE
  8
_0-1_H0
  6
CONTINUOUS
 62
    3
 10
12.5
 20
273.24113636363637
 11
84.5
 21
273.24113636363637
  0
LINE
  8
_0-1_H0
  6
CONTINUOUS
 62
    3
 10
18.5
 20
287.24113636363637
 11
18.5
 21
259.74113636363637
  0
INSERT
  2
-042-_U40
  8
_0-0_0
 10
-2.5
 20
0.2411363636363716
 41
1
 42
1
 50
0
  0
INSERT
  2
-043-_U41
  8
_0-0_0
 10
-2.5
 20
0.2411363636363716
 41
1
 42
1
 50
0
  0
LINE
  8
_0-1_H0
  6
CONTINUOUS
 62
    3
 10
63.5
 20
287.24113636363637
 11
63.5
 21
259.74113636363637
  0
LINE
  8
_0-1_H0
  6
CONTINUOUS
 62
    3
 10
13.299999999999954
 20
264.64113636363634
 11
17.69999999999996
 21
264.64113636363634
  0
LINE
  8
_0-1_H0
  6
CONTINUOUS
 62
    3
 10
17.699999999999931
 20
264.64113636363634
 11
15.499999999999914
 21
268.45164814028765
  0
LINE
  8
_0-1_H0
  6
CONTINUOUS
 62
    3
 10
15.499999999999943
 20
268.45164814028777
 11
13.299999999999954
 21
264.64113636363629
  0
LINE
  8
_0-1_H0
  6
CONTINUOUS
 62
    3
 10
13.299999999999954
 20
269.14113636363634
 11
17.69999999999996
 21
269.14113636363634
  0
LINE
  8
_0-1_H0
  6
CONTINUOUS
 62
    3
 10
17.69999999999996
 20
269.14113636363646
 11
15.499999999999971
 21
272.95164814028777
  0
LINE
  8
_0-1_H0
  6
CONTINUOUS
 62
    3
 10
15.499999999999943
 20
272.95164814028765
 11
13.299999999999954
 21
269.14113636363634
  0
LINE
  8
_0-1_H0
  6
CONTINUOUS
 62
    3
 10
13.299999999999954
 20
273.64113636363634
 11
17.69999999999996
 21
273.64113636363634
  0
LINE
  8
_0-1_H0
  6
CONTINUOUS
 62
    3
 10
17.69999999999996
 20
273.64113636363634
 11
15.499999999999943
 21
277.45164814028777
  0
LINE
  8
_0-1_H0
  6
CONTINUOUS
 62
    3
 10
15.499999999999971
 20
277.45164814028777
 11
13.299999999999954
 21
273.64113636363634
  0
INSERT
  2
-044-_U42
  8
_0-0_0
 10
-2.5
 20
0.2411363636363716
 41
1
 42
1
 50
0
  0
LINE
  8
_0-1_H0
  6
CONTINUOUS
 62
    3
 10
13.299999999999954
 20
278.14113636363634
 11
17.69999999999996
 21
278.14113636363634
  0
LINE
  8
_0-1_H0
  6
CONTINUOUS
 62
    3
 10
17.69999999999996
 20
278.14113636363646
 11
15.499999999999943
 21
281.95164814028777
  0
LINE
  8
_0-1_H0
  6
CONTINUOUS
 62
    3
 10
15.499999999999943
 20
281.95164814028777
 11
13.299999999999926
 21
278.14113636363646
  0
INSERT
  2
-045-_U43
  8
_0-0_0
 10
-2.5
 20
0.2411363636363716
 41
1
 42
1
 50
0
  0
LINE
  8
_0-1_H0
  6
CONTINUOUS
 62
    3
 10
76.5
 20
287.24113636363637
 11
76.5
 21
259.74113636363637
  0
LINE
  8
_0-1_H0
  6
CONTINUOUS
 62
    3
 10
84.5
 20
287.24113636363637
 11
84.5
 21
259.74113636363637
  0
LINE
  8
_0-1_H0
  6
CONTINUOUS
 62
    3
 10
15.499999999999943
 20
263.95164814028765
 11
13.299999999999982
 21
260.14113636363634
  0
LINE
  8
_0-1_H0
  6
CONTINUOUS
 62
    3
 10
17.699999999999931
 20
260.14113636363634
 11
15.499999999999914
 21
263.95164814028765
  0
LINE
  8
_0-1_H0
  6
CONTINUOUS
 62
    3
 10
13.299999999999954
 20
260.14113636363634
 11
17.69999999999996
 21
260.14113636363634
  0
INSERT
  2
-046-_U44
  8
_0-0_0
 10
-2.5
 20
0.2411363636363716
 41
1
 42
1
 50
0
  0
INSERT
  2
-047-_U45
  8
_0-0_0
 10
-2.5
 20
0.2411363636363716
 41
1
 42
1
 50
0
  0
INSERT
  2
-048-_U46
  8
_0-0_0
 10
-2.5
 20
0.2411363636363716
 41
1
 42
1
 50
0
  0
LINE
  8
_0-1_H0
  6
CONTINUOUS
 62
    3
 10
247.49999999999988
 20
17.241136363636371
 11
407.5
 21
17.241136363636371
  0
LINE
  8
_0-1_H0
  6
CONTINUOUS
 62
    3
 10
331.49999999999988
 20
24.241136363636371
 11
407.5
 21
24.241136363636371
  0
LINE
  8
_0-1_H0
  6
CONTINUOUS
 62
    3
 10
395.5
 20
10.241136363636371
 11
395.5
 21
17.241136363636371
  0
INSERT
  2
-049-_U47
  8
_0-0_0
 10
-2.5
 20
0.2411363636363716
 41
1
 42
1
 50
0
  0
LINE
  8
_0-1_H0
  6
CONTINUOUS
 62
    3
 10
399.5
 20
10.241136363636371
 11
399.5
 21
17.241136363636371
  0
LINE
  8
_0-1_H0
  6
CONTINUOUS
 62
    3
 10
12.5
 20
10.241136363636371
 11
407.5
 21
10.241136363636371
  0
INSERT
  2
-050-_U48
  8
_0-0_0
 10
-2.5
 20
0.2411363636363716
 41
1
 42
1
 50
0
  0
LINE
  8
_0-1_H0
  6
CONTINUOUS
 62
    3
 10
338.49999999999988
 20
28.241136363636371
 11
405.5
 21
28.241136363636371
  0
INSERT
  2
-051-_U49
  8
_0-0_0
 10
-2.5
 20
0.2411363636363716
 41
1
 42
1
 50
0
  0
LINE
  8
_0-1_H0
  6
CONTINUOUS
 62
    3
 10
317.49999999999988
 20
10.241136363636371
 11
317.49999999999988
 21
34.241136363636371
  0
LINE
  8
_0-1_H0
  6
CONTINUOUS
 62
    3
 10
303.49999999999988
 20
10.241136363636371
 11
303.49999999999988
 21
34.241136363636371
  0
LINE
  8
_0-1_H0
  6
CONTINUOUS
 62
    3
 10
289.49999999999988
 20
17.241136363636371
 11
289.49999999999988
 21
34.241136363636371
  0
LINE
  8
_0-1_H0
  6
CONTINUOUS
 62
    3
 10
275.49999999999988
 20
17.241136363636371
 11
275.49999999999988
 21
34.241136363636371
  0
LINE
  8
_0-1_H0
  6
CONTINUOUS
 62
    3
 10
261.5
 20
17.241136363636371
 11
261.5
 21
34.241136363636371
  0
INSERT
  2
-052-_U50
  8
_0-0_0
 10
-2.5
 20
0.2411363636363716
 41
1
 42
1
 50
0
  0
INSERT
  2
-053-_U51
  8
_0-0_0
 10
-2.5
 20
0.2411363636363716
 41
1
 42
1
 50
0
  0
INSERT
  2
-054-_U52
  8
_0-0_0
 10
-2.5
 20
0.2411363636363716
 41
1
 42
1
 50
0
  0
INSERT
  2
-055-_U53
  8
_0-0_0
 10
-2.5
 20
0.2411363636363716
 41
1
 42
1
 50
0
  0
INSERT
  2
-056-_U54
  8
_0-0_0
 10
-2.5
 20
0.2411363636363716
 41
1
 42
1
 50
0
  0
INSERT
  2
-057-_U55
  8
_0-0_0
 10
-2.5
 20
0.2411363636363716
 41
1
 42
1
 50
0
  0
LINE
  8
_0-1_H0
  6
CONTINUOUS
 62
    3
 10
247.49999999999988
 20
10.241136363636371
 11
247.49999999999988
 21
34.241136363636371
  0
LINE
  8
_0-1_H0
  6
CONTINUOUS
 62
    3
 10
247.49999999999988
 20
34.241136363636371
 11
247.49999999999988
 21
39.241136363636371
  0
LINE
  8
_0-1_H0
  6
CONTINUOUS
 62
    3
 10
247.49999999999988
 20
31.241136363636371
 11
331.49999999999988
 21
31.241136363636371
  0
INSERT
  2
-058-_U56
  8
_0-0_0
 10
-2.5
 20
0.2411363636363716
 41
1
 42
1
 50
0
  0
LINE
  8
_0-1_H0
  6
CONTINUOUS
 62
    3
 10
324.50000000000011
 20
11.741136363636428
 11
328.5
 21
15.741136363633387
  0
INSERT
  2
-059-_U57
  8
_0-0_0
 10
-2.5
 20
0.2411363636363716
 41
1
 42
1
 50
0
  0
INSERT
  2
-060-_U58
  8
_0-0_0
 10
-2.5
 20
0.2411363636363716
 41
1
 42
1
 50
0
  0
LINE
  8
_0-1_H0
  6
CONTINUOUS
 62
    3
 10
321.49999999999988
 20
10.241136363636371
 11
321.49999999999988
 21
17.241136363636371
  0
INSERT
  2
-061-_U59
  8
_0-0_0
 10
-2.5
 20
0.2411363636363716
 41
1
 42
1
 50
0
  0
POINT
  8
_0-1_H0
 62
    7
 10
369.5
 20
36.741136363636371
  0
INSERT
  2
-062-_U62
  8
_0-0_0
 10
-2.5
 20
0.2411363636363716
 41
1
 42
1
 50
0
  0
INSERT
  2
-063-_U63
  8
_0-0_0
 10
-2.5
 20
0.2411363636363716
 41
1
 42
1
 50
0
  0
INSERT
  2
-064-_U64
  8
_0-0_0
 10
-2.5
 20
0.2411363636363716
 41
1
 42
1
 50
0
  0
INSERT
  2
-065-_U65
  8
_0-0_0
 10
-2.5
 20
0.2411363636363716
 41
1
 42
1
 50
0
  0
INSERT
  2
-066-_U66
  8
_0-0_0
 10
-2.5
 20
0.2411363636363716
 41
1
 42
1
 50
0
  0
INSERT
  2
-067-_U67
  8
_0-0_0
 10
-2.5
 20
0.2411363636363716
 41
1
 42
1
 50
0
  0
LINE
  8
_0-1_H0
  6
CONTINUOUS
 62
    3
 10
247.50000000000011
 20
44.241136363636371
 11
407.5
 21
44.241136363636371
  0
INSERT
  2
-068-_U68
  8
_0-0_0
 10
-2.5
 20
0.2411363636363716
 41
1
 42
1
 50
0
  0
INSERT
  2
-069-_U69
  8
_0-0_0
 10
-2.5
 20
0.2411363636363716
 41
1
 42
1
 50
0
  0
LINE
  8
_0-1_H0
  6
CONTINUOUS
 62
    3
 10
247.50000000000011
 20
34.241136363636371
 11
407.5
 21
34.241136363636371
  0
INSERT
  2
-070-_U70
  8
_0-0_0
 10
-2.5
 20
0.2411363636363716
 41
1
 42
1
 50
0
  0
LINE
  8
_0-1_H0
  6
CONTINUOUS
 62
    3
 10
387.50000000000022
 20
34.241136363636371
 11
387.50000000000022
 21
44.241136363636371
  0
LINE
  8
_0-1_H0
  6
CONTINUOUS
 62
    3
 10
359.50000000000022
 20
34.241136363636371
 11
359.50000000000022
 21
44.241136363636371
  0
LINE
  8
_0-1_H0
  6
CONTINUOUS
 62
    3
 10
317.5
 20
10.241136363636371
 11
317.5
 21
44.241136363636371
  0
LINE
  8
_0-1_H0
  6
CONTINUOUS
 62
    3
 10
289.5
 20
39.241136363636371
 11
289.5
 21
34.241136363636371
  0
INSERT
  2
-071-_U71
  8
_0-0_0
 10
-2.5
 20
0.2411363636363716
 41
1
 42
1
 50
0
  0
INSERT
  2
-072-_U72
  8
_0-0_0
 10
-2.5
 20
0.2411363636363716
 41
1
 42
1
 50
0
  0
INSERT
  2
-073-_U73
  8
_0-0_0
 10
-2.5
 20
0.2411363636363716
 41
1
 42
1
 50
0
  0
LINE
  8
_0-3_A0
  6
CONTINUOUS
 62
    3
 10
103.4499762776184
 20
151.80583598244666
 11
103.44997627761989
 21
150.70583598244607
  0
ARC
  8
_0-3_A0
  6
CONTINUOUS
 62
    3
 10
103.8499762776199
 20
150.70583598244667
 40
0.4
 50
180
 51
270
  0
LINE
  8
_0-3_A0
  6
DASHED
 62
    3
 10
103.84997627761829
 20
151.80583598244666
 11
103.8499762776199
 21
150.70583598244667
  0
LINE
  8
_0-3_A0
  6
CENTER
 62
    3
 10
124.9499762776128
 20
155.69251038517197
 11
124.94997627761749
 21
152.42171021360567
  0
LINE
  8
_0-3_A0
  6
HIDDEN
 62
    3
 10
109.9499762776183
 20
151.80583598244848
 11
109.94997627761989
 21
150.70583598244837
  0
LINE
  8
_0-3_A0
  6
DASHED
 62
    3
 10
108.4499762774773
 20
249.80583598260497
 11
103.44997627748449
 21
244.80583598260727
  0
LINE
  8
_0-3_A0
  6
CENTER
 62
    3
 10
116.2222514481856
 20
246.80583598232885
 11
124.6904208574999
 21
246.80583598231226
  0
LINE
  8
_0-3_A0
  6
CENTER
 62
    3
 10
119.9499762774749
 20
251.52394993365527
 11
119.94997627748999
 21
241.00703532316518
  0
LINE
  8
_0-3_A0
  6
CONTINUOUS
 62
    3
 10
139.94997627761048
 20
157.30583598245857
 11
139.94997627761549
 21
153.80583598245686
  0
LINE
  8
_0-3_A0
  6
CONTINUOUS
 62
    3
 10
127.94997627761047
 20
157.30583598245178
 11
127.94997627761549
 21
153.80583598245345
  0
LINE
  8
_0-3_A0
  6
CONTINUOUS
 62
    3
 10
127.9499762776156
 20
153.80583598245337
 11
139.94997627761549
 21
153.80583598245678
  0
LINE
  8
_0-3_A0
  6
CONTINUOUS
 62
    3
 10
129.44997627761009
 20
158.80583598245388
 11
138.44997627761
 21
158.80583598245635
  0
ARC
  8
_0-3_A0
  6
CONTINUOUS
 62
    3
 10
138.4499762776104
 20
157.30583598245635
 40
1.5
 50
0
 51
90
  0
ARC
  8
_0-3_A0
  6
CONTINUOUS
 62
    3
 10
129.4499762776104
 20
157.30583598245388
 40
1.5
 50
90
 51
180
  0
LINE
  8
_0-3_A0
  6
CONTINUOUS
 62
    3
 10
139.94997627761509
 20
154.10583598245688
 11
141.44997627761509
 21
154.10583598245727
  0
LINE
  8
_0-3_A0
  6
CONTINUOUS
 62
    3
 10
125.9999762779405
 20
154.10583598245295
 11
127.94997627761509
 21
154.10583598245347
  0
LINE
  8
_0-3_A0
  6
CONTINUOUS
 62
    3
 10
141.449976277615
 20
154.10583598245727
 11
141.44997627761838
 21
151.80583598245726
  0
LINE
  8
_0-3_A0
  6
HIDDEN
 62
    3
 10
141.44997627761838
 20
151.80583598245726
 11
141.44997627761981
 21
150.80583598245726
  0
ARC
  8
_0-3_A0
  6
CONTINUOUS
 62
    3
 10
124.94997627761479
 20
154.30583598245257
 40
1.05
 50
0
 51
8.6970718442291978
  0
LINE
  8
_0-3_A0
  6
CONTINUOUS
 62
    3
 10
125.9999762779405
 20
154.30583598245257
 11
125.9999762779405
 21
154.10583598245287
  0
LINE
  8
_0-3_A0
  6
CONTINUOUS
 62
    3
 10
123.8999762776952
 20
154.46460679968117
 11
123.8999762776952
 21
151.80583598245237
  0
LINE
  8
_0-3_A0
  6
HIDDEN
 62
    3
 10
123.8999762776952
 20
151.80583598245237
 11
123.8999762776952
 21
150.80583598245237
  0
ARC
  8
_0-3_A0
  6
CONTINUOUS
 62
    3
 10
124.94997627761479
 20
154.30583598245257
 40
1
 50
170.86444273472548
 51
9.1355572652183241
  0
ARC
  8
_0-3_A0
  6
HIDDEN
 62
    3
 10
124.94997627761479
 20
154.30583598245257
 40
0.5999999999999997
 50
164.65574275631249
 51
15.344257243631602
  0
LINE
  8
_0-3_A0
  6
CENTER
 62
    3
 10
122.13513261375379
 20
154.30583598245365
 11
127.09993532378709
 21
154.30583598246076
  0
LINE
  8
_0-3_A0
  6
CONTINUOUS
 62
    3
 10
96.199976277484566
 20
244.80583598258746
 11
96.199976277607476
 21
159.36934430916616
  0
LINE
  8
_0-3_A0
  6
CENTER
 62
    3
 10
99.949976277501605
 20
232.95792128218587
 11
99.949976277595496
 21
167.69818092203408
  0
LINE
  8
_0-3_A0
  6
CONTINUOUS
 62
    3
 10
101.1999762774774
 20
249.80583598259457
 11
96.199976277484552
 21
244.80583598258738
  0
LINE
  8
_0-3_A0
  6
CENTER
 62
    3
 10
94.655712898345072
 20
174.30583598231928
 11
103.4499762775859
 21
174.30583598233187
  0
LINE
  8
_0-3_A0
  6
CENTER
 62
    3
 10
94.476918425787133
 20
229.30583598231896
 11
103.4499762775067
 21
229.30583598233187
  0
LINE
  8
_0-3_A0
  6
CONTINUOUS
 62
    3
 10
101.19997627761439
 20
154.58960679975535
 11
101.19997627761449
 21
154.46744110561778
  0
LINE
  8
_0-3_A0
  6
CONTINUOUS
 62
    3
 10
96.199976277607476
 20
159.36934430916616
 11
101.19997627761439
 21
154.58960679975535
  0
LINE
  8
_0-3_A0
  6
CONTINUOUS
 62
    3
 10
96.199976277607476
 20
159.36934430916616
 11
101.19997627761449
 21
154.46744110561778
  0
LINE
  8
_0-3_A0
  6
DASHED
 62
    3
 10
109.94997627748658
 20
243.30583598234116
 11
109.9499762775323
 21
211.56864807722408
  0
LINE
  8
_0-3_A0
  6
CONTINUOUS
 62
    3
 10
109.9499762775322
 20
211.56864807722408
 11
109.94997627756039
 21
192.04302388745827
  0
CIRCLE
  8
_0-3_A0
  6
CONTINUOUS
 62
    3
 10
119.94997627748169
 20
246.80583598232158
 40
1.75
  0
LINE
  8
_0-3_A0
  6
CONTINUOUS
 62
    3
 10
119.69997627748169
 20
246.30583598232158
 11
119.44997627748169
 21
246.55583598232158
  0
LINE
  8
_0-3_A0
  6
CONTINUOUS
 62
    3
 10
119.44997627748169
 20
247.05583598232158
 11
119.69997627748169
 21
247.30583598232158
  0
LINE
  8
_0-3_A0
  6
CONTINUOUS
 62
    3
 10
120.9749762774817
 20
247.05583598232158
 11
120.9749762774817
 21
246.55583598232158
  0
LINE
  8
_0-3_A0
  6
CONTINUOUS
 62
    3
 10
120.19997627748169
 20
245.78083598232157
 11
119.69997627748169
 21
245.78083598232157
  0
LINE
  8
_0-3_A0
  6
CONTINUOUS
 62
    3
 10
118.9249762774817
 20
246.55583598232158
 11
118.9249762774817
 21
247.05583598232158
  0
LINE
  8
_0-3_A0
  6
CONTINUOUS
 62
    3
 10
119.69997627748169
 20
247.83083598232155
 11
120.19997627748169
 21
247.83083598232155
  0
LINE
  8
_0-3_A0
  6
CONTINUOUS
 62
    3
 10
120.9749762774817
 20
247.05583598232158
 11
120.44997627748169
 21
247.05583598232158
  0
LINE
  8
_0-3_A0
  6
CONTINUOUS
 62
    3
 10
120.9749762774817
 20
246.55583598232158
 11
120.44997627748169
 21
246.55583598232158
  0
LINE
  8
_0-3_A0
  6
CONTINUOUS
 62
    3
 10
120.19997627748169
 20
246.30583598232158
 11
120.19997627748169
 21
245.78083598232157
  0
LINE
  8
_0-3_A0
  6
CONTINUOUS
 62
    3
 10
119.69997627748169
 20
245.78083598232157
 11
119.69997627748169
 21
246.30583598232158
  0
LINE
  8
_0-3_A0
  6
CONTINUOUS
 62
    3
 10
118.9249762774817
 20
246.55583598232158
 11
119.44997627748169
 21
246.55583598232158
  0
LINE
  8
_0-3_A0
  6
CONTINUOUS
 62
    3
 10
119.44997627748169
 20
247.05583598232158
 11
118.9249762774817
 21
247.05583598232158
  0
LINE
  8
_0-3_A0
  6
CONTINUOUS
 62
    3
 10
119.69997627748169
 20
247.30583598232158
 11
119.69997627748169
 21
247.83083598232155
  0
LINE
  8
_0-3_A0
  6
CONTINUOUS
 62
    3
 10
120.19997627748169
 20
247.83083598232155
 11
120.19997627748169
 21
247.30583598232158
  0
LINE
  8
_0-3_A0
  6
CONTINUOUS
 62
    3
 10
120.44997627748169
 20
246.55583598232158
 11
120.19997627748169
 21
246.30583598232158
  0
LINE
  8
_0-3_A0
  6
CONTINUOUS
 62
    3
 10
120.19997627748169
 20
247.30583598232158
 11
120.44997627748169
 21
247.05583598232158
  0
POINT
  8
_0-3_A0
 62
    7
 10
127.97402957435919
 20
168.30583598217705
  0
LINE
  8
_0-3_A0
  6
DASHED
 62
    3
 10
109.9499762775946
 20
168.30583598217188
 11
127.97402957435919
 21
168.30583598217705
  0
LINE
  8
_0-3_A0
  6
CONTINUOUS
 62
    3
 10
127.97402957435919
 20
168.30583598217705
 11
130.24532574350939
 21
168.30583598217776
  0
LINE
  8
_0-3_A0
  6
HIDDEN
 62
    3
 10
139.94997627761441
 20
154.58960679974705
 11
127.94997627761441
 21
154.58960679974967
  0
LINE
  8
_0-3_A0
  6
CONTINUOUS
 62
    3
 10
127.94997627761441
 20
154.58960679974967
 11
101.19997627761439
 21
154.58960679975535
  0
LINE
  8
_0-3_A0
  6
CONTINUOUS
 62
    3
 10
127.94997627761459
 20
154.46460679967916
 11
101.19997627761459
 21
154.46460679969226
  0
LINE
  8
_0-3_A0
  6
HIDDEN
 62
    3
 10
139.9499762776146
 20
154.46460679967327
 11
127.94997627761459
 21
154.46460679967916
  0
LINE
  8
_0-3_A0
  6
DASHED
 62
    3
 10
109.94997627756039
 20
192.04302388745827
 11
109.94997627761449
 21
154.46460679968797
  0
LINE
  8
_0-3_A0
  6
CONTINUOUS
 62
    3
 10
109.94997627761449
 20
154.46460679968797
 11
109.9499762776183
 21
151.80583598244837
  0
LINE
  8
_0-3_A0
  6
DASHED
 62
    3
 10
103.44997627748439
 20
244.80583598260716
 11
103.4499762776053
 21
160.80583598246155
  0
LINE
  8
_0-3_A0
  6
CONTINUOUS
 62
    3
 10
191.44997627761838
 20
151.80583598257317
 11
191.44997627762001
 21
150.70583598257277
  0
ARC
  8
_0-3_A0
  6
CONTINUOUS
 62
    3
 10
191.04997627762
 20
150.70583598257218
 40
0.4
 50
270.00000000016495
 51
0.0000000001647654
  0
LINE
  8
_0-3_A0
  6
DASHED
 62
    3
 10
191.04997627761841
 20
151.80583598257217
 11
191.04997627762
 21
150.70583598257218
  0
LINE
  8
_0-3_A0
  6
CENTER
 62
    3
 10
169.94997627761279
 20
155.69251038523677
 11
169.9499762776175
 21
152.42171021367036
  0
LINE
  8
_0-3_A0
  6
HIDDEN
 62
    3
 10
184.94997627761838
 20
151.80583598255637
 11
184.94997627762001
 21
150.70583598255637
  0
LINE
  8
_0-3_A0
  6
DASHED
 62
    3
 10
186.4499762774775
 20
249.80583598271718
 11
191.44997627748469
 21
244.80583598273386
  0
LINE
  8
_0-3_A0
  6
CENTER
 62
    3
 10
178.67770110677778
 20
246.80583598241878
 11
170.20953169746348
 21
246.80583598237777
  0
LINE
  8
_0-3_A0
  6
CENTER
 62
    3
 10
174.94997627747488
 20
251.52394993373437
 11
174.94997627749
 21
241.00703532324428
  0
LINE
  8
_0-3_A0
  6
CONTINUOUS
 62
    3
 10
154.9499762776104
 20
157.30583598248017
 11
154.94997627761549
 21
153.80583598247838
  0
LINE
  8
_0-3_A0
  6
CONTINUOUS
 62
    3
 10
166.9499762776104
 20
157.30583598250785
 11
166.94997627761549
 21
153.80583598250956
  0
LINE
  8
_0-3_A0
  6
CONTINUOUS
 62
    3
 10
166.9499762776154
 20
153.80583598250947
 11
154.9499762776154
 21
153.80583598247838
  0
LINE
  8
_0-3_A0
  6
CONTINUOUS
 62
    3
 10
165.4499762776065
 20
158.80583598250558
 11
156.4499762776065
 21
158.80583598248227
  0
ARC
  8
_0-3_A0
  6
CONTINUOUS
 62
    3
 10
156.4499762776104
 20
157.30583598248236
 40
1.5
 50
90.00000000016486
 51
180.00000000016487
  0
ARC
  8
_0-3_A0
  6
CONTINUOUS
 62
    3
 10
165.4499762776104
 20
157.30583598250566
 40
1.5
 50
0.00000000016488
 51
90.000000000164874
  0
LINE
  8
_0-3_A0
  6
CONTINUOUS
 62
    3
 10
154.949976277615
 20
154.10583598247836
 11
153.449976277615
 21
154.10583598247447
  0
LINE
  8
_0-3_A0
  6
CONTINUOUS
 62
    3
 10
168.8999762772897
 20
154.10583598251466
 11
166.949976277615
 21
154.10583598250957
  0
LINE
  8
_0-3_A0
  6
CONTINUOUS
 62
    3
 10
153.44997627761509
 20
154.10583598247455
 11
153.4499762776183
 21
151.80583598247457
  0
LINE
  8
_0-3_A0
  6
HIDDEN
 62
    3
 10
153.4499762776183
 20
151.80583598247446
 11
153.44997627761981
 21
150.80583598247446
  0
ARC
  8
_0-3_A0
  6
CONTINUOUS
 62
    3
 10
169.9499762776148
 20
154.30583598251737
 40
1.05
 50
171.30292815593568
 51
180.0000000001649
  0
LINE
  8
_0-3_A0
  6
CONTINUOUS
 62
    3
 10
168.89997627728911
 20
154.30583598251436
 11
168.8999762772897
 21
154.10583598251466
  0
LINE
  8
_0-3_A0
  6
CONTINUOUS
 62
    3
 10
170.9999762775339
 20
154.46460679974887
 11
170.99997627754149
 21
151.80583598252007
  0
LINE
  8
_0-3_A0
  6
HIDDEN
 62
    3
 10
170.99997627754149
 20
151.80583598252007
 11
170.99997627754439
 21
150.80583598251996
  0
ARC
  8
_0-3_A0
  6
CONTINUOUS
 62
    3
 10
169.9499762776148
 20
154.30583598251737
 40
1
 50
170.8644427349466
 51
9.1355572654393881
  0
ARC
  8
_0-3_A0
  6
HIDDEN
 62
    3
 10
169.9499762776148
 20
154.30583598251737
 40
0.5999999999999997
 50
164.65574275653332
 51
15.344257243852325
  0
LINE
  8
_0-3_A0
  6
CENTER
 62
    3
 10
172.7648199414757
 20
154.30583598252647
 11
167.80001723144241
 21
154.30583598251928
  0
LINE
  8
_0-3_A0
  6
CENTER
 62
    3
 10
194.9499762775016
 20
232.95792128232255
 11
194.94997627759551
 21
167.69818092217076
  0
LINE
  8
_0-3_A0
  6
CONTINUOUS
 62
    3
 10
193.6999762774775
 20
249.80583598272778
 11
198.6999762774846
 21
244.80583598273497
  0
LINE
  8
_0-3_A0
  6
CENTER
 62
    3
 10
200.24423965682689
 20
174.30583598247116
 11
191.4499762775861
 21
174.30583598245857
  0
LINE
  8
_0-3_A0
  6
CENTER
 62
    3
 10
200.4230341292266
 20
229.30583598247147
 11
191.449976277507
 21
229.30583598245846
  0
LINE
  8
_0-3_A0
  6
CONTINUOUS
 62
    3
 10
193.69997627761429
 20
154.58960679988845
 11
193.69997627761449
 21
154.46744110575087
  0
LINE
  8
_0-3_A0
  6
CONTINUOUS
 62
    3
 10
198.69997627760739
 20
159.36934430931356
 11
193.69997627761429
 21
154.58960679988845
  0
LINE
  8
_0-3_A0
  6
CONTINUOUS
 62
    3
 10
198.6999762776075
 20
159.36934430931367
 11
193.69997627761449
 21
154.46744110575087
  0
LINE
  8
_0-3_A0
  6
DASHED
 62
    3
 10
184.94997627748691
 20
243.30583598244916
 11
184.94997627753249
 21
211.56864807733208
  0
LINE
  8
_0-3_A0
  6
CONTINUOUS
 62
    3
 10
184.94997627753249
 20
211.56864807733208
 11
184.9499762775606
 21
192.04302388756627
  0
CIRCLE
  8
_0-3_A0
  6
CONTINUOUS
 62
    3
 10
174.9499762774817
 20
246.80583598240067
 40
1.75
  0
LINE
  8
_0-3_A0
  6
CONTINUOUS
 62
    3
 10
175.19997627748318
 20
246.30583598240147
 11
175.4499762774825
 21
246.55583598240227
  0
LINE
  8
_0-3_A0
  6
CONTINUOUS
 62
    3
 10
175.44997627748099
 20
247.05583598240215
 11
175.19997627748028
 21
247.30583598240147
  0
LINE
  8
_0-3_A0
  6
CONTINUOUS
 62
    3
 10
173.92497627748099
 20
247.05583598239778
 11
173.92497627748238
 21
246.55583598239778
  0
LINE
  8
_0-3_A0
  6
CONTINUOUS
 62
    3
 10
174.6999762774846
 20
245.78083598239996
 11
175.1999762774846
 21
245.78083598240138
  0
LINE
  8
_0-3_A0
  6
CONTINUOUS
 62
    3
 10
175.97497627748239
 20
246.55583598240366
 11
175.974976277481
 21
247.05583598240366
  0
LINE
  8
_0-3_A0
  6
CONTINUOUS
 62
    3
 10
175.19997627747861
 20
247.83083598240136
 11
174.69997627747861
 21
247.83083598239997
  0
LINE
  8
_0-3_A0
  6
CONTINUOUS
 62
    3
 10
173.92497627748099
 20
247.05583598239778
 11
174.44997627748099
 21
247.05583598239925
  0
LINE
  8
_0-3_A0
  6
CONTINUOUS
 62
    3
 10
173.92497627748238
 20
246.55583598239778
 11
174.44997627748239
 21
246.55583598239925
  0
LINE
  8
_0-3_A0
  6
CONTINUOUS
 62
    3
 10
174.6999762774831
 20
246.30583598239996
 11
174.6999762774846
 21
245.78083598239996
  0
LINE
  8
_0-3_A0
  6
CONTINUOUS
 62
    3
 10
175.1999762774846
 20
245.78083598240138
 11
175.1999762774831
 21
246.30583598240147
  0
LINE
  8
_0-3_A0
  6
CONTINUOUS
 62
    3
 10
175.97497627748239
 20
246.55583598240366
 11
175.44997627748239
 21
246.55583598240227
  0
LINE
  8
_0-3_A0
  6
CONTINUOUS
 62
    3
 10
175.44997627748099
 20
247.05583598240215
 11
175.974976277481
 21
247.05583598240366
  0
LINE
  8
_0-3_A0
  6
CONTINUOUS
 62
    3
 10
175.1999762774802
 20
247.30583598240147
 11
175.19997627747861
 21
247.83083598240136
  0
LINE
  8
_0-3_A0
  6
CONTINUOUS
 62
    3
 10
174.69997627747861
 20
247.83083598239997
 11
174.6999762774802
 21
247.30583598239996
  0
LINE
  8
_0-3_A0
  6
CONTINUOUS
 62
    3
 10
174.4499762774825
 20
246.55583598239925
 11
174.69997627748318
 21
246.30583598240008
  0
LINE
  8
_0-3_A0
  6
CONTINUOUS
 62
    3
 10
174.69997627748028
 20
247.30583598240008
 11
174.44997627748099
 21
247.05583598239925
  0
POINT
  8
_0-3_A0
 62
    7
 10
166.9259229808301
 20
168.30583598223316
  0
LINE
  8
_0-3_A0
  6
DASHED
 62
    3
 10
184.9499762775946
 20
168.30583598227977
 11
166.92592298082999
 21
168.30583598223316
  0
LINE
  8
_0-3_A0
  6
CONTINUOUS
 62
    3
 10
166.9259229808301
 20
168.30583598223316
 11
164.65462681167988
 21
168.30583598222727
  0
LINE
  8
_0-3_A0
  6
HIDDEN
 62
    3
 10
154.94997627761429
 20
154.58960679976866
 11
166.94997627761429
 21
154.58960679980577
  0
LINE
  8
_0-3_A0
  6
CONTINUOUS
 62
    3
 10
166.94997627761429
 20
154.58960679980577
 11
193.69997627761429
 21
154.58960679988845
  0
LINE
  8
_0-3_A0
  6
CONTINUOUS
 62
    3
 10
166.94997627761449
 20
154.46460679973526
 11
193.69997627761449
 21
154.46460679982536
  0
LINE
  8
_0-3_A0
  6
HIDDEN
 62
    3
 10
154.94997627761449
 20
154.46460679969487
 11
166.94997627761449
 21
154.46460679973526
  0
LINE
  8
_0-3_A0
  6
DASHED
 62
    3
 10
184.9499762775606
 20
192.04302388756627
 11
184.9499762776146
 21
154.46460679979585
  0
LINE
  8
_0-3_A0
  6
CONTINUOUS
 62
    3
 10
184.9499762776146
 20
154.46460679979585
 11
184.94997627761838
 21
151.80583598255637
  0
LINE
  8
_0-3_A0
  6
CONTINUOUS
 62
    3
 10
101.1999762774774
 20
249.80583598259465
 11
193.69997627747738
 21
249.80583598272767
  0
LINE
  8
_0-3_A0
  6
DASHED
 62
    3
 10
103.44997627748648
 20
243.30583598233187
 11
191.44997627748691
 21
243.30583598245846
  0
CIRCLE
  8
_0-3_A0
  6
CONTINUOUS
 62
    3
 10
147.44997627754639
 20
201.80583598239516
 40
38.75
  0
ARC
  8
_0-3_A0
  6
CONTINUOUS
 62
    3
 10
147.44997627758451
 20
203.30583598218268
 40
39
 50
243.82304782848189
 51
296.17695217181477
  0
LINE
  8
_0-3_A0
  6
CONTINUOUS
 62
    3
 10
96.199976277607476
 20
159.36934430916616
 11
198.6999762776075
 21
159.36934430931367
  0
LINE
  8
_0-3_A0
  6
CONTINUOUS
 62
    3
 10
139.94997627761441
 20
154.58960679974705
 11
154.94997627761429
 21
154.58960679976866
  0
LINE
  8
_0-3_A0
  6
CONTINUOUS
 62
    3
 10
139.9499762776146
 20
154.46460679967336
 11
154.94997627761449
 21
154.46460679969487
  0
LINE
  8
_0-3_A0
  6
CONTINUOUS
 62
    3
 10
103.4499762776184
 20
151.80583598244658
 11
191.44997627761838
 21
151.80583598257317
  0
LINE
  8
_0-3_A0
  6
DASHED
 62
    3
 10
103.8499762776199
 20
150.70583598244667
 11
191.04997627762
 21
150.70583598257198
  0
LINE
  8
_0-3_A0
  6
CONTINUOUS
 62
    3
 10
103.8499762776201
 20
150.30583598244666
 11
191.04997627762099
 21
150.30583598257217
  0
LINE
  8
_0-3_A0
  6
CONTINUOUS
 62
    3
 10
96.199976277621246
 20
149.80583598243566
 11
198.6999762776212
 21
149.80583598258317
  0
LINE
  8
_0-3_A0
  6
CONTINUOUS
 62
    3
 10
96.199976277621956
 20
149.30583598243566
 11
198.69997627762188
 21
149.30583598258317
  0
LINE
  8
_0-3_A0
  6
CONTINUOUS
 62
    3
 10
96.199976277621246
 20
149.80583598243566
 11
96.199976277625594
 21
146.80583598243566
  0
LINE
  8
_0-3_A0
  6
CONTINUOUS
 62
    3
 10
198.6999762776212
 20
149.80583598258317
 11
198.69997627762549
 21
146.80583598258317
  0
LINE
  8
_0-3_A0
  6
CONTINUOUS
 62
    3
 10
198.6999762774846
 20
244.80583598273497
 11
198.6999762776075
 21
159.36934430931367
  0
LINE
  8
_0-3_A0
  6
CENTER
 62
    3
 10
99.949976277617196
 20
152.63527579970357
 11
99.949976277625893
 21
146.53577819146758
  0
LINE
  8
_0-3_A0
  6
CENTER
 62
    3
 10
106.44997627761658
 20
153.00188151816948
 11
106.44997627762738
 21
145.53186835191138
  0
LINE
  8
_0-3_A0
  6
CONTINUOUS
 62
    3
 10
107.8499762776228
 20
148.80583598251777
 11
105.0499762776228
 21
148.80583598251047
  0
ARC
  8
_0-3_A0
  6
CONTINUOUS
 62
    3
 10
108.3499762776228
 20
148.80583598251897
 40
0.5
 50
90.000000000164803
 51
180.00000000016487
  0
ARC
  8
_0-3_A0
  6
CONTINUOUS
 62
    3
 10
104.5499762776228
 20
148.80583598251348
 40
0.5
 50
359.99999999999977
 51
89.999999999999744
  0
ARC
  8
_0-3_A0
  6
CONTINUOUS
 62
    3
 10
106.44997627761989
 20
147.50583598245046
 40
4.5
 50
74.119149991494225
 51
105.88085000839679
  0
LINE
  8
_0-3_A0
  6
HIDDEN
 62
    3
 10
108.15100820817839
 20
151.26554357733186
 11
108.19997627761989
 21
150.70583598245048
  0
LINE
  8
_0-3_A0
  6
HIDDEN
 62
    3
 10
104.69997627761999
 20
150.70583598245048
 11
104.7489443470626
 21
151.26554357734465
  0
LINE
  8
_0-3_A0
  6
CONTINUOUS
 62
    3
 10
107.44997627761989
 20
148.80583598251666
 11
107.44997627761989
 21
146.90583598245038
  0
LINE
  8
_0-3_A0
  6
CONTINUOUS
 62
    3
 10
105.44997627761989
 20
148.80583598251146
 11
105.44997627761989
 21
146.90583598245038
  0
LINE
  8
_0-3_A0
  6
CONTINUOUS
 62
    3
 10
107.24997627761989
 20
146.70583598245036
 11
105.64997627761998
 21
146.70583598245036
  0
LINE
  8
_0-3_A0
  6
CONTINUOUS
 62
    3
 10
107.24997627761989
 20
148.80583598251618
 11
107.24997627761989
 21
146.70583598245036
  0
LINE
  8
_0-3_A0
  6
CONTINUOUS
 62
    3
 10
105.64997627761998
 20
148.80583598251197
 11
105.64997627761998
 21
146.70583598245036
  0
LINE
  8
_0-3_A0
  6
CONTINUOUS
 62
    3
 10
107.44997627761989
 20
146.90583598245038
 11
105.44997627761989
 21
146.90583598245038
  0
LINE
  8
_0-3_A0
  6
CONTINUOUS
 62
    3
 10
107.44997627761989
 20
146.90583598245046
 11
107.24997627761999
 21
146.70583598245036
  0
LINE
  8
_0-3_A0
  6
CONTINUOUS
 62
    3
 10
105.44997627761989
 20
146.90583598245046
 11
105.64997627761988
 21
146.70583598245036
  0
ARC
  8
_0-3_A0
  6
HIDDEN
 62
    3
 10
107.5034816544188
 20
151.20889234454597
 40
0.65
 50
4.999999999993328
 51
66.689637425092612
  0
ARC
  8
_0-3_A0
  6
CONTINUOUS
 62
    3
 10
107.5034816544188
 20
151.20889234454597
 40
0.65
 50
66.689637425092612
 51
74.119149991569358
  0
ARC
  8
_0-3_A0
  6
CONTINUOUS
 62
    3
 10
105.39647090082219
 20
151.20889234455856
 40
0.65
 50
105.88085000835579
 51
113.31036257806198
  0
ARC
  8
_0-3_A0
  6
HIDDEN
 62
    3
 10
105.39647090082219
 20
151.20889234455856
 40
0.65
 50
113.31036257806198
 51
174.99999999999263
  0
LINE
  8
_0-3_A0
  6
CENTER
 62
    3
 10
188.44997627761659
 20
153.00188151828746
 11
188.44997627762728
 21
145.53186835202936
  0
LINE
  8
_0-3_A0
  6
CONTINUOUS
 62
    3
 10
187.0499762776225
 20
148.80583598263166
 11
189.8499762776226
 21
148.80583598263245
  0
ARC
  8
_0-3_A0
  6
CONTINUOUS
 62
    3
 10
186.54997627762259
 20
148.80583598263146
 40
0.5
 50
0.0000000000000254
 51
90.000000000000014
  0
ARC
  8
_0-3_A0
  6
CONTINUOUS
 62
    3
 10
190.3499762776226
 20
148.80583598263697
 40
0.5
 50
90.00000000016486
 51
180.00000000016487
  0
ARC
  8
_0-3_A0
  6
CONTINUOUS
 62
    3
 10
188.4499762776291
 20
147.50583598256847
 40
4.5
 50
74.119149991768068
 51
105.8808500086706
  0
LINE
  8
_0-3_A0
  6
HIDDEN
 62
    3
 10
186.7489443470599
 20
151.26554357744495
 11
186.69997627762001
 21
150.70583598256337
  0
LINE
  8
_0-3_A0
  6
HIDDEN
 62
    3
 10
190.19997627762001
 20
150.70583598257357
 11
190.15100820817571
 21
151.26554357746746
  0
LINE
  8
_0-3_A0
  6
CONTINUOUS
 62
    3
 10
187.44997627762541
 20
148.80583598263177
 11
187.44997627763089
 21
146.90583598256557
  0
LINE
  8
_0-3_A0
  6
CONTINUOUS
 62
    3
 10
189.44997627762529
 20
148.80583598263226
 11
189.44997627763089
 21
146.90583598257126
  0
LINE
  8
_0-3_A0
  6
CONTINUOUS
 62
    3
 10
187.6499762776315
 20
146.70583598256607
 11
189.2499762776315
 21
146.70583598257067
  0
LINE
  8
_0-3_A0
  6
CONTINUOUS
 62
    3
 10
187.64997627762539
 20
148.80583598263177
 11
187.6499762776315
 21
146.70583598256607
  0
LINE
  8
_0-3_A0
  6
CONTINUOUS
 62
    3
 10
189.24997627762539
 20
148.80583598263226
 11
189.2499762776315
 21
146.70583598257067
  0
LINE
  8
_0-3_A0
  6
CONTINUOUS
 62
    3
 10
187.44997627763089
 20
146.90583598256557
 11
189.44997627763089
 21
146.90583598257126
  0
LINE
  8
_0-3_A0
  6
CONTINUOUS
 62
    3
 10
187.44997627763089
 20
146.90583598256557
 11
187.64997627763139
 21
146.70583598256607
  0
LINE
  8
_0-3_A0
  6
CONTINUOUS
 62
    3
 10
189.44997627763089
 20
146.90583598257126
 11
189.2499762776315
 21
146.70583598257067
  0
ARC
  8
_0-3_A0
  6
HIDDEN
 62
    3
 10
187.39647090081959
 20
151.20889234466088
 40
0.65
 50
113.31036257507219
 51
175.00000000017149
  0
ARC
  8
_0-3_A0
  6
CONTINUOUS
 62
    3
 10
187.39647090081959
 20
151.20889234466088
 40
0.65
 50
105.8808500085955
 51
113.3103625750722
  0
ARC
  8
_0-3_A0
  6
CONTINUOUS
 62
    3
 10
189.50348165441619
 20
151.20889234467958
 40
0.65
 50
66.689637422102876
 51
74.11914999180901
  0
ARC
  8
_0-3_A0
  6
HIDDEN
 62
    3
 10
189.50348165441619
 20
151.20889234467958
 40
0.65
 50
5.0000000001721254
 51
66.68963742210289
  0
LINE
  8
_0-3_A0
  6
CENTER
 62
    3
 10
194.94997627761719
 20
152.63527579984017
 11
194.94997627762589
 21
146.53577819160426
  0
LINE
  8
_0-3_A0
  6
CENTER
 62
    3
 10
147.4499762777383
 20
18.174907830643093
 11
147.44997627744569
 21
273.96381843535596
  0
LINE
  8
_0-3_A0
  6
CENTER
 62
    3
 10
92.440997023873762
 20
201.80583598231606
 11
200.16431639998148
 21
201.80583598247096
  0
LINE
  8
_0-3_A0
  6
CENTER
 62
    3
 10
205.5429816170733
 20
201.80583598247878
 11
211.459505148683
 21
201.80583598248728
  0
LINE
  8
_0-3_A0
  6
CONTINUOUS
 62
    3
 10
96.19997627762558
 20
146.80583598243566
 11
198.69997627762549
 21
146.80583598258317
  0
CIRCLE
  8
_0-3_A0
  6
CONTINUOUS
 62
    3
 10
99.949976277506905
 20
229.30583598232678
 40
2.35
  0
CIRCLE
  8
_0-3_A0
  6
CONTINUOUS
 62
    3
 10
99.949976277506905
 20
229.30583598232678
 40
2.35
  0
POINT
  8
_0-3_A0
 62
    3
 10
99.949976277506905
 20
229.30583598232678
  0
LINE
  8
_0-3_A0
  6
CONTINUOUS
 62
    3
 10
100.9999762775069
 20
229.60583598232688
 11
100.9999762775069
 21
229.00583598232688
  0
LINE
  8
_0-3_A0
  6
CONTINUOUS
 62
    3
 10
98.899976277506894
 20
229.60583598232688
 11
98.899976277506894
 21
229.00583598232688
  0
LINE
  8
_0-3_A0
  6
CONTINUOUS
 62
    3
 10
99.649976277506894
 20
230.35583598232688
 11
100.2499762775069
 21
230.35583598232688
  0
LINE
  8
_0-3_A0
  6
CONTINUOUS
 62
    3
 10
99.649976277506894
 20
228.25583598232677
 11
100.2499762775069
 21
228.25583598232677
  0
LINE
  8
_0-3_A0
  6
CONTINUOUS
 62
    3
 10
100.2499762775069
 20
228.50583598232677
 11
100.2499762775069
 21
228.25583598232677
  0
LINE
  8
_0-3_A0
  6
CONTINUOUS
 62
    3
 10
100.2499762775069
 20
230.35583598232688
 11
100.2499762775069
 21
230.10583598232688
  0
LINE
  8
_0-3_A0
  6
CONTINUOUS
 62
    3
 10
98.899976277506894
 20
229.60583598232688
 11
99.149976277506894
 21
229.60583598232688
  0
LINE
  8
_0-3_A0
  6
CONTINUOUS
 62
    3
 10
100.7499762775069
 20
229.60583598232688
 11
100.9999762775069
 21
229.60583598232688
  0
LINE
  8
_0-3_A0
  6
CONTINUOUS
 62
    3
 10
98.899976277506894
 20
229.00583598232677
 11
99.149976277506894
 21
229.00583598232677
  0
LINE
  8
_0-3_A0
  6
CONTINUOUS
 62
    3
 10
100.7499762775069
 20
229.00583598232677
 11
100.9999762775069
 21
229.00583598232677
  0
LINE
  8
_0-3_A0
  6
CONTINUOUS
 62
    3
 10
99.649976277506894
 20
228.50583598232677
 11
99.649976277506894
 21
228.25583598232677
  0
LINE
  8
_0-3_A0
  6
CONTINUOUS
 62
    3
 10
99.649976277506894
 20
230.35583598232688
 11
99.649976277506894
 21
230.10583598232688
  0
ARC
  8
_0-3_A0
  6
CONTINUOUS
 62
    3
 10
100.7499762775069
 20
230.10583598232688
 40
0.5
 50
179.99999999999639
 51
269.99999999999482
  0
ARC
  8
_0-3_A0
  6
CONTINUOUS
 62
    3
 10
100.7499762775069
 20
228.50583598232677
 40
0.5
 50
89.999999999425526
 51
179.99999999999639
  0
ARC
  8
_0-3_A0
  6
CONTINUOUS
 62
    3
 10
99.149976277506894
 20
228.50583598232677
 40
0.5
 50
0
 51
89.999999999425526
  0
ARC
  8
_0-3_A0
  6
CONTINUOUS
 62
    3
 10
99.149976277506894
 20
230.10583598232688
 40
0.5
 50
269.99999999999488
 51
359.99999999999329
  0
CIRCLE
  8
_0-3_A0
  6
CONTINUOUS
 62
    3
 10
99.949976277586003
 20
174.30583598232686
 40
2.35
  0
CIRCLE
  8
_0-3_A0
  6
CONTINUOUS
 62
    3
 10
99.949976277586003
 20
174.30583598232686
 40
2.35
  0
POINT
  8
_0-3_A0
 62
    3
 10
99.949976277586003
 20
174.30583598232686
  0
LINE
  8
_0-3_A0
  6
CONTINUOUS
 62
    3
 10
100.999976277586
 20
174.60583598232676
 11
100.999976277586
 21
174.00583598232688
  0
LINE
  8
_0-3_A0
  6
CONTINUOUS
 62
    3
 10
98.899976277586006
 20
174.60583598232676
 11
98.899976277586006
 21
174.00583598232688
  0
LINE
  8
_0-3_A0
  6
CONTINUOUS
 62
    3
 10
99.649976277586006
 20
175.35583598232688
 11
100.249976277586
 21
175.35583598232688
  0
LINE
  8
_0-3_A0
  6
CONTINUOUS
 62
    3
 10
99.649976277586006
 20
173.25583598232688
 11
100.249976277586
 21
173.25583598232688
  0
LINE
  8
_0-3_A0
  6
CONTINUOUS
 62
    3
 10
100.249976277586
 20
173.50583598232688
 11
100.249976277586
 21
173.25583598232688
  0
LINE
  8
_0-3_A0
  6
CONTINUOUS
 62
    3
 10
100.249976277586
 20
175.35583598232688
 11
100.249976277586
 21
175.10583598232688
  0
LINE
  8
_0-3_A0
  6
CONTINUOUS
 62
    3
 10
98.899976277586006
 20
174.60583598232676
 11
99.149976277586006
 21
174.60583598232676
  0
LINE
  8
_0-3_A0
  6
CONTINUOUS
 62
    3
 10
100.749976277586
 20
174.60583598232676
 11
100.999976277586
 21
174.60583598232676
  0
LINE
  8
_0-3_A0
  6
CONTINUOUS
 62
    3
 10
98.899976277586006
 20
174.00583598232688
 11
99.149976277586006
 21
174.00583598232688
  0
LINE
  8
_0-3_A0
  6
CONTINUOUS
 62
    3
 10
100.749976277586
 20
174.00583598232688
 11
100.999976277586
 21
174.00583598232688
  0
LINE
  8
_0-3_A0
  6
CONTINUOUS
 62
    3
 10
99.649976277586006
 20
173.50583598232688
 11
99.649976277586006
 21
173.25583598232688
  0
LINE
  8
_0-3_A0
  6
CONTINUOUS
 62
    3
 10
99.649976277586006
 20
175.35583598232688
 11
99.649976277586006
 21
175.10583598232688
  0
ARC
  8
_0-3_A0
  6
CONTINUOUS
 62
    3
 10
100.749976277586
 20
175.10583598232688
 40
0.5
 50
179.99999999999639
 51
269.99999999999482
  0
ARC
  8
_0-3_A0
  6
CONTINUOUS
 62
    3
 10
100.749976277586
 20
173.50583598232688
 40
0.5
 50
89.999999999425526
 51
179.99999999999639
  0
ARC
  8
_0-3_A0
  6
CONTINUOUS
 62
    3
 10
99.149976277586006
 20
173.50583598232688
 40
0.5
 50
0
 51
89.999999999425526
  0
ARC
  8
_0-3_A0
  6
CONTINUOUS
 62
    3
 10
99.149976277586006
 20
175.10583598232688
 40
0.5
 50
269.99999999999488
 51
359.99999999999329
  0
CIRCLE
  8
_0-3_A0
  6
CONTINUOUS
 62
    3
 10
194.94997627758598
 20
174.30583598246357
 40
2.35
  0
CIRCLE
  8
_0-3_A0
  6
CONTINUOUS
 62
    3
 10
194.94997627758598
 20
174.30583598246357
 40
2.35
  0
POINT
  8
_0-3_A0
 62
    3
 10
194.94997627758598
 20
174.30583598246357
  0
LINE
  8
_0-3_A0
  6
CONTINUOUS
 62
    3
 10
195.999976277586
 20
174.60583598246347
 11
195.999976277586
 21
174.00583598246348
  0
LINE
  8
_0-3_A0
  6
CONTINUOUS
 62
    3
 10
193.89997627758589
 20
174.60583598246347
 11
193.89997627758589
 21
174.00583598246348
  0
LINE
  8
_0-3_A0
  6
CONTINUOUS
 62
    3
 10
194.649976277586
 20
175.35583598246347
 11
195.24997627758588
 21
175.35583598246347
  0
LINE
  8
_0-3_A0
  6
CONTINUOUS
 62
    3
 10
194.649976277586
 20
173.25583598246348
 11
195.24997627758588
 21
173.25583598246348
  0
LINE
  8
_0-3_A0
  6
CONTINUOUS
 62
    3
 10
195.24997627758588
 20
173.50583598246348
 11
195.24997627758588
 21
173.25583598246348
  0
LINE
  8
_0-3_A0
  6
CONTINUOUS
 62
    3
 10
195.24997627758588
 20
175.35583598246347
 11
195.24997627758588
 21
175.10583598246347
  0
LINE
  8
_0-3_A0
  6
CONTINUOUS
 62
    3
 10
193.89997627758589
 20
174.60583598246347
 11
194.149976277586
 21
174.60583598246347
  0
LINE
  8
_0-3_A0
  6
CONTINUOUS
 62
    3
 10
195.749976277586
 20
174.60583598246347
 11
195.999976277586
 21
174.60583598246347
  0
LINE
  8
_0-3_A0
  6
CONTINUOUS
 62
    3
 10
193.89997627758589
 20
174.00583598246348
 11
194.149976277586
 21
174.00583598246348
  0
LINE
  8
_0-3_A0
  6
CONTINUOUS
 62
    3
 10
195.749976277586
 20
174.00583598246348
 11
195.999976277586
 21
174.00583598246348
  0
LINE
  8
_0-3_A0
  6
CONTINUOUS
 62
    3
 10
194.649976277586
 20
173.50583598246348
 11
194.649976277586
 21
173.25583598246348
  0
LINE
  8
_0-3_A0
  6
CONTINUOUS
 62
    3
 10
194.649976277586
 20
175.35583598246347
 11
194.649976277586
 21
175.10583598246347
  0
ARC
  8
_0-3_A0
  6
CONTINUOUS
 62
    3
 10
195.749976277586
 20
175.10583598246347
 40
0.5
 50
179.99999999999639
 51
269.99999999999482
  0
ARC
  8
_0-3_A0
  6
CONTINUOUS
 62
    3
 10
195.749976277586
 20
173.50583598246348
 40
0.5
 50
89.999999999425526
 51
179.99999999999639
  0
ARC
  8
_0-3_A0
  6
CONTINUOUS
 62
    3
 10
194.149976277586
 20
173.50583598246348
 40
0.5
 50
0
 51
89.999999999425526
  0
ARC
  8
_0-3_A0
  6
CONTINUOUS
 62
    3
 10
194.149976277586
 20
175.10583598246347
 40
0.5
 50
269.99999999999488
 51
359.99999999999329
  0
CIRCLE
  8
_0-3_A0
  6
CONTINUOUS
 62
    3
 10
194.94997627750689
 20
229.30583598246357
 40
2.35
  0
CIRCLE
  8
_0-3_A0
  6
CONTINUOUS
 62
    3
 10
194.94997627750689
 20
229.30583598246357
 40
2.35
  0
POINT
  8
_0-3_A0
 62
    3
 10
194.94997627750689
 20
229.30583598246357
  0
LINE
  8
_0-3_A0
  6
CONTINUOUS
 62
    3
 10
195.9999762775069
 20
229.60583598246356
 11
195.9999762775069
 21
229.00583598246348
  0
LINE
  8
_0-3_A0
  6
CONTINUOUS
 62
    3
 10
193.8999762775069
 20
229.60583598246356
 11
193.8999762775069
 21
229.00583598246348
  0
LINE
  8
_0-3_A0
  6
CONTINUOUS
 62
    3
 10
194.6499762775069
 20
230.35583598246356
 11
195.2499762775069
 21
230.35583598246356
  0
LINE
  8
_0-3_A0
  6
CONTINUOUS
 62
    3
 10
194.6499762775069
 20
228.25583598246348
 11
195.2499762775069
 21
228.25583598246348
  0
LINE
  8
_0-3_A0
  6
CONTINUOUS
 62
    3
 10
195.2499762775069
 20
228.50583598246348
 11
195.2499762775069
 21
228.25583598246348
  0
LINE
  8
_0-3_A0
  6
CONTINUOUS
 62
    3
 10
195.2499762775069
 20
230.35583598246356
 11
195.2499762775069
 21
230.10583598246356
  0
LINE
  8
_0-3_A0
  6
CONTINUOUS
 62
    3
 10
193.8999762775069
 20
229.60583598246356
 11
194.1499762775069
 21
229.60583598246356
  0
LINE
  8
_0-3_A0
  6
CONTINUOUS
 62
    3
 10
195.7499762775069
 20
229.60583598246356
 11
195.9999762775069
 21
229.60583598246356
  0
LINE
  8
_0-3_A0
  6
CONTINUOUS
 62
    3
 10
193.8999762775069
 20
229.00583598246348
 11
194.1499762775069
 21
229.00583598246348
  0
LINE
  8
_0-3_A0
  6
CONTINUOUS
 62
    3
 10
195.7499762775069
 20
229.00583598246348
 11
195.9999762775069
 21
229.00583598246348
  0
LINE
  8
_0-3_A0
  6
CONTINUOUS
 62
    3
 10
194.6499762775069
 20
228.50583598246348
 11
194.6499762775069
 21
228.25583598246348
  0
LINE
  8
_0-3_A0
  6
CONTINUOUS
 62
    3
 10
194.6499762775069
 20
230.35583598246356
 11
194.6499762775069
 21
230.10583598246356
  0
ARC
  8
_0-3_A0
  6
CONTINUOUS
 62
    3
 10
195.7499762775069
 20
230.10583598246356
 40
0.5
 50
179.99999999999639
 51
269.99999999999482
  0
ARC
  8
_0-3_A0
  6
CONTINUOUS
 62
    3
 10
195.7499762775069
 20
228.50583598246348
 40
0.5
 50
89.999999999425526
 51
179.99999999999639
  0
ARC
  8
_0-3_A0
  6
CONTINUOUS
 62
    3
 10
194.1499762775069
 20
228.50583598246348
 40
0.5
 50
0
 51
89.999999999425526
  0
ARC
  8
_0-3_A0
  6
CONTINUOUS
 62
    3
 10
194.1499762775069
 20
230.10583598246356
 40
0.5
 50
269.99999999999488
 51
359.99999999999329
  0
LINE
  8
_0-3_A0
  6
CONTINUOUS
 62
    3
 10
329.96935730916288
 20
150.30583598254307
 11
242.76935730916289
 21
150.30583598231666
  0
LINE
  8
_0-3_A0
  6
CONTINUOUS
 62
    3
 10
330.36935730916019
 20
151.80583598254398
 11
242.36935730916019
 21
151.80583598231558
  0
LINE
  8
_0-3_A0
  6
CONTINUOUS
 62
    3
 10
242.3693573091605
 20
151.80583598231567
 11
242.36935730916209
 21
150.70583598231615
  0
LINE
  8
_0-3_A0
  6
CONTINUOUS
 62
    3
 10
330.36935730916042
 20
151.80583598254398
 11
330.36935730916201
 21
150.70583598254367
  0
LINE
  8
_0-3_A0
  6
DASHED
 62
    3
 10
242.76935730916051
 20
151.80583598231677
 11
242.7693573091621
 21
150.70583598231678
  0
LINE
  8
_0-3_A0
  6
DASHED
 62
    3
 10
329.96935730916197
 20
150.70583598254296
 11
242.7693573091619
 21
150.70583598231667
  0
ARC
  8
_0-3_A0
  6
CONTINUOUS
 62
    3
 10
242.7693573091619
 20
150.70583598231667
 40
0.4
 50
180.0000000001649
 51
270.0000000001649
  0
ARC
  8
_0-3_A0
  6
CONTINUOUS
 62
    3
 10
329.9693573091618
 20
150.70583598254296
 40
0.4
 50
270.00000000016495
 51
0.0000000001647654
  0
LINE
  8
_0-3_A0
  6
DASHED
 62
    3
 10
329.96935730916038
 20
151.80583598254307
 11
329.96935730916197
 21
150.70583598254296
  0
LINE
  8
_0-3_A0
  6
HIDDEN
 62
    3
 10
324.16935730871551
 20
150.80583598252786
 11
253.5693573091616
 21
150.80583598234466
  0
LINE
  8
_0-3_A0
  6
HIDDEN
 62
    3
 10
253.56935730916018
 20
151.80583598233178
 11
253.5693573091616
 21
150.80583598233178
  0
LINE
  8
_0-3_A0
  6
HIDDEN
 62
    3
 10
253.86935730916047
 20
151.80583598233258
 11
253.86935730916212
 21
150.70583598233255
  0
LINE
  8
_0-3_A0
  6
CONTINUOUS
 62
    3
 10
254.36935730904127
 20
234.50583598233387
 11
254.3693573090448
 21
232.10583598233375
  0
ARC
  8
_0-3_A0
  6
CONTINUOUS
 62
    3
 10
254.36935730904048
 20
235.00583598233376
 40
0.5
 50
180.0000000001649
 51
270.0000000001649
  0
ARC
  8
_0-3_A0
  6
CONTINUOUS
 62
    3
 10
254.36935730904929
 20
231.60583598233375
 40
0.5
 50
90.000000000132715
 51
180.00000000013258
  0
LINE
  8
_0-3_A0
  6
CONTINUOUS
 62
    3
 10
254.36935730912051
 20
179.50583598233376
 11
254.36935730912398
 21
177.10583598233375
  0
ARC
  8
_0-3_A0
  6
CONTINUOUS
 62
    3
 10
254.36935730911977
 20
180.00583598233376
 40
0.5
 50
180.0000000001649
 51
270.0000000001649
  0
ARC
  8
_0-3_A0
  6
CONTINUOUS
 62
    3
 10
254.3693573091287
 20
176.60583598233367
 40
0.5
 50
90.000000000132715
 51
180.00000000013258
  0
LINE
  8
_0-3_A0
  6
CONTINUOUS
 62
    3
 10
253.56935730915699
 20
154.10583598206497
 11
251.81935730915699
 21
154.10583598205985
  0
LINE
  8
_0-3_A0
  6
CONTINUOUS
 62
    3
 10
253.56935730915739
 20
153.80583598206487
 11
251.81935730915779
 21
153.80583598205987
  0
LINE
  8
_0-3_A0
  6
CONTINUOUS
 62
    3
 10
251.81935730915009
 20
158.80583598205996
 11
251.81935730915691
 21
154.10583598205997
  0
LINE
  8
_0-3_A0
  6
CONTINUOUS
 62
    3
 10
251.51935730915019
 20
158.80583598205916
 11
251.5193573091569
 21
154.10583598205957
  0
LINE
  8
_0-3_A0
  6
CONTINUOUS
 62
    3
 10
251.81935730915029
 20
158.80583598205996
 11
251.5193573091503
 21
158.80583598205907
  0
ARC
  8
_0-3_A0
  6
CONTINUOUS
 62
    3
 10
251.81935730915711
 20
154.10583598205985
 40
0.2999999999999998
 50
180.0000000001649
 51
270.0000000001649
  0
LINE
  8
_0-3_A0
  6
CENTER
 62
    3
 10
257.86436003897608
 20
246.80583598222247
 11
249.8552231912898
 21
246.80583598219948
  0
LINE
  8
_0-3_A0
  6
CONTINUOUS
 62
    3
 10
252.56935730901909
 20
249.80583598233016
 11
252.56935730914941
 21
159.34027133965867
  0
LINE
  8
_0-3_A0
  6
CONTINUOUS
 62
    3
 10
253.06935730901921
 20
249.80583598233027
 11
252.56935730901921
 21
249.80583598232897
  0
ARC
  8
_0-3_A0
  6
CONTINUOUS
 62
    3
 10
255.76935730902357
 20
246.80583598221656
 40
4.5
 50
164.11914999176801
 51
195.88085000867059
  0
LINE
  8
_0-3_A0
  6
CONTINUOUS
 62
    3
 10
252.009649714147
 20
245.10480405164716
 11
252.5693573090285
 21
245.05583598220727
  0
LINE
  8
_0-3_A0
  6
CONTINUOUS
 62
    3
 10
252.56935730901849
 20
248.55583598220738
 11
252.00964971412449
 21
248.50686791276308
  0
ARC
  8
_0-3_A0
  6
CONTINUOUS
 62
    3
 10
252.06630094693099
 20
245.75233060540708
 40
0.65
 50
195.8808500085955
 51
265.00000000017149
  0
ARC
  8
_0-3_A0
  6
CONTINUOUS
 62
    3
 10
252.0663009469124
 20
247.85934135900367
 40
0.65
 50
95.000000000172136
 51
164.11914999180899
  0
LINE
  8
_0-3_A0
  6
CONTINUOUS
 62
    3
 10
254.25935730901778
 20
245.80583598221215
 11
256.36935730902632
 21
245.80583598221826
  0
LINE
  8
_0-3_A0
  6
CONTINUOUS
 62
    3
 10
254.25935730902921
 20
247.80583598221215
 11
256.36935730902047
 21
247.80583598221826
  0
LINE
  8
_0-3_A0
  6
CONTINUOUS
 62
    3
 10
256.5693573090258
 20
246.00583598221888
 11
256.56935730902119
 21
247.60583598221887
  0
LINE
  8
_0-3_A0
  6
CONTINUOUS
 62
    3
 10
254.25935730901898
 20
246.00583598221217
 11
256.5693573090258
 21
246.00583598221888
  0
LINE
  8
_0-3_A0
  6
CONTINUOUS
 62
    3
 10
254.25935730902801
 20
247.60583598221228
 11
256.56935730902119
 21
247.60583598221896
  0
LINE
  8
_0-3_A0
  6
CONTINUOUS
 62
    3
 10
256.36935730902632
 20
245.80583598221818
 11
256.36935730902058
 21
247.80583598221818
  0
LINE
  8
_0-3_A0
  6
CONTINUOUS
 62
    3
 10
256.36935730902649
 20
245.80583598221838
 11
256.56935730902591
 21
246.00583598221888
  0
LINE
  8
_0-3_A0
  6
CONTINUOUS
 62
    3
 10
256.36935730902058
 20
247.80583598221826
 11
256.56935730902119
 21
247.60583598221887
  0
LINE
  8
_0-3_A0
  6
CONTINUOUS
 62
    3
 10
252.5693573090285
 20
245.05583598220727
 11
252.56935730901838
 21
248.55583598220727
  0
LINE
  8
_0-3_A0
  6
CENTER
 62
    3
 10
258.86935730915871
 20
153.00188151807756
 11
258.86935730916951
 21
145.53186835181946
  0
LINE
  8
_0-3_A0
  6
CENTER
 62
    3
 10
313.86935730915888
 20
152.82411318895807
 11
313.86935730916917
 21
145.60864973828617
  0
LINE
  8
_0-3_A0
  6
CONTINUOUS
 62
    3
 10
243.8693573092658
 20
149.80583598231947
 11
243.8693573092745
 21
146.80583598231956
  0
LINE
  8
_0-3_A0
  6
CONTINUOUS
 62
    3
 10
328.86935730912409
 20
149.80583598254017
 11
328.86935730913228
 21
146.80583598254017
  0
LINE
  8
_0-3_A0
  6
CONTINUOUS
 62
    3
 10
328.86935730912421
 20
149.80583598254017
 11
243.86935730926569
 21
149.80583598231956
  0
LINE
  8
_0-3_A0
  6
CONTINUOUS
 62
    3
 10
328.86935730912551
 20
149.30583598254017
 11
243.86935730926708
 21
149.30583598231956
  0
LINE
  8
_0-3_A0
  6
CENTER
 62
    3
 10
258.14661865143932
 20
229.30583598253298
 11
249.4970756260534
 21
229.30583598250808
  0
LINE
  8
_0-3_A0
  6
CENTER
 62
    3
 10
258.70542344156547
 20
174.30583598219436
 11
250.0292037254442
 21
174.30583598217896
  0
ARC
  8
_0-3_A0
  6
CONTINUOUS
 62
    3
 10
253.56935730904598
 20
231.20583598251965
 40
0.5
 50
180.0000000001649
 51
270.0000000001649
  0
ARC
  8
_0-3_A0
  6
CONTINUOUS
 62
    3
 10
253.56935730905712
 20
227.40583598251976
 40
0.5
 50
90.000000000165215
 51
180.00000000016518
  0
ARC
  8
_0-3_A0
  6
CONTINUOUS
 62
    3
 10
253.56935730912528
 20
176.20583598218516
 40
0.5
 50
180.0000000001649
 51
270.0000000001649
  0
ARC
  8
_0-3_A0
  6
CONTINUOUS
 62
    3
 10
253.56935730913198
 20
172.40583598218526
 40
0.5
 50
90.000000000037701
 51
180.00000000003751
  0
LINE
  8
_0-3_A0
  6
CONTINUOUS
 62
    3
 10
253.06935730914949
 20
159.30583598192606
 11
252.38390139222659
 21
154.35304382175937
  0
LINE
  8
_0-3_A0
  6
CONTINUOUS
 62
    3
 10
252.56935730914949
 20
159.34027133965878
 11
251.88862217616889
 21
154.42158941345746
  0
LINE
  8
_0-3_A0
  6
CONTINUOUS
 62
    3
 10
251.8886221763559
 20
154.42158941480846
 11
252.38390139241369
 21
154.35304382311048
  0
LINE
  8
_0-3_A0
  6
CONTINUOUS
 62
    3
 10
315.2693573091646
 20
148.80583598250487
 11
312.4693573091647
 21
148.80583598249768
  0
ARC
  8
_0-3_A0
  6
CONTINUOUS
 62
    3
 10
315.76935730916471
 20
148.80583598250618
 40
0.5
 50
90.000000000164845
 51
180.0000000001649
  0
ARC
  8
_0-3_A0
  6
CONTINUOUS
 62
    3
 10
311.96935730916459
 20
148.80583598250066
 40
0.5
 50
0
 51
90
  0
LINE
  8
_0-3_A0
  6
CONTINUOUS
 62
    3
 10
257.46935730916447
 20
148.80583598242168
 11
260.2693573091646
 21
148.80583598242247
  0
ARC
  8
_0-3_A0
  6
CONTINUOUS
 62
    3
 10
256.9693573091647
 20
148.80583598242156
 40
0.5
 50
0.0000000000000254
 51
90.000000000000014
  0
ARC
  8
_0-3_A0
  6
CONTINUOUS
 62
    3
 10
260.76935730916471
 20
148.80583598242697
 40
0.5
 50
90.00000000016486
 51
180.00000000016487
  0
ARC
  8
_0-3_A0
  6
CONTINUOUS
 62
    3
 10
313.86935730917122
 20
147.50583598250116
 40
4.5
 50
74.119149991768068
 51
105.8808500086706
  0
LINE
  8
_0-3_A0
  6
HIDDEN
 62
    3
 10
312.16832537860187
 20
151.26554357737776
 11
312.11935730916201
 21
150.70583598249618
  0
LINE
  8
_0-3_A0
  6
HIDDEN
 62
    3
 10
315.61935730916212
 20
150.70583598250627
 11
315.57038923971782
 21
151.26554357740027
  0
LINE
  8
_0-3_A0
  6
CONTINUOUS
 62
    3
 10
312.86935730916741
 20
148.80583598249867
 11
312.86935730917292
 21
146.90583598249835
  0
LINE
  8
_0-3_A0
  6
CONTINUOUS
 62
    3
 10
314.86935730916741
 20
148.80583598250387
 11
314.86935730917292
 21
146.90583598250407
  0
LINE
  8
_0-3_A0
  6
CONTINUOUS
 62
    3
 10
313.06935730917348
 20
146.70583598249896
 11
314.66935730917339
 21
146.70583598250357
  0
LINE
  8
_0-3_A0
  6
CONTINUOUS
 62
    3
 10
313.06935730916751
 20
148.80583598249916
 11
313.06935730917348
 21
146.70583598249896
  0
LINE
  8
_0-3_A0
  6
CONTINUOUS
 62
    3
 10
314.66935730916731
 20
148.80583598250336
 11
314.66935730917339
 21
146.70583598250357
  0
LINE
  8
_0-3_A0
  6
CONTINUOUS
 62
    3
 10
312.86935730917292
 20
146.90583598249835
 11
314.86935730917292
 21
146.90583598250407
  0
LINE
  8
_0-3_A0
  6
CONTINUOUS
 62
    3
 10
312.86935730917292
 20
146.90583598249835
 11
313.06935730917348
 21
146.70583598249888
  0
LINE
  8
_0-3_A0
  6
CONTINUOUS
 62
    3
 10
314.86935730917292
 20
146.90583598250415
 11
314.6693573091735
 21
146.70583598250357
  0
ARC
  8
_0-3_A0
  6
CONTINUOUS
 62
    3
 10
258.86935730917139
 20
147.50583598235846
 40
4.5
 50
74.119149991768068
 51
105.8808500086706
  0
LINE
  8
_0-3_A0
  6
HIDDEN
 62
    3
 10
257.16832537860199
 20
151.26554357723506
 11
257.11935730916212
 21
150.70583598235347
  0
LINE
  8
_0-3_A0
  6
HIDDEN
 62
    3
 10
260.61935730916212
 20
150.70583598236356
 11
260.57038923971788
 21
151.26554357725757
  0
LINE
  8
_0-3_A0
  6
CONTINUOUS
 62
    3
 10
257.86935730916752
 20
148.80583598242176
 11
257.86935730917298
 21
146.90583598235556
  0
LINE
  8
_0-3_A0
  6
CONTINUOUS
 62
    3
 10
259.86935730916752
 20
148.80583598242236
 11
259.86935730917298
 21
146.90583598236128
  0
LINE
  8
_0-3_A0
  6
CONTINUOUS
 62
    3
 10
258.06935730917348
 20
146.70583598235617
 11
259.66935730917361
 21
146.70583598236078
  0
LINE
  8
_0-3_A0
  6
CONTINUOUS
 62
    3
 10
258.06935730916751
 20
148.80583598242188
 11
258.06935730917348
 21
146.70583598235617
  0
LINE
  8
_0-3_A0
  6
CONTINUOUS
 62
    3
 10
259.66935730916759
 20
148.80583598242236
 11
259.66935730917361
 21
146.70583598236078
  0
LINE
  8
_0-3_A0
  6
CONTINUOUS
 62
    3
 10
257.86935730917298
 20
146.90583598235556
 11
259.86935730917298
 21
146.90583598236128
  0
LINE
  8
_0-3_A0
  6
CONTINUOUS
 62
    3
 10
257.86935730917298
 20
146.90583598235556
 11
258.06935730917359
 21
146.70583598235617
  0
LINE
  8
_0-3_A0
  6
CONTINUOUS
 62
    3
 10
259.86935730917298
 20
146.90583598236136
 11
259.66935730917361
 21
146.70583598236086
  0
ARC
  8
_0-3_A0
  6
HIDDEN
 62
    3
 10
257.81585193236168
 20
151.20889234445095
 40
0.65
 50
113.31036257507219
 51
175.00000000017149
  0
ARC
  8
_0-3_A0
  6
CONTINUOUS
 62
    3
 10
257.81585193236168
 20
151.20889234445095
 40
0.65
 50
105.8808500085955
 51
113.3103625750722
  0
ARC
  8
_0-3_A0
  6
CONTINUOUS
 62
    3
 10
259.92286268595842
 20
151.20889234446957
 40
0.65
 50
66.689637422102876
 51
74.11914999180901
  0
ARC
  8
_0-3_A0
  6
HIDDEN
 62
    3
 10
259.92286268595842
 20
151.20889234446957
 40
0.65
 50
5.0000000001721254
 51
66.68963742210289
  0
ARC
  8
_0-3_A0
  6
HIDDEN
 62
    3
 10
312.81585193236162
 20
151.20889234459366
 40
0.65
 50
113.31036257517249
 51
175.00000000017149
  0
ARC
  8
_0-3_A0
  6
CONTINUOUS
 62
    3
 10
312.81585193236162
 20
151.20889234459366
 40
0.65
 50
105.8808500085955
 51
113.3103625751725
  0
ARC
  8
_0-3_A0
  6
CONTINUOUS
 62
    3
 10
314.92286268595819
 20
151.20889234461236
 40
0.65
 50
66.689637422192433
 51
74.11914999180901
  0
ARC
  8
_0-3_A0
  6
HIDDEN
 62
    3
 10
314.92286268595819
 20
151.20889234461236
 40
0.65
 50
5.0000000001721254
 51
66.689637422192433
  0
LINE
  8
_0-3_A0
  6
CONTINUOUS
 62
    3
 10
253.06935730911089
 20
186.07822546640326
 11
253.06935730914949
 21
159.30583598192617
  0
LINE
  8
_0-3_A0
  6
CONTINUOUS
 62
    3
 10
253.06935730901921
 20
249.80583598233087
 11
253.06935730910728
 21
188.58443788863237
  0
LINE
  8
_0-3_A0
  6
CONTINUOUS
 62
    3
 10
253.56935730911101
 20
186.05156404328218
 11
253.5693573091604
 21
151.80583598233178
  0
LINE
  8
_0-3_A0
  6
CONTINUOUS
 62
    3
 10
253.56935730902858
 20
243.30583598285437
 11
253.56935730910737
 21
188.53111402531916
  0
LINE
  8
_0-3_A0
  6
CONTINUOUS
 62
    3
 10
328.86935730913188
 20
146.80583598254017
 11
243.86935730927359
 21
146.80583598231956
  0
LINE
  8
_0-3_A0
  6
CONTINUOUS
 62
    3
 10
253.56935730904729
 20
230.30583598251686
 11
257.36935730904878
 21
230.30583598251686
  0
LINE
  8
_0-3_A0
  6
CONTINUOUS
 62
    3
 10
252.41935730904879
 20
231.65583598251686
 11
252.56935730904871
 21
231.65583598251686
  0
LINE
  8
_0-3_A0
  6
CONTINUOUS
 62
    3
 10
252.56935730904871
 20
226.95583598251687
 11
252.41935730904879
 21
226.95583598251687
  0
LINE
  8
_0-3_A0
  6
CONTINUOUS
 62
    3
 10
252.41935730904879
 20
231.65583598251686
 11
252.41935730904879
 21
226.95583598251687
  0
LINE
  8
_0-3_A0
  6
CONTINUOUS
 62
    3
 10
257.56935730904882
 20
230.10583598251687
 11
257.56935730904882
 21
228.50583598251688
  0
LINE
  8
_0-3_A0
  6
CONTINUOUS
 62
    3
 10
257.36935730904878
 20
230.30583598251686
 11
257.36935730904878
 21
228.30583598251686
  0
LINE
  8
_0-3_A0
  6
CONTINUOUS
 62
    3
 10
257.56935730904871
 20
228.50583598251677
 11
257.3693573090486
 21
228.30583598251686
  0
LINE
  8
_0-3_A0
  6
CONTINUOUS
 62
    3
 10
257.56935730904871
 20
230.10583598251687
 11
257.3693573090486
 21
230.30583598251686
  0
POINT
  8
_0-3_A0
 62
    3
 10
257.56935730904882
 20
229.30583598251686
  0
LINE
  8
_0-3_A0
  6
CONTINUOUS
 62
    3
 10
252.56935730904871
 20
231.65583598251686
 11
252.56935730904871
 21
226.95583598251687
  0
LINE
  8
_0-3_A0
  6
CONTINUOUS
 62
    3
 10
257.36935730904878
 20
228.30583598251686
 11
253.5693573090503
 21
228.30583598251686
  0
LINE
  8
_0-3_A0
  6
CONTINUOUS
 62
    3
 10
253.56935730904757
 20
230.10583598251687
 11
257.56935730904871
 21
230.10583598251687
  0
LINE
  8
_0-3_A0
  6
CONTINUOUS
 62
    3
 10
253.56935730905001
 20
228.50583598251688
 11
257.56935730904871
 21
228.50583598251688
  0
ARC
  8
_0-3_A0
  6
CONTINUOUS
 62
    3
 10
254.37958458177598
 20
229.30583598251686
 40
3.0602272727272721
 50
129.8328119876146
 51
230.16718801237826
  0
POINT
  8
_0-3_A0
 62
    3
 10
252.56935730904871
 20
229.30583598251686
  0
LINE
  8
_0-3_A0
  6
CONTINUOUS
 62
    3
 10
253.56935730912647
 20
175.30583598218348
 11
257.36935730912802
 21
175.30583598218348
  0
LINE
  8
_0-3_A0
  6
CONTINUOUS
 62
    3
 10
252.41935730912788
 20
176.65583598218347
 11
252.569357309128
 21
176.65583598218347
  0
LINE
  8
_0-3_A0
  6
CONTINUOUS
 62
    3
 10
252.569357309128
 20
171.95583598218357
 11
252.41935730912788
 21
171.95583598218357
  0
LINE
  8
_0-3_A0
  6
CONTINUOUS
 62
    3
 10
252.41935730912788
 20
176.65583598218347
 11
252.41935730912788
 21
171.95583598218357
  0
LINE
  8
_0-3_A0
  6
CONTINUOUS
 62
    3
 10
257.569357309128
 20
175.10583598218346
 11
257.569357309128
 21
173.50583598218346
  0
LINE
  8
_0-3_A0
  6
CONTINUOUS
 62
    3
 10
257.36935730912802
 20
175.30583598218348
 11
257.36935730912802
 21
173.30583598218348
  0
LINE
  8
_0-3_A0
  6
CONTINUOUS
 62
    3
 10
257.56935730912778
 20
173.50583598218346
 11
257.3693573091279
 21
173.30583598218356
  0
LINE
  8
_0-3_A0
  6
CONTINUOUS
 62
    3
 10
257.56935730912789
 20
175.10583598218346
 11
257.3693573091279
 21
175.30583598218348
  0
POINT
  8
_0-3_A0
 62
    3
 10
257.569357309128
 20
174.30583598218348
  0
LINE
  8
_0-3_A0
  6
CONTINUOUS
 62
    3
 10
252.569357309128
 20
176.65583598218347
 11
252.569357309128
 21
171.95583598218357
  0
LINE
  8
_0-3_A0
  6
CONTINUOUS
 62
    3
 10
257.36935730912802
 20
173.30583598218348
 11
253.56935730912948
 21
173.30583598218348
  0
LINE
  8
_0-3_A0
  6
CONTINUOUS
 62
    3
 10
253.56935730912687
 20
175.10583598218346
 11
257.569357309128
 21
175.10583598218346
  0
LINE
  8
_0-3_A0
  6
CONTINUOUS
 62
    3
 10
253.5693573091292
 20
173.50583598218346
 11
257.569357309128
 21
173.50583598218346
  0
ARC
  8
_0-3_A0
  6
CONTINUOUS
 62
    3
 10
254.37958458185539
 20
174.30583598218348
 40
3.0602272727272721
 50
129.8328119876146
 51
230.16718801237826
  0
POINT
  8
_0-3_A0
 62
    3
 10
252.569357309128
 20
174.30583598218348
  0
LINE
  8
_0-3_A0
  6
CONTINUOUS
 62
    3
 10
253.86935730912938
 20
173.30583598218356
 11
253.86935730916042
 21
151.80583598233246
  0
LINE
  8
_0-3_A0
  6
CONTINUOUS
 62
    3
 10
253.86935730911079
 20
186.07822546640608
 11
253.86935730912631
 21
175.30583598218348
  0
LINE
  8
_0-3_A0
  6
CONTINUOUS
 62
    3
 10
253.86935730905008
 20
228.30583598251686
 11
253.86935730910727
 21
188.58443788863527
  0
LINE
  8
_0-3_A0
  6
CONTINUOUS
 62
    3
 10
253.86935730902848
 20
243.30583598285306
 11
253.8693573090473
 21
230.30583598251698
  0
LINE
  8
_0-3_A0
  6
CONTINUOUS
 62
    3
 10
253.86935730904042
 20
249.80583598286096
 11
253.56935730904052
 21
249.80583598286216
  0
LINE
  8
_0-3_A0
  6
CONTINUOUS
 62
    3
 10
256.75610865512891
 20
243.60583598284128
 11
253.8693573090054
 21
243.60583598285307
  0
LINE
  8
_0-3_A0
  6
CONTINUOUS
 62
    3
 10
324.16935730894789
 20
192.06227945272948
 11
323.8693573089331
 21
192.06227945273076
  0
LINE
  8
_0-3_A0
  6
CONTINUOUS
 62
    3
 10
254.16935730900371
 20
243.30583598285147
 11
254.16935730897552
 21
238.30583598285195
  0
LINE
  8
_0-3_A0
  6
CONTINUOUS
 62
    3
 10
254.16935730897569
 20
238.30583598285207
 11
253.86935730897562
 21
238.30583598285326
  0
LINE
  8
_0-3_A0
  6
CONTINUOUS
 62
    3
 10
253.86935730904042
 20
249.80583598286057
 11
253.8693573090054
 21
243.60583598285307
  0
LINE
  8
_0-3_A0
  6
CONTINUOUS
 62
    3
 10
254.56935730900528
 20
243.60583598285026
 11
254.56935730900261
 21
243.10583598285026
  0
ARC
  8
_0-3_A0
  6
CONTINUOUS
 62
    3
 10
253.86935730900381
 20
243.30583598285318
 40
0.3000000000000114
 50
359.99999999967718
 51
89.999999999677044
  0
ARC
  8
_0-3_A0
  6
CONTINUOUS
 62
    3
 10
253.86935730900552
 20
243.60583598285316
 40
0.3000000000000114
 50
179.99999999967718
 51
269.99999999967718
  0
ARC
  8
_0-3_A0
  6
CONTINUOUS
 62
    3
 10
254.10935730903128
 20
248.19083598220757
 40
0.2399999999999999
 50
179.99999999967718
 51
269.99999999967718
  0
ARC
  8
_0-3_A0
  6
CONTINUOUS
 62
    3
 10
254.10935730901582
 20
245.42083598220756
 40
0.2399999999999999
 50
89.999999999677157
 51
179.99999999967718
  0
LINE
  8
_0-3_A0
  6
CONTINUOUS
 62
    3
 10
254.10935730902997
 20
247.95083598220756
 11
254.25935730903
 21
247.95083598220676
  0
LINE
  8
_0-3_A0
  6
CONTINUOUS
 62
    3
 10
254.10935730901712
 20
245.66083598220765
 11
254.2593573090171
 21
245.66083598220677
  0
LINE
  8
_0-3_A0
  6
CONTINUOUS
 62
    3
 10
254.25935730902989
 20
247.95083598220676
 11
254.25935730901699
 21
245.66083598220677
  0
LINE
  8
_0-3_A0
  6
DASHED
 62
    3
 10
323.86935730894782
 20
192.06227945270526
 11
323.86935730871482
 21
150.70583598244337
  0
LINE
  8
_0-3_A0
  6
CONTINUOUS
 62
    3
 10
253.86935730902632
 20
247.30583598314007
 11
253.5693573090262
 21
247.30583598314177
  0
ARC
  8
_0-3_A0
  6
CONTINUOUS
 62
    3
 10
256.75610865486339
 20
178.30583598284135
 40
65.299999999999997
 50
29.999999999657955
 51
89.999999999677157
  0
ARC
  8
_0-3_A0
  6
DASHED
 62
    3
 10
256.75610865486339
 20
178.30583598284135
 40
65
 50
29.999999999658204
 51
89.999999999677157
  0
LINE
  8
_0-3_A0
  6
CONTINUOUS
 62
    3
 10
254.56935730900278
 20
243.10583598285057
 11
266.14397365712761
 21
236.55416635118146
  0
LINE
  8
_0-3_A0
  6
CONTINUOUS
 62
    3
 10
253.56935730904029
 20
249.80583598286236
 11
253.56935730900528
 21
243.60583598285478
  0
ARC
  8
_0-3_A0
  6
CONTINUOUS
 62
    3
 10
256.75610865486339
 20
178.30583598284135
 40
59
 50
32.955416286161351
 51
80.844389904774658
  0
LINE
  8
_0-3_A0
  6
CONTINUOUS
 62
    3
 10
324.16935730894817
 20
192.14266421043288
 11
313.30756752218212
 21
210.95583598250416
  0
LINE
  8
_0-3_A0
  6
CONTINUOUS
 62
    3
 10
319.17534019968309
 20
198.01244144887988
 11
320.37916493014978
 21
198.70746998106287
  0
LINE
  8
_0-3_A0
  6
CONTINUOUS
 62
    3
 10
318.57178680909089
 20
198.09190076018185
 11
306.26266146270671
 21
210.40102610666258
  0
ARC
  8
_0-3_A0
  6
CONTINUOUS
 62
    3
 10
318.92534019968559
 20
198.44545415077357
 40
0.5
 50
224.99999999977563
 51
299.99999999967189
  0
LINE
  8
_0-3_A0
  6
DASHED
 62
    3
 10
254.5693573090038
 20
243.30583598285016
 11
256.7561086551276
 21
243.30583598284127
  0
LINE
  8
_0-3_A0
  6
CONTINUOUS
 62
    3
 10
254.16935730900371
 20
243.30583598285187
 11
254.56935730900369
 21
243.30583598285016
  0
LINE
  8
_0-3_A0
  6
CONTINUOUS
 62
    3
 10
253.56935730900391
 20
243.30583598285437
 11
253.86935730900381
 21
243.30583598285318
  0
LINE
  8
_0-3_A0
  6
DASHED
 62
    3
 10
313.04775990104548
 20
210.80583598250558
 11
320.11935730901342
 21
198.55746998106417
  0
LINE
  8
_0-3_A0
  6
CONTINUOUS
 62
    3
 10
320.11935730901348
 20
198.55746998106417
 11
323.86935730894782
 21
192.06227945270518
  0
POINT
  8
_0-3_A0
 62
    7
 10
253.56935730902347
 20
246.80583598221028
  0
POINT
  8
_0-3_A0
 62
    7
 10
324.16935730872097
 20
151.80583598252798
  0
LINE
  8
_0-3_A0
  6
DASHED
 62
    3
 10
324.16935730871529
 20
150.80583598256677
 11
324.16935730872097
 21
151.80583598252798
  0
LINE
  8
_0-3_A0
  6
CONTINUOUS
 62
    3
 10
324.16935730872108
 20
151.80583598252798
 11
324.16935730894829
 21
192.14266421043288
  0
LINE
  8
_0-3_A0
  6
CENTER
 62
    3
 10
286.36935730917861
 20
139.05345070454367
 11
286.36935730918241
 21
136.41676701443915
  0
LINE
  8
_0-3_A0
  6
CENTER
 62
    3
 10
286.36935730914257
 20
164.11464193616598
 11
286.36935730917122
 21
144.32789172498897
  0
LINE
  8
_0-3_A0
  6
DASHED
 62
    3
 10
191.4499762776756
 20
104.31523514518137
 11
191.44997627769208
 21
31.315235145181333
  0
LINE
  8
_0-3_A0
  6
CONTINUOUS
 62
    3
 10
184.94997627767671
 20
99.315235145181475
 11
184.94997627769208
 21
31.315235145178775
  0
LINE
  8
_0-3_A0
  6
CENTER
 62
    3
 10
194.94997627767651
 20
100.34147110906677
 11
194.94997627767901
 21
89.711305438765421
  0
LINE
  8
_0-3_A0
  6
CENTER
 62
    3
 10
194.9499762777701
 20
35.288999181324129
 11
194.94997627774179
 21
45.919164851625481
  0
LINE
  8
_0-3_A0
  6
CONTINUOUS
 62
    3
 10
198.69997627769251
 20
30.315235145200759
 11
193.69997627769359
 21
25.315235145193582
  0
LINE
  8
_0-3_A0
  6
CONTINUOUS
 62
    3
 10
193.69997627767409
 20
110.31523514519365
 11
198.69997627767529
 21
105.31523514520077
  0
LINE
  8
_0-3_A0
  6
CENTER
 62
    3
 10
201.39379215440999
 20
40.315235145204752
 11
183.6503564415623
 21
40.315235145179201
  0
LINE
  8
_0-3_A0
  6
CENTER
 62
    3
 10
201.30490798977149
 20
95.31523514520461
 11
182.10641758858758
 21
95.315235145176956
  0
POINT
  8
_0-3_A0
 62
    7
 10
188.44997627770081
 20
25.315235145186079
  0
ARC
  8
_0-3_A0
  6
CONTINUOUS
 62
    3
 10
183.94997627769208
 20
31.315235145179599
 40
7.5
 50
270
 51
306.86989764592652
  0
ARC
  8
_0-3_A0
  6
DASHED
 62
    3
 10
183.94997627769208
 20
31.315235145179599
 40
7.5
 50
306.86989764592652
 51
0
  0
POINT
  8
_0-3_A0
 62
    7
 10
188.4499762776669
 20
110.31523514518606
  0
ARC
  8
_0-3_A0
  6
DASHED
 62
    3
 10
183.94997627767548
 20
104.31523514517957
 40
7.5
 50
0
 51
53.130102354238502
  0
ARC
  8
_0-3_A0
  6
CONTINUOUS
 62
    3
 10
183.94997627767548
 20
104.31523514517957
 40
7.5
 50
53.130102354238502
 51
90
  0
CIRCLE
  8
_0-3_A0
  6
CONTINUOUS
 62
    3
 10
188.44997627769009
 20
40.31523514518615
 40
0.9
  0
CIRCLE
  8
_0-3_A0
  6
CONTINUOUS
 62
    3
 10
188.44997627767759
 20
95.315235145186079
 40
0.9
  0
CIRCLE
  8
_0-3_A0
  6
CONTINUOUS
 62
    3
 10
188.44997627769009
 20
40.31523514518615
 40
1.399999999999999
  0
CIRCLE
  8
_0-3_A0
  6
CONTINUOUS
 62
    3
 10
188.44997627767759
 20
95.315235145186079
 40
1.399999999999999
  0
CIRCLE
  8
_0-3_A0
  6
CONTINUOUS
 62
    3
 10
194.94997627775669
 20
40.315235145195515
 40
1.75
  0
CIRCLE
  8
_0-3_A0
  6
CONTINUOUS
 62
    3
 10
194.94997627767759
 20
95.315235145195458
 40
1.75
  0
LINE
  8
_0-3_A0
  6
CENTER
 62
    3
 10
188.44997627767639
 20
100.89953073440686
 11
188.44997627767858
 21
90.972269013827414
  0
LINE
  8
_0-3_A0
  6
CENTER
 62
    3
 10
188.4499762776891
 20
44.70195862655791
 11
188.4499762776912
 21
35.492575334094595
  0
LINE
  8
_0-3_A0
  6
DASHED
 62
    3
 10
103.4499762776756
 20
104.31523514516125
 11
103.4499762776922
 21
31.315235145161281
  0
LINE
  8
_0-3_A0
  6
CONTINUOUS
 62
    3
 10
109.94997627767668
 20
99.315235144951586
 11
109.9499762776922
 21
31.315235145112467
  0
LINE
  8
_0-3_A0
  6
CENTER
 62
    3
 10
99.949976277676398
 20
100.34147110904507
 11
99.949976277678899
 21
89.71130543874375
  0
LINE
  8
_0-3_A0
  6
CENTER
 62
    3
 10
99.949976277612506
 20
35.288999181302528
 11
99.949976277635798
 21
45.919164851603838
  0
LINE
  8
_0-3_A0
  6
CONTINUOUS
 62
    3
 10
96.199976277692442
 20
30.315235145177467
 11
101.19997627769359
 21
25.315235145172579
  0
LINE
  8
_0-3_A0
  6
CONTINUOUS
 62
    3
 10
101.19997627767429
 20
110.31523514517266
 11
96.199976277675418
 21
105.31523514517755
  0
LINE
  8
_0-3_A0
  6
CENTER
 62
    3
 10
93.506160400970301
 20
40.315235145180224
 11
111.2495961138181
 21
40.315235145162716
  0
LINE
  8
_0-3_A0
  6
CENTER
 62
    3
 10
93.595044565583719
 20
95.315235145180082
 11
112.79353496676759
 21
95.31523514516121
  0
POINT
  8
_0-3_A0
 62
    7
 10
106.4499762776863
 20
25.315235145167392
  0
ARC
  8
_0-3_A0
  6
CONTINUOUS
 62
    3
 10
110.9499762776922
 20
31.315235145162958
 40
7.5
 50
233.1301023540997
 51
270.00000000002609
  0
ARC
  8
_0-3_A0
  6
DASHED
 62
    3
 10
110.9499762776922
 20
31.315235145162958
 40
7.5
 50
180.00000000002611
 51
233.1301023540997
  0
POINT
  8
_0-3_A0
 62
    7
 10
106.4499762776814
 20
110.31523514516736
  0
ARC
  8
_0-3_A0
  6
DASHED
 62
    3
 10
110.9499762776755
 20
104.31523514516297
 40
7.5
 50
126.8698976457876
 51
180.00000000002609
  0
ARC
  8
_0-3_A0
  6
CONTINUOUS
 62
    3
 10
110.9499762776755
 20
104.31523514516297
 40
7.5
 50
90.000000000026048
 51
126.8698976457876
  0
CIRCLE
  8
_0-3_A0
  6
CONTINUOUS
 62
    3
 10
106.44997627769008
 20
40.315235145167434
 40
0.9
  0
CIRCLE
  8
_0-3_A0
  6
CONTINUOUS
 62
    3
 10
106.4499762776776
 20
95.315235145167406
 40
0.9
  0
CIRCLE
  8
_0-3_A0
  6
CONTINUOUS
 62
    3
 10
106.44997627769008
 20
40.315235145167434
 40
1.399999999999999
  0
CIRCLE
  8
_0-3_A0
  6
CONTINUOUS
 62
    3
 10
106.4499762776776
 20
95.315235145167406
 40
1.399999999999999
  0
CIRCLE
  8
_0-3_A0
  6
CONTINUOUS
 62
    3
 10
99.949976277623605
 20
40.315235145173872
 40
1.75
  0
CIRCLE
  8
_0-3_A0
  6
CONTINUOUS
 62
    3
 10
99.949976277677706
 20
95.315235145173815
 40
1.75
  0
LINE
  8
_0-3_A0
  6
CENTER
 62
    3
 10
106.44997627767628
 20
100.89953073438826
 11
106.4499762776786
 21
90.972269013808741
  0
LINE
  8
_0-3_A0
  6
CENTER
 62
    3
 10
106.4499762776892
 20
44.701958626539223
 11
106.4499762776913
 21
35.492575334075908
  0
LINE
  8
_0-3_A0
  6
CONTINUOUS
 62
    3
 10
103.27104408937208
 20
30.315235145162489
 11
191.628908465914
 21
30.315235145182583
  0
LINE
  8
_0-3_A0
  6
CONTINUOUS
 62
    3
 10
101.19997627769359
 20
25.315235145172579
 11
193.69997627769359
 21
25.315235145193639
  0
LINE
  8
_0-3_A0
  6
CONTINUOUS
 62
    3
 10
110.94997627768478
 20
23.815235145162972
 11
183.949976277703
 21
23.815235145179585
  0
LINE
  8
_0-3_A0
  6
CONTINUOUS
 62
    3
 10
103.27104408945419
 20
105.31523514516247
 11
191.62890846582209
 21
105.31523514518255
  0
LINE
  8
_0-3_A0
  6
CONTINUOUS
 62
    3
 10
101.19997627767419
 20
110.31523514517256
 11
193.69997627767409
 21
110.31523514519365
  0
LINE
  8
_0-3_A0
  6
CONTINUOUS
 62
    3
 10
110.949976277683
 20
111.81523514516297
 11
183.9499762776648
 21
111.81523514517957
  0
POINT
  8
_0-3_A0
 62
    7
 10
147.4499762776839
 20
67.81523514512709
  0
LINE
  8
_0-3_A0
  6
CONTINUOUS
 62
    3
 10
193.69997627767941
 20
87.362609273869665
 11
193.6999762776883
 21
48.267861016515169
  0
LINE
  8
_0-3_A0
  6
CONTINUOUS
 62
    3
 10
191.62890846582229
 20
105.31523514518255
 11
193.09787088615451
 21
103.84627272485286
  0
ARC
  8
_0-3_A0
  6
CONTINUOUS
 62
    3
 10
195.69997627728659
 20
95.315235145196567
 40
2.5
 50
90
 51
270
  0
ARC
  8
_0-3_A0
  6
CONTINUOUS
 62
    3
 10
195.6999762776787
 20
89.815235145240066
 40
3
 50
0
 51
90
  0
ARC
  8
_0-3_A0
  6
CONTINUOUS
 62
    3
 10
195.69997627767631
 20
100.81523514484665
 40
3
 50
270
 51
0
  0
LINE
  8
_0-3_A0
  6
CONTINUOUS
 62
    3
 10
189.84997627744681
 20
97.666298734360708
 11
189.84997627744249
 21
92.964171556042913
  0
ARC
  8
_0-3_A0
  6
CONTINUOUS
 62
    3
 10
194.84997627744681
 20
97.666298734356217
 40
5
 50
114.19658672044411
 51
180
  0
ARC
  8
_0-3_A0
  6
CONTINUOUS
 62
    3
 10
194.8499762774426
 20
92.964171556038408
 40
5
 50
180
 51
249.00212445648989
  0
ARC
  8
_0-3_A0
  6
CONTINUOUS
 62
    3
 10
192.39076410496849
 20
103.13916594366567
 40
1
 50
294.19658672044459
 51
45.000000000047812
  0
ARC
  8
_0-3_A0
  6
CONTINUOUS
 62
    3
 10
192.69997627767941
 20
87.362609273869409
 40
1
 50
0
 51
69.002124456490733
  0
LINE
  8
_0-3_A0
  6
CONTINUOUS
 62
    3
 10
191.62890846593009
 20
30.315235145198741
 11
193.0978708862581
 21
31.784197565532736
  0
ARC
  8
_0-3_A0
  6
CONTINUOUS
 62
    3
 10
192.3907641050701
 20
32.491304346717811
 40
1
 50
315.00000000011698
 51
65.803413279720089
  0
ARC
  8
_0-3_A0
  6
CONTINUOUS
 62
    3
 10
194.84997627753259
 20
37.964171556034344
 40
5
 50
180.0000000001649
 51
245.80341327972078
  0
LINE
  8
_0-3_A0
  6
CONTINUOUS
 62
    3
 10
189.8499762775327
 20
37.964171556015458
 11
189.84997627751499
 21
42.666298734333224
  0
ARC
  8
_0-3_A0
  6
CONTINUOUS
 62
    3
 10
194.84997627751491
 20
42.666298734352125
 40
5
 50
110.99787554367486
 51
180.00000000016487
  0
ARC
  8
_0-3_A0
  6
CONTINUOUS
 62
    3
 10
192.6999762777356
 20
48.267861016514942
 40
1
 50
290.99787554367412
 51
0.0000000001647908
  0
ARC
  8
_0-3_A0
  6
CONTINUOUS
 62
    3
 10
195.6999762777421
 20
45.815235145152911
 40
3
 50
270.00000000016495
 51
0.0000000001647654
  0
ARC
  8
_0-3_A0
  6
CONTINUOUS
 62
    3
 10
195.69997627736569
 20
40.31523514519641
 40
2.5
 50
90.000000000164789
 51
270.0000000001649
  0
ARC
  8
_0-3_A0
  6
CONTINUOUS
 62
    3
 10
195.69997627777121
 20
34.815235145546324
 40
3
 50
0.00000000016488
 51
90.000000000164789
  0
LINE
  8
_0-3_A0
  6
CONTINUOUS
 62
    3
 10
103.2710440893733
 20
105.31523514508147
 11
101.80208166904438
 21
103.84627272474837
  0
ARC
  8
_0-3_A0
  6
CONTINUOUS
 62
    3
 10
102.5091884502319
 20
103.13916594356277
 40
1
 50
135.0000000000833
 51
245.80341327968648
  0
ARC
  8
_0-3_A0
  6
CONTINUOUS
 62
    3
 10
100.0499762777662
 20
97.666298734247746
 40
5
 50
0.0000000001310897
 51
65.803413279686992
  0
LINE
  8
_0-3_A0
  6
CONTINUOUS
 62
    3
 10
105.0499762777662
 20
97.666298734263676
 11
105.04997627778118
 21
92.964171555945867
  0
ARC
  8
_0-3_A0
  6
CONTINUOUS
 62
    3
 10
100.04997627778118
 20
92.964171555929965
 40
5
 50
290.99787554364121
 51
0.0000000001310642
  0
ARC
  8
_0-3_A0
  6
CONTINUOUS
 62
    3
 10
102.19997627755718
 20
87.362609273765897
 40
1
 50
110.99787554364041
 51
180.0000000001311
  0
LINE
  8
_0-3_A0
  6
CONTINUOUS
 62
    3
 10
101.19997627755708
 20
87.362609273763794
 11
101.1999762776377
 21
48.267861016409341
  0
ARC
  8
_0-3_A0
  6
CONTINUOUS
 62
    3
 10
99.199976277552096
 20
89.815235145129676
 40
3
 50
90.000000000131095
 51
180.0000000001311
  0
ARC
  8
_0-3_A0
  6
CONTINUOUS
 62
    3
 10
99.199976277931796
 20
95.315235145086148
 40
2.5
 50
270.00000000013119
 51
90.000000000131066
  0
ARC
  8
_0-3_A0
  6
CONTINUOUS
 62
    3
 10
99.199976277529401
 20
100.81523514473626
 40
3
 50
180.00000000013108
 51
270.00000000013119
  0
ARC
  8
_0-3_A0
  6
CONTINUOUS
 62
    3
 10
100.0499762778239
 20
42.666298734243653
 40
5
 50
359.99999999996623
 51
69.002124456456243
  0
ARC
  8
_0-3_A0
  6
CONTINUOUS
 62
    3
 10
102.19997627759039
 20
48.267861016411401
 40
1
 50
179.99999999996629
 51
249.00212445645686
  0
LINE
  8
_0-3_A0
  6
CONTINUOUS
 62
    3
 10
105.04997627781699
 20
37.964171555918426
 11
105.049976277824
 21
42.666298734236221
  0
ARC
  8
_0-3_A0
  6
CONTINUOUS
 62
    3
 10
100.04997627781699
 20
37.964171555925872
 40
5
 50
294.19658672041032
 51
359.99999999996617
  0
ARC
  8
_0-3_A0
  6
CONTINUOUS
 62
    3
 10
102.509188450292
 20
32.491304346614981
 40
1
 50
114.1965867204109
 51
225.00000000001409
  0
LINE
  8
_0-3_A0
  6
CONTINUOUS
 62
    3
 10
103.27104408943708
 20
30.315235145097574
 11
101.8020816691057
 21
31.784197565428286
  0
ARC
  8
_0-3_A0
  6
CONTINUOUS
 62
    3
 10
99.199976277585506
 20
34.81523514543592
 40
3
 50
89.999999999966306
 51
179.9999999999662
  0
ARC
  8
_0-3_A0
  6
CONTINUOUS
 62
    3
 10
99.199976277978493
 20
40.315235145086006
 40
2.5
 50
269.99999999996623
 51
89.999999999966334
  0
ARC
  8
_0-3_A0
  6
CONTINUOUS
 62
    3
 10
99.199976277589499
 20
45.815235145042521
 40
3
 50
179.99999999996629
 51
269.99999999996617
  0
LINE
  8
_0-3_A0
  6
CONTINUOUS
 62
    3
 10
198.6999762776754
 20
105.31523514520077
 11
198.69997627767651
 21
100.81523514484736
  0
LINE
  8
_0-3_A0
  6
CONTINUOUS
 62
    3
 10
198.69997627767651
 20
100.81523514484736
 11
198.69997627767901
 21
89.815235145240734
  0
LINE
  8
_0-3_A0
  6
CONTINUOUS
 62
    3
 10
198.69997627767878
 20
89.815235145240748
 11
198.6999762776889
 21
45.815235145153593
  0
LINE
  8
_0-3_A0
  6
CONTINUOUS
 62
    3
 10
198.69997627768898
 20
45.815235145153593
 11
198.69997627769149
 21
34.815235145547006
  0
LINE
  8
_0-3_A0
  6
CONTINUOUS
 62
    3
 10
198.69997627769149
 20
34.815235145547006
 11
198.69997627769251
 21
30.315235145200844
  0
LINE
  8
_0-3_A0
  6
CONTINUOUS
 62
    3
 10
96.199976277675375
 20
105.31523514517745
 11
96.199976277676412
 21
100.81523514473556
  0
LINE
  8
_0-3_A0
  6
CONTINUOUS
 62
    3
 10
96.199976277676412
 20
100.81523514473556
 11
96.199976277678914
 21
89.81523514512898
  0
LINE
  8
_0-3_A0
  6
CONTINUOUS
 62
    3
 10
96.199976277678871
 20
89.81523514512898
 11
96.199976277688875
 21
45.81523514504181
  0
LINE
  8
_0-3_A0
  6
CONTINUOUS
 62
    3
 10
96.199976277688904
 20
45.81523514504181
 11
96.199976277691433
 21
34.815235145435224
  0
LINE
  8
_0-3_A0
  6
CONTINUOUS
 62
    3
 10
96.199976277691462
 20
34.815235145435224
 11
96.199976277692485
 21
30.315235145177481
  0
LINE
  8
_0-3_A0
  6
CONTINUOUS
 62
    3
 10
110.9499762774639
 20
100.31523514516426
 11
183.94997627767608
 21
100.31523514518086
  0
LINE
  8
_0-3_A0
  6
CONTINUOUS
 62
    3
 10
184.3499762776764
 20
100.71523514518095
 11
185.34997627767668
 21
99.715235145181139
  0
LINE
  8
_0-3_A0
  6
CONTINUOUS
 62
    3
 10
184.3499762776764
 20
100.71523514518095
 11
183.94997627767588
 21
100.31523514518066
  0
LINE
  8
_0-3_A0
  6
CONTINUOUS
 62
    3
 10
185.34997627767668
 20
99.71523514518121
 11
184.94997627767588
 21
99.315235145180693
  0
LINE
  8
_0-3_A0
  6
CONTINUOUS
 62
    3
 10
110.54997627752959
 20
100.71523514509647
 11
109.54997627753168
 21
99.715235145094439
  0
LINE
  8
_0-3_A0
  6
CONTINUOUS
 62
    3
 10
110.54997627752969
 20
100.71523514509647
 11
110.9499762775311
 21
100.31523514509717
  0
LINE
  8
_0-3_A0
  6
CONTINUOUS
 62
    3
 10
109.54997627753168
 20
99.715235145094467
 11
109.94997627753339
 21
99.315235145094888
  0
LINE
  8
_0-3_A0
  6
CONTINUOUS
 62
    3
 10
110.1499762775183
 20
30.315235145164038
 11
109.5499762776307
 21
30.915235145050687
  0
LINE
  8
_0-3_A0
  6
CONTINUOUS
 62
    3
 10
109.5499762776307
 20
30.915235145050758
 11
109.94997627763119
 21
31.315235145051474
  0
LINE
  8
_0-3_A0
  6
CONTINUOUS
 62
    3
 10
185.3499762777352
 20
30.915235145137444
 11
184.94997627773381
 21
31.315235145137251
  0
LINE
  8
_0-3_A0
  6
CONTINUOUS
 62
    3
 10
184.74997627784878
 20
30.315235145249332
 11
185.3499762777352
 21
30.915235145137401
  0
LINE
  8
_0-3_A0
  6
CENTER
 62
    3
 10
231.57562602927208
 20
67.815235145248095
 11
227.76782211716428
 21
67.815235145242638
  0
INSERT
  2
-074-_U74
  8
_0-0_0
 10
-2.5
 20
0.2411363636363716
 41
1
 42
1
 50
0
  0
INSERT
  2
-075-_U75
  8
_0-0_0
 10
-2.5
 20
0.2411363636363716
 41
1
 42
1
 50
0
  0
INSERT
  2
-076-_U76
  8
_0-0_0
 10
-2.5
 20
0.2411363636363716
 41
1
 42
1
 50
0
  0
INSERT
  2
-077-_U77
  8
_0-0_0
 10
-2.5
 20
0.2411363636363716
 41
1
 42
1
 50
0
  0
INSERT
  2
-078-_U78
  8
_0-0_0
 10
-2.5
 20
0.2411363636363716
 41
1
 42
1
 50
0
  0
INSERT
  2
-003-_D14
  8
_0-3_A0
 10
-2.5
 20
0.2411363636363716
 41
1
 42
1
 50
0
  0
INSERT
  2
-005-_D15
  8
_0-3_A0
 10
-2.5
 20
0.2411363636363716
 41
1
 42
1
 50
0
  0
INSERT
  2
-007-_D16
  8
_0-3_A0
 10
-2.5
 20
0.2411363636363716
 41
1
 42
1
 50
0
  0
INSERT
  2
-009-_D17
  8
_0-3_A0
 10
-2.5
 20
0.2411363636363716
 41
1
 42
1
 50
0
  0
INSERT
  2
-011-_D18
  8
_0-3_A0
 10
-2.5
 20
0.2411363636363716
 41
1
 42
1
 50
0
  0
INSERT
  2
-014-_D20
  8
_0-3_A0
 10
-2.5
 20
0.2411363636363716
 41
1
 42
1
 50
0
  0
INSERT
  2
-016-_D21
  8
_0-3_A0
 10
-2.5
 20
0.2411363636363716
 41
1
 42
1
 50
0
  0
INSERT
  2
-018-_D22
  8
_0-3_A0
 10
-2.5
 20
0.2411363636363716
 41
1
 42
1
 50
0
  0
INSERT
  2
-020-_D23
  8
_0-3_A0
 10
-2.5
 20
0.2411363636363716
 41
1
 42
1
 50
0
  0
INSERT
  2
-022-_D24
  8
_0-3_A0
 10
-2.5
 20
0.2411363636363716
 41
1
 42
1
 50
0
  0
INSERT
  2
-024-_D25
  8
_0-3_A0
 10
-2.5
 20
0.2411363636363716
 41
1
 42
1
 50
0
  0
INSERT
  2
-026-_D26
  8
_0-3_A0
 10
-2.5
 20
0.2411363636363716
 41
1
 42
1
 50
0
  0
INSERT
  2
-028-_D27
  8
_0-3_A0
 10
-2.5
 20
0.2411363636363716
 41
1
 42
1
 50
0
  0
INSERT
  2
-030-_D28
  8
_0-3_A0
 10
-2.5
 20
0.2411363636363716
 41
1
 42
1
 50
0
  0
LINE
  8
_0-3_A0
  6
DASHED
 62
    3
 10
184.94997627763538
 20
158.30583598256228
 11
188.9499762776366
 21
158.30583598256228
  0
LINE
  8
_0-3_A0
  6
DASHED
 62
    3
 10
188.9499762776366
 20
158.30583598256228
 11
191.44997627764209
 21
160.80583598256228
  0
LINE
  8
_0-3_A0
  6
HIDDEN
 62
    3
 10
109.94997627761968
 20
150.80583598245476
 11
184.94997627761989
 21
150.80583598256268
  0
LINE
  8
_0-3_A0
  6
DASHED
 62
    3
 10
191.4499762774848
 20
244.80583598273386
 11
191.44997627760548
 21
160.80583598256228
  0
LINE
  8
_0-3_A0
  6
DASHED
 62
    3
 10
109.9499762775207
 20
158.30583598247648
 11
105.94997627751938
 21
158.30583598246727
  0
LINE
  8
_0-3_A0
  6
DASHED
 62
    3
 10
105.94997627751949
 20
158.30583598246738
 11
103.44997627750818
 21
160.80583598246155
  0
LINE
  8
_0-3_A0
  6
CENTER
 62
    3
 10
89.189224797654077
 20
67.815235145043274
 11
223.12526142663259
 21
67.815235145235973
  0
INSERT
  2
-031-_X29
  8
_0-3_A0
 10
-2.5
 20
0.2411363636363716
 41
1
 42
1
 50
0
  0
INSERT
  2
-032-_X30
  8
_0-3_A0
 10
-2.5
 20
0.2411363636363716
 41
1
 42
1
 50
0
  0
INSERT
  2
-033-_X31
  8
_0-3_A0
 10
-2.5
 20
0.2411363636363716
 41
1
 42
1
 50
0
  0
LINE
  8
_0-3_A0
  6
CONTINUOUS
 62
    7
 10
118.26761228006998
 20
181.15511852467017
 11
176.63234027502289
 21
222.45655344012016
  0
INSERT
  2
-000-_OPEN
  8
_0-3_A0
 10
115.818742573988
 20
179.42219118556036
 41
3
 42
3
 50
215.28489514295719
  0
INSERT
  2
-000-_OPEN
  8
_0-3_A0
 10
179.08120998110479
 20
224.18948077922996
 41
3
 42
3
 50
35.284895142957267
  0
POINT
  8
_0-3_A0
 62
    7
 10
179.08120998110479
 20
224.18948077922996
  0
POINT
  8
_0-3_A0
 62
    7
 10
115.818742573988
 20
179.42219118556036
  0
LINE
  8
_0-3_A0
  6
CONTINUOUS
 62
    7
 10
191.34997627762109
 20
150.30583598257206
 11
221.93599583621949
 21
150.30583598257206
  0
LINE
  8
_0-3_A0
  6
CONTINUOUS
 62
    7
 10
198.99997627762201
 20
149.30583598258326
 11
221.93599583621949
 21
149.30583598258326
  0
LINE
  8
_0-3_A0
  6
CONTINUOUS
 62
    7
 10
220.93599583621949
 20
153.30583598257206
 11
220.93599583621949
 21
156.30583598257206
  0
LINE
  8
_0-3_A0
  6
CONTINUOUS
 62
    7
 10
220.93599583621949
 20
146.30583598258326
 11
220.93599583621949
 21
134.59250264924986
  0
LINE
  8
_0-3_A0
  6
CONTINUOUS
 62
    7
 10
220.93599583621949
 20
150.30583598257206
 11
220.93599583621949
 21
149.30583598258326
  0
INSERT
  2
-000-_OPEN
  8
_0-3_A0
 10
220.93599583621949
 20
150.30583598257206
 41
3
 42
3
 50
270
  0
INSERT
  2
-000-_OPEN
  8
_0-3_A0
 10
220.93599583621949
 20
149.30583598258326
 41
3
 42
3
 50
90
  0
POINT
  8
_0-3_A0
 62
    7
 10
191.04997627762111
 20
150.30583598257206
  0
POINT
  8
_0-3_A0
 62
    7
 10
198.69997627762199
 20
149.30583598258326
  0
POINT
  8
_0-3_A0
 62
    7
 10
220.93599583621949
 20
149.30583598258326
  0
TEXT
  8
_0-3_A0
 62
    7
 10
149.83969681374125
 20
204.81102094457361
 40
4
 41
1
 50
35.000000000000007
  1
φ155
  0
TEXT
  8
_0-3_A0
 62
    7
 10
219.81461203370983
 20
135.33355772853849
 40
4
 41
1
 50
90
  1
（2）
  0
TEXT
  8
_0-0_0
 62
    7
 10
72.91124122750466
 20
101.51128911934277
 40
2.56
 41
1
 50
0
  1
4-φ7穴
  0
TEXT
  8
_0-0_0
 62
    7
 10
330.91764791210005
 20
27.230858230949181
 40
3.0999999046325679
 41
1
 50
0
  1
型名
  0
TEXT
  8
_0-0_0
 62
    7
 10
330.91764791210005
 20
19.232321464753454
 40
3.0999999046325679
 41
1
 50
0
  1
図番
  0
TEXT
  8
_0-0_0
 62
    7
 10
330.86396645729337
 20
12.30741379469137
 40
3.0999999046325679
 41
1
 50
0
  1
図名
  0
ENDSEC
  0
EOF
