  0
SECTION
  2
HEADER
  9
$ACADVER
  1
AC1009
  9
$INSBASE
 10
0
 20
0
 30
0
  9
$EXTMIN
 10
0
 20
0
  9
$EXTMAX
 10
420
 20
297
  9
$LIMMIN
 10
0
 20
0
  9
$LIMMAX
 10
420
 20
297
  9
$LTSCALE
 40
1
  0
ENDSEC
  0
SECTION
  2
TABLES
  0
TABLE
  2
LTYPE
 70
     9
  0
LTYPE
  2
CONTINUOUS
 70
    64
  3
実線
 72
    65
 73
     0
 40
0.0
  0
LTYPE
  2
DASHED1
 70
    64
  3
--  --  --  --  --  --  --  --  
 72
    65
 73
     2
 40
2.5
 49
1.25
 49
-1.25
  0
LTYPE
  2
DASHED2
 70
    64
  3
----    ----    ----    ----    
 72
    65
 73
     2
 40
5.0
 49
2.5
 49
-2.5
  0
LTYPE
  2
DASHED3
 70
    64
  3
------  ------  ------  ------  
 72
    65
 73
     2
 40
5.0
 49
3.75
 49
-1.25
  0
LTYPE
  2
CENTER1
 70
    64
  3
----- - ----- - ----- - ----- - 
 72
    65
 73
     4
 40
10.0
 49
6.25
 49
-1.25
 49
1.25
 49
-1.25
  0
LTYPE
  2
CENTER2
 70
    64
  3
----------  --  ----------  --  
 72
    65
 73
     4
 40
20.0
 49
12.5
 49
-2.5
 49
2.5
 49
-2.5
  0
LTYPE
  2
PHANTOM1
 70
    64
  3
--- - - --- - - --- - - --- - - 
 72
    65
 73
     6
 40
10.0
 49
3.25
 49
-1.25
 49
1.25
 49
-1.25
 49
1.25
 49
-1.25
  0
LTYPE
  2
PHANTOM2
 70
    64
  3
--------  -  -  --------  -  -  
 72
    65
 73
     6
 40
20.0
 49
10.0
 49
-2.5
 49
1.25
 49
-2.5
 49
1.25
 49
-2.5
  0
LTYPE
  2
DOT
 70
    64
  3
-   -   -   -   -   -   -   -   
 72
    65
 73
     2
 40
2.5
 49
0.625
 49
-1.875
  0
LTYPE
  2
DUMMY
 70
    64
  3
ダミー
 72
    65
 73
     0
 40
0.0
  0
LTYPE
  2
RAND1
 70
    64
  3
ランダム線1
 72
    65
 73
     4
 40
10.0
 49
1.0
 49
-2.0
 49
3.0
 49
-4.0
  0
LTYPE
  2
RAND2
 70
    64
  3
ランダム線2
 72
    65
 73
     4
 40
14.0
 49
2.0
 49
-3.0
 49
4.0
 49
-5.0
  0
LTYPE
  2
RAND3
 70
    64
  3
ランダム線3
 72
    65
 73
     4
 40
18.0
 49
3.0
 49
-4.0
 49
5.0
 49
-6.0
  0
LTYPE
  2
RAND4
 70
    64
  3
ランダム線4
 72
    65
 73
     4
 40
22.0
 49
4.0
 49
-5.0
 49
6.0
 49
-7.0
  0
LTYPE
  2
RAND5
 70
    64
  3
ランダム線5
 72
    65
 73
     4
 40
26.0
 49
5.0
 49
-6.0
 49
7.0
 49
-8.0
  0
LTYPE
  2
LONG1
 70
    64
  3
----------  --  ----------  --  
 72
    65
 73
     4
 40
40.0
 49
32.5
 49
-2.5
 49
2.5
 49
-2.5
  0
LTYPE
  2
LONG2
 70
    64
  3
--------  -  -  --------  -  -  
 72
    65
 73
     6
 40
40.0
 49
30.0
 49
-2.5
 49
1.25
 49
-2.5
 49
1.25
 49
-2.5
  0
LTYPE
  2
LONG3
 70
    64
  3
+++++++++++++++..+++++++++++++++
 72
    65
 73
     2
 40
40.0
 49
37.5
 49
-2.5
  0
LTYPE
  2
LONG4
 70
    64
  3
+++++++++++++++..+++++++++++++++
 72
    65
 73
     2
 40
80.0
 49
75.0
 49
-5.0
  0
LTYPE
  2
LONG5
 70
    64
  3
----------  --  ----------  --  
 72
    65
 73
     4
 40
60.0
 49
37.5
 49
-7.5
 49
7.5
 49
-7.5
  0
LTYPE
  2
dashed
 70
   64
  3
-------   -------------   ------
 72
   65
 73
    2
 40
7.5
 49
6
 49
-1.5
  0
LTYPE
  2
dashed_spaced
 70
   64
  3
----        --------        ----
 72
   65
 73
    2
 40
12
 49
6
 49
-6
  0
LTYPE
  2
long_dashed_dotted
 70
   64
  3
------------- --- --------------
 72
   65
 73
    4
 40
15.25
 49
12
 49
-1.5
 49
0.25
 49
-1.5
  0
LTYPE
  2
long_dashed_double-dotted
 70
   64
  3
----------- --- --- ------------
 72
   65
 73
    6
 40
17
 49
12
 49
-1.5
 49
0.25
 49
-1.5
 49
0.25
 49
-1.5
  0
LTYPE
  2
long_dashed_triplicate-dotted
 70
   64
  3
--------- --- --- --- ----------
 72
   65
 73
    8
 40
18.75
 49
12
 49
-1.5
 49
0.25
 49
-1.5
 49
0.25
 49
-1.5
 49
0.25
 49
-1.5
  0
LTYPE
  2
dotted
 70
   64
  3
   -       -       -       -    
 72
   65
 73
    2
 40
1.75
 49
0.25
 49
-1.5
  0
LTYPE
  2
chain
 70
   64
  3
-------------- -- --------------
 72
   65
 73
    4
 40
18.5
 49
12
 49
-1.5
 49
3.5
 49
-1.5
  0
LTYPE
  2
chain_double_dash
 70
   64
  3
------------ -- -- -------------
 72
   65
 73
    6
 40
23.5
 49
12
 49
-1.5
 49
3.5
 49
-1.5
 49
3.5
 49
-1.5
  0
LTYPE
  2
dashed_dotted
 70
   64
  3
-----------     -     ----------
 72
   65
 73
    4
 40
9.25
 49
6
 49
-1.5
 49
0.25
 49
-1.5
  0
LTYPE
  2
double-dashed_dotted
 70
   64
  3
------   -----------   -   -----
 72
   65
 73
    6
 40
16.75
 49
6
 49
-1.5
 49
6
 49
-1.5
 49
0.25
 49
-1.5
  0
LTYPE
  2
dashed_double-dotted
 70
   64
  3
---------    -    -    ---------
 72
   65
 73
    6
 40
11
 49
6
 49
-1.5
 49
0.25
 49
-1.5
 49
0.25
 49
-1.5
  0
LTYPE
  2
double-dashed_double-dotted
 70
   64
  3
-----   ---------   -   -   ----
 72
   65
 73
    8
 40
18.5
 49
6
 49
-1.5
 49
6
 49
-1.5
 49
0.25
 49
-1.5
 49
0.25
 49
-1.5
  0
LTYPE
  2
dashed_triplicate-dotted
 70
   64
  3
-------    -    -    -    ------
 72
   65
 73
    8
 40
12.75
 49
6
 49
-1.5
 49
0.25
 49
-1.5
 49
0.25
 49
-1.5
 49
0.25
 49
-1.5
  0
LTYPE
  2
double-dashed_triplicate-dotted
 70
   64
  3
-----  ---------  -  -  -  -----
 72
   65
 73
   10
 40
20.25
 49
6
 49
-1.5
 49
6
 49
-1.5
 49
0.25
 49
-1.5
 49
0.25
 49
-1.5
 49
0.25
 49
-1.5
  0
LTYPE
  2
undefined
 70
   64
  3
--------------------------------
 72
   65
 73
    0
 40
0
  0
LTYPE
  2
DASHED
 70
   64
  3
------     -----------     -----
 72
   65
 73
    2
 40
0.75
 49
0.5
 49
-0.25
  0
LTYPE
  2
HIDDEN
 70
   64
  3
------     -----------     -----
 72
   65
 73
    2
 40
0.375
 49
0.25
 49
-0.125
  0
LTYPE
  2
CENTER
 70
   64
  3
----------    ----    ----------
 72
   65
 73
    4
 40
2
 49
1.25
 49
-0.25
 49
0.25
 49
-0.25
  0
LTYPE
  2
PHANTOM
 70
   64
  3
---------   ---   ---   --------
 72
   65
 73
    6
 40
2.5
 49
1.25
 49
-0.25
 49
0.25
 49
-0.25
 49
0.25
 49
-0.25
  0
LTYPE
  2
_
 70
   64
  3
                                
 72
   65
 73
    0
 40
0
  0
LTYPE
  2
__22
 70
   64
  3
                                
 72
   65
 73
    0
 40
0
  0
LTYPE
  2
__23
 70
   64
  3
                                
 72
   65
 73
    0
 40
0
  0
LTYPE
  2
__24
 70
   64
  3
                                
 72
   65
 73
    0
 40
0
  0
LTYPE
  2
__25
 70
   64
  3
                                
 72
   65
 73
    0
 40
0
  0
LTYPE
  2
__26
 70
   64
  3
                                
 72
   65
 73
    0
 40
0
  0
LTYPE
  2
__27
 70
   64
  3
                                
 72
   65
 73
    0
 40
0
  0
LTYPE
  2
__28
 70
   64
  3
                                
 72
   65
 73
    0
 40
0
  0
LTYPE
  2
__29
 70
   64
  3
                                
 72
   65
 73
    0
 40
0
  0
LTYPE
  2
__30
 70
   64
  3
                                
 72
   65
 73
    0
 40
0
  0
LTYPE
  2
__31
 70
   64
  3
                                
 72
   65
 73
    0
 40
0
  0
LTYPE
  2
__32
 70
   64
  3
                                
 72
   65
 73
    0
 40
0
  0
ENDTAB
  0
TABLE
  2
STYLE
  5
3
100
AcDbSymbolTable
 70
     1
  0
STYLE
  5
10
100
AcDbSymbolTableRecord
100
AcDbTextStyleTableRecord
  2
STANDARD
 70
     0
 40
0.0
 41
1.0
 50
0.0
 71
     0
 42
0.2
  3
txt
  4
bigfont.shx
  0
STYLE
  5
26
100
AcDbSymbolTableRecord
100
AcDbTextStyleTableRecord
  2
TATEGAKI
 70
    68
 40
0.0
 41
1.0
 50
0.0
 71
     0
 42
1.0
  3
txt
  4
bigfont.shx
  0
ENDTAB
  0
TABLE
  2
LAYER
 70
   10
  0
LAYER
  2
_0-0_0
 70
   64
 62
    7
  6
CONTINUOUS
  0
LAYER
  2
_0-1_H0
 70
   64
 62
    7
  6
CONTINUOUS
  0
LAYER
  2
_0-4_A0
 70
   64
 62
    7
  6
CONTINUOUS
  0
LAYER
  2
_0-6_A2
 70
   64
 62
    7
  6
CONTINUOUS
  0
LAYER
  2
_0-9_A10
 70
   64
 62
    7
  6
CONTINUOUS
  0
LAYER
  2
_0-e_A20
 70
   64
 62
    7
  6
CONTINUOUS
  0
LAYER
  2
_1-1_A30
 70
   64
 62
    7
  6
CONTINUOUS
  0
LAYER
  2
_1-3_A50
 70
   64
 62
    7
  6
CONTINUOUS
  0
LAYER
  2
_1-4_A60
 70
   64
 62
    7
  6
CONTINUOUS
  0
LAYER
  2
ADD_LINE
 70
   64
 62
    7
  6
CONTINUOUS
  0
ENDTAB
  0
ENDSEC
  0
SECTION
  2
BLOCKS
  0
BLOCK
  2
-000-_OPEN
 70
   64
 10
0
 20
0
 30
0
  0
LINE
  8
_0-0_0
  6
CONTINUOUS
 62
    7
 10
-1
 20
0.166667
 11
0
 21
0
  0
LINE
  8
_0-0_0
  6
CONTINUOUS
 62
    7
 10
0
 20
0
 11
-1
 21
-0.166667
  0
LINE
  8
_0-0_0
  6
CONTINUOUS
 62
    7
 10
0
 20
0
 11
-1
 21
0
  0
ENDBLK
  0
BLOCK
  2
-001-_D2
 70
   64
 10
0
 20
0
 30
0
  0
LINE
  8
_0-1_H0
  6
CONTINUOUS
 62
    7
 10
364.69760126643359
 20
144.27190189721309
 11
372.81626395161208
 21
144.27190189721309
  0
LINE
  8
_0-1_H0
  6
CONTINUOUS
 62
    7
 10
371.81626395161208
 20
141.27190189721309
 11
371.81626395161208
 21
137.27190189721309
  0
INSERT
  2
-000-_OPEN
  8
_0-1_H0
 10
371.81626395161208
 20
144.27190189721309
 41
3
 42
3
 50
90
  0
INSERT
  2
-000-_OPEN
  8
_0-1_H0
 10
371.81626395161208
 20
134.27190189721309
 41
3
 42
3
 50
270
  0
LINE
  8
_0-1_H0
  6
CONTINUOUS
 62
    7
 10
368.34943832593512
 20
134.27190189721309
 11
372.81626395161208
 21
134.27190189721309
  0
TEXT
  8
_0-1_H0
 62
    7
 10
371.31626395161208
 20
137.27190189721309
 40
4
 41
1
 50
90
  1
10
  0
ENDBLK
  0
BLOCK
  2
-002-$$BALLOON$$0
 70
   64
 10
0
 20
0
 30
0
  0
TEXT
  8
_0-4_A0
 62
    7
 10
-4.6588789014386584
 20
-0.5309034927701024
 40
3.2400000000000002
 41
1
 50
0
  1
2
  0
CIRCLE
  8
_0-4_A0
  6
CONTINUOUS
 62
    7
 10
-3.8488789014386597
 20
1.0890965072298977
 40
4
  0
ENDBLK
  0
BLOCK
  2
-003-$$BALLOON$$1
 70
   64
 10
0
 20
0
 30
0
  0
TEXT
  8
_0-4_A0
 62
    7
 10
2.9085448938880613
 20
-3.0939144724640543
 40
3.2400000000000002
 41
1
 50
0
  1
1
  0
CIRCLE
  8
_0-4_A0
  6
CONTINUOUS
 62
    7
 10
3.71854489388806
 20
-1.4739144724640542
 40
4
  0
ENDBLK
  0
BLOCK
  2
-004-_D3
 70
   64
 10
0
 20
0
 30
0
  0
LINE
  8
_0-4_A0
  6
CONTINUOUS
 62
    7
 10
214.09204482058399
 20
117.13812813215349
 11
214.09204482058399
 21
95.606631330596528
  0
LINE
  8
_0-4_A0
  6
CONTINUOUS
 62
    7
 10
211.09204482058399
 20
96.606631330596528
 11
159.5197937323098
 21
96.606631330596528
  0
INSERT
  2
-000-_OPEN
  8
_0-4_A0
 10
214.09204482058399
 20
96.606631330596528
 41
3
 42
3
 50
360
  0
INSERT
  2
-000-_OPEN
  8
_0-4_A0
 10
156.5197937323098
 20
96.606631330596528
 41
3
 42
3
 50
180
  0
LINE
  8
_0-4_A0
  6
CONTINUOUS
 62
    7
 10
156.5197937323098
 20
121.91056584354359
 11
156.5197937323098
 21
95.606631330596528
  0
TEXT
  8
_0-4_A0
 62
    7
 10
182.3059192764469
 20
97.106631330596528
 40
4
 41
1
 50
0
  1
575
  0
ENDBLK
  0
BLOCK
  2
-005-_D4
 70
   64
 10
0
 20
0
 30
0
  0
LINE
  8
_0-4_A0
  6
CONTINUOUS
 62
    7
 10
175.6920448137356
 20
117.43812814407449
 11
147.541874133145
 21
117.43812814407449
  0
LINE
  8
_0-4_A0
  6
CONTINUOUS
 62
    7
 10
148.541874133145
 20
117.43812814407449
 11
148.541874133145
 21
122.21056585546449
  0
INSERT
  2
-000-_OPEN
  8
_0-4_A0
 10
148.541874133145
 20
117.43812814407449
 41
3
 42
3
 50
90
  0
INSERT
  2
-000-_OPEN
  8
_0-4_A0
 10
148.541874133145
 20
122.21056585546449
 41
3
 42
3
 50
270
  0
LINE
  8
_0-4_A0
  6
CONTINUOUS
 62
    7
 10
148.541874133145
 20
114.43812814407449
 11
148.541874133145
 21
112.43812814407449
  0
LINE
  8
_0-4_A0
  6
CONTINUOUS
 62
    7
 10
148.541874133145
 20
125.21056585546449
 11
148.541874133145
 21
127.21056585546449
  0
LINE
  8
_0-4_A0
  6
CONTINUOUS
 62
    7
 10
156.21979372038879
 20
122.21056585546449
 11
147.541874133145
 21
122.21056585546449
  0
TEXT
  8
_0-4_A0
 62
    7
 10
148.041874133145
 20
117.8243469997695
 40
4
 41
1
 50
90
  1
48
  0
ENDBLK
  0
BLOCK
  2
-006-_D5
 70
   64
 10
0
 20
0
 30
0
  0
LINE
  8
_0-4_A0
  6
CONTINUOUS
 62
    7
 10
170.09031650197889
 20
177.7381281540934
 11
170.09031650197889
 21
194.21076462621439
  0
LINE
  8
_0-4_A0
  6
CONTINUOUS
 62
    7
 10
170.09031650197889
 20
193.21076462621439
 11
176.09204482566499
 21
193.21076462621439
  0
INSERT
  2
-000-_OPEN
  8
_0-4_A0
 10
170.09031650197889
 20
193.21076462621439
 41
3
 42
3
 50
0
  0
INSERT
  2
-000-_OPEN
  8
_0-4_A0
 10
176.09204482566499
 20
193.21076462621439
 41
3
 42
3
 50
180
  0
LINE
  8
_0-4_A0
  6
CONTINUOUS
 62
    7
 10
167.09031650197889
 20
193.21076462621439
 11
165.09031650197889
 21
193.21076462621439
  0
LINE
  8
_0-4_A0
  6
CONTINUOUS
 62
    7
 10
179.09204482566499
 20
193.21076462621439
 11
181.09204482566499
 21
193.21076462621439
  0
LINE
  8
_0-4_A0
  6
CONTINUOUS
 62
    7
 10
176.09204482566499
 20
177.73812815599541
 11
176.09204482566499
 21
194.21076462621439
  0
TEXT
  8
_0-4_A0
 62
    7
 10
171.09118066382188
 20
193.71076462621439
 40
4
 41
1
 50
0
  1
60
  0
ENDBLK
  0
BLOCK
  2
-007-_D6
 70
   64
 10
0
 20
0
 30
0
  0
LINE
  8
_0-4_A0
  6
CONTINUOUS
 62
    7
 10
246.09885342365419
 20
177.638128164925
 11
246.09885342365419
 21
185.9489229834767
  0
LINE
  8
_0-4_A0
  6
CONTINUOUS
 62
    7
 10
246.09885342365419
 20
184.9489229834767
 11
251.09885342369329
 21
184.9489229834767
  0
INSERT
  2
-000-_OPEN
  8
_0-4_A0
 10
246.09885342365419
 20
184.9489229834767
 41
3
 42
3
 50
0
  0
INSERT
  2
-000-_OPEN
  8
_0-4_A0
 10
251.09885342369329
 20
184.9489229834767
 41
3
 42
3
 50
180
  0
LINE
  8
_0-4_A0
  6
CONTINUOUS
 62
    7
 10
243.09885342365419
 20
184.9489229834767
 11
241.09885342365419
 21
184.9489229834767
  0
LINE
  8
_0-4_A0
  6
CONTINUOUS
 62
    7
 10
254.09885342369329
 20
184.9489229834767
 11
256.09885342369329
 21
184.9489229834767
  0
LINE
  8
_0-4_A0
  6
CONTINUOUS
 62
    7
 10
251.09885342369329
 20
174.6334678849312
 11
251.09885342369329
 21
185.9489229834767
  0
TEXT
  8
_0-4_A0
 62
    7
 10
246.5988534236738
 20
185.4489229834767
 40
4
 41
1
 50
0
  1
50
  0
ENDBLK
  0
BLOCK
  2
-008-_D7
 70
   64
 10
0
 20
0
 30
0
  0
LINE
  8
_0-4_A0
  6
CONTINUOUS
 62
    7
 10
316.09885342365419
 20
177.638128164925
 11
316.09885342365419
 21
185.9489229834767
  0
LINE
  8
_0-4_A0
  6
CONTINUOUS
 62
    7
 10
316.09885342365419
 20
184.9489229834767
 11
311.09885342369341
 21
184.9489229834767
  0
INSERT
  2
-000-_OPEN
  8
_0-4_A0
 10
316.09885342365419
 20
184.9489229834767
 41
3
 42
3
 50
180
  0
INSERT
  2
-000-_OPEN
  8
_0-4_A0
 10
311.09885342369341
 20
184.9489229834767
 41
3
 42
3
 50
360
  0
LINE
  8
_0-4_A0
  6
CONTINUOUS
 62
    7
 10
319.09885342365419
 20
184.9489229834767
 11
321.09885342365419
 21
184.9489229834767
  0
LINE
  8
_0-4_A0
  6
CONTINUOUS
 62
    7
 10
308.09885342369341
 20
184.9489229834767
 11
306.09885342369341
 21
184.9489229834767
  0
LINE
  8
_0-4_A0
  6
CONTINUOUS
 62
    7
 10
311.09885342369341
 20
174.6334678849312
 11
311.09885342369341
 21
185.9489229834767
  0
TEXT
  8
_0-4_A0
 62
    7
 10
311.5988534236738
 20
185.4489229834767
 40
4
 41
1
 50
0
  1
50
  0
ENDBLK
  0
BLOCK
  2
-009-_D8
 70
   64
 10
0
 20
0
 30
0
  0
LINE
  8
_0-4_A0
  6
CONTINUOUS
 62
    7
 10
314.46149262801861
 20
172.43812814231671
 11
326.69228867208011
 21
172.43812814231671
  0
LINE
  8
_0-4_A0
  6
CONTINUOUS
 62
    7
 10
325.69228867208011
 20
169.43812814231671
 11
325.69228867208011
 21
140.43812814231671
  0
INSERT
  2
-000-_OPEN
  8
_0-4_A0
 10
325.69228867208011
 20
172.43812814231671
 41
3
 42
3
 50
90
  0
INSERT
  2
-000-_OPEN
  8
_0-4_A0
 10
325.69228867208011
 20
137.43812814231671
 41
3
 42
3
 50
270
  0
LINE
  8
_0-4_A0
  6
CONTINUOUS
 62
    7
 10
313.90867498500358
 20
137.43812814231671
 11
326.69228867208011
 21
137.43812814231671
  0
TEXT
  8
_0-4_A0
 62
    7
 10
325.19228867208011
 20
151.93812814231671
 40
4
 41
1
 50
90
  1
350
  0
ENDBLK
  0
BLOCK
  2
-010-_D9
 70
   64
 10
0
 20
0
 30
0
  0
LINE
  8
_0-4_A0
  6
CONTINUOUS
 62
    7
 10
59.707484017054376
 20
117.2881281321535
 11
59.707484017054376
 21
105.6347133118989
  0
LINE
  8
_0-4_A0
  6
CONTINUOUS
 62
    7
 10
62.707484017054376
 20
106.6347133118989
 11
126.6074840170544
 21
106.6347133118989
  0
INSERT
  2
-000-_OPEN
  8
_0-4_A0
 10
59.707484017054376
 20
106.6347133118989
 41
3
 42
3
 50
180
  0
INSERT
  2
-000-_OPEN
  8
_0-4_A0
 10
129.60748401705438
 20
106.6347133118989
 41
3
 42
3
 50
0
  0
LINE
  8
_0-4_A0
  6
CONTINUOUS
 62
    7
 10
129.60748401705438
 20
117.18812813215349
 11
129.60748401705438
 21
105.6347133118989
  0
TEXT
  8
_0-4_A0
 62
    7
 10
91.657484017054386
 20
107.1347133118989
 40
4
 41
1
 50
0
  1
700
  0
ENDBLK
  0
BLOCK
  2
-011-_D10
 70
   64
 10
0
 20
0
 30
0
  0
LINE
  8
_0-4_A0
  6
CONTINUOUS
 62
    7
 10
179.09204482371728
 20
169.3239145920134
 11
179.09204482371728
 21
185.9489229834767
  0
LINE
  8
_0-4_A0
  6
CONTINUOUS
 62
    7
 10
182.09204482371728
 20
184.9489229834767
 11
208.09204482371728
 21
184.9489229834767
  0
INSERT
  2
-000-_OPEN
  8
_0-4_A0
 10
179.09204482371728
 20
184.9489229834767
 41
3
 42
3
 50
180
  0
INSERT
  2
-000-_OPEN
  8
_0-4_A0
 10
211.09204482371728
 20
184.9489229834767
 41
3
 42
3
 50
0
  0
LINE
  8
_0-4_A0
  6
CONTINUOUS
 62
    7
 10
211.09204482371728
 20
169.32391459201329
 11
211.09204482371728
 21
185.9489229834767
  0
TEXT
  8
_0-4_A0
 62
    7
 10
192.09204482371728
 20
185.4489229834767
 40
4
 41
1
 50
0
  1
320
  0
ENDBLK
  0
BLOCK
  2
-012-_D11
 70
   64
 10
0
 20
0
 30
0
  0
LINE
  8
_0-4_A0
  6
CONTINUOUS
 62
    7
 10
195.09204482371728
 20
174.73385962771391
 11
195.09204482371728
 21
194.21076462621439
  0
LINE
  8
_0-4_A0
  6
CONTINUOUS
 62
    7
 10
198.09204482371728
 20
193.21076462621439
 11
211.09204482566499
 21
193.21076462621439
  0
INSERT
  2
-000-_OPEN
  8
_0-4_A0
 10
195.09204482371728
 20
193.21076462621439
 41
3
 42
3
 50
180
  0
INSERT
  2
-000-_OPEN
  8
_0-4_A0
 10
214.09204482566499
 20
193.21076462621439
 41
3
 42
3
 50
0
  0
LINE
  8
_0-4_A0
  6
CONTINUOUS
 62
    7
 10
214.09204482566499
 20
177.7381281527775
 11
214.09204482566499
 21
194.21076462621439
  0
TEXT
  8
_0-4_A0
 62
    7
 10
201.5920448246911
 20
193.71076462621439
 40
4
 41
1
 50
0
  1
190
  0
ENDBLK
  0
BLOCK
  2
-013-_D12
 70
   64
 10
0
 20
0
 30
0
  0
LINE
  8
_0-4_A0
  6
CONTINUOUS
 62
    7
 10
214.39204483758589
 20
177.4381281408566
 11
228.99240021058818
 21
177.4381281408566
  0
LINE
  8
_0-4_A0
  6
CONTINUOUS
 62
    7
 10
227.99240021058818
 20
174.4381281408566
 11
227.99240021058818
 21
157.43812814254059
  0
INSERT
  2
-000-_OPEN
  8
_0-4_A0
 10
227.99240021058818
 20
177.4381281408566
 41
3
 42
3
 50
90
  0
INSERT
  2
-000-_OPEN
  8
_0-4_A0
 10
227.99240021058818
 20
154.43812814254059
 41
3
 42
3
 50
270
  0
TEXT
  8
_0-4_A0
 62
    7
 10
227.49240021058818
 20
162.93812814169859
 40
4
 41
1
 50
90
  1
230
  0
ENDBLK
  0
BLOCK
  2
-014-_D13
 70
   64
 10
0
 20
0
 30
0
  0
LINE
  8
_0-4_A0
  6
CONTINUOUS
 62
    7
 10
156.5197937323098
 20
121.91056584354359
 11
156.5197937323098
 21
105.7347133018319
  0
LINE
  8
_0-4_A0
  6
CONTINUOUS
 62
    7
 10
159.5197937323098
 20
106.7347133018319
 11
173.09204482327209
 21
106.7347133018319
  0
INSERT
  2
-000-_OPEN
  8
_0-4_A0
 10
156.5197937323098
 20
106.7347133018319
 41
3
 42
3
 50
180
  0
INSERT
  2
-000-_OPEN
  8
_0-4_A0
 10
176.09204482327209
 20
106.7347133018319
 41
3
 42
3
 50
0
  0
LINE
  8
_0-4_A0
  6
CONTINUOUS
 62
    7
 10
176.09204482327209
 20
117.19812813453769
 11
176.09204482327209
 21
105.7347133018319
  0
TEXT
  8
_0-4_A0
 62
    7
 10
163.3059192777909
 20
107.2347133018319
 40
4
 41
1
 50
0
  1
195
  0
ENDBLK
  0
BLOCK
  2
-015-_D14
 70
   64
 10
0
 20
0
 30
0
  0
LINE
  8
_0-4_A0
  6
CONTINUOUS
 62
    7
 10
176.09204482327209
 20
117.19812813453769
 11
176.09204482327209
 21
105.7347133018319
  0
LINE
  8
_0-4_A0
  6
CONTINUOUS
 62
    7
 10
179.09204482327209
 20
106.7347133018319
 11
211.09204482058399
 21
106.7347133018319
  0
INSERT
  2
-000-_OPEN
  8
_0-4_A0
 10
176.09204482327209
 20
106.7347133018319
 41
3
 42
3
 50
180
  0
INSERT
  2
-000-_OPEN
  8
_0-4_A0
 10
214.09204482058399
 20
106.7347133018319
 41
3
 42
3
 50
0
  0
LINE
  8
_0-4_A0
  6
CONTINUOUS
 62
    7
 10
214.09204482058399
 20
117.13812813215349
 11
214.09204482058399
 21
105.7347133018319
  0
TEXT
  8
_0-4_A0
 62
    7
 10
192.09204482192799
 20
107.2347133018319
 40
4
 41
1
 50
0
  1
380
  0
ENDBLK
  0
BLOCK
  2
-016-_D17
 70
   64
 10
0
 20
0
 30
0
  0
LINE
  8
_0-4_A0
  6
CONTINUOUS
 62
    7
 10
59.857484017688889
 20
196.1573683791853
 11
59.857484017688882
 21
184.8230330144147
  0
LINE
  8
_0-4_A0
  6
CONTINUOUS
 62
    7
 10
62.857484017688882
 20
185.8230330144147
 11
126.4574840167734
 21
185.8230330144147
  0
INSERT
  2
-000-_OPEN
  8
_0-4_A0
 10
59.857484017688882
 20
185.8230330144147
 41
3
 42
3
 50
180
  0
INSERT
  2
-000-_OPEN
  8
_0-4_A0
 10
129.4574840167734
 20
185.8230330144147
 41
3
 42
3
 50
0
  0
LINE
  8
_0-4_A0
  6
CONTINUOUS
 62
    7
 10
129.4574840167734
 20
196.15736837603509
 11
129.4574840167734
 21
184.8230330144147
  0
TEXT
  8
_0-4_A0
 62
    7
 10
91.657484017231155
 20
186.3230330144147
 40
4
 41
1
 50
0
  1
696
  0
ENDBLK
  0
BLOCK
  2
-017-_D18
 70
   64
 10
0
 20
0
 30
0
  0
LINE
  8
_0-4_A0
  6
CONTINUOUS
 62
    7
 10
209.97783127326511
 20
170.4381281424655
 11
222.54094577211219
 21
170.4381281424655
  0
LINE
  8
_0-4_A0
  6
CONTINUOUS
 62
    7
 10
221.54094577211219
 20
167.4381281424655
 11
221.54094577211219
 21
141.4381281424655
  0
INSERT
  2
-000-_OPEN
  8
_0-4_A0
 10
221.54094577211219
 20
170.4381281424655
 41
3
 42
3
 50
90
  0
INSERT
  2
-000-_OPEN
  8
_0-4_A0
 10
221.54094577211219
 20
138.4381281424655
 41
3
 42
3
 50
270
  0
LINE
  8
_0-4_A0
  6
CONTINUOUS
 62
    7
 10
209.97783127326519
 20
138.4381281424655
 11
222.54094577211219
 21
138.4381281424655
  0
TEXT
  8
_0-4_A0
 62
    7
 10
221.04094577211219
 20
151.4381281424655
 40
4
 41
1
 50
90
  1
320
  0
ENDBLK
  0
BLOCK
  2
-018-_D19
 70
   64
 10
0
 20
0
 30
0
  0
LINE
  8
_0-4_A0
  6
CONTINUOUS
 62
    7
 10
316.39885343557511
 20
177.4381281423162
 11
326.69228867208011
 21
177.4381281423162
  0
LINE
  8
_0-4_A0
  6
CONTINUOUS
 62
    7
 10
325.69228867208011
 20
177.4381281423162
 11
325.69228867208011
 21
172.43812814231671
  0
INSERT
  2
-000-_OPEN
  8
_0-4_A0
 10
325.69228867208011
 20
177.4381281423162
 41
3
 42
3
 50
270
  0
INSERT
  2
-000-_OPEN
  8
_0-4_A0
 10
325.69228867208011
 20
172.43812814231671
 41
3
 42
3
 50
90
  0
LINE
  8
_0-4_A0
  6
CONTINUOUS
 62
    7
 10
325.69228867208011
 20
180.4381281423162
 11
325.69228867208011
 21
182.4381281423162
  0
LINE
  8
_0-4_A0
  6
CONTINUOUS
 62
    7
 10
325.69228867208011
 20
169.43812814231671
 11
325.69228867208011
 21
167.43812814231671
  0
LINE
  8
_0-4_A0
  6
CONTINUOUS
 62
    7
 10
314.46149262801861
 20
172.43812814231671
 11
326.69228867208011
 21
172.43812814231671
  0
TEXT
  8
_0-4_A0
 62
    7
 10
325.19228867208011
 20
172.9381281423164
 40
4
 41
1
 50
90
  1
50
  0
ENDBLK
  0
BLOCK
  2
-019-_D20
 70
   64
 10
0
 20
0
 30
0
  0
LINE
  8
_0-4_A0
  6
CONTINUOUS
 62
    7
 10
129.89283936803471
 20
250.53812813400739
 11
137.39150603788749
 21
250.53812813400739
  0
LINE
  8
_0-4_A0
  6
CONTINUOUS
 62
    7
 10
136.39150603788749
 20
250.53812813400739
 11
136.39150603788749
 21
244.48812813633358
  0
INSERT
  2
-000-_OPEN
  8
_0-4_A0
 10
136.39150603788749
 20
250.53812813400739
 41
3
 42
3
 50
270
  0
INSERT
  2
-000-_OPEN
  8
_0-4_A0
 10
136.39150603788749
 20
244.48812813633358
 41
3
 42
3
 50
90
  0
LINE
  8
_0-4_A0
  6
CONTINUOUS
 62
    7
 10
136.39150603788749
 20
253.53812813400739
 11
136.39150603788749
 21
255.53812813400739
  0
LINE
  8
_0-4_A0
  6
CONTINUOUS
 62
    7
 10
136.39150603788749
 20
241.48812813633358
 11
136.39150603788749
 21
239.48812813633358
  0
LINE
  8
_0-4_A0
  6
CONTINUOUS
 62
    7
 10
124.27629666313579
 20
244.48812813633358
 11
137.39150603788749
 21
244.48812813633358
  0
TEXT
  8
_0-4_A0
 62
    7
 10
135.89150603788749
 20
243.51312813517048
 40
4
 41
1
 50
90
  1
(60)
  0
ENDBLK
  0
BLOCK
  2
-020-_D21
 70
   64
 10
0
 20
0
 30
0
  0
LINE
  8
_0-4_A0
  6
CONTINUOUS
 62
    7
 10
59.407484005133461
 20
250.53812813400739
 11
55.481937220733627
 21
250.53812813400739
  0
LINE
  8
_0-4_A0
  6
CONTINUOUS
 62
    7
 10
56.481937220733627
 20
250.53812813400739
 11
56.481937220733627
 21
244.48812813633358
  0
INSERT
  2
-000-_OPEN
  8
_0-4_A0
 10
56.481937220733627
 20
250.53812813400739
 41
3
 42
3
 50
270
  0
INSERT
  2
-000-_OPEN
  8
_0-4_A0
 10
56.481937220733627
 20
244.48812813633358
 41
3
 42
3
 50
90
  0
LINE
  8
_0-4_A0
  6
CONTINUOUS
 62
    7
 10
56.481937220733627
 20
253.53812813400739
 11
56.481937220733627
 21
255.53812813400739
  0
LINE
  8
_0-4_A0
  6
CONTINUOUS
 62
    7
 10
56.481937220733627
 20
241.48812813633358
 11
56.481937220733627
 21
239.48812813633358
  0
LINE
  8
_0-4_A0
  6
CONTINUOUS
 62
    7
 10
65.038671370973574
 20
244.48812813633358
 11
55.481937220733627
 21
244.48812813633358
  0
TEXT
  8
_0-4_A0
 62
    7
 10
55.981937220733627
 20
243.51312813517048
 40
4
 41
1
 50
90
  1
(60)
  0
ENDBLK
  0
BLOCK
  2
-021-_D22
 70
   64
 10
0
 20
0
 30
0
  0
LINE
  8
_0-4_A0
  6
CONTINUOUS
 62
    7
 10
129.90748402897528
 20
177.43812814407451
 11
141.01415222034489
 21
177.43812814407451
  0
LINE
  8
_0-4_A0
  6
CONTINUOUS
 62
    7
 10
140.01415222034489
 20
174.43812814407451
 11
140.01415222034489
 21
120.43812814407449
  0
INSERT
  2
-000-_OPEN
  8
_0-4_A0
 10
140.01415222034489
 20
177.43812814407451
 41
3
 42
3
 50
90
  0
INSERT
  2
-000-_OPEN
  8
_0-4_A0
 10
140.01415222034489
 20
117.43812814407449
 41
3
 42
3
 50
270
  0
LINE
  8
_0-4_A0
  6
CONTINUOUS
 62
    7
 10
129.8574840289753
 20
117.43812814407449
 11
141.01415222034489
 21
117.43812814407449
  0
TEXT
  8
_0-4_A0
 62
    7
 10
139.51415222034489
 20
144.43812814407451
 40
4
 41
1
 50
90
  1
600
  0
ENDBLK
  0
ENDSEC
  0
SECTION
  2
ENTITIES
  0
LINE
  8
_0-1_H0
  6
HIDDEN
 62
    3
 10
380.68082130715504
 20
234.34798843477054
 11
369.95940055796233
 21
234.34798843477054
  0
LINE
  8
_0-1_H0
  6
CONTINUOUS
 62
    3
 10
320.82089167968604
 20
241.34798843477054
 11
345.52302305267312
 21
241.34798843477054
  0
LINE
  8
_0-1_H0
  6
CONTINUOUS
 62
    3
 10
369.3684741404877
 20
241.34798843477054
 11
393.80508518948789
 21
241.34798843477054
  0
LINE
  8
_0-1_H0
  6
CONTINUOUS
 62
    3
 10
320.82089167968604
 20
241.34798843477054
 11
320.82089167968604
 21
228.32181151554115
  0
LINE
  8
_0-1_H0
  6
CONTINUOUS
 62
    3
 10
393.80508518948789
 20
241.34798843477054
 11
393.80508518948789
 21
228.32181151554115
  0
LINE
  8
_0-1_H0
  6
CONTINUOUS
 62
    3
 10
406.67777698533711
 20
9.5201897073821442
 11
406.67777698533711
 21
286.52018970738214
  0
LINE
  8
_0-1_H0
  6
CONTINUOUS
 62
    3
 10
11.677776985337118
 20
286.52018970738214
 11
11.677776985337118
 21
9.5201897073821442
  0
LINE
  8
_0-1_H0
  6
CONTINUOUS
 62
    3
 10
406.67777698533711
 20
286.52018970738214
 11
11.677776985337118
 21
286.52018970738214
  0
LINE
  8
_0-1_H0
  6
CONTINUOUS
 62
    3
 10
11.677776985337118
 20
9.5201897073821442
 11
406.67777698533711
 21
9.5201897073821442
  0
LINE
  8
_0-1_H0
  6
CONTINUOUS
 62
    3
 10
337.14313532498903
 20
113.08795523932424
 11
373.1940926303805
 21
113.08795523932424
  0
LINE
  8
_0-1_H0
  6
CENTER
 62
    3
 10
361.07537823984984
 20
143.79209160459524
 11
347.03674298713781
 21
143.79209160459524
  0
LINE
  8
_0-1_H0
  6
CENTER
 62
    3
 10
353.6766435156822
 20
153.08795523932434
 11
353.6766435156822
 21
120.41881985656094
  0
LINE
  8
_0-1_H0
  6
CENTER
 62
    3
 10
364.7272152993512
 20
133.79209160459524
 11
342.1619133085266
 21
133.79209160459524
  0
ARC
  8
_0-1_H0
  6
CONTINUOUS
 62
    3
 10
353.6766435156822
 20
143.79209160459524
 40
2.6
 50
0
 51
180
  0
ARC
  8
_0-1_H0
  6
CONTINUOUS
 62
    3
 10
353.6766435156822
 20
133.79209160459524
 40
8
 50
108.9655749888488
 51
71.034425011151313
  0
LINE
  8
_0-1_H0
  6
CONTINUOUS
 62
    3
 10
356.27664351568222
 20
143.79209160459524
 11
356.27664351568222
 21
141.35780373234635
  0
LINE
  8
_0-1_H0
  6
CONTINUOUS
 62
    3
 10
351.07664351568223
 20
143.79209160459524
 11
351.07664351568223
 21
141.35780373234635
  0
INSERT
  2
-001-_D2
  8
_0-1_H0
 10
-3.3222230146628817
 20
-0.4798102926178557
 41
1
 42
1
 50
0
  0
LINE
  8
_0-1_H0
  6
CONTINUOUS
 62
    3
 10
320.82089167968604
 20
228.32181151554115
 11
393.80508518948789
 21
228.32181151554115
  0
LINE
  8
_0-1_H0
  6
CONTINUOUS
 62
    3
 10
309.13815275053212
 20
170.00388369232774
 11
344.06154868631404
 21
143.17384956317923
  0
LINE
  8
_0-1_H0
  6
CONTINUOUS
 62
    3
 10
342.04808841358243
 20
145.47732037018815
 11
344.06154868631404
 21
143.17384956317923
  0
LINE
  8
_0-1_H0
  6
CONTINUOUS
 62
    3
 10
344.06154868631404
 20
143.17384956317923
 11
341.31701964197429
 21
144.52572246896073
  0
LINE
  8
_0-1_H0
  6
CONTINUOUS
 62
    3
 10
368.4940409369492
 20
143.79209160459524
 11
368.4940409369492
 21
155.66968953375945
  0
LINE
  8
_0-1_H0
  6
CONTINUOUS
 62
    3
 10
367.8940409131074
 20
146.79209160459524
 11
368.4940409369492
 21
143.79209160459524
  0
LINE
  8
_0-1_H0
  6
CONTINUOUS
 62
    3
 10
368.4940409369492
 20
143.79209160459524
 11
369.09404096079111
 21
146.79209160459524
  0
TEXT
  8
_0-1_H0
 62
    7
 10
366.51294177106541
 20
148.51870434268525
 40
2.7999999999999998
 41
1
 50
90
  1
50
  0
LINE
  8
_0-1_H0
  6
CONTINUOUS
 62
    3
 10
246.67777698533711
 20
33.520189707382144
 11
406.677776985337
 21
33.520189707382144
  0
LINE
  8
_0-1_H0
  6
CONTINUOUS
 62
    3
 10
335.677776985337
 20
33.520189707382115
 11
335.677776985337
 21
9.5201897073821442
  0
LINE
  8
_0-1_H0
  6
CONTINUOUS
 62
    3
 10
330.677776985337
 20
33.520189707382115
 11
330.677776985337
 21
9.5201897073821442
  0
LINE
  8
_0-1_H0
  6
CONTINUOUS
 62
    3
 10
246.677776985337
 20
38.520189707382144
 11
406.677776985337
 21
38.520189707382144
  0
LINE
  8
_0-1_H0
  6
CONTINUOUS
 62
    3
 10
246.67777698533711
 20
43.520189707382144
 11
406.677776985337
 21
43.520189707382144
  0
LINE
  8
_0-1_H0
  6
CONTINUOUS
 62
    3
 10
288.677776985337
 20
48.520189707382144
 11
288.677776985337
 21
33.520189707382115
  0
LINE
  8
_0-1_H0
  6
CONTINUOUS
 62
    3
 10
246.677776985337
 20
16.520189707382144
 11
406.677776985337
 21
16.520189707382144
  0
LINE
  8
_0-1_H0
  6
CONTINUOUS
 62
    3
 10
330.677776985337
 20
23.520189707382144
 11
406.677776985337
 21
23.520189707382144
  0
LINE
  8
_0-1_H0
  6
CONTINUOUS
 62
    3
 10
394.677776985337
 20
9.5201897073821442
 11
394.677776985337
 21
16.520189707382144
  0
LINE
  8
_0-1_H0
  6
CONTINUOUS
 62
    3
 10
398.677776985337
 20
9.5201897073821442
 11
398.677776985337
 21
16.520189707382144
  0
LINE
  8
_0-1_H0
  6
CONTINUOUS
 62
    3
 10
316.677776985337
 20
9.5201897073821442
 11
316.677776985337
 21
48.520189707382115
  0
LINE
  8
_0-1_H0
  6
CONTINUOUS
 62
    3
 10
302.677776985337
 20
9.5201897073821442
 11
302.677776985337
 21
33.520189707382115
  0
LINE
  8
_0-1_H0
  6
CONTINUOUS
 62
    3
 10
288.677776985337
 20
16.520189707382144
 11
288.677776985337
 21
33.520189707382115
  0
LINE
  8
_0-1_H0
  6
CONTINUOUS
 62
    3
 10
274.677776985337
 20
16.520189707382144
 11
274.677776985337
 21
33.520189707382115
  0
LINE
  8
_0-1_H0
  6
CONTINUOUS
 62
    3
 10
260.677776985337
 20
16.520189707382144
 11
260.677776985337
 21
33.520189707382115
  0
LINE
  8
_0-1_H0
  6
CONTINUOUS
 62
    3
 10
246.677776985337
 20
9.5201897073821442
 11
246.677776985337
 21
48.520189707382144
  0
LINE
  8
_0-1_H0
  6
CONTINUOUS
 62
    3
 10
246.677776985337
 20
30.520189707382144
 11
330.677776985337
 21
30.520189707382144
  0
LINE
  8
_0-1_H0
  6
CONTINUOUS
 62
    3
 10
323.67777698533711
 20
11.020189707382115
 11
327.677776985337
 21
15.020189707379046
  0
TEXT
  8
_0-1_H0
 62
    7
 10
325.94577700631782
 20
10.188189728362971
 40
2.4639999580383302
 41
1
 50
0
  1
10
  0
TEXT
  8
_0-1_H0
 62
    7
 10
323.60377699511241
 20
13.472189726929457
 40
2.295999960899353
 41
1
 50
0
  1
1
  0
LINE
  8
_0-1_H0
  6
CONTINUOUS
 62
    3
 10
320.677776985337
 20
9.5201897073821442
 11
320.677776985337
 21
16.520189707382144
  0
TEXT
  8
_0-1_H0
 62
    7
 10
337.67777698523042
 20
27.820189707382155
 40
4.3499999999999996
 41
1
 50
0
  1
FAN-700F
  0
LINE
  8
_0-1_H0
  6
CONTINUOUS
 62
    3
 10
337.677776985337
 20
27.520189707382144
 11
404.677776985337
 21
27.520189707382144
  0
LINE
  8
_0-1_H0
  6
CONTINUOUS
 62
    3
 10
246.677776985337
 20
9.5201897073821442
 11
246.67777698533711
 21
43.520189707382144
  0
LINE
  8
_0-1_H0
  6
CONTINUOUS
 62
    3
 10
386.677776985337
 20
33.520189707382144
 11
386.677776985337
 21
48.520189707382115
  0
LINE
  8
_0-1_H0
  6
CONTINUOUS
 62
    3
 10
358.677776985337
 20
33.520189707382144
 11
358.677776985337
 21
48.520189707382115
  0
LINE
  8
_0-1_H0
  6
CONTINUOUS
 62
    3
 10
406.67777698533711
 20
276.52018970738214
 11
266.677776985337
 21
276.52018970738214
  0
LINE
  8
_0-1_H0
  6
CONTINUOUS
 62
    3
 10
406.67777698533711
 20
276.52018970738214
 11
266.677776985337
 21
276.52018970738214
  0
TEXT
  8
_0-1_H0
 62
    7
 10
270.94777698533698
 20
267.56018970738216
 40
2.9199999999999999
 41
1
 50
0
  1
2
  0
TEXT
  8
_0-1_H0
 62
    7
 10
270.94777698533698
 20
272.56018970738216
 40
2.9199999999999999
 41
1
 50
0
  1
1
  0
LINE
  8
_0-1_H0
  6
CONTINUOUS
 62
    3
 10
266.677776985337
 20
276.52018970738214
 11
406.67777698533711
 21
276.52018970738214
  0
LINE
  8
_0-1_H0
  6
CONTINUOUS
 62
    3
 10
406.67777698533711
 20
271.52018970738214
 11
266.677776985337
 21
271.52018970738214
  0
LINE
  8
_0-1_H0
  6
CONTINUOUS
 62
    3
 10
266.677776985337
 20
266.52018970738214
 11
406.67777698533711
 21
266.52018970738214
  0
LINE
  8
_0-1_H0
  6
CONTINUOUS
 62
    3
 10
266.677776985337
 20
281.52018970738214
 11
406.67777698533711
 21
281.52018970738214
  0
LINE
  8
_0-1_H0
  6
CONTINUOUS
 62
    3
 10
266.677776985337
 20
266.52018970738214
 11
266.677776985337
 21
286.52018970738214
  0
LINE
  8
_0-1_H0
  6
CONTINUOUS
 62
    3
 10
276.677776985337
 20
266.52018970738214
 11
276.677776985337
 21
281.52018970738214
  0
LINE
  8
_0-1_H0
  6
CONTINUOUS
 62
    3
 10
311.677776985337
 20
266.52018970738214
 11
311.677776985337
 21
281.52018970738214
  0
LINE
  8
_0-1_H0
  6
CONTINUOUS
 62
    3
 10
346.67777698533711
 20
281.52018970738214
 11
346.67777698533711
 21
266.52018970738214
  0
LINE
  8
_0-1_H0
  6
CONTINUOUS
 62
    3
 10
376.67777698533711
 20
281.52018970738214
 11
376.67777698533711
 21
266.52018970738214
  0
LINE
  8
_0-1_H0
  6
CONTINUOUS
 62
    3
 10
83.677776985337132
 20
281.52018970738214
 11
11.677776985337118
 21
281.52018970738214
  0
LINE
  8
_0-1_H0
  6
CONTINUOUS
 62
    3
 10
52.677776985337118
 20
286.52018970738214
 11
52.677776985337118
 21
268.02018970738214
  0
LINE
  8
_0-1_H0
  6
CONTINUOUS
 62
    3
 10
83.677776985337132
 20
277.02018970738214
 11
11.677776985337118
 21
277.02018970738214
  0
LINE
  8
_0-1_H0
  6
CONTINUOUS
 62
    3
 10
83.677776985337132
 20
268.02018970738214
 11
11.677776985337118
 21
268.02018970738214
  0
LINE
  8
_0-1_H0
  6
CONTINUOUS
 62
    3
 10
11.677776985337118
 20
272.52018970738214
 11
83.677776985337132
 21
272.52018970738214
  0
LINE
  8
_0-1_H0
  6
CONTINUOUS
 62
    3
 10
17.677776985337118
 20
286.52018970738214
 11
17.677776985337118
 21
268.02018970738214
  0
LINE
  8
_0-1_H0
  6
CONTINUOUS
 62
    3
 10
62.677776985337118
 20
286.52018970738214
 11
62.677776985337118
 21
268.02018970738214
  0
LINE
  8
_0-1_H0
  6
CONTINUOUS
 62
    3
 10
12.477776985337072
 20
268.42018970738212
 11
16.877776985337106
 21
268.42018970738212
  0
LINE
  8
_0-1_H0
  6
CONTINUOUS
 62
    3
 10
16.877776985337106
 20
268.42018970738223
 11
14.677776985337118
 21
272.23070148403354
  0
LINE
  8
_0-1_H0
  6
CONTINUOUS
 62
    3
 10
14.677776985337061
 20
272.23070148403343
 11
12.477776985337072
 21
268.42018970738212
  0
LINE
  8
_0-1_H0
  6
CONTINUOUS
 62
    3
 10
12.477776985337072
 20
272.92018970738212
 11
16.877776985337106
 21
272.92018970738212
  0
LINE
  8
_0-1_H0
  6
CONTINUOUS
 62
    3
 10
16.877776985337106
 20
272.92018970738212
 11
14.677776985337061
 21
276.73070148403354
  0
LINE
  8
_0-1_H0
  6
CONTINUOUS
 62
    3
 10
14.677776985337118
 20
276.73070148403354
 11
12.477776985337072
 21
272.92018970738212
  0
TEXT
  8
_0-1_H0
 62
    7
 10
13.877776985337106
 20
273.45836033011681
 40
1.6639999389648434
 41
1
 50
0
  1
B
  0
LINE
  8
_0-1_H0
  6
CONTINUOUS
 62
    3
 10
12.477776985337072
 20
277.42018970738212
 11
16.877776985337106
 21
277.42018970738212
  0
LINE
  8
_0-1_H0
  6
CONTINUOUS
 62
    3
 10
16.877776985337106
 20
277.42018970738223
 11
14.677776985337061
 21
281.23070148403354
  0
LINE
  8
_0-1_H0
  6
CONTINUOUS
 62
    3
 10
14.677776985337061
 20
281.23070148403354
 11
12.477776985337072
 21
277.42018970738223
  0
TEXT
  8
_0-1_H0
 62
    7
 10
13.877776985337106
 20
277.95836033011681
 40
1.6639999389648434
 41
1
 50
0
  1
A
  0
LINE
  8
_0-1_H0
  6
CONTINUOUS
 62
    3
 10
75.677776985337118
 20
286.52018970738214
 11
75.677776985337118
 21
268.02018970738214
  0
LINE
  8
_0-1_H0
  6
CONTINUOUS
 62
    3
 10
83.677776985337132
 20
286.52018970738214
 11
83.677776985337132
 21
268.02018970738214
  0
TEXT
  8
_0-1_H0
 62
    7
 10
13.877776985337106
 20
268.95818973789971
 40
1.6639999389648434
 41
1
 50
0
  1
C
  0
LINE
  8
_0-1_H0
  6
CONTINUOUS
 62
    3
 10
266.25318269508062
 20
260.97681192826246
 11
359.34778635324391
 21
260.97681192826246
  0
LINE
  8
_0-1_H0
  6
CONTINUOUS
 62
    3
 10
272.20952795405383
 20
254.97681192826243
 11
337.79179036258813
 21
254.97681192826243
  0
LINE
  8
_0-1_H0
  6
CONTINUOUS
 62
    3
 10
246.67777698533711
 20
48.520189707382144
 11
406.677776985337
 21
48.520189707382144
  0
TEXT
  8
_0-1_H0
 62
    7
 10
247.67777698533711
 20
39.560189707382136
 40
2.9199999999999999
 41
1
 50
0
  1
FAN-700F-BK
  0
TEXT
  8
_0-1_H0
 62
    7
 10
296.83777698533714
 20
39.560189707382136
 40
2.9199999999999999
 41
1
 50
0
  1
179N01SW
  0
TEXT
  8
_0-1_H0
 62
    7
 10
247.67777698533711
 20
44.560189707382136
 40
2.9199999999999999
 41
1
 50
0
  1
FAN-700F-W
  0
TEXT
  8
_0-1_H0
 62
    7
 10
296.83777698533714
 20
44.560189707382136
 40
2.9199999999999999
 41
1
 50
0
  1
179N01XP
  0
LINE
  8
_0-1_H0
  6
CONTINUOUS
 62
    3
 10
389.38078978751963
 20
46.020189707382144
 11
404.0557736174336
 21
46.020189707382144
  0
LINE
  8
_0-1_H0
  6
CONTINUOUS
 62
    3
 10
389.38078978751963
 20
41.020189707382144
 11
404.0557736174336
 21
41.020189707382144
  0
LINE
  8
_0-1_H0
  6
CONTINUOUS
 62
    3
 10
61.42215012155205
 20
63.84837342068377
 11
61.42215012155205
 21
43.348373420683799
  0
LINE
  8
_0-1_H0
  6
CONTINUOUS
 62
    3
 10
45.42215012155205
 20
63.84837342068377
 11
45.42215012155205
 21
43.348373420683799
  0
LINE
  8
_0-1_H0
  6
CONTINUOUS
 62
    3
 10
17.42215012155205
 20
63.848373420683827
 11
17.42215012155205
 21
43.348373420683799
  0
TEXT
  8
_0-1_H0
 62
    7
 10
51.180150149685459
 20
55.227373434750518
 40
2.2419999718666074
 41
1
 50
0
  1
(kg)
  0
LINE
  8
_0-1_H0
  6
CONTINUOUS
 62
    3
 10
17.42215012155205
 20
53.848373420683827
 11
61.42215012155205
 21
53.848373420683827
  0
LINE
  8
_0-1_H0
  6
CONTINUOUS
 62
    3
 10
17.42215012155205
 20
63.848373420683827
 11
61.42215012155205
 21
63.848373420683827
  0
LINE
  8
_0-1_H0
  6
CONTINUOUS
 62
    3
 10
17.422150121552107
 20
43.348373420683799
 11
61.42215012155205
 21
43.348373420683799
  0
TEXT
  8
_0-1_H0
 62
    7
 10
51.472150121552033
 20
47.298373420683816
 40
2.6
 41
1
 50
0
  1
8.5
  0
LINE
  8
_0-4_A0
  6
CONTINUOUS
 62
    3
 10
172.66982181099365
 20
116.95831785145664
 11
210.76982180592125
 21
116.95831785145664
  0
LINE
  8
_0-4_A0
  6
DASHED
 62
    3
 10
172.76982180862671
 20
117.45831785145664
 11
210.76982180596354
 21
117.45831785145664
  0
LINE
  8
_0-4_A0
  6
CONTINUOUS
 62
    3
 10
242.7766304089913
 20
176.85831786038613
 11
242.7766304089913
 21
116.95831785207494
  0
LINE
  8
_0-4_A0
  6
CONTINUOUS
 62
    3
 10
312.7766304089913
 20
176.85831786038625
 11
312.7766304089913
 21
116.95831785207494
  0
ARC
  8
_0-4_A0
  6
CONTINUOUS
 62
    3
 10
242.89663040899131
 20
157.02831785207493
 40
0.0699999999999998
 50
179.99999999999639
 51
269.99999999999482
  0
LINE
  8
_0-9_A10
  6
HIDDEN
 62
    3
 10
172.76982180860932
 20
118.15831785145233
 11
172.76982180860932
 21
117.02741012263413
  0
LINE
  8
_0-9_A10
  6
HIDDEN
 62
    3
 10
172.76982180602283
 20
118.15831785145233
 11
172.76982180592705
 21
117.02741012263413
  0
LINE
  8
_0-4_A0
  6
HIDDEN
 62
    3
 10
172.76982180602283
 20
118.15831785145664
 11
172.76982180592113
 21
116.95748936989184
  0
LINE
  8
_0-4_A0
  6
CONTINUOUS
 62
    6
 10
56.435261002391484
 20
116.95831785145664
 11
126.23526100239153
 21
116.95831785145664
  0
LINE
  8
_0-4_A0
  6
CONTINUOUS
 62
    6
 10
56.38526100239153
 20
176.95831785145665
 11
56.38526100239153
 21
117.01831785145664
  0
ARC
  8
_0-4_A0
  6
CONTINUOUS
 62
    6
 10
56.435261002391513
 20
117.00831785145663
 40
0.05
 50
179.99999999999639
 51
269.99999999999482
  0
LINE
  8
_0-4_A0
  6
CONTINUOUS
 62
    6
 10
124.73526099737854
 20
117.55831785145664
 11
57.985261002391496
 21
117.55831785145664
  0
LINE
  8
_0-4_A0
  6
CONTINUOUS
 62
    6
 10
126.28526100239152
 20
176.95831785145665
 11
126.28526100239152
 21
117.00831785145663
  0
ARC
  8
_0-4_A0
  6
CONTINUOUS
 62
    6
 10
126.23526100239153
 20
117.00831785145663
 40
0.05
 50
269.99999999999801
 51
359.99999999999641
  0
LINE
  8
_0-4_A0
  6
CONTINUOUS
 62
    6
 10
126.28526100239152
 20
117.01831785145664
 11
124.64526100239153
 21
117.01831785145664
  0
LINE
  8
_0-4_A0
  6
CONTINUOUS
 62
    6
 10
124.58526100239153
 20
117.55831785145664
 11
124.64526100239153
 21
117.55831785145664
  0
LINE
  8
_0-4_A0
  6
DASHED
 62
    6
 10
124.63526100239153
 20
120.90831785145654
 11
124.63526100239153
 21
120.70831785145654
  0
LINE
  8
_0-4_A0
  6
CONTINUOUS
 62
    6
 10
124.43526100239152
 20
120.95831785145664
 11
124.36580173132475
 21
120.9572543941675
  0
LINE
  8
_0-4_A0
  6
CONTINUOUS
 62
    6
 10
124.36580173132475
 20
120.9572543941675
 11
124.29845294506125
 21
120.95409633491166
  0
LINE
  8
_0-4_A0
  6
CONTINUOUS
 62
    6
 10
124.29845294506125
 20
120.95409633491166
 11
124.23526100239152
 21
120.94893962972156
  0
LINE
  8
_0-4_A0
  6
CONTINUOUS
 62
    6
 10
124.23526100239152
 20
120.94893962972156
 11
124.1781459585169
 21
120.94194096247497
  0
LINE
  8
_0-4_A0
  6
CONTINUOUS
 62
    6
 10
124.1781459585169
 20
120.94194096247497
 11
124.12884322514393
 21
120.9333129841347
  0
LINE
  8
_0-4_A0
  6
CONTINUOUS
 62
    6
 10
124.12884322514393
 20
120.9333129841347
 11
124.08885084087775
 21
120.92331785145664
  0
LINE
  8
_0-4_A0
  6
CONTINUOUS
 62
    6
 10
124.08885084087775
 20
120.92331785145664
 11
124.05938395407716
 21
120.91225926148943
  0
LINE
  8
_0-4_A0
  6
CONTINUOUS
 62
    6
 10
124.05938395407716
 20
120.91225926148943
 11
124.04133790118665
 21
120.90047322389332
  0
LINE
  8
_0-4_A0
  6
CONTINUOUS
 62
    6
 10
124.04133790118665
 20
120.90047322389332
 11
124.03526100239152
 21
120.88831785145664
  0
LINE
  8
_0-4_A0
  6
CONTINUOUS
 62
    6
 10
124.03526100239152
 20
120.77831785145654
 11
124.04133790118665
 21
120.76616247901986
  0
LINE
  8
_0-4_A0
  6
CONTINUOUS
 62
    6
 10
124.04133790118665
 20
120.76616247901986
 11
124.05938395407716
 21
120.75437644142375
  0
LINE
  8
_0-4_A0
  6
CONTINUOUS
 62
    6
 10
124.05938395407716
 20
120.75437644142375
 11
124.08885084087775
 21
120.74331785145655
  0
LINE
  8
_0-4_A0
  6
CONTINUOUS
 62
    6
 10
124.08885084087775
 20
120.74331785145655
 11
124.12884322514393
 21
120.73332271877849
  0
LINE
  8
_0-4_A0
  6
CONTINUOUS
 62
    6
 10
124.12884322514393
 20
120.73332271877849
 11
124.1781459585169
 21
120.72469474043822
  0
LINE
  8
_0-4_A0
  6
CONTINUOUS
 62
    6
 10
124.1781459585169
 20
120.72469474043822
 11
124.23526100239152
 21
120.71769607319163
  0
LINE
  8
_0-4_A0
  6
CONTINUOUS
 62
    6
 10
124.23526100239152
 20
120.71769607319163
 11
124.29845294506125
 21
120.71253936800152
  0
LINE
  8
_0-4_A0
  6
CONTINUOUS
 62
    6
 10
124.29845294506125
 20
120.71253936800152
 11
124.36580173132475
 21
120.70938130874569
  0
LINE
  8
_0-4_A0
  6
CONTINUOUS
 62
    6
 10
124.36580173132475
 20
120.70938130874569
 11
124.43526100239152
 21
120.70831785145655
  0
LINE
  8
_0-4_A0
  6
CONTINUOUS
 62
    6
 10
124.03526100239152
 20
120.67831785145654
 11
124.04133790118665
 21
120.66616247901986
  0
LINE
  8
_0-4_A0
  6
CONTINUOUS
 62
    6
 10
124.04133790118665
 20
120.66616247901986
 11
124.05938395407716
 21
120.65437644142375
  0
LINE
  8
_0-4_A0
  6
CONTINUOUS
 62
    6
 10
124.05938395407716
 20
120.65437644142375
 11
124.08885084087775
 21
120.64331785145654
  0
LINE
  8
_0-4_A0
  6
CONTINUOUS
 62
    6
 10
124.08885084087775
 20
120.64331785145654
 11
124.12884322514393
 21
120.63332271877848
  0
LINE
  8
_0-4_A0
  6
CONTINUOUS
 62
    6
 10
124.12884322514393
 20
120.63332271877848
 11
124.1781459585169
 21
120.62469474043821
  0
LINE
  8
_0-4_A0
  6
CONTINUOUS
 62
    6
 10
124.1781459585169
 20
120.62469474043821
 11
124.23526100239152
 21
120.61769607319162
  0
LINE
  8
_0-4_A0
  6
CONTINUOUS
 62
    6
 10
124.23526100239152
 20
120.61769607319162
 11
124.29845294506125
 21
120.61253936800152
  0
LINE
  8
_0-4_A0
  6
CONTINUOUS
 62
    6
 10
124.29845294506125
 20
120.61253936800152
 11
124.36580173132475
 21
120.60938130874568
  0
LINE
  8
_0-4_A0
  6
CONTINUOUS
 62
    6
 10
124.36580173132475
 20
120.60938130874568
 11
124.43526100239152
 21
120.60831785145654
  0
LINE
  8
_0-4_A0
  6
CONTINUOUS
 62
    6
 10
124.43526098506492
 20
120.95831785145654
 11
124.53526100239153
 21
120.95831785145654
  0
LINE
  8
_0-4_A0
  6
DASHED
 62
    6
 10
124.63526100239153
 20
120.95831785145654
 11
124.63526100239153
 21
120.90831785145654
  0
LINE
  8
_0-4_A0
  6
CONTINUOUS
 62
    6
 10
124.03526100239163
 20
120.67831785145644
 11
124.03526100239153
 21
120.88831785145654
  0
LINE
  8
_0-4_A0
  6
CONTINUOUS
 62
    6
 10
124.53526100239153
 20
120.90831785145654
 11
124.58526100239153
 21
120.90831785145654
  0
LINE
  8
_0-4_A0
  6
DASHED
 62
    6
 10
124.58526100239153
 20
120.90831785145654
 11
124.63526100239153
 21
120.90831785145654
  0
LINE
  8
_0-4_A0
  6
CONTINUOUS
 62
    6
 10
124.43526098629062
 20
120.70831785145654
 11
124.58526100239153
 21
120.70831785145654
  0
LINE
  8
_0-4_A0
  6
DASHED
 62
    6
 10
124.58526100239153
 20
120.70831785145654
 11
124.63526100239153
 21
120.70831785145654
  0
LINE
  8
_0-4_A0
  6
CONTINUOUS
 62
    6
 10
124.43526098629062
 20
120.60831785145664
 11
124.58526100239153
 21
120.60831785145664
  0
LINE
  8
_0-4_A0
  6
DASHED
 62
    6
 10
124.58526100239153
 20
120.60831785145664
 11
124.63526100239153
 21
120.60831785145664
  0
LINE
  8
_0-4_A0
  6
CONTINUOUS
 62
    3
 10
64.38526100239153
 20
116.83831785145665
 11
64.88526100239153
 21
116.83831785145665
  0
LINE
  8
_0-4_A0
  6
CONTINUOUS
 62
    3
 10
64.780261002391512
 20
116.95831785145664
 11
64.985261002391496
 21
116.95831785145664
  0
LINE
  8
_0-4_A0
  6
CONTINUOUS
 62
    3
 10
64.985261002391496
 20
116.95831785145664
 11
64.985261002391496
 21
116.93831785145664
  0
ARC
  8
_0-4_A0
  6
CONTINUOUS
 62
    3
 10
64.88526100239153
 20
116.93831785145664
 40
0.1
 50
269.99999999999528
 51
359.9999999999934
  0
LINE
  8
_0-4_A0
  6
CONTINUOUS
 62
    3
 10
64.38526100239153
 20
116.83831785145665
 11
63.88526100239153
 21
116.83831785145665
  0
LINE
  8
_0-4_A0
  6
CONTINUOUS
 62
    3
 10
63.990261002391491
 20
116.95831785145664
 11
63.785261002391507
 21
116.95831785145664
  0
LINE
  8
_0-4_A0
  6
CONTINUOUS
 62
    3
 10
63.785261002391507
 20
116.95831785145664
 11
63.785261002391507
 21
116.93831785145664
  0
ARC
  8
_0-4_A0
  6
CONTINUOUS
 62
    3
 10
63.88526100239153
 20
116.93831785145664
 40
0.1
 50
180
 51
269.99999999999812
  0
ARC
  8
_0-4_A0
  6
CONTINUOUS
 62
    3
 10
118.78526100239153
 20
116.93831785145664
 40
0.1
 50
269.99999999999528
 51
359.9999999999934
  0
LINE
  8
_0-4_A0
  6
CONTINUOUS
 62
    3
 10
118.88526100239153
 20
116.95831785145664
 11
118.88526100239153
 21
116.93831785145664
  0
LINE
  8
_0-4_A0
  6
CONTINUOUS
 62
    3
 10
118.28526100239153
 20
116.83831785145665
 11
118.78526100239153
 21
116.83831785145665
  0
LINE
  8
_0-4_A0
  6
CONTINUOUS
 62
    3
 10
118.28526100239153
 20
116.83831785145665
 11
117.78526100239153
 21
116.83831785145665
  0
ARC
  8
_0-4_A0
  6
CONTINUOUS
 62
    3
 10
117.78526100239153
 20
116.93831785145664
 40
0.1
 50
180
 51
269.99999999999812
  0
LINE
  8
_0-4_A0
  6
CONTINUOUS
 62
    3
 10
117.68526100239152
 20
116.95831785145664
 11
117.68526100239152
 21
116.93831785145664
  0
LINE
  8
_0-4_A0
  6
CONTINUOUS
 62
    3
 10
126.27061634145083
 20
250.05831784138953
 11
56.38526100239153
 21
250.05831784138953
  0
LINE
  8
_0-4_A0
  6
CONTINUOUS
 62
    3
 10
56.38526100239153
 20
250.00831784287163
 11
56.38526100239153
 21
212.05831784138953
  0
LINE
  8
_0-4_A0
  6
CONTINUOUS
 62
    3
 10
57.88526100239153
 20
248.55831784138953
 11
124.78526100239152
 21
248.55831784138953
  0
LINE
  8
_0-4_A0
  6
CONTINUOUS
 62
    3
 10
56.399905663332162
 20
250.04367318044893
 11
57.885261002391473
 21
248.55831784138953
  0
LINE
  8
_0-4_A0
  6
CONTINUOUS
 62
    3
 10
124.78526100239152
 20
248.55831784138965
 11
126.27061634145083
 21
250.04367318044884
  0
ARC
  8
_0-4_A0
  6
CONTINUOUS
 62
    3
 10
56.435261002391513
 20
250.00831784138955
 40
0.05
 50
89.999999999425526
 51
179.99999999999639
  0
ARC
  8
_0-4_A0
  6
CONTINUOUS
 62
    3
 10
126.23526100239153
 20
250.00831784138955
 40
0.05
 50
0
 51
89.999999999425526
  0
ARC
  8
_0-4_A0
  6
CONTINUOUS
 62
    3
 10
56.435261002391513
 20
250.00831784138955
 40
0.05
 50
89.999999999425526
 51
179.99999999999639
  0
ARC
  8
_0-4_A0
  6
CONTINUOUS
 62
    3
 10
126.23526100239153
 20
250.00831784138955
 40
0.05
 50
0
 51
89.999999999425526
  0
LINE
  8
_1-3_A50
  6
CONTINUOUS
 62
    3
 10
124.66526100230873
 20
116.97991581003114
 11
126.10526100230872
 21
116.97991580990924
  0
ARC
  8
_1-3_A50
  6
CONTINUOUS
 62
    3
 10
126.10526100231133
 20
117.00991580990934
 40
0.0299999999999998
 50
269.99999999515171
 51
359.99999999515171
  0
ARC
  8
_1-3_A50
  6
CONTINUOUS
 62
    3
 10
124.66526100231132
 20
117.00991581003114
 40
0.0299999999999998
 50
179.99999999515191
 51
269.99999999515171
  0
ARC
  8
_0-4_A0
  6
CONTINUOUS
 62
    3
 10
56.455261002391523
 20
157.02831785313304
 40
0.0699999999999998
 50
179.99999999999639
 51
269.99999999999482
  0
LINE
  8
_0-4_A0
  6
CONTINUOUS
 62
    3
 10
56.385261002555068
 20
220.11831784138954
 11
56.385261002555068
 21
212.16831784138955
  0
LINE
  8
_0-4_A0
  6
CONTINUOUS
 62
    3
 10
126.28526100255503
 20
220.11831784138954
 11
126.28526100255503
 21
212.05831784138953
  0
LINE
  8
_0-4_A0
  6
CONTINUOUS
 62
    3
 10
124.53526100239153
 20
121.08373882624005
 11
124.53526100239153
 21
120.90831785145654
  0
LINE
  8
_0-4_A0
  6
CONTINUOUS
 62
    3
 10
57.88526100239153
 20
212.05831784138953
 11
57.88526100239153
 21
248.55831784138953
  0
LINE
  8
_0-4_A0
  6
CONTINUOUS
 62
    3
 10
56.38526100239153
 20
176.95831785145665
 11
126.28526100239152
 21
176.95831785145665
  0
LINE
  8
_1-1_A30
  6
CONTINUOUS
 62
    3
 10
124.68526099732794
 20
116.95831785644814
 11
126.08526099732792
 21
116.95831785633004
  0
LINE
  8
_1-1_A30
  6
CONTINUOUS
 62
    3
 10
124.63526099737002
 20
117.45831785645233
 11
124.63526099733213
 21
117.00831785645235
  0
LINE
  8
_1-1_A30
  6
CONTINUOUS
 62
    3
 10
124.63526099737002
 20
117.45831785645233
 11
124.68526099737003
 21
117.45831785644814
  0
LINE
  8
_1-1_A30
  6
CONTINUOUS
 62
    3
 10
124.68526099737003
 20
117.45831785644814
 11
124.68526099733212
 21
117.00831785644814
  0
LINE
  8
_1-1_A30
  6
CONTINUOUS
 62
    3
 10
124.73526099737854
 20
117.55831785644394
 11
124.73526099733213
 21
117.00831785644393
  0
LINE
  8
_1-1_A30
  6
CONTINUOUS
 62
    3
 10
124.63526099738693
 20
117.65831785645234
 11
124.73526099737854
 21
117.55831785644394
  0
LINE
  8
_1-1_A30
  6
CONTINUOUS
 62
    3
 10
124.68526099733212
 20
117.00831785644814
 11
124.73526099733213
 21
117.00831785644393
  0
LINE
  8
_1-1_A30
  6
CONTINUOUS
 62
    3
 10
124.73526099733213
 20
117.00831785644393
 11
126.13526099733213
 21
117.00831785632584
  0
ARC
  8
_1-1_A30
  6
CONTINUOUS
 62
    3
 10
124.68526099733212
 20
117.00831785644814
 40
0.05
 50
179.9999999945744
 51
269.99999999514528
  0
ARC
  8
_1-1_A30
  6
CONTINUOUS
 62
    3
 10
126.08526099733224
 20
117.00831785633003
 40
0.05
 50
269.99999999514528
 51
359.99999999514221
  0
LINE
  8
_0-4_A0
  6
CONTINUOUS
 62
    3
 10
121.13526100237842
 20
176.85831785649313
 11
91.335261002391689
 21
176.85831785145663
  0
LINE
  8
_0-4_A0
  6
CONTINUOUS
 62
    3
 10
91.335261000643527
 20
176.85831785976745
 11
126.28526100239152
 21
176.85831785976745
  0
LINE
  8
_1-1_A30
  6
CONTINUOUS
 62
    3
 10
57.985260997326122
 20
116.95831786124225
 11
56.585260997326088
 21
116.95831786136093
  0
LINE
  8
_1-1_A30
  6
CONTINUOUS
 62
    3
 10
126.13526099784924
 20
123.14270525680674
 11
126.13526099791674
 21
123.94270525687414
  0
LINE
  8
_0-4_A0
  6
CONTINUOUS
 62
    3
 10
277.7766304090303
 20
176.95831784969843
 11
247.7766304072831
 21
176.95831784969834
  0
LINE
  8
_0-4_A0
  6
CONTINUOUS
 62
    3
 10
277.77663040553602
 20
176.95831784969843
 11
312.7766304089913
 21
176.95831784969834
  0
LINE
  8
_0-4_A0
  6
CONTINUOUS
 62
    3
 10
242.7766304089913
 20
176.95831784138744
 11
307.57663040727089
 21
176.95831784138744
  0
LINE
  8
_0-4_A0
  6
CONTINUOUS
 62
    3
 10
247.97663040729543
 20
176.95831784642405
 11
307.57663040727089
 21
176.95831784642405
  0
LINE
  8
_0-4_A0
  6
CONTINUOUS
 62
    3
 10
172.76982181100214
 20
176.95831785145665
 11
210.76982181100203
 21
176.95831784823874
  0
LINE
  8
_0-4_A0
  6
CONTINUOUS
 62
    3
 10
210.76982180592113
 20
116.95831785145664
 11
210.76982181100214
 21
176.95831784823874
  0
LINE
  8
_0-4_A0
  6
CENTER
 62
    3
 10
191.7698218090544
 20
173.95404932317504
 11
191.7698218090544
 21
131.64345061689863
  0
LINE
  8
_0-4_A0
  6
CONTINUOUS
 62
    3
 10
242.7766304089913
 20
116.95831784969864
 11
312.7766304089913
 21
116.95831784969834
  0
LINE
  8
_0-4_A0
  6
CENTER
 62
    3
 10
91.335261002391561
 20
100.64313192256093
 11
91.335261002391575
 21
105.12046148432953
  0
LINE
  8
_0-4_A0
  6
CONTINUOUS
 62
    3
 10
153.19757071764695
 20
121.73075556284663
 11
172.6198218305044
 21
116.95831785145594
  0
LINE
  8
_0-4_A0
  6
CONTINUOUS
 62
    3
 10
166.76809348731603
 20
176.95831784955464
 11
153.19757071764695
 21
121.73075556284663
  0
LINE
  8
_0-4_A0
  6
CONTINUOUS
 62
    3
 10
123.19434364879815
 20
206.45718867511419
 11
123.71428954650674
 21
206.51467685712052
  0
LINE
  8
_0-4_A0
  6
CONTINUOUS
 62
    3
 10
123.71428954650674
 20
206.51467685712052
 11
124.21664195488702
 21
206.66426508665685
  0
LINE
  8
_0-4_A0
  6
CONTINUOUS
 62
    3
 10
124.21664195488702
 20
206.66426508665685
 11
124.68613715021297
 21
206.90140820106398
  0
LINE
  8
_0-4_A0
  6
CONTINUOUS
 62
    3
 10
124.68613715021297
 20
206.90140820106398
 11
125.10850975855061
 21
207.21890072681091
  0
LINE
  8
_0-4_A0
  6
CONTINUOUS
 62
    3
 10
125.10850975855061
 20
207.21890072681091
 11
125.47092620192648
 21
207.60709581416173
  0
LINE
  8
_0-4_A0
  6
CONTINUOUS
 62
    3
 10
125.47092620192648
 20
207.60709581416173
 11
125.76237464010016
 21
208.05419835182351
  0
LINE
  8
_0-4_A0
  6
CONTINUOUS
 62
    3
 10
125.76237464010016
 20
208.05419835182351
 11
125.97399955975777
 21
208.5466233554342
  0
LINE
  8
_0-4_A0
  6
CONTINUOUS
 62
    3
 10
125.97399955975777
 20
208.5466233554342
 11
126.09937084480289
 21
209.06940874043814
  0
LINE
  8
_0-4_A0
  6
CONTINUOUS
 62
    3
 10
126.09937084480289
 20
209.06940874043814
 11
126.13526100180122
 21
209.54582977360465
  0
LINE
  8
_0-4_A0
  6
CONTINUOUS
 62
    3
 10
124.63526100183382
 20
212.05831784102363
 11
126.13526100183374
 21
212.05831784100425
  0
LINE
  8
_0-4_A0
  6
CONTINUOUS
 62
    3
 10
126.13526100205392
 20
176.95831785145665
 11
126.13526099698374
 21
116.95831785529144
  0
LINE
  8
_0-4_A0
  6
CONTINUOUS
 62
    3
 10
123.13526100205393
 20
176.95831785145665
 11
123.13526099738203
 21
121.67110009445644
  0
LINE
  8
_0-4_A0
  6
CONTINUOUS
 62
    3
 10
167.02553017533665
 20
176.95831784963823
 11
153.44034885655764
 21
121.67110009145424
  0
LINE
  8
_0-4_A0
  6
CONTINUOUS
 62
    3
 10
124.63526100183302
 20
211.99831784102363
 11
126.13526100183294
 21
211.99831784100425
  0
ARC
  8
_0-4_A0
  6
CONTINUOUS
 62
    3
 10
123.07526100169533
 20
206.26658951735763
 40
0.0599999999999999
 50
269.99999999925807
 51
359.9999999999934
  0
ARC
  8
_0-4_A0
  6
CONTINUOUS
 62
    3
 10
123.19526100169973
 20
206.39658951735705
 40
0.0599999999999999
 50
89.999999999425526
 51
179.99999999999639
  0
LINE
  8
_0-4_A0
  6
CONTINUOUS
 62
    3
 10
91.335261002082475
 20
206.20658951961735
 11
123.13526100168373
 21
206.20658951693013
  0
LINE
  8
_0-4_A0
  6
CONTINUOUS
 62
    3
 10
172.76982181100214
 20
176.95831785150534
 11
166.76809348731603
 21
176.95831784955464
  0
LINE
  8
_0-4_A0
  6
HIDDEN
 62
    3
 10
154.91128449632242
 20
121.37138485786894
 11
155.04014031448565
 21
121.89578563792694
  0
ARC
  8
_0-4_A0
  6
HIDDEN
 62
    3
 10
154.85301774298261
 20
121.38570217099814
 40
0.0599999999999999
 50
256.19478279910521
 51
346.19478279967671
  0
LINE
  8
_0-4_A0
  6
CONTINUOUS
 62
    3
 10
91.335260999450483
 20
121.31317616977524
 11
123.13526099732503
 21
121.31317616977524
  0
LINE
  8
_0-4_A0
  6
CONTINUOUS
 62
    3
 10
91.335260999472581
 20
121.73075556474854
 11
123.13526099738203
 21
121.73075556474854
  0
LINE
  8
_0-4_A0
  6
CONTINUOUS
 62
    3
 10
124.63526099732153
 20
120.95523484798034
 11
124.63526099704283
 21
117.65831785679644
  0
LINE
  8
_0-4_A0
  6
CONTINUOUS
 62
    3
 10
126.13526099732153
 20
120.95523443664754
 11
126.08968425635816
 21
121.07954395759396
  0
LINE
  8
_0-4_A0
  6
CONTINUOUS
 62
    3
 10
126.08968425635816
 20
121.07954395759396
 11
125.95433885967926
 21
121.20007639665008
  0
LINE
  8
_0-4_A0
  6
CONTINUOUS
 62
    3
 10
125.95433885967926
 20
121.20007639665008
 11
125.73333720867485
 21
121.31316943664754
  0
LINE
  8
_0-4_A0
  6
CONTINUOUS
 62
    3
 10
125.73333720867485
 20
121.31316943664754
 11
125.43339432667846
 21
121.41538680279384
  0
LINE
  8
_0-4_A0
  6
CONTINUOUS
 62
    3
 10
125.43339432667846
 20
121.41538680279384
 11
125.06362382638116
 21
121.50362267214312
  0
LINE
  8
_0-4_A0
  6
CONTINUOUS
 62
    3
 10
125.06362382638116
 20
121.50362267214312
 11
124.63526099732153
 21
121.5751960424547
  0
LINE
  8
_0-4_A0
  6
CONTINUOUS
 62
    3
 10
124.63526099732153
 20
121.5751960424547
 11
124.16132142729854
 21
121.62793219308954
  0
LINE
  8
_0-4_A0
  6
CONTINUOUS
 62
    3
 10
124.16132142729854
 20
121.62793219308954
 11
123.65620553032232
 21
121.66022876279639
  0
LINE
  8
_0-4_A0
  6
CONTINUOUS
 62
    3
 10
123.65620553032232
 20
121.66022876279639
 11
123.13526099732153
 21
121.67110443664753
  0
LINE
  8
_0-4_A0
  6
CONTINUOUS
 62
    3
 10
124.63526099732153
 20
120.95523443664754
 11
124.61247262683984
 21
121.01739006536163
  0
LINE
  8
_0-4_A0
  6
CONTINUOUS
 62
    3
 10
124.61247262683984
 20
121.01739006536163
 11
124.54479992850039
 21
121.07765712674952
  0
LINE
  8
_0-4_A0
  6
CONTINUOUS
 62
    3
 10
124.54479992850039
 20
121.07765712674952
 11
124.43429910299819
 21
121.13420443664755
  0
LINE
  8
_0-4_A0
  6
CONTINUOUS
 62
    3
 10
124.43429910299819
 20
121.13420443664755
 11
124.284327662
 21
121.18531383365873
  0
LINE
  8
_0-4_A0
  6
CONTINUOUS
 62
    3
 10
124.284327662
 20
121.18531383365873
 11
124.09944241185134
 21
121.22943238461755
  0
LINE
  8
_0-4_A0
  6
CONTINUOUS
 62
    3
 10
124.09944241185134
 20
121.22943238461755
 11
123.88526099732153
 21
121.26521956967815
  0
LINE
  8
_0-4_A0
  6
CONTINUOUS
 62
    3
 10
123.88526099732153
 20
121.26521956967815
 11
123.64829121231004
 21
121.29158801333164
  0
LINE
  8
_0-4_A0
  6
CONTINUOUS
 62
    3
 10
123.64829121231004
 20
121.29158801333164
 11
123.39573326382193
 21
121.30773652376073
  0
LINE
  8
_0-4_A0
  6
CONTINUOUS
 62
    3
 10
123.39573326382193
 20
121.30773652376073
 11
123.13526099732153
 21
121.31317443664754
  0
LINE
  8
_0-4_A0
  6
CONTINUOUS
 62
    3
 10
56.535261002716708
 20
209.54582977643778
 11
56.580837743680092
 21
209.00938883556503
  0
LINE
  8
_0-4_A0
  6
CONTINUOUS
 62
    3
 10
56.580837743680092
 20
209.00938883556503
 11
56.716183140358964
 21
208.48924738122849
  0
LINE
  8
_0-4_A0
  6
CONTINUOUS
 62
    3
 10
56.716183140358964
 20
208.48924738122849
 11
56.937184791363392
 21
208.0012096483139
  0
LINE
  8
_0-4_A0
  6
CONTINUOUS
 62
    3
 10
56.937184791363392
 20
208.0012096483139
 11
57.237127673359765
 21
207.56010441637684
  0
LINE
  8
_0-4_A0
  6
CONTINUOUS
 62
    3
 10
57.237127673359765
 20
207.56010441637684
 11
57.606898173657071
 21
207.17933444467973
  0
LINE
  8
_0-4_A0
  6
CONTINUOUS
 62
    3
 10
57.606898173657071
 20
207.17933444467973
 11
58.035261002716708
 21
206.87046923613365
  0
LINE
  8
_0-4_A0
  6
CONTINUOUS
 62
    3
 10
58.035261002716708
 20
206.87046923613365
 11
58.5092005727397
 21
206.64289350380698
  0
LINE
  8
_0-4_A0
  6
CONTINUOUS
 62
    3
 10
58.5092005727397
 20
206.64289350380698
 11
59.014316469715907
 21
206.50352202116755
  0
LINE
  8
_0-4_A0
  6
CONTINUOUS
 62
    3
 10
59.014316469715907
 20
206.50352202116755
 11
59.47617835571836
 21
206.45718867794732
  0
LINE
  8
_0-4_A0
  6
CONTINUOUS
 62
    3
 10
58.03526100294971
 20
212.05831784401533
 11
56.53526100294988
 21
212.05831784415443
  0
ARC
  8
_0-4_A0
  6
CONTINUOUS
 62
    3
 10
59.595261002475893
 20
206.26658952018445
 40
0.0599999999999999
 50
179.99999999393639
 51
269.99999999467161
  0
ARC
  8
_0-4_A0
  6
CONTINUOUS
 62
    3
 10
59.475261002485297
 20
206.39658952019655
 40
0.0599999999999999
 50
359.99999999393338
 51
89.999999994504335
  0
LINE
  8
_0-4_A0
  6
CONTINUOUS
 62
    3
 10
91.335261002082475
 20
206.20658951961735
 11
59.535261002481263
 21
206.20658952029174
  0
LINE
  8
_0-4_A0
  6
HIDDEN
 62
    3
 10
155.0401766639232
 20
121.89577718036164
 11
172.76982180863001
 21
117.53930862360444
  0
LINE
  8
_0-4_A0
  6
CONTINUOUS
 62
    3
 10
126.28526100255503
 20
212.05831784138953
 11
56.385261002555068
 21
212.05831784138953
  0
LINE
  8
_0-4_A0
  6
CONTINUOUS
 62
    3
 10
123.19434364910746
 20
192.88891699688647
 11
123.71428954681606
 21
192.9464051788928
  0
LINE
  8
_0-4_A0
  6
CONTINUOUS
 62
    3
 10
123.71428954681606
 20
192.9464051788928
 11
124.21664195519633
 21
193.09599340842913
  0
LINE
  8
_0-4_A0
  6
CONTINUOUS
 62
    3
 10
124.21664195519633
 20
193.09599340842913
 11
124.68613715052228
 21
193.33313652283626
  0
LINE
  8
_0-4_A0
  6
CONTINUOUS
 62
    3
 10
124.68613715052228
 20
193.33313652283626
 11
125.10850975885992
 21
193.65062904858319
  0
LINE
  8
_0-4_A0
  6
CONTINUOUS
 62
    3
 10
125.10850975885992
 20
193.65062904858319
 11
125.4709262022358
 21
194.03882413593402
  0
LINE
  8
_0-4_A0
  6
CONTINUOUS
 62
    3
 10
125.4709262022358
 20
194.03882413593402
 11
125.76237464040947
 21
194.48592667359579
  0
LINE
  8
_0-4_A0
  6
CONTINUOUS
 62
    3
 10
125.76237464040947
 20
194.48592667359579
 11
125.97399956006708
 21
194.97835167720648
  0
LINE
  8
_0-4_A0
  6
CONTINUOUS
 62
    3
 10
125.97399956006708
 20
194.97835167720648
 11
126.0993708451122
 21
195.50113706221043
  0
LINE
  8
_0-4_A0
  6
CONTINUOUS
 62
    3
 10
126.0993708451122
 20
195.50113706221043
 11
126.13526100211053
 21
195.97755809537693
  0
ARC
  8
_0-4_A0
  6
CONTINUOUS
 62
    3
 10
123.07526100200463
 20
192.69831783912994
 40
0.0599999999999999
 50
269.99999999925807
 51
359.9999999999934
  0
ARC
  8
_0-4_A0
  6
CONTINUOUS
 62
    3
 10
123.19526100200903
 20
192.82831783912925
 40
0.0599999999999999
 50
89.999999999425526
 51
179.99999999999639
  0
LINE
  8
_0-4_A0
  6
CONTINUOUS
 62
    3
 10
91.335261002391789
 20
192.63831784138955
 11
123.13526100199963
 21
192.63831783870233
  0
LINE
  8
_0-4_A0
  6
CONTINUOUS
 62
    3
 10
56.535261003025993
 20
195.97755809821006
 11
56.580837743989377
 21
195.44111715733731
  0
LINE
  8
_0-4_A0
  6
CONTINUOUS
 62
    3
 10
56.580837743989377
 20
195.44111715733731
 11
56.716183140668249
 21
194.92097570300077
  0
LINE
  8
_0-4_A0
  6
CONTINUOUS
 62
    3
 10
56.716183140668249
 20
194.92097570300077
 11
56.937184791672677
 21
194.43293797008618
  0
LINE
  8
_0-4_A0
  6
CONTINUOUS
 62
    3
 10
56.937184791672677
 20
194.43293797008618
 11
57.23712767366905
 21
193.99183273814912
  0
LINE
  8
_0-4_A0
  6
CONTINUOUS
 62
    3
 10
57.23712767366905
 20
193.99183273814912
 11
57.606898173966357
 21
193.61106276645202
  0
LINE
  8
_0-4_A0
  6
CONTINUOUS
 62
    3
 10
57.606898173966357
 20
193.61106276645202
 11
58.035261003025993
 21
193.30219755790594
  0
LINE
  8
_0-4_A0
  6
CONTINUOUS
 62
    3
 10
58.035261003025993
 20
193.30219755790594
 11
58.509200573048985
 21
193.07462182557927
  0
LINE
  8
_0-4_A0
  6
CONTINUOUS
 62
    3
 10
58.509200573048985
 20
193.07462182557927
 11
59.014316470025192
 21
192.93525034293983
  0
LINE
  8
_0-4_A0
  6
CONTINUOUS
 62
    3
 10
59.014316470025192
 20
192.93525034293983
 11
59.476178356027645
 21
192.88891699971961
  0
ARC
  8
_0-4_A0
  6
CONTINUOUS
 62
    3
 10
59.595261002785207
 20
192.69831784195665
 40
0.0599999999999999
 50
179.99999999393639
 51
269.99999999467161
  0
ARC
  8
_0-4_A0
  6
CONTINUOUS
 62
    3
 10
59.475261002794582
 20
192.82831784196875
 40
0.0599999999999999
 50
359.99999999393338
 51
89.999999994504335
  0
LINE
  8
_0-4_A0
  6
CONTINUOUS
 62
    3
 10
91.335261002391774
 20
192.63831784138955
 11
59.535261002783983
 21
192.63831784206405
  0
LINE
  8
_0-4_A0
  6
CONTINUOUS
 62
    3
 10
126.13526100211053
 20
195.97755809533813
 11
126.13526100183374
 21
212.05831784100425
  0
LINE
  8
_0-4_A0
  6
CONTINUOUS
 62
    3
 10
56.535261003026022
 20
195.97755809848834
 11
56.535261002949795
 21
212.05831784415443
  0
LINE
  8
_0-4_A0
  6
CONTINUOUS
 62
    3
 10
59.535261002785262
 20
192.69831784196105
 11
59.535261002485299
 21
206.39658952019215
  0
LINE
  8
_0-4_A0
  6
CONTINUOUS
 62
    3
 10
123.13526100200462
 20
192.69831783912795
 11
123.13526100169973
 21
206.39658951735904
  0
INSERT
  2
-004-_D3
  8
_0-4_A0
 10
-3.3222230146628817
 20
-0.4798102926178557
 41
1
 42
1
 50
0
  0
INSERT
  2
-005-_D4
  8
_0-4_A0
 10
-3.3222230146628817
 20
-0.4798102926178557
 41
1
 42
1
 50
0
  0
INSERT
  2
-006-_D5
  8
_0-4_A0
 10
-3.3222230146628817
 20
-0.4798102926178557
 41
1
 42
1
 50
0
  0
LINE
  8
_0-4_A0
  6
CONTINUOUS
 62
    3
 10
124.78526100239152
 20
212.05831784138953
 11
124.78526100239152
 21
248.55831784138953
  0
LINE
  8
_0-4_A0
  6
CONTINUOUS
 62
    3
 10
126.28526100239152
 20
212.10831784138954
 11
126.28526100239152
 21
250.00831750587204
  0
ARC
  8
_0-4_A0
  6
CONTINUOUS
 62
    3
 10
56.455261002391523
 20
156.92831786305274
 40
0.0699999999999998
 50
179.99999999999639
 51
269.99999999999482
  0
LINE
  8
_0-4_A0
  6
PHANTOM
 62
    3
 10
75.335261004139795
 20
168.54410428738694
 11
75.335261004139852
 21
139.37253141213315
  0
LINE
  8
_0-4_A0
  6
PHANTOM
 62
    3
 10
76.749474566512901
 20
169.95831784976004
 11
91.33526100413988
 21
169.95831784976004
  0
LINE
  8
_0-4_A0
  6
PHANTOM
 62
    3
 10
76.749474566512901
 20
137.95831784976004
 11
91.335261004139823
 21
137.95831784976004
  0
LINE
  8
_0-4_A0
  6
PHANTOM
 62
    3
 10
76.042367785326376
 20
138.25121106857355
 11
75.628154222953298
 21
138.66542463094663
  0
LINE
  8
_0-4_A0
  6
PHANTOM
 62
    3
 10
75.628154222953241
 20
169.25121106857355
 11
76.042367785326376
 21
169.66542463094663
  0
ARC
  8
_0-4_A0
  6
PHANTOM
 62
    3
 10
76.749474566512901
 20
138.95831784976004
 40
1
 50
224.9999999999998
 51
270
  0
ARC
  8
_0-4_A0
  6
PHANTOM
 62
    3
 10
76.335261004139795
 20
139.37253141213315
 40
1
 50
180
 51
225
  0
ARC
  8
_0-4_A0
  6
PHANTOM
 62
    3
 10
76.335261004139795
 20
168.54410428738694
 40
1
 50
134.9999999999996
 51
180
  0
ARC
  8
_0-4_A0
  6
PHANTOM
 62
    3
 10
76.749474566512901
 20
168.95831784976004
 40
1
 50
90
 51
134.99999999999909
  0
LINE
  8
_0-4_A0
  6
PHANTOM
 62
    3
 10
207.7698218090544
 20
168.54410428747445
 11
207.7698218090544
 21
139.37253141222083
  0
LINE
  8
_0-4_A0
  6
PHANTOM
 62
    3
 10
175.7698218090544
 20
168.54410428747465
 11
175.7698218090544
 21
139.37253141222075
  0
LINE
  8
_0-4_A0
  6
PHANTOM
 62
    3
 10
177.18403537142751
 20
169.95831784984764
 11
206.35560824668124
 21
169.95831784984764
  0
LINE
  8
_0-4_A0
  6
PHANTOM
 62
    3
 10
177.18403537142751
 20
137.95831784984764
 11
206.35560824668135
 21
137.95831784984764
  0
LINE
  8
_0-4_A0
  6
PHANTOM
 62
    3
 10
207.06271502786785
 20
169.66542463103425
 11
207.47692859024095
 21
169.25121106866103
  0
LINE
  8
_0-4_A0
  6
PHANTOM
 62
    3
 10
207.47692859024101
 20
138.66542463103425
 11
207.0627150278679
 21
138.25121106866114
  0
LINE
  8
_0-4_A0
  6
PHANTOM
 62
    3
 10
176.47692859024095
 20
138.25121106866114
 11
176.06271502786785
 21
138.66542463103425
  0
LINE
  8
_0-4_A0
  6
PHANTOM
 62
    3
 10
176.06271502786785
 20
169.25121106866114
 11
176.47692859024095
 21
169.66542463103425
  0
ARC
  8
_0-4_A0
  6
PHANTOM
 62
    3
 10
206.35560824668124
 20
168.95831784984764
 40
1
 50
44.999999999999545
 51
90
  0
ARC
  8
_0-4_A0
  6
PHANTOM
 62
    3
 10
206.7698218090544
 20
168.54410428747453
 40
1
 50
0
 51
44.999999999999083
  0
ARC
  8
_0-4_A0
  6
PHANTOM
 62
    3
 10
206.7698218090544
 20
139.37253141222083
 40
1
 50
315.00000000000011
 51
0
  0
ARC
  8
_0-4_A0
  6
PHANTOM
 62
    3
 10
206.35560824668135
 20
138.95831784984764
 40
1
 50
270
 51
315
  0
ARC
  8
_0-4_A0
  6
PHANTOM
 62
    3
 10
177.18403537142751
 20
138.95831784984764
 40
1
 50
224.9999999999998
 51
270
  0
ARC
  8
_0-4_A0
  6
PHANTOM
 62
    3
 10
176.7698218090544
 20
139.37253141222075
 40
1
 50
180
 51
225
  0
ARC
  8
_0-4_A0
  6
PHANTOM
 62
    3
 10
176.7698218090544
 20
168.54410428747465
 40
1
 50
134.9999999999996
 51
180
  0
ARC
  8
_0-4_A0
  6
PHANTOM
 62
    3
 10
177.18403537142751
 20
168.95831784984773
 40
1
 50
90
 51
134.99999999999909
  0
LINE
  8
_0-4_A0
  6
CENTER
 62
    3
 10
277.77663040903053
 20
183.34918471735534
 11
277.77663040903053
 21
110.27924385414974
  0
LINE
  8
_0-4_A0
  6
CENTER
 62
    3
 10
69.652836939044703
 20
154.05831784808364
 11
91.335261002391675
 21
154.05831784808364
  0
ARC
  8
_0-4_A0
  6
CONTINUOUS
 62
    3
 10
242.89663040903053
 20
157.02831785132963
 40
0.0699999999999998
 50
179.99999999999639
 51
269.99999999999482
  0
LINE
  8
_0-4_A0
  6
PHANTOM
 62
    3
 10
293.77663040903053
 20
168.54410428732535
 11
293.77663040903053
 21
139.37253141207165
  0
LINE
  8
_0-4_A0
  6
PHANTOM
 62
    3
 10
261.77663040903053
 20
168.54410428732543
 11
261.77663040903053
 21
139.37253141207153
  0
LINE
  8
_0-4_A0
  6
PHANTOM
 62
    3
 10
263.19084397140363
 20
169.95831784969843
 11
292.36241684665731
 21
169.95831784969843
  0
LINE
  8
_0-4_A0
  6
PHANTOM
 62
    3
 10
263.19084397140363
 20
137.95831784969843
 11
292.36241684665742
 21
137.95831784969843
  0
LINE
  8
_0-4_A0
  6
CENTER
 62
    3
 10
303.96628505128944
 20
171.95831784969885
 11
310.8392696014348
 21
171.95831784969885
  0
LINE
  8
_0-4_A0
  6
CENTER
 62
    3
 10
307.77663040903053
 20
173.85365758039245
 11
307.77663040903053
 21
135.13201258852444
  0
LINE
  8
_0-4_A0
  6
CENTER
 62
    3
 10
305.09914988204803
 20
136.95831784969885
 11
310.28645195841983
 21
136.95831784969885
  0
ARC
  8
_0-4_A0
  6
CONTINUOUS
 62
    3
 10
307.77663040903053
 20
171.95831784969885
 40
0.26
 50
0
 51
180
  0
LINE
  8
_0-4_A0
  6
CENTER
 62
    3
 10
306.33300091711612
 20
170.95831784969885
 11
309.21528153152883
 21
170.95831784969885
  0
LINE
  8
_0-4_A0
  6
CONTINUOUS
 62
    3
 10
308.03663040903052
 20
171.95831784969885
 11
308.03663040903052
 21
171.71488906247395
  0
LINE
  8
_0-4_A0
  6
CONTINUOUS
 62
    3
 10
307.51663040903054
 20
171.95831784969885
 11
307.51663040903054
 21
171.71488906247395
  0
ARC
  8
_0-4_A0
  6
CONTINUOUS
 62
    3
 10
307.77663040903053
 20
170.95831784969885
 40
0.8
 50
108.96557498884789
 51
71.034425011152052
  0
CIRCLE
  8
_0-4_A0
  6
CONTINUOUS
 62
    3
 10
307.77663040903053
 20
136.95831784969885
 40
0.2999999999999998
  0
LINE
  8
_0-4_A0
  6
CENTER
 62
    3
 10
251.58697576677155
 20
171.95831784969885
 11
244.71399121662614
 21
171.95831784969885
  0
LINE
  8
_0-4_A0
  6
CENTER
 62
    3
 10
247.77663040903041
 20
173.85365758039245
 11
247.77663040903053
 21
135.13201258852444
  0
LINE
  8
_0-4_A0
  6
CENTER
 62
    3
 10
250.45411093601302
 20
136.95831784969885
 11
245.26680885964123
 21
136.95831784969885
  0
ARC
  8
_0-4_A0
  6
CONTINUOUS
 62
    3
 10
247.77663040903041
 20
171.95831784969885
 40
0.26
 50
0.0000000000000254
 51
180
  0
LINE
  8
_0-4_A0
  6
CENTER
 62
    3
 10
249.22025990094493
 20
170.95831784969885
 11
246.33797928653211
 21
170.95831784969885
  0
LINE
  8
_0-4_A0
  6
CONTINUOUS
 62
    3
 10
247.51663040903042
 20
171.95831784969885
 11
247.51663040903042
 21
171.71488906247395
  0
LINE
  8
_0-4_A0
  6
CONTINUOUS
 62
    3
 10
248.0366304090304
 20
171.95831784969885
 11
248.0366304090304
 21
171.71488906247395
  0
ARC
  8
_0-4_A0
  6
CONTINUOUS
 62
    3
 10
247.77663040903053
 20
170.95831784969885
 40
0.8
 50
108.96557498884789
 51
71.034425011152222
  0
CIRCLE
  8
_0-4_A0
  6
CONTINUOUS
 62
    3
 10
247.77663040903053
 20
136.95831784969885
 40
0.2999999999999998
  0
LINE
  8
_0-4_A0
  6
PHANTOM
 62
    3
 10
293.06952362784392
 20
169.66542463088504
 11
293.48373719021714
 21
169.25121106851185
  0
LINE
  8
_0-4_A0
  6
PHANTOM
 62
    3
 10
293.48373719021714
 20
138.66542463088504
 11
293.06952362784403
 21
138.25121106851193
  0
LINE
  8
_0-4_A0
  6
PHANTOM
 62
    3
 10
262.48373719021702
 20
138.25121106851193
 11
262.06952362784403
 21
138.66542463088504
  0
LINE
  8
_0-4_A0
  6
PHANTOM
 62
    3
 10
262.06952362784403
 20
169.25121106851193
 11
262.48373719021714
 21
169.66542463088504
  0
ARC
  8
_0-4_A0
  6
PHANTOM
 62
    3
 10
292.36241684665731
 20
168.95831784969843
 40
1
 50
44.999999999999545
 51
90
  0
ARC
  8
_0-4_A0
  6
PHANTOM
 62
    3
 10
292.77663040903053
 20
168.54410428732535
 40
1
 50
0
 51
44.999999999999083
  0
ARC
  8
_0-4_A0
  6
PHANTOM
 62
    3
 10
292.77663040903053
 20
139.37253141207165
 40
1
 50
315.00000000000011
 51
0
  0
ARC
  8
_0-4_A0
  6
PHANTOM
 62
    3
 10
292.36241684665742
 20
138.95831784969843
 40
1
 50
270
 51
315
  0
ARC
  8
_0-4_A0
  6
PHANTOM
 62
    3
 10
263.19084397140363
 20
138.95831784969843
 40
1
 50
224.9999999999998
 51
270
  0
ARC
  8
_0-4_A0
  6
PHANTOM
 62
    3
 10
262.77663040903053
 20
139.37253141207153
 40
1
 50
180
 51
225
  0
ARC
  8
_0-4_A0
  6
PHANTOM
 62
    3
 10
262.77663040903053
 20
168.54410428732543
 40
1
 50
134.9999999999996
 51
180
  0
ARC
  8
_0-4_A0
  6
PHANTOM
 62
    3
 10
263.19084397140363
 20
168.95831784969843
 40
1
 50
90
 51
134.99999999999909
  0
INSERT
  2
-007-_D6
  8
_0-4_A0
 10
-3.3222230146628817
 20
-0.4798102926178557
 41
1
 42
1
 50
0
  0
INSERT
  2
-008-_D7
  8
_0-4_A0
 10
-3.3222230146628817
 20
-0.4798102926178557
 41
1
 42
1
 50
0
  0
INSERT
  2
-009-_D8
  8
_0-4_A0
 10
-3.3222230146628817
 20
-0.4798102926178557
 41
1
 42
1
 50
0
  0
LINE
  8
_0-4_A0
  6
CENTER
 62
    3
 10
323.37006565741722
 20
153.95831784968945
 11
327.31752197056141
 21
153.95831784968854
  0
INSERT
  2
-010-_D9
  8
_0-4_A0
 10
-3.3222230146628817
 20
-0.4798102926178557
 41
1
 42
1
 50
0
  0
INSERT
  2
-011-_D10
  8
_0-4_A0
 10
-3.3222230146628817
 20
-0.4798102926178557
 41
1
 42
1
 50
0
  0
INSERT
  2
-012-_D11
  8
_0-4_A0
 10
-3.3222230146628817
 20
-0.4798102926178557
 41
1
 42
1
 50
0
  0
INSERT
  2
-013-_D12
  8
_0-4_A0
 10
-3.3222230146628817
 20
-0.4798102926178557
 41
1
 42
1
 50
0
  0
LINE
  8
_0-4_A0
  6
CONTINUOUS
 62
    3
 10
172.7698218086092
 20
117.01831785384074
 11
172.76982181100214
 21
176.95831785145665
  0
INSERT
  2
-014-_D13
  8
_0-4_A0
 10
-3.3222230146628817
 20
-0.4798102926178557
 41
1
 42
1
 50
0
  0
INSERT
  2
-015-_D14
  8
_0-4_A0
 10
-3.3222230146628817
 20
-0.4798102926178557
 41
1
 42
1
 50
0
  0
LINE
  8
_0-4_A0
  6
CONTINUOUS
 62
    3
 10
62.835261001470598
 20
242.50831784371573
 11
64.835261001470598
 21
242.50831784371573
  0
LINE
  8
_0-4_A0
  6
CENTER
 62
    3
 10
63.835261001470598
 20
246.23979403402344
 11
63.835261001470598
 21
241.49883404403564
  0
LINE
  8
_0-4_A0
  6
CONTINUOUS
 62
    3
 10
62.835261001470598
 20
245.50831784371573
 11
62.835261001470598
 21
242.50831784371573
  0
LINE
  8
_0-4_A0
  6
CONTINUOUS
 62
    3
 10
64.835261001470598
 20
245.50831784371573
 11
62.835261001470598
 21
245.50831784371573
  0
LINE
  8
_0-4_A0
  6
CONTINUOUS
 62
    3
 10
64.835261001470598
 20
242.50831784371573
 11
64.835261001470598
 21
245.50831784371573
  0
LINE
  8
_0-4_A0
  6
CENTER
 62
    3
 10
65.651183623746305
 20
244.00831784371573
 11
62.016448368231635
 21
244.00831784371573
  0
LINE
  8
_0-4_A0
  6
CONTINUOUS
 62
    3
 10
119.83526100331303
 20
242.50831784371564
 11
117.83526100331303
 21
242.50831784371573
  0
LINE
  8
_0-4_A0
  6
CENTER
 62
    3
 10
118.83526100331303
 20
246.23979403402333
 11
118.83526100331303
 21
241.49883404403553
  0
LINE
  8
_0-4_A0
  6
CONTINUOUS
 62
    3
 10
119.83526100331303
 20
245.50831784371564
 11
119.83526100331303
 21
242.50831784371564
  0
LINE
  8
_0-4_A0
  6
CONTINUOUS
 62
    3
 10
117.83526100331303
 20
245.50831784371573
 11
119.83526100331303
 21
245.50831784371564
  0
LINE
  8
_0-4_A0
  6
CONTINUOUS
 62
    3
 10
117.83526100331303
 20
242.50831784371573
 11
117.83526100331303
 21
245.50831784371573
  0
LINE
  8
_0-4_A0
  6
CENTER
 62
    3
 10
117.01933838103732
 20
244.00831784371573
 11
120.65407363655202
 21
244.00831784371573
  0
INSERT
  2
-016-_D17
  8
_0-4_A0
 10
-3.3222230146628817
 20
-0.4798102926178557
 41
1
 42
1
 50
0
  0
LINE
  8
_0-4_A0
  6
CENTER
 62
    3
 10
91.33526100239159
 20
112.01935436579704
 11
91.335261002391703
 21
184.18600610966504
  0
LINE
  8
_0-4_A0
  6
CENTER
 62
    3
 10
91.335261002391717
 20
190.88528873709805
 11
91.335261002391845
 21
263.89502014913011
  0
INSERT
  2
-017-_D18
  8
_0-4_A0
 10
-3.3222230146628817
 20
-0.4798102926178557
 41
1
 42
1
 50
0
  0
INSERT
  2
-018-_D19
  8
_0-4_A0
 10
-3.3222230146628817
 20
-0.4798102926178557
 41
1
 42
1
 50
0
  0
LINE
  8
_0-4_A0
  6
HIDDEN
 62
    3
 10
172.82982180836114
 20
129.21831785157544
 11
172.9498218083612
 21
129.21831785157553
  0
LINE
  8
_0-4_A0
  6
HIDDEN
 62
    3
 10
172.2298218083639
 20
122.07831785149365
 11
172.84982180836402
 21
122.07831785149365
  0
LINE
  8
_0-4_A0
  6
HIDDEN
 62
    3
 10
172.22982180837232
 20
121.95831785150573
 11
172.82982180836404
 21
121.95831785150583
  0
LINE
  8
_0-4_A0
  6
HIDDEN
 62
    3
 10
172.22982180837215
 20
122.07831785149365
 11
172.2298218083722
 21
121.95831785150573
  0
ARC
  8
_0-4_A0
  6
HIDDEN
 62
    3
 10
172.84982180836402
 20
121.97831785149364
 40
0.1
 50
0
 51
90
  0
LINE
  8
_0-4_A0
  6
HIDDEN
 62
    3
 10
172.22982180836112
 20
121.01831785149454
 11
172.82982180836432
 21
121.01831785149414
  0
LINE
  8
_0-4_A0
  6
HIDDEN
 62
    3
 10
172.22982180836112
 20
120.89831785149614
 11
172.84982180836442
 21
120.89831785149654
  0
LINE
  8
_0-4_A0
  6
HIDDEN
 62
    3
 10
172.22982180836123
 20
121.01831785149454
 11
172.22982180836123
 21
120.89831785149614
  0
LINE
  8
_0-4_A0
  6
HIDDEN
 62
    3
 10
172.82982180836432
 20
121.01831785149414
 11
172.82982180836353
 21
123.31831785151544
  0
ARC
  8
_0-4_A0
  6
HIDDEN
 62
    3
 10
172.84982180836442
 20
120.99831785149653
 40
0.1
 50
270
 51
0
  0
LINE
  8
_0-4_A0
  6
HIDDEN
 62
    3
 10
172.70982180298523
 20
128.21831785156953
 11
172.58982180298522
 21
128.21831785156965
  0
LINE
  8
_0-4_A0
  6
HIDDEN
 62
    3
 10
172.76982180598372
 20
126.21831785150673
 11
172.76982180598372
 21
126.11831785151224
  0
LINE
  8
_0-4_A0
  6
HIDDEN
 62
    3
 10
172.45982180831146
 20
126.01831785152094
 11
172.45982180831202
 21
122.71831785152095
  0
LINE
  8
_0-4_A0
  6
HIDDEN
 62
    3
 10
173.09982180833003
 20
126.01831785152094
 11
173.09982180833065
 21
122.71831785152095
  0
ARC
  8
_0-4_A0
  6
HIDDEN
 62
    3
 10
172.43982180836144
 20
125.99831785150234
 40
0.1
 50
11.536959121900387
 51
89.999999999999985
  0
ARC
  8
_0-4_A0
  6
HIDDEN
 62
    3
 10
173.11982180828005
 20
125.99831785150225
 40
0.1
 50
90
 51
168.46304087808678
  0
LINE
  8
_0-4_A0
  6
HIDDEN
 62
    3
 10
172.45982180831202
 20
123.31831785151564
 11
173.09982180833065
 21
123.31831785151554
  0
LINE
  8
_0-4_A0
  6
HIDDEN
 62
    3
 10
172.53982180836675
 20
122.70533563887154
 11
172.53982180836595
 21
123.31831785151564
  0
LINE
  8
_0-4_A0
  6
HIDDEN
 62
    3
 10
173.01982180834932
 20
122.70421169301744
 11
173.01982180834932
 21
123.31831785151554
  0
LINE
  8
_0-4_A0
  6
HIDDEN
 62
    3
 10
173.09982180833065
 20
122.71831785152824
 11
173.24982180833353
 21
122.45851023038784
  0
LINE
  8
_0-4_A0
  6
HIDDEN
 62
    3
 10
173.24982180833364
 20
122.45851023038794
 11
173.18053977603085
 21
122.41851023038793
  0
LINE
  8
_0-4_A0
  6
HIDDEN
 62
    3
 10
173.0198218083492
 20
122.69688191610144
 11
173.18053977603085
 21
122.41851023038773
  0
LINE
  8
_0-4_A0
  6
HIDDEN
 62
    3
 10
172.45982180838552
 20
122.71831785152724
 11
172.30982180838356
 21
122.45851023038643
  0
LINE
  8
_0-4_A0
  6
HIDDEN
 62
    3
 10
172.30982180838361
 20
122.45851023038643
 11
172.37910384068652
 21
122.41851023038664
  0
LINE
  8
_0-4_A0
  6
HIDDEN
 62
    3
 10
172.53982180836715
 20
122.69688191610084
 11
172.37910384068652
 21
122.41851023038664
  0
ARC
  8
_0-4_A0
  6
HIDDEN
 62
    3
 10
172.16482180836624
 20
123.01831785151324
 40
0.4250000000000013
 50
331.92751306422627
 51
28.072486935932079
  0
ARC
  8
_0-4_A0
  6
HIDDEN
 62
    3
 10
173.39482180834903
 20
123.01831785151514
 40
0.4250000000000013
 50
151.92751306425731
 51
208.07248693596301
  0
LINE
  8
_0-4_A0
  6
HIDDEN
 62
    3
 10
172.94982180836234
 20
126.01831785165464
 11
172.94982180836115
 21
129.21831785157553
  0
LINE
  8
_0-4_A0
  6
HIDDEN
 62
    3
 10
172.58982180298511
 20
128.21831785156953
 11
172.58982180298534
 21
126.01831785165464
  0
LINE
  8
_0-4_A0
  6
HIDDEN
 62
    3
 10
172.42982180831154
 20
125.58831785152084
 11
172.45982180831151
 21
125.58831785152084
  0
LINE
  8
_0-4_A0
  6
HIDDEN
 62
    3
 10
172.45982180831151
 20
124.64831785152084
 11
172.42982180831154
 21
124.64831785152084
  0
LINE
  8
_0-4_A0
  6
HIDDEN
 62
    3
 10
172.42982180831154
 20
125.58831785152084
 11
172.42982180831154
 21
124.64831785152084
  0
LINE
  8
_0-4_A0
  6
HIDDEN
 62
    3
 10
172.45982180831151
 20
125.58831785152084
 11
172.45982180831151
 21
124.64831785152084
  0
ARC
  8
_0-4_A0
  6
HIDDEN
 62
    3
 10
172.82186726285704
 20
125.11831785152084
 40
0.6120454545454544
 50
129.8328119876146
 51
230.16718801237826
  0
LINE
  8
_0-4_A0
  6
HIDDEN
 62
    3
 10
173.81982180834864
 20
126.01831785165464
 11
173.81982180834864
 21
126.09831785150224
  0
LINE
  8
_0-4_A0
  6
HIDDEN
 62
    3
 10
171.73982180836264
 20
126.09831785150224
 11
172.43982180836144
 21
126.09831785150224
  0
LINE
  8
_0-4_A0
  6
HIDDEN
 62
    3
 10
173.11982180828005
 20
126.09831785150224
 11
173.81982180834864
 21
126.09831785150224
  0
LINE
  8
_0-4_A0
  6
HIDDEN
 62
    3
 10
171.73982180836264
 20
126.01831785165464
 11
171.73982180836264
 21
126.09831785150224
  0
LINE
  8
_0-4_A0
  6
HIDDEN
 62
    3
 10
171.73982180836264
 20
126.01831785165464
 11
172.45982180831134
 21
126.01831785165464
  0
LINE
  8
_0-4_A0
  6
HIDDEN
 62
    3
 10
172.45982180831134
 20
126.01831785165464
 11
173.81982180834864
 21
126.01831785165464
  0
LINE
  8
_0-4_A0
  6
HIDDEN
 62
    3
 10
172.70982180687684
 20
128.21831785155845
 11
172.60982180687693
 21
128.21831785156683
  0
LINE
  8
_0-4_A0
  6
HIDDEN
 62
    3
 10
172.94982180836404
 20
121.97831785149364
 11
172.94982180836444
 21
120.99831785149653
  0
LINE
  8
_0-e_A20
  6
CONTINUOUS
 62
    3
 10
86.335261000786985
 20
176.95831784892573
 11
56.38526100239153
 21
176.95831785145665
  0
LINE
  8
_0-e_A20
  6
CONTINUOUS
 62
    3
 10
58.085261002205584
 20
174.75831785131353
 11
58.085260997507219
 21
119.15831785145724
  0
LINE
  8
_0-e_A20
  6
CONTINUOUS
 62
    3
 10
58.808497829983139
 20
176.95831785125184
 11
116.28526099657082
 21
176.95831784639483
  0
LINE
  8
_0-e_A20
  6
CONTINUOUS
 62
    3
 10
57.985261002214031
 20
174.85831785132143
 11
57.985261002369497
 21
176.69831785132143
  0
LINE
  8
_0-e_A20
  6
CONTINUOUS
 62
    3
 10
58.085261002205584
 20
174.75831785131353
 11
57.985261002214031
 21
174.85831785132134
  0
LINE
  8
_0-e_A20
  6
CONTINUOUS
 62
    3
 10
57.785261002386448
 20
176.89831785133824
 11
57.985261002369497
 21
176.69831785132143
  0
LINE
  8
_0-e_A20
  6
CONTINUOUS
 62
    3
 10
86.335261002386431
 20
176.89831784892575
 11
56.385261002386442
 21
176.89831784892643
  0
LINE
  8
_0-e_A20
  6
CONTINUOUS
 62
    3
 10
91.335261002391689
 20
176.89831784892575
 11
56.445261002386416
 21
176.89831784892575
  0
LINE
  8
_0-4_A0
  6
CONTINUOUS
 62
    3
 10
58.835260997483658
 20
120.95831785145544
 11
59.435260997485727
 21
120.95831785145504
  0
LINE
  8
_0-4_A0
  6
CONTINUOUS
 62
    3
 10
58.335260997483089
 20
122.01831785145574
 11
58.835260997483089
 21
122.01831785145544
  0
LINE
  8
_0-4_A0
  6
CONTINUOUS
 62
    3
 10
58.23526099748301
 20
121.89831785145574
 11
58.935260997482998
 21
121.89831785145534
  0
LINE
  8
_0-4_A0
  6
CONTINUOUS
 62
    3
 10
58.835260997483032
 20
122.01831785145544
 11
58.835260997482919
 21
121.89831785145544
  0
LINE
  8
_0-4_A0
  6
CONTINUOUS
 62
    3
 10
58.335260997483032
 20
122.01831785145574
 11
58.335260997482919
 21
121.89831785145574
  0
LINE
  8
_0-4_A0
  6
CONTINUOUS
 62
    3
 10
59.035260997483391
 20
122.49831785145524
 11
59.035260997483021
 21
121.99831785145534
  0
LINE
  8
_0-4_A0
  6
CONTINUOUS
 62
    3
 10
58.335260997483544
 20
122.69831785145574
 11
58.835260997483544
 21
122.69831785145544
  0
LINE
  8
_0-4_A0
  6
CONTINUOUS
 62
    3
 10
58.135260997483385
 20
122.49831785145595
 11
58.135260997482987
 21
121.99831785145583
  0
ARC
  8
_0-4_A0
  6
CONTINUOUS
 62
    3
 10
58.835260997483374
 20
122.49831785145543
 40
0.2
 50
0
 51
90
  0
ARC
  8
_0-4_A0
  6
CONTINUOUS
 62
    3
 10
58.335260997483374
 20
122.49831785145573
 40
0.2
 50
90
 51
180
  0
ARC
  8
_0-4_A0
  6
CONTINUOUS
 62
    3
 10
58.23526099748301
 20
121.99831785145573
 40
0.1
 50
180
 51
270
  0
ARC
  8
_0-4_A0
  6
CONTINUOUS
 62
    3
 10
58.935260997483055
 20
121.99831785145534
 40
0.1
 50
270
 51
0
  0
LINE
  8
_0-4_A0
  6
CENTER
 62
    3
 10
58.835260997481839
 20
123.63448502253945
 11
58.835260997480531
 21
126.64573710488254
  0
LINE
  8
_0-4_A0
  6
CENTER
 62
    3
 10
57.825580773103979
 20
125.05831785147783
 11
60.212912591874896
 21
125.05831785147704
  0
LINE
  8
_0-4_A0
  6
CENTER
 62
    3
 10
58.585260997483089
 20
123.05132514305694
 11
58.585260997483231
 21
121.46121493875924
  0
LINE
  8
_0-4_A0
  6
CONTINUOUS
 62
    3
 10
59.035260997485579
 20
120.83482090058654
 11
59.335260997485647
 21
120.83482090058664
  0
LINE
  8
_0-4_A0
  6
CONTINUOUS
 62
    3
 10
59.035260997485465
 20
120.71874901361864
 11
59.335260997485534
 21
120.71874901361874
  0
LINE
  8
_0-4_A0
  6
CONTINUOUS
 62
    3
 10
59.33526099748559
 20
120.83482090058664
 11
59.3178961797189
 21
120.83508605388296
  0
LINE
  8
_0-4_A0
  6
CONTINUOUS
 62
    3
 10
59.3178961797189
 20
120.83508605388296
 11
59.301058983153041
 21
120.83587345722314
  0
LINE
  8
_0-4_A0
  6
CONTINUOUS
 62
    3
 10
59.301058983153041
 20
120.83587345722314
 11
59.285260997485579
 21
120.83715918575515
  0
LINE
  8
_0-4_A0
  6
CONTINUOUS
 62
    3
 10
59.285260997485579
 20
120.83715918575515
 11
59.270982236516942
 21
120.83890417326817
  0
LINE
  8
_0-4_A0
  6
CONTINUOUS
 62
    3
 10
59.270982236516942
 20
120.83890417326817
 11
59.258656553173693
 21
120.8410553991996
  0
LINE
  8
_0-4_A0
  6
CONTINUOUS
 62
    3
 10
59.258656553173693
 20
120.8410553991996
 11
59.248658457107154
 21
120.8435474996381
  0
LINE
  8
_0-4_A0
  6
CONTINUOUS
 62
    3
 10
59.248658457107154
 20
120.8435474996381
 11
59.241291735407003
 21
120.8463047533729
  0
LINE
  8
_0-4_A0
  6
CONTINUOUS
 62
    3
 10
59.241291735407003
 20
120.8463047533729
 11
59.236780222184364
 21
120.84924338264451
  0
LINE
  8
_0-4_A0
  6
CONTINUOUS
 62
    3
 10
59.236780222184364
 20
120.84924338264451
 11
59.235260997485596
 21
120.85227409868954
  0
LINE
  8
_0-4_A0
  6
CONTINUOUS
 62
    3
 10
59.235260997485596
 20
120.85227409868954
 11
59.236780222184364
 21
120.85530481473458
  0
LINE
  8
_0-4_A0
  6
CONTINUOUS
 62
    3
 10
59.236780222184364
 20
120.85530481473458
 11
59.241291735407003
 21
120.85824344400619
  0
LINE
  8
_0-4_A0
  6
CONTINUOUS
 62
    3
 10
59.241291735407003
 20
120.85824344400619
 11
59.248658457107154
 21
120.86100069774099
  0
LINE
  8
_0-4_A0
  6
CONTINUOUS
 62
    3
 10
59.248658457107154
 20
120.86100069774099
 11
59.258656553173693
 21
120.86349279817949
  0
LINE
  8
_0-4_A0
  6
CONTINUOUS
 62
    3
 10
59.258656553173693
 20
120.86349279817949
 11
59.270982236516942
 21
120.86564402411092
  0
LINE
  8
_0-4_A0
  6
CONTINUOUS
 62
    3
 10
59.270982236516942
 20
120.86564402411092
 11
59.285260997485579
 21
120.86738901162394
  0
LINE
  8
_0-4_A0
  6
CONTINUOUS
 62
    3
 10
59.285260997485579
 20
120.86738901162394
 11
59.301058983153041
 21
120.86867474015595
  0
LINE
  8
_0-4_A0
  6
CONTINUOUS
 62
    3
 10
59.301058983153041
 20
120.86867474015595
 11
59.3178961797189
 21
120.86946214349613
  0
LINE
  8
_0-4_A0
  6
CONTINUOUS
 62
    3
 10
59.3178961797189
 20
120.86946214349613
 11
59.33526099748559
 21
120.86972729679244
  0
LINE
  8
_0-4_A0
  6
CONTINUOUS
 62
    3
 10
59.33526099748559
 20
120.86972729679244
 11
59.352625815252281
 21
120.86946214349613
  0
LINE
  8
_0-4_A0
  6
CONTINUOUS
 62
    3
 10
59.352625815252281
 20
120.86946214349613
 11
59.36946301181814
 21
120.86867474015595
  0
LINE
  8
_0-4_A0
  6
CONTINUOUS
 62
    3
 10
59.36946301181814
 20
120.86867474015595
 11
59.385260997485602
 21
120.86738901162394
  0
LINE
  8
_0-4_A0
  6
CONTINUOUS
 62
    3
 10
59.385260997485602
 20
120.86738901162394
 11
59.399539758454238
 21
120.86564402411092
  0
LINE
  8
_0-4_A0
  6
CONTINUOUS
 62
    3
 10
59.399539758454238
 20
120.86564402411092
 11
59.411865441797488
 21
120.86349279817949
  0
LINE
  8
_0-4_A0
  6
CONTINUOUS
 62
    3
 10
59.411865441797488
 20
120.86349279817949
 11
59.421863537864027
 21
120.86100069774099
  0
LINE
  8
_0-4_A0
  6
CONTINUOUS
 62
    3
 10
59.421863537864027
 20
120.86100069774099
 11
59.429230259564178
 21
120.85824344400619
  0
LINE
  8
_0-4_A0
  6
CONTINUOUS
 62
    3
 10
59.429230259564178
 20
120.85824344400619
 11
59.433741772786817
 21
120.85530481473458
  0
LINE
  8
_0-4_A0
  6
CONTINUOUS
 62
    3
 10
59.433741772786817
 20
120.85530481473458
 11
59.435260997485585
 21
120.85227409868954
  0
LINE
  8
_0-4_A0
  6
CONTINUOUS
 62
    3
 10
59.335260997485477
 20
120.71874901361864
 11
59.317896179718786
 21
120.71901416691495
  0
LINE
  8
_0-4_A0
  6
CONTINUOUS
 62
    3
 10
59.317896179718786
 20
120.71901416691495
 11
59.301058983152927
 21
120.71980157025514
  0
LINE
  8
_0-4_A0
  6
CONTINUOUS
 62
    3
 10
59.301058983152927
 20
120.71980157025514
 11
59.285260997485465
 21
120.72108729878715
  0
LINE
  8
_0-4_A0
  6
CONTINUOUS
 62
    3
 10
59.285260997485465
 20
120.72108729878715
 11
59.270982236516829
 21
120.72283228630017
  0
LINE
  8
_0-4_A0
  6
CONTINUOUS
 62
    3
 10
59.270982236516829
 20
120.72283228630017
 11
59.25865655317358
 21
120.7249835122316
  0
LINE
  8
_0-4_A0
  6
CONTINUOUS
 62
    3
 10
59.25865655317358
 20
120.7249835122316
 11
59.24865845710704
 21
120.7274756126701
  0
LINE
  8
_0-4_A0
  6
CONTINUOUS
 62
    3
 10
59.24865845710704
 20
120.7274756126701
 11
59.241291735406889
 21
120.7302328664049
  0
LINE
  8
_0-4_A0
  6
CONTINUOUS
 62
    3
 10
59.241291735406889
 20
120.7302328664049
 11
59.23678022218425
 21
120.73317149567651
  0
LINE
  8
_0-4_A0
  6
CONTINUOUS
 62
    3
 10
59.23678022218425
 20
120.73317149567651
 11
59.235260997485482
 21
120.73620221172154
  0
LINE
  8
_0-4_A0
  6
CONTINUOUS
 62
    3
 10
59.235260997485482
 20
120.73620221172154
 11
59.23678022218425
 21
120.73923292776657
  0
LINE
  8
_0-4_A0
  6
CONTINUOUS
 62
    3
 10
59.23678022218425
 20
120.73923292776657
 11
59.241291735406889
 21
120.74217155703819
  0
LINE
  8
_0-4_A0
  6
CONTINUOUS
 62
    3
 10
59.241291735406889
 20
120.74217155703819
 11
59.24865845710704
 21
120.74492881077298
  0
LINE
  8
_0-4_A0
  6
CONTINUOUS
 62
    3
 10
59.24865845710704
 20
120.74492881077298
 11
59.25865655317358
 21
120.74742091121149
  0
LINE
  8
_0-4_A0
  6
CONTINUOUS
 62
    3
 10
59.25865655317358
 20
120.74742091121149
 11
59.270982236516829
 21
120.74957213714291
  0
LINE
  8
_0-4_A0
  6
CONTINUOUS
 62
    3
 10
59.270982236516829
 20
120.74957213714291
 11
59.285260997485465
 21
120.75131712465594
  0
LINE
  8
_0-4_A0
  6
CONTINUOUS
 62
    3
 10
59.285260997485465
 20
120.75131712465594
 11
59.301058983152927
 21
120.75260285318795
  0
LINE
  8
_0-4_A0
  6
CONTINUOUS
 62
    3
 10
59.301058983152927
 20
120.75260285318795
 11
59.317896179718786
 21
120.75339025652813
  0
LINE
  8
_0-4_A0
  6
CONTINUOUS
 62
    3
 10
59.317896179718786
 20
120.75339025652813
 11
59.335260997485477
 21
120.75365540982444
  0
LINE
  8
_0-4_A0
  6
CONTINUOUS
 62
    3
 10
59.335260997485477
 20
120.75365540982444
 11
59.352625815252167
 21
120.75339025652813
  0
LINE
  8
_0-4_A0
  6
CONTINUOUS
 62
    3
 10
59.352625815252167
 20
120.75339025652813
 11
59.369463011818027
 21
120.75260285318795
  0
LINE
  8
_0-4_A0
  6
CONTINUOUS
 62
    3
 10
59.369463011818027
 20
120.75260285318795
 11
59.385260997485488
 21
120.75131712465594
  0
LINE
  8
_0-4_A0
  6
CONTINUOUS
 62
    3
 10
59.385260997485488
 20
120.75131712465594
 11
59.399539758454125
 21
120.74957213714291
  0
LINE
  8
_0-4_A0
  6
CONTINUOUS
 62
    3
 10
59.399539758454125
 20
120.74957213714291
 11
59.411865441797374
 21
120.74742091121149
  0
LINE
  8
_0-4_A0
  6
CONTINUOUS
 62
    3
 10
59.411865441797374
 20
120.74742091121149
 11
59.421863537863913
 21
120.74492881077298
  0
LINE
  8
_0-4_A0
  6
CONTINUOUS
 62
    3
 10
59.421863537863913
 20
120.74492881077298
 11
59.429230259564064
 21
120.74217155703819
  0
LINE
  8
_0-4_A0
  6
CONTINUOUS
 62
    3
 10
59.429230259564064
 20
120.74217155703819
 11
59.433741772786703
 21
120.73923292776657
  0
LINE
  8
_0-4_A0
  6
CONTINUOUS
 62
    3
 10
59.433741772786703
 20
120.73923292776657
 11
59.435260997485471
 21
120.73620221172154
  0
LINE
  8
_0-4_A0
  6
CONTINUOUS
 62
    3
 10
58.935260997485556
 20
120.73620221172194
 11
58.93526099748567
 21
120.95831785145544
  0
LINE
  8
_0-4_A0
  6
CONTINUOUS
 62
    3
 10
58.935260997485585
 20
120.85227409868984
 11
58.936780222184353
 21
120.85530481473487
  0
LINE
  8
_0-4_A0
  6
CONTINUOUS
 62
    3
 10
58.936780222184353
 20
120.85530481473487
 11
58.941291735406991
 21
120.85824344400649
  0
LINE
  8
_0-4_A0
  6
CONTINUOUS
 62
    3
 10
58.941291735406991
 20
120.85824344400649
 11
58.948658457107143
 21
120.86100069774128
  0
LINE
  8
_0-4_A0
  6
CONTINUOUS
 62
    3
 10
58.948658457107143
 20
120.86100069774128
 11
58.958656553173682
 21
120.86349279817979
  0
LINE
  8
_0-4_A0
  6
CONTINUOUS
 62
    3
 10
58.958656553173682
 20
120.86349279817979
 11
58.970982236516931
 21
120.86564402411121
  0
LINE
  8
_0-4_A0
  6
CONTINUOUS
 62
    3
 10
58.970982236516931
 20
120.86564402411121
 11
58.985260997485568
 21
120.86738901162424
  0
LINE
  8
_0-4_A0
  6
CONTINUOUS
 62
    3
 10
58.985260997485568
 20
120.86738901162424
 11
59.001058983153029
 21
120.86867474015625
  0
LINE
  8
_0-4_A0
  6
CONTINUOUS
 62
    3
 10
59.001058983153029
 20
120.86867474015625
 11
59.017896179718889
 21
120.86946214349643
  0
LINE
  8
_0-4_A0
  6
CONTINUOUS
 62
    3
 10
59.017896179718889
 20
120.86946214349643
 11
59.035260997485579
 21
120.86972729679274
  0
LINE
  8
_0-4_A0
  6
CONTINUOUS
 62
    3
 10
59.035260997485579
 20
120.86972729679274
 11
59.05262581525227
 21
120.86946214349643
  0
LINE
  8
_0-4_A0
  6
CONTINUOUS
 62
    3
 10
59.05262581525227
 20
120.86946214349643
 11
59.069463011818129
 21
120.86867474015625
  0
LINE
  8
_0-4_A0
  6
CONTINUOUS
 62
    3
 10
59.069463011818129
 20
120.86867474015625
 11
59.08526099748559
 21
120.86738901162424
  0
LINE
  8
_0-4_A0
  6
CONTINUOUS
 62
    3
 10
59.08526099748559
 20
120.86738901162424
 11
59.099539758454227
 21
120.86564402411121
  0
LINE
  8
_0-4_A0
  6
CONTINUOUS
 62
    3
 10
59.099539758454227
 20
120.86564402411121
 11
59.111865441797476
 21
120.86349279817979
  0
LINE
  8
_0-4_A0
  6
CONTINUOUS
 62
    3
 10
59.111865441797476
 20
120.86349279817979
 11
59.121863537864015
 21
120.86100069774128
  0
LINE
  8
_0-4_A0
  6
CONTINUOUS
 62
    3
 10
59.121863537864015
 20
120.86100069774128
 11
59.129230259564167
 21
120.85824344400649
  0
LINE
  8
_0-4_A0
  6
CONTINUOUS
 62
    3
 10
59.129230259564167
 20
120.85824344400649
 11
59.133741772786805
 21
120.85530481473487
  0
LINE
  8
_0-4_A0
  6
CONTINUOUS
 62
    3
 10
59.133741772786805
 20
120.85530481473487
 11
59.135260997485573
 21
120.85227409868984
  0
LINE
  8
_0-4_A0
  6
CONTINUOUS
 62
    3
 10
59.135260997485573
 20
120.85227409868984
 11
59.133741772786805
 21
120.84924338264481
  0
LINE
  8
_0-4_A0
  6
CONTINUOUS
 62
    3
 10
59.133741772786805
 20
120.84924338264481
 11
59.129230259564167
 21
120.8463047533732
  0
LINE
  8
_0-4_A0
  6
CONTINUOUS
 62
    3
 10
59.129230259564167
 20
120.8463047533732
 11
59.121863537864015
 21
120.8435474996384
  0
LINE
  8
_0-4_A0
  6
CONTINUOUS
 62
    3
 10
59.121863537864015
 20
120.8435474996384
 11
59.111865441797476
 21
120.8410553991999
  0
LINE
  8
_0-4_A0
  6
CONTINUOUS
 62
    3
 10
59.111865441797476
 20
120.8410553991999
 11
59.099539758454227
 21
120.83890417326847
  0
LINE
  8
_0-4_A0
  6
CONTINUOUS
 62
    3
 10
59.099539758454227
 20
120.83890417326847
 11
59.08526099748559
 21
120.83715918575545
  0
LINE
  8
_0-4_A0
  6
CONTINUOUS
 62
    3
 10
59.08526099748559
 20
120.83715918575545
 11
59.069463011818129
 21
120.83587345722344
  0
LINE
  8
_0-4_A0
  6
CONTINUOUS
 62
    3
 10
59.069463011818129
 20
120.83587345722344
 11
59.05262581525227
 21
120.83508605388325
  0
LINE
  8
_0-4_A0
  6
CONTINUOUS
 62
    3
 10
59.05262581525227
 20
120.83508605388325
 11
59.035260997485579
 21
120.83482090058694
  0
LINE
  8
_0-4_A0
  6
CONTINUOUS
 62
    3
 10
58.935260997485499
 20
120.73620221172184
 11
58.936780222184268
 21
120.73923292776687
  0
LINE
  8
_0-4_A0
  6
CONTINUOUS
 62
    3
 10
58.936780222184268
 20
120.73923292776687
 11
58.941291735406906
 21
120.74217155703848
  0
LINE
  8
_0-4_A0
  6
CONTINUOUS
 62
    3
 10
58.941291735406906
 20
120.74217155703848
 11
58.948658457107057
 21
120.74492881077328
  0
LINE
  8
_0-4_A0
  6
CONTINUOUS
 62
    3
 10
58.948658457107057
 20
120.74492881077328
 11
58.958656553173597
 21
120.74742091121179
  0
LINE
  8
_0-4_A0
  6
CONTINUOUS
 62
    3
 10
58.958656553173597
 20
120.74742091121179
 11
58.970982236516846
 21
120.74957213714321
  0
LINE
  8
_0-4_A0
  6
CONTINUOUS
 62
    3
 10
58.970982236516846
 20
120.74957213714321
 11
58.985260997485511
 21
120.75131712465623
  0
LINE
  8
_0-4_A0
  6
CONTINUOUS
 62
    3
 10
58.985260997485511
 20
120.75131712465623
 11
59.001058983152915
 21
120.75260285318825
  0
LINE
  8
_0-4_A0
  6
CONTINUOUS
 62
    3
 10
59.001058983152915
 20
120.75260285318825
 11
59.017896179718803
 21
120.75339025652843
  0
LINE
  8
_0-4_A0
  6
CONTINUOUS
 62
    3
 10
59.017896179718803
 20
120.75339025652843
 11
59.035260997485494
 21
120.75365540982474
  0
LINE
  8
_0-4_A0
  6
CONTINUOUS
 62
    3
 10
59.035260997485494
 20
120.75365540982474
 11
59.052625815252184
 21
120.75339025652843
  0
LINE
  8
_0-4_A0
  6
CONTINUOUS
 62
    3
 10
59.052625815252184
 20
120.75339025652843
 11
59.069463011818072
 21
120.75260285318825
  0
LINE
  8
_0-4_A0
  6
CONTINUOUS
 62
    3
 10
59.069463011818072
 20
120.75260285318825
 11
59.085260997485477
 21
120.75131712465623
  0
LINE
  8
_0-4_A0
  6
CONTINUOUS
 62
    3
 10
59.085260997485477
 20
120.75131712465623
 11
59.099539758454142
 21
120.74957213714321
  0
LINE
  8
_0-4_A0
  6
CONTINUOUS
 62
    3
 10
59.099539758454142
 20
120.74957213714321
 11
59.111865441797391
 21
120.74742091121179
  0
LINE
  8
_0-4_A0
  6
CONTINUOUS
 62
    3
 10
59.111865441797391
 20
120.74742091121179
 11
59.12186353786393
 21
120.74492881077328
  0
LINE
  8
_0-4_A0
  6
CONTINUOUS
 62
    3
 10
59.12186353786393
 20
120.74492881077328
 11
59.129230259564081
 21
120.74217155703848
  0
LINE
  8
_0-4_A0
  6
CONTINUOUS
 62
    3
 10
59.129230259564081
 20
120.74217155703848
 11
59.13374177278672
 21
120.73923292776687
  0
LINE
  8
_0-4_A0
  6
CONTINUOUS
 62
    3
 10
59.13374177278672
 20
120.73923292776687
 11
59.135260997485488
 21
120.73620221172184
  0
LINE
  8
_0-4_A0
  6
CONTINUOUS
 62
    3
 10
59.135260997485488
 20
120.73620221172184
 11
59.13374177278672
 21
120.73317149567681
  0
LINE
  8
_0-4_A0
  6
CONTINUOUS
 62
    3
 10
59.13374177278672
 20
120.73317149567681
 11
59.129230259564081
 21
120.7302328664052
  0
LINE
  8
_0-4_A0
  6
CONTINUOUS
 62
    3
 10
59.129230259564081
 20
120.7302328664052
 11
59.12186353786393
 21
120.7274756126704
  0
LINE
  8
_0-4_A0
  6
CONTINUOUS
 62
    3
 10
59.12186353786393
 20
120.7274756126704
 11
59.111865441797391
 21
120.7249835122319
  0
LINE
  8
_0-4_A0
  6
CONTINUOUS
 62
    3
 10
59.111865441797391
 20
120.7249835122319
 11
59.099539758454142
 21
120.72283228630047
  0
LINE
  8
_0-4_A0
  6
CONTINUOUS
 62
    3
 10
59.099539758454142
 20
120.72283228630047
 11
59.085260997485477
 21
120.72108729878745
  0
LINE
  8
_0-4_A0
  6
CONTINUOUS
 62
    3
 10
59.085260997485477
 20
120.72108729878745
 11
59.069463011818072
 21
120.71980157025544
  0
LINE
  8
_0-4_A0
  6
CONTINUOUS
 62
    3
 10
59.069463011818072
 20
120.71980157025544
 11
59.052625815252184
 21
120.71901416691525
  0
LINE
  8
_0-4_A0
  6
CONTINUOUS
 62
    3
 10
59.052625815252184
 20
120.71901416691525
 11
59.035260997485494
 21
120.71874901361894
  0
ARC
  8
_0-4_A0
  6
CONTINUOUS
 62
    3
 10
58.835260997482976
 20
120.15831785145545
 40
0.8
 50
90
 51
159.63586519390401
  0
ARC
  8
_0-4_A0
  6
CONTINUOUS
 62
    3
 10
58.185260997481975
 20
126.20831785144774
 40
0.1499999999999999
 50
228.18968510396771
 51
270
  0
LINE
  8
_0-4_A0
  6
CONTINUOUS
 62
    3
 10
58.385260997476933
 20
123.40831785147764
 11
59.165260997466589
 21
123.40831785147744
  0
LINE
  8
_0-4_A0
  6
CENTER
 62
    3
 10
58.377351119044874
 20
126.15831785147764
 11
59.291987862960638
 21
126.15831785147734
  0
ARC
  8
_0-4_A0
  6
CONTINUOUS
 62
    3
 10
58.835260997479139
 20
126.15831785147754
 40
0.25
 50
0
 51
180
  0
LINE
  8
_0-4_A0
  6
CONTINUOUS
 62
    3
 10
58.18526099747811
 20
127.05831785147773
 11
59.565260997466907
 21
127.05831785147724
  0
ARC
  8
_0-4_A0
  6
CONTINUOUS
 62
    3
 10
58.385260997476962
 20
123.60831785147765
 40
0.2
 50
180
 51
270
  0
LINE
  8
_0-4_A0
  6
CONTINUOUS
 62
    3
 10
59.56526099746685
 20
127.05831785147724
 11
59.565260997466594
 21
124.35831785147733
  0
LINE
  8
_0-4_A0
  6
CONTINUOUS
 62
    3
 10
58.585260997478599
 20
125.45631282631853
 11
58.585260997479167
 21
126.15831785147754
  0
LINE
  8
_0-4_A0
  6
CONTINUOUS
 62
    3
 10
59.085260997478542
 20
125.45631282632184
 11
59.08526099747911
 21
126.15831785147744
  0
LINE
  8
_0-4_A0
  6
CONTINUOUS
 62
    3
 10
58.185260997478167
 20
127.13831785147775
 11
59.365260997466975
 21
127.13831785147733
  0
LINE
  8
_0-4_A0
  6
CONTINUOUS
 62
    3
 10
59.365260997466918
 20
127.13831785147733
 11
59.365260997466918
 21
127.05831785147734
  0
LINE
  8
_0-4_A0
  6
CONTINUOUS
 62
    3
 10
58.18526099747703
 20
123.75831785147774
 11
59.365260997466634
 21
123.75831785147734
  0
LINE
  8
_0-4_A0
  6
CONTINUOUS
 62
    3
 10
59.365260997466577
 20
124.25831785147734
 11
59.365260997466577
 21
123.60831785147743
  0
ARC
  8
_0-4_A0
  6
CONTINUOUS
 62
    3
 10
59.165260997466589
 20
123.60831785147743
 40
0.2
 50
270
 51
0
  0
LINE
  8
_0-4_A0
  6
CONTINUOUS
 62
    3
 10
59.4652609974666
 20
124.35831785147733
 11
59.565260997466623
 21
124.35831785147733
  0
ARC
  8
_0-4_A0
  6
CONTINUOUS
 62
    3
 10
59.465260997466572
 20
124.25831785147734
 40
0.1
 50
90
 51
180
  0
CIRCLE
  8
_0-4_A0
  6
CONTINUOUS
 62
    3
 10
58.835260997480588
 20
124.05831785147634
 40
0.1
  0
LINE
  8
_0-4_A0
  6
CENTER
 62
    3
 10
58.407981573373206
 20
124.05831785147644
 11
59.169711054983793
 21
124.05831785147634
  0
LINE
  8
_0-4_A0
  6
CONTINUOUS
 62
    3
 10
58.185260997476916
 20
123.60831785147775
 11
58.18526099747811
 21
127.13831785147775
  0
CIRCLE
  8
_0-4_A0
  6
CONTINUOUS
 62
    3
 10
58.835260997481213
 20
125.05831785147753
 40
0.4699999999999999
  0
CIRCLE
  8
_0-4_A0
  6
CONTINUOUS
 62
    3
 10
58.835260997481213
 20
125.05831785147753
 40
0.4699999999999999
  0
LINE
  8
_0-4_A0
  6
CONTINUOUS
 62
    3
 10
59.04526099748125
 20
125.11831785147754
 11
59.04526099748125
 21
124.99831785147753
  0
LINE
  8
_0-4_A0
  6
CONTINUOUS
 62
    3
 10
58.625260997481234
 20
125.11831785147754
 11
58.625260997481234
 21
124.99831785147753
  0
LINE
  8
_0-4_A0
  6
CONTINUOUS
 62
    3
 10
58.775260997481211
 20
125.26831785147754
 11
58.895260997481216
 21
125.26831785147754
  0
LINE
  8
_0-4_A0
  6
CONTINUOUS
 62
    3
 10
58.775260997481211
 20
124.84831785147754
 11
58.895260997481216
 21
124.84831785147754
  0
LINE
  8
_0-4_A0
  6
CONTINUOUS
 62
    3
 10
58.895260997481216
 20
124.89831785147754
 11
58.895260997481216
 21
124.84831785147754
  0
LINE
  8
_0-4_A0
  6
CONTINUOUS
 62
    3
 10
58.895260997481216
 20
125.26831785147754
 11
58.895260997481216
 21
125.21831785147755
  0
LINE
  8
_0-4_A0
  6
CONTINUOUS
 62
    3
 10
58.625260997481234
 20
125.11831785147754
 11
58.675260997481245
 21
125.11831785147754
  0
LINE
  8
_0-4_A0
  6
CONTINUOUS
 62
    3
 10
58.995260997481238
 20
125.11831785147754
 11
59.04526099748125
 21
125.11831785147754
  0
LINE
  8
_0-4_A0
  6
CONTINUOUS
 62
    3
 10
58.625260997481234
 20
124.99831785147753
 11
58.675260997481245
 21
124.99831785147753
  0
LINE
  8
_0-4_A0
  6
CONTINUOUS
 62
    3
 10
58.995260997481238
 20
124.99831785147753
 11
59.04526099748125
 21
124.99831785147753
  0
LINE
  8
_0-4_A0
  6
CONTINUOUS
 62
    3
 10
58.775260997481211
 20
124.89831785147754
 11
58.775260997481211
 21
124.84831785147754
  0
LINE
  8
_0-4_A0
  6
CONTINUOUS
 62
    3
 10
58.775260997481211
 20
125.26831785147754
 11
58.775260997481211
 21
125.21831785147755
  0
ARC
  8
_0-4_A0
  6
CONTINUOUS
 62
    3
 10
58.995260997481238
 20
125.21831785147755
 40
0.1
 50
179.99999999999639
 51
269.99999999999482
  0
ARC
  8
_0-4_A0
  6
CONTINUOUS
 62
    3
 10
58.995260997481238
 20
124.89831785147754
 40
0.1
 50
89.999999999425526
 51
179.99999999999639
  0
ARC
  8
_0-4_A0
  6
CONTINUOUS
 62
    3
 10
58.675260997481245
 20
124.89831785147754
 40
0.1
 50
0
 51
89.999999999425526
  0
ARC
  8
_0-4_A0
  6
CONTINUOUS
 62
    3
 10
58.675260997481245
 20
125.21831785147755
 40
0.1
 50
269.99999999999488
 51
359.99999999999346
  0
LINE
  8
_0-4_A0
  6
CONTINUOUS
 62
    3
 10
59.435260997485471
 20
120.73620221172164
 11
59.435260997488114
 21
124.35371177162583
  0
LINE
  8
_0-4_A0
  6
CONTINUOUS
 62
    3
 10
59.365260997466577
 20
124.25831785147563
 11
59.435260997488171
 21
124.25831785147563
  0
LINE
  8
_0-4_A0
  6
CONTINUOUS
 62
    3
 10
58.585260997479053
 20
126.05831785144825
 11
59.085260997479025
 21
126.05831785144884
  0
LINE
  8
_0-4_A0
  6
CONTINUOUS
 62
    3
 10
58.50526100133527
 20
176.35831785137145
 11
62.185261001339483
 21
176.35831785136963
  0
LINE
  8
_0-4_A0
  6
CONTINUOUS
 62
    3
 10
58.185261001336527
 20
174.45831785138503
 11
58.305261001336532
 21
174.45831785138503
  0
LINE
  8
_0-4_A0
  6
CONTINUOUS
 62
    3
 10
58.185261001337778
 20
172.85831785137185
 11
58.305261001337925
 21
172.85831785137185
  0
ARC
  8
_0-4_A0
  6
CONTINUOUS
 62
    3
 10
58.505261001335185
 20
176.15831785137143
 40
0.2
 50
90
 51
180
  0
LINE
  8
_0-4_A0
  6
CONTINUOUS
 62
    3
 10
59.385261001336203
 20
174.85831785139495
 11
59.385261001339245
 21
170.95831785137255
  0
LINE
  8
_0-4_A0
  6
CONTINUOUS
 62
    3
 10
58.185261001339881
 20
170.15831785137183
 11
58.585261001339233
 21
170.15831785137183
  0
LINE
  8
_0-4_A0
  6
DASHED
 62
    3
 10
60.385261001336289
 20
174.95831785139515
 11
61.385261001328615
 21
174.95831785139515
  0
LINE
  8
_0-4_A0
  6
CONTINUOUS
 62
    3
 10
60.385261001336289
 20
175.00802347886263
 11
61.385261001336289
 21
175.00802347886263
  0
LINE
  8
_0-4_A0
  6
CONTINUOUS
 62
    3
 10
61.38526100132853
 20
175.05831785139514
 11
61.385261001328672
 21
174.30979242646375
  0
LINE
  8
_0-4_A0
  6
CONTINUOUS
 62
    3
 10
59.585261001336192
 20
175.05831785139514
 11
60.385261001336289
 21
175.05831785139514
  0
LINE
  8
_0-4_A0
  6
CONTINUOUS
 62
    3
 10
61.385261001336289
 20
175.05831785139514
 11
62.185261001339398
 21
175.05831785139514
  0
ARC
  8
_0-4_A0
  6
CONTINUOUS
 62
    3
 10
59.585261001336192
 20
174.85831785139515
 40
0.2
 50
90
 51
180
  0
LINE
  8
_0-4_A0
  6
CONTINUOUS
 62
    3
 10
58.185261001336527
 20
174.45831785138503
 11
58.185261001337778
 21
172.85831785137173
  0
LINE
  8
_0-4_A0
  6
DASHED
 62
    3
 10
58.305261001339886
 20
170.15831785137183
 11
58.305261001337953
 21
172.60831785137185
  0
ARC
  8
_0-4_A0
  6
CONTINUOUS
 62
    3
 10
58.585261001339233
 20
170.95831785137184
 40
0.8
 50
270
 51
0
  0
LINE
  8
_0-4_A0
  6
CONTINUOUS
 62
    3
 10
60.585261001328603
 20
174.19464524020665
 11
61.185261001328626
 21
174.19464524020665
  0
LINE
  8
_0-4_A0
  6
CONTINUOUS
 62
    3
 10
60.58526100132866
 20
174.10979242646365
 11
61.185261001328683
 21
174.10979242646365
  0
ARC
  8
_0-4_A0
  6
CONTINUOUS
 62
    3
 10
60.585261001328603
 20
174.39464524020664
 40
0.2
 50
180
 51
270
  0
ARC
  8
_0-4_A0
  6
CONTINUOUS
 62
    3
 10
61.185261001328626
 20
174.39464524020664
 40
0.2
 50
270
 51
0
  0
ARC
  8
_0-4_A0
  6
CONTINUOUS
 62
    3
 10
61.185261001328683
 20
174.30979242646364
 40
0.2
 50
270
 51
0
  0
ARC
  8
_0-4_A0
  6
CONTINUOUS
 62
    3
 10
60.58526100132866
 20
174.30979242646364
 40
0.2
 50
180
 51
270
  0
LINE
  8
_0-4_A0
  6
CONTINUOUS
 62
    3
 10
58.305261001336475
 20
174.51692824125413
 11
58.305261001335168
 21
176.15831785137135
  0
LINE
  8
_0-4_A0
  6
CONTINUOUS
 62
    3
 10
58.305261001337953
 20
172.60831785137185
 11
58.305261001337783
 21
172.85831785139183
  0
LINE
  8
_0-4_A0
  6
DASHED
 62
    3
 10
58.305261001337783
 20
172.85831785139194
 11
58.305261001336475
 21
174.51692824125413
  0
LINE
  8
_0-4_A0
  6
CONTINUOUS
 62
    3
 10
58.409248680057373
 20
174.85831785139674
 11
58.842429011903675
 21
174.85831785139683
  0
LINE
  8
_0-4_A0
  6
CONTINUOUS
 62
    3
 10
58.18526100133522
 20
172.85831785139174
 11
58.521035207051454
 21
172.85831785139214
  0
LINE
  8
_0-4_A0
  6
CONTINUOUS
 62
    3
 10
58.185261001335334
 20
173.85831785138984
 11
58.305261001337385
 21
173.85831785138995
  0
LINE
  8
_0-4_A0
  6
DASHED
 62
    3
 10
58.185261001336755
 20
174.12297047894105
 11
58.305261001336759
 21
174.12297047894114
  0
LINE
  8
_0-4_A0
  6
CONTINUOUS
 62
    3
 10
58.819188393933359
 20
174.65831785137135
 11
58.819188393933785
 21
173.55831785139565
  0
LINE
  8
_0-4_A0
  6
CONTINUOUS
 62
    3
 10
58.927945328378939
 20
174.65831785137115
 11
58.927945328378484
 21
173.55831785139565
  0
LINE
  8
_0-4_A0
  6
CONTINUOUS
 62
    3
 10
58.185261001336812
 20
174.12297047894105
 11
58.409248680057373
 21
174.85831785139674
  0
LINE
  8
_0-4_A0
  6
DASHED
 62
    3
 10
58.305261001336816
 20
174.12297047894114
 11
58.529248680057378
 21
174.85831785139683
  0
LINE
  8
_0-4_A0
  6
CONTINUOUS
 62
    3
 10
58.92794532837891
 20
174.65831785137115
 11
58.926646143377524
 21
174.69304748690453
  0
LINE
  8
_0-4_A0
  6
CONTINUOUS
 62
    3
 10
58.926646143377524
 20
174.69304748690453
 11
58.92278806345223
 21
174.7267218800363
  0
LINE
  8
_0-4_A0
  6
CONTINUOUS
 62
    3
 10
58.92278806345223
 20
174.7267218800363
 11
58.916488314409292
 21
174.75831785137117
  0
LINE
  8
_0-4_A0
  6
CONTINUOUS
 62
    3
 10
58.916488314409292
 20
174.75831785137117
 11
58.90793831093552
 21
174.78687537330847
  0
LINE
  8
_0-4_A0
  6
CONTINUOUS
 62
    3
 10
58.90793831093552
 20
174.78687537330847
 11
58.89739784055996
 21
174.81152673999497
  0
LINE
  8
_0-4_A0
  6
CONTINUOUS
 62
    3
 10
58.89739784055996
 20
174.81152673999497
 11
58.88518717014125
 21
174.83152293212805
  0
LINE
  8
_0-4_A0
  6
CONTINUOUS
 62
    3
 10
58.88518717014125
 20
174.83152293212805
 11
58.871677314721182
 21
174.84625637552835
  0
LINE
  8
_0-4_A0
  6
CONTINUOUS
 62
    3
 10
58.871677314721182
 20
174.84625637552835
 11
58.857278764420357
 21
174.85527940197363
  0
LINE
  8
_0-4_A0
  6
CONTINUOUS
 62
    3
 10
58.857278764420357
 20
174.85527940197363
 11
58.842429011903618
 21
174.85831785137116
  0
LINE
  8
_0-4_A0
  6
CONTINUOUS
 62
    3
 10
58.842429011903618
 20
174.85831785137116
 11
58.836019995208516
 21
174.8577553857884
  0
LINE
  8
_0-4_A0
  6
CONTINUOUS
 62
    3
 10
58.81918839393333
 20
174.65831785137135
 11
58.817889208931944
 21
174.69304748690473
  0
LINE
  8
_0-4_A0
  6
CONTINUOUS
 62
    3
 10
58.817889208931944
 20
174.69304748690473
 11
58.81403112900665
 21
174.7267218800365
  0
LINE
  8
_0-4_A0
  6
CONTINUOUS
 62
    3
 10
58.81403112900665
 20
174.7267218800365
 11
58.807731379963712
 21
174.75831785137137
  0
LINE
  8
_0-4_A0
  6
CONTINUOUS
 62
    3
 10
58.807731379963712
 20
174.75831785137137
 11
58.79918137648994
 21
174.78687537330867
  0
LINE
  8
_0-4_A0
  6
CONTINUOUS
 62
    3
 10
58.79918137648994
 20
174.78687537330867
 11
58.78864090611438
 21
174.81152673999517
  0
LINE
  8
_0-4_A0
  6
CONTINUOUS
 62
    3
 10
58.78864090611438
 20
174.81152673999517
 11
58.77643023569567
 21
174.83152293212825
  0
LINE
  8
_0-4_A0
  6
CONTINUOUS
 62
    3
 10
58.77643023569567
 20
174.83152293212825
 11
58.762920380275602
 21
174.84625637552855
  0
LINE
  8
_0-4_A0
  6
CONTINUOUS
 62
    3
 10
58.762920380275602
 20
174.84625637552855
 11
58.748521829974777
 21
174.85527940197383
  0
LINE
  8
_0-4_A0
  6
CONTINUOUS
 62
    3
 10
58.748521829974777
 20
174.85527940197383
 11
58.733672077458038
 21
174.85831785137136
  0
LINE
  8
_0-4_A0
  6
CONTINUOUS
 62
    3
 10
58.733672077458038
 20
174.85831785137136
 11
58.727263060762936
 21
174.8577553857886
  0
LINE
  8
_0-4_A0
  6
CONTINUOUS
 62
    3
 10
58.521035207051454
 20
172.85831785139947
 11
58.591694408094127
 21
172.86895242429088
  0
LINE
  8
_0-4_A0
  6
CONTINUOUS
 62
    3
 10
58.591694408094127
 20
172.86895242429088
 11
58.660206665068386
 21
172.90053301684912
  0
LINE
  8
_0-4_A0
  6
CONTINUOUS
 62
    3
 10
58.660206665068386
 20
172.90053301684912
 11
58.724490267714969
 21
172.95210006874987
  0
LINE
  8
_0-4_A0
  6
CONTINUOUS
 62
    3
 10
58.724490267714969
 20
172.95210006874987
 11
58.782591991296499
 21
173.0220867412153
  0
LINE
  8
_0-4_A0
  6
CONTINUOUS
 62
    3
 10
58.782591991296499
 20
173.0220867412153
 11
58.832746444342888
 21
173.10836652461753
  0
LINE
  8
_0-4_A0
  6
CONTINUOUS
 62
    3
 10
58.832746444342888
 20
173.10836652461753
 11
58.873429709177656
 21
173.20831785139756
  0
LINE
  8
_0-4_A0
  6
CONTINUOUS
 62
    3
 10
58.873429709177656
 20
173.20831785139756
 11
58.903405645385532
 21
173.318903751069
  0
LINE
  8
_0-4_A0
  6
CONTINUOUS
 62
    3
 10
58.903405645385532
 20
173.318903751069
 11
58.921763449313431
 21
173.43676412702947
  0
LINE
  8
_0-4_A0
  6
CONTINUOUS
 62
    3
 10
58.921763449313431
 20
173.43676412702947
 11
58.927945328378456
 21
173.55831785139565
  0
LINE
  8
_0-4_A0
  6
CONTINUOUS
 62
    3
 10
58.41227827259604
 20
172.8583178513993
 11
58.482937473640561
 21
172.86895242429071
  0
LINE
  8
_0-4_A0
  6
CONTINUOUS
 62
    3
 10
58.482937473640561
 20
172.86895242429071
 11
58.551449730616639
 21
172.90053301684895
  0
LINE
  8
_0-4_A0
  6
CONTINUOUS
 62
    3
 10
58.551449730616639
 20
172.90053301684895
 11
58.615733333264927
 21
172.9521000687497
  0
LINE
  8
_0-4_A0
  6
CONTINUOUS
 62
    3
 10
58.615733333264927
 20
172.9521000687497
 11
58.673835056847991
 21
173.02208674121513
  0
LINE
  8
_0-4_A0
  6
CONTINUOUS
 62
    3
 10
58.673835056847991
 20
173.02208674121513
 11
58.723989509895716
 21
173.10836652461739
  0
LINE
  8
_0-4_A0
  6
CONTINUOUS
 62
    3
 10
58.723989509895716
 20
173.10836652461739
 11
58.764672774731536
 21
173.20831785139742
  0
LINE
  8
_0-4_A0
  6
CONTINUOUS
 62
    3
 10
58.764672774731536
 20
173.20831785139742
 11
58.794648710940236
 21
173.31890375106885
  0
LINE
  8
_0-4_A0
  6
CONTINUOUS
 62
    3
 10
58.794648710940236
 20
173.31890375106885
 11
58.813006514868618
 21
173.43676412702933
  0
LINE
  8
_0-4_A0
  6
CONTINUOUS
 62
    3
 10
58.813006514868618
 20
173.43676412702933
 11
58.819188393933814
 21
173.55831785139554
  0
LINE
  8
_0-4_A0
  6
CONTINUOUS
 62
    3
 10
58.185261001345395
 20
162.55831785137183
 11
58.185261001337948
 21
172.60831785137185
  0
LINE
  8
_0-4_A0
  6
CONTINUOUS
 62
    3
 10
62.385261001339415
 20
175.25831785139513
 11
62.385261001339415
 21
176.15831785136964
  0
ARC
  8
_0-4_A0
  6
CONTINUOUS
 62
    3
 10
62.185261001339398
 20
176.15831785136964
 40
0.2
 50
0
 51
90
  0
ARC
  8
_0-4_A0
  6
CONTINUOUS
 62
    3
 10
62.185261001339398
 20
175.25831785139513
 40
0.2
 50
270
 51
0
  0
LINE
  8
_0-4_A0
  6
CONTINUOUS
 62
    3
 10
60.3852610013287
 20
174.30979242646344
 11
60.385261001328558
 21
174.95831784892573
  0
LINE
  8
_0-4_A0
  6
CONTINUOUS
 62
    3
 10
60.385261001328558
 20
174.95831784892573
 11
60.385261001328558
 21
175.05831785139514
  0
LINE
  8
_0-4_A0
  6
CONTINUOUS
 62
    3
 10
59.412055919153601
 20
174.95831784892573
 11
60.385261001328558
 21
174.95831784892573
  0
LINE
  8
_0-4_A0
  6
HIDDEN
 62
    3
 10
58.305261001336134
 20
174.95831784892573
 11
59.412055919153601
 21
174.95831784892573
  0
LINE
  8
_0-e_A20
  6
CONTINUOUS
 62
    3
 10
58.085261002023912
 20
172.60831785137185
 11
58.085261002205584
 21
174.75831785131344
  0
LINE
  8
_0-4_A0
  6
CONTINUOUS
 62
    3
 10
58.085261002028119
 20
172.60831785137185
 11
58.305261001337925
 21
172.60831785137185
  0
ARC
  8
_0-4_A0
  6
CONTINUOUS
 62
    3
 10
57.985261001345349
 20
162.55831785137175
 40
0.2
 50
299.99999993881931
 51
0.0000000000000127
  0
LINE
  8
_0-4_A0
  6
CENTER
 62
    3
 10
61.385261002068887
 20
173.14019851154475
 11
61.385260998888156
 21
135.50002104605684
  0
LINE
  8
_0-4_A0
  6
CENTER
 62
    3
 10
62.578853165064856
 20
171.95831785093324
 11
60.154236681242025
 21
171.95831785113813
  0
LINE
  8
_0-4_A0
  6
CENTER
 62
    3
 10
62.752306658247107
 20
136.95831785091854
 11
60.003643232354363
 21
136.95831785115083
  0
CIRCLE
  8
_0-4_A0
  6
CONTINUOUS
 62
    3
 10
61.385260998588876
 20
136.95831785103405
 40
0.2999999999999998
  0
LINE
  8
_0-4_A0
  6
CENTER
 62
    3
 10
63.314410017341117
 20
170.95831785087105
 11
59.60937913787319
 21
170.95831785118414
  0
ARC
  8
_0-4_A0
  6
CONTINUOUS
 62
    3
 10
61.385261001969013
 20
171.95831785103413
 40
0.26
 50
0
 51
180
  0
ARC
  8
_0-4_A0
  6
CONTINUOUS
 62
    3
 10
61.385261001884487
 20
170.95831785103405
 40
0.8
 50
108.96557498487639
 51
71.034425005768412
  0
LINE
  8
_0-4_A0
  6
CONTINUOUS
 62
    3
 10
61.645261001955589
 20
171.95831785101213
 11
61.645261001955589
 21
171.71488906378473
  0
LINE
  8
_0-4_A0
  6
CONTINUOUS
 62
    3
 10
61.125261001936962
 20
171.95831785105605
 11
61.125261001936962
 21
171.71488906382725
  0
LINE
  8
_0-4_A0
  6
CONTINUOUS
 62
    3
 10
61.385261001328558
 20
174.95831784892573
 11
91.335261002391689
 21
174.95831784877094
  0
LINE
  8
_0-e_A20
  6
CONTINUOUS
 62
    3
 10
57.985261002568961
 20
119.05831785132144
 11
57.985261002396612
 21
117.01831785132144
  0
LINE
  8
_0-e_A20
  6
CONTINUOUS
 62
    3
 10
58.085261002442194
 20
117.55831785131294
 11
58.025261002442164
 21
117.55831785131803
  0
LINE
  8
_0-e_A20
  6
CONTINUOUS
 62
    3
 10
56.385261002396561
 20
117.01831785145664
 11
58.025261002396575
 21
117.01831785131804
  0
LINE
  8
_0-e_A20
  6
CONTINUOUS
 62
    3
 10
58.085261002577396
 20
119.15831785131234
 11
57.985261002568961
 21
119.05831785132144
  0
LINE
  8
_0-e_A20
  6
CONTINUOUS
 62
    3
 10
58.085261002442223
 20
117.55831785131294
 11
58.085261002396578
 21
117.01831785131294
  0
ARC
  8
_0-e_A20
  6
CONTINUOUS
 62
    3
 10
58.025261002396575
 20
117.01831785131804
 40
0.0599999999999999
 50
269.99999999515102
 51
359.99999999457656
  0
LINE
  8
_0-e_A20
  6
CONTINUOUS
 62
    3
 10
58.025261002442221
 20
117.55831785131803
 11
58.025261002396575
 21
117.01831785131804
  0
LINE
  8
_1-4_A60
  6
CONTINUOUS
 62
    3
 10
58.025261002396575
 20
117.55831785145154
 11
58.025261002396575
 21
117.11831785145155
  0
LINE
  8
_1-4_A60
  6
HIDDEN
 62
    3
 10
56.545261002396557
 20
117.01831785145154
 11
57.925260995325118
 21
117.01831785145154
  0
ARC
  8
_1-4_A60
  6
HIDDEN
 62
    3
 10
57.925261002396581
 20
117.11831785145155
 40
0.1
 50
269.99999999999488
 51
306.86989764704287
  0
ARC
  8
_1-4_A60
  6
CONTINUOUS
 62
    3
 10
57.925261002396581
 20
117.11831785145155
 40
0.1
 50
306.86989764704281
 51
359.9999999999934
  0
LINE
  8
_1-4_A60
  6
CONTINUOUS
 62
    3
 10
58.025261002396575
 20
117.55831785145154
 11
57.9852610024422
 21
117.55831785145154
  0
ARC
  8
_0-4_A0
  6
CONTINUOUS
 62
    6
 10
56.435261002391484
 20
117.00831785145663
 40
0.05
 50
179.99999999999639
 51
269.99999999999482
  0
LINE
  8
_0-e_A20
  6
CONTINUOUS
 62
    3
 10
57.985261002568961
 20
119.05831785132144
 11
57.985261002396583
 21
117.01831785132144
  0
LINE
  8
_0-e_A20
  6
CONTINUOUS
 62
    3
 10
58.085261002442223
 20
117.55831785131294
 11
58.025261002442221
 21
117.55831785131803
  0
LINE
  8
_0-e_A20
  6
CONTINUOUS
 62
    3
 10
58.085261002577425
 20
119.15831785131234
 11
57.985261002568933
 21
119.05831785132154
  0
LINE
  8
_0-e_A20
  6
CONTINUOUS
 62
    3
 10
58.025261002442221
 20
117.55831785131803
 11
58.025261002396575
 21
117.01831785131804
  0
LINE
  8
_1-4_A60
  6
CONTINUOUS
 62
    3
 10
58.025261002396575
 20
117.55831785145154
 11
58.025261002396575
 21
117.11831785145155
  0
ARC
  8
_1-4_A60
  6
HIDDEN
 62
    3
 10
57.925261002396553
 20
117.11831785145155
 40
0.1
 50
269.99999999999488
 51
306.86989764704287
  0
ARC
  8
_1-4_A60
  6
CONTINUOUS
 62
    3
 10
57.925261002396553
 20
117.11831785145155
 40
0.1
 50
306.86989764704281
 51
359.9999999999934
  0
LINE
  8
_1-4_A60
  6
CONTINUOUS
 62
    3
 10
58.025261002396575
 20
117.55831785145154
 11
57.9852610024422
 21
117.55831785145154
  0
LINE
  8
_0-4_A0
  6
CONTINUOUS
 62
    3
 10
57.985261002552078
 20
119.05831785145645
 11
57.985261002552078
 21
117.01831785145664
  0
LINE
  8
_0-4_A0
  6
CONTINUOUS
 62
    3
 10
58.085261002551987
 20
119.15831785145724
 11
57.985261002552022
 21
119.05831785145645
  0
LINE
  8
_0-4_A0
  6
CONTINUOUS
 62
    3
 10
58.025261002552099
 20
117.55831785145664
 11
58.02526100255207
 21
117.01831785145664
  0
LINE
  8
_0-4_A0
  6
CONTINUOUS
 62
    3
 10
58.035261002542654
 20
117.35831785139593
 11
58.035261002549219
 21
119.10831785145394
  0
ARC
  8
_0-4_A0
  6
CONTINUOUS
 62
    3
 10
57.835261002542665
 20
117.35831785139674
 40
0.2
 50
318.59037789480646
 51
0.000000000000019
  0
LINE
  8
_0-4_A0
  6
CONTINUOUS
 62
    3
 10
58.085260998191955
 20
127.26132785147774
 11
59.435260997455685
 21
127.26132785147734
  0
LINE
  8
_0-4_A0
  6
CONTINUOUS
 62
    3
 10
59.435260997455685
 20
127.05831785147734
 11
59.435260997455685
 21
127.26132785147734
  0
LINE
  8
_0-4_A0
  6
CONTINUOUS
 62
    3
 10
92.473706024628228
 20
172.95831784770473
 11
97.696815980155136
 21
172.95831784770473
  0
LINE
  8
_0-4_A0
  6
CONTINUOUS
 62
    3
 10
92.473706024628228
 20
172.18142780323165
 11
97.696815980155136
 21
172.18142780323165
  0
ARC
  8
_0-4_A0
  6
CONTINUOUS
 62
    3
 10
92.473706024628228
 20
172.56987282546813
 40
0.3884450222365559
 50
90
 51
270
  0
ARC
  8
_0-4_A0
  6
CONTINUOUS
 62
    3
 10
97.696815980155136
 20
172.56987282546813
 40
0.3884450222365559
 50
270
 51
90
  0
LINE
  8
_0-4_A0
  6
CONTINUOUS
 62
    3
 10
99.973706024628228
 20
172.95831784770473
 11
105.19681598015513
 21
172.95831784770473
  0
LINE
  8
_0-4_A0
  6
CONTINUOUS
 62
    3
 10
99.973706024628228
 20
172.18142780323165
 11
105.19681598015513
 21
172.18142780323165
  0
ARC
  8
_0-4_A0
  6
CONTINUOUS
 62
    3
 10
99.973706024628228
 20
172.56987282546813
 40
0.3884450222365559
 50
90
 51
270
  0
ARC
  8
_0-4_A0
  6
CONTINUOUS
 62
    3
 10
105.19681598015513
 20
172.56987282546813
 40
0.3884450222365559
 50
270
 51
90
  0
LINE
  8
_0-4_A0
  6
CONTINUOUS
 62
    3
 10
107.47370602462822
 20
172.95831784770473
 11
112.69681598015513
 21
172.95831784770473
  0
LINE
  8
_0-4_A0
  6
CONTINUOUS
 62
    3
 10
107.47370602462822
 20
172.18142780323165
 11
112.69681598015513
 21
172.18142780323165
  0
ARC
  8
_0-4_A0
  6
CONTINUOUS
 62
    3
 10
107.47370602462822
 20
172.56987282546813
 40
0.3884450222365559
 50
90
 51
270
  0
ARC
  8
_0-4_A0
  6
CONTINUOUS
 62
    3
 10
112.69681598015513
 20
172.56987282546813
 40
0.3884450222365559
 50
270
 51
90
  0
LINE
  8
_0-4_A0
  6
CONTINUOUS
 62
    3
 10
114.97370602462822
 20
172.95831784770473
 11
120.19681598015513
 21
172.95831784770473
  0
LINE
  8
_0-4_A0
  6
CONTINUOUS
 62
    3
 10
114.97370602462822
 20
172.18142780323165
 11
120.19681598015513
 21
172.18142780323165
  0
ARC
  8
_0-4_A0
  6
CONTINUOUS
 62
    3
 10
114.97370602462822
 20
172.56987282546813
 40
0.3884450222365559
 50
90
 51
270
  0
ARC
  8
_0-4_A0
  6
CONTINUOUS
 62
    3
 10
120.19681598015513
 20
172.56987282546813
 40
0.3884450222365559
 50
270
 51
90
  0
LINE
  8
_0-4_A0
  6
CONTINUOUS
 62
    3
 10
114.97370602462822
 20
171.50164901437915
 11
120.19681598015513
 21
171.50164901437915
  0
LINE
  8
_0-4_A0
  6
CONTINUOUS
 62
    3
 10
114.97370602462822
 20
170.72475896990593
 11
120.19681598015513
 21
170.72475896990593
  0
ARC
  8
_0-4_A0
  6
CONTINUOUS
 62
    3
 10
114.97370602462822
 20
171.11320399214253
 40
0.3884450222365559
 50
90
 51
270
  0
ARC
  8
_0-4_A0
  6
CONTINUOUS
 62
    3
 10
120.19681598015513
 20
171.11320399214253
 40
0.3884450222365559
 50
270
 51
90
  0
LINE
  8
_0-4_A0
  6
CONTINUOUS
 62
    3
 10
107.47370602462822
 20
171.50164901438245
 11
112.69681598015513
 21
171.50164901438245
  0
LINE
  8
_0-4_A0
  6
CONTINUOUS
 62
    3
 10
107.47370602462822
 20
170.72475896990934
 11
112.69681598015513
 21
170.72475896990934
  0
ARC
  8
_0-4_A0
  6
CONTINUOUS
 62
    3
 10
107.47370602462822
 20
171.11320399214585
 40
0.3884450222365559
 50
90
 51
270
  0
ARC
  8
_0-4_A0
  6
CONTINUOUS
 62
    3
 10
112.69681598015513
 20
171.11320399214585
 40
0.3884450222365559
 50
270
 51
90
  0
LINE
  8
_0-4_A0
  6
CONTINUOUS
 62
    3
 10
99.973706024628228
 20
171.50164901438574
 11
105.19681598015513
 21
171.50164901438574
  0
LINE
  8
_0-4_A0
  6
CONTINUOUS
 62
    3
 10
99.973706024628228
 20
170.72475896991264
 11
105.19681598015513
 21
170.72475896991264
  0
ARC
  8
_0-4_A0
  6
CONTINUOUS
 62
    3
 10
99.973706024628228
 20
171.11320399214915
 40
0.3884450222365559
 50
90
 51
270
  0
ARC
  8
_0-4_A0
  6
CONTINUOUS
 62
    3
 10
105.19681598015513
 20
171.11320399214915
 40
0.3884450222365559
 50
270
 51
90
  0
LINE
  8
_0-4_A0
  6
CONTINUOUS
 62
    3
 10
92.473706024628228
 20
171.50164901438904
 11
97.696815980155136
 21
171.50164901438904
  0
LINE
  8
_0-4_A0
  6
CONTINUOUS
 62
    3
 10
92.473706024628228
 20
170.72475896991593
 11
97.696815980155136
 21
170.72475896991593
  0
ARC
  8
_0-4_A0
  6
CONTINUOUS
 62
    3
 10
92.473706024628228
 20
171.11320399215253
 40
0.3884450222365559
 50
90
 51
270
  0
ARC
  8
_0-4_A0
  6
CONTINUOUS
 62
    3
 10
97.696815980155136
 20
171.11320399215253
 40
0.3884450222365559
 50
270
 51
90
  0
LINE
  8
_0-4_A0
  6
CONTINUOUS
 62
    3
 10
92.180711002391689
 20
205.25209951954585
 11
97.989811002391732
 21
205.25209951905495
  0
LINE
  8
_0-4_A0
  6
CONTINUOUS
 62
    3
 10
92.180711002383631
 20
205.06119951954585
 11
97.989811002391732
 21
205.06119951905495
  0
ARC
  8
_0-4_A0
  6
CONTINUOUS
 62
    3
 10
92.180711002391689
 20
205.15664951955395
 40
0.0954500000080596
 50
90
 51
270
  0
ARC
  8
_0-4_A0
  6
CONTINUOUS
 62
    3
 10
97.989811002391732
 20
205.15664951904693
 40
0.0954500000080698
 50
270
 51
90
  0
LINE
  8
_0-4_A0
  6
CONTINUOUS
 62
    3
 10
99.680711002391731
 20
205.25209951954255
 11
105.48981100239173
 21
205.25209951905165
  0
LINE
  8
_0-4_A0
  6
CONTINUOUS
 62
    3
 10
99.680711002383631
 20
205.06119951954255
 11
105.48981100239173
 21
205.06119951905165
  0
ARC
  8
_0-4_A0
  6
CONTINUOUS
 62
    3
 10
99.680711002391731
 20
205.15664951955065
 40
0.0954500000080596
 50
90
 51
270
  0
ARC
  8
_0-4_A0
  6
CONTINUOUS
 62
    3
 10
105.48981100239173
 20
205.15664951904355
 40
0.0954500000080698
 50
270
 51
90
  0
LINE
  8
_0-4_A0
  6
CONTINUOUS
 62
    3
 10
107.18071100239163
 20
205.25209951953925
 11
112.98981100239163
 21
205.25209951904835
  0
LINE
  8
_0-4_A0
  6
CONTINUOUS
 62
    3
 10
107.18071100238363
 20
205.06119951953925
 11
112.98981100239163
 21
205.06119951904835
  0
ARC
  8
_0-4_A0
  6
CONTINUOUS
 62
    3
 10
107.18071100239163
 20
205.15664951954735
 40
0.0954500000080596
 50
90
 51
270
  0
ARC
  8
_0-4_A0
  6
CONTINUOUS
 62
    3
 10
112.98981100239163
 20
205.15664951904025
 40
0.0954500000080698
 50
270
 51
90
  0
LINE
  8
_0-4_A0
  6
CONTINUOUS
 62
    3
 10
114.68071100239163
 20
205.25209951953593
 11
120.48981100239163
 21
205.25209951904503
  0
LINE
  8
_0-4_A0
  6
CONTINUOUS
 62
    3
 10
114.68071100238363
 20
205.06119951953584
 11
120.48981100239163
 21
205.06119951904503
  0
ARC
  8
_0-4_A0
  6
CONTINUOUS
 62
    3
 10
114.68071100239163
 20
205.15664951954394
 40
0.0954500000080596
 50
90
 51
270
  0
ARC
  8
_0-4_A0
  6
CONTINUOUS
 62
    3
 10
120.48981100239163
 20
205.15664951903693
 40
0.0954500000080698
 50
270
 51
90
  0
LINE
  8
_0-4_A0
  6
CONTINUOUS
 62
    3
 10
114.68071100239173
 20
204.89415951752704
 11
120.48981100239173
 21
204.89415951703614
  0
LINE
  8
_0-4_A0
  6
CONTINUOUS
 62
    3
 10
114.68071100238363
 20
204.70325951752704
 11
120.48981100239173
 21
204.70325951703614
  0
ARC
  8
_0-4_A0
  6
CONTINUOUS
 62
    3
 10
114.68071100239173
 20
204.79870951753514
 40
0.0954500000080596
 50
90
 51
270
  0
ARC
  8
_0-4_A0
  6
CONTINUOUS
 62
    3
 10
120.48981100239173
 20
204.79870951702815
 40
0.0954500000080698
 50
270
 51
90
  0
LINE
  8
_0-4_A0
  6
CONTINUOUS
 62
    3
 10
107.18071100239173
 20
204.89415951816084
 11
112.98981100239173
 21
204.89415951766994
  0
LINE
  8
_0-4_A0
  6
CONTINUOUS
 62
    3
 10
107.18071100238363
 20
204.70325951816084
 11
112.98981100239173
 21
204.70325951766994
  0
ARC
  8
_0-4_A0
  6
CONTINUOUS
 62
    3
 10
107.18071100239173
 20
204.79870951816894
 40
0.0954500000080596
 50
90
 51
270
  0
ARC
  8
_0-4_A0
  6
CONTINUOUS
 62
    3
 10
112.98981100239173
 20
204.79870951766184
 40
0.0954500000080698
 50
270
 51
90
  0
LINE
  8
_0-4_A0
  6
CONTINUOUS
 62
    3
 10
99.680711002391731
 20
204.89415951879465
 11
105.48981100239173
 21
204.89415951830375
  0
LINE
  8
_0-4_A0
  6
CONTINUOUS
 62
    3
 10
99.680711002383631
 20
204.70325951879465
 11
105.48981100239173
 21
204.70325951830375
  0
ARC
  8
_0-4_A0
  6
CONTINUOUS
 62
    3
 10
99.680711002391731
 20
204.79870951880275
 40
0.0954500000080596
 50
90
 51
270
  0
ARC
  8
_0-4_A0
  6
CONTINUOUS
 62
    3
 10
105.48981100239173
 20
204.79870951829565
 40
0.0954500000080698
 50
270
 51
90
  0
LINE
  8
_0-4_A0
  6
CONTINUOUS
 62
    3
 10
92.180711002391689
 20
204.89415951942834
 11
97.989811002391732
 21
204.89415951893744
  0
LINE
  8
_0-4_A0
  6
CONTINUOUS
 62
    3
 10
92.180711002383631
 20
204.70325951942834
 11
97.989811002391732
 21
204.70325951893755
  0
ARC
  8
_0-4_A0
  6
CONTINUOUS
 62
    3
 10
92.180711002391689
 20
204.79870951943644
 40
0.0954500000080596
 50
90
 51
270
  0
ARC
  8
_0-4_A0
  6
CONTINUOUS
 62
    3
 10
97.989811002391732
 20
204.79870951892945
 40
0.0954500000080698
 50
270
 51
90
  0
LINE
  8
_0-4_A0
  6
CONTINUOUS
 62
    3
 10
90.489811002391789
 20
205.25209951954585
 11
84.680711002391788
 21
205.25209951905503
  0
LINE
  8
_0-4_A0
  6
CONTINUOUS
 62
    3
 10
90.489811002399861
 20
205.06119951954585
 11
84.680711002391788
 21
205.06119951905503
  0
ARC
  8
_0-4_A0
  6
CONTINUOUS
 62
    3
 10
90.489811002391789
 20
205.15664951955395
 40
0.0954500000080596
 50
269.99999999999977
 51
89.999999999999715
  0
ARC
  8
_0-4_A0
  6
CONTINUOUS
 62
    3
 10
84.680711002391788
 20
205.15664951904693
 40
0.0954500000080698
 50
89.999999999999801
 51
269.99999999999977
  0
LINE
  8
_0-4_A0
  6
CONTINUOUS
 62
    3
 10
82.989811002391789
 20
205.25209951954255
 11
77.180711002391774
 21
205.25209951905165
  0
LINE
  8
_0-4_A0
  6
CONTINUOUS
 62
    3
 10
82.989811002399846
 20
205.06119951954255
 11
77.180711002391774
 21
205.06119951905174
  0
ARC
  8
_0-4_A0
  6
CONTINUOUS
 62
    3
 10
82.989811002391789
 20
205.15664951955065
 40
0.0954500000080596
 50
269.99999999999977
 51
89.999999999999715
  0
ARC
  8
_0-4_A0
  6
CONTINUOUS
 62
    3
 10
77.180711002391774
 20
205.15664951904363
 40
0.0954500000080698
 50
89.999999999999801
 51
269.99999999999977
  0
LINE
  8
_0-4_A0
  6
CONTINUOUS
 62
    3
 10
75.489811002391832
 20
205.25209951953925
 11
69.680711002391831
 21
205.25209951904835
  0
LINE
  8
_0-4_A0
  6
CONTINUOUS
 62
    3
 10
75.489811002399875
 20
205.06119951953925
 11
69.680711002391831
 21
205.06119951904844
  0
ARC
  8
_0-4_A0
  6
CONTINUOUS
 62
    3
 10
75.489811002391832
 20
205.15664951954735
 40
0.0954500000080596
 50
269.99999999999977
 51
89.999999999999715
  0
ARC
  8
_0-4_A0
  6
CONTINUOUS
 62
    3
 10
69.680711002391831
 20
205.15664951904034
 40
0.0954500000080698
 50
89.999999999999801
 51
269.99999999999977
  0
LINE
  8
_0-4_A0
  6
CONTINUOUS
 62
    3
 10
67.989811002391832
 20
205.25209951953593
 11
62.180711002391831
 21
205.25209951904503
  0
LINE
  8
_0-4_A0
  6
CONTINUOUS
 62
    3
 10
67.989811002399875
 20
205.06119951953593
 11
62.180711002391831
 21
205.06119951904514
  0
ARC
  8
_0-4_A0
  6
CONTINUOUS
 62
    3
 10
67.989811002391832
 20
205.15664951954403
 40
0.0954500000080596
 50
269.99999999999977
 51
89.999999999999715
  0
ARC
  8
_0-4_A0
  6
CONTINUOUS
 62
    3
 10
62.180711002391831
 20
205.15664951903704
 40
0.0954500000080698
 50
89.999999999999801
 51
269.99999999999977
  0
LINE
  8
_0-4_A0
  6
CONTINUOUS
 62
    3
 10
67.989811002391775
 20
204.89415951752715
 11
62.180711002391774
 21
204.89415951703625
  0
LINE
  8
_0-4_A0
  6
CONTINUOUS
 62
    3
 10
67.989811002399846
 20
204.70325951752715
 11
62.180711002391774
 21
204.70325951703625
  0
ARC
  8
_0-4_A0
  6
CONTINUOUS
 62
    3
 10
67.989811002391775
 20
204.79870951753525
 40
0.0954500000080596
 50
269.99999999999977
 51
89.999999999999715
  0
ARC
  8
_0-4_A0
  6
CONTINUOUS
 62
    3
 10
62.180711002391774
 20
204.79870951702815
 40
0.0954500000080698
 50
89.999999999999801
 51
269.99999999999977
  0
LINE
  8
_0-4_A0
  6
CONTINUOUS
 62
    3
 10
75.489811002391775
 20
204.89415951816084
 11
69.680711002391774
 21
204.89415951767003
  0
LINE
  8
_0-4_A0
  6
CONTINUOUS
 62
    3
 10
75.489811002399846
 20
204.70325951816093
 11
69.680711002391774
 21
204.70325951767003
  0
ARC
  8
_0-4_A0
  6
CONTINUOUS
 62
    3
 10
75.489811002391775
 20
204.79870951816894
 40
0.0954500000080596
 50
269.99999999999977
 51
89.999999999999715
  0
ARC
  8
_0-4_A0
  6
CONTINUOUS
 62
    3
 10
69.680711002391774
 20
204.79870951766193
 40
0.0954500000080698
 50
89.999999999999801
 51
269.99999999999977
  0
LINE
  8
_0-4_A0
  6
CONTINUOUS
 62
    3
 10
82.989811002391789
 20
204.89415951879465
 11
77.180711002391774
 21
204.89415951830375
  0
LINE
  8
_0-4_A0
  6
CONTINUOUS
 62
    3
 10
82.989811002399861
 20
204.70325951879465
 11
77.180711002391774
 21
204.70325951830375
  0
ARC
  8
_0-4_A0
  6
CONTINUOUS
 62
    3
 10
82.989811002391789
 20
204.79870951880275
 40
0.0954500000080596
 50
269.99999999999977
 51
89.999999999999715
  0
ARC
  8
_0-4_A0
  6
CONTINUOUS
 62
    3
 10
77.180711002391774
 20
204.79870951829573
 40
0.0954500000080698
 50
89.999999999999801
 51
269.99999999999977
  0
LINE
  8
_0-4_A0
  6
CONTINUOUS
 62
    3
 10
90.489811002391789
 20
204.89415951942834
 11
84.680711002391788
 21
204.89415951893755
  0
LINE
  8
_0-4_A0
  6
CONTINUOUS
 62
    3
 10
90.489811002399861
 20
204.70325951942834
 11
84.680711002391788
 21
204.70325951893755
  0
ARC
  8
_0-4_A0
  6
CONTINUOUS
 62
    3
 10
90.489811002391789
 20
204.79870951943644
 40
0.0954500000080596
 50
269.99999999999977
 51
89.999999999999715
  0
ARC
  8
_0-4_A0
  6
CONTINUOUS
 62
    3
 10
84.680711002391788
 20
204.79870951892945
 40
0.0954500000080698
 50
89.999999999999801
 51
269.99999999999977
  0
LINE
  8
_0-4_A0
  6
CENTER
 62
    3
 10
172.7698218090544
 20
153.95831785145665
 11
212.21872275744931
 21
153.95831785093523
  0
LINE
  8
_0-4_A0
  6
CENTER
 62
    3
 10
219.21872275744931
 20
153.95831785084274
 11
316.75290810621993
 21
153.95831784955385
  0
INSERT
  2
-019-_D20
  8
_0-4_A0
 10
-3.3222230146628817
 20
-0.4798102926178557
 41
1
 42
1
 50
0
  0
INSERT
  2
-020-_D21
  8
_0-4_A0
 10
-3.3222230146628817
 20
-0.4798102926178557
 41
1
 42
1
 50
0
  0
CIRCLE
  8
_0-4_A0
  6
CONTINUOUS
 62
    3
 10
117.52526100222763
 20
230.51831784635973
 40
0.4699999999999999
  0
LINE
  8
_0-4_A0
  6
CONTINUOUS
 62
    3
 10
117.73526100222763
 20
230.57831784635973
 11
117.73526100222763
 21
230.45831784635973
  0
LINE
  8
_0-4_A0
  6
CONTINUOUS
 62
    3
 10
117.31526100222762
 20
230.57831784635973
 11
117.31526100222762
 21
230.45831784635973
  0
LINE
  8
_0-4_A0
  6
CONTINUOUS
 62
    3
 10
117.46526100222763
 20
230.72831784635974
 11
117.58526100222763
 21
230.72831784635974
  0
LINE
  8
_0-4_A0
  6
CONTINUOUS
 62
    3
 10
117.46526100222763
 20
230.30831784635975
 11
117.58526100222763
 21
230.30831784635975
  0
LINE
  8
_0-4_A0
  6
CONTINUOUS
 62
    3
 10
117.58526100222763
 20
230.35831784635973
 11
117.58526100222763
 21
230.30831784635975
  0
LINE
  8
_0-4_A0
  6
CONTINUOUS
 62
    3
 10
117.58526100222763
 20
230.72831784635974
 11
117.58526100222763
 21
230.67831784635973
  0
LINE
  8
_0-4_A0
  6
CONTINUOUS
 62
    3
 10
117.31526100222762
 20
230.57831784635973
 11
117.36526100222762
 21
230.57831784635973
  0
LINE
  8
_0-4_A0
  6
CONTINUOUS
 62
    3
 10
117.68526100222763
 20
230.57831784635973
 11
117.73526100222763
 21
230.57831784635973
  0
LINE
  8
_0-4_A0
  6
CONTINUOUS
 62
    3
 10
117.31526100222762
 20
230.45831784635973
 11
117.36526100222762
 21
230.45831784635973
  0
LINE
  8
_0-4_A0
  6
CONTINUOUS
 62
    3
 10
117.68526100222763
 20
230.45831784635973
 11
117.73526100222763
 21
230.45831784635973
  0
LINE
  8
_0-4_A0
  6
CONTINUOUS
 62
    3
 10
117.46526100222763
 20
230.35831784635973
 11
117.46526100222763
 21
230.30831784635975
  0
LINE
  8
_0-4_A0
  6
CONTINUOUS
 62
    3
 10
117.46526100222763
 20
230.72831784635974
 11
117.46526100222763
 21
230.67831784635973
  0
ARC
  8
_0-4_A0
  6
CONTINUOUS
 62
    3
 10
117.68526100222763
 20
230.67831784635973
 40
0.1
 50
179.99999999999639
 51
269.99999999999482
  0
ARC
  8
_0-4_A0
  6
CONTINUOUS
 62
    3
 10
117.68526100222763
 20
230.35831784635973
 40
0.1
 50
89.999999999425526
 51
179.99999999999639
  0
ARC
  8
_0-4_A0
  6
CONTINUOUS
 62
    3
 10
117.36526100222762
 20
230.35831784635973
 40
0.1
 50
0
 51
89.999999999425526
  0
ARC
  8
_0-4_A0
  6
CONTINUOUS
 62
    3
 10
117.36526100222762
 20
230.67831784635973
 40
0.1
 50
269.99999999999488
 51
359.99999999999346
  0
INSERT
  2
-021-_D22
  8
_0-4_A0
 10
-3.3222230146628817
 20
-0.4798102926178557
 41
1
 42
1
 50
0
  0
LINE
  8
_0-4_A0
  6
CENTER
 62
    3
 10
115.71927938981183
 20
230.51831784635973
 11
119.33124261464342
 21
230.51831784635973
  0
LINE
  8
_0-4_A0
  6
CENTER
 62
    3
 10
117.52526100222763
 20
228.71233623394394
 11
117.52526100222763
 21
232.32429945877555
  0
CIRCLE
  8
_0-4_A0
  6
PHANTOM
 62
    3
 10
62.229165880545849
 20
122.56506286165574
 40
10.644284385536119
  0
CIRCLE
  8
_0-4_A0
  6
PHANTOM
 62
    3
 10
47.654777385617023
 20
94.150356281321322
 40
10.644284385536119
  0
LINE
  8
_0-4_A0
  6
CONTINUOUS
 62
    6
 10
56.7027164025219
 20
88.543611269593171
 11
41.860872506515306
 21
88.543611272101543
  0
LINE
  8
_0-4_A0
  6
CONTINUOUS
 62
    6
 10
57.048035311763783
 20
89.143611269534801
 11
43.360872511629679
 21
89.14361127184803
  0
LINE
  8
_0-4_A0
  6
CONTINUOUS
 62
    6
 10
41.810872506523764
 20
88.593611272109995
 11
41.81087250896644
 21
103.04696045779384
  0
LINE
  8
_0-4_A0
  6
CONTINUOUS
 62
    3
 10
41.960872511923042
 20
88.54361127591946
 11
41.9608725131568
 21
103.14370034143274
  0
LINE
  8
_0-4_A0
  6
CONTINUOUS
 62
    3
 10
44.960872512321316
 20
93.25639351457741
 11
44.960872513267077
 21
104.44810684243404
  0
LINE
  8
_0-4_A0
  6
CONTINUOUS
 62
    3
 10
58.225187490546147
 20
92.898469587654446
 11
44.960872512317735
 21
92.898469589896208
  0
LINE
  8
_0-4_A0
  6
CONTINUOUS
 62
    3
 10
58.266314569809679
 20
93.316048982620856
 11
44.960872512331377
 21
93.316048984869567
  0
ARC
  8
_0-4_A0
  6
CONTINUOUS
 62
    6
 10
41.860872506523776
 20
88.593611272101554
 40
0.05
 50
179.99999999032016
 51
269.99999999031871
  0
LINE
  8
_0-4_A0
  6
CONTINUOUS
 62
    6
 10
41.810872506525413
 20
88.603611272110001
 11
43.450872506525399
 21
88.603611271832832
  0
LINE
  8
_0-4_A0
  6
CONTINUOUS
 62
    6
 10
43.510872506616692
 20
89.143611271822678
 11
43.45087250661669
 21
89.143611271832824
  0
LINE
  8
_0-4_A0
  6
DASHED
 62
    6
 10
43.460872507182841
 20
92.493611271831099
 11
43.460872507149076
 21
92.29361127183111
  0
LINE
  8
_0-4_A0
  6
CONTINUOUS
 62
    6
 10
44.060872507179482
 20
92.473611265896764
 11
44.054795602529395
 21
92.461455893549725
  0
LINE
  8
_0-4_A0
  6
CONTINUOUS
 62
    6
 10
44.054795602529395
 20
92.461455893549725
 11
44.036749543961775
 21
92.449669856219813
  0
LINE
  8
_0-4_A0
  6
CONTINUOUS
 62
    6
 10
44.036749543961775
 20
92.449669856219813
 11
44.007282651834515
 21
92.438611266687289
  0
LINE
  8
_0-4_A0
  6
CONTINUOUS
 62
    6
 10
44.007282651834515
 20
92.438611266687289
 11
43.967290262753891
 21
92.428616134599181
  0
LINE
  8
_0-4_A0
  6
CONTINUOUS
 62
    6
 10
43.967290262753891
 20
92.428616134599181
 11
43.917987525224987
 21
92.419988156986192
  0
LINE
  8
_0-4_A0
  6
CONTINUOUS
 62
    6
 10
43.917987525224987
 20
92.419988156986192
 11
43.860872477979285
 21
92.412989490582134
  0
LINE
  8
_0-4_A0
  6
CONTINUOUS
 62
    6
 10
43.860872477979285
 20
92.412989490582134
 11
43.797680532825665
 21
92.407832786324206
  0
LINE
  8
_0-4_A0
  6
CONTINUOUS
 62
    6
 10
43.797680532825665
 20
92.407832786324206
 11
43.730331745041013
 21
92.404674728061849
  0
LINE
  8
_0-4_A0
  6
CONTINUOUS
 62
    6
 10
43.730331745041013
 20
92.404674728061849
 11
43.660872473462006
 21
92.403611271797331
  0
LINE
  8
_0-4_A0
  6
CONTINUOUS
 62
    6
 10
43.660872473462006
 20
92.403611271797331
 11
43.59141320290746
 21
92.404674730111096
  0
LINE
  8
_0-4_A0
  6
CONTINUOUS
 62
    6
 10
43.59141320290746
 20
92.404674730111096
 11
43.524064418165153
 21
92.407832790360416
  0
LINE
  8
_0-4_A0
  6
CONTINUOUS
 62
    6
 10
43.524064418165153
 20
92.407832790360416
 11
43.460872477979279
 21
92.412989496482694
  0
LINE
  8
_0-4_A0
  6
CONTINUOUS
 62
    6
 10
43.460872477979279
 20
92.412989496482694
 11
43.403757437475775
 21
92.419988164571805
  0
LINE
  8
_0-4_A0
  6
CONTINUOUS
 62
    6
 10
43.403757437475775
 20
92.419988164571805
 11
43.354454708258714
 21
92.428616143639359
  0
LINE
  8
_0-4_A0
  6
CONTINUOUS
 62
    6
 10
43.354454708258714
 20
92.428616143639359
 11
43.314462328806968
 21
92.438611276907352
  0
LINE
  8
_0-4_A0
  6
CONTINUOUS
 62
    6
 10
43.314462328806968
 20
92.438611276907352
 11
43.284995447333074
 21
92.449669867309239
  0
LINE
  8
_0-4_A0
  6
CONTINUOUS
 62
    6
 10
43.284995447333074
 20
92.449669867309239
 11
43.266949400119614
 21
92.461455905171561
  0
LINE
  8
_0-4_A0
  6
CONTINUOUS
 62
    6
 10
43.266949400119614
 20
92.461455905171561
 11
43.26087250717947
 21
92.473611277697884
  0
LINE
  8
_0-4_A0
  6
CONTINUOUS
 62
    6
 10
43.26087250717947
 20
92.473611277697884
 11
43.266949411829557
 21
92.485766650044922
  0
LINE
  8
_0-4_A0
  6
CONTINUOUS
 62
    6
 10
43.266949411829557
 20
92.485766650044922
 11
43.284995470397177
 21
92.497552687374835
  0
LINE
  8
_0-4_A0
  6
CONTINUOUS
 62
    6
 10
43.284995470397177
 20
92.497552687374835
 11
43.314462362524437
 21
92.508611276907359
  0
LINE
  8
_0-4_A0
  6
CONTINUOUS
 62
    6
 10
43.314462362524437
 20
92.508611276907359
 11
43.354454751605061
 21
92.518606408995466
  0
LINE
  8
_0-4_A0
  6
CONTINUOUS
 62
    6
 10
43.354454751605061
 20
92.518606408995466
 11
43.403757489133965
 21
92.527234386608455
  0
LINE
  8
_0-4_A0
  6
CONTINUOUS
 62
    6
 10
43.403757489133965
 20
92.527234386608455
 11
43.460872536379667
 21
92.534233053012513
  0
LINE
  8
_0-4_A0
  6
CONTINUOUS
 62
    6
 10
43.460872536379667
 20
92.534233053012513
 11
43.524064481533287
 21
92.539389757270441
  0
LINE
  8
_0-4_A0
  6
CONTINUOUS
 62
    6
 10
43.524064481533287
 20
92.539389757270441
 11
43.591413269317939
 21
92.542547815532799
  0
LINE
  8
_0-4_A0
  6
CONTINUOUS
 62
    6
 10
43.591413269317939
 20
92.542547815532799
 11
43.660872507179476
 21
92.543611271797317
  0
LINE
  8
_0-4_A0
  6
CONTINUOUS
 62
    6
 10
43.66087250716086
 20
92.293611271797317
 11
43.73033177822765
 21
92.294674729086452
  0
LINE
  8
_0-4_A0
  6
CONTINUOUS
 62
    6
 10
43.73033177822765
 20
92.294674729086452
 11
43.797680564491145
 21
92.29783278834229
  0
LINE
  8
_0-4_A0
  6
CONTINUOUS
 62
    6
 10
43.797680564491145
 20
92.29783278834229
 11
43.860872507160877
 21
92.302989493532393
  0
LINE
  8
_0-4_A0
  6
CONTINUOUS
 62
    6
 10
43.860872507160877
 20
92.302989493532393
 11
43.91798755103548
 21
92.309988160778985
  0
LINE
  8
_0-4_A0
  6
CONTINUOUS
 62
    6
 10
43.91798755103548
 20
92.309988160778985
 11
43.967290284408448
 21
92.318616139119257
  0
LINE
  8
_0-4_A0
  6
CONTINUOUS
 62
    6
 10
43.967290284408448
 20
92.318616139119257
 11
44.007282668674633
 21
92.328611271797313
  0
LINE
  8
_0-4_A0
  6
CONTINUOUS
 62
    6
 10
44.007282668674633
 20
92.328611271797313
 11
44.036749555475239
 21
92.339669861764519
  0
LINE
  8
_0-4_A0
  6
CONTINUOUS
 62
    6
 10
44.036749555475239
 20
92.339669861764519
 11
44.054795608365736
 21
92.35145589936063
  0
LINE
  8
_0-4_A0
  6
CONTINUOUS
 62
    6
 10
44.054795608365736
 20
92.35145589936063
 11
44.060872507160866
 21
92.36361127179731
  0
LINE
  8
_0-4_A0
  6
CONTINUOUS
 62
    6
 10
43.660872507143949
 20
92.193611271797308
 11
43.730331778210711
 21
92.194674729086443
  0
LINE
  8
_0-4_A0
  6
CONTINUOUS
 62
    6
 10
43.730331778210711
 20
92.194674729086443
 11
43.797680564474205
 21
92.197832788342282
  0
LINE
  8
_0-4_A0
  6
CONTINUOUS
 62
    6
 10
43.797680564474205
 20
92.197832788342282
 11
43.860872507143938
 21
92.202989493532385
  0
LINE
  8
_0-4_A0
  6
CONTINUOUS
 62
    6
 10
43.860872507143938
 20
92.202989493532385
 11
43.917987551018569
 21
92.209988160778976
  0
LINE
  8
_0-4_A0
  6
CONTINUOUS
 62
    6
 10
43.917987551018569
 20
92.209988160778976
 11
43.967290284391538
 21
92.218616139119248
  0
LINE
  8
_0-4_A0
  6
CONTINUOUS
 62
    6
 10
43.967290284391538
 20
92.218616139119248
 11
44.007282668657722
 21
92.228611271797305
  0
LINE
  8
_0-4_A0
  6
CONTINUOUS
 62
    6
 10
44.007282668657722
 20
92.228611271797305
 11
44.0367495554583
 21
92.239669861764511
  0
LINE
  8
_0-4_A0
  6
CONTINUOUS
 62
    6
 10
44.0367495554583
 20
92.239669861764511
 11
44.054795608348825
 21
92.251455899360621
  0
LINE
  8
_0-4_A0
  6
CONTINUOUS
 62
    6
 10
44.054795608348825
 20
92.251455899360621
 11
44.060872507143955
 21
92.263611265896741
  0
LINE
  8
_0-4_A0
  6
CONTINUOUS
 62
    6
 10
43.660872524517913
 20
92.543611271797303
 11
43.560872507191305
 21
92.543611271814199
  0
LINE
  8
_0-4_A0
  6
DASHED
 62
    6
 10
43.460872507191254
 20
92.54361127183111
 11
43.460872507182841
 21
92.493611271831099
  0
LINE
  8
_0-4_A0
  6
CONTINUOUS
 62
    6
 10
44.060872507143955
 20
92.263611271729573
 11
44.060872507179453
 21
92.473611271729623
  0
LINE
  8
_0-4_A0
  6
CONTINUOUS
 62
    6
 10
43.560872507182864
 20
92.493611271814202
 11
43.510872507182853
 21
92.493611271822658
  0
LINE
  8
_0-4_A0
  6
DASHED
 62
    6
 10
43.510872507182853
 20
92.493611271822658
 11
43.460872507182841
 21
92.493611271831099
  0
LINE
  8
_0-4_A0
  6
CONTINUOUS
 62
    6
 10
43.660872523249992
 20
92.293611271797303
 11
43.510872507149031
 21
92.293611271822655
  0
LINE
  8
_0-4_A0
  6
DASHED
 62
    6
 10
43.510872507149088
 20
92.293611271822655
 11
43.460872507149076
 21
92.29361127183111
  0
LINE
  8
_0-4_A0
  6
CONTINUOUS
 62
    6
 10
43.660872523233081
 20
92.193611271797308
 11
43.510872507132205
 21
92.193611271822646
  0
LINE
  8
_0-4_A0
  6
DASHED
 62
    6
 10
43.510872507132148
 20
92.193611271822646
 11
43.460872507132137
 21
92.193611271831102
  0
ARC
  8
_0-4_A0
  6
CONTINUOUS
 62
    3
 10
49.310872506511913
 20
88.523611270842451
 40
0.1
 50
179.99999999032328
 51
269.99999999032132
  0
LINE
  8
_0-4_A0
  6
CONTINUOUS
 62
    3
 10
49.210872506515272
 20
88.543611270859344
 11
49.210872506511918
 21
88.523611270859362
  0
LINE
  8
_0-4_A0
  6
CONTINUOUS
 62
    3
 10
49.810872506495002
 20
88.423611270757959
 11
49.310872506495002
 21
88.423611270842457
  0
LINE
  8
_0-4_A0
  6
CONTINUOUS
 62
    3
 10
49.810872506495002
 20
88.423611270757959
 11
50.310872506495002
 21
88.423611270673447
  0
ARC
  8
_0-4_A0
  6
CONTINUOUS
 62
    3
 10
50.310872506511913
 20
88.523611270673441
 40
0.1
 50
269.99999999031848
 51
359.9999999903166
  0
LINE
  8
_0-4_A0
  6
CONTINUOUS
 62
    3
 10
50.410872506515289
 20
88.543611270656526
 11
50.410872506511907
 21
88.523611270656545
  0
LINE
  8
_1-3_A50
  6
CONTINUOUS
 62
    3
 10
43.430872506601701
 20
88.565209230410715
 11
41.990872506601704
 21
88.565209230532246
  0
ARC
  8
_1-3_A50
  6
CONTINUOUS
 62
    3
 10
41.990872506604262
 20
88.595209230532262
 40
0.0299999999999998
 50
179.99999999516489
 51
269.99999999516489
  0
ARC
  8
_1-3_A50
  6
CONTINUOUS
 62
    3
 10
43.430872506604259
 20
88.595209230410745
 40
0.0299999999999998
 50
269.99999999516489
 51
359.99999999516461
  0
LINE
  8
_0-4_A0
  6
CONTINUOUS
 62
    3
 10
43.560872507212536
 20
92.669032246597623
 11
43.560872507182864
 21
92.493611271814202
  0
LINE
  8
_1-1_A30
  6
CONTINUOUS
 62
    3
 10
43.410872511578929
 20
88.5436112768311
 11
42.010872511578924
 21
88.543611276949661
  0
LINE
  8
_1-1_A30
  6
CONTINUOUS
 62
    3
 10
43.460872511621232
 20
89.043611276826879
 11
43.460872511583147
 21
88.593611276826877
  0
LINE
  8
_1-1_A30
  6
CONTINUOUS
 62
    3
 10
43.460872511621261
 20
89.043611276826865
 11
43.410872511621278
 21
89.0436112768311
  0
LINE
  8
_1-1_A30
  6
CONTINUOUS
 62
    3
 10
43.410872511621249
 20
89.0436112768311
 11
43.410872511583136
 21
88.593611276831097
  0
LINE
  8
_1-1_A30
  6
CONTINUOUS
 62
    3
 10
43.360872511629736
 20
89.143611276835315
 11
43.360872511583124
 21
88.593611276835318
  0
LINE
  8
_1-1_A30
  6
CONTINUOUS
 62
    3
 10
43.460872511638171
 20
89.243611276826854
 11
43.360872511629679
 21
89.143611276835315
  0
LINE
  8
_1-1_A30
  6
CONTINUOUS
 62
    3
 10
43.410872511583136
 20
88.593611276831097
 11
43.360872511583124
 21
88.593611276835332
  0
LINE
  8
_1-1_A30
  6
CONTINUOUS
 62
    3
 10
43.360872511583153
 20
88.593611276835332
 11
41.960872511583147
 21
88.593611276953907
  0
ARC
  8
_1-1_A30
  6
CONTINUOUS
 62
    3
 10
43.410872511583136
 20
88.593611276831097
 40
0.05
 50
269.99999999517132
 51
359.99999999574208
  0
ARC
  8
_1-1_A30
  6
CONTINUOUS
 62
    3
 10
42.010872511583102
 20
88.593611276949658
 40
0.05
 50
179.99999999517442
 51
269.99999999517137
  0
LINE
  8
_1-1_A30
  6
CONTINUOUS
 62
    3
 10
41.960872512102724
 20
94.727998677434726
 11
41.960872512170482
 21
95.527998677502182
  0
LINE
  8
_0-4_A0
  6
CONTINUOUS
 62
    3
 10
43.460872512260834
 20
92.540528268354847
 11
43.460872511982245
 21
89.243611277170941
  0
LINE
  8
_0-4_A0
  6
CONTINUOUS
 62
    3
 10
44.960872512260834
 20
93.256397856768558
 11
44.439927979260033
 21
93.245522182917412
  0
LINE
  8
_0-4_A0
  6
CONTINUOUS
 62
    3
 10
44.439927979260033
 20
93.245522182917412
 11
43.934812082283826
 21
93.213225613210568
  0
LINE
  8
_0-4_A0
  6
CONTINUOUS
 62
    3
 10
43.934812082283826
 20
93.213225613210568
 11
43.460872512260834
 21
93.160489462575725
  0
LINE
  8
_0-4_A0
  6
CONTINUOUS
 62
    3
 10
43.460872512260834
 20
93.160489462575725
 11
43.032509683201226
 21
93.088916092264142
  0
LINE
  8
_0-4_A0
  6
CONTINUOUS
 62
    3
 10
43.032509683201226
 20
93.088916092264142
 11
42.662739182903891
 21
93.000680222914866
  0
LINE
  8
_0-4_A0
  6
CONTINUOUS
 62
    3
 10
42.662739182903891
 20
93.000680222914866
 11
42.362796300907518
 21
92.89846285676856
  0
LINE
  8
_0-4_A0
  6
CONTINUOUS
 62
    3
 10
42.362796300907518
 20
92.89846285676856
 11
42.141794649903118
 21
92.785369816771108
  0
LINE
  8
_0-4_A0
  6
CONTINUOUS
 62
    3
 10
42.141794649903118
 20
92.785369816771108
 11
42.006449253224218
 21
92.664837377714988
  0
LINE
  8
_0-4_A0
  6
CONTINUOUS
 62
    3
 10
42.006449253224218
 20
92.664837377714988
 11
41.960872512260834
 21
92.540527856768562
  0
LINE
  8
_0-4_A0
  6
CONTINUOUS
 62
    3
 10
44.960872512260834
 20
92.898467856768562
 11
44.70040024576042
 21
92.893029943881757
  0
LINE
  8
_0-4_A0
  6
CONTINUOUS
 62
    3
 10
44.70040024576042
 20
92.893029943881757
 11
44.44784229727233
 21
92.876881433452666
  0
LINE
  8
_0-4_A0
  6
CONTINUOUS
 62
    3
 10
44.44784229727233
 20
92.876881433452666
 11
44.210872512260834
 21
92.85051298979917
  0
LINE
  8
_0-4_A0
  6
CONTINUOUS
 62
    3
 10
44.210872512260834
 20
92.85051298979917
 11
43.99669109773103
 21
92.814725804738571
  0
LINE
  8
_0-4_A0
  6
CONTINUOUS
 62
    3
 10
43.99669109773103
 20
92.814725804738571
 11
43.811805847582377
 21
92.770607253779758
  0
LINE
  8
_0-4_A0
  6
CONTINUOUS
 62
    3
 10
43.811805847582377
 20
92.770607253779758
 11
43.661834406584176
 21
92.719497856768555
  0
LINE
  8
_0-4_A0
  6
CONTINUOUS
 62
    3
 10
43.661834406584176
 20
92.719497856768555
 11
43.551333581081962
 21
92.662950546870547
  0
LINE
  8
_0-4_A0
  6
CONTINUOUS
 62
    3
 10
43.551333581081962
 20
92.662950546870547
 11
43.483660882742526
 21
92.602683485482657
  0
LINE
  8
_0-4_A0
  6
CONTINUOUS
 62
    3
 10
43.483660882742526
 20
92.602683485482657
 11
43.460872512260834
 21
92.540527856768562
  0
POINT
  8
_0-4_A0
 62
    7
 10
46.460872512482012
 20
95.158274104067615
  0
LINE
  8
_0-4_A0
  6
CONTINUOUS
 62
    3
 10
46.660872512482001
 20
95.158274104067615
 11
50.860872512482046
 21
95.158274104067615
  0
LINE
  8
_0-4_A0
  6
CONTINUOUS
 62
    3
 10
46.660872512482001
 20
96.158274104067615
 11
50.860872512482046
 21
96.158274104067615
  0
LINE
  8
_0-4_A0
  6
CONTINUOUS
 62
    3
 10
51.060872512482035
 20
95.958274104067612
 11
51.060872512482035
 21
95.358274104067618
  0
LINE
  8
_0-4_A0
  6
CONTINUOUS
 62
    3
 10
46.460872512482012
 20
95.958274104067612
 11
46.460872512482012
 21
95.358274104067618
  0
ARC
  8
_0-4_A0
  6
CONTINUOUS
 62
    3
 10
46.660872512482001
 20
95.958274104067612
 40
0.2
 50
90
 51
180
  0
ARC
  8
_0-4_A0
  6
CONTINUOUS
 62
    3
 10
46.660872512482001
 20
95.358274104067618
 40
0.2
 50
180
 51
270
  0
ARC
  8
_0-4_A0
  6
CONTINUOUS
 62
    3
 10
50.860872512482046
 20
95.358274104067618
 40
0.2
 50
270
 51
0
  0
ARC
  8
_0-4_A0
  6
CONTINUOUS
 62
    3
 10
50.860872512482046
 20
95.958274104067612
 40
0.2
 50
0
 51
90
  0
LINE
  8
_0-6_A2
  6
CONTINUOUS
 62
    7
 10
47.735183523186123
 20
95.912054552688402
 11
47.871026120603175
 21
95.912054552688402
  0
LINE
  8
_0-6_A2
  6
CONTINUOUS
 62
    7
 10
48.163588098814841
 20
95.912054552688402
 11
48.245683008109693
 21
95.912054552688402
  0
LINE
  8
_0-6_A2
  6
CONTINUOUS
 62
    7
 10
48.83698748390509
 20
95.420196088833321
 11
48.971794558947152
 21
95.420196088833321
  0
LINE
  8
_0-6_A2
  6
CONTINUOUS
 62
    7
 10
48.971794558947152
 20
95.420196088833321
 11
48.971794558947152
 21
95.912054552688402
  0
LINE
  8
_0-6_A2
  6
CONTINUOUS
 62
    7
 10
48.971794558947152
 20
95.912054552688402
 11
48.83698748390509
 21
95.912054552688402
  0
LINE
  8
_0-6_A2
  6
CONTINUOUS
 62
    7
 10
48.83698748390509
 20
95.912054552688402
 11
48.83698748390509
 21
95.420196088833321
  0
LINE
  8
_0-6_A2
  6
CONTINUOUS
 62
    7
 10
48.311773796793147
 20
95.463448310322974
 11
48.311773796793147
 21
95.40664297595768
  0
LINE
  8
_0-6_A2
  6
CONTINUOUS
 62
    7
 10
48.683340424613618
 20
95.912054552688402
 11
48.547514134635548
 21
95.912054552688402
  0
LINE
  8
_0-6_A2
  6
CONTINUOUS
 62
    7
 10
47.636733883341889
 20
95.848338125510309
 11
47.636733883341889
 21
95.912054552688402
  0
LINE
  8
_0-6_A2
  6
CONTINUOUS
 62
    7
 10
47.636733883341889
 20
95.912054552688402
 11
47.146427900102764
 21
95.912054552688402
  0
LINE
  8
_0-6_A2
  6
CONTINUOUS
 62
    7
 10
47.146427900102764
 20
95.912054552688402
 11
47.146427900102764
 21
95.699286498757032
  0
LINE
  8
_0-6_A2
  6
CONTINUOUS
 62
    7
 10
47.146427900102764
 20
95.699286498757032
 11
47.235864418424739
 21
95.699286498757032
  0
LINE
  8
_0-6_A2
  6
CONTINUOUS
 62
    7
 10
47.235864418424739
 20
95.699286498757032
 11
47.235864418424739
 21
95.638260799078011
  0
LINE
  8
_0-6_A2
  6
CONTINUOUS
 62
    7
 10
47.235864418424739
 20
95.638260799078011
 11
47.146427900102764
 21
95.638260799078011
  0
LINE
  8
_0-6_A2
  6
CONTINUOUS
 62
    7
 10
47.146427900102764
 20
95.638260799078011
 11
47.146427900102764
 21
95.418094059896162
  0
LINE
  8
_0-6_A2
  6
CONTINUOUS
 62
    7
 10
47.146427900102764
 20
95.418094059896162
 11
47.287955270746977
 21
95.418094059896162
  0
LINE
  8
_0-6_A2
  6
CONTINUOUS
 62
    7
 10
47.287955270746977
 20
95.418094059896162
 11
47.287955270746977
 21
95.638260799078011
  0
LINE
  8
_0-6_A2
  6
CONTINUOUS
 62
    7
 10
47.287955270746977
 20
95.638260799078011
 11
47.580804259884644
 21
95.638260799078011
  0
LINE
  8
_0-6_A2
  6
CONTINUOUS
 62
    7
 10
47.580804259884644
 20
95.638260799078011
 11
47.580804259884644
 21
95.699286498757032
  0
LINE
  8
_0-6_A2
  6
CONTINUOUS
 62
    7
 10
47.580804259884644
 20
95.699286498757032
 11
47.287955270746977
 21
95.699286498757032
  0
LINE
  8
_0-6_A2
  6
CONTINUOUS
 62
    7
 10
47.287955270746977
 20
95.699286498757032
 11
47.287955270746977
 21
95.848338125510309
  0
LINE
  8
_0-6_A2
  6
CONTINUOUS
 62
    7
 10
47.287955270746977
 20
95.848338125510309
 11
47.636733883341889
 21
95.848338125510309
  0
LINE
  8
_0-6_A2
  6
CONTINUOUS
 62
    7
 10
50.810872512482887
 20
95.699286498757032
 11
50.454338081910805
 21
95.699286498757032
  0
LINE
  8
_0-6_A2
  6
CONTINUOUS
 62
    7
 10
50.454338081910805
 20
95.699286498757032
 11
50.454338081910805
 21
95.638260799078011
  0
LINE
  8
_0-6_A2
  6
CONTINUOUS
 62
    7
 10
50.454338081910805
 20
95.638260799078011
 11
50.810872512482887
 21
95.638260799078011
  0
LINE
  8
_0-6_A2
  6
CONTINUOUS
 62
    7
 10
50.810872512482887
 20
95.638260799078011
 11
50.810872512482887
 21
95.699286498757032
  0
LINE
  8
_0-6_A2
  6
CONTINUOUS
 62
    7
 10
47.067423250493902
 20
95.699286498757032
 11
46.710872512482865
 21
95.699286498757032
  0
LINE
  8
_0-6_A2
  6
CONTINUOUS
 62
    7
 10
46.710872512482865
 20
95.699286498757032
 11
46.710872512482865
 21
95.638260799078011
  0
LINE
  8
_0-6_A2
  6
CONTINUOUS
 62
    7
 10
46.710872512482865
 20
95.638260799078011
 11
47.067423250493902
 21
95.638260799078011
  0
LINE
  8
_0-6_A2
  6
CONTINUOUS
 62
    7
 10
47.067423250493902
 20
95.638260799078011
 11
47.067423250493902
 21
95.699286498757032
  0
LINE
  8
_0-6_A2
  6
CONTINUOUS
 62
    7
 10
50.375333432301999
 20
95.699286498757032
 11
50.375333432301999
 21
95.912054552688402
  0
LINE
  8
_0-6_A2
  6
CONTINUOUS
 62
    7
 10
50.375333432301999
 20
95.912054552688402
 11
50.233806061657759
 21
95.912054552688402
  0
LINE
  8
_0-6_A2
  6
CONTINUOUS
 62
    7
 10
50.233806061657759
 20
95.912054552688402
 11
50.233806061657759
 21
95.699286498757032
  0
LINE
  8
_0-6_A2
  6
CONTINUOUS
 62
    7
 10
50.233806061657759
 20
95.699286498757032
 11
49.972647318682902
 21
95.699286498757032
  0
LINE
  8
_0-6_A2
  6
CONTINUOUS
 62
    7
 10
49.972647318682902
 20
95.699286498757032
 11
49.972647318682902
 21
95.912054552688402
  0
LINE
  8
_0-6_A2
  6
CONTINUOUS
 62
    7
 10
49.972647318682902
 20
95.912054552688402
 11
49.837044440618797
 21
95.912054552688402
  0
LINE
  8
_0-6_A2
  6
CONTINUOUS
 62
    7
 10
49.837044440618797
 20
95.912054552688402
 11
49.837044440618797
 21
95.420196088833321
  0
LINE
  8
_0-6_A2
  6
CONTINUOUS
 62
    7
 10
49.837044440618797
 20
95.420196088833321
 11
49.972647318682902
 21
95.420196088833321
  0
LINE
  8
_0-6_A2
  6
CONTINUOUS
 62
    7
 10
49.972647318682902
 20
95.420196088833321
 11
49.972647318682902
 21
95.638260799078011
  0
LINE
  8
_0-6_A2
  6
CONTINUOUS
 62
    7
 10
49.972647318682902
 20
95.638260799078011
 11
50.233806061657759
 21
95.638260799078011
  0
LINE
  8
_0-6_A2
  6
CONTINUOUS
 62
    7
 10
50.233806061657759
 20
95.638260799078011
 11
50.233806061657759
 21
95.420196088833321
  0
LINE
  8
_0-6_A2
  6
CONTINUOUS
 62
    7
 10
50.233806061657759
 20
95.420196088833321
 11
50.375333432301999
 21
95.420196088833321
  0
LINE
  8
_0-6_A2
  6
CONTINUOUS
 62
    7
 10
50.375333432301999
 20
95.420196088833321
 11
50.375333432301999
 21
95.638260799078011
  0
LINE
  8
_0-6_A2
  6
CONTINUOUS
 62
    7
 10
50.375333432301999
 20
95.638260799078011
 11
50.285896913979968
 21
95.638260799078011
  0
LINE
  8
_0-6_A2
  6
CONTINUOUS
 62
    7
 10
50.285896913979968
 20
95.638260799078011
 11
50.285896913979968
 21
95.699286498757032
  0
LINE
  8
_0-6_A2
  6
CONTINUOUS
 62
    7
 10
50.285896913979968
 20
95.699286498757032
 11
50.375333432301999
 21
95.699286498757032
  0
POINT
  8
_0-4_A0
 62
    7
 10
46.460872512482012
 20
95.158274104067615
  0
TEXT
  8
_0-1_H0
 62
    7
 10
303.3777769853371
 20
282.54018970738212
 40
2.9599999999999999
 41
1
 50
0
  1
主　要　　部　品　一　覧　表
  0
TEXT
  8
_0-1_H0
 62
    7
 10
268.62273699514895
 20
277.18020858089499
 40
3.56
 41
1
 50
0
  1
品番
  0
TEXT
  8
_0-1_H0
 62
    7
 10
288.65777698533702
 20
277.18018970738216
 40
3.6800000000000001
 41
1
 50
0
  1
部品名
  0
TEXT
  8
_0-1_H0
 62
    7
 10
325.49777698533711
 20
277.18018970738216
 40
3.6800000000000001
 41
1
 50
0
  1
材質
  0
TEXT
  8
_0-1_H0
 62
    7
 10
354.23777698533712
 20
277.16018970738213
 40
3.7200000000000001
 41
1
 50
0
  1
表面処理
  0
TEXT
  8
_0-1_H0
 62
    7
 10
387.99777698533716
 20
277.18018970738216
 40
3.6800000000000001
 41
1
 50
0
  1
色調
  0
TEXT
  8
_0-1_H0
 62
    7
 10
286.04027698533701
 20
272.39268970738214
 40
3.2550000000000003
 41
1
 50
0
  1
本　　　体
  0
TEXT
  8
_0-1_H0
 62
    7
 10
286.04027698533701
 20
267.39268970738214
 40
3.2550000000000003
 41
1
 50
0
  1
前　　　板
  0
TEXT
  8
_0-1_H0
 62
    7
 10
318.25777698533698
 20
272.66018970738213
 40
3.3599999999999998
 41
1
 50
0
  1
亜鉛めっき鋼板
  0
TEXT
  8
_0-1_H0
 62
    7
 10
317.79920160489859
 20
267.13435496498021
 40
3.3599999999999998
 41
1
 50
0
  1
亜鉛めっき鋼板
  0
TEXT
  8
_0-1_H0
 62
    7
 10
350.15994820427505
 20
272.84830856551707
 40
2.8799999999999998
 41
1
 50
0
  1
ポリエステル塗装
  0
TEXT
  8
_0-1_H0
 62
    7
 10
350.26323034768142
 20
267.4776371083866
 40
2.8799999999999998
 41
1
 50
0
  1
ポリエステル塗装
  0
TEXT
  8
_0-1_H0
 62
    7
 10
382.48130908277528
 20
272.19517999189162
 40
3.3599999999999998
 41
1
 50
0
  1
表題欄による
  0
TEXT
  8
_0-1_H0
 62
    7
 10
382.27474479596253
 20
267.34091925179291
 40
3.3599999999999998
 41
1
 50
0
  1
表題欄による
  0
TEXT
  8
_0-1_H0
 62
    7
 10
267.22089415777776
 20
261.44070850400521
 40
2.56
 41
1
 50
0
  1
注）１．
  0
TEXT
  8
_0-1_H0
 62
    7
 10
277.23826222197368
 20
261.55055493422429
 40
2.9599999999999999
 41
1
 50
0
  1
本製品は換気扇用フードで換気扇は別手配とする。
  0
TEXT
  8
_0-1_H0
 62
    7
 10
273.2977174012368
 20
255.47681192826243
 40
2.2000000000000001
 41
1
 50
0
  1
２．
  0
TEXT
  8
_0-1_H0
 62
    7
 10
278.43454061875269
 20
255.47690847324935
 40
2.9199999999999999
 41
1
 50
0
  1
換気扇は２５cmの金属製を使用する。
  0
TEXT
  8
_0-1_H0
 62
    7
 10
347.65298843458697
 20
239.73798843477055
 40
3.2200000000000001
 41
1
 50
0
  1
付　属　品
  0
TEXT
  8
_0-1_H0
 62
    7
 10
327.11931103066621
 20
232.84798843477054
 40
3
 41
1
 50
0
  1
座付ねじ（φ５．１×４５）
  0
TEXT
  8
_0-1_H0
 62
    7
 10
381.763759809595
 20
233.38441123086226
 40
3.08
 41
1
 50
0
  1
４本
  0
TEXT
  8
_0-1_H0
 62
    7
 10
143.3980686695279
 20
228.78806866952788
 40
3.2200000000000001
 41
1
 50
0
  1
電源コード取出口ハーフカット（２０×３０）
  0
LINE
  8
_0-0_0
  6
CONTINUOUS
 62
    7
 10
141.80472103004291
 20
228.16738197424893
 11
213.82403433476395
 21
228.16738197424893
  0
LINE
  8
_0-0_0
  6
CONTINUOUS
 62
    7
 10
141.80472103004291
 20
228.16738197424893
 11
120.16733362191236
 21
242.59846147470022
  0
LINE
  8
_0-0_0
  6
CONTINUOUS
 62
    7
 10
120.16733362191236
 20
242.59846147470022
 11
123.00894181217593
 21
241.63655560974927
  0
LINE
  8
_0-0_0
  6
CONTINUOUS
 62
    7
 10
120.16733362191236
 20
242.59846147470022
 11
122.14728556980706
 21
240.34462246447168
  0
LINE
  8
_0-0_0
  6
CONTINUOUS
 62
    7
 10
140.32515164723218
 20
214.15133421297321
 11
118.68776423910162
 21
228.5824137134245
  0
LINE
  8
_0-0_0
  6
CONTINUOUS
 62
    7
 10
118.68776423910162
 20
228.5824137134245
 11
121.52937242936519
 21
227.62050784847357
  0
LINE
  8
_0-0_0
  6
CONTINUOUS
 62
    7
 10
118.68776423910162
 20
228.5824137134245
 11
120.66771618699632
 21
226.32857470319595
  0
TEXT
  8
_0-1_H0
 62
    7
 10
142.22323122547845
 20
214.57239882849194
 40
3.2200000000000001
 41
1
 50
0
  1
アース端子
  0
LINE
  8
_0-0_0
  6
CONTINUOUS
 62
    7
 10
140.32515164723218
 20
214.15133421297321
 11
158.12661865202895
 21
214.15133421297321
  0
TEXT
  8
_0-4_A0
 62
    7
 10
44.88639549521531
 20
130.46997785211465
 40
3.6
 41
1
 50
0
  1
イ部
  0
TEXT
  8
_0-4_A0
 62
    7
 10
35.21841756803974
 20
76.929622345198851
 40
3.7599999999999997
 41
1
 50
0
  1
イ部（前板取付状態）
  0
TEXT
  8
_0-1_H0
 62
    7
 10
24.943150202852791
 20
57.670373435465791
 40
2.3559999704360961
 41
1
 50
0
  1
型　　名
  0
TEXT
  8
_0-1_H0
 62
    7
 10
50.914150153023314
 20
60.094373436419459
 40
2.5079999685287477
 41
1
 50
0
  1
質量
  0
INSERT
  2
-002-$$BALLOON$$0
  8
_0-4_A0
 10
153.91416309012873
 20
154.55472103004291
 41
1
 42
1
 50
0
  0
INSERT
  2
-003-$$BALLOON$$1
  8
_0-4_A0
 10
220.19742489270385
 20
114.40236051502145
 41
1
 42
1
 50
0
  0
LINE
  8
_0-0_0
  6
CONTINUOUS
 62
    7
 10
164.42205142846617
 20
146.82322385750336
 11
161.56508581069164
 21
147.73850930961876
  0
LINE
  8
_0-0_0
  6
CONTINUOUS
 62
    7
 10
164.42205142846617
 20
146.82322385750336
 11
162.40548935179239
 21
149.04436711963688
  0
LINE
  8
_0-0_0
  6
CONTINUOUS
 62
    7
 10
153.60648466837972
 20
153.78373711894514
 11
164.42205142846617
 21
146.82322385750336
  0
LINE
  8
_0-0_0
  6
CONTINUOUS
 62
    7
 10
208.70001980143305
 20
121.43873413582862
 11
211.59888926142099
 21
120.66636385290125
  0
LINE
  8
_0-0_0
  6
CONTINUOUS
 62
    7
 10
208.70001980143305
 20
121.43873413582862
 11
210.82432925457379
 21
119.32040711969138
  0
LINE
  8
_0-0_0
  6
CONTINUOUS
 62
    7
 10
220.34760926909351
 20
114.73587604594854
 11
208.70001980143305
 21
121.43873413582862
  0
TEXT
  8
_0-1_H0
 62
    7
 10
233.6171244635193
 20
210.31356223175964
 40
3.2200000000000001
 41
1
 50
0
  1
換気扇取付用ハーフカット（３か所）
  0
LINE
  8
_0-0_0
  6
CONTINUOUS
 62
    7
 10
232.3068669527897
 20
209.05553648068669
 11
287.11802575107299
 21
209.05553648068669
  0
LINE
  8
_0-0_0
  6
CONTINUOUS
 62
    7
 10
232.3068669527897
 20
209.05553648068669
 11
199.16523605150214
 21
170.8068669527897
  0
LINE
  8
_0-0_0
  6
CONTINUOUS
 62
    7
 10
199.16523605150214
 20
170.8068669527897
 11
200.47602808727046
 21
173.50535249823298
  0
LINE
  8
_0-0_0
  6
CONTINUOUS
 62
    7
 10
199.16523605150214
 20
170.8068669527897
 11
201.64965802627747
 21
172.48842796900453
  0
LINE
  8
_0-0_0
  6
CONTINUOUS
 62
    7
 10
232.3068669527897
 20
209.05553648068669
 11
270.54721030042918
 21
170.8068669527897
  0
LINE
  8
_0-0_0
  6
CONTINUOUS
 62
    7
 10
270.54721030042918
 20
170.8068669527897
 11
267.94929738635499
 21
172.30714975642592
  0
LINE
  8
_0-0_0
  6
CONTINUOUS
 62
    7
 10
270.54721030042918
 20
170.8068669527897
 11
269.0474931218394
 21
173.40510643063672
  0
TEXT
  8
_0-4_A0
 62
    7
 10
255.19350646788635
 20
103.40160309224333
 40
3.7599999999999997
 41
1
 50
0
  1
本体取付穴（２－φ６）
  0
LINE
  8
_0-0_0
  6
CONTINUOUS
 62
    7
 10
254.6137339055794
 20
102.29291845493563
 11
293.17274678111584
 21
102.29291845493563
  0
LINE
  8
_0-0_0
  6
CONTINUOUS
 62
    7
 10
293.17274678111584
 20
102.29291845493563
 11
307.3292644458362
 21
136.26712478586821
  0
LINE
  8
_0-0_0
  6
CONTINUOUS
 62
    7
 10
307.3292644458362
 20
136.26712478586821
 11
306.93141968699598
 21
133.29362187719914
  0
LINE
  8
_0-0_0
  6
CONTINUOUS
 62
    7
 10
307.3292644458362
 20
136.26712478586821
 11
305.49796932358356
 21
133.89091810815398
  0
TEXT
  8
_0-1_H0
 62
    7
 10
339.61664351568219
 20
114.08795523932424
 40
2.9199999999999999
 41
1
 50
0
  1
だるま穴詳細（２か所）
  0
LINE
  8
_0-1_H0
  6
CONTINUOUS
 62
    7
 10
353.67664351568214
 20
143.79209160459515
 11
355.41223845684982
 21
145.72799196365113
  0
INSERT
  2
-000-_OPEN
  8
_0-1_H0
 10
355.41223845684982
 20
145.72799196365113
 41
3
 42
3
 50
228.12278454073663
  0
LINE
  8
_0-1_H0
  6
CONTINUOUS
 62
    7
 10
357.41484800435091
 20
147.96172314717733
 11
364.87792491684842
 21
156.28611551078154
  0
LINE
  8
_0-1_H0
  6
CONTINUOUS
 62
    7
 10
353.6766435156822
 20
133.79209160459524
 11
349.97405942402571
 21
130.43190246643473
  0
INSERT
  2
-000-_OPEN
  8
_0-1_H0
 10
347.75250896903179
 20
128.41578898353844
 41
3
 42
3
 50
222.2245408130266
  0
LINE
  8
_0-1_H0
  6
CONTINUOUS
 62
    7
 10
347.75250896903179
 20
128.41578898353844
 11
342.85299992311263
 21
123.96936003800404
  0
TEXT
  8
_0-1_H0
 62
    7
 10
358.27084523982244
 20
149.6655339186262
 40
4
 41
1
 50
48.122784540000061
  1
R2.6
  0
TEXT
  8
_0-1_H0
 62
    7
 10
343.01312737770956
 20
124.78988388269716
 40
4
 41
1
 50
42.224540810000021
  1
R8
  0
TEXT
  8
_0-1_H0
 62
    7
 10
323.1977769853371
 20
45.100189707382156
 40
1.84
 41
1
 50
0
  1
ホワイト（Ｃ－２０２）
  0
TEXT
  8
_0-1_H0
 62
    7
 10
323.65777698533713
 20
40.100189707382156
 40
1.84
 41
1
 50
0
  1
ブラック（ブラックＦＪ）
  0
TEXT
  8
_0-1_H0
 62
    7
 10
258.57777698533715
 20
34.200189707382094
 40
3.6400000000000001
 41
1
 50
0
  1
型　　　名
  0
TEXT
  8
_0-1_H0
 62
    7
 10
293.57777698533703
 20
34.200189707382094
 40
3.6400000000000001
 41
1
 50
0
  1
製品コード
  0
TEXT
  8
_0-1_H0
 62
    7
 10
330.39777698533703
 20
34.200189707382151
 40
3.6400000000000001
 41
1
 50
0
  1
色　　調
  0
TEXT
  8
_0-1_H0
 62
    7
 10
390.03777698533713
 20
34.360189707382147
 40
3.3199999999999998
 41
1
 50
0
  1
区分Ｎｏ
  0
TEXT
  8
_0-1_H0
 62
    7
 10
344.96277676111174
 20
23.820189707382155
 40
2.9139999103546134
 41
1
 50
0
  1
ワンド株式会社殿向け
  0
TEXT
  8
_0-1_H0
 62
    7
 10
330.32577707307507
 20
27.094189751251121
 40
2.8519999122619625
 41
1
 50
0
  1
型名
  0
TEXT
  8
_0-1_H0
 62
    7
 10
330.32577707307507
 20
18.59418975125115
 40
2.8519999122619625
 41
1
 50
0
  1
図番
  0
TEXT
  8
_0-1_H0
 62
    7
 10
351.64777698533703
 20
17.230189707382152
 40
5.58
 41
1
 50
0
  1
１７９０３０５
  0
TEXT
  8
_0-1_H0
 62
    7
 10
315.55677707212134
 20
11.709689750774316
 40
2.8209999132156369
 41
1
 50
0
  1
尺度
  0
TEXT
  8
_0-1_H0
 62
    7
 10
330.29477707402872
 20
11.578689751728006
 40
2.8829999113082882
 41
1
 50
0
  1
図名
  0
TEXT
  8
_0-1_H0
 62
    7
 10
345.64777698533703
 20
10.230189707382152
 40
5.58
 41
1
 50
0
  1
製　品　姿　図
  0
LINE
  8
_0-4_A0
  6
CONTINUOUS
 62
    7
 10
56.385261002391501
 20
250.30831785479253
 11
56.385261002391501
 21
258.69696015569945
  0
LINE
  8
_0-4_A0
  6
CONTINUOUS
 62
    7
 10
56.385261002391501
 20
257.69696015569945
 11
63.835261001470598
 21
257.69696015569945
  0
INSERT
  2
-000-_OPEN
  8
_0-4_A0
 10
56.385261002391501
 20
257.69696015569945
 41
3
 42
3
 50
0
  0
INSERT
  2
-000-_OPEN
  8
_0-4_A0
 10
63.835261001470598
 20
257.69696015569945
 41
3
 42
3
 50
180
  0
LINE
  8
_0-4_A0
  6
CONTINUOUS
 62
    7
 10
53.385261002391501
 20
257.69696015569945
 11
51.385261002391501
 21
257.69696015569945
  0
LINE
  8
_0-4_A0
  6
CONTINUOUS
 62
    7
 10
66.835261001470598
 20
257.69696015569945
 11
68.835261001470598
 21
257.69696015569945
  0
LINE
  8
_0-4_A0
  6
CONTINUOUS
 62
    7
 10
63.835261001470598
 20
246.53979404594434
 11
63.835261001470598
 21
258.69696015569945
  0
LINE
  8
_0-4_A0
  6
CONTINUOUS
 62
    7
 10
118.83526100331302
 20
246.53979404594434
 11
118.83526100331302
 21
258.69696015569945
  0
LINE
  8
_0-4_A0
  6
CONTINUOUS
 62
    7
 10
118.83526100331302
 20
257.69696015569945
 11
126.2852610023915
 21
257.69696015569945
  0
INSERT
  2
-000-_OPEN
  8
_0-4_A0
 10
118.83526100331302
 20
257.69696015569945
 41
3
 42
3
 50
0
  0
INSERT
  2
-000-_OPEN
  8
_0-4_A0
 10
126.2852610023915
 20
257.69696015569945
 41
3
 42
3
 50
180
  0
LINE
  8
_0-4_A0
  6
CONTINUOUS
 62
    7
 10
115.83526100331302
 20
257.69696015569945
 11
113.83526100331302
 21
257.69696015569945
  0
LINE
  8
_0-4_A0
  6
CONTINUOUS
 62
    7
 10
129.2852610023915
 20
257.69696015569945
 11
131.2852610023915
 21
257.69696015569945
  0
LINE
  8
_0-4_A0
  6
CONTINUOUS
 62
    7
 10
126.2852610023915
 20
250.30831751779305
 11
126.2852610023915
 21
258.69696015569945
  0
TEXT
  8
_0-4_A0
 62
    7
 10
56.110261001931064
 20
258.19696015569945
 40
4
 41
1
 50
0
  1
(75)
  0
TEXT
  8
_0-4_A0
 62
    7
 10
118.56026100285221
 20
258.19696015569945
 40
4
 41
1
 50
0
  1
(75)
  0
TEXT
  8
_0-1_H0
 62
    7
 10
25.707725321888432
 20
46.819098712446361
 40
2.6
 41
1
 50
0
  1
FAN-700F
  0
TEXT
  8
_0-0_0
 62
    7
 10
12.666604904412878
 20
282.92879179351029
 40
2.0149999380111691
 41
1
 50
0
  1
記号
  0
TEXT
  8
_0-1_H0
 62
    7
 10
29.326689343327473
 20
282.98069236808635
 40
2.0149999380111691
 41
1
 50
0
  1
変更履歴
  0
TEXT
  8
_0-1_H0
 62
    7
 10
54.654169736443748
 20
283.18829466639056
 40
1.6739999485015868
 41
1
 50
0
  1
技連番号
  0
TEXT
  8
_0-1_H0
 62
    7
 10
64.64802714007078
 20
283.10568973551551
 40
1.8289999437332149
 41
1
 50
0
  1
年　月　日
  0
TEXT
  8
_0-1_H0
 62
    7
 10
77.905627146517701
 20
283.08449351723845
 40
1.7979999446868892
 41
1
 50
0
  1
担当
  0
ENDSEC
  0
EOF
