  0
SECTION
  2
HEADER
  9
$ACADVER
  1
AC1009
  9
$INSBASE
 10
0
 20
0
 30
0
  9
$EXTMIN
 10
0
 20
0
  9
$EXTMAX
 10
4200
 20
2970
  9
$LIMMIN
 10
0
 20
0
  9
$LIMMAX
 10
4200
 20
2970
  9
$LTSCALE
 40
10
  0
ENDSEC
  0
SECTION
  2
TABLES
  0
TABLE
  2
LTYPE
 70
     9
  0
LTYPE
  2
CONTINUOUS
 70
    64
  3
実線
 72
    65
 73
     0
 40
0.0
  0
LTYPE
  2
DASHED1
 70
    64
  3
--  --  --  --  --  --  --  --  
 72
    65
 73
     2
 40
2.5
 49
1.25
 49
-1.25
  0
LTYPE
  2
DASHED2
 70
    64
  3
----    ----    ----    ----    
 72
    65
 73
     2
 40
5.0
 49
2.5
 49
-2.5
  0
LTYPE
  2
DASHED3
 70
    64
  3
------  ------  ------  ------  
 72
    65
 73
     2
 40
5.0
 49
3.75
 49
-1.25
  0
LTYPE
  2
CENTER1
 70
    64
  3
----- - ----- - ----- - ----- - 
 72
    65
 73
     4
 40
10.0
 49
6.25
 49
-1.25
 49
1.25
 49
-1.25
  0
LTYPE
  2
CENTER2
 70
    64
  3
----------  --  ----------  --  
 72
    65
 73
     4
 40
20.0
 49
12.5
 49
-2.5
 49
2.5
 49
-2.5
  0
LTYPE
  2
PHANTOM1
 70
    64
  3
--- - - --- - - --- - - --- - - 
 72
    65
 73
     6
 40
10.0
 49
3.25
 49
-1.25
 49
1.25
 49
-1.25
 49
1.25
 49
-1.25
  0
LTYPE
  2
PHANTOM2
 70
    64
  3
--------  -  -  --------  -  -  
 72
    65
 73
     6
 40
20.0
 49
10.0
 49
-2.5
 49
1.25
 49
-2.5
 49
1.25
 49
-2.5
  0
LTYPE
  2
DOT
 70
    64
  3
-   -   -   -   -   -   -   -   
 72
    65
 73
     2
 40
2.5
 49
0.625
 49
-1.875
  0
LTYPE
  2
DUMMY
 70
    64
  3
ダミー
 72
    65
 73
     0
 40
0.0
  0
LTYPE
  2
RAND1
 70
    64
  3
ランダム線1
 72
    65
 73
     4
 40
10.0
 49
1.0
 49
-2.0
 49
3.0
 49
-4.0
  0
LTYPE
  2
RAND2
 70
    64
  3
ランダム線2
 72
    65
 73
     4
 40
14.0
 49
2.0
 49
-3.0
 49
4.0
 49
-5.0
  0
LTYPE
  2
RAND3
 70
    64
  3
ランダム線3
 72
    65
 73
     4
 40
18.0
 49
3.0
 49
-4.0
 49
5.0
 49
-6.0
  0
LTYPE
  2
RAND4
 70
    64
  3
ランダム線4
 72
    65
 73
     4
 40
22.0
 49
4.0
 49
-5.0
 49
6.0
 49
-7.0
  0
LTYPE
  2
RAND5
 70
    64
  3
ランダム線5
 72
    65
 73
     4
 40
26.0
 49
5.0
 49
-6.0
 49
7.0
 49
-8.0
  0
LTYPE
  2
LONG1
 70
    64
  3
----------  --  ----------  --  
 72
    65
 73
     4
 40
40.0
 49
32.5
 49
-2.5
 49
2.5
 49
-2.5
  0
LTYPE
  2
LONG2
 70
    64
  3
--------  -  -  --------  -  -  
 72
    65
 73
     6
 40
40.0
 49
30.0
 49
-2.5
 49
1.25
 49
-2.5
 49
1.25
 49
-2.5
  0
LTYPE
  2
LONG3
 70
    64
  3
+++++++++++++++..+++++++++++++++
 72
    65
 73
     2
 40
40.0
 49
37.5
 49
-2.5
  0
LTYPE
  2
LONG4
 70
    64
  3
+++++++++++++++..+++++++++++++++
 72
    65
 73
     2
 40
80.0
 49
75.0
 49
-5.0
  0
LTYPE
  2
LONG5
 70
    64
  3
----------  --  ----------  --  
 72
    65
 73
     4
 40
60.0
 49
37.5
 49
-7.5
 49
7.5
 49
-7.5
  0
LTYPE
  2
dashed
 70
   64
  3
-------   -------------   ------
 72
   65
 73
    2
 40
7.5
 49
6
 49
-1.5
  0
LTYPE
  2
dashed_spaced
 70
   64
  3
----        --------        ----
 72
   65
 73
    2
 40
12
 49
6
 49
-6
  0
LTYPE
  2
long_dashed_dotted
 70
   64
  3
------------- --- --------------
 72
   65
 73
    4
 40
15.25
 49
12
 49
-1.5
 49
0.25
 49
-1.5
  0
LTYPE
  2
long_dashed_double-dotted
 70
   64
  3
----------- --- --- ------------
 72
   65
 73
    6
 40
17
 49
12
 49
-1.5
 49
0.25
 49
-1.5
 49
0.25
 49
-1.5
  0
LTYPE
  2
long_dashed_triplicate-dotted
 70
   64
  3
--------- --- --- --- ----------
 72
   65
 73
    8
 40
18.75
 49
12
 49
-1.5
 49
0.25
 49
-1.5
 49
0.25
 49
-1.5
 49
0.25
 49
-1.5
  0
LTYPE
  2
dotted
 70
   64
  3
   -       -       -       -    
 72
   65
 73
    2
 40
1.75
 49
0.25
 49
-1.5
  0
LTYPE
  2
chain
 70
   64
  3
-------------- -- --------------
 72
   65
 73
    4
 40
18.5
 49
12
 49
-1.5
 49
3.5
 49
-1.5
  0
LTYPE
  2
chain_double_dash
 70
   64
  3
------------ -- -- -------------
 72
   65
 73
    6
 40
23.5
 49
12
 49
-1.5
 49
3.5
 49
-1.5
 49
3.5
 49
-1.5
  0
LTYPE
  2
dashed_dotted
 70
   64
  3
-----------     -     ----------
 72
   65
 73
    4
 40
9.25
 49
6
 49
-1.5
 49
0.25
 49
-1.5
  0
LTYPE
  2
double-dashed_dotted
 70
   64
  3
------   -----------   -   -----
 72
   65
 73
    6
 40
16.75
 49
6
 49
-1.5
 49
6
 49
-1.5
 49
0.25
 49
-1.5
  0
LTYPE
  2
dashed_double-dotted
 70
   64
  3
---------    -    -    ---------
 72
   65
 73
    6
 40
11
 49
6
 49
-1.5
 49
0.25
 49
-1.5
 49
0.25
 49
-1.5
  0
LTYPE
  2
double-dashed_double-dotted
 70
   64
  3
-----   ---------   -   -   ----
 72
   65
 73
    8
 40
18.5
 49
6
 49
-1.5
 49
6
 49
-1.5
 49
0.25
 49
-1.5
 49
0.25
 49
-1.5
  0
LTYPE
  2
dashed_triplicate-dotted
 70
   64
  3
-------    -    -    -    ------
 72
   65
 73
    8
 40
12.75
 49
6
 49
-1.5
 49
0.25
 49
-1.5
 49
0.25
 49
-1.5
 49
0.25
 49
-1.5
  0
LTYPE
  2
double-dashed_triplicate-dotted
 70
   64
  3
-----  ---------  -  -  -  -----
 72
   65
 73
   10
 40
20.25
 49
6
 49
-1.5
 49
6
 49
-1.5
 49
0.25
 49
-1.5
 49
0.25
 49
-1.5
 49
0.25
 49
-1.5
  0
LTYPE
  2
undefined
 70
   64
  3
--------------------------------
 72
   65
 73
    0
 40
0
  0
LTYPE
  2
_
 70
   64
  3
                                
 72
   65
 73
    0
 40
0
  0
LTYPE
  2
__18
 70
   64
  3
                                
 72
   65
 73
    0
 40
0
  0
LTYPE
  2
__19
 70
   64
  3
                                
 72
   65
 73
    0
 40
0
  0
LTYPE
  2
__20
 70
   64
  3
                                
 72
   65
 73
    0
 40
0
  0
LTYPE
  2
__21
 70
   64
  3
                                
 72
   65
 73
    0
 40
0
  0
LTYPE
  2
__22
 70
   64
  3
                                
 72
   65
 73
    0
 40
0
  0
LTYPE
  2
__23
 70
   64
  3
                                
 72
   65
 73
    0
 40
0
  0
LTYPE
  2
__24
 70
   64
  3
                                
 72
   65
 73
    0
 40
0
  0
LTYPE
  2
__25
 70
   64
  3
                                
 72
   65
 73
    0
 40
0
  0
LTYPE
  2
__26
 70
   64
  3
                                
 72
   65
 73
    0
 40
0
  0
LTYPE
  2
__27
 70
   64
  3
                                
 72
   65
 73
    0
 40
0
  0
LTYPE
  2
__28
 70
   64
  3
                                
 72
   65
 73
    0
 40
0
  0
LTYPE
  2
__29
 70
   64
  3
                                
 72
   65
 73
    0
 40
0
  0
LTYPE
  2
__30
 70
   64
  3
                                
 72
   65
 73
    0
 40
0
  0
LTYPE
  2
__31
 70
   64
  3
                                
 72
   65
 73
    0
 40
0
  0
LTYPE
  2
__32
 70
   64
  3
                                
 72
   65
 73
    0
 40
0
  0
ENDTAB
  0
TABLE
  2
STYLE
  5
3
100
AcDbSymbolTable
 70
     1
  0
STYLE
  5
10
100
AcDbSymbolTableRecord
100
AcDbTextStyleTableRecord
  2
STANDARD
 70
     0
 40
0.0
 41
1.0
 50
0.0
 71
     0
 42
0.2
  3
txt
  4
bigfont.shx
  0
STYLE
  5
26
100
AcDbSymbolTableRecord
100
AcDbTextStyleTableRecord
  2
TATEGAKI
 70
    68
 40
0.0
 41
1.0
 50
0.0
 71
     0
 42
1.0
  3
txt
  4
bigfont.shx
  0
ENDTAB
  0
TABLE
  2
LAYER
 70
   16
  0
LAYER
  2
_0-0_
 70
   64
 62
    7
  6
CONTINUOUS
  0
LAYER
  2
_0-3_
 70
   64
 62
    7
  6
CONTINUOUS
  0
LAYER
  2
_0-4_
 70
   64
 62
    7
  6
CONTINUOUS
  0
LAYER
  2
_0-5_
 70
   64
 62
    7
  6
CONTINUOUS
  0
LAYER
  2
_0-6_
 70
   64
 62
    7
  6
CONTINUOUS
  0
LAYER
  2
_0-8_
 70
   64
 62
    7
  6
CONTINUOUS
  0
LAYER
  2
_0-9_
 70
   64
 62
    7
  6
CONTINUOUS
  0
LAYER
  2
_0-a_
 70
   64
 62
    7
  6
CONTINUOUS
  0
LAYER
  2
_0-d_
 70
   64
 62
    7
  6
CONTINUOUS
  0
LAYER
  2
_1-0_
 70
   64
 62
    7
  6
CONTINUOUS
  0
LAYER
  2
_e-0_
 70
   64
 62
    7
  6
CONTINUOUS
  0
LAYER
  2
_f-7_
 70
   64
 62
    7
  6
CONTINUOUS
  0
LAYER
  2
_f-8_
 70
   64
 62
    7
  6
CONTINUOUS
  0
LAYER
  2
_f-9_
 70
   64
 62
    7
  6
CONTINUOUS
  0
LAYER
  2
_f-d_固定文字
 70
   64
 62
    7
  6
CONTINUOUS
  0
LAYER
  2
ADD_LINE
 70
   64
 62
    7
  6
CONTINUOUS
  0
ENDTAB
  0
ENDSEC
  0
SECTION
  2
BLOCKS
  0
ENDSEC
  0
SECTION
  2
ENTITIES
  0
LINE
  8
_f-9_
  6
CONTINUOUS
 62
    7
 10
630
 20
120
 11
630
 21
220
  0
LINE
  8
_f-9_
  6
CONTINUOUS
 62
    7
 10
170
 20
120
 11
610
 21
120
  0
LINE
  8
_f-9_
  6
CONTINUOUS
 62
    7
 10
170
 20
220
 11
610
 21
220
  0
LINE
  8
_f-9_
  6
CONTINUOUS
 62
    7
 10
1420
 20
120
 11
1420
 21
220
  0
LINE
  8
_f-9_
  6
CONTINUOUS
 62
    7
 10
2210
 20
120
 11
2210
 21
220
  0
LINE
  8
_f-9_
  6
CONTINUOUS
 62
    7
 10
2220
 20
120
 11
2220
 21
220
  0
LINE
  8
_f-9_
  6
CONTINUOUS
 62
    7
 10
630
 20
120
 11
2210
 21
120
  0
LINE
  8
_f-9_
  6
CONTINUOUS
 62
    7
 10
630
 20
220
 11
2210
 21
220
  0
LINE
  8
_f-9_
  6
CONTINUOUS
 62
    7
 10
2710
 20
120
 11
2710
 21
220
  0
LINE
  8
_f-9_
  6
CONTINUOUS
 62
    7
 10
2720
 20
120
 11
2720
 21
220
  0
LINE
  8
_f-9_
  6
CONTINUOUS
 62
    7
 10
2220
 20
120
 11
2710
 21
120
  0
LINE
  8
_f-9_
  6
CONTINUOUS
 62
    7
 10
2220
 20
220
 11
2710
 21
220
  0
LINE
  8
_f-9_
  6
CONTINUOUS
 62
    7
 10
3020
 20
120
 11
3020
 21
220
  0
LINE
  8
_f-9_
  6
CONTINUOUS
 62
    7
 10
3320
 20
120
 11
3320
 21
220
  0
LINE
  8
_f-9_
  6
CONTINUOUS
 62
    7
 10
3700
 20
120
 11
3700
 21
220
  0
LINE
  8
_f-9_
  6
CONTINUOUS
 62
    7
 10
2720
 20
120
 11
4110
 21
120
  0
LINE
  8
_f-9_
  6
CONTINUOUS
 62
    7
 10
4110
 20
120
 11
4110
 21
220
  0
LINE
  8
_f-9_
  6
CONTINUOUS
 62
    7
 10
2720
 20
220
 11
4110
 21
220
  0
LINE
  8
_0-0_
  6
CONTINUOUS
 62
    7
 10
4130
 20
2860
 11
4130
 21
100
  0
LINE
  8
_0-0_
  6
CONTINUOUS
 62
    7
 10
150
 20
2860
 11
4130
 21
2860
  0
LINE
  8
_0-0_
  6
CONTINUOUS
 62
    7
 10
150
 20
100
 11
4130
 21
100
  0
LINE
  8
_0-0_
  6
CONTINUOUS
 62
    7
 10
150
 20
100
 11
150
 21
2860
  0
TEXT
  8
_f-8_
 62
    7
 10
3040
 20
187.5
 40
25
 41
0.64
 50
0
  1
ＤＡＴＡ
  0
TEXT
  8
_f-8_
 62
    7
 10
3340
 20
187.5
 40
25
 41
0.64
 50
0
  1
ＣＨＥＣＫＥＤ
  0
TEXT
  8
_f-8_
 62
    7
 10
3720
 20
187.5
 40
25
 41
0.64
 50
0
  1
ＳＨＥＥＴ　ＮＯ．
  0
TEXT
  8
_f-8_
 62
    7
 10
3542
 20
187.5
 40
25
 41
0.64
 50
0
  1
ＤＲＡＷＩＮＧ
  0
LINE
  8
_f-9_
  6
CONTINUOUS
 62
    7
 10
170
 20
170
 11
610
 21
170
  0
TEXT
  8
_f-8_
 62
    7
 10
2861
 20
142.5
 40
35
 41
0.5714285714285711
 50
0
  1
１／１０
  0
TEXT
  8
_f-8_
 62
    7
 10
2740.3739840854213
 20
187.46937299484983
 40
25
 41
0.64
 50
0
  1
ＳＣＡＬＥ
  0
TEXT
  8
_f-8_
 62
    7
 10
1445
 20
187.5
 40
25
 41
0.8
 50
0
  1
図面名称
  0
TEXT
  8
_f-8_
 62
    7
 10
655
 20
187.5
 40
25
 41
0.8
 50
0
  1
名　称
  0
LINE
  8
_f-8_
  6
CONTINUOUS
 62
    7
 10
2165
 20
2872
 11
2166.15
 21
2874.0000000000004
  0
LINE
  8
_f-8_
  6
CONTINUOUS
 62
    7
 10
2158.6399999999998
 20
2877
 11
2165
 21
2866
  0
LINE
  8
_f-8_
  6
CONTINUOUS
 62
    7
 10
2165
 20
2866
 11
2171.3499999999999
 21
2877
  0
LINE
  8
_f-8_
  6
CONTINUOUS
 62
    7
 10
2165
 20
2860
 11
2176.5399999999999
 21
2880
  0
LINE
  8
_f-8_
  6
CONTINUOUS
 62
    7
 10
2153.4499999999998
 20
2880
 11
2165
 21
2860
  0
LINE
  8
_f-8_
  6
CONTINUOUS
 62
    7
 10
2176.5399999999999
 20
2880
 11
2153.4499999999998
 21
2880
  0
LINE
  8
_f-8_
  6
CONTINUOUS
 62
    7
 10
2163.8400000000001
 20
2874.0000000000004
 11
2165
 21
2872
  0
LINE
  8
_f-8_
  6
CONTINUOUS
 62
    7
 10
2166.15
 20
2874.0000000000004
 11
2163.8400000000001
 21
2874.0000000000004
  0
LINE
  8
_f-8_
  6
CONTINUOUS
 62
    7
 10
2171.3499999999999
 20
2877
 11
2158.6399999999998
 21
2877
  0
LINE
  8
_f-7_
  6
CONTINUOUS
 62
    7
 10
120
 20
1462.6794919243113
 11
120
 21
1497.3205080756886
  0
LINE
  8
_f-7_
  6
CONTINUOUS
 62
    7
 10
120
 20
1497.3205080756886
 11
150
 21
1480
  0
LINE
  8
_f-7_
  6
CONTINUOUS
 62
    7
 10
150
 20
1480
 11
120
 21
1462.6794919243113
  0
LINE
  8
_f-7_
  6
CONTINUOUS
 62
    7
 10
125
 20
1471.3397459621555
 11
125
 21
1488.6602540378444
  0
LINE
  8
_f-7_
  6
CONTINUOUS
 62
    7
 10
125
 20
1488.6602540378444
 11
140
 21
1480
  0
LINE
  8
_f-7_
  6
CONTINUOUS
 62
    7
 10
140
 20
1480
 11
125
 21
1471.3397459621555
  0
LINE
  8
_f-7_
  6
CONTINUOUS
 62
    7
 10
128.99999999999977
 20
1478.2679491924309
 11
128.99999999999977
 21
1481.732050807569
  0
LINE
  8
_f-7_
  6
CONTINUOUS
 62
    7
 10
128.99999999999977
 20
1481.732050807569
 11
132.00000000000045
 21
1480
  0
LINE
  8
_f-7_
  6
CONTINUOUS
 62
    7
 10
132.00000000000045
 20
1480
 11
128.99999999999977
 21
1478.2679491924309
  0
LINE
  8
_f-7_
  6
CONTINUOUS
 62
    7
 10
4160
 20
1462.6794919243113
 11
4160
 21
1497.3205080756886
  0
LINE
  8
_f-7_
  6
CONTINUOUS
 62
    7
 10
4160
 20
1497.3205080756886
 11
4130
 21
1480
  0
LINE
  8
_f-7_
  6
CONTINUOUS
 62
    7
 10
4130
 20
1480
 11
4160
 21
1462.6794919243113
  0
LINE
  8
_f-7_
  6
CONTINUOUS
 62
    7
 10
4155
 20
1471.3397459621555
 11
4155
 21
1488.6602540378444
  0
LINE
  8
_f-7_
  6
CONTINUOUS
 62
    7
 10
4155
 20
1488.6602540378444
 11
4140
 21
1480
  0
LINE
  8
_f-7_
  6
CONTINUOUS
 62
    7
 10
4140
 20
1480
 11
4155
 21
1471.3397459621555
  0
LINE
  8
_f-7_
  6
CONTINUOUS
 62
    7
 10
4151
 20
1478.2679491924309
 11
4151
 21
1481.732050807569
  0
LINE
  8
_f-7_
  6
CONTINUOUS
 62
    7
 10
4151
 20
1481.732050807569
 11
4148
 21
1480
  0
LINE
  8
_f-7_
  6
CONTINUOUS
 62
    7
 10
4148
 20
1480
 11
4151
 21
1478.2679491924309
  0
TEXT
  8
_f-d_固定文字
 62
    7
 10
149.98500000000007
 20
65
 40
20
 41
1
 50
0
  1
%f
  0
TEXT
  8
_f-d_固定文字
 62
    7
 10
3990
 20
65.00000323002979
 40
20
 41
1
 50
0
  1
%y
  0
TEXT
  8
_f-d_固定文字
 62
    7
 10
4020
 20
65.00000323002979
 40
20
 41
1
 50
0
  1
．
  0
TEXT
  8
_f-d_固定文字
 62
    7
 10
4050
 20
65.00000323002979
 40
20
 41
1
 50
0
  1
%m
  0
TEXT
  8
_f-d_固定文字
 62
    7
 10
4080
 20
65.00000323002979
 40
20
 41
1
 50
0
  1
．
  0
TEXT
  8
_f-d_固定文字
 62
    7
 10
4110
 20
65.00000323002979
 40
20
 41
1
 50
0
  1
%d
  0
LINE
  8
_0-9_
  6
CONTINUOUS
 62
    4
 10
300.01499999999992
 20
2610
 11
300.01499999999992
 21
2440
  0
POINT
  8
_0-9_
 62
    3
 10
300.01499999999992
 20
2610
  0
LINE
  8
_0-3_
  6
CONTINUOUS
 62
    5
 10
300.01499999999992
 20
2068
 11
300.01499999999992
 21
2410
  0
LINE
  8
_0-9_
  6
CONTINUOUS
 62
    4
 10
1500.0149999999998
 20
2610
 11
1500.0149999999998
 21
2440
  0
POINT
  8
_0-9_
 62
    3
 10
1500.0149999999998
 20
2610
  0
LINE
  8
_0-3_
  6
CONTINUOUS
 62
    5
 10
1500.0149999999998
 20
2068
 11
1500.0149999999998
 21
2410
  0
LINE
  8
_0-9_
  6
CONTINUOUS
 62
    4
 10
1830.0149999999998
 20
2410
 11
1530.0149999999998
 21
2410
  0
LINE
  8
_0-3_
  6
CONTINUOUS
 62
    5
 10
300.01499999999992
 20
2410
 11
1500.0149999999998
 21
2410
  0
LINE
  8
_0-9_
  6
CONTINUOUS
 62
    4
 10
300.01499999999992
 20
2610
 11
1500.0149999999998
 21
2610
  0
TEXT
  8
_0-9_
 62
    7
 10
844.81500000000005
 20
2611.9999999999981
 40
35
 41
0.6285714285714286
 50
0
  1
１，２００
  0
LINE
  8
_0-8_
  6
CONTINUOUS
 62
    4
 10
775.01499999999987
 20
1962.0000000000004
 11
1025.0149999999998
 21
1962.0000000000004
  0
LINE
  8
_0-8_
  6
CONTINUOUS
 62
    4
 10
1025.0149999999998
 20
1962.0000000000004
 11
1025.0149999999998
 21
1892.0000000000004
  0
LINE
  8
_0-8_
  6
CONTINUOUS
 62
    4
 10
775.01499999999987
 20
1892.0000000000004
 11
1025.0149999999998
 21
1892.0000000000004
  0
LINE
  8
_0-8_
  6
CONTINUOUS
 62
    4
 10
775.01499999999987
 20
1962.0000000000004
 11
775.01499999999987
 21
1892.0000000000004
  0
TEXT
  8
_0-8_
 62
    7
 10
854.9149999999995
 20
1909.5000000000004
 40
35
 41
0.8571428571428568
 50
0
  1
平面図
  0
LINE
  8
_0-9_
  6
CONTINUOUS
 62
    4
 10
1830.0149999999998
 20
2052
 11
1530.0149999999998
 21
2052
  0
POINT
  8
_0-9_
 62
    3
 10
1830.0149999999998
 20
2052
  0
LINE
  8
_0-3_
  6
CONTINUOUS
 62
    4
 10
312.01499999999981
 20
2068
 11
312.01499999999981
 21
2410
  0
LINE
  8
_0-3_
  6
CONTINUOUS
 62
    4
 10
1488.0150000000003
 20
2068
 11
1488.0150000000003
 21
2410
  0
LINE
  8
_0-3_
  6
DASHED1
 62
    2
 10
1485.0150000000003
 20
2392.5
 11
1488.0150000000003
 21
2392.5
  0
LINE
  8
_0-3_
  6
DASHED1
 62
    2
 10
315.01499999999992
 20
2392.5
 11
312.01499999999981
 21
2392.5
  0
LINE
  8
_0-4_
  6
CONTINUOUS
 62
    3
 10
698.01500000000032
 20
2064.0000000000004
 11
698.01500000000032
 21
2052
  0
LINE
  8
_0-4_
  6
CONTINUOUS
 62
    3
 10
699.01500000000055
 20
2064.0000000000004
 11
699.01500000000055
 21
2052
  0
LINE
  8
_0-4_
  6
CONTINUOUS
 62
    3
 10
1102.0149999999996
 20
2064.0000000000004
 11
1102.0149999999996
 21
2052
  0
LINE
  8
_0-4_
  6
CONTINUOUS
 62
    3
 10
304.01500000000027
 20
2064.0000000000004
 11
698.01500000000032
 21
2064.0000000000004
  0
LINE
  8
_0-4_
  6
CONTINUOUS
 62
    3
 10
304.01500000000027
 20
2064.0000000000004
 11
304.01500000000027
 21
2052
  0
LINE
  8
_0-4_
  6
CONTINUOUS
 62
    3
 10
304.01500000000027
 20
2052
 11
698.01500000000032
 21
2052
  0
LINE
  8
_0-4_
  6
CONTINUOUS
 62
    3
 10
699.01500000000055
 20
2064.0000000000004
 11
1093.0150000000001
 21
2064.0000000000004
  0
LINE
  8
_0-4_
  6
CONTINUOUS
 62
    3
 10
1093.0150000000001
 20
2064.0000000000004
 11
1093.0150000000001
 21
2052
  0
LINE
  8
_0-4_
  6
CONTINUOUS
 62
    3
 10
699.01500000000055
 20
2052
 11
1093.0150000000001
 21
2052
  0
LINE
  8
_0-4_
  6
CONTINUOUS
 62
    3
 10
1102.0149999999996
 20
2064.0000000000004
 11
1496.0150000000003
 21
2064.0000000000004
  0
LINE
  8
_0-4_
  6
CONTINUOUS
 62
    3
 10
1496.0150000000003
 20
2064.0000000000004
 11
1496.0150000000003
 21
2052
  0
LINE
  8
_0-4_
  6
CONTINUOUS
 62
    3
 10
1102.0149999999996
 20
2052
 11
1496.0150000000003
 21
2052
  0
LINE
  8
_0-3_
  6
CONTINUOUS
 62
    2
 10
312.01499999999981
 20
2395
 11
1488.0150000000003
 21
2395
  0
LINE
  8
_0-3_
  6
DASHED1
 62
    2
 10
1088.0149999999998
 20
2068
 11
1088.0149999999998
 21
2130.5
  0
LINE
  8
_0-3_
  6
DASHED1
 62
    2
 10
1088.0149999999998
 20
2130.5
 11
1113.0150000000003
 21
2130.5
  0
LINE
  8
_0-3_
  6
DASHED1
 62
    2
 10
1113.0150000000003
 20
2068
 11
1113.0150000000003
 21
2130.5
  0
LINE
  8
_0-9_
  6
CONTINUOUS
 62
    4
 10
1830.0149999999998
 20
2410
 11
1830.0149999999998
 21
2052
  0
TEXT
  8
_0-9_
 62
    7
 10
1825.0149999999998
 20
2197.9
 40
35
 41
0.6285714285714286
 50
90
  1
３５８
  0
LINE
  8
_0-3_
  6
CONTINUOUS
 62
    5
 10
300.01499999999992
 20
2068
 11
312.01499999999981
 21
2068
  0
LINE
  8
_0-3_
  6
CONTINUOUS
 62
    5
 10
1488.0150000000003
 20
2068
 11
1500.0149999999998
 21
2068
  0
LINE
  8
_0-3_
  6
CONTINUOUS
 62
    4
 10
312.01499999999981
 20
2068
 11
1488.0150000000003
 21
2068
  0
LINE
  8
_0-3_
  6
DASHED1
 62
    2
 10
1088.0149999999998
 20
2329.5
 11
1113.0150000000003
 21
2329.5
  0
LINE
  8
_0-3_
  6
DASHED1
 62
    2
 10
1088.0149999999998
 20
2329.5
 11
1088.0149999999998
 21
2392
  0
LINE
  8
_0-3_
  6
DASHED1
 62
    2
 10
1113.0150000000003
 20
2329.5
 11
1113.0150000000003
 21
2392
  0
LINE
  8
_0-3_
  6
DASHED1
 62
    2
 10
315.01499999999992
 20
2392
 11
1485.0150000000003
 21
2392
  0
LINE
  8
_1-0_
  6
DASHED1
 62
    7
 10
1163.5150000000001
 20
2086.5000000000004
 11
1163.0150000000001
 21
2086.5000000000004
  0
LINE
  8
_1-0_
  6
DASHED1
 62
    7
 10
1140.5150000000001
 20
2086.5000000000004
 11
1141.0150000000001
 21
2086.5000000000004
  0
LINE
  8
_1-0_
  6
DASHED1
 62
    7
 10
1143.5150000000001
 20
2146.5000000000004
 11
1160.5150000000001
 21
2146.5000000000004
  0
LINE
  8
_1-0_
  6
DASHED1
 62
    7
 10
1144.0149999999998
 20
2111.5000000000004
 11
1160.0150000000001
 21
2111.5000000000004
  0
LINE
  8
_1-0_
  6
DASHED1
 62
    7
 10
1163.5150000000001
 20
2086.5000000000004
 11
1163.0150000000001
 21
2086.5000000000004
  0
LINE
  8
_1-0_
  6
DASHED1
 62
    7
 10
1169.5149999999998
 20
2113.5
 11
1170.5150000000001
 21
2113.5
  0
LINE
  8
_1-0_
  6
DASHED1
 62
    7
 10
1169.5149999999998
 20
2137.5
 11
1169.5149999999998
 21
2113.5
  0
LINE
  8
_1-0_
  6
DASHED1
 62
    7
 10
1134.5150000000001
 20
2113.5
 11
1133.5150000000001
 21
2113.5
  0
LINE
  8
_1-0_
  6
DASHED1
 62
    7
 10
1134.5149999999998
 20
2137.5
 11
1134.5149999999998
 21
2113.5
  0
LINE
  8
_1-0_
  6
DASHED1
 62
    7
 10
1133.125
 20
2116.5000000000004
 11
1140.5150000000001
 21
2116.5000000000004
  0
LINE
  8
_1-0_
  6
DASHED1
 62
    7
 10
1163.5150000000001
 20
2116.5000000000004
 11
1171.615
 21
2116.5000000000004
  0
LINE
  8
_1-0_
  6
DASHED1
 62
    7
 10
1142.0149999999998
 20
2111.5000000000004
 11
1142.0149999999998
 21
2108.6999999999998
  0
LINE
  8
_1-0_
  6
DASHED1
 62
    7
 10
1143.5150000000001
 20
2110.1000000000003
 11
1142.5150000000001
 21
2110.1000000000003
  0
LINE
  8
_1-0_
  6
DASHED1
 62
    7
 10
1160.5150000000001
 20
2110.1000000000003
 11
1161.5150000000001
 21
2110.1000000000003
  0
LINE
  8
_1-0_
  6
DASHED1
 62
    7
 10
1162.0149999999998
 20
2111.5000000000004
 11
1162.0149999999998
 21
2108.6999999999998
  0
LINE
  8
_1-0_
  6
DASHED1
 62
    7
 10
1160.0150000000001
 20
2111.5000000000004
 11
1160.0150000000001
 21
2089.5000000000004
  0
LINE
  8
_1-0_
  6
DASHED1
 62
    7
 10
1144.0150000000001
 20
2111.5000000000004
 11
1144.0150000000001
 21
2089.5000000000004
  0
LINE
  8
_1-0_
  6
DASHED1
 62
    7
 10
1149.7789500000001
 20
2084.5000500000005
 11
1154.25105
 21
2084.5000500000005
  0
LINE
  8
_1-0_
  6
DASHED1
 62
    7
 10
1155.5150000000001
 20
2082.5000500000001
 11
1155.5150000000001
 21
2080.5000500000005
  0
LINE
  8
_1-0_
  6
DASHED1
 62
    7
 10
1148.5150000000001
 20
2082.5000500000001
 11
1148.5150000000001
 21
2080.5000500000005
  0
LINE
  8
_1-0_
  6
DASHED1
 62
    7
 10
1148.5150000000001
 20
2080.5000500000005
 11
1149.0150000000001
 21
2080.5000500000005
  0
LINE
  8
_1-0_
  6
DASHED1
 62
    7
 10
1155.0150000000001
 20
2080.5000500000005
 11
1155.5150000000001
 21
2080.5000500000005
  0
LINE
  8
_1-0_
  6
DASHED1
 62
    7
 10
1155.5150000000001
 20
2075.5000500000005
 11
1148.5150000000001
 21
2075.5000500000005
  0
LINE
  8
_1-0_
  6
DASHED1
 62
    7
 10
1155.56095
 20
2075.5460000000002
 11
1155.5150000000001
 21
2075.5000500000005
  0
LINE
  8
_1-0_
  6
DASHED1
 62
    7
 10
1148.4690500000001
 20
2075.5460000000002
 11
1148.5150000000001
 21
2075.5000500000005
  0
LINE
  8
_1-0_
  6
DASHED1
 62
    7
 10
1155.0150000000001
 20
2082.5000500000001
 11
1155.0150000000001
 21
2076.5000500000001
  0
LINE
  8
_1-0_
  6
DASHED1
 62
    7
 10
1149.0150000000001
 20
2082.5000500000001
 11
1149.0150000000001
 21
2076.5000500000001
  0
LINE
  8
_1-0_
  6
DASHED1
 62
    7
 10
1149.0150000000001
 20
2080.5000500000005
 11
1155.0150000000001
 21
2080.5000500000005
  0
LINE
  8
_1-0_
  6
DASHED1
 62
    7
 10
1147.44395
 20
2076.5711000000001
 11
1148.4690500000001
 21
2075.5460000000002
  0
LINE
  8
_1-0_
  6
DASHED1
 62
    7
 10
1156.5860500000001
 20
2076.5711000000001
 11
1155.56095
 21
2075.5460000000002
  0
LINE
  8
_1-0_
  6
DASHED1
 62
    7
 10
1159.5149999999998
 20
2083.6421500000005
 11
1159.5149999999998
 21
2111.5000000000004
  0
LINE
  8
_1-0_
  6
DASHED1
 62
    7
 10
1144.5149999999998
 20
2083.6421500000005
 11
1144.5149999999998
 21
2111.5000000000004
  0
LINE
  8
_1-0_
  6
DASHED1
 62
    7
 10
1160.0150000000001
 20
2111.5000000000004
 11
1169.2149999999999
 21
2111.5000000000004
  0
LINE
  8
_1-0_
  6
DASHED1
 62
    7
 10
1144.0149999999998
 20
2111.5000000000004
 11
1134.815
 21
2111.5000000000004
  0
LINE
  8
_1-0_
  6
DASHED1
 62
    7
 10
1153.0150000000001
 20
2111.5000000000004
 11
1153.0150000000001
 21
2102.0004000000008
  0
LINE
  8
_1-0_
  6
DASHED1
 62
    7
 10
1151.0150000000001
 20
2111.5000000000004
 11
1151.0150000000001
 21
2102.0004000000008
  0
LINE
  8
_1-0_
  6
DASHED1
 62
    7
 10
1151.5150000000001
 20
2101.5004000000003
 11
1152.5150000000001
 21
2101.5004000000003
  0
LINE
  8
_1-0_
  6
DASHED1
 62
    7
 10
1151.0150000000001
 20
2105.7200000000002
 11
1144.5150000000001
 21
2105.7200000000002
  0
LINE
  8
_1-0_
  6
DASHED1
 62
    7
 10
1159.5149999999998
 20
2105.7200000000002
 11
1153.0150000000001
 21
2105.7200000000002
  0
LINE
  8
_1-0_
  6
DASHED1
 62
    7
 10
1151.0150000000001
 20
2106.0900000000001
 11
1149.95425
 21
2106.0900000000001
  0
LINE
  8
_1-0_
  6
DASHED1
 62
    7
 10
1147.5757499999999
 20
2106.0900000000001
 11
1144.5150000000001
 21
2106.0900000000001
  0
LINE
  8
_1-0_
  6
DASHED1
 62
    7
 10
1159.5149999999998
 20
2106.0900000000001
 11
1156.45425
 21
2106.0900000000001
  0
LINE
  8
_1-0_
  6
DASHED1
 62
    7
 10
1154.0757499999999
 20
2106.0900000000001
 11
1153.0150000000001
 21
2106.0900000000001
  0
LINE
  8
_1-0_
  6
DASHED1
 62
    7
 10
1171.5150000000001
 20
2101.5000000000004
 11
1171.5150000000001
 21
2112.5000000000004
  0
LINE
  8
_1-0_
  6
DASHED1
 62
    7
 10
1169.5149999999998
 20
2100.5
 11
1170.5150000000001
 21
2100.5
  0
LINE
  8
_1-0_
  6
DASHED1
 62
    7
 10
1169.5149999999998
 20
2111.1999999999998
 11
1169.5149999999998
 21
2092.5000000000004
  0
LINE
  8
_1-0_
  6
DASHED1
 62
    7
 10
1132.5150000000001
 20
2101.5000000000004
 11
1132.5150000000001
 21
2112.5000000000004
  0
LINE
  8
_1-0_
  6
DASHED1
 62
    7
 10
1134.5150000000001
 20
2100.5
 11
1133.5150000000001
 21
2100.5
  0
LINE
  8
_1-0_
  6
DASHED1
 62
    7
 10
1134.5150000000001
 20
2111.1999999999998
 11
1134.5150000000001
 21
2092.5000000000004
  0
LINE
  8
_1-0_
  6
DASHED1
 62
    7
 10
1152.0149999999998
 20
2148.1999999999998
 11
1152.0149999999998
 21
2072.9
  0
LINE
  8
_1-0_
  6
DASHED1
 62
    7
 10
1133.3849999999999
 20
2129.0000000000004
 11
1172.4149999999999
 21
2129.0000000000004
  0
LINE
  8
_1-0_
  6
DASHED1
 62
    7
 10
1139.5150000000001
 20
2108.1500000000005
 11
1139.5150000000001
 21
2099.9
  0
LINE
  8
_1-0_
  6
DASHED1
 62
    7
 10
1142.7649999999998
 20
2104.0000000000004
 11
1136.2149999999999
 21
2104.0000000000004
  0
LINE
  8
_1-0_
  6
DASHED1
 62
    7
 10
1164.5149999999998
 20
2107.8200000000006
 11
1164.5149999999998
 21
2100.1000000000003
  0
LINE
  8
_1-0_
  6
DASHED1
 62
    7
 10
1161.2449999999998
 20
2104.0000000000004
 11
1168.2550000000001
 21
2104.0000000000004
  0
LINE
  8
_1-0_
  6
DASHED1
 62
    7
 10
1155.575
 20
2078.0000500000005
 11
1148.305
 21
2078.0000500000005
  0
ARC
  8
_1-0_
  6
DASHED1
 62
    7
 10
1160.5150000000001
 20
2137.5
 40
9
 50
0.0000000000000254
 51
90.000000000000056
  0
ARC
  8
_1-0_
  6
DASHED1
 62
    7
 10
1163.5150000000001
 20
2092.5000000000004
 40
6.0000000000000008
 50
270
 51
0
  0
ARC
  8
_1-0_
  6
DASHED1
 62
    7
 10
1163.0150000000001
 20
2089.5000000000004
 40
3.0000000000000004
 50
180.00000000000005
 51
270.00000000000005
  0
ARC
  8
_1-0_
  6
DASHED1
 62
    7
 10
1143.5150000000001
 20
2137.5
 40
9
 50
90.000000000000056
 51
180.00000000000011
  0
ARC
  8
_1-0_
  6
DASHED1
 62
    7
 10
1140.5150000000001
 20
2092.5000000000004
 40
6.0000000000000008
 50
180.00000000000005
 51
270.00000000000005
  0
ARC
  8
_1-0_
  6
DASHED1
 62
    7
 10
1141.0150000000001
 20
2089.5000000000004
 40
3.0000000000000004
 50
270
 51
0
  0
CIRCLE
  8
_1-0_
  6
DASHED1
 62
    7
 10
1139.5150000000001
 20
2104.0000000000004
 40
1.8999999999999999
  0
CIRCLE
  8
_1-0_
  6
DASHED1
 62
    7
 10
1164.5149999999998
 20
2104.0000000000004
 40
1.8999999999999999
  0
ARC
  8
_1-0_
  6
DASHED1
 62
    7
 10
1170.5150000000001
 20
2112.5000000000004
 40
1
 50
0.0000000000000254
 51
90.000000000000056
  0
ARC
  8
_1-0_
  6
DASHED1
 62
    7
 10
1133.5150000000001
 20
2112.5000000000004
 40
1
 50
90.000000000000056
 51
180.00000000000011
  0
ARC
  8
_1-0_
  6
DASHED1
 62
    7
 10
1136.5149999999998
 20
2113.5
 40
2
 50
180.00000000000005
 51
270.00000000000005
  0
ARC
  8
_1-0_
  6
DASHED1
 62
    7
 10
1143.5150000000001
 20
2110.5999999999999
 40
0.5
 50
270
 51
0
  0
ARC
  8
_1-0_
  6
DASHED1
 62
    7
 10
1142.5150000000001
 20
2110.5999999999999
 40
0.5
 50
180.00000000000005
 51
270.00000000000005
  0
ARC
  8
_1-0_
  6
DASHED1
 62
    7
 10
1160.5150000000001
 20
2110.5999999999999
 40
0.5
 50
180.00000000000005
 51
270.00000000000005
  0
ARC
  8
_1-0_
  6
DASHED1
 62
    7
 10
1161.5150000000001
 20
2110.5999999999999
 40
0.5
 50
270
 51
0
  0
ARC
  8
_1-0_
  6
DASHED1
 62
    7
 10
1167.5150000000001
 20
2113.5
 40
2
 50
270
 51
0
  0
ARC
  8
_1-0_
  6
DASHED1
 62
    7
 10
1152.0149999999998
 20
2082.5000500000001
 40
3.5000000000000008
 50
90.000000000000056
 51
180.00000000000011
  0
ARC
  8
_1-0_
  6
DASHED1
 62
    7
 10
1152.0149999999998
 20
2082.5000500000001
 40
3.5000000000000008
 50
0.0000000000000254
 51
90.000000000000056
  0
ARC
  8
_1-0_
  6
DASHED1
 62
    7
 10
1152.0149999999998
 20
2082.5000500000001
 40
3.0000000000000004
 50
138.19000000000005
 51
180.00000000000011
  0
ARC
  8
_1-0_
  6
DASHED1
 62
    7
 10
1152.0149999999998
 20
2082.5000500000001
 40
3.0000000000000004
 50
0.0000000000000254
 51
41.810000000000023
  0
ARC
  8
_1-0_
  6
DASHED1
 62
    7
 10
1150.0150000000001
 20
2076.5000500000001
 40
1
 50
180.00000000000005
 51
270.00000000000005
  0
ARC
  8
_1-0_
  6
DASHED1
 62
    7
 10
1154.0150000000001
 20
2076.5000500000001
 40
1
 50
270
 51
0
  0
ARC
  8
_1-0_
  6
DASHED1
 62
    7
 10
1154.5149999999998
 20
2083.6421500000005
 40
10
 50
180.00000000000005
 51
225.00000000000005
  0
ARC
  8
_1-0_
  6
DASHED1
 62
    7
 10
1149.5149999999998
 20
2083.6421500000005
 40
10
 50
315
 51
0
  0
ARC
  8
_1-0_
  6
DASHED1
 62
    7
 10
1169.2149999999999
 20
2111.1999999999998
 40
0.2999999999999998
 50
0.0000000000000254
 51
90.000000000000056
  0
ARC
  8
_1-0_
  6
DASHED1
 62
    7
 10
1134.815
 20
2111.1999999999998
 40
0.2999999999999998
 50
90.000000000000056
 51
180.00000000000011
  0
ARC
  8
_1-0_
  6
DASHED1
 62
    7
 10
1152.5150000000001
 20
2102.0004000000008
 40
0.5
 50
270
 51
0
  0
ARC
  8
_1-0_
  6
DASHED1
 62
    7
 10
1151.5150000000001
 20
2102.0004000000008
 40
0.5
 50
180.00000000000005
 51
270.00000000000005
  0
ARC
  8
_1-0_
  6
DASHED1
 62
    7
 10
1170.5150000000001
 20
2101.5000000000004
 40
1
 50
270
 51
0
  0
ARC
  8
_1-0_
  6
DASHED1
 62
    7
 10
1133.5150000000001
 20
2101.5000000000004
 40
1
 50
180.00000000000005
 51
270.00000000000005
  0
CIRCLE
  8
_1-0_
  6
DASHED1
 62
    7
 10
1155.2650000000001
 20
2101.5000500000001
 40
2.3250000000000001
  0
CIRCLE
  8
_1-0_
  6
DASHED1
 62
    7
 10
1148.7650000000001
 20
2101.5000500000001
 40
2.3250000000000001
  0
CIRCLE
  8
_1-0_
  6
DASHED1
 62
    7
 10
1148.7650000000001
 20
2108.0000500000005
 40
2.3250000000000001
  0
CIRCLE
  8
_1-0_
  6
DASHED1
 62
    7
 10
1155.2650000000001
 20
2108.0000500000005
 40
2.3250000000000001
  0
CIRCLE
  8
_1-0_
  6
DASHED1
 62
    7
 10
1152.0149999999998
 20
2078.0000500000005
 40
1.25
  0
LINE
  8
_1-0_
  6
DASHED1
 62
    7
 10
760.51500000000055
 20
2086.5
 11
760.01500000000078
 21
2086.5
  0
LINE
  8
_1-0_
  6
DASHED1
 62
    7
 10
737.51500000000078
 20
2086.5
 11
738.01500000000055
 21
2086.5
  0
LINE
  8
_1-0_
  6
DASHED1
 62
    7
 10
740.51500000000055
 20
2146.5
 11
757.51500000000078
 21
2146.5
  0
LINE
  8
_1-0_
  6
DASHED1
 62
    7
 10
741.01500000000044
 20
2111.5
 11
757.01500000000066
 21
2111.5
  0
LINE
  8
_1-0_
  6
DASHED1
 62
    7
 10
760.51500000000055
 20
2086.5
 11
760.01500000000078
 21
2086.5
  0
LINE
  8
_1-0_
  6
DASHED1
 62
    7
 10
766.51500000000055
 20
2113.5
 11
767.51500000000078
 21
2113.5
  0
LINE
  8
_1-0_
  6
DASHED1
 62
    7
 10
766.51500000000055
 20
2137.5
 11
766.51500000000055
 21
2113.5
  0
LINE
  8
_1-0_
  6
DASHED1
 62
    7
 10
731.51500000000055
 20
2113.5
 11
730.51500000000055
 21
2113.5
  0
LINE
  8
_1-0_
  6
DASHED1
 62
    7
 10
731.51500000000055
 20
2137.5
 11
731.51500000000055
 21
2113.5
  0
LINE
  8
_1-0_
  6
DASHED1
 62
    7
 10
730.12500000000045
 20
2116.5
 11
737.51500000000078
 21
2116.5
  0
LINE
  8
_1-0_
  6
DASHED1
 62
    7
 10
760.51500000000055
 20
2116.5
 11
768.61500000000069
 21
2116.5
  0
LINE
  8
_1-0_
  6
DASHED1
 62
    7
 10
739.01500000000055
 20
2111.5
 11
739.01500000000055
 21
2108.6999999999998
  0
LINE
  8
_1-0_
  6
DASHED1
 62
    7
 10
740.51500000000055
 20
2110.0999999999999
 11
739.51500000000066
 21
2110.0999999999999
  0
LINE
  8
_1-0_
  6
DASHED1
 62
    7
 10
757.51500000000078
 20
2110.0999999999999
 11
758.51500000000078
 21
2110.0999999999999
  0
LINE
  8
_1-0_
  6
DASHED1
 62
    7
 10
759.01500000000055
 20
2111.5
 11
759.01500000000055
 21
2108.6999999999998
  0
LINE
  8
_1-0_
  6
DASHED1
 62
    7
 10
757.01500000000066
 20
2111.5
 11
757.01500000000066
 21
2089.5
  0
LINE
  8
_1-0_
  6
DASHED1
 62
    7
 10
741.01500000000078
 20
2111.5
 11
741.01500000000078
 21
2089.5
  0
LINE
  8
_1-0_
  6
DASHED1
 62
    7
 10
746.77895000000057
 20
2084.5000500000005
 11
751.25105000000075
 21
2084.5000500000005
  0
LINE
  8
_1-0_
  6
DASHED1
 62
    7
 10
752.51500000000078
 20
2082.5000499999996
 11
752.51500000000078
 21
2080.5000500000001
  0
LINE
  8
_1-0_
  6
DASHED1
 62
    7
 10
745.51500000000055
 20
2082.5000499999996
 11
745.51500000000055
 21
2080.5000500000001
  0
LINE
  8
_1-0_
  6
DASHED1
 62
    7
 10
745.51500000000055
 20
2080.5000500000001
 11
746.01500000000078
 21
2080.5000500000001
  0
LINE
  8
_1-0_
  6
DASHED1
 62
    7
 10
752.01500000000066
 20
2080.5000500000001
 11
752.51500000000078
 21
2080.5000500000001
  0
LINE
  8
_1-0_
  6
DASHED1
 62
    7
 10
752.51500000000078
 20
2075.5000500000001
 11
745.51500000000055
 21
2075.5000500000001
  0
LINE
  8
_1-0_
  6
DASHED1
 62
    7
 10
752.56095000000073
 20
2075.5459999999998
 11
752.51500000000078
 21
2075.5000500000001
  0
LINE
  8
_1-0_
  6
DASHED1
 62
    7
 10
745.4690500000006
 20
2075.5459999999998
 11
745.51500000000055
 21
2075.5000500000001
  0
LINE
  8
_1-0_
  6
DASHED1
 62
    7
 10
752.01500000000066
 20
2082.5000499999996
 11
752.01500000000066
 21
2076.5000500000001
  0
LINE
  8
_1-0_
  6
DASHED1
 62
    7
 10
746.01500000000078
 20
2082.5000499999996
 11
746.01500000000078
 21
2076.5000500000001
  0
LINE
  8
_1-0_
  6
DASHED1
 62
    7
 10
746.01500000000078
 20
2080.5000500000001
 11
752.01500000000066
 21
2080.5000500000001
  0
LINE
  8
_1-0_
  6
DASHED1
 62
    7
 10
744.44395000000076
 20
2076.5711000000001
 11
745.4690500000006
 21
2075.5459999999998
  0
LINE
  8
_1-0_
  6
DASHED1
 62
    7
 10
753.58605000000068
 20
2076.5711000000001
 11
752.56095000000073
 21
2075.5459999999998
  0
LINE
  8
_1-0_
  6
DASHED1
 62
    7
 10
756.51500000000055
 20
2083.6421500000001
 11
756.51500000000055
 21
2111.5
  0
LINE
  8
_1-0_
  6
DASHED1
 62
    7
 10
741.51500000000055
 20
2083.6421500000001
 11
741.51500000000055
 21
2111.5
  0
LINE
  8
_1-0_
  6
DASHED1
 62
    7
 10
757.01500000000066
 20
2111.5
 11
766.2150000000006
 21
2111.5
  0
LINE
  8
_1-0_
  6
DASHED1
 62
    7
 10
741.01500000000044
 20
2111.5
 11
731.81500000000085
 21
2111.5
  0
LINE
  8
_1-0_
  6
DASHED1
 62
    7
 10
750.01500000000078
 20
2111.5
 11
750.01500000000078
 21
2102.0003999999998
  0
LINE
  8
_1-0_
  6
DASHED1
 62
    7
 10
748.01500000000055
 20
2111.5
 11
748.01500000000055
 21
2102.0003999999998
  0
LINE
  8
_1-0_
  6
DASHED1
 62
    7
 10
748.51500000000078
 20
2101.5003999999998
 11
749.51500000000066
 21
2101.5003999999998
  0
LINE
  8
_1-0_
  6
DASHED1
 62
    7
 10
748.01500000000055
 20
2105.7200000000002
 11
741.51500000000055
 21
2105.7200000000002
  0
LINE
  8
_1-0_
  6
DASHED1
 62
    7
 10
756.51500000000055
 20
2105.7200000000002
 11
750.01500000000078
 21
2105.7200000000002
  0
LINE
  8
_1-0_
  6
DASHED1
 62
    7
 10
748.01500000000055
 20
2106.0900000000001
 11
746.95425000000057
 21
2106.0900000000001
  0
LINE
  8
_1-0_
  6
DASHED1
 62
    7
 10
744.57575000000076
 20
2106.0900000000001
 11
741.51500000000055
 21
2106.0900000000001
  0
LINE
  8
_1-0_
  6
DASHED1
 62
    7
 10
756.51500000000055
 20
2106.0900000000001
 11
753.45425000000068
 21
2106.0900000000001
  0
LINE
  8
_1-0_
  6
DASHED1
 62
    7
 10
751.07575000000053
 20
2106.0900000000001
 11
750.01500000000078
 21
2106.0900000000001
  0
LINE
  8
_1-0_
  6
DASHED1
 62
    7
 10
768.51500000000078
 20
2101.5
 11
768.51500000000078
 21
2112.5
  0
LINE
  8
_1-0_
  6
DASHED1
 62
    7
 10
766.51500000000055
 20
2100.5
 11
767.51500000000078
 21
2100.5
  0
LINE
  8
_1-0_
  6
DASHED1
 62
    7
 10
766.51500000000055
 20
2111.1999999999998
 11
766.51500000000055
 21
2092.5
  0
LINE
  8
_1-0_
  6
DASHED1
 62
    7
 10
729.51500000000066
 20
2101.5
 11
729.51500000000066
 21
2112.5
  0
LINE
  8
_1-0_
  6
DASHED1
 62
    7
 10
731.51500000000055
 20
2100.5
 11
730.51500000000055
 21
2100.5
  0
LINE
  8
_1-0_
  6
DASHED1
 62
    7
 10
731.51500000000055
 20
2111.1999999999998
 11
731.51500000000055
 21
2092.5
  0
LINE
  8
_1-0_
  6
DASHED1
 62
    7
 10
749.01500000000055
 20
2148.1999999999998
 11
749.01500000000055
 21
2072.9
  0
LINE
  8
_1-0_
  6
DASHED1
 62
    7
 10
730.38500000000055
 20
2129
 11
769.41500000000075
 21
2129
  0
LINE
  8
_1-0_
  6
DASHED1
 62
    7
 10
736.51500000000055
 20
2108.15
 11
736.51500000000055
 21
2099.9
  0
LINE
  8
_1-0_
  6
DASHED1
 62
    7
 10
739.76500000000044
 20
2104
 11
733.21500000000071
 21
2104
  0
LINE
  8
_1-0_
  6
DASHED1
 62
    7
 10
761.51500000000055
 20
2107.8200000000006
 11
761.51500000000055
 21
2100.0999999999999
  0
LINE
  8
_1-0_
  6
DASHED1
 62
    7
 10
758.24500000000057
 20
2104
 11
765.25500000000079
 21
2104
  0
LINE
  8
_1-0_
  6
DASHED1
 62
    7
 10
752.5750000000005
 20
2078.0000500000001
 11
745.30500000000074
 21
2078.0000500000001
  0
ARC
  8
_1-0_
  6
DASHED1
 62
    7
 10
757.51500000000078
 20
2137.5
 40
9
 50
0.0000000000000254
 51
90.000000000000056
  0
ARC
  8
_1-0_
  6
DASHED1
 62
    7
 10
760.51500000000055
 20
2092.5
 40
6.0000000000000008
 50
270
 51
0
  0
ARC
  8
_1-0_
  6
DASHED1
 62
    7
 10
760.01500000000078
 20
2089.5
 40
3.0000000000000004
 50
180.00000000000005
 51
270.00000000000005
  0
ARC
  8
_1-0_
  6
DASHED1
 62
    7
 10
740.51500000000055
 20
2137.5
 40
9
 50
90.000000000000056
 51
180.00000000000011
  0
ARC
  8
_1-0_
  6
DASHED1
 62
    7
 10
737.51500000000078
 20
2092.5
 40
6.0000000000000008
 50
180.00000000000005
 51
270.00000000000005
  0
ARC
  8
_1-0_
  6
DASHED1
 62
    7
 10
738.01500000000055
 20
2089.5
 40
3.0000000000000004
 50
270
 51
0
  0
CIRCLE
  8
_1-0_
  6
DASHED1
 62
    7
 10
736.51500000000055
 20
2104
 40
1.8999999999999999
  0
CIRCLE
  8
_1-0_
  6
DASHED1
 62
    7
 10
761.51500000000055
 20
2104
 40
1.8999999999999999
  0
ARC
  8
_1-0_
  6
DASHED1
 62
    7
 10
767.51500000000078
 20
2112.5
 40
1
 50
0.0000000000000254
 51
90.000000000000056
  0
ARC
  8
_1-0_
  6
DASHED1
 62
    7
 10
730.51500000000055
 20
2112.5
 40
1
 50
90.000000000000056
 51
180.00000000000011
  0
ARC
  8
_1-0_
  6
DASHED1
 62
    7
 10
733.51500000000044
 20
2113.5
 40
2
 50
180.00000000000005
 51
270.00000000000005
  0
ARC
  8
_1-0_
  6
DASHED1
 62
    7
 10
740.51500000000055
 20
2110.5999999999999
 40
0.5
 50
270
 51
0
  0
ARC
  8
_1-0_
  6
DASHED1
 62
    7
 10
739.51500000000066
 20
2110.5999999999999
 40
0.5
 50
180.00000000000005
 51
270.00000000000005
  0
ARC
  8
_1-0_
  6
DASHED1
 62
    7
 10
757.51500000000078
 20
2110.5999999999999
 40
0.5
 50
180.00000000000005
 51
270.00000000000005
  0
ARC
  8
_1-0_
  6
DASHED1
 62
    7
 10
758.51500000000078
 20
2110.5999999999999
 40
0.5
 50
270
 51
0
  0
ARC
  8
_1-0_
  6
DASHED1
 62
    7
 10
764.51500000000066
 20
2113.5
 40
2
 50
270
 51
0
  0
ARC
  8
_1-0_
  6
DASHED1
 62
    7
 10
749.01500000000055
 20
2082.5000499999996
 40
3.5000000000000008
 50
90.000000000000056
 51
180.00000000000011
  0
ARC
  8
_1-0_
  6
DASHED1
 62
    7
 10
749.01500000000055
 20
2082.5000499999996
 40
3.5000000000000008
 50
0.0000000000000254
 51
90.000000000000056
  0
ARC
  8
_1-0_
  6
DASHED1
 62
    7
 10
749.01500000000055
 20
2082.5000499999996
 40
3.0000000000000004
 50
138.19000000000005
 51
180.00000000000011
  0
ARC
  8
_1-0_
  6
DASHED1
 62
    7
 10
749.01500000000055
 20
2082.5000499999996
 40
3.0000000000000004
 50
0.0000000000000254
 51
41.810000000000023
  0
ARC
  8
_1-0_
  6
DASHED1
 62
    7
 10
747.01500000000066
 20
2076.5000500000001
 40
1
 50
180.00000000000005
 51
270.00000000000005
  0
ARC
  8
_1-0_
  6
DASHED1
 62
    7
 10
751.01500000000078
 20
2076.5000500000001
 40
1
 50
270
 51
0
  0
ARC
  8
_1-0_
  6
DASHED1
 62
    7
 10
751.51500000000055
 20
2083.6421500000001
 40
10
 50
180.00000000000005
 51
225.00000000000005
  0
ARC
  8
_1-0_
  6
DASHED1
 62
    7
 10
746.51500000000055
 20
2083.6421500000001
 40
10
 50
315
 51
0
  0
ARC
  8
_1-0_
  6
DASHED1
 62
    7
 10
766.2150000000006
 20
2111.1999999999998
 40
0.2999999999999998
 50
0.0000000000000254
 51
90.000000000000056
  0
ARC
  8
_1-0_
  6
DASHED1
 62
    7
 10
731.81500000000085
 20
2111.1999999999998
 40
0.2999999999999998
 50
90.000000000000056
 51
180.00000000000011
  0
ARC
  8
_1-0_
  6
DASHED1
 62
    7
 10
749.51500000000066
 20
2102.0003999999998
 40
0.5
 50
270
 51
0
  0
ARC
  8
_1-0_
  6
DASHED1
 62
    7
 10
748.51500000000078
 20
2102.0003999999998
 40
0.5
 50
180.00000000000005
 51
270.00000000000005
  0
ARC
  8
_1-0_
  6
DASHED1
 62
    7
 10
767.51500000000078
 20
2101.5
 40
1
 50
270
 51
0
  0
ARC
  8
_1-0_
  6
DASHED1
 62
    7
 10
730.51500000000055
 20
2101.5
 40
1
 50
180.00000000000005
 51
270.00000000000005
  0
CIRCLE
  8
_1-0_
  6
DASHED1
 62
    7
 10
752.26500000000078
 20
2101.5000500000001
 40
2.3250000000000001
  0
CIRCLE
  8
_1-0_
  6
DASHED1
 62
    7
 10
745.76500000000066
 20
2101.5000500000001
 40
2.3250000000000001
  0
CIRCLE
  8
_1-0_
  6
DASHED1
 62
    7
 10
745.76500000000066
 20
2108.0000500000001
 40
2.3250000000000001
  0
CIRCLE
  8
_1-0_
  6
DASHED1
 62
    7
 10
752.26500000000078
 20
2108.0000500000001
 40
2.3250000000000001
  0
CIRCLE
  8
_1-0_
  6
DASHED1
 62
    7
 10
749.01500000000055
 20
2078.0000500000001
 40
1.25
  0
LINE
  8
_1-0_
  6
DASHED1
 62
    7
 10
659.515000000001
 20
2086.5
 11
659.01500000000112
 21
2086.5
  0
LINE
  8
_1-0_
  6
DASHED1
 62
    7
 10
636.51500000000112
 20
2086.5
 11
637.015000000001
 21
2086.5
  0
LINE
  8
_1-0_
  6
DASHED1
 62
    7
 10
639.515000000001
 20
2146.5
 11
656.51500000000112
 21
2146.5
  0
LINE
  8
_1-0_
  6
DASHED1
 62
    7
 10
640.01500000000078
 20
2111.5
 11
656.015000000001
 21
2111.5
  0
LINE
  8
_1-0_
  6
DASHED1
 62
    7
 10
659.515000000001
 20
2086.5
 11
659.01500000000112
 21
2086.5
  0
LINE
  8
_1-0_
  6
DASHED1
 62
    7
 10
665.51500000000089
 20
2113.5
 11
666.51500000000112
 21
2113.5
  0
LINE
  8
_1-0_
  6
DASHED1
 62
    7
 10
665.51500000000089
 20
2137.5
 11
665.51500000000089
 21
2113.5
  0
LINE
  8
_1-0_
  6
DASHED1
 62
    7
 10
630.51500000000089
 20
2113.5
 11
629.515000000001
 21
2113.5
  0
LINE
  8
_1-0_
  6
DASHED1
 62
    7
 10
630.51500000000089
 20
2137.5
 11
630.51500000000089
 21
2113.5
  0
LINE
  8
_1-0_
  6
DASHED1
 62
    7
 10
629.12500000000079
 20
2116.5
 11
636.51500000000112
 21
2116.5
  0
LINE
  8
_1-0_
  6
DASHED1
 62
    7
 10
659.515000000001
 20
2116.5
 11
667.61500000000091
 21
2116.5
  0
LINE
  8
_1-0_
  6
DASHED1
 62
    7
 10
638.01500000000089
 20
2111.5
 11
638.01500000000089
 21
2108.6999999999998
  0
LINE
  8
_1-0_
  6
DASHED1
 62
    7
 10
639.515000000001
 20
2110.0999999999999
 11
638.515000000001
 21
2110.0999999999999
  0
LINE
  8
_1-0_
  6
DASHED1
 62
    7
 10
656.51500000000112
 20
2110.0999999999999
 11
657.515000000001
 21
2110.0999999999999
  0
LINE
  8
_1-0_
  6
DASHED1
 62
    7
 10
658.01500000000089
 20
2111.5
 11
658.01500000000089
 21
2108.6999999999998
  0
LINE
  8
_1-0_
  6
DASHED1
 62
    7
 10
656.015000000001
 20
2111.5
 11
656.015000000001
 21
2089.5
  0
LINE
  8
_1-0_
  6
DASHED1
 62
    7
 10
640.015000000001
 20
2111.5
 11
640.015000000001
 21
2089.5
  0
LINE
  8
_1-0_
  6
DASHED1
 62
    7
 10
645.77895000000103
 20
2084.5000500000005
 11
650.2510500000011
 21
2084.5000500000005
  0
LINE
  8
_1-0_
  6
DASHED1
 62
    7
 10
651.51500000000112
 20
2082.5000499999996
 11
651.51500000000112
 21
2080.5000500000001
  0
LINE
  8
_1-0_
  6
DASHED1
 62
    7
 10
644.515000000001
 20
2082.5000499999996
 11
644.515000000001
 21
2080.5000500000001
  0
LINE
  8
_1-0_
  6
DASHED1
 62
    7
 10
644.515000000001
 20
2080.5000500000001
 11
645.015000000001
 21
2080.5000500000001
  0
LINE
  8
_1-0_
  6
DASHED1
 62
    7
 10
651.015000000001
 20
2080.5000500000001
 11
651.51500000000112
 21
2080.5000500000001
  0
LINE
  8
_1-0_
  6
DASHED1
 62
    7
 10
651.51500000000112
 20
2075.5000500000001
 11
644.515000000001
 21
2075.5000500000001
  0
LINE
  8
_1-0_
  6
DASHED1
 62
    7
 10
651.56095000000107
 20
2075.5459999999998
 11
651.51500000000112
 21
2075.5000500000001
  0
LINE
  8
_1-0_
  6
DASHED1
 62
    7
 10
644.46905000000106
 20
2075.5459999999998
 11
644.515000000001
 21
2075.5000500000001
  0
LINE
  8
_1-0_
  6
DASHED1
 62
    7
 10
651.015000000001
 20
2082.5000499999996
 11
651.015000000001
 21
2076.5000500000001
  0
LINE
  8
_1-0_
  6
DASHED1
 62
    7
 10
645.015000000001
 20
2082.5000499999996
 11
645.015000000001
 21
2076.5000500000001
  0
LINE
  8
_1-0_
  6
DASHED1
 62
    7
 10
645.015000000001
 20
2080.5000500000001
 11
651.015000000001
 21
2080.5000500000001
  0
LINE
  8
_1-0_
  6
DASHED1
 62
    7
 10
643.44395000000099
 20
2076.5711000000001
 11
644.46905000000106
 21
2075.5459999999998
  0
LINE
  8
_1-0_
  6
DASHED1
 62
    7
 10
652.58605000000102
 20
2076.5711000000001
 11
651.56095000000107
 21
2075.5459999999998
  0
LINE
  8
_1-0_
  6
DASHED1
 62
    7
 10
655.51500000000089
 20
2083.6421500000001
 11
655.51500000000089
 21
2111.5
  0
LINE
  8
_1-0_
  6
DASHED1
 62
    7
 10
640.51500000000089
 20
2083.6421500000001
 11
640.51500000000089
 21
2111.5
  0
LINE
  8
_1-0_
  6
DASHED1
 62
    7
 10
656.015000000001
 20
2111.5
 11
665.21500000000082
 21
2111.5
  0
LINE
  8
_1-0_
  6
DASHED1
 62
    7
 10
640.01500000000078
 20
2111.5
 11
630.81500000000119
 21
2111.5
  0
LINE
  8
_1-0_
  6
DASHED1
 62
    7
 10
649.01500000000112
 20
2111.5
 11
649.01500000000112
 21
2102.0003999999998
  0
LINE
  8
_1-0_
  6
DASHED1
 62
    7
 10
647.015000000001
 20
2111.5
 11
647.015000000001
 21
2102.0003999999998
  0
LINE
  8
_1-0_
  6
DASHED1
 62
    7
 10
647.515000000001
 20
2101.5003999999998
 11
648.515000000001
 21
2101.5003999999998
  0
LINE
  8
_1-0_
  6
DASHED1
 62
    7
 10
647.015000000001
 20
2105.7200000000002
 11
640.51500000000089
 21
2105.7200000000002
  0
LINE
  8
_1-0_
  6
DASHED1
 62
    7
 10
655.51500000000089
 20
2105.7200000000002
 11
649.01500000000112
 21
2105.7200000000002
  0
LINE
  8
_1-0_
  6
DASHED1
 62
    7
 10
647.015000000001
 20
2106.0900000000001
 11
645.95425000000091
 21
2106.0900000000001
  0
LINE
  8
_1-0_
  6
DASHED1
 62
    7
 10
643.5757500000011
 20
2106.0900000000001
 11
640.51500000000089
 21
2106.0900000000001
  0
LINE
  8
_1-0_
  6
DASHED1
 62
    7
 10
655.51500000000089
 20
2106.0900000000001
 11
652.45425000000091
 21
2106.0900000000001
  0
LINE
  8
_1-0_
  6
DASHED1
 62
    7
 10
650.07575000000088
 20
2106.0900000000001
 11
649.01500000000112
 21
2106.0900000000001
  0
LINE
  8
_1-0_
  6
DASHED1
 62
    7
 10
667.515000000001
 20
2101.5
 11
667.515000000001
 21
2112.5
  0
LINE
  8
_1-0_
  6
DASHED1
 62
    7
 10
665.51500000000089
 20
2100.5
 11
666.51500000000112
 21
2100.5
  0
LINE
  8
_1-0_
  6
DASHED1
 62
    7
 10
665.51500000000089
 20
2111.1999999999998
 11
665.51500000000089
 21
2092.5
  0
LINE
  8
_1-0_
  6
DASHED1
 62
    7
 10
628.515000000001
 20
2101.5
 11
628.515000000001
 21
2112.5
  0
LINE
  8
_1-0_
  6
DASHED1
 62
    7
 10
630.51500000000089
 20
2100.5
 11
629.515000000001
 21
2100.5
  0
LINE
  8
_1-0_
  6
DASHED1
 62
    7
 10
630.51500000000089
 20
2111.1999999999998
 11
630.51500000000089
 21
2092.5
  0
LINE
  8
_1-0_
  6
DASHED1
 62
    7
 10
648.01500000000089
 20
2148.1999999999998
 11
648.01500000000089
 21
2072.9
  0
LINE
  8
_1-0_
  6
DASHED1
 62
    7
 10
629.3850000000009
 20
2129
 11
668.4150000000011
 21
2129
  0
LINE
  8
_1-0_
  6
DASHED1
 62
    7
 10
635.51500000000089
 20
2108.15
 11
635.51500000000089
 21
2099.9
  0
LINE
  8
_1-0_
  6
DASHED1
 62
    7
 10
638.76500000000078
 20
2104
 11
632.21500000000105
 21
2104
  0
LINE
  8
_1-0_
  6
DASHED1
 62
    7
 10
660.51500000000089
 20
2107.8200000000006
 11
660.51500000000089
 21
2100.0999999999999
  0
LINE
  8
_1-0_
  6
DASHED1
 62
    7
 10
657.24500000000091
 20
2104
 11
664.25500000000113
 21
2104
  0
LINE
  8
_1-0_
  6
DASHED1
 62
    7
 10
651.57500000000084
 20
2078.0000500000001
 11
644.30500000000108
 21
2078.0000500000001
  0
ARC
  8
_1-0_
  6
DASHED1
 62
    7
 10
656.51500000000112
 20
2137.5
 40
9
 50
0.0000000000000254
 51
90.000000000000056
  0
ARC
  8
_1-0_
  6
DASHED1
 62
    7
 10
659.515000000001
 20
2092.5
 40
6.0000000000000008
 50
270
 51
0
  0
ARC
  8
_1-0_
  6
DASHED1
 62
    7
 10
659.01500000000112
 20
2089.5
 40
3.0000000000000004
 50
180.00000000000005
 51
270.00000000000005
  0
ARC
  8
_1-0_
  6
DASHED1
 62
    7
 10
639.515000000001
 20
2137.5
 40
9
 50
90.000000000000056
 51
180.00000000000011
  0
ARC
  8
_1-0_
  6
DASHED1
 62
    7
 10
636.51500000000112
 20
2092.5
 40
6.0000000000000008
 50
180.00000000000005
 51
270.00000000000005
  0
ARC
  8
_1-0_
  6
DASHED1
 62
    7
 10
637.015000000001
 20
2089.5
 40
3.0000000000000004
 50
270
 51
0
  0
CIRCLE
  8
_1-0_
  6
DASHED1
 62
    7
 10
635.51500000000089
 20
2104
 40
1.8999999999999999
  0
CIRCLE
  8
_1-0_
  6
DASHED1
 62
    7
 10
660.51500000000089
 20
2104
 40
1.8999999999999999
  0
ARC
  8
_1-0_
  6
DASHED1
 62
    7
 10
666.51500000000112
 20
2112.5
 40
1
 50
0.0000000000000254
 51
90.000000000000056
  0
ARC
  8
_1-0_
  6
DASHED1
 62
    7
 10
629.515000000001
 20
2112.5
 40
1
 50
90.000000000000056
 51
180.00000000000011
  0
ARC
  8
_1-0_
  6
DASHED1
 62
    7
 10
632.51500000000078
 20
2113.5
 40
2
 50
180.00000000000005
 51
270.00000000000005
  0
ARC
  8
_1-0_
  6
DASHED1
 62
    7
 10
639.515000000001
 20
2110.5999999999999
 40
0.5
 50
270
 51
0
  0
ARC
  8
_1-0_
  6
DASHED1
 62
    7
 10
638.515000000001
 20
2110.5999999999999
 40
0.5
 50
180.00000000000005
 51
270.00000000000005
  0
ARC
  8
_1-0_
  6
DASHED1
 62
    7
 10
656.51500000000112
 20
2110.5999999999999
 40
0.5
 50
180.00000000000005
 51
270.00000000000005
  0
ARC
  8
_1-0_
  6
DASHED1
 62
    7
 10
657.515000000001
 20
2110.5999999999999
 40
0.5
 50
270
 51
0
  0
ARC
  8
_1-0_
  6
DASHED1
 62
    7
 10
663.515000000001
 20
2113.5
 40
2
 50
270
 51
0
  0
ARC
  8
_1-0_
  6
DASHED1
 62
    7
 10
648.01500000000089
 20
2082.5000499999996
 40
3.5000000000000008
 50
90.000000000000056
 51
180.00000000000011
  0
ARC
  8
_1-0_
  6
DASHED1
 62
    7
 10
648.01500000000089
 20
2082.5000499999996
 40
3.5000000000000008
 50
0.0000000000000254
 51
90.000000000000056
  0
ARC
  8
_1-0_
  6
DASHED1
 62
    7
 10
648.01500000000089
 20
2082.5000499999996
 40
3.0000000000000004
 50
138.19000000000005
 51
180.00000000000011
  0
ARC
  8
_1-0_
  6
DASHED1
 62
    7
 10
648.01500000000089
 20
2082.5000499999996
 40
3.0000000000000004
 50
0.0000000000000254
 51
41.810000000000023
  0
ARC
  8
_1-0_
  6
DASHED1
 62
    7
 10
646.015000000001
 20
2076.5000500000001
 40
1
 50
180.00000000000005
 51
270.00000000000005
  0
ARC
  8
_1-0_
  6
DASHED1
 62
    7
 10
650.015000000001
 20
2076.5000500000001
 40
1
 50
270
 51
0
  0
ARC
  8
_1-0_
  6
DASHED1
 62
    7
 10
650.51500000000089
 20
2083.6421500000001
 40
10
 50
180.00000000000005
 51
225.00000000000005
  0
ARC
  8
_1-0_
  6
DASHED1
 62
    7
 10
645.51500000000089
 20
2083.6421500000001
 40
10
 50
315
 51
0
  0
ARC
  8
_1-0_
  6
DASHED1
 62
    7
 10
665.21500000000082
 20
2111.1999999999998
 40
0.2999999999999998
 50
0.0000000000000254
 51
90.000000000000056
  0
ARC
  8
_1-0_
  6
DASHED1
 62
    7
 10
630.81500000000119
 20
2111.1999999999998
 40
0.2999999999999998
 50
90.000000000000056
 51
180.00000000000011
  0
ARC
  8
_1-0_
  6
DASHED1
 62
    7
 10
648.515000000001
 20
2102.0003999999998
 40
0.5
 50
270
 51
0
  0
ARC
  8
_1-0_
  6
DASHED1
 62
    7
 10
647.515000000001
 20
2102.0003999999998
 40
0.5
 50
180.00000000000005
 51
270.00000000000005
  0
ARC
  8
_1-0_
  6
DASHED1
 62
    7
 10
666.51500000000112
 20
2101.5
 40
1
 50
270
 51
0
  0
ARC
  8
_1-0_
  6
DASHED1
 62
    7
 10
629.515000000001
 20
2101.5
 40
1
 50
180.00000000000005
 51
270.00000000000005
  0
CIRCLE
  8
_1-0_
  6
DASHED1
 62
    7
 10
651.265000000001
 20
2101.5000500000001
 40
2.3250000000000001
  0
CIRCLE
  8
_1-0_
  6
DASHED1
 62
    7
 10
644.765000000001
 20
2101.5000500000001
 40
2.3250000000000001
  0
CIRCLE
  8
_1-0_
  6
DASHED1
 62
    7
 10
644.765000000001
 20
2108.0000500000001
 40
2.3250000000000001
  0
CIRCLE
  8
_1-0_
  6
DASHED1
 62
    7
 10
651.265000000001
 20
2108.0000500000001
 40
2.3250000000000001
  0
CIRCLE
  8
_1-0_
  6
DASHED1
 62
    7
 10
648.01500000000089
 20
2078.0000500000001
 40
1.25
  0
LINE
  8
_0-6_
  6
DASHED1
 62
    7
 10
1486.0149999999998
 20
2098.5
 11
1486.0149999999998
 21
2387.5
  0
LINE
  8
_0-6_
  6
DASHED1
 62
    7
 10
1086.0150000000003
 20
2098.5
 11
1086.0150000000003
 21
2387.5
  0
LINE
  8
_0-6_
  6
DASHED1
 62
    7
 10
1115.0150000000003
 20
2098.5
 11
1486.0149999999998
 21
2098.5
  0
LINE
  8
_0-6_
  6
DASHED1
 62
    7
 10
1115.0150000000003
 20
2387.5
 11
1486.0149999999998
 21
2387.5
  0
LINE
  8
_0-6_
  6
DASHED1
 62
    7
 10
1115.0150000000003
 20
2098.5
 11
1115.0150000000003
 21
2387.5
  0
LINE
  8
_0-6_
  6
DASHED1
 62
    7
 10
317.01499999999981
 20
2387.5
 11
317.01499999999981
 21
2098.5
  0
LINE
  8
_0-6_
  6
DASHED1
 62
    7
 10
317.01499999999981
 20
2387.5
 11
1086.0150000000003
 21
2387.5
  0
LINE
  8
_0-6_
  6
DASHED1
 62
    7
 10
317.01499999999981
 20
2098.5
 11
1086.0150000000003
 21
2098.5
  0
LINE
  8
_0-d_
  6
CONTINUOUS
 62
    7
 10
4115
 20
2284.9999999999995
 11
2834.7428029255934
 21
2284.9999999999995
  0
TEXT
  8
_0-d_
 62
    7
 10
2914.595573969098
 20
2724.6800031696598
 40
35
 41
0.8571428571428568
 50
0
  1
天　板
  0
LINE
  8
_0-d_
  6
CONTINUOUS
 62
    3
 10
4115
 20
2845
 11
2834.7428029255934
 21
2845
  0
TEXT
  8
_0-d_
 62
    7
 10
3280.2433029255939
 20
2795
 40
35
 41
0.8571428571428568
 50
0
  1
仕　様
  0
TEXT
  8
_0-d_
 62
    7
 10
3174.7428029255934
 20
2722.4999999999995
 40
35
 41
0.8571428571428568
 50
0
  1
片面化粧パーティクルボード　１５ｔ
  0
LINE
  8
_0-d_
  6
CONTINUOUS
 62
    3
 10
2834.7428029255934
 20
2214.9999999999995
 11
4115
 21
2214.9999999999995
  0
LINE
  8
_0-d_
  6
CONTINUOUS
 62
    7
 10
4115
 20
2564.9999999999995
 11
2834.7428029255934
 21
2564.9999999999995
  0
LINE
  8
_0-d_
  6
CONTINUOUS
 62
    7
 10
4115
 20
2494.9999999999995
 11
2834.7428029255934
 21
2494.9999999999995
  0
LINE
  8
_0-d_
  6
CONTINUOUS
 62
    7
 10
4115
 20
2424.9999999999995
 11
2834.7428029255934
 21
2424.9999999999995
  0
LINE
  8
_0-d_
  6
CONTINUOUS
 62
    7
 10
4115
 20
2354.9999999999995
 11
2834.7428029255934
 21
2354.9999999999995
  0
LINE
  8
_0-d_
  6
CONTINUOUS
 62
    7
 10
4115
 20
2634.9999999999995
 11
2834.7428029255934
 21
2634.9999999999995
  0
LINE
  8
_0-d_
  6
CONTINUOUS
 62
    7
 10
4115
 20
2704.9999999999995
 11
2834.7428029255934
 21
2704.9999999999995
  0
LINE
  8
_0-d_
  6
CONTINUOUS
 62
    7
 10
4115
 20
2775
 11
2834.7428029255934
 21
2775
  0
LINE
  8
_0-d_
  6
CONTINUOUS
 62
    7
 10
4115
 20
2780
 11
2834.7428029255934
 21
2780
  0
TEXT
  8
_0-d_
 62
    7
 10
2914.7428029255925
 20
2232.4999999999995
 40
35
 41
0.8571428571428568
 50
0
  1
棚　板
  0
TEXT
  8
_0-d_
 62
    7
 10
2914.7428029255925
 20
2302.4999999999995
 40
35
 41
0.8571428571428568
 50
0
  1
丁　番
  0
TEXT
  8
_0-d_
 62
    7
 10
2914.7428029255943
 20
2372.4999999999995
 40
35
 41
0.8571428571428568
 50
0
  1
　扉
  0
TEXT
  8
_0-d_
 62
    7
 10
2914.7428029255925
 20
2442.4999999999995
 40
35
 41
0.8571428571428568
 50
0
  1
背　板
  0
TEXT
  8
_0-d_
 62
    7
 10
2914.7428029255925
 20
2512.4999999999995
 40
35
 41
0.8571428571428568
 50
0
  1
見　上　板
  0
TEXT
  8
_0-d_
 62
    7
 10
2914.7428029255925
 20
2652.4999999999995
 40
35
 41
0.8571428571428568
 50
0
  1
左　側　板
  0
TEXT
  8
_0-d_
 62
    7
 10
2914.7428029255925
 20
2582.4999999999995
 40
35
 41
0.8571428571428568
 50
0
  1
右　側　板
  0
LINE
  8
_0-d_
  6
CONTINUOUS
 62
    7
 10
4115
 20
2214.9999999999995
 11
2834.7428029255934
 21
2214.9999999999995
  0
LINE
  8
_0-d_
  6
CONTINUOUS
 62
    3
 10
2834.7428029255934
 20
2144.9999999999995
 11
4115
 21
2144.9999999999995
  0
LINE
  8
_0-d_
  6
CONTINUOUS
 62
    3
 10
2834.7428029255934
 20
2845
 11
2834.7428029255934
 21
2144.9999999999995
  0
LINE
  8
_0-d_
  6
CONTINUOUS
 62
    3
 10
4115
 20
2845
 11
4115
 21
2144.9999999999995
  0
LINE
  8
_0-d_
  6
CONTINUOUS
 62
    7
 10
3134.7428029255934
 20
2775
 11
3134.7428029255934
 21
2144.9999999999995
  0
TEXT
  8
_0-d_
 62
    7
 10
3174.7428029255929
 20
2162.4999999999995
 40
35
 41
0.8571428571428568
 50
0
  1
アルミ一文字把手
  0
TEXT
  8
_0-d_
 62
    7
 10
3175.7226805597765
 20
2583.714337742108
 40
35
 41
0.8571428571428568
 50
0
  1
低圧メラミン化粧パーティクルボード　１２ｔ
  0
TEXT
  8
_0-d_
 62
    7
 10
3174.7428029255934
 20
2652.4999999999995
 40
35
 41
0.8571428571428568
 50
0
  1
低圧メラミン化粧パーティクルボード　１２ｔ
  0
TEXT
  8
_0-d_
 62
    7
 10
3174.7428029255934
 20
2512.4999999999995
 40
35
 41
0.8571428571428568
 50
0
  1
低圧メラミン化粧パーティクルボード　１５ｔ
  0
TEXT
  8
_0-d_
 62
    7
 10
3174.7428029255934
 20
2442.4999999999995
 40
35
 41
0.8571428571428568
 50
0
  1
カラーＭＤＦ・落とし込み
  0
TEXT
  8
_0-d_
 62
    7
 10
2914.7428029255943
 20
2162.4999999999995
 40
35
 41
0.8571428571428568
 50
0
  1
把　手
  0
TEXT
  8
_0-d_
 62
    7
 10
3174.7428029255925
 20
2232.4999999999995
 40
35
 41
0.8571428571428568
 50
0
  1
可動式　棚板　１５ｔ
  0
TEXT
  8
_0-d_
 62
    7
 10
3174.7428029255929
 20
2302.4999999999995
 40
35
 41
0.8571428571428568
 50
0
  1
ワンタッチスライド式丁番
  0
TEXT
  8
_0-d_
 62
    7
 10
3174.7428029255938
 20
2372.4999999999995
 40
35
 41
0.8571428571428568
 50
0
  1
両面化粧パ－ティクルボ－ド　１２ｔ　耐震ラッチ付
  0
TEXT
  8
_0-d_
 62
    7
 10
3860.6210602131609
 20
2079.9999999999995
 40
35
 41
0.8571428571428568
 50
0
  1
扉　色
  0
TEXT
  8
_0-d_
 62
    7
 10
3715.7122200188973
 20
2012.4999999999995
 40
35
 41
0.8571428571428568
 50
0
  1
ＳＷ
  0
TEXT
  8
_0-d_
 62
    7
 10
3830.24212042632
 20
2012.4999999999995
 40
35
 41
0.8571428571428568
 50
0
  1
ホワイト
  0
TEXT
  8
_0-d_
 62
    7
 10
3720.7036754285845
 20
1953.0893268157797
 40
35
 41
0.8571428571428568
 50
0
  1
ＬＧ
  0
TEXT
  8
_0-d_
 62
    7
 10
3830.3411143313564
 20
1953.0893268157797
 40
35
 41
0.8571428571428568
 50
0
  1
木　　目
  0
TEXT
  8
_0-d_
 62
    7
 10
3715.7122200188973
 20
1887.4999999999988
 40
35
 41
0.8571428571428568
 50
0
  1
ＵＷ
  0
TEXT
  8
_0-d_
 62
    7
 10
3830.24212042632
 20
1887.4999999999988
 40
35
 41
0.8571428571428568
 50
0
  1
ｳﾙﾄﾗﾎﾜｲﾄ（艶有）
  0
TEXT
  8
_0-d_
 62
    7
 10
3720.7036754285845
 20
1828.0893268157794
 40
35
 41
0.8571428571428568
 50
0
  1
ＷＮ
  0
TEXT
  8
_0-d_
 62
    7
 10
3830.24212042632
 20
1827.4999999999988
 40
35
 41
0.8571428571428568
 50
0
  1
ｳｨﾝｻﾞｰﾅｯﾄ（艶有）
  0
LINE
  8
_0-d_
  6
CONTINUOUS
 62
    3
 10
4115
 20
2129.9999999999995
 11
4115
 21
1634.9999999999986
  0
LINE
  8
_0-d_
  6
CONTINUOUS
 62
    7
 10
3800.2421204263214
 20
2059.9999999999995
 11
3800.2421204263214
 21
1939.9999999999988
  0
TEXT
  8
_0-d_
 62
    7
 10
3720.7036754285845
 20
1768.0893268157792
 40
35
 41
0.8571428571428568
 50
0
  1
ＢＳ
  0
TEXT
  8
_0-d_
 62
    7
 10
3830.341114331356
 20
1768.0893268157792
 40
35
 41
0.8571428571428568
 50
0
  1
ブラックストーン
  0
LINE
  8
_0-d_
  6
CONTINUOUS
 62
    3
 10
3700.2421204263214
 20
2129.9999999999995
 11
3700.2421204263214
 21
1634.9999999999986
  0
LINE
  8
_0-d_
  6
CONTINUOUS
 62
    7
 10
3800.2421204263214
 20
1934.9999999999988
 11
3800.2421204263214
 21
1634.9999999999986
  0
TEXT
  8
_0-d_
 62
    7
 10
3720.7036754285845
 20
1708.0893268157792
 40
35
 41
0.8571428571428568
 50
0
  1
ＰＭ
  0
TEXT
  8
_0-d_
 62
    7
 10
3830.3411143313564
 20
1708.0893268157792
 40
35
 41
0.8571428571428568
 50
0
  1
ペールグレイン
  0
TEXT
  8
_0-d_
 62
    7
 10
3720.7036754285845
 20
1648.0893268157792
 40
35
 41
0.8571428571428568
 50
0
  1
ＭＤ
  0
TEXT
  8
_0-d_
 62
    7
 10
3830.3411143313564
 20
1648.0893268157792
 40
35
 41
0.8571428571428568
 50
0
  1
ダークグレイン
  0
LINE
  8
_0-d_
  6
CONTINUOUS
 62
    3
 10
4115
 20
2129.9999999999995
 11
3700.2421204263214
 21
2129.9999999999995
  0
LINE
  8
_0-d_
  6
CONTINUOUS
 62
    3
 10
4115
 20
1634.9999999999986
 11
3700.2421204263214
 21
1634.9999999999986
  0
LINE
  8
_0-d_
  6
CONTINUOUS
 62
    7
 10
3700.2421204263214
 20
1999.9999999999995
 11
4115
 21
1999.9999999999995
  0
LINE
  8
_0-d_
  6
CONTINUOUS
 62
    7
 10
4115
 20
1999.9999999999995
 11
3700.2421204263214
 21
1999.9999999999995
  0
LINE
  8
_0-d_
  6
CONTINUOUS
 62
    3
 10
4115
 20
1999.9999999999995
 11
3700.2421204263214
 21
1999.9999999999995
  0
LINE
  8
_0-d_
  6
CONTINUOUS
 62
    3
 10
4115
 20
1939.9999999999988
 11
3700.2421204263214
 21
1939.9999999999988
  0
LINE
  8
_0-d_
  6
CONTINUOUS
 62
    7
 10
4115
 20
1874.9999999999988
 11
3700.2421204263214
 21
1874.9999999999988
  0
LINE
  8
_0-d_
  6
CONTINUOUS
 62
    3
 10
4115
 20
1874.9999999999988
 11
3700.2421204263214
 21
1874.9999999999988
  0
LINE
  8
_0-d_
  6
CONTINUOUS
 62
    3
 10
4115
 20
1814.9999999999988
 11
3700.2421204263214
 21
1814.9999999999988
  0
LINE
  8
_0-d_
  6
CONTINUOUS
 62
    7
 10
3700.2421204263214
 20
1874.9999999999988
 11
4115
 21
1874.9999999999988
  0
LINE
  8
_0-d_
  6
CONTINUOUS
 62
    7
 10
4115
 20
1939.9999999999988
 11
3700.2421204263214
 21
1939.9999999999988
  0
LINE
  8
_0-d_
  6
CONTINUOUS
 62
    7
 10
4115
 20
1934.9999999999988
 11
3700.2421204263214
 21
1934.9999999999988
  0
LINE
  8
_0-d_
  6
CONTINUOUS
 62
    7
 10
4115
 20
1814.9999999999988
 11
3700.2421204263214
 21
1814.9999999999988
  0
LINE
  8
_0-d_
  6
CONTINUOUS
 62
    3
 10
4115
 20
1814.9999999999988
 11
3700.2421204263214
 21
1814.9999999999988
  0
LINE
  8
_0-d_
  6
CONTINUOUS
 62
    3
 10
4115
 20
1754.9999999999986
 11
3700.2421204263214
 21
1754.9999999999986
  0
LINE
  8
_0-d_
  6
CONTINUOUS
 62
    7
 10
3700.2421204263214
 20
1814.9999999999988
 11
4115
 21
1814.9999999999988
  0
LINE
  8
_0-d_
  6
CONTINUOUS
 62
    7
 10
4115
 20
1754.9999999999986
 11
3700.2421204263214
 21
1754.9999999999986
  0
LINE
  8
_0-d_
  6
CONTINUOUS
 62
    3
 10
4115
 20
1754.9999999999986
 11
3700.2421204263214
 21
1754.9999999999986
  0
LINE
  8
_0-d_
  6
CONTINUOUS
 62
    3
 10
4115
 20
1694.9999999999986
 11
3700.2421204263214
 21
1694.9999999999986
  0
LINE
  8
_0-d_
  6
CONTINUOUS
 62
    7
 10
3700.2421204263214
 20
1754.9999999999986
 11
4115
 21
1754.9999999999986
  0
LINE
  8
_0-d_
  6
CONTINUOUS
 62
    7
 10
4115
 20
1694.9999999999986
 11
3700.2421204263214
 21
1694.9999999999986
  0
LINE
  8
_0-d_
  6
CONTINUOUS
 62
    3
 10
4115
 20
1694.9999999999986
 11
3700.2421204263214
 21
1694.9999999999986
  0
LINE
  8
_0-d_
  6
CONTINUOUS
 62
    7
 10
3700.2421204263214
 20
1694.9999999999986
 11
4115
 21
1694.9999999999986
  0
LINE
  8
_0-d_
  6
CONTINUOUS
 62
    7
 10
4115
 20
2059.9999999999995
 11
3700.2421204263214
 21
2059.9999999999995
  0
LINE
  8
_0-d_
  6
CONTINUOUS
 62
    7
 10
4115
 20
2064.9999999999995
 11
3700.2421204263214
 21
2064.9999999999995
  0
LINE
  8
_0-3_
  6
DASHED1
 62
    2
 10
1088.0150000000003
 20
772
 11
1088.0150000000003
 21
1192.0000000000002
  0
LINE
  8
_0-3_
  6
DASHED1
 62
    2
 10
1113.0150000000003
 20
772
 11
1113.0150000000003
 21
1192.0000000000002
  0
LINE
  8
_0-3_
  6
DASHED1
 62
    2
 10
315.01499999999992
 20
772
 11
1485.0150000000003
 21
772
  0
LINE
  8
_0-9_
  6
CONTINUOUS
 62
    4
 10
1680.0149999999998
 20
757
 11
1530.0149999999998
 21
757
  0
POINT
  8
_0-9_
 62
    3
 10
1670.0149999999998
 20
757
  0
LINE
  8
_0-4_
  6
CONTINUOUS
 62
    3
 10
1102.0149999999998
 20
1202
 11
1102.0149999999998
 21
750.00000000000011
  0
LINE
  8
_0-4_
  6
CONTINUOUS
 62
    3
 10
698.01500000000032
 20
1202
 11
698.01500000000032
 21
750.00000000000011
  0
LINE
  8
_0-4_
  6
CONTINUOUS
 62
    3
 10
699.01500000000055
 20
1202
 11
699.01500000000055
 21
750.00000000000011
  0
LINE
  8
_0-3_
  6
DASHED1
 62
    2
 10
315.01499999999992
 20
1207
 11
315.01499999999992
 21
757
  0
LINE
  8
_0-9_
  6
CONTINUOUS
 62
    4
 10
300.01499999999992
 20
1447
 11
300.01499999999992
 21
1237
  0
POINT
  8
_0-9_
 62
    3
 10
300.01499999999992
 20
1437
  0
LINE
  8
_0-3_
  6
CONTINUOUS
 62
    5
 10
300.01499999999992
 20
1207
 11
300.01499999999992
 21
757
  0
LINE
  8
_0-3_
  6
DASHED1
 62
    2
 10
1485.0150000000003
 20
1207
 11
1485.0150000000003
 21
757
  0
LINE
  8
_0-9_
  6
CONTINUOUS
 62
    4
 10
1500.0149999999998
 20
1447
 11
1500.0149999999998
 21
1237
  0
POINT
  8
_0-9_
 62
    3
 10
1500.0149999999998
 20
1437
  0
LINE
  8
_0-3_
  6
CONTINUOUS
 62
    5
 10
1500.0149999999998
 20
1207
 11
1500.0149999999998
 21
757
  0
LINE
  8
_0-9_
  6
CONTINUOUS
 62
    4
 10
300.01499999999992
 20
1437
 11
1500.0149999999998
 21
1437
  0
TEXT
  8
_0-9_
 62
    7
 10
844.81500000000005
 20
1437
 40
35
 41
0.6285714285714286
 50
0
  1
１，２００
  0
LINE
  8
_0-3_
  6
CONTINUOUS
 62
    5
 10
300.01499999999992
 20
1207
 11
1500.0149999999998
 21
1207
  0
TEXT
  8
_0-8_
 62
    7
 10
854.9149999999995
 20
374.5
 40
35
 41
0.8571428571428568
 50
0
  1
立面図
  0
LINE
  8
_0-8_
  6
CONTINUOUS
 62
    4
 10
775.01499999999987
 20
427
 11
775.01499999999987
 21
357
  0
LINE
  8
_0-8_
  6
CONTINUOUS
 62
    4
 10
775.01499999999987
 20
357
 11
1025.0149999999998
 21
357
  0
LINE
  8
_0-8_
  6
CONTINUOUS
 62
    4
 10
1025.0149999999998
 20
427
 11
1025.0149999999998
 21
357
  0
LINE
  8
_0-8_
  6
CONTINUOUS
 62
    4
 10
775.01499999999987
 20
427
 11
1025.0149999999998
 21
427
  0
POINT
  8
_0-9_
 62
    3
 10
3980.0149999999994
 20
1437
  0
LINE
  8
_0-9_
  6
CONTINUOUS
 62
    4
 10
3980.0149999999994
 20
1447
 11
3980.0149999999994
 21
1237
  0
POINT
  8
_0-9_
 62
    3
 10
2780.0149999999994
 20
1437
  0
LINE
  8
_0-9_
  6
CONTINUOUS
 62
    4
 10
2780.0149999999994
 20
1447
 11
2780.0149999999994
 21
1237
  0
LINE
  8
_0-9_
  6
CONTINUOUS
 62
    4
 10
2780.0149999999994
 20
1437
 11
3980.0149999999994
 21
1437
  0
TEXT
  8
_0-9_
 62
    7
 10
3324.8149999999995
 20
1437
 40
35
 41
0.6285714285714286
 50
0
  1
１，２００
  0
LINE
  8
_0-9_
  6
CONTINUOUS
 62
    4
 10
1670.0149999999998
 20
757
 11
1670.0149999999998
 21
1207
  0
TEXT
  8
_0-9_
 62
    7
 10
1668.0149999999994
 20
948.89999999999997
 40
35
 41
0.6285714285714286
 50
90
  1
４５０
  0
POINT
  8
_0-9_
 62
    3
 10
1670.0149999999998
 20
1207
  0
LINE
  8
_0-9_
  6
CONTINUOUS
 62
    4
 10
1670.0149999999998
 20
1207
 11
1530.0149999999998
 21
1207
  0
LINE
  8
_0-9_
  6
CONTINUOUS
 62
    4
 10
2488.0149999999998
 20
757
 11
2338.0149999999998
 21
757
  0
POINT
  8
_0-9_
 62
    3
 10
2478.0149999999998
 20
757
  0
LINE
  8
_0-9_
  6
CONTINUOUS
 62
    4
 10
2308.0149999999998
 20
1437
 11
2308.0149999999998
 21
1237
  0
POINT
  8
_0-9_
 62
    3
 10
2308.0149999999998
 20
1437
  0
LINE
  8
_0-9_
  6
CONTINUOUS
 62
    4
 10
2488.0149999999998
 20
1207
 11
2338.0149999999998
 21
1207
  0
POINT
  8
_0-9_
 62
    3
 10
2478.0149999999998
 20
1207
  0
LINE
  8
_0-8_
  6
CONTINUOUS
 62
    4
 10
2004.0149999999998
 20
427
 11
2254.0149999999998
 21
427
  0
LINE
  8
_0-8_
  6
CONTINUOUS
 62
    4
 10
2254.0149999999998
 20
427
 11
2254.0149999999998
 21
357
  0
LINE
  8
_0-8_
  6
CONTINUOUS
 62
    4
 10
2004.0149999999998
 20
357
 11
2254.0149999999998
 21
357
  0
LINE
  8
_0-8_
  6
CONTINUOUS
 62
    4
 10
2004.0149999999998
 20
427
 11
2004.0149999999998
 21
357
  0
TEXT
  8
_0-8_
 62
    7
 10
2083.9149999999999
 20
374.5
 40
35
 41
0.8571428571428568
 50
0
  1
断面図
  0
LINE
  8
_0-8_
  6
CONTINUOUS
 62
    4
 10
3255.0149999999994
 20
427
 11
3505.0149999999994
 21
427
  0
LINE
  8
_0-8_
  6
CONTINUOUS
 62
    4
 10
3505.0149999999994
 20
427
 11
3505.0149999999994
 21
357
  0
LINE
  8
_0-8_
  6
CONTINUOUS
 62
    4
 10
3255.0149999999994
 20
357
 11
3505.0149999999994
 21
357
  0
LINE
  8
_0-8_
  6
CONTINUOUS
 62
    4
 10
3255.0149999999994
 20
427
 11
3255.0149999999994
 21
357
  0
TEXT
  8
_0-8_
 62
    7
 10
3334.9150000000008
 20
374.5
 40
35
 41
0.8571428571428568
 50
0
  1
背面図
  0
POINT
  8
_0-9_
 62
    3
 10
2792.0149999999994
 20
527
  0
LINE
  8
_0-9_
  6
CONTINUOUS
 62
    4
 10
2792.0149999999994
 20
517
 11
2792.0149999999994
 21
727
  0
POINT
  8
_0-9_
 62
    3
 10
3968.0149999999998
 20
527
  0
LINE
  8
_0-9_
  6
CONTINUOUS
 62
    4
 10
3968.0149999999998
 20
517
 11
3968.0149999999998
 21
727
  0
POINT
  8
_0-9_
 62
    3
 10
2792.0149999999994
 20
527
  0
POINT
  8
_0-9_
 62
    3
 10
3968.0149999999998
 20
527
  0
LINE
  8
_0-9_
  6
CONTINUOUS
 62
    4
 10
2792.0149999999994
 20
517
 11
2792.0149999999994
 21
727
  0
LINE
  8
_0-9_
  6
CONTINUOUS
 62
    4
 10
3968.0149999999998
 20
517
 11
3968.0149999999998
 21
727
  0
LINE
  8
_0-9_
  6
CONTINUOUS
 62
    4
 10
2792.0149999999994
 20
527
 11
3968.0149999999998
 21
527
  0
TEXT
  8
_0-9_
 62
    7
 10
3324.8149999999995
 20
527
 40
35
 41
0.6285714285714286
 50
0
  1
１，１７６
  0
LINE
  8
_0-4_
  6
CONTINUOUS
 62
    3
 10
698.01500000000032
 20
749
 11
698.01500000000032
 21
742.00000000000022
  0
LINE
  8
_0-4_
  6
CONTINUOUS
 62
    3
 10
699.01500000000055
 20
749
 11
699.01500000000055
 21
742.00000000000022
  0
LINE
  8
_0-4_
  6
CONTINUOUS
 62
    3
 10
1102.0149999999998
 20
749
 11
1102.0149999999998
 21
742.00000000000022
  0
LINE
  8
_0-4_
  6
CONTINUOUS
 62
    3
 10
698.01500000000032
 20
750.00000000000011
 11
698.01500000000032
 21
749
  0
LINE
  8
_0-4_
  6
CONTINUOUS
 62
    3
 10
699.01500000000055
 20
750.00000000000011
 11
699.01500000000055
 21
749
  0
LINE
  8
_0-4_
  6
CONTINUOUS
 62
    3
 10
1102.0149999999998
 20
750.00000000000011
 11
1102.0149999999998
 21
749
  0
POINT
  8
_0-9_
 62
    3
 10
1670.0149999999998
 20
757
  0
LINE
  8
_0-9_
  6
CONTINUOUS
 62
    4
 10
1950.0149999999998
 20
1437
 11
1950.0149999999998
 21
1237
  0
POINT
  8
_0-9_
 62
    3
 10
1950.0149999999998
 20
1437
  0
POINT
  8
_0-9_
 62
    3
 10
1950.0149999999998
 20
1437
  0
POINT
  8
_0-9_
 62
    3
 10
2308.0149999999998
 20
1437
  0
LINE
  8
_0-9_
  6
CONTINUOUS
 62
    4
 10
1950.0149999999998
 20
1437
 11
2308.0149999999998
 21
1437
  0
TEXT
  8
_0-9_
 62
    7
 10
2095.9149999999999
 20
1437
 40
35
 41
0.6285714285714286
 50
0
  1
３５８
  0
LINE
  8
_0-9_
  6
CONTINUOUS
 62
    4
 10
1680.0149999999998
 20
742
 11
1530.0149999999998
 21
742
  0
LINE
  8
_0-9_
  6
CONTINUOUS
 62
    4
 10
1670.0149999999998
 20
742
 11
1670.0149999999998
 21
689.28110599078331
  0
TEXT
  8
_0-9_
 62
    7
 10
1665.8986175115207
 20
693.49838709677419
 40
35
 41
0.6285714285714286
 50
90
  1
１５
  0
LINE
  8
_0-9_
  6
CONTINUOUS
 62
    4
 10
1670.0149999999998
 20
757
 11
1670.0149999999998
 21
742
  0
POINT
  8
_0-9_
 62
    3
 10
1670.0149999999998
 20
742
  0
POINT
  8
_0-9_
 62
    4
 10
2398.0149999999998
 20
757
  0
POINT
  8
_0-9_
 62
    3
 10
2398.0149999999998
 20
982.00000000000022
  0
POINT
  8
_0-9_
 62
    3
 10
2398.0149999999998
 20
757
  0
LINE
  8
_0-4_
  6
CONTINUOUS
 62
    3
 10
1950.0149999999998
 20
1202
 11
1962.0150000000001
 21
1202
  0
POINT
  8
_0-9_
 62
    4
 10
2398.0149999999998
 20
757
  0
LINE
  8
_0-9_
  6
CONTINUOUS
 62
    4
 10
2408.0149999999998
 20
757
 11
2338.0149999999998
 21
757
  0
LINE
  8
_0-9_
  6
CONTINUOUS
 62
    4
 10
2408.0149999999998
 20
922
 11
2338.0149999999998
 21
922
  0
POINT
  8
_0-9_
 62
    4
 10
2398.0149999999998
 20
982.00000000000022
  0
LINE
  8
_0-9_
  6
CONTINUOUS
 62
    4
 10
2408.0149999999998
 20
982.00000000000022
 11
2338.0149999999998
 21
982.00000000000022
  0
LINE
  8
_0-9_
  6
CONTINUOUS
 62
    4
 10
2408.0149999999998
 20
1042
 11
2338.0149999999998
 21
1042
  0
LINE
  8
_0-9_
  6
CONTINUOUS
 62
    4
 10
2398.0149999999998
 20
982.00000000000022
 11
2398.0149999999998
 21
1042
  0
TEXT
  8
_0-9_
 62
    7
 10
2393.0149999999998
 20
989.95000000000004
 40
35
 41
0.6285714285714286
 50
90
  1
６０
  0
LINE
  8
_0-9_
  6
CONTINUOUS
 62
    4
 10
2398.0149999999998
 20
922
 11
2398.0149999999998
 21
982.00000000000022
  0
TEXT
  8
_0-9_
 62
    7
 10
2393.0149999999998
 20
929.95000000000004
 40
35
 41
0.6285714285714286
 50
90
  1
６０
  0
LINE
  8
_0-9_
  6
CONTINUOUS
 62
    4
 10
2398.0149999999998
 20
757
 11
2398.0149999999998
 21
922
  0
TEXT
  8
_0-9_
 62
    7
 10
2393.0149999999998
 20
806.39999999999997
 40
35
 41
0.6285714285714286
 50
90
  1
１６５
  0
LINE
  8
_0-9_
  6
CONTINUOUS
 62
    4
 10
2478.0149999999998
 20
757
 11
2478.0149999999998
 21
1207
  0
TEXT
  8
_0-9_
 62
    7
 10
2478.0149999999998
 20
948.89999999999997
 40
35
 41
0.6285714285714286
 50
90
  1
４５０
  0
LINE
  8
_0-4_
  6
CONTINUOUS
 62
    3
 10
304.01500000000027
 20
749
 11
304.01500000000027
 21
742.00000000000022
  0
LINE
  8
_0-4_
  6
CONTINUOUS
 62
    3
 10
304.01500000000027
 20
750.00000000000011
 11
304.01500000000027
 21
749
  0
LINE
  8
_0-4_
  6
CONTINUOUS
 62
    3
 10
1093.0150000000001
 20
750.00000000000011
 11
1093.0150000000001
 21
749
  0
LINE
  8
_0-4_
  6
CONTINUOUS
 62
    3
 10
1496.0150000000003
 20
749
 11
1496.0150000000003
 21
742.00000000000022
  0
LINE
  8
_0-4_
  6
CONTINUOUS
 62
    3
 10
1496.0150000000003
 20
750.00000000000011
 11
1496.0150000000003
 21
749
  0
LINE
  8
_0-4_
  6
CONTINUOUS
 62
    3
 10
1102.0149999999998
 20
1202
 11
1496.0150000000003
 21
1202
  0
LINE
  8
_0-4_
  6
CONTINUOUS
 62
    3
 10
1496.0150000000003
 20
1202
 11
1496.0150000000003
 21
750.00000000000011
  0
LINE
  8
_0-4_
  6
CONTINUOUS
 62
    3
 10
699.01500000000055
 20
1202
 11
1093.0150000000001
 21
1202
  0
LINE
  8
_0-4_
  6
CONTINUOUS
 62
    3
 10
1093.0150000000001
 20
1202
 11
1093.0150000000001
 21
750.00000000000011
  0
LINE
  8
_0-4_
  6
CONTINUOUS
 62
    3
 10
1093.0150000000001
 20
749
 11
1093.0150000000001
 21
742.00000000000022
  0
LINE
  8
_0-4_
  6
CONTINUOUS
 62
    3
 10
304.01500000000027
 20
1202
 11
698.01500000000032
 21
1202
  0
LINE
  8
_0-4_
  6
CONTINUOUS
 62
    3
 10
304.01500000000027
 20
1202
 11
304.01500000000027
 21
750.00000000000011
  0
POINT
  8
_0-9_
 62
    3
 10
304.01500000000027
 20
527
  0
POINT
  8
_0-9_
 62
    3
 10
698.01500000000032
 20
527
  0
LINE
  8
_0-9_
  6
CONTINUOUS
 62
    4
 10
304.01500000000027
 20
517
 11
304.01500000000027
 21
727
  0
LINE
  8
_0-9_
  6
CONTINUOUS
 62
    4
 10
698.01500000000032
 20
517
 11
698.01500000000032
 21
727
  0
LINE
  8
_0-9_
  6
CONTINUOUS
 62
    4
 10
304.01500000000027
 20
527
 11
698.01500000000032
 21
527
  0
TEXT
  8
_0-9_
 62
    7
 10
467.91500000000041
 20
532
 40
35
 41
0.6285714285714286
 50
0
  1
３９４
  0
POINT
  8
_0-9_
 62
    3
 10
699.01500000000055
 20
527
  0
POINT
  8
_0-9_
 62
    3
 10
1093.0150000000001
 20
527
  0
LINE
  8
_0-9_
  6
CONTINUOUS
 62
    4
 10
699.01500000000055
 20
517
 11
699.01500000000055
 21
727
  0
LINE
  8
_0-9_
  6
CONTINUOUS
 62
    4
 10
1093.0150000000001
 20
517
 11
1093.0150000000001
 21
727
  0
LINE
  8
_0-9_
  6
CONTINUOUS
 62
    4
 10
699.01500000000055
 20
527
 11
1093.0150000000001
 21
527
  0
TEXT
  8
_0-9_
 62
    7
 10
862.91500000000041
 20
532
 40
35
 41
0.6285714285714286
 50
0
  1
３９４
  0
POINT
  8
_0-9_
 62
    3
 10
1102.0149999999996
 20
527
  0
POINT
  8
_0-9_
 62
    3
 10
1496.0150000000003
 20
527
  0
LINE
  8
_0-9_
  6
CONTINUOUS
 62
    4
 10
1102.0149999999996
 20
517
 11
1102.0149999999996
 21
727
  0
LINE
  8
_0-9_
  6
CONTINUOUS
 62
    4
 10
1496.0150000000003
 20
517
 11
1496.0150000000003
 21
727
  0
LINE
  8
_0-9_
  6
CONTINUOUS
 62
    4
 10
1102.0149999999996
 20
527
 11
1496.0150000000003
 21
527
  0
TEXT
  8
_0-9_
 62
    7
 10
1265.9149999999999
 20
532
 40
35
 41
0.6285714285714286
 50
0
  1
３９４
  0
LINE
  8
_0-4_
  6
CENTER2
 62
    4
 10
698.01500000000032
 20
1202
 11
304.01500000000027
 21
976.00000000000011
  0
LINE
  8
_0-4_
  6
CENTER2
 62
    4
 10
304.01500000000027
 20
976.00000000000011
 11
698.01500000000032
 21
742.00000000000022
  0
LINE
  8
_0-4_
  6
CENTER2
 62
    4
 10
699.01500000000055
 20
742.00000000000022
 11
1093.0150000000001
 21
976.00000000000011
  0
LINE
  8
_0-4_
  6
CENTER2
 62
    4
 10
1093.0150000000001
 20
976.00000000000011
 11
699.01500000000055
 21
1202
  0
LINE
  8
_0-4_
  6
CENTER2
 62
    4
 10
1102.0149999999998
 20
1202
 11
1496.0150000000003
 21
976.00000000000011
  0
LINE
  8
_0-4_
  6
CENTER2
 62
    4
 10
1496.0150000000003
 20
976.00000000000011
 11
1102.0149999999998
 21
742.00000000000022
  0
LINE
  8
_0-3_
  6
CONTINUOUS
 62
    5
 10
2780.0149999999994
 20
1207
 11
2780.0149999999994
 21
757
  0
LINE
  8
_0-3_
  6
CONTINUOUS
 62
    5
 10
2792.0150000000003
 20
1207
 11
2792.0150000000003
 21
757
  0
LINE
  8
_0-3_
  6
CONTINUOUS
 62
    5
 10
3980.0149999999994
 20
1207
 11
3980.0149999999994
 21
757
  0
LINE
  8
_0-3_
  6
CONTINUOUS
 62
    5
 10
3968.0149999999994
 20
1207
 11
3968.0149999999994
 21
757
  0
LINE
  8
_0-3_
  6
CONTINUOUS
 62
    5
 10
2780.0149999999994
 20
1207
 11
3980.0149999999994
 21
1207
  0
LINE
  8
_0-3_
  6
CONTINUOUS
 62
    2
 10
2792.0150000000003
 20
1122
 11
3968.0149999999994
 21
1122
  0
LINE
  8
_0-3_
  6
CONTINUOUS
 62
    2
 10
2792.0150000000003
 20
809.00000000000022
 11
3968.0149999999994
 21
809.00000000000022
  0
LINE
  8
_0-3_
  6
CONTINUOUS
 62
    4
 10
2792.0150000000003
 20
763.99999999999988
 11
3968.0149999999994
 21
763.99999999999988
  0
LINE
  8
_0-3_
  6
CONTINUOUS
 62
    5
 10
2780.0149999999994
 20
757
 11
3980.0149999999994
 21
757
  0
ARC
  8
_0-5_
  6
CONTINUOUS
 62
    4
 10
1961.6149999999993
 20
744
 40
1.9999999999999995
 50
269.99999999999994
 51
359.99999999999994
  0
ARC
  8
_0-5_
  6
CONTINUOUS
 62
    4
 10
1961.6149999999993
 20
744
 40
0.6999999999999997
 50
270
 51
0
  0
LINE
  8
_0-5_
  6
CONTINUOUS
 62
    4
 10
1963.6149999999997
 20
786.00000000000022
 11
1963.6149999999997
 21
744
  0
ARC
  8
_0-5_
  6
CONTINUOUS
 62
    4
 10
1963.1149999999997
 20
786.00000000000022
 40
0.4999999999999997
 50
0
 51
90
  0
ARC
  8
_0-5_
  6
CONTINUOUS
 62
    4
 10
1962.815
 20
785.70000000000004
 40
0.8000000000000001
 50
89.999999999999971
 51
231.31781254650667
  0
LINE
  8
_0-5_
  6
CONTINUOUS
 62
    4
 10
1963.1149999999997
 20
786.5
 11
1962.815
 21
786.5
  0
LINE
  8
_0-5_
  6
CONTINUOUS
 62
    4
 10
1962.3150000000005
 20
777.72449979983991
 11
1962.3150000000005
 21
785.07550020016037
  0
ARC
  8
_0-5_
  6
CONTINUOUS
 62
    4
 10
1962.815
 20
777.0999999999999
 40
0.8000000000000001
 50
128.68218745349335
 51
231.31781254650667
  0
LINE
  8
_0-5_
  6
CONTINUOUS
 62
    4
 10
1962.3150000000005
 20
772.30000000000006
 11
1962.3150000000005
 21
776.47550020016024
  0
ARC
  8
_0-5_
  6
CONTINUOUS
 62
    4
 10
1962.0150000000001
 20
772.30000000000006
 40
0.2999999999999998
 50
270
 51
0
  0
LINE
  8
_0-5_
  6
CONTINUOUS
 62
    4
 10
1962.3150000000005
 20
768.55038733822527
 11
1962.3150000000005
 21
744
  0
ARC
  8
_0-5_
  6
CONTINUOUS
 62
    4
 10
1961.3149999999995
 20
768.55038733822527
 40
0.9999999999999995
 50
359.99999999999994
 51
87.03906386583624
  0
ARC
  8
_0-5_
  6
CONTINUOUS
 62
    4
 10
1948.5149999999998
 20
777.19999999999981
 40
0.8000000000000001
 50
0.0000000000000254
 51
179.99999999999997
  0
LINE
  8
_0-5_
  6
CONTINUOUS
 62
    4
 10
1950.8435714285719
 20
742
 11
1961.6149999999993
 21
742
  0
ARC
  8
_0-5_
  6
CONTINUOUS
 62
    4
 10
1950.8435714285719
 20
744
 40
1.9999999999999995
 50
198.92464441605042
 51
270
  0
ARC
  8
_0-5_
  6
CONTINUOUS
 62
    4
 10
1950.8435714285719
 20
744
 40
0.6999999999999997
 50
198.92464441604994
 51
270
  0
LINE
  8
_0-5_
  6
CONTINUOUS
 62
    4
 10
1961.6149999999993
 20
743.29999999999995
 11
1950.8435714285719
 21
743.29999999999995
  0
LINE
  8
_0-5_
  6
CONTINUOUS
 62
    4
 10
1950.1814092664085
 20
743.77297297297286
 11
1949.0525798523663
 21
747.06539209726429
  0
ARC
  8
_0-5_
  6
CONTINUOUS
 62
    4
 10
1949.241769041555
 20
747.13025696212889
 40
0.2
 50
133.54896276822287
 51
198.92464441605298
  0
ARC
  8
_0-5_
  6
CONTINUOUS
 62
    4
 10
1948.4149999999999
 20
747.99999999999977
 40
0.9999999999999995
 50
313.54896276821995
 51
198.92464441604971
  0
LINE
  8
_0-5_
  6
CONTINUOUS
 62
    4
 10
1948.9516795366796
 20
743.35135135135146
 11
1947.4690540540541
 21
747.67567567567562
  0
LINE
  8
_0-5_
  6
CONTINUOUS
 62
    4
 10
1949.3149999999991
 20
772.30000000000006
 11
1949.3149999999991
 21
777.19999999999981
  0
ARC
  8
_0-5_
  6
CONTINUOUS
 62
    4
 10
1949.615
 20
772.30000000000006
 40
0.2999999999999998
 50
179.99999999999997
 51
270
  0
LINE
  8
_0-5_
  6
CONTINUOUS
 62
    4
 10
1962.0150000000001
 20
772
 11
1949.615
 21
772
  0
LINE
  8
_0-5_
  6
CONTINUOUS
 62
    4
 10
1947.7150000000001
 20
771.34961266177458
 11
1947.7150000000001
 21
777.19999999999981
  0
ARC
  8
_0-5_
  6
CONTINUOUS
 62
    4
 10
1948.7149999999996
 20
771.34961266177458
 40
0.9999999999999995
 50
180
 51
267.03906386583628
  0
LINE
  8
_0-5_
  6
CONTINUOUS
 62
    4
 10
1961.3666550854277
 20
769.54905232316741
 11
1948.663344914571
 21
770.35094767683244
  0
ARC
  8
_0-5_
  6
CONTINUOUS
 62
    4
 10
1105.0149999999998
 20
746
 40
3.0000000000000004
 50
90
 51
180
  0
ARC
  8
_0-5_
  6
CONTINUOUS
 62
    4
 10
702.01499999999953
 20
746
 40
3.0000000000000004
 50
90
 51
180
  0
ARC
  8
_0-5_
  6
CONTINUOUS
 62
    4
 10
695.01500000000021
 20
746
 40
3.0000000000000004
 50
0
 51
90
  0
LINE
  8
_0-5_
  6
CONTINUOUS
 62
    4
 10
1496.0150000000003
 20
777.99999999999977
 11
1102.0149999999996
 21
777.99999999999977
  0
LINE
  8
_0-5_
  6
CONTINUOUS
 62
    4
 10
1496.0150000000003
 20
770.39999999999713
 11
1102.0149999999996
 21
770.39999999999713
  0
ARC
  8
_0-5_
  6
CONTINUOUS
 62
    4
 10
1493.0150000000003
 20
746
 40
3.0000000000000004
 50
0
 51
90
  0
LINE
  8
_0-5_
  6
CONTINUOUS
 62
    4
 10
1105.0149999999998
 20
749
 11
1493.0150000000003
 21
749
  0
LINE
  8
_0-5_
  6
CONTINUOUS
 62
    4
 10
1093.0150000000001
 20
777.99999999999977
 11
699.01499999999941
 21
777.99999999999977
  0
LINE
  8
_0-5_
  6
CONTINUOUS
 62
    4
 10
1093.0150000000001
 20
770.39999999999713
 11
699.01499999999941
 21
770.39999999999713
  0
ARC
  8
_0-5_
  6
CONTINUOUS
 62
    4
 10
1090.0150000000003
 20
746
 40
3.0000000000000004
 50
0
 51
90
  0
LINE
  8
_0-5_
  6
CONTINUOUS
 62
    4
 10
702.01499999999953
 20
749
 11
1090.0150000000003
 21
749
  0
LINE
  8
_0-5_
  6
CONTINUOUS
 62
    4
 10
698.01500000000032
 20
777.99999999999977
 11
304.01500000000027
 21
777.99999999999977
  0
LINE
  8
_0-5_
  6
CONTINUOUS
 62
    4
 10
698.01500000000032
 20
770.39999999999713
 11
304.01500000000027
 21
770.39999999999713
  0
ARC
  8
_0-5_
  6
CONTINUOUS
 62
    4
 10
307.01500000000038
 20
746
 40
3.0000000000000004
 50
90
 51
180
  0
LINE
  8
_0-5_
  6
CONTINUOUS
 62
    4
 10
307.01500000000038
 20
749
 11
695.01500000000021
 21
749
  0
LINE
  8
_0-5_
  6
CONTINUOUS
 62
    4
 10
1496.0150000000003
 20
742.00000000000022
 11
1102.0149999999998
 21
742.00000000000022
  0
LINE
  8
_0-5_
  6
CONTINUOUS
 62
    4
 10
1093.0150000000001
 20
742.00000000000022
 11
699.01500000000055
 21
742.00000000000022
  0
LINE
  8
_0-5_
  6
CONTINUOUS
 62
    4
 10
698.01500000000032
 20
742.00000000000022
 11
304.01500000000027
 21
742.00000000000022
  0
LINE
  8
_0-4_
  6
CONTINUOUS
 62
    3
 10
1950.0149999999998
 20
772
 11
1950.0149999999998
 21
1202.0000000000002
  0
LINE
  8
_0-4_
  6
CONTINUOUS
 62
    3
 10
1962.0150000000001
 20
772.30000000000006
 11
1962.0150000000001
 21
1202.0000000000002
  0
LINE
  8
_0-a_
  6
CONTINUOUS
 62
    4
 10
3958.1832585697861
 20
1121.9999999999977
 11
3968.0150000000012
 21
1131.8317414302127
  0
LINE
  8
_0-a_
  6
CONTINUOUS
 62
    4
 10
3929.8989873223408
 20
1122.0000000000011
 11
3968.0149999999985
 21
1160.1160126776587
  0
LINE
  8
_0-a_
  6
CONTINUOUS
 62
    4
 10
3901.6147160748769
 20
1122.0000000000036
 11
3968.0149999999966
 21
1188.4002839251236
  0
LINE
  8
_0-a_
  6
CONTINUOUS
 62
    4
 10
3873.330444827412
 20
1122.0000000000056
 11
3958.3304448274107
 21
1207.000000000004
  0
LINE
  8
_0-a_
  6
CONTINUOUS
 62
    4
 10
3845.0461735799381
 20
1121.9999999999979
 11
3930.0461735799408
 21
1207.0000000000011
  0
LINE
  8
_0-a_
  6
CONTINUOUS
 62
    4
 10
3816.7619023324923
 20
1122.0000000000011
 11
3901.7619023324909
 21
1206.9999999999995
  0
LINE
  8
_0-a_
  6
CONTINUOUS
 62
    4
 10
3788.4776310850284
 20
1122.0000000000036
 11
3873.477631085027
 21
1207.0000000000018
  0
LINE
  8
_0-a_
  6
CONTINUOUS
 62
    4
 10
3760.1933598375599
 20
1122.0000000000015
 11
3845.1933598375576
 21
1206.9999999999995
  0
LINE
  8
_0-a_
  6
CONTINUOUS
 62
    4
 10
3731.9090885900905
 20
1121.9999999999986
 11
3816.9090885900932
 21
1207.0000000000018
  0
LINE
  8
_0-a_
  6
CONTINUOUS
 62
    4
 10
3703.6248173426447
 20
1122.0000000000013
 11
3788.6248173426429
 21
1206.9999999999997
  0
LINE
  8
_0-a_
  6
CONTINUOUS
 62
    4
 10
3675.3405460951798
 20
1122.0000000000036
 11
3760.3405460951785
 21
1207.0000000000018
  0
LINE
  8
_0-a_
  6
CONTINUOUS
 62
    4
 10
3647.0562748477118
 20
1122.0000000000022
 11
3732.0562748477095
 21
1207
  0
LINE
  8
_0-a_
  6
CONTINUOUS
 62
    4
 10
3618.7720036002519
 20
1122
 11
3703.7720036002556
 21
1207.0000000000029
  0
LINE
  8
_0-a_
  6
CONTINUOUS
 62
    4
 10
3590.4877323527953
 20
1122.0000000000013
 11
3675.4877323527944
 21
1206.9999999999995
  0
LINE
  8
_0-a_
  6
CONTINUOUS
 62
    4
 10
3562.2034611053318
 20
1122.0000000000036
 11
3647.20346110533
 21
1207.000000000002
  0
LINE
  8
_0-a_
  6
CONTINUOUS
 62
    4
 10
3533.9191898578637
 20
1122.0000000000027
 11
3618.9191898578615
 21
1207.0000000000006
  0
LINE
  8
_0-a_
  6
CONTINUOUS
 62
    4
 10
3505.6349186104116
 20
1121.999999999999
 11
3590.6349186104152
 21
1207.0000000000027
  0
LINE
  8
_0-a_
  6
CONTINUOUS
 62
    4
 10
3477.3506473629468
 20
1122.0000000000013
 11
3562.3506473629458
 21
1206.9999999999995
  0
LINE
  8
_0-a_
  6
CONTINUOUS
 62
    4
 10
3449.0663761154833
 20
1122.0000000000036
 11
3534.0663761154814
 21
1207.000000000002
  0
LINE
  8
_0-a_
  6
CONTINUOUS
 62
    4
 10
3420.7821048680102
 20
1121.9999999999979
 11
3505.7821048680134
 21
1207.0000000000009
  0
LINE
  8
_0-a_
  6
CONTINUOUS
 62
    4
 10
3392.4978336205635
 20
1121.9999999999995
 11
3477.4978336205617
 21
1206.9999999999977
  0
LINE
  8
_0-a_
  6
CONTINUOUS
 62
    4
 10
3364.2135623730991
 20
1122.0000000000015
 11
3449.2135623730973
 21
1207
  0
LINE
  8
_0-a_
  6
CONTINUOUS
 62
    4
 10
3335.9292911256347
 20
1122.0000000000038
 11
3420.9292911256329
 21
1207.0000000000022
  0
LINE
  8
_0-a_
  6
CONTINUOUS
 62
    4
 10
3307.6450198781631
 20
1121.9999999999984
 11
3392.6450198781662
 21
1207.0000000000018
  0
LINE
  8
_0-a_
  6
CONTINUOUS
 62
    4
 10
3279.360748630715
 20
1121.9999999999993
 11
3364.3607486307132
 21
1206.9999999999977
  0
LINE
  8
_0-a_
  6
CONTINUOUS
 62
    4
 10
3251.0764773832506
 20
1122.0000000000015
 11
3336.0764773832488
 21
1207
  0
LINE
  8
_0-a_
  6
CONTINUOUS
 62
    4
 10
3222.7922061357844
 20
1122.0000000000018
 11
3307.7922061357821
 21
1207
  0
LINE
  8
_0-a_
  6
CONTINUOUS
 62
    4
 10
3194.507934888315
 20
1121.9999999999993
 11
3279.5079348883177
 21
1207.0000000000022
  0
LINE
  8
_0-a_
  6
CONTINUOUS
 62
    4
 10
3166.2236636408665
 20
1121.9999999999993
 11
3251.2236636408647
 21
1206.9999999999977
  0
LINE
  8
_0-a_
  6
CONTINUOUS
 62
    4
 10
3137.9393923934021
 20
1122.0000000000018
 11
3222.9393923934003
 21
1207
  0
LINE
  8
_0-a_
  6
CONTINUOUS
 62
    4
 10
3109.6551211459363
 20
1122.0000000000027
 11
3194.6551211459341
 21
1207.0000000000006
  0
LINE
  8
_0-a_
  6
CONTINUOUS
 62
    4
 10
3081.3708498984669
 20
1122
 11
3166.3708498984706
 21
1207.0000000000029
  0
LINE
  8
_0-a_
  6
CONTINUOUS
 62
    4
 10
3053.086578651018
 20
1121.9999999999995
 11
3138.0865786510162
 21
1206.9999999999977
  0
LINE
  8
_0-a_
  6
CONTINUOUS
 62
    4
 10
3024.8023074035536
 20
1122.0000000000018
 11
3109.8023074035518
 21
1207.0000000000002
  0
LINE
  8
_0-a_
  6
CONTINUOUS
 62
    4
 10
2996.5180361560887
 20
1122.0000000000031
 11
3081.518036156086
 21
1207.0000000000009
  0
LINE
  8
_0-a_
  6
CONTINUOUS
 62
    4
 10
2968.2337649086339
 20
1121.9999999999972
 11
3053.2337649086375
 21
1207.0000000000006
  0
LINE
  8
_0-a_
  6
CONTINUOUS
 62
    4
 10
2939.9494936611695
 20
1121.9999999999995
 11
3024.9494936611677
 21
1206.9999999999979
  0
LINE
  8
_0-a_
  6
CONTINUOUS
 62
    4
 10
2911.6652224137055
 20
1122.0000000000018
 11
2996.6652224137033
 21
1207.0000000000002
  0
LINE
  8
_0-a_
  6
CONTINUOUS
 62
    4
 10
2883.3809511662357
 20
1121.9999999999984
 11
2968.3809511662384
 21
1207.0000000000018
  0
LINE
  8
_0-a_
  6
CONTINUOUS
 62
    4
 10
2855.0966799187858
 20
1121.9999999999972
 11
2940.0966799187835
 21
1206.9999999999956
  0
LINE
  8
_0-a_
  6
CONTINUOUS
 62
    4
 10
2826.8124086713214
 20
1121.9999999999995
 11
2911.8124086713191
 21
1206.9999999999979
  0
LINE
  8
_0-a_
  6
CONTINUOUS
 62
    4
 10
2798.528137423857
 20
1122.000000000002
 11
2883.5281374238547
 21
1207.0000000000002
  0
LINE
  8
_0-a_
  6
CONTINUOUS
 62
    4
 10
2792.0150000000003
 20
1143.7711338236117
 11
2855.2438661763903
 21
1207.0000000000022
  0
LINE
  8
_0-a_
  6
CONTINUOUS
 62
    4
 10
2792.0150000000035
 20
1172.0554050710638
 11
2826.959594928935
 21
1206.9999999999956
  0
LINE
  8
_0-a_
  6
CONTINUOUS
 62
    4
 10
2792.0150000000016
 20
1200.3396763185287
 11
2798.6753236814706
 21
1206.9999999999979
  0
LINE
  8
_0-a_
  6
CONTINUOUS
 62
    4
 10
3967.8787847868052
 20
764.00000000000443
 11
3968.0149999999948
 21
764.13621521319385
  0
LINE
  8
_0-a_
  6
CONTINUOUS
 62
    4
 10
3939.5945135393303
 20
763.99999999999636
 11
3968.0150000000003
 21
792.42048646066655
  0
LINE
  8
_0-a_
  6
CONTINUOUS
 62
    4
 10
3911.3102422918659
 20
763.99999999999874
 11
3956.3102422918645
 21
808.99999999999727
  0
LINE
  8
_0-a_
  6
CONTINUOUS
 62
    4
 10
3883.0259710444215
 20
764.00000000000227
 11
3928.0259710444197
 21
809.0000000000009
  0
LINE
  8
_0-a_
  6
CONTINUOUS
 62
    4
 10
3854.7416997969571
 20
764.00000000000477
 11
3899.7416997969553
 21
809.00000000000306
  0
LINE
  8
_0-a_
  6
CONTINUOUS
 62
    4
 10
3826.4574285494827
 20
763.99999999999693
 11
3871.4574285494859
 21
809.00000000000068
  0
LINE
  8
_0-a_
  6
CONTINUOUS
 62
    4
 10
3798.1731573020374
 20
764
 11
3843.1731573020356
 21
808.99999999999874
  0
LINE
  8
_0-a_
  6
CONTINUOUS
 62
    4
 10
3769.888886054573
 20
764.00000000000227
 11
3814.8888860545712
 21
809.0000000000009
  0
LINE
  8
_0-a_
  6
CONTINUOUS
 62
    4
 10
3741.6046148071086
 20
764.00000000000454
 11
3786.6046148071068
 21
809.00000000000341
  0
LINE
  8
_0-a_
  6
CONTINUOUS
 62
    4
 10
3713.3203435596346
 20
763.99999999999749
 11
3758.3203435596387
 21
809.00000000000136
  0
LINE
  8
_0-a_
  6
CONTINUOUS
 62
    4
 10
3685.0360723121889
 20
764
 11
3730.0360723121871
 21
808.99999999999886
  0
LINE
  8
_0-a_
  6
CONTINUOUS
 62
    4
 10
3656.7518010647245
 20
764.0000000000025
 11
3701.7518010647227
 21
809.00000000000113
  0
LINE
  8
_0-a_
  6
CONTINUOUS
 62
    4
 10
3628.4675298172542
 20
763.99999999999965
 11
3673.4675298172587
 21
809.00000000000341
  0
LINE
  8
_0-a_
  6
CONTINUOUS
 62
    4
 10
3600.1832585697866
 20
763.99999999999818
 11
3645.1832585697902
 21
809.00000000000181
  0
LINE
  8
_0-a_
  6
CONTINUOUS
 62
    4
 10
3571.8989873223404
 20
764.00000000000034
 11
3616.898987322339
 21
808.99999999999886
  0
LINE
  8
_0-a_
  6
CONTINUOUS
 62
    4
 10
3543.614716074876
 20
764.00000000000261
 11
3588.6147160748741
 21
809.00000000000113
  0
LINE
  8
_0-a_
  6
CONTINUOUS
 62
    4
 10
3515.3304448274056
 20
763.99999999999954
 11
3560.3304448274097
 21
809.00000000000341
  0
LINE
  8
_0-a_
  6
CONTINUOUS
 62
    4
 10
3487.0461735799385
 20
763.99999999999863
 11
3532.0461735799426
 21
809.0000000000025
  0
LINE
  8
_0-a_
  6
CONTINUOUS
 62
    4
 10
3458.7619023324918
 20
764.00000000000034
 11
3503.76190233249
 21
808.99999999999886
  0
LINE
  8
_0-a_
  6
CONTINUOUS
 62
    4
 10
3430.4776310850274
 20
764.00000000000261
 11
3475.4776310850256
 21
809.00000000000113
  0
LINE
  8
_0-a_
  6
CONTINUOUS
 62
    4
 10
3402.1933598375553
 20
763.99999999999693
 11
3447.1933598375585
 21
809.00000000000068
  0
LINE
  8
_0-a_
  6
CONTINUOUS
 62
    4
 10
3373.9090885900905
 20
763.99999999999931
 11
3418.9090885900891
 21
808.99999999999772
  0
LINE
  8
_0-a_
  6
CONTINUOUS
 62
    4
 10
3345.6248173426433
 20
764.00000000000045
 11
3390.624817342642
 21
808.99999999999886
  0
LINE
  8
_0-a_
  6
CONTINUOUS
 62
    4
 10
3317.3405460951789
 20
764.00000000000261
 11
3362.340546095178
 21
809.00000000000136
  0
LINE
  8
_0-a_
  6
CONTINUOUS
 62
    4
 10
3289.0562748477073
 20
763.99999999999749
 11
3334.0562748477113
 21
809.00000000000113
  0
LINE
  8
_0-a_
  6
CONTINUOUS
 62
    4
 10
3260.7720036002524
 20
764.00000000000068
 11
3305.772003600251
 21
808.99999999999886
  0
LINE
  8
_0-a_
  6
CONTINUOUS
 62
    4
 10
3232.4877323527948
 20
764.00000000000045
 11
3277.4877323527935
 21
808.99999999999909
  0
LINE
  8
_0-a_
  6
CONTINUOUS
 62
    4
 10
3204.2034611053304
 20
764.00000000000295
 11
3249.2034611053295
 21
809.00000000000147
  0
LINE
  8
_0-a_
  6
CONTINUOUS
 62
    4
 10
3175.9191898578592
 20
763.99999999999806
 11
3220.9191898578628
 21
809.00000000000181
  0
LINE
  8
_0-a_
  6
CONTINUOUS
 62
    4
 10
3147.6349186104107
 20
763.99999999999818
 11
3192.6349186104098
 21
808.99999999999693
  0
LINE
  8
_0-a_
  6
CONTINUOUS
 62
    4
 10
3119.3506473629463
 20
764.00000000000068
 11
3164.3506473629449
 21
808.9999999999992
  0
LINE
  8
_0-a_
  6
CONTINUOUS
 62
    4
 10
3091.0663761154769
 20
763.99999999999761
 11
3136.066376115481
 21
809.00000000000147
  0
LINE
  8
_0-a_
  6
CONTINUOUS
 62
    4
 10
3062.7821048680111
 20
763.99999999999863
 11
3107.7821048680148
 21
809.00000000000227
  0
LINE
  8
_0-a_
  6
CONTINUOUS
 62
    4
 10
3034.4978336205622
 20
763.9999999999984
 11
3079.4978336205613
 21
808.99999999999693
  0
LINE
  8
_0-a_
  6
CONTINUOUS
 62
    4
 10
3006.2135623730978
 20
764.00000000000068
 11
3051.2135623730964
 21
808.9999999999992
  0
LINE
  8
_0-a_
  6
CONTINUOUS
 62
    4
 10
2977.9292911256284
 20
763.99999999999761
 11
3022.9292911256325
 21
809.00000000000147
  0
LINE
  8
_0-a_
  6
CONTINUOUS
 62
    4
 10
2949.6450198781631
 20
763.9999999999992
 11
2994.6450198781667
 21
809.00000000000295
  0
LINE
  8
_0-a_
  6
CONTINUOUS
 62
    4
 10
2921.3607486307137
 20
763.9999999999984
 11
2966.3607486307128
 21
808.99999999999704
  0
LINE
  8
_0-a_
  6
CONTINUOUS
 62
    4
 10
2893.0764773832493
 20
764.00000000000068
 11
2938.0764773832479
 21
808.99999999999931
  0
LINE
  8
_0-a_
  6
CONTINUOUS
 62
    4
 10
2864.7922061357799
 20
763.99999999999749
 11
2909.792206135783
 21
809.00000000000102
  0
LINE
  8
_0-a_
  6
CONTINUOUS
 62
    4
 10
2836.5079348883155
 20
763.99999999999977
 11
2881.5079348883136
 21
808.99999999999818
  0
LINE
  8
_0-a_
  6
CONTINUOUS
 62
    4
 10
2808.2236636408651
 20
763.99999999999852
 11
2853.2236636408642
 21
808.99999999999704
  0
LINE
  8
_0-a_
  6
CONTINUOUS
 62
    4
 10
2792.0149999999994
 20
776.07560760659907
 11
2824.9393923933994
 21
808.99999999999954
  0
LINE
  8
_0-a_
  6
CONTINUOUS
 62
    4
 10
2792.0149999999989
 20
804.35987885406507
 11
2796.6551211459354
 21
809.00000000000159
  0
POINT
  8
_0-9_
 62
    3
 10
2688.0149999999998
 20
1207
  0
POINT
  8
_0-9_
 62
    3
 10
2688.0149999999998
 20
1122
  0
LINE
  8
_0-9_
  6
CONTINUOUS
 62
    4
 10
2678.0149999999998
 20
1207
 11
2750.0149999999994
 21
1207
  0
LINE
  8
_0-9_
  6
CONTINUOUS
 62
    4
 10
2678.0149999999998
 20
1122
 11
2750.0149999999994
 21
1122
  0
LINE
  8
_0-9_
  6
CONTINUOUS
 62
    4
 10
2688.0149999999998
 20
1207
 11
2688.0149999999998
 21
1122
  0
TEXT
  8
_0-9_
 62
    7
 10
2683.0149999999998
 20
1142.45
 40
35
 41
0.6285714285714286
 50
90
  1
８５
  0
POINT
  8
_0-9_
 62
    3
 10
2688.0149999999998
 20
809.00000000000022
  0
POINT
  8
_0-9_
 62
    3
 10
2688.0149999999998
 20
763.99999999999988
  0
LINE
  8
_0-9_
  6
CONTINUOUS
 62
    4
 10
2678.0149999999998
 20
809.00000000000022
 11
2750.0149999999994
 21
809.00000000000022
  0
LINE
  8
_0-9_
  6
CONTINUOUS
 62
    4
 10
2678.0149999999998
 20
763.99999999999988
 11
2750.0149999999994
 21
763.99999999999988
  0
LINE
  8
_0-9_
  6
CONTINUOUS
 62
    4
 10
2688.0149999999998
 20
809.00000000000022
 11
2688.0149999999998
 21
763.99999999999988
  0
TEXT
  8
_0-9_
 62
    7
 10
2683.0149999999998
 20
717.00798327757399
 40
35
 41
0.6285714285714286
 50
90
  1
４５
  0
LINE
  8
_0-9_
  6
CONTINUOUS
 62
    4
 10
2688.0149999999998
 20
763.99999999999988
 11
2688.0149999999998
 21
718.24099393910478
  0
LINE
  8
_0-3_
  6
CONTINUOUS
 62
    5
 10
1496.0150000000003
 20
757
 11
1500.0149999999998
 21
757
  0
LINE
  8
_0-3_
  6
DASHED1
 62
    2
 10
304.01500000000027
 20
757
 11
1496.0150000000003
 21
757
  0
LINE
  8
_0-3_
  6
CONTINUOUS
 62
    5
 10
300.01499999999992
 20
757
 11
304.01500000000027
 21
757
  0
CIRCLE
  8
_0-0_
  6
CONTINUOUS
 62
    7
 10
2015.015000000001
 20
982
 40
1.5000000000000002
  0
LINE
  8
_0-0_
  6
CONTINUOUS
 62
    7
 10
2020.015000000001
 20
983.06887500000004
 11
2020.015000000001
 21
984
  0
LINE
  8
_0-0_
  6
CONTINUOUS
 62
    7
 10
2020.015000000001
 20
984
 11
2020.9437750000008
 21
984.066325
  0
LINE
  8
_0-0_
  6
CONTINUOUS
 62
    7
 10
2010.015000000001
 20
982
 11
2010.015000000001
 21
983
  0
LINE
  8
_0-0_
  6
CONTINUOUS
 62
    7
 10
2009.0150000000007
 20
984
 11
1996.5150000000007
 21
984
  0
LINE
  8
_0-0_
  6
CONTINUOUS
 62
    7
 10
2020.015000000001
 20
982
 11
2020.015000000001
 21
983.06887500000004
  0
LINE
  8
_0-0_
  6
CONTINUOUS
 62
    7
 10
2020.9437750000008
 20
984.066325
 11
2033.0862500000009
 21
984.93364999999994
  0
LINE
  8
_0-0_
  6
CONTINUOUS
 62
    7
 10
2034.0150000000007
 20
985.93110000000001
 11
2034.0150000000007
 21
986
  0
LINE
  8
_0-0_
  6
CONTINUOUS
 62
    7
 10
2001.6489750000007
 20
1004
 11
1999.7726000000009
 21
1007.25
  0
LINE
  8
_0-0_
  6
CONTINUOUS
 62
    7
 10
2033.0150000000007
 20
987
 11
1997.515000000001
 21
987
  0
LINE
  8
_0-0_
  6
CONTINUOUS
 62
    7
 10
2000.7829500000007
 20
1002.5
 11
1997.515000000001
 21
1002.5
  0
LINE
  8
_0-0_
  6
CONTINUOUS
 62
    7
 10
1996.5150000000007
 20
1001.5
 11
1996.5150000000007
 21
988
  0
ARC
  8
_0-0_
  6
CONTINUOUS
 62
    7
 10
1996.5150000000007
 20
987.79999999999995
 40
3.7999999999999998
 50
177.46800000000004
 51
270.00000000000005
  0
ARC
  8
_0-0_
  6
CONTINUOUS
 62
    7
 10
2015.015000000001
 20
982
 40
5
 50
180.00000000000005
 51
0.0000000000001017
  0
CIRCLE
  8
_0-0_
  6
PHANTOM2
 62
    7
 10
2015.015000000001
 20
982
 40
4.0999999999999996
  0
CIRCLE
  8
_0-0_
  6
PHANTOM2
 62
    7
 10
2015.015000000001
 20
982
 40
1.925
  0
ARC
  8
_0-0_
  6
CONTINUOUS
 62
    7
 10
1994.6717750000011
 20
1006.5
 40
1
 50
90.000000000000028
 51
177.46800000000004
  0
ARC
  8
_0-0_
  6
CONTINUOUS
 62
    7
 10
1999.3395750000011
 20
1007
 40
0.5
 50
30.000000000000003
 51
90.000000000000028
  0
ARC
  8
_0-0_
  6
CONTINUOUS
 62
    7
 10
2009.0150000000007
 20
983
 40
1
 50
0
 51
90.000000000000028
  0
ARC
  8
_0-0_
  6
CONTINUOUS
 62
    7
 10
2021.015000000001
 20
983.06887500000004
 40
1
 50
94.086000000000041
 51
180.00000000000005
  0
ARC
  8
_0-0_
  6
CONTINUOUS
 62
    7
 10
2033.0150000000007
 20
985.93110000000001
 40
1
 50
274.08600000000006
 51
0.0000000000000508
  0
ARC
  8
_0-0_
  6
CONTINUOUS
 62
    7
 10
2033.0150000000007
 20
986
 40
1
 50
0
 51
90.000000000000028
  0
ARC
  8
_0-0_
  6
CONTINUOUS
 62
    7
 10
2000.7829500000007
 20
1003.5
 40
1
 50
270.00000000000005
 51
30.000000000000042
  0
ARC
  8
_0-0_
  6
CONTINUOUS
 62
    7
 10
1997.515000000001
 20
1001.5
 40
1
 50
90.000000000000028
 51
180.00000000000005
  0
ARC
  8
_0-0_
  6
CONTINUOUS
 62
    7
 10
1997.515000000001
 20
988
 40
1
 50
180.00000000000005
 51
270.00000000000005
  0
LINE
  8
_0-0_
  6
CONTINUOUS
 62
    7
 10
1994.6717750000011
 20
1007.5
 11
1999.3395750000011
 21
1007.5
  0
LINE
  8
_0-0_
  6
CONTINUOUS
 62
    7
 10
1992.7187250000008
 20
987.96784999999999
 11
1993.6734719492501
 21
1006.5582324553936
  0
LINE
  8
_0-0_
  6
CENTER1
 62
    7
 10
2015.015000000001
 20
982
 11
2015.015000000001
 21
975.8852721223418
  0
LINE
  8
_0-0_
  6
CENTER1
 62
    7
 10
2015.015000000001
 20
982
 11
2015.015000000001
 21
988.09740295205278
  0
LINE
  8
_0-0_
  6
CENTER1
 62
    7
 10
2015.1278620711204
 20
982
 11
2012.448223649189
 21
982
  0
LINE
  8
_0-0_
  6
CENTER1
 62
    7
 10
2015.1278620711204
 20
982
 11
2017.7931451757658
 21
982
  0
ARC
  8
_0-0_
  6
CONTINUOUS
 62
    7
 10
2281.2470500000013
 20
1003.5
 40
1
 50
149.99999999999994
 51
269.99999999999994
  0
CIRCLE
  8
_0-0_
  6
CONTINUOUS
 62
    7
 10
2267.0150000000007
 20
982
 40
1.5000000000000002
  0
LINE
  8
_0-0_
  6
CONTINUOUS
 62
    7
 10
2262.0150000000007
 20
983.06887500000004
 11
2262.0150000000007
 21
984
  0
LINE
  8
_0-0_
  6
CONTINUOUS
 62
    7
 10
2262.0150000000007
 20
984
 11
2261.0862250000009
 21
984.066325
  0
LINE
  8
_0-0_
  6
CONTINUOUS
 62
    7
 10
2272.0150000000007
 20
982
 11
2272.0150000000007
 21
983
  0
LINE
  8
_0-0_
  6
CONTINUOUS
 62
    7
 10
2273.0150000000012
 20
984
 11
2285.5150000000012
 21
984
  0
LINE
  8
_0-0_
  6
CONTINUOUS
 62
    7
 10
2262.0150000000007
 20
982
 11
2262.0150000000007
 21
983.06887500000004
  0
LINE
  8
_0-0_
  6
CONTINUOUS
 62
    7
 10
2261.0862250000009
 20
984.066325
 11
2248.9437500000012
 21
984.93364999999994
  0
LINE
  8
_0-0_
  6
CONTINUOUS
 62
    7
 10
2248.0150000000012
 20
985.93110000000001
 11
2248.0150000000012
 21
986
  0
LINE
  8
_0-0_
  6
CONTINUOUS
 62
    7
 10
2280.381025000001
 20
1004
 11
2282.2574000000013
 21
1007.25
  0
LINE
  8
_0-0_
  6
CONTINUOUS
 62
    7
 10
2249.0150000000012
 20
987
 11
2284.5150000000007
 21
987
  0
LINE
  8
_0-0_
  6
CONTINUOUS
 62
    7
 10
2281.2470500000013
 20
1002.5
 11
2284.5150000000007
 21
1002.5
  0
LINE
  8
_0-0_
  6
CONTINUOUS
 62
    7
 10
2285.5150000000012
 20
1001.5
 11
2285.5150000000012
 21
988
  0
ARC
  8
_0-0_
  6
CONTINUOUS
 62
    7
 10
2285.5150000000012
 20
987.79999999999995
 40
3.7999999999999998
 50
269.99999999999994
 51
2.5319999999999902
  0
ARC
  8
_0-0_
  6
CONTINUOUS
 62
    7
 10
2267.0150000000007
 20
982
 40
5
 50
179.99999999999985
 51
359.99999999999988
  0
CIRCLE
  8
_0-0_
  6
PHANTOM2
 62
    7
 10
2267.0150000000007
 20
982
 40
4.0999999999999996
  0
CIRCLE
  8
_0-0_
  6
PHANTOM2
 62
    7
 10
2267.0150000000007
 20
982
 40
1.925
  0
ARC
  8
_0-0_
  6
CONTINUOUS
 62
    7
 10
2287.3582250000008
 20
1006.5
 40
1
 50
2.531999999999964
 51
89.999999999999943
  0
ARC
  8
_0-0_
  6
CONTINUOUS
 62
    7
 10
2282.6904250000011
 20
1007
 40
0.5
 50
89.999999999999985
 51
149.99999999999997
  0
ARC
  8
_0-0_
  6
CONTINUOUS
 62
    7
 10
2273.0150000000012
 20
983
 40
1
 50
89.999999999999971
 51
180
  0
ARC
  8
_0-0_
  6
CONTINUOUS
 62
    7
 10
2261.0150000000012
 20
983.06887500000004
 40
1
 50
359.99999999999994
 51
85.913999999999987
  0
ARC
  8
_0-0_
  6
CONTINUOUS
 62
    7
 10
2249.0150000000012
 20
985.93110000000001
 40
1
 50
179.99999999999994
 51
265.91399999999993
  0
ARC
  8
_0-0_
  6
CONTINUOUS
 62
    7
 10
2249.0150000000012
 20
986
 40
1
 50
89.999999999999971
 51
180
  0
ARC
  8
_0-0_
  6
CONTINUOUS
 62
    7
 10
2284.5150000000007
 20
1001.5
 40
1
 50
359.99999999999994
 51
89.999999999999943
  0
ARC
  8
_0-0_
  6
CONTINUOUS
 62
    7
 10
2284.5150000000007
 20
988
 40
1
 50
269.99999999999988
 51
359.99999999999988
  0
LINE
  8
_0-0_
  6
CONTINUOUS
 62
    7
 10
2287.3582250000008
 20
1007.5
 11
2282.6904250000011
 21
1007.5
  0
LINE
  8
_0-0_
  6
CONTINUOUS
 62
    7
 10
2289.3112750000009
 20
987.96784999999999
 11
2288.3565280507518
 21
1006.5582324553936
  0
LINE
  8
_0-0_
  6
CENTER1
 62
    7
 10
2267.0150000000007
 20
982
 11
2267.0150000000007
 21
975.8852721223418
  0
LINE
  8
_0-0_
  6
CENTER1
 62
    7
 10
2267.0150000000007
 20
982
 11
2267.0150000000007
 21
988.09740295205278
  0
LINE
  8
_0-0_
  6
CENTER1
 62
    7
 10
2266.9021379288815
 20
982
 11
2269.581776350813
 21
982
  0
LINE
  8
_0-0_
  6
CENTER1
 62
    7
 10
2266.9021379288815
 20
982
 11
2264.2368548242361
 21
982
  0
ARC
  8
_0-0_
  6
CONTINUOUS
 62
    7
 10
2015.015000000001
 20
982
 40
7.0000000000000017
 50
45.585000000000007
 51
134.41500000000002
  0
ARC
  8
_0-0_
  6
CONTINUOUS
 62
    7
 10
2015.015000000001
 20
982
 40
11
 50
27.036000000000012
 51
152.96400000000005
  0
ARC
  8
_0-0_
  6
CONTINUOUS
 62
    7
 10
2267.0150000000007
 20
982
 40
7.0000000000000017
 50
45.585000000000007
 51
134.41500000000002
  0
ARC
  8
_0-0_
  6
CONTINUOUS
 62
    7
 10
2267.0150000000007
 20
982
 40
11
 50
27.036000000000012
 51
152.96400000000005
  0
LINE
  8
_0-0_
  6
DASHED1
 62
    7
 10
1484.0150000000005
 20
987
 11
1475.0150000000003
 21
987
  0
LINE
  8
_0-0_
  6
DASHED1
 62
    7
 10
1485.0150000000003
 20
987
 11
1475.0150000000003
 21
987
  0
LINE
  8
_0-0_
  6
DASHED1
 62
    7
 10
1495.0097000000005
 20
982
 11
1472.7287750000002
 21
982
  0
LINE
  8
_0-0_
  6
DASHED1
 62
    7
 10
1485.0150000000003
 20
978.40000000000009
 11
1485.0150000000003
 21
985.60000000000002
  0
LINE
  8
_0-0_
  6
DASHED1
 62
    7
 10
1484.2150000000003
 20
984.5
 11
1484.2150000000003
 21
979.5
  0
LINE
  8
_0-0_
  6
DASHED1
 62
    7
 10
1476.2150000000001
 20
980
 11
1483.7150000000001
 21
980
  0
LINE
  8
_0-0_
  6
DASHED1
 62
    7
 10
1484.2150000000003
 20
979.5
 11
1484.2150000000003
 21
978.40000000000009
  0
LINE
  8
_0-0_
  6
DASHED1
 62
    7
 10
1485.5150000000003
 20
979.5999999999999
 11
1493.5150000000003
 21
979.5999999999999
  0
LINE
  8
_0-0_
  6
DASHED1
 62
    7
 10
1494.0150000000005
 20
980.10000000000002
 11
1494.0150000000005
 21
983.89999999999997
  0
LINE
  8
_0-0_
  6
DASHED1
 62
    7
 10
1493.5150000000003
 20
984.39999999999997
 11
1485.5150000000003
 21
984.39999999999997
  0
LINE
  8
_0-0_
  6
DASHED1
 62
    7
 10
1484.2150000000003
 20
985.60000000000002
 11
1484.2150000000003
 21
984.5
  0
LINE
  8
_0-0_
  6
DASHED1
 62
    7
 10
1483.7150000000001
 20
984
 11
1476.2150000000001
 21
984
  0
LINE
  8
_0-0_
  6
DASHED1
 62
    7
 10
1476.2150000000001
 20
984
 11
1476.2150000000001
 21
980
  0
LINE
  8
_0-0_
  6
DASHED1
 62
    7
 10
1475.8150000000005
 20
983.5
 11
1475.8150000000005
 21
984
  0
LINE
  8
_0-0_
  6
DASHED1
 62
    7
 10
1475.0150000000003
 20
986.10000000000002
 11
1475.0150000000003
 21
977.5
  0
LINE
  8
_0-0_
  6
DASHED1
 62
    7
 10
1475.8150000000005
 20
983.5
 11
1475.0150000000003
 21
983.5
  0
LINE
  8
_0-0_
  6
DASHED1
 62
    7
 10
1475.8150000000005
 20
980.5
 11
1475.0150000000003
 21
980.5
  0
LINE
  8
_0-0_
  6
DASHED1
 62
    7
 10
1485.0150000000003
 20
980
 11
1476.2150000000001
 21
980
  0
LINE
  8
_0-0_
  6
DASHED1
 62
    7
 10
1485.0150000000003
 20
977.5
 11
1485.0150000000003
 21
980
  0
LINE
  8
_0-0_
  6
DASHED1
 62
    7
 10
1476.2150000000001
 20
980
 11
1475.8150000000005
 21
980
  0
LINE
  8
_0-0_
  6
DASHED1
 62
    7
 10
1485.0150000000003
 20
984
 11
1475.8150000000005
 21
984
  0
LINE
  8
_0-0_
  6
DASHED1
 62
    7
 10
1475.8150000000005
 20
980
 11
1475.8150000000005
 21
980.5
  0
LINE
  8
_0-0_
  6
DASHED1
 62
    7
 10
1485.0150000000003
 20
984.93364999999994
 11
1475.0150000000003
 21
984.93364999999994
  0
LINE
  8
_0-0_
  6
DASHED1
 62
    7
 10
1475.8150000000005
 20
984
 11
1475.0150000000003
 21
984
  0
LINE
  8
_0-0_
  6
DASHED1
 62
    7
 10
1475.0150000000003
 20
987
 11
1475.0150000000003
 21
986.10000000000002
  0
LINE
  8
_0-0_
  6
DASHED1
 62
    7
 10
1485.0150000000003
 20
980
 11
1485.0150000000003
 21
987
  0
LINE
  8
_0-0_
  6
DASHED1
 62
    7
 10
1484.5150000000007
 20
1007.5
 11
1475.5150000000001
 21
1007.5
  0
LINE
  8
_0-0_
  6
DASHED1
 62
    7
 10
1475.5150000000001
 20
977
 11
1484.5150000000007
 21
977
  0
LINE
  8
_0-0_
  6
DASHED1
 62
    7
 10
1486.4924
 20
982
 11
1473.4185750000003
 21
982
  0
LINE
  8
_0-0_
  6
DASHED1
 62
    7
 10
1475.0150000000003
 20
1007
 11
1475.0150000000003
 21
987
  0
ARC
  8
_0-0_
  6
DASHED1
 62
    7
 10
1485.5150000000003
 20
984.89999999999997
 40
0.5
 50
179.99999999999991
 51
269.99999999999994
  0
ARC
  8
_0-0_
  6
DASHED1
 62
    7
 10
1485.5150000000003
 20
979.0999999999999
 40
0.5
 50
89.999999999999971
 51
180
  0
ARC
  8
_0-0_
  6
DASHED1
 62
    7
 10
1483.7150000000001
 20
979.5
 40
0.5
 50
359.99999999999994
 51
89.999999999999943
  0
ARC
  8
_0-0_
  6
DASHED1
 62
    7
 10
1483.7150000000001
 20
984.5
 40
0.5
 50
269.99999999999988
 51
359.99999999999988
  0
ARC
  8
_0-0_
  6
DASHED1
 62
    7
 10
1493.5150000000003
 20
983.89999999999997
 40
0.5
 50
359.99999999999994
 51
89.999999999999943
  0
ARC
  8
_0-0_
  6
DASHED1
 62
    7
 10
1493.5150000000003
 20
980.10000000000002
 40
0.5
 50
269.99999999999988
 51
359.99999999999988
  0
ARC
  8
_0-0_
  6
DASHED1
 62
    7
 10
1484.6150000000006
 20
978.40000000000009
 40
0.4
 50
179.99999999999991
 51
269.99999999999994
  0
ARC
  8
_0-0_
  6
DASHED1
 62
    7
 10
1484.6150000000006
 20
978.40000000000009
 40
0.4
 50
269.99999999999988
 51
359.99999999999988
  0
ARC
  8
_0-0_
  6
DASHED1
 62
    7
 10
1484.6150000000006
 20
985.60000000000002
 40
0.4
 50
359.99999999999994
 51
89.999999999999943
  0
ARC
  8
_0-0_
  6
DASHED1
 62
    7
 10
1484.6150000000006
 20
985.60000000000002
 40
0.4
 50
89.999999999999971
 51
180
  0
ARC
  8
_0-0_
  6
DASHED1
 62
    7
 10
1484.5150000000007
 20
1007
 40
0.5
 50
359.99999999999994
 51
89.999999999999943
  0
ARC
  8
_0-0_
  6
DASHED1
 62
    7
 10
1475.5150000000001
 20
1007
 40
0.5
 50
89.999999999999971
 51
180
  0
ARC
  8
_0-0_
  6
DASHED1
 62
    7
 10
1475.5150000000001
 20
977.5
 40
0.5
 50
179.99999999999991
 51
269.99999999999994
  0
ARC
  8
_0-0_
  6
DASHED1
 62
    7
 10
1484.5150000000007
 20
977.5
 40
0.5
 50
269.99999999999988
 51
359.99999999999988
  0
LINE
  8
_0-0_
  6
DASHED1
 62
    7
 10
1485.0150000000003
 20
987
 11
1485.0150000000003
 21
1007
  0
LINE
  8
_0-0_
  6
DASHED1
 62
    7
 10
1114.0150000000005
 20
987
 11
1123.0150000000003
 21
987
  0
LINE
  8
_0-0_
  6
DASHED1
 62
    7
 10
1113.0150000000003
 20
987
 11
1123.0150000000003
 21
987
  0
LINE
  8
_0-0_
  6
DASHED1
 62
    7
 10
1103.0203000000005
 20
982
 11
1125.3012250000006
 21
982
  0
LINE
  8
_0-0_
  6
DASHED1
 62
    7
 10
1113.0150000000003
 20
978.40000000000009
 11
1113.0150000000003
 21
985.60000000000002
  0
LINE
  8
_0-0_
  6
DASHED1
 62
    7
 10
1113.8150000000007
 20
984.5
 11
1113.8150000000007
 21
979.5
  0
LINE
  8
_0-0_
  6
DASHED1
 62
    7
 10
1121.8150000000002
 20
980
 11
1114.3150000000002
 21
980
  0
LINE
  8
_0-0_
  6
DASHED1
 62
    7
 10
1113.8150000000007
 20
979.5
 11
1113.8150000000007
 21
978.40000000000009
  0
LINE
  8
_0-0_
  6
DASHED1
 62
    7
 10
1112.5150000000007
 20
979.5999999999999
 11
1104.5150000000005
 21
979.5999999999999
  0
LINE
  8
_0-0_
  6
DASHED1
 62
    7
 10
1104.0150000000005
 20
980.10000000000002
 11
1104.0150000000005
 21
983.89999999999997
  0
LINE
  8
_0-0_
  6
DASHED1
 62
    7
 10
1104.5150000000005
 20
984.39999999999997
 11
1112.5150000000007
 21
984.39999999999997
  0
LINE
  8
_0-0_
  6
DASHED1
 62
    7
 10
1113.8150000000007
 20
985.60000000000002
 11
1113.8150000000007
 21
984.5
  0
LINE
  8
_0-0_
  6
DASHED1
 62
    7
 10
1114.3150000000002
 20
984
 11
1121.8150000000002
 21
984
  0
LINE
  8
_0-0_
  6
DASHED1
 62
    7
 10
1121.8150000000002
 20
984
 11
1121.8150000000002
 21
980
  0
LINE
  8
_0-0_
  6
DASHED1
 62
    7
 10
1122.2150000000003
 20
983.5
 11
1122.2150000000003
 21
984
  0
LINE
  8
_0-0_
  6
DASHED1
 62
    7
 10
1123.0150000000003
 20
986.10000000000002
 11
1123.0150000000003
 21
977.5
  0
LINE
  8
_0-0_
  6
DASHED1
 62
    7
 10
1122.2150000000003
 20
983.5
 11
1123.0150000000003
 21
983.5
  0
LINE
  8
_0-0_
  6
DASHED1
 62
    7
 10
1122.2150000000003
 20
980.5
 11
1123.0150000000003
 21
980.5
  0
LINE
  8
_0-0_
  6
DASHED1
 62
    7
 10
1113.0150000000003
 20
980
 11
1121.8150000000002
 21
980
  0
LINE
  8
_0-0_
  6
DASHED1
 62
    7
 10
1113.0150000000003
 20
977.5
 11
1113.0150000000003
 21
980
  0
LINE
  8
_0-0_
  6
DASHED1
 62
    7
 10
1121.8150000000002
 20
980
 11
1122.2150000000003
 21
980
  0
LINE
  8
_0-0_
  6
DASHED1
 62
    7
 10
1113.0150000000003
 20
984
 11
1122.2150000000003
 21
984
  0
LINE
  8
_0-0_
  6
DASHED1
 62
    7
 10
1122.2150000000003
 20
980
 11
1122.2150000000003
 21
980.5
  0
LINE
  8
_0-0_
  6
DASHED1
 62
    7
 10
1113.0150000000003
 20
984.93364999999994
 11
1123.0150000000003
 21
984.93364999999994
  0
LINE
  8
_0-0_
  6
DASHED1
 62
    7
 10
1122.2150000000003
 20
984
 11
1123.0150000000003
 21
984
  0
LINE
  8
_0-0_
  6
DASHED1
 62
    7
 10
1123.0150000000003
 20
987
 11
1123.0150000000003
 21
986.10000000000002
  0
LINE
  8
_0-0_
  6
DASHED1
 62
    7
 10
1113.0150000000003
 20
980
 11
1113.0150000000003
 21
987
  0
LINE
  8
_0-0_
  6
DASHED1
 62
    7
 10
1113.5150000000003
 20
1007.5
 11
1122.5150000000007
 21
1007.5
  0
LINE
  8
_0-0_
  6
DASHED1
 62
    7
 10
1122.5150000000007
 20
977
 11
1113.5150000000003
 21
977
  0
LINE
  8
_0-0_
  6
DASHED1
 62
    7
 10
1111.5376000000003
 20
982
 11
1124.6114250000005
 21
982
  0
LINE
  8
_0-0_
  6
DASHED1
 62
    7
 10
1123.0150000000003
 20
1007
 11
1123.0150000000003
 21
987
  0
ARC
  8
_0-0_
  6
DASHED1
 62
    7
 10
1112.5150000000007
 20
984.89999999999997
 40
0.5
 50
270.00000000000005
 51
0.0000000000000508
  0
ARC
  8
_0-0_
  6
DASHED1
 62
    7
 10
1112.5150000000007
 20
979.0999999999999
 40
0.5
 50
0
 51
90.000000000000028
  0
ARC
  8
_0-0_
  6
DASHED1
 62
    7
 10
1114.3150000000002
 20
979.5
 40
0.5
 50
90.000000000000028
 51
180.00000000000005
  0
ARC
  8
_0-0_
  6
DASHED1
 62
    7
 10
1114.3150000000002
 20
984.5
 40
0.5
 50
180.00000000000005
 51
270.00000000000005
  0
ARC
  8
_0-0_
  6
DASHED1
 62
    7
 10
1104.5150000000005
 20
983.89999999999997
 40
0.5
 50
90.000000000000028
 51
180.00000000000005
  0
ARC
  8
_0-0_
  6
DASHED1
 62
    7
 10
1104.5150000000005
 20
980.10000000000002
 40
0.5
 50
180.00000000000005
 51
270.00000000000005
  0
ARC
  8
_0-0_
  6
DASHED1
 62
    7
 10
1113.4150000000004
 20
978.40000000000009
 40
0.4
 50
270.00000000000005
 51
0.0000000000000508
  0
ARC
  8
_0-0_
  6
DASHED1
 62
    7
 10
1113.4150000000004
 20
978.40000000000009
 40
0.4
 50
180.00000000000005
 51
270.00000000000005
  0
ARC
  8
_0-0_
  6
DASHED1
 62
    7
 10
1113.4150000000004
 20
985.60000000000002
 40
0.4
 50
90.000000000000028
 51
180.00000000000005
  0
ARC
  8
_0-0_
  6
DASHED1
 62
    7
 10
1113.4150000000004
 20
985.60000000000002
 40
0.4
 50
0
 51
90.000000000000028
  0
ARC
  8
_0-0_
  6
DASHED1
 62
    7
 10
1113.5150000000003
 20
1007
 40
0.5
 50
90.000000000000028
 51
180.00000000000005
  0
ARC
  8
_0-0_
  6
DASHED1
 62
    7
 10
1122.5150000000007
 20
1007
 40
0.5
 50
0
 51
90.000000000000028
  0
ARC
  8
_0-0_
  6
DASHED1
 62
    7
 10
1122.5150000000007
 20
977.5
 40
0.5
 50
270.00000000000005
 51
0.0000000000000508
  0
ARC
  8
_0-0_
  6
DASHED1
 62
    7
 10
1113.5150000000003
 20
977.5
 40
0.5
 50
180.00000000000005
 51
270.00000000000005
  0
LINE
  8
_0-0_
  6
DASHED1
 62
    7
 10
1113.0150000000003
 20
987
 11
1113.0150000000003
 21
1007
  0
LINE
  8
_0-0_
  6
DASHED1
 62
    7
 10
1087.0150000000005
 20
987
 11
1078.0150000000003
 21
987
  0
LINE
  8
_0-0_
  6
DASHED1
 62
    7
 10
1088.0150000000003
 20
987
 11
1078.0150000000003
 21
987
  0
LINE
  8
_0-0_
  6
DASHED1
 62
    7
 10
1098.0097000000005
 20
982
 11
1075.728775
 21
982
  0
LINE
  8
_0-0_
  6
DASHED1
 62
    7
 10
1088.0150000000003
 20
978.40000000000009
 11
1088.0150000000003
 21
985.60000000000002
  0
LINE
  8
_0-0_
  6
DASHED1
 62
    7
 10
1087.2150000000003
 20
984.5
 11
1087.2150000000003
 21
979.5
  0
LINE
  8
_0-0_
  6
DASHED1
 62
    7
 10
1079.2150000000003
 20
980
 11
1086.7150000000003
 21
980
  0
LINE
  8
_0-0_
  6
DASHED1
 62
    7
 10
1087.2150000000003
 20
979.5
 11
1087.2150000000003
 21
978.40000000000009
  0
LINE
  8
_0-0_
  6
DASHED1
 62
    7
 10
1088.5150000000003
 20
979.5999999999999
 11
1096.5150000000003
 21
979.5999999999999
  0
LINE
  8
_0-0_
  6
DASHED1
 62
    7
 10
1097.0150000000005
 20
980.10000000000002
 11
1097.0150000000005
 21
983.89999999999997
  0
LINE
  8
_0-0_
  6
DASHED1
 62
    7
 10
1096.5150000000003
 20
984.39999999999997
 11
1088.5150000000003
 21
984.39999999999997
  0
LINE
  8
_0-0_
  6
DASHED1
 62
    7
 10
1087.2150000000003
 20
985.60000000000002
 11
1087.2150000000003
 21
984.5
  0
LINE
  8
_0-0_
  6
DASHED1
 62
    7
 10
1086.7150000000003
 20
984
 11
1079.2150000000003
 21
984
  0
LINE
  8
_0-0_
  6
DASHED1
 62
    7
 10
1079.2150000000003
 20
984
 11
1079.2150000000003
 21
980
  0
LINE
  8
_0-0_
  6
DASHED1
 62
    7
 10
1078.8150000000005
 20
983.5
 11
1078.8150000000005
 21
984
  0
LINE
  8
_0-0_
  6
DASHED1
 62
    7
 10
1078.0150000000003
 20
986.10000000000002
 11
1078.0150000000003
 21
977.5
  0
LINE
  8
_0-0_
  6
DASHED1
 62
    7
 10
1078.8150000000005
 20
983.5
 11
1078.0150000000003
 21
983.5
  0
LINE
  8
_0-0_
  6
DASHED1
 62
    7
 10
1078.8150000000005
 20
980.5
 11
1078.0150000000003
 21
980.5
  0
LINE
  8
_0-0_
  6
DASHED1
 62
    7
 10
1088.0150000000003
 20
980
 11
1079.2150000000003
 21
980
  0
LINE
  8
_0-0_
  6
DASHED1
 62
    7
 10
1088.0150000000003
 20
977.5
 11
1088.0150000000003
 21
980
  0
LINE
  8
_0-0_
  6
DASHED1
 62
    7
 10
1079.2150000000003
 20
980
 11
1078.8150000000005
 21
980
  0
LINE
  8
_0-0_
  6
DASHED1
 62
    7
 10
1088.0150000000003
 20
984
 11
1078.8150000000005
 21
984
  0
LINE
  8
_0-0_
  6
DASHED1
 62
    7
 10
1078.8150000000005
 20
980
 11
1078.8150000000005
 21
980.5
  0
LINE
  8
_0-0_
  6
DASHED1
 62
    7
 10
1088.0150000000003
 20
984.93364999999994
 11
1078.0150000000003
 21
984.93364999999994
  0
LINE
  8
_0-0_
  6
DASHED1
 62
    7
 10
1078.8150000000005
 20
984
 11
1078.0150000000003
 21
984
  0
LINE
  8
_0-0_
  6
DASHED1
 62
    7
 10
1078.0150000000003
 20
987
 11
1078.0150000000003
 21
986.10000000000002
  0
LINE
  8
_0-0_
  6
DASHED1
 62
    7
 10
1088.0150000000003
 20
980
 11
1088.0150000000003
 21
987
  0
LINE
  8
_0-0_
  6
DASHED1
 62
    7
 10
1087.5150000000005
 20
1007.5
 11
1078.5149999999998
 21
1007.5
  0
LINE
  8
_0-0_
  6
DASHED1
 62
    7
 10
1078.5149999999998
 20
977
 11
1087.5150000000005
 21
977
  0
LINE
  8
_0-0_
  6
DASHED1
 62
    7
 10
1089.4924000000003
 20
982
 11
1076.4185750000001
 21
982
  0
LINE
  8
_0-0_
  6
DASHED1
 62
    7
 10
1078.0150000000003
 20
1007
 11
1078.0150000000003
 21
987
  0
ARC
  8
_0-0_
  6
DASHED1
 62
    7
 10
1088.5150000000003
 20
984.89999999999997
 40
0.5
 50
179.99999999999991
 51
269.99999999999994
  0
ARC
  8
_0-0_
  6
DASHED1
 62
    7
 10
1088.5150000000003
 20
979.0999999999999
 40
0.5
 50
89.999999999999971
 51
180
  0
ARC
  8
_0-0_
  6
DASHED1
 62
    7
 10
1086.7150000000003
 20
979.5
 40
0.5
 50
359.99999999999994
 51
89.999999999999943
  0
ARC
  8
_0-0_
  6
DASHED1
 62
    7
 10
1086.7150000000003
 20
984.5
 40
0.5
 50
269.99999999999988
 51
359.99999999999988
  0
ARC
  8
_0-0_
  6
DASHED1
 62
    7
 10
1096.5150000000003
 20
983.89999999999997
 40
0.5
 50
359.99999999999994
 51
89.999999999999943
  0
ARC
  8
_0-0_
  6
DASHED1
 62
    7
 10
1096.5150000000003
 20
980.10000000000002
 40
0.5
 50
269.99999999999988
 51
359.99999999999988
  0
ARC
  8
_0-0_
  6
DASHED1
 62
    7
 10
1087.6150000000004
 20
978.40000000000009
 40
0.4
 50
179.99999999999991
 51
269.99999999999994
  0
ARC
  8
_0-0_
  6
DASHED1
 62
    7
 10
1087.6150000000004
 20
978.40000000000009
 40
0.4
 50
269.99999999999988
 51
359.99999999999988
  0
ARC
  8
_0-0_
  6
DASHED1
 62
    7
 10
1087.6150000000004
 20
985.60000000000002
 40
0.4
 50
359.99999999999994
 51
89.999999999999943
  0
ARC
  8
_0-0_
  6
DASHED1
 62
    7
 10
1087.6150000000004
 20
985.60000000000002
 40
0.4
 50
89.999999999999971
 51
180
  0
ARC
  8
_0-0_
  6
DASHED1
 62
    7
 10
1087.5150000000005
 20
1007
 40
0.5
 50
359.99999999999994
 51
89.999999999999943
  0
ARC
  8
_0-0_
  6
DASHED1
 62
    7
 10
1078.5149999999998
 20
1007
 40
0.5
 50
89.999999999999971
 51
180
  0
ARC
  8
_0-0_
  6
DASHED1
 62
    7
 10
1078.5149999999998
 20
977.5
 40
0.5
 50
179.99999999999991
 51
269.99999999999994
  0
ARC
  8
_0-0_
  6
DASHED1
 62
    7
 10
1087.5150000000005
 20
977.5
 40
0.5
 50
269.99999999999988
 51
359.99999999999988
  0
LINE
  8
_0-0_
  6
DASHED1
 62
    7
 10
1088.0150000000003
 20
987
 11
1088.0150000000003
 21
1007
  0
LINE
  8
_0-0_
  6
DASHED1
 62
    7
 10
316.01499999999987
 20
987
 11
325.01499999999992
 21
987
  0
LINE
  8
_0-0_
  6
DASHED1
 62
    7
 10
315.01499999999992
 20
987
 11
325.01499999999992
 21
987
  0
LINE
  8
_0-0_
  6
DASHED1
 62
    7
 10
305.02030000000019
 20
982
 11
327.30122500000021
 21
982
  0
LINE
  8
_0-0_
  6
DASHED1
 62
    7
 10
315.01499999999992
 20
978.40000000000009
 11
315.01499999999992
 21
985.60000000000002
  0
LINE
  8
_0-0_
  6
DASHED1
 62
    7
 10
315.81500000000005
 20
984.5
 11
315.81500000000005
 21
979.5
  0
LINE
  8
_0-0_
  6
DASHED1
 62
    7
 10
323.81499999999959
 20
980
 11
316.31499999999959
 21
980
  0
LINE
  8
_0-0_
  6
DASHED1
 62
    7
 10
315.81500000000005
 20
979.5
 11
315.81500000000005
 21
978.40000000000009
  0
LINE
  8
_0-0_
  6
DASHED1
 62
    7
 10
314.51500000000038
 20
979.5999999999999
 11
306.51499999999998
 21
979.5999999999999
  0
LINE
  8
_0-0_
  6
DASHED1
 62
    7
 10
306.01499999999987
 20
980.10000000000002
 11
306.01499999999987
 21
983.89999999999997
  0
LINE
  8
_0-0_
  6
DASHED1
 62
    7
 10
306.51499999999998
 20
984.39999999999997
 11
314.51500000000038
 21
984.39999999999997
  0
LINE
  8
_0-0_
  6
DASHED1
 62
    7
 10
315.81500000000005
 20
985.60000000000002
 11
315.81500000000005
 21
984.5
  0
LINE
  8
_0-0_
  6
DASHED1
 62
    7
 10
316.31499999999959
 20
984
 11
323.81499999999959
 21
984
  0
LINE
  8
_0-0_
  6
DASHED1
 62
    7
 10
323.81499999999959
 20
984
 11
323.81499999999959
 21
980
  0
LINE
  8
_0-0_
  6
DASHED1
 62
    7
 10
324.2149999999998
 20
983.5
 11
324.2149999999998
 21
984
  0
LINE
  8
_0-0_
  6
DASHED1
 62
    7
 10
325.01499999999992
 20
986.10000000000002
 11
325.01499999999992
 21
977.5
  0
LINE
  8
_0-0_
  6
DASHED1
 62
    7
 10
324.2149999999998
 20
983.5
 11
325.01499999999992
 21
983.5
  0
LINE
  8
_0-0_
  6
DASHED1
 62
    7
 10
324.2149999999998
 20
980.5
 11
325.01499999999992
 21
980.5
  0
LINE
  8
_0-0_
  6
DASHED1
 62
    7
 10
315.01499999999992
 20
980
 11
323.81499999999959
 21
980
  0
LINE
  8
_0-0_
  6
DASHED1
 62
    7
 10
315.01499999999992
 20
977.5
 11
315.01499999999992
 21
980
  0
LINE
  8
_0-0_
  6
DASHED1
 62
    7
 10
323.81499999999959
 20
980
 11
324.2149999999998
 21
980
  0
LINE
  8
_0-0_
  6
DASHED1
 62
    7
 10
315.01499999999992
 20
984
 11
324.2149999999998
 21
984
  0
LINE
  8
_0-0_
  6
DASHED1
 62
    7
 10
324.2149999999998
 20
980
 11
324.2149999999998
 21
980.5
  0
LINE
  8
_0-0_
  6
DASHED1
 62
    7
 10
315.01499999999992
 20
984.93364999999994
 11
325.01499999999992
 21
984.93364999999994
  0
LINE
  8
_0-0_
  6
DASHED1
 62
    7
 10
324.2149999999998
 20
984
 11
325.01499999999992
 21
984
  0
LINE
  8
_0-0_
  6
DASHED1
 62
    7
 10
325.01499999999992
 20
987
 11
325.01499999999992
 21
986.10000000000002
  0
LINE
  8
_0-0_
  6
DASHED1
 62
    7
 10
315.01499999999992
 20
980
 11
315.01499999999992
 21
987
  0
LINE
  8
_0-0_
  6
DASHED1
 62
    7
 10
315.51500000000004
 20
1007.5
 11
324.51500000000038
 21
1007.5
  0
LINE
  8
_0-0_
  6
DASHED1
 62
    7
 10
324.51500000000038
 20
977
 11
315.51500000000004
 21
977
  0
LINE
  8
_0-0_
  6
DASHED1
 62
    7
 10
313.53759999999965
 20
982
 11
326.61142500000011
 21
982
  0
LINE
  8
_0-0_
  6
DASHED1
 62
    7
 10
325.01499999999992
 20
1007
 11
325.01499999999992
 21
987
  0
ARC
  8
_0-0_
  6
DASHED1
 62
    7
 10
314.51500000000038
 20
984.89999999999997
 40
0.5
 50
270.00000000000005
 51
0.0000000000000508
  0
ARC
  8
_0-0_
  6
DASHED1
 62
    7
 10
314.51500000000038
 20
979.0999999999999
 40
0.5
 50
0
 51
90.000000000000028
  0
ARC
  8
_0-0_
  6
DASHED1
 62
    7
 10
316.31499999999959
 20
979.5
 40
0.5
 50
90.000000000000028
 51
180.00000000000005
  0
ARC
  8
_0-0_
  6
DASHED1
 62
    7
 10
316.31499999999959
 20
984.5
 40
0.5
 50
180.00000000000005
 51
270.00000000000005
  0
ARC
  8
_0-0_
  6
DASHED1
 62
    7
 10
306.51499999999998
 20
983.89999999999997
 40
0.5
 50
90.000000000000028
 51
180.00000000000005
  0
ARC
  8
_0-0_
  6
DASHED1
 62
    7
 10
306.51499999999998
 20
980.10000000000002
 40
0.5
 50
180.00000000000005
 51
270.00000000000005
  0
ARC
  8
_0-0_
  6
DASHED1
 62
    7
 10
315.41500000000013
 20
978.40000000000009
 40
0.4
 50
270.00000000000005
 51
0.0000000000000508
  0
ARC
  8
_0-0_
  6
DASHED1
 62
    7
 10
315.41500000000013
 20
978.40000000000009
 40
0.4
 50
180.00000000000005
 51
270.00000000000005
  0
ARC
  8
_0-0_
  6
DASHED1
 62
    7
 10
315.41500000000013
 20
985.60000000000002
 40
0.4
 50
90.000000000000028
 51
180.00000000000005
  0
ARC
  8
_0-0_
  6
DASHED1
 62
    7
 10
315.41500000000013
 20
985.60000000000002
 40
0.4
 50
0
 51
90.000000000000028
  0
ARC
  8
_0-0_
  6
DASHED1
 62
    7
 10
315.51500000000004
 20
1007
 40
0.5
 50
90.000000000000028
 51
180.00000000000005
  0
ARC
  8
_0-0_
  6
DASHED1
 62
    7
 10
324.51500000000038
 20
1007
 40
0.5
 50
0
 51
90.000000000000028
  0
ARC
  8
_0-0_
  6
DASHED1
 62
    7
 10
324.51500000000038
 20
977.5
 40
0.5
 50
270.00000000000005
 51
0.0000000000000508
  0
ARC
  8
_0-0_
  6
DASHED1
 62
    7
 10
315.51500000000004
 20
977.5
 40
0.5
 50
180.00000000000005
 51
270.00000000000005
  0
LINE
  8
_0-0_
  6
DASHED1
 62
    7
 10
315.01499999999992
 20
987
 11
315.01499999999992
 21
1007
  0
LINE
  8
_0-3_
  6
CONTINUOUS
 62
    4
 10
2293.0149999999998
 20
764.00000000000022
 11
2293.0149999999998
 21
1207
  0
LINE
  8
_0-3_
  6
CONTINUOUS
 62
    4
 10
1966.015000000001
 20
1207
 11
2308.0149999999998
 21
1207
  0
LINE
  8
_0-3_
  6
CONTINUOUS
 62
    4
 10
2308.0149999999998
 20
1189.0000000000002
 11
2308.0149999999998
 21
1193
  0
LINE
  8
_0-3_
  6
CONTINUOUS
 62
    4
 10
2308.0149999999998
 20
1207
 11
2308.0149999999998
 21
1193
  0
LINE
  8
_0-3_
  6
CONTINUOUS
 62
    5
 10
2308.0149999999998
 20
764.00000000000022
 11
2308.0149999999998
 21
757
  0
LINE
  8
_0-3_
  6
CONTINUOUS
 62
    5
 10
1966.015000000001
 20
757
 11
2308.0149999999998
 21
757
  0
LINE
  8
_0-3_
  6
CONTINUOUS
 62
    4
 10
2308.0149999999998
 20
1189.0000000000002
 11
2308.0149999999998
 21
764.00000000000022
  0
LINE
  8
_0-3_
  6
CONTINUOUS
 62
    5
 10
1966.015000000001
 20
772
 11
1966.015000000001
 21
757
  0
LINE
  8
_0-3_
  6
CONTINUOUS
 62
    4
 10
1966.015000000001
 20
1207
 11
1966.015000000001
 21
772
  0
CIRCLE
  8
_0-3_
  6
CONTINUOUS
 62
    4
 10
2015.015000000001
 20
1042
 40
2.5
  0
CIRCLE
  8
_0-3_
  6
CONTINUOUS
 62
    4
 10
2015.015000000001
 20
982
 40
2.5
  0
CIRCLE
  8
_0-3_
  6
CONTINUOUS
 62
    4
 10
2015.015000000001
 20
922
 40
2.5
  0
LINE
  8
_0-3_
  6
CONTINUOUS
 62
    4
 10
2293.0149999999998
 20
1122
 11
2308.0149999999998
 21
1122
  0
LINE
  8
_0-3_
  6
CONTINUOUS
 62
    4
 10
2308.0149999999998
 20
809.00000000000022
 11
2293.0149999999998
 21
764.00000000000022
  0
LINE
  8
_0-3_
  6
CONTINUOUS
 62
    4
 10
2293.0149999999998
 20
809.00000000000022
 11
2308.0149999999998
 21
809.00000000000022
  0
LINE
  8
_0-3_
  6
CONTINUOUS
 62
    4
 10
2308.0149999999998
 20
1207
 11
2293.0149999999998
 21
1122
  0
LINE
  8
_0-3_
  6
CONTINUOUS
 62
    5
 10
2290.0149999999998
 20
772
 11
2290.0149999999998
 21
764.00000000000022
  0
LINE
  8
_0-3_
  6
CONTINUOUS
 62
    5
 10
2290.0149999999998
 20
764.00000000000022
 11
2308.0149999999998
 21
764.00000000000022
  0
LINE
  8
_0-3_
  6
CONTINUOUS
 62
    5
 10
1966.015000000001
 20
772
 11
2290.0149999999998
 21
772
  0
LINE
  8
_0-3_
  6
CONTINUOUS
 62
    4
 10
1966.015000000001
 20
1192
 11
2290.0149999999998
 21
1192
  0
LINE
  8
_0-3_
  6
CONTINUOUS
 62
    4
 10
2290.0149999999998
 20
771.49999999999988
 11
2290.0149999999998
 21
1207
  0
LINE
  8
_0-3_
  6
CONTINUOUS
 62
    7
 10
2292.5149999999998
 20
764.00000000000022
 11
2292.5149999999998
 21
1207
  0
CIRCLE
  8
_0-3_
  6
CONTINUOUS
 62
    7
 10
2015.015000000001
 20
1042
 40
2.5
  0
CIRCLE
  8
_0-3_
  6
CONTINUOUS
 62
    7
 10
2015.015000000001
 20
922
 40
2.5
  0
CIRCLE
  8
_0-3_
  6
CONTINUOUS
 62
    7
 10
2015.015000000001
 20
982
 40
2.5
  0
LINE
  8
_0-3_
  6
CENTER2
 62
    4
 10
2015.015000000001
 20
1052
 11
2015.015000000001
 21
1032
  0
LINE
  8
_0-3_
  6
CENTER2
 62
    4
 10
2005.015000000001
 20
1042
 11
2027.515000000001
 21
1042
  0
LINE
  8
_0-3_
  6
CENTER2
 62
    4
 10
2015.015000000001
 20
992
 11
2015.015000000001
 21
971.99999999999988
  0
LINE
  8
_0-3_
  6
CENTER2
 62
    4
 10
2005.015000000001
 20
982
 11
2027.515000000001
 21
982
  0
LINE
  8
_0-3_
  6
CENTER2
 62
    4
 10
2015.015000000001
 20
932
 11
2015.015000000001
 21
912
  0
LINE
  8
_0-3_
  6
CENTER2
 62
    4
 10
2005.015000000001
 20
922
 11
2027.515000000001
 21
922
  0
CIRCLE
  8
_0-3_
  6
CONTINUOUS
 62
    4
 10
2267.0150000000007
 20
982
 40
2.5
  0
CIRCLE
  8
_0-3_
  6
CONTINUOUS
 62
    4
 10
2267.0150000000007
 20
922
 40
2.5
  0
CIRCLE
  8
_0-3_
  6
CONTINUOUS
 62
    7
 10
2267.0150000000007
 20
922
 40
2.5
  0
CIRCLE
  8
_0-3_
  6
CONTINUOUS
 62
    7
 10
2267.0150000000007
 20
982
 40
2.5
  0
LINE
  8
_0-3_
  6
CENTER2
 62
    4
 10
2267.0150000000007
 20
992
 11
2267.0150000000007
 21
971.99999999999988
  0
LINE
  8
_0-3_
  6
CENTER2
 62
    4
 10
2257.0150000000007
 20
982
 11
2279.5150000000007
 21
982
  0
LINE
  8
_0-3_
  6
CENTER2
 62
    4
 10
2267.0150000000007
 20
932
 11
2267.0150000000007
 21
912
  0
LINE
  8
_0-3_
  6
CENTER2
 62
    4
 10
2257.0150000000007
 20
922
 11
2279.5150000000007
 21
922
  0
CIRCLE
  8
_0-3_
  6
CONTINUOUS
 62
    4
 10
2267.0150000000007
 20
1042
 40
2.5
  0
CIRCLE
  8
_0-3_
  6
CONTINUOUS
 62
    7
 10
2267.0150000000007
 20
1042
 40
2.5
  0
LINE
  8
_0-3_
  6
CENTER2
 62
    4
 10
2267.0150000000007
 20
1052
 11
2267.0150000000007
 21
1032
  0
LINE
  8
_0-3_
  6
CENTER2
 62
    4
 10
2257.0150000000007
 20
1042
 11
2279.5150000000007
 21
1042
  0
LINE
  8
_0-6_
  6
CONTINUOUS
 62
    7
 10
1996.5150000000012
 20
987
 11
2285.5150000000012
 21
987
  0
LINE
  8
_0-6_
  6
CONTINUOUS
 62
    7
 10
2285.5150000000012
 20
987
 11
2285.5150000000012
 21
1002
  0
LINE
  8
_0-6_
  6
CONTINUOUS
 62
    7
 10
2285.5150000000012
 20
1002
 11
1996.5150000000012
 21
1002
  0
LINE
  8
_0-6_
  6
CONTINUOUS
 62
    7
 10
1996.5150000000012
 20
1002
 11
1996.5150000000012
 21
987
  0
LINE
  8
_1-0_
  6
DASHED1
 62
    7
 10
2044.515000000001
 20
1189.4235499999999
 11
2043.408350000001
 21
1190.0625
  0
LINE
  8
_1-0_
  6
DASHED1
 62
    7
 10
2044.515000000001
 20
1188.5575499999999
 11
2042.515000000001
 21
1189.71225
  0
LINE
  8
_1-0_
  6
DASHED1
 62
    7
 10
2044.515000000001
 20
1187.6914999999999
 11
2042.515000000001
 21
1188.8462000000001
  0
LINE
  8
_1-0_
  6
DASHED1
 62
    7
 10
2044.515000000001
 20
1186.8255000000001
 11
2042.515000000001
 21
1187.9801999999999
  0
LINE
  8
_1-0_
  6
DASHED1
 62
    7
 10
2044.515000000001
 20
1185.95945
 11
2042.515000000001
 21
1187.1141500000001
  0
LINE
  8
_1-0_
  6
DASHED1
 62
    7
 10
2044.515000000001
 20
1185.0934499999998
 11
2042.515000000001
 21
1186.2481500000001
  0
LINE
  8
_1-0_
  6
DASHED1
 62
    7
 10
2044.515000000001
 20
1184.2273999999999
 11
2042.515000000001
 21
1185.3821
  0
LINE
  8
_1-0_
  6
DASHED1
 62
    7
 10
2044.515000000001
 20
1183.3614
 11
2042.515000000001
 21
1184.5161
  0
LINE
  8
_1-0_
  6
DASHED1
 62
    7
 10
2044.515000000001
 20
1182.4953500000001
 11
2042.515000000001
 21
1183.6500499999999
  0
LINE
  8
_1-0_
  6
DASHED1
 62
    7
 10
2044.515000000001
 20
1181.6293500000001
 11
2042.515000000001
 21
1182.7840499999999
  0
LINE
  8
_1-0_
  6
DASHED1
 62
    7
 10
2044.515000000001
 20
1180.7633
 11
2042.515000000001
 21
1181.9180000000001
  0
LINE
  8
_1-0_
  6
DASHED1
 62
    7
 10
2044.515000000001
 20
1179.8973
 11
2042.515000000001
 21
1181.0519999999999
  0
LINE
  8
_1-0_
  6
DASHED1
 62
    7
 10
2044.515000000001
 20
1179.03125
 11
2042.515000000001
 21
1180.18595
  0
LINE
  8
_1-0_
  6
DASHED1
 62
    7
 10
2044.515000000001
 20
1178.16525
 11
2042.515000000001
 21
1179.31995
  0
LINE
  8
_1-0_
  6
DASHED1
 62
    7
 10
2044.515000000001
 20
1177.2992000000001
 11
2042.515000000001
 21
1178.4538999999999
  0
LINE
  8
_1-0_
  6
DASHED1
 62
    7
 10
2044.515000000001
 20
1176.4331999999999
 11
2042.515000000001
 21
1177.5878999999999
  0
LINE
  8
_1-0_
  6
DASHED1
 62
    7
 10
2044.515000000001
 20
1175.5671499999998
 11
2042.515000000001
 21
1176.7218499999999
  0
LINE
  8
_1-0_
  6
DASHED1
 62
    7
 10
2044.515000000001
 20
1174.70115
 11
2042.515000000001
 21
1175.8558500000001
  0
LINE
  8
_1-0_
  6
DASHED1
 62
    7
 10
2044.515000000001
 20
1173.8351
 11
2042.515000000001
 21
1174.9898
  0
LINE
  8
_1-0_
  6
DASHED1
 62
    7
 10
2044.515000000001
 20
1172.9691
 11
2042.515000000001
 21
1174.1238
  0
LINE
  8
_1-0_
  6
DASHED1
 62
    7
 10
2044.515000000001
 20
1172.1030500000001
 11
2042.515000000001
 21
1173.2577499999999
  0
LINE
  8
_1-0_
  6
DASHED1
 62
    7
 10
2044.515000000001
 20
1171.2370499999999
 11
2042.515000000001
 21
1172.39175
  0
LINE
  8
_1-0_
  6
DASHED1
 62
    7
 10
2044.515000000001
 20
1170.371
 11
2042.515000000001
 21
1171.5256999999999
  0
LINE
  8
_1-0_
  6
DASHED1
 62
    7
 10
2044.515000000001
 20
1169.5050000000001
 11
2042.515000000001
 21
1170.6597000000001
  0
LINE
  8
_1-0_
  6
DASHED1
 62
    7
 10
2044.515000000001
 20
1168.63895
 11
2042.515000000001
 21
1169.79365
  0
LINE
  8
_1-0_
  6
DASHED1
 62
    7
 10
2044.404950000001
 20
1167.8364999999998
 11
2042.515000000001
 21
1168.92765
  0
LINE
  8
_1-0_
  6
DASHED1
 62
    7
 10
2044.2842000000009
 20
1167.04015
 11
2042.4429000000009
 21
1168.1032500000001
  0
LINE
  8
_1-0_
  6
DASHED1
 62
    7
 10
2044.0114500000008
 20
1166.3315999999999
 11
2042.2549000000008
 21
1167.3457499999999
  0
LINE
  8
_1-0_
  6
DASHED1
 62
    7
 10
2043.6666000000011
 20
1165.6647
 11
2041.9546000000011
 21
1166.6530999999999
  0
LINE
  8
_1-0_
  6
DASHED1
 62
    7
 10
2043.3217500000009
 20
1164.9977499999999
 11
2041.406550000001
 21
1166.1035000000001
  0
LINE
  8
_1-0_
  6
DASHED1
 62
    7
 10
2042.819200000001
 20
1164.4219
 11
2040.9115500000009
 21
1165.5232499999999
  0
LINE
  8
_1-0_
  6
DASHED1
 62
    7
 10
2042.2416000000009
 20
1163.8893
 11
2039.6900000000009
 21
1165.3624999999999
  0
LINE
  8
_1-0_
  6
DASHED1
 62
    7
 10
2041.5726500000009
 20
1163.4094999999999
 11
2038.1900000000009
 21
1165.3624999999999
  0
LINE
  8
_1-0_
  6
DASHED1
 62
    7
 10
2040.6842500000011
 20
1163.0564000000001
 11
2036.6900000000009
 21
1165.3624999999999
  0
LINE
  8
_1-0_
  6
DASHED1
 62
    7
 10
2039.769950000001
 20
1162.7182500000001
 11
2035.1900000000009
 21
1165.3624999999999
  0
LINE
  8
_1-0_
  6
DASHED1
 62
    7
 10
2037.039750000001
 20
1162.5625
 11
2032.7249500000011
 21
1165.05365
  0
LINE
  8
_1-0_
  6
DASHED1
 62
    7
 10
2038.4896000000007
 20
1162.5914500000001
 11
2033.749500000001
 21
1165.32815
  0
LINE
  8
_1-0_
  6
DASHED1
 62
    7
 10
2035.5397500000008
 20
1162.5625
 11
2031.7004500000009
 21
1164.7791000000001
  0
LINE
  8
_1-0_
  6
DASHED1
 62
    7
 10
2032.539750000001
 20
1162.5625
 11
2029.6514000000011
 21
1164.2300500000001
  0
LINE
  8
_1-0_
  6
DASHED1
 62
    7
 10
2034.0397500000008
 20
1162.5625
 11
2030.6759500000009
 21
1164.5045999999999
  0
LINE
  8
_1-0_
  6
DASHED1
 62
    7
 10
2031.039750000001
 20
1162.5625
 11
2028.2634000000009
 21
1164.1653999999998
  0
LINE
  8
_1-0_
  6
DASHED1
 62
    7
 10
2029.539750000001
 20
1162.5625
 11
2026.8196000000011
 21
1164.133
  0
LINE
  8
_1-0_
  6
DASHED1
 62
    7
 10
2028.0397500000008
 20
1162.5625
 11
2024.9639000000011
 21
1164.3382999999998
  0
LINE
  8
_1-0_
  6
DASHED1
 62
    7
 10
2026.5397500000012
 20
1162.5625
 11
2022.5899000000008
 21
1164.8429499999999
  0
LINE
  8
_1-0_
  6
DASHED1
 62
    7
 10
2025.039750000001
 20
1162.5625
 11
2020.215900000001
 21
1165.3475499999999
  0
LINE
  8
_1-0_
  6
DASHED1
 62
    7
 10
2023.539750000001
 20
1162.5625
 11
2017.841900000001
 21
1165.8521500000001
  0
LINE
  8
_1-0_
  6
DASHED1
 62
    7
 10
2022.039750000001
 20
1162.5625
 11
2015.4678500000011
 21
1166.3567500000001
  0
LINE
  8
_1-0_
  6
DASHED1
 62
    7
 10
2020.5397500000008
 20
1162.5625
 11
2013.0938500000011
 21
1166.8614
  0
LINE
  8
_1-0_
  6
DASHED1
 62
    7
 10
2019.0397500000012
 20
1162.5625
 11
2001.199600000001
 21
1172.8624999999999
  0
LINE
  8
_1-0_
  6
DASHED1
 62
    7
 10
2017.539750000001
 20
1162.5625
 11
1998.515000000001
 21
1173.54645
  0
LINE
  8
_1-0_
  6
DASHED1
 62
    7
 10
2016.039750000001
 20
1162.5625
 11
1998.515000000001
 21
1172.6803999999999
  0
LINE
  8
_1-0_
  6
DASHED1
 62
    7
 10
2014.539750000001
 20
1162.5625
 11
1998.515000000001
 21
1171.8144000000002
  0
LINE
  8
_1-0_
  6
DASHED1
 62
    7
 10
2011.5150000000012
 20
1178.16525
 11
2009.515000000001
 21
1179.31995
  0
LINE
  8
_1-0_
  6
DASHED1
 62
    7
 10
2011.5150000000012
 20
1177.2992000000001
 11
2009.515000000001
 21
1178.4538999999999
  0
LINE
  8
_1-0_
  6
DASHED1
 62
    7
 10
2011.5150000000012
 20
1176.4331999999999
 11
2009.515000000001
 21
1177.5878999999999
  0
LINE
  8
_1-0_
  6
DASHED1
 62
    7
 10
2011.5150000000012
 20
1175.5671499999998
 11
2009.244200000001
 21
1176.8782000000001
  0
LINE
  8
_1-0_
  6
DASHED1
 62
    7
 10
2011.5150000000012
 20
1174.70115
 11
2008.2066000000008
 21
1176.6112499999999
  0
LINE
  8
_1-0_
  6
DASHED1
 62
    7
 10
2011.5150000000012
 20
1173.8351
 11
2006.7910000000008
 21
1176.5625
  0
LINE
  8
_1-0_
  6
DASHED1
 62
    7
 10
2011.5150000000012
 20
1172.9691
 11
2005.2910000000008
 21
1176.5625
  0
LINE
  8
_1-0_
  6
DASHED1
 62
    7
 10
2011.5150000000012
 20
1172.1030500000001
 11
2003.791000000001
 21
1176.5625
  0
LINE
  8
_1-0_
  6
DASHED1
 62
    7
 10
2011.5150000000012
 20
1171.2370499999999
 11
2008.699600000001
 21
1172.8624999999999
  0
LINE
  8
_1-0_
  6
DASHED1
 62
    7
 10
2011.5150000000012
 20
1170.371
 11
2007.199600000001
 21
1172.8624999999999
  0
LINE
  8
_1-0_
  6
DASHED1
 62
    7
 10
2011.5150000000012
 20
1169.5050000000001
 11
2005.6996000000008
 21
1172.8624999999999
  0
LINE
  8
_1-0_
  6
DASHED1
 62
    7
 10
2011.518400000001
 20
1168.6369999999999
 11
2004.1996000000008
 21
1172.8624999999999
  0
LINE
  8
_1-0_
  6
DASHED1
 62
    7
 10
2011.6501500000008
 20
1167.6948999999999
 11
2002.699600000001
 21
1172.8624999999999
  0
LINE
  8
_1-0_
  6
DASHED1
 62
    7
 10
2008.699600000001
 20
1172.8624999999999
 11
2002.291000000001
 21
1176.5625
  0
LINE
  8
_1-0_
  6
DASHED1
 62
    7
 10
2007.199600000001
 20
1172.8624999999999
 11
2000.791000000001
 21
1176.5625
  0
LINE
  8
_1-0_
  6
DASHED1
 62
    7
 10
2005.6996000000008
 20
1172.8624999999999
 11
1999.515000000001
 21
1176.4331999999999
  0
LINE
  8
_1-0_
  6
DASHED1
 62
    7
 10
2004.1996000000008
 20
1172.8624999999999
 11
1998.515000000001
 21
1176.1445000000001
  0
LINE
  8
_1-0_
  6
DASHED1
 62
    7
 10
2002.699600000001
 20
1172.8624999999999
 11
1998.515000000001
 21
1175.2784999999998
  0
LINE
  8
_1-0_
  6
DASHED1
 62
    7
 10
2001.199600000001
 20
1172.8624999999999
 11
1998.515000000001
 21
1174.41245
  0
LINE
  8
_1-0_
  6
DASHED1
 62
    7
 10
2044.515000000001
 20
1190.1735499999999
 11
2043.515000000001
 21
1190.7509
  0
LINE
  8
_1-0_
  6
DASHED1
 62
    7
 10
2044.515000000001
 20
1190.1735499999999
 11
2043.408350000001
 21
1190.8125
  0
LINE
  8
_1-0_
  6
DASHED1
 62
    7
 10
2044.515000000001
 20
1190.9235499999999
 11
2043.7547500000009
 21
1191.3624999999999
  0
LINE
  8
_1-0_
  6
DASHED1
 62
    7
 10
2009.515000000001
 20
1181.0625
 11
2009.515000000001
 21
1183.0625
  0
LINE
  8
_1-0_
  6
DASHED1
 62
    7
 10
2029.515000000001
 20
1164.1935
 11
2027.015000000001
 21
1164.0625
  0
LINE
  8
_1-0_
  6
DASHED1
 62
    7
 10
2033.8777000000009
 20
1165.3624999999999
 11
2029.515000000001
 21
1164.1935
  0
LINE
  8
_1-0_
  6
DASHED1
 62
    7
 10
2011.5150000000012
 20
1178.4077999999999
 11
2009.515000000001
 21
1179.5625
  0
LINE
  8
_1-0_
  6
DASHED1
 62
    7
 10
2011.5150000000012
 20
1168.6707000000001
 11
2011.5150000000012
 21
1178.4077999999999
  0
LINE
  8
_1-0_
  6
DASHED1
 62
    7
 10
2034.5650000000009
 20
1190.0625
 11
2034.5650000000009
 21
1189.0625
  0
LINE
  8
_1-0_
  6
DASHED1
 62
    7
 10
2007.7829500000009
 20
1183.5625
 11
2009.515000000001
 21
1180.5625
  0
LINE
  8
_1-0_
  6
DASHED1
 62
    7
 10
2026.015000000001
 20
1164.1149
 11
2027.015000000001
 21
1164.0625
  0
LINE
  8
_1-0_
  6
DASHED1
 62
    7
 10
2011.8230000000012
 20
1167.1314999999999
 11
2026.015000000001
 21
1164.1149
  0
LINE
  8
_1-0_
  6
DASHED1
 62
    7
 10
2042.515000000001
 20
1190.0625
 11
2042.515000000001
 21
1168.6602
  0
LINE
  8
_1-0_
  6
DASHED1
 62
    7
 10
2033.8777000000009
 20
1165.3624999999999
 11
2040.7789000000011
 21
1165.3624999999999
  0
LINE
  8
_1-0_
  6
DASHED1
 62
    7
 10
2002.015000000001
 20
1185.2625
 11
2002.015000000001
 21
1192.8624999999999
  0
LINE
  8
_1-0_
  6
DASHED1
 62
    7
 10
2016.8150000000009
 20
1189.0625
 11
2034.5650000000009
 21
1189.0625
  0
LINE
  8
_1-0_
  6
DASHED1
 62
    7
 10
2044.515000000001
 20
1168.5625
 11
2044.515000000001
 21
1191.3624999999999
  0
LINE
  8
_1-0_
  6
DASHED1
 62
    7
 10
2043.515000000001
 20
1190.0625
 11
2043.515000000001
 21
1191.3791499999999
  0
LINE
  8
_1-0_
  6
DASHED1
 62
    7
 10
2044.515000000001
 20
1191.3624999999999
 11
1984.515000000001
 21
1192.2625
  0
LINE
  8
_1-0_
  6
DASHED1
 62
    7
 10
1985.5150000000007
 20
1192.2625
 11
1985.5150000000007
 21
1190.9625
  0
LINE
  8
_1-0_
  6
DASHED1
 62
    7
 10
2006.7745500000009
 20
1190.9625
 11
2011.015000000001
 21
1190.9625
  0
LINE
  8
_1-0_
  6
DASHED1
 62
    7
 10
1994.6935500000008
 20
1190.9625
 11
1985.6150000000011
 21
1190.9625
  0
LINE
  8
_1-0_
  6
DASHED1
 62
    7
 10
2011.015000000001
 20
1189.0625
 11
2012.215000000001
 21
1189.0625
  0
LINE
  8
_1-0_
  6
DASHED1
 62
    7
 10
1975.5150500000011
 20
1181.0625
 11
1973.5150500000008
 21
1183.0625
  0
LINE
  8
_1-0_
  6
DASHED1
 62
    7
 10
1973.5150500000008
 20
1183.0625
 11
1973.5150500000008
 21
1190.0625
  0
LINE
  8
_1-0_
  6
DASHED1
 62
    7
 10
1978.5150500000008
 20
1187.0625
 11
1978.5150500000008
 21
1185.7625
  0
LINE
  8
_1-0_
  6
DASHED1
 62
    7
 10
2014.515000000001
 20
1186.9625
 11
2014.515000000001
 21
1175.7625
  0
LINE
  8
_1-0_
  6
DASHED1
 62
    7
 10
1973.5150500000008
 20
1187.0625
 11
2003.443400000001
 21
1187.0625
  0
LINE
  8
_1-0_
  6
DASHED1
 62
    7
 10
2004.857650000001
 20
1186.4767000000001
 11
2012.3934000000008
 21
1178.9409
  0
LINE
  8
_1-0_
  6
DASHED1
 62
    7
 10
2006.6860500000009
 20
1191.0625
 11
1974.5150500000011
 21
1191.0625
  0
LINE
  8
_1-0_
  6
DASHED1
 62
    7
 10
2010.2216000000009
 20
1189.59805
 11
2013.9997500000008
 21
1185.81985
  0
LINE
  8
_1-0_
  6
DASHED1
 62
    7
 10
2009.3150000000009
 20
1181.0625
 11
2018.6250000000009
 21
1181.0625
  0
LINE
  8
_1-0_
  6
DASHED1
 62
    7
 10
2028.0150000000007
 20
1170.1324999999999
 11
2028.0150000000007
 21
1190.8524999999999
  0
LINE
  8
_1-0_
  6
DASHED1
 62
    7
 10
1984.0150500000008
 20
1187.0625
 11
1984.0150500000008
 21
1191.0625
  0
LINE
  8
_1-0_
  6
DASHED1
 62
    7
 10
1978.5150500000008
 20
1191.0625
 11
1978.5150500000008
 21
1187.0625
  0
LINE
  8
_1-0_
  6
DASHED1
 62
    7
 10
1975.5150500000011
 20
1181.0625
 11
1982.5150500000008
 21
1181.0625
  0
LINE
  8
_1-0_
  6
DASHED1
 62
    7
 10
1982.5150500000008
 20
1182.2225
 11
1982.5150500000008
 21
1181.0625
  0
LINE
  8
_1-0_
  6
DASHED1
 62
    7
 10
1982.5150500000008
 20
1182.2225
 11
1978.5150500000008
 21
1185.7625
  0
LINE
  8
_1-0_
  6
DASHED1
 62
    7
 10
2040.944100000001
 20
1175.34065
 11
2041.904400000001
 21
1183.1619
  0
LINE
  8
_1-0_
  6
DASHED1
 62
    7
 10
2041.909150000001
 20
1183.1603500000001
 11
2036.2241500000009
 21
1185.0625
  0
LINE
  8
_1-0_
  6
DASHED1
 62
    7
 10
2026.015000000001
 20
1184.0625
 11
2014.515000000001
 21
1184.0625
  0
LINE
  8
_1-0_
  6
DASHED1
 62
    7
 10
2026.015000000001
 20
1184.0625
 11
2026.015000000001
 21
1185.0625
  0
LINE
  8
_1-0_
  6
DASHED1
 62
    7
 10
2026.015000000001
 20
1185.0625
 11
2036.2241500000009
 21
1185.0625
  0
LINE
  8
_1-0_
  6
DASHED1
 62
    7
 10
2022.9091500000008
 20
1178.1486999999999
 11
2022.9091500000008
 21
1177.44685
  0
LINE
  8
_1-0_
  6
DASHED1
 62
    7
 10
2022.9091500000008
 20
1178.1486999999999
 11
2026.4091500000008
 21
1181.0261
  0
LINE
  8
_1-0_
  6
DASHED1
 62
    7
 10
2033.409150000001
 20
1180.1782
 11
2033.409150000001
 21
1176.5588500000001
  0
LINE
  8
_1-0_
  6
DASHED1
 62
    7
 10
2022.9091500000008
 20
1177.44685
 11
2026.4091500000008
 21
1180.6078999999999
  0
LINE
  8
_1-0_
  6
DASHED1
 62
    7
 10
2033.409150000001
 20
1176.5588500000001
 11
2033.409150000001
 21
1177.0774000000001
  0
LINE
  8
_1-0_
  6
DASHED1
 62
    7
 10
2016.8150000000009
 20
1189.0625
 11
2016.8150000000009
 21
1184.23475
  0
LINE
  8
_1-0_
  6
DASHED1
 62
    7
 10
2012.215000000001
 20
1189.0625
 11
2012.215000000001
 21
1187.6045999999998
  0
LINE
  8
_1-0_
  6
DASHED1
 62
    7
 10
2012.215000000001
 20
1187.6045999999998
 11
2012.215000000001
 21
1180.3999499999999
  0
LINE
  8
_1-0_
  6
DASHED1
 62
    7
 10
2016.8150000000009
 20
1184.23475
 11
2016.8150000000009
 21
1181.0625
  0
LINE
  8
_1-0_
  6
DASHED1
 62
    7
 10
2011.015000000001
 20
1188.8045999999999
 11
2011.015000000001
 21
1191.865
  0
LINE
  8
_1-0_
  6
DASHED1
 62
    7
 10
2011.015000000001
 20
1178.6965
 11
2011.015000000001
 21
1180.3193499999999
  0
LINE
  8
_1-0_
  6
DASHED1
 62
    7
 10
2011.015000000001
 20
1188.8045999999999
 11
2011.015000000001
 21
1180.3193499999999
  0
LINE
  8
_1-0_
  6
DASHED1
 62
    7
 10
2007.515000000001
 20
1185.0625
 11
2007.515000000001
 21
1184.5625
  0
LINE
  8
_1-0_
  6
DASHED1
 62
    7
 10
2003.443400000001
 20
1187.0625
 11
1985.5150000000007
 21
1187.0625
  0
LINE
  8
_1-0_
  6
DASHED1
 62
    7
 10
2005.5150000000007
 20
1187.0625
 11
2003.9150000000008
 21
1187.0625
  0
LINE
  8
_1-0_
  6
DASHED1
 62
    7
 10
1994.6935500000008
 20
1190.9625
 11
1999.1150000000011
 21
1190.9625
  0
LINE
  8
_1-0_
  6
DASHED1
 62
    7
 10
1999.1220000000009
 20
1192.0190500000001
 11
1999.116100000001
 21
1190.9625
  0
LINE
  8
_1-0_
  6
DASHED1
 62
    7
 10
2004.9085000000011
 20
1191.9226000000001
 11
2004.9139000000011
 21
1190.9625
  0
LINE
  8
_1-0_
  6
DASHED1
 62
    7
 10
2004.9150000000008
 20
1190.9625
 11
2006.7745500000009
 21
1190.9625
  0
LINE
  8
_1-0_
  6
DASHED1
 62
    7
 10
2003.9150000000008
 20
1187.0625
 11
2003.9150000000008
 21
1191.9715000000001
  0
LINE
  8
_1-0_
  6
DASHED1
 62
    7
 10
2000.1150000000009
 20
1187.0625
 11
2000.1150000000009
 21
1192.00305
  0
LINE
  8
_1-0_
  6
DASHED1
 62
    7
 10
2027.015000000001
 20
1187.5625
 11
2027.015000000001
 21
1192.5625
  0
LINE
  8
_1-0_
  6
DASHED1
 62
    7
 10
2016.8150000000009
 20
1189.0625
 11
2016.8150000000009
 21
1184.2625
  0
LINE
  8
_1-0_
  6
DASHED1
 62
    7
 10
2030.3150000000009
 20
1189.0625
 11
2011.1150000000009
 21
1189.0625
  0
LINE
  8
_1-0_
  6
DASHED1
 62
    7
 10
2013.1150000000011
 20
1189.0625
 11
2013.1150000000011
 21
1184.0625
  0
LINE
  8
_1-0_
  6
DASHED1
 62
    7
 10
2013.1150000000011
 20
1184.0625
 11
2012.515000000001
 21
1184.0625
  0
LINE
  8
_1-0_
  6
DASHED1
 62
    7
 10
2030.3150000000009
 20
1189.0625
 11
2032.515000000001
 21
1190.0625
  0
LINE
  8
_1-0_
  6
DASHED1
 62
    7
 10
2041.8150000000011
 20
1190.0625
 11
2041.8150000000011
 21
1188.0625
  0
LINE
  8
_1-0_
  6
DASHED1
 62
    7
 10
2043.515000000001
 20
1190.0625
 11
2032.515000000001
 21
1190.0625
  0
LINE
  8
_1-0_
  6
DASHED1
 62
    7
 10
2043.515000000001
 20
1191.2625
 11
2011.1150000000009
 21
1191.7625
  0
LINE
  8
_1-0_
  6
DASHED1
 62
    7
 10
2043.515000000001
 20
1191.2625
 11
2043.515000000001
 21
1190.0625
  0
LINE
  8
_1-0_
  6
DASHED1
 62
    7
 10
2042.515000000001
 20
1188.0625
 11
2041.8150000000011
 21
1188.0625
  0
LINE
  8
_1-0_
  6
DASHED1
 62
    7
 10
2011.1150000000009
 20
1184.0625
 11
2012.515000000001
 21
1184.0625
  0
LINE
  8
_1-0_
  6
DASHED1
 62
    7
 10
2011.1150000000009
 20
1191.7625
 11
2011.1150000000009
 21
1188.7046
  0
LINE
  8
_1-0_
  6
DASHED1
 62
    7
 10
2012.515000000001
 20
1189.0625
 11
2012.515000000001
 21
1187.3046000000001
  0
LINE
  8
_1-0_
  6
DASHED1
 62
    7
 10
2012.515000000001
 20
1187.3046000000001
 11
2012.515000000001
 21
1184.2625
  0
LINE
  8
_1-0_
  6
DASHED1
 62
    7
 10
2011.1150000000009
 20
1188.7046
 11
2011.1150000000009
 21
1184.0625
  0
LINE
  8
_1-0_
  6
DASHED1
 62
    7
 10
2015.8150000000009
 20
1183.2625
 11
2013.515000000001
 21
1183.2625
  0
LINE
  8
_1-0_
  6
DASHED1
 62
    7
 10
2042.515000000001
 20
1190.9625
 11
2012.1150000000011
 21
1190.9625
  0
LINE
  8
_1-0_
  6
DASHED1
 62
    7
 10
2012.1150000000011
 20
1190.9625
 11
2012.1150000000011
 21
1191.7440000000001
  0
LINE
  8
_1-0_
  6
DASHED1
 62
    7
 10
2034.5650000000009
 20
1190.0625
 11
2043.515000000001
 21
1190.0625
  0
LINE
  8
_1-0_
  6
DASHED1
 62
    7
 10
2042.515000000001
 20
1190.9625
 11
2042.515000000001
 21
1191.2779500000001
  0
LINE
  8
_1-0_
  6
DASHED1
 62
    7
 10
2011.1752500000011
 20
1191.7614
 11
2011.1150000000009
 21
1191.7265999999999
  0
LINE
  8
_1-0_
  6
DASHED1
 62
    7
 10
2018.791550000001
 20
1190.9625
 11
2015.500650000001
 21
1189.0625
  0
LINE
  8
_1-0_
  6
DASHED1
 62
    7
 10
2017.291550000001
 20
1190.9625
 11
2014.0006500000008
 21
1189.0625
  0
LINE
  8
_1-0_
  6
DASHED1
 62
    7
 10
2015.791550000001
 20
1190.9625
 11
2012.5006500000008
 21
1189.0625
  0
LINE
  8
_1-0_
  6
DASHED1
 62
    7
 10
2014.2915500000008
 20
1190.9625
 11
2011.1150000000009
 21
1189.1285
  0
LINE
  8
_1-0_
  6
DASHED1
 62
    7
 10
2012.7915500000012
 20
1190.9625
 11
2011.1150000000009
 21
1189.9945500000001
  0
LINE
  8
_1-0_
  6
DASHED1
 62
    7
 10
2012.1150000000011
 20
1191.4378999999998
 11
2011.1150000000009
 21
1190.8605500000001
  0
LINE
  8
_1-0_
  6
DASHED1
 62
    7
 10
2032.291550000001
 20
1190.9625
 11
2029.0006500000008
 21
1189.0625
  0
LINE
  8
_1-0_
  6
DASHED1
 62
    7
 10
2030.791550000001
 20
1190.9625
 11
2027.5006500000008
 21
1189.0625
  0
LINE
  8
_1-0_
  6
DASHED1
 62
    7
 10
2029.2915500000008
 20
1190.9625
 11
2026.000650000001
 21
1189.0625
  0
LINE
  8
_1-0_
  6
DASHED1
 62
    7
 10
2027.7915500000012
 20
1190.9625
 11
2024.500650000001
 21
1189.0625
  0
LINE
  8
_1-0_
  6
DASHED1
 62
    7
 10
2026.291550000001
 20
1190.9625
 11
2023.000650000001
 21
1189.0625
  0
LINE
  8
_1-0_
  6
DASHED1
 62
    7
 10
2024.791550000001
 20
1190.9625
 11
2021.5006500000008
 21
1189.0625
  0
LINE
  8
_1-0_
  6
DASHED1
 62
    7
 10
2023.291550000001
 20
1190.9625
 11
2020.0006500000008
 21
1189.0625
  0
LINE
  8
_1-0_
  6
DASHED1
 62
    7
 10
2021.7915500000008
 20
1190.9625
 11
2018.5006500000008
 21
1189.0625
  0
LINE
  8
_1-0_
  6
DASHED1
 62
    7
 10
2020.2915500000012
 20
1190.9625
 11
2017.000650000001
 21
1189.0625
  0
LINE
  8
_1-0_
  6
DASHED1
 62
    7
 10
2033.791550000001
 20
1190.9625
 11
2031.1878500000009
 21
1189.4592500000001
  0
LINE
  8
_1-0_
  6
DASHED1
 62
    7
 10
2035.2915500000008
 20
1190.9625
 11
2033.7327000000009
 21
1190.0625
  0
LINE
  8
_1-0_
  6
DASHED1
 62
    7
 10
2036.7915500000008
 20
1190.9625
 11
2035.2327000000011
 21
1190.0625
  0
LINE
  8
_1-0_
  6
DASHED1
 62
    7
 10
2038.291550000001
 20
1190.9625
 11
2036.7327000000009
 21
1190.0625
  0
LINE
  8
_1-0_
  6
DASHED1
 62
    7
 10
2039.791550000001
 20
1190.9625
 11
2038.2327000000009
 21
1190.0625
  0
LINE
  8
_1-0_
  6
DASHED1
 62
    7
 10
2041.291550000001
 20
1190.9625
 11
2039.7327000000009
 21
1190.0625
  0
LINE
  8
_1-0_
  6
DASHED1
 62
    7
 10
2043.3164500000009
 20
1191.26555
 11
2041.2327000000009
 21
1190.0625
  0
LINE
  8
_1-0_
  6
DASHED1
 62
    7
 10
2043.515000000001
 20
1190.5141499999999
 11
2042.7327000000011
 21
1190.0625
  0
LINE
  8
_1-0_
  6
DASHED1
 62
    7
 10
1984.515000000001
 20
1192.2625
 11
1984.515000000001
 21
1191.0625
  0
LINE
  8
_1-0_
  6
DASHED1
 62
    7
 10
1984.515000000001
 20
1191.0625
 11
1984.515000000001
 21
1188.0625
  0
LINE
  8
_1-0_
  6
DASHED1
 62
    7
 10
2013.0397500000008
 20
1162.5625
 11
1998.515000000001
 21
1170.9483500000001
  0
LINE
  8
_1-0_
  6
DASHED1
 62
    7
 10
2011.5397500000012
 20
1162.5625
 11
1998.515000000001
 21
1170.0823499999999
  0
LINE
  8
_1-0_
  6
DASHED1
 62
    7
 10
2010.039750000001
 20
1162.5625
 11
1998.490650000001
 21
1169.2303999999999
  0
LINE
  8
_1-0_
  6
DASHED1
 62
    7
 10
2008.539750000001
 20
1162.5625
 11
1998.515000000001
 21
1168.3503
  0
LINE
  8
_1-0_
  6
DASHED1
 62
    7
 10
2007.039750000001
 20
1162.5625
 11
1998.515000000001
 21
1167.4842499999999
  0
LINE
  8
_1-0_
  6
DASHED1
 62
    7
 10
2005.5397500000008
 20
1162.5625
 11
1998.515000000001
 21
1166.6182499999999
  0
LINE
  8
_1-0_
  6
DASHED1
 62
    7
 10
2004.0397500000008
 20
1162.5625
 11
1998.515000000001
 21
1165.7521999999999
  0
LINE
  8
_1-0_
  6
DASHED1
 62
    7
 10
2002.539750000001
 20
1162.5625
 11
1998.515000000001
 21
1164.8861999999999
  0
LINE
  8
_1-0_
  6
DASHED1
 62
    7
 10
2001.039750000001
 20
1162.5625
 11
1998.605400000001
 21
1163.9679499999999
  0
LINE
  8
_1-0_
  6
DASHED1
 62
    7
 10
2009.515000000001
 20
1181.0625
 11
2009.515000000001
 21
1177.5625
  0
LINE
  8
_1-0_
  6
DASHED1
 62
    7
 10
1998.515000000001
 20
1164.5625
 11
1998.515000000001
 21
1187.0625
  0
LINE
  8
_1-0_
  6
DASHED1
 62
    7
 10
2000.5150000000007
 20
1162.5625
 11
2038.515000000001
 21
1162.5625
  0
LINE
  8
_1-0_
  6
DASHED1
 62
    7
 10
2008.515000000001
 20
1176.5625
 11
1998.515000000001
 21
1176.5625
  0
LINE
  8
_1-0_
  6
DASHED1
 62
    7
 10
2038.7238000000011
 20
1164.67615
 11
2029.515000000001
 21
1164.1935
  0
LINE
  8
_1-0_
  6
DASHED1
 62
    7
 10
2015.3056500000011
 20
1164.67615
 11
2026.015000000001
 21
1164.1149
  0
LINE
  8
_1-0_
  6
DASHED1
 62
    7
 10
2026.4091500000008
 20
1181.0261
 11
2026.4091500000008
 21
1180.6078999999999
  0
LINE
  8
_1-0_
  6
DASHED1
 62
    7
 10
2040.3767000000011
 20
1176.4254499999999
 11
2028.0150000000007
 21
1183.5625
  0
LINE
  8
_1-0_
  6
DASHED1
 62
    7
 10
2041.3684000000009
 20
1178.7962999999999
 11
2030.5150000000007
 21
1185.0625
  0
LINE
  8
_1-0_
  6
DASHED1
 62
    7
 10
2012.6074000000012
 20
1179.43405
 11
2028.0150000000007
 21
1183.5625
  0
LINE
  8
_1-0_
  6
DASHED1
 62
    7
 10
2009.515000000001
 20
1172.8624999999999
 11
2000.5150000000007
 21
1172.8624999999999
  0
LINE
  8
_1-0_
  6
DASHED1
 62
    7
 10
2009.515000000001
 20
1172.8624999999999
 11
2009.515000000001
 21
1168.5625
  0
LINE
  8
_1-0_
  6
DASHED1
 62
    7
 10
2009.515000000001
 20
1172.8624999999999
 11
2009.515000000001
 21
1177.5625
  0
LINE
  8
_1-0_
  6
DASHED1
 62
    7
 10
1977.2650500000008
 20
1183.5625
 11
1974.7650500000008
 21
1183.5625
  0
LINE
  8
_1-0_
  6
DASHED1
 62
    7
 10
1974.7650500000008
 20
1191.0625
 11
1974.7650500000008
 21
1183.5625
  0
LINE
  8
_1-0_
  6
DASHED1
 62
    7
 10
1977.2650500000008
 20
1191.0625
 11
1977.2650500000008
 21
1183.5625
  0
LINE
  8
_1-0_
  6
DASHED1
 62
    7
 10
1976.0150500000008
 20
1181.9724999999998
 11
1976.0150500000008
 21
1193.0625
  0
ARC
  8
_1-0_
  6
DASHED1
 62
    7
 10
2038.515000000001
 20
1168.5625
 40
6.0000000000000008
 50
269.99999999999988
 51
359.99999999999988
  0
ARC
  8
_1-0_
  6
DASHED1
 62
    7
 10
2015.5150000000007
 20
1168.6707000000001
 40
4
 50
179.99999999999991
 51
202.63099999999988
  0
ARC
  8
_1-0_
  6
DASHED1
 62
    7
 10
2038.515000000001
 20
1168.6602
 40
4
 50
304.46999999999991
 51
0.0000000000000826
  0
ARC
  8
_1-0_
  6
DASHED1
 62
    7
 10
2005.5150000000007
 20
1183.0625
 40
4
 50
84.812999999999973
 51
89.999999999999971
  0
ARC
  8
_1-0_
  6
DASHED1
 62
    7
 10
2005.5150000000007
 20
1183.0625
 40
4
 50
359.99999999999994
 51
84.813000000000002
  0
CIRCLE
  8
_1-0_
  6
DASHED1
 62
    7
 10
2014.515000000001
 20
1181.0625
 40
2.1
  0
CIRCLE
  8
_1-0_
  6
DASHED1
 62
    7
 10
2014.515000000001
 20
1181.0625
 40
3.0000000000000004
  0
ARC
  8
_1-0_
  6
DASHED1
 62
    7
 10
1974.5150500000011
 20
1190.0625
 40
1
 50
89.999999999999971
 51
180
  0
ARC
  8
_1-0_
  6
DASHED1
 62
    7
 10
2016.6826500000011
 20
1183.1364499999999
 40
6.0000000000000008
 50
223.73399999999995
 51
281.21399999999994
  0
CIRCLE
  8
_1-0_
  6
DASHED1
 62
    7
 10
2014.515000000001
 20
1181.0625
 40
3.0000000000000004
  0
CIRCLE
  8
_1-0_
  6
DASHED1
 62
    7
 10
2014.515000000001
 20
1181.0625
 40
2.1
  0
ARC
  8
_1-0_
  6
DASHED1
 62
    7
 10
2003.443400000001
 20
1185.0625
 40
2
 50
44.999999999999964
 51
89.999999999999971
  0
ARC
  8
_1-0_
  6
DASHED1
 62
    7
 10
2006.6860500000009
 20
1186.0625
 40
5
 50
44.999999999999964
 51
89.999999999999971
  0
ARC
  8
_1-0_
  6
DASHED1
 62
    7
 10
2018.2424000000009
 20
1190.0625
 40
6.0000000000000008
 50
224.99999999999994
 51
269.99999999999994
  0
ARC
  8
_1-0_
  6
DASHED1
 62
    7
 10
2012.3486000000011
 20
1180.3999499999999
 40
1
 50
224.99999999999991
 51
284.99999999999994
  0
ARC
  8
_1-0_
  6
DASHED1
 62
    7
 10
2041.8809500000008
 20
1184.2532499999999
 40
10
 50
240.93599999999992
 51
257.62099999999992
  0
ARC
  8
_1-0_
  6
DASHED1
 62
    7
 10
2039.9515500000009
 20
1175.4625
 40
1
 50
257.62099999999986
 51
352.99999999999994
  0
ARC
  8
_1-0_
  6
DASHED1
 62
    7
 10
2026.1150000000009
 20
1135.5625
 40
42.00685
 50
86.96199999999996
 51
94.376999999999995
  0
ARC
  8
_1-0_
  6
DASHED1
 62
    7
 10
2027.3074500000009
 20
1158.0308999999999
 40
19.50685
 50
71.771999999999977
 51
86.961999999999974
  0
ARC
  8
_1-0_
  6
DASHED1
 62
    7
 10
2026.1150000000009
 20
1135.5625
 40
42.706699999999997
 50
86.96199999999996
 51
94.304999999999992
  0
ARC
  8
_1-0_
  6
DASHED1
 62
    7
 10
2027.3074500000009
 20
1158.0308999999999
 40
20.206700000000004
 50
72.423999999999978
 51
86.961999999999974
  0
ARC
  8
_1-0_
  6
DASHED1
 62
    7
 10
2026.1150000000009
 20
1135.5625
 40
42.5
 50
86.96199999999996
 51
101.21399999999999
  0
ARC
  8
_1-0_
  6
DASHED1
 62
    7
 10
2027.3074500000009
 20
1158.0308999999999
 40
20
 50
60.935999999999985
 51
87.972999999999984
  0
ARC
  8
_1-0_
  6
DASHED1
 62
    7
 10
2040.6267000000011
 20
1176.8585
 40
0.5
 50
239.99999999999994
 51
352.99999999999994
  0
ARC
  8
_1-0_
  6
DASHED1
 62
    7
 10
2014.515000000001
 20
1181.0625
 40
2.2999999999999998
 50
179.99999999999985
 51
359.99999999999988
  0
ARC
  8
_1-0_
  6
DASHED1
 62
    7
 10
2005.5150000000007
 20
1185.0625
 40
2
 50
359.99999999999994
 51
89.999999999999943
  0
ARC
  8
_1-0_
  6
DASHED1
 62
    7
 10
2009.515000000001
 20
1184.5625
 40
2
 50
179.99999999999985
 51
209.99999999999991
  0
ARC
  8
_1-0_
  6
DASHED1
 62
    7
 10
2013.515000000001
 20
1184.2625
 40
1
 50
179.99999999999991
 51
269.99999999999994
  0
ARC
  8
_1-0_
  6
DASHED1
 62
    7
 10
2015.8150000000009
 20
1184.2625
 40
1
 50
269.99999999999988
 51
359.99999999999988
  0
ARC
  8
_1-0_
  6
DASHED1
 62
    7
 10
1985.5150000000007
 20
1188.0625
 40
1
 50
179.99999999999991
 51
269.99999999999994
  0
ARC
  8
_1-0_
  6
DASHED1
 62
    7
 10
2027.5750000000011
 20
1172.8524999999999
 40
8.7300000000000004
 50
146.57599999999996
 51
22.665999999999996
  0
ARC
  8
_1-0_
  6
DASHED1
 62
    7
 10
2000.5150000000007
 20
1173.8624999999999
 40
1
 50
179.99999999999991
 51
269.99999999999994
  0
ARC
  8
_1-0_
  6
DASHED1
 62
    7
 10
2008.515000000001
 20
1177.5625
 40
1
 50
269.99999999999988
 51
359.99999999999988
  0
ARC
  8
_1-0_
  6
DASHED1
 62
    7
 10
2000.5150000000007
 20
1164.5625
 40
2
 50
179.99999999999991
 51
269.99999999999994
  0
ARC
  8
_1-0_
  6
DASHED1
 62
    7
 10
2038.515000000001
 20
1168.6602
 40
4
 50
273
 51
304.46999999999985
  0
ARC
  8
_1-0_
  6
DASHED1
 62
    7
 10
2015.5150000000007
 20
1168.6707000000001
 40
4
 50
202.63099999999991
 51
266.99999999999994
  0
ARC
  8
_1-0_
  6
DASHED1
 62
    7
 10
2026.1150000000009
 20
1135.5625
 40
45.472499999999996
 50
86.96199999999996
 51
89.629000000000019
  0
ARC
  8
_1-0_
  6
DASHED1
 62
    7
 10
2026.1150000000009
 20
1135.5625
 40
45.046349999999996
 50
86.96199999999996
 51
89.625999999999976
  0
ARC
  8
_1-0_
  6
DASHED1
 62
    7
 10
2027.3074500000009
 20
1158.0308999999999
 40
22.54635
 50
74.297999999999973
 51
86.961999999999974
  0
ARC
  8
_1-0_
  6
DASHED1
 62
    7
 10
2027.3074500000009
 20
1158.0308999999999
 40
22.9725
 50
74.596999999999965
 51
86.96199999999996
  0
ARC
  8
_1-0_
  6
DASHED1
 62
    7
 10
2027.5750000000011
 20
1172.8524999999999
 40
8.7300000000000004
 50
22.665999999999975
 51
146.57599999999999
  0
ARC
  8
_1-0_
  6
DASHED1
 62
    7
 10
2015.5150000000007
 20
1168.5625
 40
6.0000000000000008
 50
179.99999999999991
 51
269.99999999999994
  0
LINE
  8
_1-0_
  6
DASHED1
 62
    7
 10
2027.015000000001
 20
1193.1624999999999
 11
2027.015000000001
 21
1158.7625
  0
ARC
  8
_1-0_
  6
DASHED1
 62
    7
 10
1963.2150000000003
 20
1177
 40
1.1999999999999999
 50
90.000000000000028
 51
180.00000000000005
  0
ARC
  8
_1-0_
  6
DASHED1
 62
    7
 10
1963.2150000000003
 20
1177
 40
1.1999999999999999
 50
90.000000000000028
 51
180.00000000000005
  0
LINE
  8
_1-0_
  6
DASHED1
 62
    7
 10
1962.0150000000003
 20
1174
 11
1963.2150000000003
 21
1174
  0
LINE
  8
_1-0_
  6
DASHED1
 62
    7
 10
1963.2150000000003
 20
1177
 11
1963.2150000000003
 21
1157
  0
LINE
  8
_1-0_
  6
DASHED1
 62
    7
 10
1962.0150000000003
 20
1157
 11
1963.2150000000003
 21
1157
  0
LINE
  8
_1-0_
  6
DASHED1
 62
    7
 10
1962.0150000000003
 20
1177
 11
1962.0150000000003
 21
1157
  0
LINE
  8
_1-0_
  6
DASHED1
 62
    7
 10
1963.2150000000003
 20
1176.5
 11
1963.2150000000003
 21
1161.3593
  0
LINE
  8
_1-0_
  6
DASHED1
 62
    7
 10
1963.7150000000006
 20
1177
 11
1978.8557000000005
 21
1177
  0
LINE
  8
_1-0_
  6
DASHED1
 62
    7
 10
1993.0150000000005
 20
1177
 11
1993.0150000000005
 21
1178.1999999999998
  0
LINE
  8
_1-0_
  6
DASHED1
 62
    7
 10
1963.2150000000003
 20
1178.1999999999998
 11
1999.0150000000005
 21
1178.1999999999998
  0
LINE
  8
_1-0_
  6
DASHED1
 62
    7
 10
1963.2150000000003
 20
1177
 11
1999.0150000000005
 21
1177
  0
LINE
  8
_1-0_
  6
DASHED1
 62
    7
 10
1999.0150000000005
 20
1178.1999999999998
 11
1999.0150000000005
 21
1177
  0
LINE
  8
_0-6_
  6
DASHED1
 62
    7
 10
1486.0149999999998
 20
984.5000925954007
 11
1486.0149999999998
 21
999.5000925954007
  0
LINE
  8
_0-6_
  6
DASHED1
 62
    7
 10
514.01499999999998
 20
999.5000925954007
 11
1086.0150000000003
 21
999.5000925954007
  0
LINE
  8
_0-6_
  6
DASHED1
 62
    7
 10
514.01499999999998
 20
984.5000925954007
 11
1086.0150000000003
 21
984.5000925954007
  0
LINE
  8
_0-6_
  6
DASHED1
 62
    7
 10
1086.0150000000003
 20
984.5000925954007
 11
1086.0150000000003
 21
999.5000925954007
  0
LINE
  8
_0-6_
  6
DASHED1
 62
    7
 10
1115.0150000000003
 20
999.5000925954007
 11
1486.0149999999998
 21
999.5000925954007
  0
LINE
  8
_0-6_
  6
DASHED1
 62
    7
 10
1115.0150000000003
 20
984.5000925954007
 11
1486.0149999999998
 21
984.5000925954007
  0
LINE
  8
_0-6_
  6
DASHED1
 62
    7
 10
1115.0150000000003
 20
984.5000925954007
 11
1115.0150000000003
 21
999.5000925954007
  0
LINE
  8
_0-6_
  6
DASHED1
 62
    7
 10
317.01499999999981
 20
999.5000925954007
 11
317.01499999999981
 21
984.5000925954007
  0
LINE
  8
_0-6_
  6
DASHED1
 62
    7
 10
317.01499999999981
 20
984.5000925954007
 11
1086.0150000000003
 21
984.5000925954007
  0
LINE
  8
_0-6_
  6
DASHED1
 62
    7
 10
317.01499999999981
 20
999.5000925954007
 11
1086.0150000000003
 21
999.5000925954007
  0
LINE
  8
_1-0_
  6
DASHED1
 62
    7
 10
1164.5150000000001
 20
1193.9
 11
1164.5150000000001
 21
1185.5000000000002
  0
LINE
  8
_1-0_
  6
DASHED1
 62
    7
 10
1163.5150000000001
 20
1162.3000000000004
 11
1140.5150000000001
 21
1162.3000000000004
  0
LINE
  8
_1-0_
  6
DASHED1
 62
    7
 10
1152.0150000000001
 20
1179.3000000000001
 11
1144.5150000000001
 21
1179.3000000000001
  0
LINE
  8
_1-0_
  6
DASHED1
 62
    7
 10
1142.0150000000001
 20
1186.8000000000001
 11
1142.0150000000001
 21
1181.3000000000001
  0
LINE
  8
_1-0_
  6
DASHED1
 62
    7
 10
1143.5150000000001
 20
1180.8000000000001
 11
1142.5150000000003
 21
1180.8000000000001
  0
LINE
  8
_1-0_
  6
DASHED1
 62
    7
 10
1171.5950000000002
 20
1190.2500000000002
 11
1171.6150000000002
 21
1190.2500000000002
  0
LINE
  8
_1-0_
  6
DASHED1
 62
    7
 10
1134.5150000000001
 20
1172.6000000000003
 11
1133.5150000000001
 21
1172.6000000000003
  0
LINE
  8
_1-0_
  6
DASHED1
 62
    7
 10
1135.5150000000001
 20
1186.8000000000001
 11
1143.0150000000001
 21
1186.8000000000001
  0
LINE
  8
_1-0_
  6
DASHED1
 62
    7
 10
1134.5150000000001
 20
1185.8000000000001
 11
1134.5150000000001
 21
1168.3000000000001
  0
LINE
  8
_1-0_
  6
DASHED1
 62
    7
 10
1132.5150000000003
 20
1192.0000000000002
 11
1132.5150000000003
 21
1173.6000000000003
  0
LINE
  8
_1-0_
  6
DASHED1
 62
    7
 10
1144.0150000000001
 20
1192.0000000000002
 11
1132.5150000000003
 21
1192.0000000000002
  0
LINE
  8
_1-0_
  6
DASHED1
 62
    7
 10
1134.5150000000001
 20
1192.0000000000002
 11
1134.5150000000001
 21
1187.8000000000001
  0
LINE
  8
_1-0_
  6
DASHED1
 62
    7
 10
1144.0150000000001
 20
1192.0000000000002
 11
1144.0150000000001
 21
1179.8000000000004
  0
LINE
  8
_1-0_
  6
DASHED1
 62
    7
 10
1169.5150000000001
 20
1192.0000000000002
 11
1169.5150000000001
 21
1168.3000000000001
  0
LINE
  8
_1-0_
  6
DASHED1
 62
    7
 10
1160.0150000000003
 20
1192.0000000000002
 11
1171.5150000000001
 21
1192.0000000000002
  0
LINE
  8
_1-0_
  6
DASHED1
 62
    7
 10
1171.5150000000001
 20
1192.0000000000002
 11
1171.5150000000001
 21
1173.6000000000003
  0
LINE
  8
_1-0_
  6
DASHED1
 62
    7
 10
1169.5150000000001
 20
1172.6000000000003
 11
1170.5150000000001
 21
1172.6000000000003
  0
LINE
  8
_1-0_
  6
DASHED1
 62
    7
 10
1144.0150000000001
 20
1191.1000000000001
 11
1160.0150000000003
 21
1191.1000000000001
  0
LINE
  8
_1-0_
  6
DASHED1
 62
    7
 10
1160.0150000000003
 20
1192.0000000000002
 11
1160.0150000000003
 21
1179.8000000000004
  0
LINE
  8
_1-0_
  6
DASHED1
 62
    7
 10
1152.0150000000001
 20
1179.3000000000001
 11
1159.5150000000001
 21
1179.3000000000001
  0
LINE
  8
_1-0_
  6
DASHED1
 62
    7
 10
1168.5150000000001
 20
1186.8000000000001
 11
1161.0150000000001
 21
1186.8000000000001
  0
LINE
  8
_1-0_
  6
DASHED1
 62
    7
 10
1158.5150000000001
 20
1190.8000000000001
 11
1145.5150000000001
 21
1190.8000000000001
  0
LINE
  8
_1-0_
  6
DASHED1
 62
    7
 10
1149.0150000000001
 20
1186.8000000000001
 11
1149.0150000000001
 21
1181.8000000000001
  0
LINE
  8
_1-0_
  6
DASHED1
 62
    7
 10
1154.0150000000001
 20
1180.8000000000001
 11
1150.0150000000003
 21
1180.8000000000001
  0
LINE
  8
_1-0_
  6
DASHED1
 62
    7
 10
1155.0150000000003
 20
1186.8000000000001
 11
1155.0150000000003
 21
1181.8000000000001
  0
LINE
  8
_1-0_
  6
DASHED1
 62
    7
 10
1158.5150000000001
 20
1186.8000000000001
 11
1155.0150000000003
 21
1186.8000000000001
  0
LINE
  8
_1-0_
  6
DASHED1
 62
    7
 10
1149.0150000000001
 20
1186.8000000000001
 11
1145.5150000000001
 21
1186.8000000000001
  0
LINE
  8
_1-0_
  6
DASHED1
 62
    7
 10
1146.5150000000001
 20
1180.4038500000003
 11
1146.3184000000001
 21
1180.8636000000003
  0
LINE
  8
_1-0_
  6
DASHED1
 62
    7
 10
1157.5150000000003
 20
1180.4038500000003
 11
1157.7116
 21
1180.8636000000003
  0
LINE
  8
_1-0_
  6
DASHED1
 62
    7
 10
1159.5150000000001
 20
1179.3000000000001
 11
1159.5150000000001
 21
1189.8000000000001
  0
LINE
  8
_1-0_
  6
DASHED1
 62
    7
 10
1144.5150000000001
 20
1179.3000000000001
 11
1144.5150000000001
 21
1189.8000000000001
  0
LINE
  8
_1-0_
  6
DASHED1
 62
    7
 10
1160.5150000000001
 20
1180.8000000000001
 11
1161.5150000000001
 21
1180.8000000000001
  0
LINE
  8
_1-0_
  6
DASHED1
 62
    7
 10
1162.0150000000001
 20
1186.8000000000001
 11
1162.0150000000001
 21
1181.3000000000001
  0
LINE
  8
_1-0_
  6
DASHED1
 62
    7
 10
1144.0150000000001
 20
1184.8000000000004
 11
1144.5150000000001
 21
1184.8000000000004
  0
LINE
  8
_1-0_
  6
DASHED1
 62
    7
 10
1144.0150000000001
 20
1183.8000000000004
 11
1144.5150000000001
 21
1183.8000000000004
  0
LINE
  8
_1-0_
  6
DASHED1
 62
    7
 10
1159.5150000000001
 20
1183.8000000000004
 11
1160.0150000000003
 21
1183.8000000000004
  0
LINE
  8
_1-0_
  6
DASHED1
 62
    7
 10
1159.5150000000001
 20
1184.8000000000004
 11
1160.0150000000003
 21
1184.8000000000004
  0
LINE
  8
_1-0_
  6
DASHED1
 62
    7
 10
1144.0150000000001
 20
1191.5000000000002
 11
1160.0150000000003
 21
1191.5000000000002
  0
LINE
  8
_1-0_
  6
DASHED1
 62
    7
 10
1152.0150000000001
 20
1162.3000000000004
 11
1151.315
 21
1162.3000000000004
  0
LINE
  8
_1-0_
  6
DASHED1
 62
    7
 10
1152.0150000000001
 20
1162.3000000000004
 11
1152.7150000000001
 21
1162.3000000000004
  0
LINE
  8
_1-0_
  6
DASHED1
 62
    7
 10
1151.5150000000001
 20
1176.3000000000001
 11
1152.0150000000001
 21
1176.3000000000001
  0
LINE
  8
_1-0_
  6
DASHED1
 62
    7
 10
1151.0150000000001
 20
1162.6000000000003
 11
1151.0150000000001
 21
1175.8000000000001
  0
LINE
  8
_1-0_
  6
DASHED1
 62
    7
 10
1153.0150000000001
 20
1162.6000000000003
 11
1153.0150000000001
 21
1175.8000000000001
  0
LINE
  8
_1-0_
  6
DASHED1
 62
    7
 10
1152.0150000000001
 20
1176.3000000000001
 11
1152.5150000000003
 21
1176.3000000000001
  0
LINE
  8
_1-0_
  6
DASHED1
 62
    7
 10
1152.0150000000001
 20
1192.6000000000001
 11
1152.0150000000001
 21
1159.6000000000003
  0
ARC
  8
_1-0_
  6
DASHED1
 62
    7
 10
1140.5150000000001
 20
1168.3000000000001
 40
6.0000000000000008
 50
180.00000000000005
 51
270.00000000000005
  0
ARC
  8
_1-0_
  6
DASHED1
 62
    7
 10
1163.5150000000001
 20
1168.3000000000001
 40
6.0000000000000008
 50
270.00000000000005
 51
0.0000000000000508
  0
ARC
  8
_1-0_
  6
DASHED1
 62
    7
 10
1143.0150000000001
 20
1187.8000000000001
 40
1
 50
270.00000000000005
 51
0.0000000000000508
  0
ARC
  8
_1-0_
  6
DASHED1
 62
    7
 10
1135.5150000000001
 20
1187.8000000000001
 40
1
 50
180.00000000000005
 51
270.00000000000005
  0
ARC
  8
_1-0_
  6
DASHED1
 62
    7
 10
1144.5150000000001
 20
1179.8000000000004
 40
0.5
 50
180.00000000000005
 51
270.00000000000005
  0
ARC
  8
_1-0_
  6
DASHED1
 62
    7
 10
1143.5150000000001
 20
1181.3000000000001
 40
0.5
 50
270.00000000000005
 51
0.0000000000000508
  0
ARC
  8
_1-0_
  6
DASHED1
 62
    7
 10
1142.5150000000003
 20
1181.3000000000001
 40
0.5
 50
180.00000000000005
 51
270.00000000000005
  0
ARC
  8
_1-0_
  6
DASHED1
 62
    7
 10
1133.5150000000001
 20
1173.6000000000003
 40
1
 50
180.00000000000005
 51
270.00000000000005
  0
ARC
  8
_1-0_
  6
DASHED1
 62
    7
 10
1135.5150000000001
 20
1185.8000000000001
 40
1
 50
90.000000000000028
 51
180.00000000000005
  0
ARC
  8
_1-0_
  6
DASHED1
 62
    7
 10
1170.5150000000001
 20
1173.6000000000003
 40
1
 50
270.00000000000005
 51
0.0000000000000508
  0
ARC
  8
_1-0_
  6
DASHED1
 62
    7
 10
1159.5150000000001
 20
1179.8000000000004
 40
0.5
 50
270.00000000000005
 51
0.0000000000000508
  0
ARC
  8
_1-0_
  6
DASHED1
 62
    7
 10
1161.0150000000001
 20
1187.8000000000001
 40
1
 50
180.00000000000005
 51
270.00000000000005
  0
ARC
  8
_1-0_
  6
DASHED1
 62
    7
 10
1168.5150000000001
 20
1187.8000000000001
 40
1
 50
270.00000000000005
 51
0.0000000000000508
  0
ARC
  8
_1-0_
  6
DASHED1
 62
    7
 10
1145.5150000000001
 20
1189.8000000000001
 40
1
 50
90.000000000000028
 51
180.00000000000005
  0
ARC
  8
_1-0_
  6
DASHED1
 62
    7
 10
1158.5150000000001
 20
1189.8000000000001
 40
1
 50
0
 51
90.000000000000028
  0
ARC
  8
_1-0_
  6
DASHED1
 62
    7
 10
1145.5150000000001
 20
1187.8000000000001
 40
1
 50
180.00000000000005
 51
270.00000000000005
  0
ARC
  8
_1-0_
  6
DASHED1
 62
    7
 10
1158.5150000000001
 20
1187.8000000000001
 40
1
 50
270.00000000000005
 51
0.0000000000000508
  0
ARC
  8
_1-0_
  6
DASHED1
 62
    7
 10
1150.0150000000003
 20
1181.8000000000001
 40
1
 50
180.00000000000005
 51
270.00000000000005
  0
ARC
  8
_1-0_
  6
DASHED1
 62
    7
 10
1154.0150000000001
 20
1181.8000000000001
 40
1
 50
270.00000000000005
 51
0.0000000000000508
  0
ARC
  8
_1-0_
  6
DASHED1
 62
    7
 10
1160.5150000000001
 20
1181.3000000000001
 40
0.5
 50
180.00000000000005
 51
270.00000000000005
  0
ARC
  8
_1-0_
  6
DASHED1
 62
    7
 10
1161.5150000000001
 20
1181.3000000000001
 40
0.5
 50
270.00000000000005
 51
0.0000000000000508
  0
ARC
  8
_1-0_
  6
DASHED1
 62
    7
 10
1151.315
 20
1162.6000000000003
 40
0.2999999999999998
 50
180.00000000000005
 51
270.00000000000005
  0
ARC
  8
_1-0_
  6
DASHED1
 62
    7
 10
1152.7150000000001
 20
1162.6000000000003
 40
0.2999999999999998
 50
270.00000000000005
 51
0.0000000000000508
  0
ARC
  8
_1-0_
  6
DASHED1
 62
    7
 10
1151.5150000000001
 20
1175.8000000000001
 40
0.5
 50
90.000000000000028
 51
180.00000000000005
  0
ARC
  8
_1-0_
  6
DASHED1
 62
    7
 10
1152.5150000000003
 20
1175.8000000000001
 40
0.5
 50
0
 51
90.000000000000028
  0
LINE
  8
_1-0_
  6
DASHED1
 62
    7
 10
1139.5150000000001
 20
1193.9
 11
1139.5150000000001
 21
1185.5000000000002
  0
LINE
  8
_1-0_
  6
DASHED1
 62
    7
 10
761.51500000000055
 20
1193.9
 11
761.51500000000055
 21
1185.5
  0
LINE
  8
_1-0_
  6
DASHED1
 62
    7
 10
760.51500000000089
 20
1162.2999999999999
 11
737.51500000000078
 21
1162.2999999999999
  0
LINE
  8
_1-0_
  6
DASHED1
 62
    7
 10
749.01500000000055
 20
1179.2999999999999
 11
741.51500000000055
 21
1179.2999999999999
  0
LINE
  8
_1-0_
  6
DASHED1
 62
    7
 10
739.01500000000055
 20
1186.7999999999999
 11
739.01500000000055
 21
1181.2999999999997
  0
LINE
  8
_1-0_
  6
DASHED1
 62
    7
 10
740.51500000000089
 20
1180.7999999999999
 11
739.51500000000066
 21
1180.7999999999999
  0
LINE
  8
_1-0_
  6
DASHED1
 62
    7
 10
768.59500000000082
 20
1190.25
 11
768.61500000000091
 21
1190.25
  0
LINE
  8
_1-0_
  6
DASHED1
 62
    7
 10
731.51500000000055
 20
1172.6000000000001
 11
730.51500000000089
 21
1172.6000000000001
  0
LINE
  8
_1-0_
  6
DASHED1
 62
    7
 10
732.51500000000078
 20
1186.7999999999999
 11
740.01500000000078
 21
1186.7999999999999
  0
LINE
  8
_1-0_
  6
DASHED1
 62
    7
 10
731.51500000000055
 20
1185.7999999999999
 11
731.51500000000055
 21
1168.2999999999999
  0
LINE
  8
_1-0_
  6
DASHED1
 62
    7
 10
729.51500000000066
 20
1192
 11
729.51500000000066
 21
1173.5999999999999
  0
LINE
  8
_1-0_
  6
DASHED1
 62
    7
 10
741.01500000000078
 20
1192
 11
729.51500000000066
 21
1192
  0
LINE
  8
_1-0_
  6
DASHED1
 62
    7
 10
731.51500000000055
 20
1192
 11
731.51500000000055
 21
1187.7999999999999
  0
LINE
  8
_1-0_
  6
DASHED1
 62
    7
 10
741.01500000000078
 20
1192
 11
741.01500000000078
 21
1179.7999999999999
  0
LINE
  8
_1-0_
  6
DASHED1
 62
    7
 10
766.51500000000055
 20
1192
 11
766.51500000000055
 21
1168.2999999999999
  0
LINE
  8
_1-0_
  6
DASHED1
 62
    7
 10
757.01500000000066
 20
1192
 11
768.51500000000078
 21
1192
  0
LINE
  8
_1-0_
  6
DASHED1
 62
    7
 10
768.51500000000078
 20
1192
 11
768.51500000000078
 21
1173.5999999999999
  0
LINE
  8
_1-0_
  6
DASHED1
 62
    7
 10
766.51500000000055
 20
1172.6000000000001
 11
767.51500000000078
 21
1172.6000000000001
  0
LINE
  8
_1-0_
  6
DASHED1
 62
    7
 10
741.01500000000078
 20
1191.0999999999999
 11
757.01500000000066
 21
1191.0999999999999
  0
LINE
  8
_1-0_
  6
DASHED1
 62
    7
 10
757.01500000000066
 20
1192
 11
757.01500000000066
 21
1179.7999999999999
  0
LINE
  8
_1-0_
  6
DASHED1
 62
    7
 10
749.01500000000055
 20
1179.2999999999999
 11
756.51500000000055
 21
1179.2999999999999
  0
LINE
  8
_1-0_
  6
DASHED1
 62
    7
 10
765.51500000000089
 20
1186.7999999999999
 11
758.01500000000089
 21
1186.7999999999999
  0
LINE
  8
_1-0_
  6
DASHED1
 62
    7
 10
755.51500000000089
 20
1190.7999999999999
 11
742.51500000000078
 21
1190.7999999999999
  0
LINE
  8
_1-0_
  6
DASHED1
 62
    7
 10
746.01500000000078
 20
1186.7999999999999
 11
746.01500000000078
 21
1181.7999999999999
  0
LINE
  8
_1-0_
  6
DASHED1
 62
    7
 10
751.01500000000078
 20
1180.7999999999999
 11
747.01500000000066
 21
1180.7999999999999
  0
LINE
  8
_1-0_
  6
DASHED1
 62
    7
 10
752.01500000000066
 20
1186.7999999999999
 11
752.01500000000066
 21
1181.7999999999999
  0
LINE
  8
_1-0_
  6
DASHED1
 62
    7
 10
755.51500000000089
 20
1186.7999999999999
 11
752.01500000000066
 21
1186.7999999999999
  0
LINE
  8
_1-0_
  6
DASHED1
 62
    7
 10
746.01500000000078
 20
1186.7999999999999
 11
742.51500000000078
 21
1186.7999999999999
  0
LINE
  8
_1-0_
  6
DASHED1
 62
    7
 10
743.51500000000078
 20
1180.4038499999999
 11
743.31840000000056
 21
1180.8635999999999
  0
LINE
  8
_1-0_
  6
DASHED1
 62
    7
 10
754.51500000000066
 20
1180.4038499999999
 11
754.71160000000054
 21
1180.8635999999999
  0
LINE
  8
_1-0_
  6
DASHED1
 62
    7
 10
756.51500000000055
 20
1179.2999999999999
 11
756.51500000000055
 21
1189.7999999999999
  0
LINE
  8
_1-0_
  6
DASHED1
 62
    7
 10
741.51500000000055
 20
1179.2999999999999
 11
741.51500000000055
 21
1189.7999999999999
  0
LINE
  8
_1-0_
  6
DASHED1
 62
    7
 10
757.51500000000078
 20
1180.7999999999999
 11
758.51500000000078
 21
1180.7999999999999
  0
LINE
  8
_1-0_
  6
DASHED1
 62
    7
 10
759.01500000000055
 20
1186.7999999999999
 11
759.01500000000055
 21
1181.2999999999997
  0
LINE
  8
_1-0_
  6
DASHED1
 62
    7
 10
741.01500000000078
 20
1184.7999999999999
 11
741.51500000000055
 21
1184.7999999999999
  0
LINE
  8
_1-0_
  6
DASHED1
 62
    7
 10
741.01500000000078
 20
1183.8000000000001
 11
741.51500000000055
 21
1183.8000000000001
  0
LINE
  8
_1-0_
  6
DASHED1
 62
    7
 10
756.51500000000055
 20
1183.8000000000001
 11
757.01500000000066
 21
1183.8000000000001
  0
LINE
  8
_1-0_
  6
DASHED1
 62
    7
 10
756.51500000000055
 20
1184.7999999999999
 11
757.01500000000066
 21
1184.7999999999999
  0
LINE
  8
_1-0_
  6
DASHED1
 62
    7
 10
741.01500000000078
 20
1191.5
 11
757.01500000000066
 21
1191.5
  0
LINE
  8
_1-0_
  6
DASHED1
 62
    7
 10
749.01500000000055
 20
1162.2999999999999
 11
748.31500000000062
 21
1162.2999999999999
  0
LINE
  8
_1-0_
  6
DASHED1
 62
    7
 10
749.01500000000055
 20
1162.2999999999999
 11
749.71500000000082
 21
1162.2999999999999
  0
LINE
  8
_1-0_
  6
DASHED1
 62
    7
 10
748.51500000000078
 20
1176.2999999999997
 11
749.01500000000055
 21
1176.2999999999997
  0
LINE
  8
_1-0_
  6
DASHED1
 62
    7
 10
748.01500000000089
 20
1162.6000000000001
 11
748.01500000000089
 21
1175.7999999999999
  0
LINE
  8
_1-0_
  6
DASHED1
 62
    7
 10
750.01500000000078
 20
1162.6000000000001
 11
750.01500000000078
 21
1175.7999999999999
  0
LINE
  8
_1-0_
  6
DASHED1
 62
    7
 10
749.01500000000055
 20
1176.2999999999997
 11
749.51500000000066
 21
1176.2999999999997
  0
LINE
  8
_1-0_
  6
DASHED1
 62
    7
 10
749.01500000000055
 20
1192.6000000000001
 11
749.01500000000055
 21
1159.6000000000001
  0
ARC
  8
_1-0_
  6
DASHED1
 62
    7
 10
737.51500000000078
 20
1168.2999999999999
 40
6.0000000000000008
 50
180.00000000000005
 51
270.00000000000005
  0
ARC
  8
_1-0_
  6
DASHED1
 62
    7
 10
760.51500000000089
 20
1168.2999999999999
 40
6.0000000000000008
 50
270.00000000000005
 51
0.0000000000000508
  0
ARC
  8
_1-0_
  6
DASHED1
 62
    7
 10
740.01500000000078
 20
1187.7999999999999
 40
1
 50
270.00000000000005
 51
0.0000000000000508
  0
ARC
  8
_1-0_
  6
DASHED1
 62
    7
 10
732.51500000000078
 20
1187.7999999999999
 40
1
 50
180.00000000000005
 51
270.00000000000005
  0
ARC
  8
_1-0_
  6
DASHED1
 62
    7
 10
741.51500000000055
 20
1179.7999999999999
 40
0.5
 50
180.00000000000005
 51
270.00000000000005
  0
ARC
  8
_1-0_
  6
DASHED1
 62
    7
 10
740.51500000000089
 20
1181.2999999999997
 40
0.5
 50
270.00000000000005
 51
0.0000000000000508
  0
ARC
  8
_1-0_
  6
DASHED1
 62
    7
 10
739.51500000000066
 20
1181.2999999999997
 40
0.5
 50
180.00000000000005
 51
270.00000000000005
  0
ARC
  8
_1-0_
  6
DASHED1
 62
    7
 10
730.51500000000089
 20
1173.5999999999999
 40
1
 50
180.00000000000005
 51
270.00000000000005
  0
ARC
  8
_1-0_
  6
DASHED1
 62
    7
 10
732.51500000000078
 20
1185.7999999999999
 40
1
 50
90.000000000000028
 51
180.00000000000005
  0
ARC
  8
_1-0_
  6
DASHED1
 62
    7
 10
767.51500000000078
 20
1173.5999999999999
 40
1
 50
270.00000000000005
 51
0.0000000000000508
  0
ARC
  8
_1-0_
  6
DASHED1
 62
    7
 10
756.51500000000055
 20
1179.7999999999999
 40
0.5
 50
270.00000000000005
 51
0.0000000000000508
  0
ARC
  8
_1-0_
  6
DASHED1
 62
    7
 10
758.01500000000089
 20
1187.7999999999999
 40
1
 50
180.00000000000005
 51
270.00000000000005
  0
ARC
  8
_1-0_
  6
DASHED1
 62
    7
 10
765.51500000000089
 20
1187.7999999999999
 40
1
 50
270.00000000000005
 51
0.0000000000000508
  0
ARC
  8
_1-0_
  6
DASHED1
 62
    7
 10
742.51500000000078
 20
1189.7999999999999
 40
1
 50
90.000000000000028
 51
180.00000000000005
  0
ARC
  8
_1-0_
  6
DASHED1
 62
    7
 10
755.51500000000089
 20
1189.7999999999999
 40
1
 50
0
 51
90.000000000000028
  0
ARC
  8
_1-0_
  6
DASHED1
 62
    7
 10
742.51500000000078
 20
1187.7999999999999
 40
1
 50
180.00000000000005
 51
270.00000000000005
  0
ARC
  8
_1-0_
  6
DASHED1
 62
    7
 10
755.51500000000089
 20
1187.7999999999999
 40
1
 50
270.00000000000005
 51
0.0000000000000508
  0
ARC
  8
_1-0_
  6
DASHED1
 62
    7
 10
747.01500000000066
 20
1181.7999999999999
 40
1
 50
180.00000000000005
 51
270.00000000000005
  0
ARC
  8
_1-0_
  6
DASHED1
 62
    7
 10
751.01500000000078
 20
1181.7999999999999
 40
1
 50
270.00000000000005
 51
0.0000000000000508
  0
ARC
  8
_1-0_
  6
DASHED1
 62
    7
 10
757.51500000000078
 20
1181.2999999999997
 40
0.5
 50
180.00000000000005
 51
270.00000000000005
  0
ARC
  8
_1-0_
  6
DASHED1
 62
    7
 10
758.51500000000078
 20
1181.2999999999997
 40
0.5
 50
270.00000000000005
 51
0.0000000000000508
  0
ARC
  8
_1-0_
  6
DASHED1
 62
    7
 10
748.31500000000062
 20
1162.6000000000001
 40
0.2999999999999998
 50
180.00000000000005
 51
270.00000000000005
  0
ARC
  8
_1-0_
  6
DASHED1
 62
    7
 10
749.71500000000082
 20
1162.6000000000001
 40
0.2999999999999998
 50
270.00000000000005
 51
0.0000000000000508
  0
ARC
  8
_1-0_
  6
DASHED1
 62
    7
 10
748.51500000000078
 20
1175.7999999999999
 40
0.5
 50
90.000000000000028
 51
180.00000000000005
  0
ARC
  8
_1-0_
  6
DASHED1
 62
    7
 10
749.51500000000066
 20
1175.7999999999999
 40
0.5
 50
0
 51
90.000000000000028
  0
LINE
  8
_1-0_
  6
DASHED1
 62
    7
 10
736.51500000000055
 20
1193.9
 11
736.51500000000055
 21
1185.5
  0
LINE
  8
_1-0_
  6
DASHED1
 62
    7
 10
660.51500000000089
 20
1193.9
 11
660.51500000000089
 21
1185.5
  0
LINE
  8
_1-0_
  6
DASHED1
 62
    7
 10
659.515000000001
 20
1162.2999999999999
 11
636.51500000000112
 21
1162.2999999999999
  0
LINE
  8
_1-0_
  6
DASHED1
 62
    7
 10
648.01500000000089
 20
1179.2999999999999
 11
640.51500000000089
 21
1179.2999999999999
  0
LINE
  8
_1-0_
  6
DASHED1
 62
    7
 10
638.01500000000089
 20
1186.7999999999999
 11
638.01500000000089
 21
1181.2999999999997
  0
LINE
  8
_1-0_
  6
DASHED1
 62
    7
 10
639.515000000001
 20
1180.7999999999999
 11
638.515000000001
 21
1180.7999999999999
  0
LINE
  8
_1-0_
  6
DASHED1
 62
    7
 10
667.59500000000116
 20
1190.25
 11
667.61500000000091
 21
1190.25
  0
LINE
  8
_1-0_
  6
DASHED1
 62
    7
 10
630.51500000000089
 20
1172.6000000000001
 11
629.515000000001
 21
1172.6000000000001
  0
LINE
  8
_1-0_
  6
DASHED1
 62
    7
 10
631.51500000000112
 20
1186.7999999999999
 11
639.01500000000112
 21
1186.7999999999999
  0
LINE
  8
_1-0_
  6
DASHED1
 62
    7
 10
630.51500000000089
 20
1185.7999999999999
 11
630.51500000000089
 21
1168.2999999999999
  0
LINE
  8
_1-0_
  6
DASHED1
 62
    7
 10
628.515000000001
 20
1192
 11
628.515000000001
 21
1173.5999999999999
  0
LINE
  8
_1-0_
  6
DASHED1
 62
    7
 10
640.01500000000078
 20
1192
 11
628.515000000001
 21
1192
  0
LINE
  8
_1-0_
  6
DASHED1
 62
    7
 10
630.51500000000089
 20
1192
 11
630.51500000000089
 21
1187.7999999999999
  0
LINE
  8
_1-0_
  6
DASHED1
 62
    7
 10
640.01500000000078
 20
1192
 11
640.01500000000078
 21
1179.7999999999999
  0
LINE
  8
_1-0_
  6
DASHED1
 62
    7
 10
665.51500000000089
 20
1192
 11
665.51500000000089
 21
1168.2999999999999
  0
LINE
  8
_1-0_
  6
DASHED1
 62
    7
 10
656.015000000001
 20
1192
 11
667.51500000000078
 21
1192
  0
LINE
  8
_1-0_
  6
DASHED1
 62
    7
 10
667.51500000000078
 20
1192
 11
667.51500000000078
 21
1173.5999999999999
  0
LINE
  8
_1-0_
  6
DASHED1
 62
    7
 10
665.51500000000089
 20
1172.6000000000001
 11
666.51500000000112
 21
1172.6000000000001
  0
LINE
  8
_1-0_
  6
DASHED1
 62
    7
 10
640.01500000000078
 20
1191.0999999999999
 11
656.015000000001
 21
1191.0999999999999
  0
LINE
  8
_1-0_
  6
DASHED1
 62
    7
 10
656.015000000001
 20
1192
 11
656.015000000001
 21
1179.7999999999999
  0
LINE
  8
_1-0_
  6
DASHED1
 62
    7
 10
648.01500000000089
 20
1179.2999999999999
 11
655.51500000000089
 21
1179.2999999999999
  0
LINE
  8
_1-0_
  6
DASHED1
 62
    7
 10
664.515000000001
 20
1186.7999999999999
 11
657.015000000001
 21
1186.7999999999999
  0
LINE
  8
_1-0_
  6
DASHED1
 62
    7
 10
654.515000000001
 20
1190.7999999999999
 11
641.51500000000112
 21
1190.7999999999999
  0
LINE
  8
_1-0_
  6
DASHED1
 62
    7
 10
645.01500000000078
 20
1186.7999999999999
 11
645.01500000000078
 21
1181.7999999999999
  0
LINE
  8
_1-0_
  6
DASHED1
 62
    7
 10
650.01500000000078
 20
1180.7999999999999
 11
646.015000000001
 21
1180.7999999999999
  0
LINE
  8
_1-0_
  6
DASHED1
 62
    7
 10
651.015000000001
 20
1186.7999999999999
 11
651.015000000001
 21
1181.7999999999999
  0
LINE
  8
_1-0_
  6
DASHED1
 62
    7
 10
654.515000000001
 20
1186.7999999999999
 11
651.015000000001
 21
1186.7999999999999
  0
LINE
  8
_1-0_
  6
DASHED1
 62
    7
 10
645.01500000000078
 20
1186.7999999999999
 11
641.51500000000112
 21
1186.7999999999999
  0
LINE
  8
_1-0_
  6
DASHED1
 62
    7
 10
642.51500000000078
 20
1180.4038499999999
 11
642.3184000000009
 21
1180.8635999999999
  0
LINE
  8
_1-0_
  6
DASHED1
 62
    7
 10
653.515000000001
 20
1180.4038499999999
 11
653.71160000000088
 21
1180.8635999999999
  0
LINE
  8
_1-0_
  6
DASHED1
 62
    7
 10
655.51500000000089
 20
1179.2999999999999
 11
655.51500000000089
 21
1189.7999999999999
  0
LINE
  8
_1-0_
  6
DASHED1
 62
    7
 10
640.51500000000089
 20
1179.2999999999999
 11
640.51500000000089
 21
1189.7999999999999
  0
LINE
  8
_1-0_
  6
DASHED1
 62
    7
 10
656.51500000000112
 20
1180.7999999999999
 11
657.51500000000078
 21
1180.7999999999999
  0
LINE
  8
_1-0_
  6
DASHED1
 62
    7
 10
658.01500000000089
 20
1186.7999999999999
 11
658.01500000000089
 21
1181.2999999999997
  0
LINE
  8
_1-0_
  6
DASHED1
 62
    7
 10
640.01500000000078
 20
1184.7999999999999
 11
640.51500000000089
 21
1184.7999999999999
  0
LINE
  8
_1-0_
  6
DASHED1
 62
    7
 10
640.01500000000078
 20
1183.8000000000001
 11
640.51500000000089
 21
1183.8000000000001
  0
LINE
  8
_1-0_
  6
DASHED1
 62
    7
 10
655.51500000000089
 20
1183.8000000000001
 11
656.015000000001
 21
1183.8000000000001
  0
LINE
  8
_1-0_
  6
DASHED1
 62
    7
 10
655.51500000000089
 20
1184.7999999999999
 11
656.015000000001
 21
1184.7999999999999
  0
LINE
  8
_1-0_
  6
DASHED1
 62
    7
 10
640.01500000000078
 20
1191.5
 11
656.015000000001
 21
1191.5
  0
LINE
  8
_1-0_
  6
DASHED1
 62
    7
 10
648.01500000000089
 20
1162.2999999999999
 11
647.31500000000096
 21
1162.2999999999999
  0
LINE
  8
_1-0_
  6
DASHED1
 62
    7
 10
648.01500000000089
 20
1162.2999999999999
 11
648.71500000000082
 21
1162.2999999999999
  0
LINE
  8
_1-0_
  6
DASHED1
 62
    7
 10
647.51500000000078
 20
1176.2999999999997
 11
648.01500000000089
 21
1176.2999999999997
  0
LINE
  8
_1-0_
  6
DASHED1
 62
    7
 10
647.015000000001
 20
1162.6000000000001
 11
647.015000000001
 21
1175.7999999999999
  0
LINE
  8
_1-0_
  6
DASHED1
 62
    7
 10
649.01500000000112
 20
1162.6000000000001
 11
649.01500000000112
 21
1175.7999999999999
  0
LINE
  8
_1-0_
  6
DASHED1
 62
    7
 10
648.01500000000089
 20
1176.2999999999997
 11
648.515000000001
 21
1176.2999999999997
  0
LINE
  8
_1-0_
  6
DASHED1
 62
    7
 10
648.01500000000089
 20
1192.6000000000001
 11
648.01500000000089
 21
1159.6000000000001
  0
ARC
  8
_1-0_
  6
DASHED1
 62
    7
 10
636.51500000000112
 20
1168.2999999999999
 40
6.0000000000000008
 50
180.00000000000005
 51
270.00000000000005
  0
ARC
  8
_1-0_
  6
DASHED1
 62
    7
 10
659.515000000001
 20
1168.2999999999999
 40
6.0000000000000008
 50
270.00000000000005
 51
0.0000000000000508
  0
ARC
  8
_1-0_
  6
DASHED1
 62
    7
 10
639.01500000000112
 20
1187.7999999999999
 40
1
 50
270.00000000000005
 51
0.0000000000000508
  0
ARC
  8
_1-0_
  6
DASHED1
 62
    7
 10
631.51500000000112
 20
1187.7999999999999
 40
1
 50
180.00000000000005
 51
270.00000000000005
  0
ARC
  8
_1-0_
  6
DASHED1
 62
    7
 10
640.51500000000089
 20
1179.7999999999999
 40
0.5
 50
180.00000000000005
 51
270.00000000000005
  0
ARC
  8
_1-0_
  6
DASHED1
 62
    7
 10
639.515000000001
 20
1181.2999999999997
 40
0.5
 50
270.00000000000005
 51
0.0000000000000508
  0
ARC
  8
_1-0_
  6
DASHED1
 62
    7
 10
638.515000000001
 20
1181.2999999999997
 40
0.5
 50
180.00000000000005
 51
270.00000000000005
  0
ARC
  8
_1-0_
  6
DASHED1
 62
    7
 10
629.515000000001
 20
1173.5999999999999
 40
1
 50
180.00000000000005
 51
270.00000000000005
  0
ARC
  8
_1-0_
  6
DASHED1
 62
    7
 10
631.51500000000112
 20
1185.7999999999999
 40
1
 50
90.000000000000028
 51
180.00000000000005
  0
ARC
  8
_1-0_
  6
DASHED1
 62
    7
 10
666.51500000000112
 20
1173.5999999999999
 40
1
 50
270.00000000000005
 51
0.0000000000000508
  0
ARC
  8
_1-0_
  6
DASHED1
 62
    7
 10
655.51500000000089
 20
1179.7999999999999
 40
0.5
 50
270.00000000000005
 51
0.0000000000000508
  0
ARC
  8
_1-0_
  6
DASHED1
 62
    7
 10
657.015000000001
 20
1187.7999999999999
 40
1
 50
180.00000000000005
 51
270.00000000000005
  0
ARC
  8
_1-0_
  6
DASHED1
 62
    7
 10
664.515000000001
 20
1187.7999999999999
 40
1
 50
270.00000000000005
 51
0.0000000000000508
  0
ARC
  8
_1-0_
  6
DASHED1
 62
    7
 10
641.51500000000112
 20
1189.7999999999999
 40
1
 50
90.000000000000028
 51
180.00000000000005
  0
ARC
  8
_1-0_
  6
DASHED1
 62
    7
 10
654.515000000001
 20
1189.7999999999999
 40
1
 50
0
 51
90.000000000000028
  0
ARC
  8
_1-0_
  6
DASHED1
 62
    7
 10
641.51500000000112
 20
1187.7999999999999
 40
1
 50
180.00000000000005
 51
270.00000000000005
  0
ARC
  8
_1-0_
  6
DASHED1
 62
    7
 10
654.515000000001
 20
1187.7999999999999
 40
1
 50
270.00000000000005
 51
0.0000000000000508
  0
ARC
  8
_1-0_
  6
DASHED1
 62
    7
 10
646.015000000001
 20
1181.7999999999999
 40
1
 50
180.00000000000005
 51
270.00000000000005
  0
ARC
  8
_1-0_
  6
DASHED1
 62
    7
 10
650.01500000000078
 20
1181.7999999999999
 40
1
 50
270.00000000000005
 51
0.0000000000000508
  0
ARC
  8
_1-0_
  6
DASHED1
 62
    7
 10
656.51500000000112
 20
1181.2999999999997
 40
0.5
 50
180.00000000000005
 51
270.00000000000005
  0
ARC
  8
_1-0_
  6
DASHED1
 62
    7
 10
657.51500000000078
 20
1181.2999999999997
 40
0.5
 50
270.00000000000005
 51
0.0000000000000508
  0
ARC
  8
_1-0_
  6
DASHED1
 62
    7
 10
647.31500000000096
 20
1162.6000000000001
 40
0.2999999999999998
 50
180.00000000000005
 51
270.00000000000005
  0
ARC
  8
_1-0_
  6
DASHED1
 62
    7
 10
648.71500000000082
 20
1162.6000000000001
 40
0.2999999999999998
 50
270.00000000000005
 51
0.0000000000000508
  0
ARC
  8
_1-0_
  6
DASHED1
 62
    7
 10
647.51500000000078
 20
1175.7999999999999
 40
0.5
 50
90.000000000000028
 51
180.00000000000005
  0
ARC
  8
_1-0_
  6
DASHED1
 62
    7
 10
648.515000000001
 20
1175.7999999999999
 40
0.5
 50
0
 51
90.000000000000028
  0
LINE
  8
_1-0_
  6
DASHED1
 62
    7
 10
635.51500000000089
 20
1193.9
 11
635.51500000000089
 21
1185.5
  0
LINE
  8
_0-3_
  6
DASHED1
 62
    4
 10
315.01499999999992
 20
1192.0000000000002
 11
1485.0150000000003
 21
1192.0000000000002
  0
POINT
  8
_0-9_
 62
    3
 10
1830.0149999999998
 20
2410
  0
POINT
  8
_0-9_
 62
    3
 10
1830.0149999999998
 20
2410
  0
POINT
  8
_0-9_
 62
    3
 10
1830.0149999999998
 20
2052
  0
POINT
  8
_0-9_
 62
    3
 10
2398.0149999999998
 20
1042
  0
POINT
  8
_0-9_
 62
    3
 10
2398.0149999999998
 20
982.00000000000022
  0
POINT
  8
_0-9_
 62
    3
 10
2398.0149999999998
 20
922
  0
POINT
  8
_0-9_
 62
    3
 10
2398.0149999999998
 20
757
  0
LINE
  8
_e-0_
  6
CONTINUOUS
 62
    7
 10
2243.7859302690862
 20
199.51965480360598
 11
2272.9339284698526
 21
210.12865853712995
  0
LINE
  8
_e-0_
  6
CONTINUOUS
 62
    7
 10
2237.6336615052869
 20
191.95952323799758
 11
2287.5529504706664
 21
210.12865853712895
  0
LINE
  8
_e-0_
  6
CONTINUOUS
 62
    7
 10
2234.2067375789874
 20
185.39133607135255
 11
2263.8643430051365
 21
196.18582166608263
  0
LINE
  8
_e-0_
  6
CONTINUOUS
 62
    7
 10
2232.2119570371696
 20
179.34440646785787
 11
2253.9586582709303
 21
187.25955841042662
  0
LINE
  8
_e-0_
  6
CONTINUOUS
 62
    7
 10
2231.2024514117433
 20
173.65608760649877
 11
2249.4574587956462
 21
180.3003669205492
  0
LINE
  8
_e-0_
  6
CONTINUOUS
 62
    7
 10
2230.9649088875535
 20
168.248740335938
 11
2249.3748102388385
 21
174.94939644358311
  0
LINE
  8
_e-0_
  6
CONTINUOUS
 62
    7
 10
2231.3837497438626
 20
163.08029707814966
 11
2249.8286640768283
 21
169.79369686893903
  0
LINE
  8
_e-0_
  6
CONTINUOUS
 62
    7
 10
2232.3950068941753
 20
158.12747571767488
 11
2251.269568818267
 21
164.99725444285843
  0
LINE
  8
_e-0_
  6
CONTINUOUS
 62
    7
 10
2233.9675550564961
 20
153.37894757832998
 11
2253.6625167678698
 21
160.54732740628253
  0
LINE
  8
_e-0_
  6
CONTINUOUS
 62
    7
 10
2236.0955302019183
 20
148.83257832814223
 11
2257.099910488102
 21
156.47754754152117
  0
LINE
  8
_e-0_
  6
CONTINUOUS
 62
    7
 10
2238.7970089264299
 20
144.49494730998821
 11
2261.880116002736
 21
152.89651120014326
  0
LINE
  8
_e-0_
  6
CONTINUOUS
 62
    7
 10
2242.1181877425701
 20
140.38286867935909
 11
2268.9468388985251
 21
150.14769912563821
  0
LINE
  8
_e-0_
  6
CONTINUOUS
 62
    7
 10
2246.1455691824353
 20
136.52782678312661
 11
2284.5651405528205
 21
150.51140717521263
  0
LINE
  8
_e-0_
  6
CONTINUOUS
 62
    7
 10
2251.0351047702797
 20
132.98658333410969
 11
2279.1844822576495
 21
143.2321188526356
  0
LINE
  8
_e-0_
  6
CONTINUOUS
 62
    7
 10
2279.5849322183671
 20
201.90764820482513
 11
2302.1719724714803
 21
210.12865853713066
  0
LINE
  8
_e-0_
  6
CONTINUOUS
 62
    7
 10
2260.5624543087296
 20
189.663143601351
 11
2313.0511299164636
 21
208.76745915862059
  0
LINE
  8
_e-0_
  6
CONTINUOUS
 62
    7
 10
2273.0696188494734
 20
188.89449034687174
 11
2313.0511299164636
 21
203.44657029624102
  0
LINE
  8
_e-0_
  6
CONTINUOUS
 62
    7
 10
2287.6886408502887
 20
188.89449034687174
 11
2313.0511299164636
 21
198.12568143386158
  0
LINE
  8
_e-0_
  6
CONTINUOUS
 62
    7
 10
2291.8751463425487
 20
185.09736486926669
 11
2313.0511299164636
 21
192.80479257148215
  0
LINE
  8
_e-0_
  6
CONTINUOUS
 62
    7
 10
2291.8751463425487
 20
179.77647600688726
 11
2313.0511299164636
 21
187.48390370910215
  0
LINE
  8
_e-0_
  6
CONTINUOUS
 62
    7
 10
2291.8751463425487
 20
174.45558714450783
 11
2313.0511299164636
 21
182.16301484672271
  0
LINE
  8
_e-0_
  6
CONTINUOUS
 62
    7
 10
2291.8751463425487
 20
169.13469828212839
 11
2313.0511299164636
 21
176.84212598434328
  0
LINE
  8
_e-0_
  6
CONTINUOUS
 62
    7
 10
2291.8008475696451
 20
163.78676687796939
 11
2313.0511299164636
 21
171.52123712196384
  0
LINE
  8
_e-0_
  6
CONTINUOUS
 62
    7
 10
2290.6539909363364
 20
158.04845633809463
 11
2313.0511299164636
 21
166.20034825958413
  0
LINE
  8
_e-0_
  6
CONTINUOUS
 62
    7
 10
2288.3949962857823
 20
151.90536066354695
 11
2313.0511299164636
 21
160.87945939720469
  0
LINE
  8
_e-0_
  6
CONTINUOUS
 62
    7
 10
2284.4003861827632
 20
145.13055262616916
 11
2311.8608666367176
 21
155.12535013005759
  0
LINE
  8
_e-0_
  6
CONTINUOUS
 62
    7
 10
2275.7463468865153
 20
136.65985105378524
 11
2309.0387712913652
 21
148.77730256370853
  0
LINE
  8
_e-0_
  6
CONTINUOUS
 62
    7
 10
2266.9791201478205
 20
128.14795262145821
 11
2304.1703780821812
 21
141.68446348448242
  0
LINE
  8
_e-0_
  6
CONTINUOUS
 62
    7
 10
2282.1376414569663
 20
128.34431431109749
 11
2292.7244583873175
 21
132.19760054937069
  0
LINE
  8
_e-0_
  6
CONTINUOUS
 62
    3
 10
2266.4464672734898
 20
197.56612819678281
 11
2262.3244734593249
 21
194.75680664380121
  0
LINE
  8
_e-0_
  6
CONTINUOUS
 62
    3
 10
2282.3868421919432
 20
128.14795262145651
 11
2266.9204010401704
 21
128.14795262145651
  0
ARC
  8
_e-0_
  6
CONTINUOUS
 62
    3
 10
2282.3868421919432
 20
133.14795262145651
 40
5
 50
270
 51
286.20399351045659
  0
LINE
  8
_e-0_
  6
CONTINUOUS
 62
    3
 10
2313.2288608412613
 20
210.12865853712895
 11
2313.2288608412613
 21
159.77346730566921
  0
ARC
  8
_e-0_
  6
CONTINUOUS
 62
    3
 10
2271.9221657766447
 20
169.15823653484835
 40
42.5
 50
286.20399351045648
 51
345.50707147989851
  0
ARC
  8
_e-0_
  6
CONTINUOUS
 62
    3
 10
2308.2288608412613
 20
159.77346730566921
 40
5
 50
345.50707147989879
 51
0.0000000000000159
  0
ARC
  8
_e-0_
  6
CONTINUOUS
 62
    3
 10
2250.0927387377205
 20
170.4956084628958
 40
40
 50
279.71265316664215
 51
332.69093929010892
  0
ARC
  8
_e-0_
  6
CONTINUOUS
 62
    3
 10
2255.9974857549714
 20
135.99729020443191
 40
5
 50
241.9452628118
 51
279.71265316664221
  0
ARC
  8
_e-0_
  6
CONTINUOUS
 62
    3
 10
2263.2643122966178
 20
205.12865853712895
 40
5
 50
90
 51
106.05338143786268
  0
LINE
  8
_e-0_
  6
CONTINUOUS
 62
    3
 10
2288.4334989152221
 20
210.12865853712881
 11
2278.2181989551913
 21
205.24067691222057
  0
LINE
  8
_e-0_
  6
CONTINUOUS
 62
    3
 10
2278.2181989551913
 20
205.24067691222057
 11
2272.2994583375816
 21
201.4444897898403
  0
LINE
  8
_e-0_
  6
CONTINUOUS
 62
    3
 10
2266.4464672734898
 20
197.56612819678252
 11
2272.2994583375816
 21
201.4444897898403
  0
ARC
  8
_e-0_
  6
CONTINUOUS
 62
    3
 10
2263.2643122966178
 20
205.12865853712895
 40
5
 50
90
 51
106.05338143786268
  0
ARC
  8
_e-0_
  6
CONTINUOUS
 62
    3
 10
2263.2643122966178
 20
205.12865853712895
 40
5
 50
90
 51
106.05338143786268
  0
LINE
  8
_e-0_
  6
CONTINUOUS
 62
    3
 10
2288.4334989152221
 20
210.12865853712895
 11
2263.2643122966178
 21
210.12865853712895
  0
ARC
  8
_e-0_
  6
CONTINUOUS
 62
    3
 10
2273.6342932765642
 20
169.09099082020304
 40
42.5
 50
106.05338143786271
 51
241.94526281180051
  0
ARC
  8
_e-0_
  6
CONTINUOUS
 62
    3
 10
2263.2643122966178
 20
205.12865853712895
 40
5
 50
90
 51
106.05338143786268
  0
LINE
  8
_e-0_
  6
CONTINUOUS
 62
    3
 10
2299.1719829458552
 20
210.12865853712895
 11
2313.2288608412613
 21
210.12865853712895
  0
ARC
  8
_e-0_
  6
CONTINUOUS
 62
    3
 10
2299.1719829458552
 20
205.12865853712895
 40
5
 50
90
 51
112.84552721528325
  0
LINE
  8
_e-0_
  6
CONTINUOUS
 62
    3
 10
2292.0528772673465
 20
188.89449034687004
 11
2269.0173546029673
 21
188.89449034687004
  0
ARC
  8
_e-0_
  6
CONTINUOUS
 62
    3
 10
2269.0173546029673
 20
183.89449034687004
 40
5
 50
90
 51
110.93110431809542
  0
ARC
  8
_e-0_
  6
CONTINUOUS
 62
    3
 10
2254.2292662802574
 20
177.70386452217394
 40
0.5
 50
165.368776721252
 51
224.67319701305797
  0
LINE
  8
_e-0_
  6
CONTINUOUS
 62
    3
 10
2253.8737020580624
 20
177.3523334653737
 11
2253.6837582739271
 21
177.54445650133447
  0
ARC
  8
_e-0_
  6
CONTINUOUS
 62
    3
 10
2276.1622566207875
 20
165.2142768803236
 40
25
 50
110.93110431809527
 51
150.17701829297226
  0
ARC
  8
_e-0_
  6
CONTINUOUS
 62
    3
 10
2254.0393224961217
 20
177.89598755813472
 40
0.5
 50
224.67319701305652
 51
330.17701829297561
  0
LINE
  8
_e-0_
  6
CONTINUOUS
 62
    3
 10
2297.2307430642558
 20
209.73643324104926
 11
2283.5233941157548
 21
203.96157353985984
  0
LINE
  8
_e-0_
  6
CONTINUOUS
 62
    3
 10
2283.5233941157548
 20
203.96157353985984
 11
2277.114528385443
 21
200.4613679180602
  0
ARC
  8
_e-0_
  6
CONTINUOUS
 62
    3
 10
2277.9347719955744
 20
171.51524603489747
 40
25
 50
126.05682261028302
 51
165.36877672125814
  0
ARC
  8
_e-0_
  6
CONTINUOUS
 62
    3
 10
2322.0287923520791
 20
111.11536133502738
 40
100
 50
116.68868989749238
 51
126.03335467187628
  0
LINE
  8
_e-0_
  6
CONTINUOUS
 62
    3
 10
2262.3244734593245
 20
194.75680664380149
 11
2254.3560414411385
 21
187.50185893935451
  0
LINE
  8
_e-0_
  6
CONTINUOUS
 62
    3
 10
2254.3560414411385
 20
187.50185893935451
 11
2252.5108960046536
 21
185.36863764275494
  0
ARC
  8
_e-0_
  6
CONTINUOUS
 62
    3
 10
2274.5493829743445
 20
174.5520307550089
 40
25
 50
169.07329675873063
 51
296.32138326661799
  0
LINE
  8
_e-0_
  6
CONTINUOUS
 62
    3
 10
2252.5108960046541
 20
185.36863764275494
 11
2250.002621066113
 21
179.29085759512361
  0
LINE
  8
_e-0_
  6
CONTINUOUS
 62
    3
 10
2292.0528772673465
 20
188.89449034687004
 11
2292.0528772673465
 21
164.42425885831653
  0
ARC
  8
_e-0_
  6
CONTINUOUS
 62
    3
 10
2277.2840925230507
 20
144.13090983307199
 40
5
 50
311.4163090429962
 51
326.13300916724881
  0
ARC
  8
_e-0_
  6
CONTINUOUS
 62
    3
 10
2252.285941088533
 20
168.73596234419835
 40
40
 50
316.78132524618342
 51
353.81191653224226
  0
ARC
  8
_e-0_
  6
CONTINUOUS
 62
    3
 10
2240.9001979970053
 20
185.376663785662
 40
60
 50
294.69555798319504
 51
311.41630904299643
  0
ARC
  8
_e-0_
  6
CONTINUOUS
 62
    3
 10
2271.9268153318698
 20
202.98067150791609
 40
75
 50
264.68313230529076
 51
266.17253517307824
  0
ARC
  8
_e-0_
  6
CONTINUOUS
 62
    3
 10
2265.0233680716155
 20
128.80121063143832
 40
0.5
 50
174.02086603460466
 51
264.68313230528985
  0
ARC
  8
_e-0_
  6
CONTINUOUS
 62
    3
 10
2267.0124878650103
 20
128.59287809071872
 40
2.5
 50
114.69555798319522
 51
174.02086603461154
  0
LINE
  8
_e-0_
  6
CONTINUOUS
 62
    7
 10
2376.8899919095943
 20
169.43032024062034
 11
2388.2618909747961
 21
173.56935300743344
  0
LINE
  8
_e-0_
  6
CONTINUOUS
 62
    3
 10
2436.2585234464268
 20
162.63312492519389
 11
2436.2585234464268
 21
136.49018622829544
  0
CIRCLE
  8
_e-0_
  6
CONTINUOUS
 62
    3
 10
2365.5167430510387
 20
162.46293449130519
 40
13.33773795583065
  0
CIRCLE
  8
_e-0_
  6
CONTINUOUS
 62
    3
 10
2365.2330256036634
 20
162.17921704393006
 40
25.691707563897665
  0
LINE
  8
_e-0_
  6
CONTINUOUS
 62
    3
 10
2399.4939617252575
 20
188.26250382114977
 11
2399.4939617252575
 21
136.49018622829544
  0
LINE
  8
_e-0_
  6
CONTINUOUS
 62
    3
 10
2399.4939617252575
 20
136.49018622829544
 11
2414.856930753669
 21
136.49018622829544
  0
LINE
  8
_e-0_
  6
CONTINUOUS
 62
    3
 10
2414.856930753669
 20
136.49018622829544
 11
2414.856930753669
 21
172.63312492519389
  0
LINE
  8
_e-0_
  6
CONTINUOUS
 62
    3
 10
2451.1774760289304
 20
136.49018622829544
 11
2436.2585234464268
 21
136.49018622829544
  0
LINE
  8
_e-0_
  6
CONTINUOUS
 62
    3
 10
2426.2585234464268
 20
172.63312492519389
 11
2414.856930753669
 21
172.63312492519389
  0
ARC
  8
_e-0_
  6
CONTINUOUS
 62
    3
 10
2426.2585234464268
 20
162.63312492519389
 40
10
 50
0
 51
90
  0
LINE
  8
_e-0_
  6
CONTINUOUS
 62
    3
 10
2426.1774760289299
 20
188.26250382114977
 11
2399.4939617252575
 21
188.26250382114977
  0
LINE
  8
_e-0_
  6
CONTINUOUS
 62
    3
 10
2451.1774760289304
 20
163.26250382114977
 11
2451.1774760289304
 21
136.49018622829544
  0
ARC
  8
_e-0_
  6
CONTINUOUS
 62
    3
 10
2426.1774760289299
 20
163.26250382114977
 40
25
 50
0
 51
90
  0
ARC
  8
_e-0_
  6
CONTINUOUS
 62
    3
 10
2486.2452606175233
 20
162.17653762406428
 40
13.33773795583065
 50
23.422555400004949
 51
97.191484740792631
  0
LINE
  8
_e-0_
  6
CONTINUOUS
 62
    3
 10
2474.0065761310629
 20
167.47841048365671
 11
2498.4839451039833
 21
167.47841048365671
  0
ARC
  8
_e-0_
  6
CONTINUOUS
 62
    3
 10
2486.2452606175233
 20
162.17653762406428
 40
13.33773795583065
 50
92.530763017635237
 51
156.57744459999506
  0
ARC
  8
_e-0_
  6
CONTINUOUS
 62
    3
 10
2486.2452606175233
 20
162.17653762406428
 40
13.33773795583065
 50
204.21097500392608
 51
316.0067678116265
  0
LINE
  8
_e-0_
  6
CONTINUOUS
 62
    3
 10
2474.0806890359867
 20
156.70676139316753
 11
2511.5200753562385
 21
156.70676139316753
  0
LINE
  8
_e-0_
  6
CONTINUOUS
 62
    3
 10
2495.8407207162626
 20
152.91249966689292
 11
2508.7092412098891
 21
149.78943472664496
  0
ARC
  8
_e-0_
  6
CONTINUOUS
 62
    3
 10
2486.5655867677851
 20
162.8171899245882
 40
25.691707563897665
 50
346.24110979921471
 51
329.53046432565093
  0
ARC
  8
_e-0_
  6
CONTINUOUS
 62
    3
 10
2546.5135590423406
 20
162.14309845353909
 40
11.089756641867943
 50
94.502189492040685
 51
357.22978420280037
  0
LINE
  8
_e-0_
  6
CONTINUOUS
 62
    3
 10
2556.5903561511468
 20
173.19863581905565
 11
2545.6430442891501
 21
173.19863581905565
  0
LINE
  8
_e-0_
  6
CONTINUOUS
 62
    3
 10
2557.5903561511468
 20
172.19863581905599
 11
2557.5903561511468
 21
161.60712439988742
  0
ARC
  8
_e-0_
  6
CONTINUOUS
 62
    3
 10
2556.5903561511468
 20
172.19863581905599
 40
1
 50
0
 51
90
  0
LINE
  8
_e-0_
  6
CONTINUOUS
 62
    3
 10
2548.9703457355517
 20
188.29058742736094
 11
2557.3930775458175
 21
188.29058742736094
  0
ARC
  8
_e-0_
  6
CONTINUOUS
 62
    3
 10
2546.9662856612039
 20
162.67716163604518
 40
25.691707563897665
 50
85.526146014136969
 51
347.40557840019874
  0
LINE
  8
_e-0_
  6
CONTINUOUS
 62
    3
 10
2557.3930775458175
 20
209.12865853712901
 11
2557.3930775458175
 21
188.29058742736094
  0
ARC
  8
_e-0_
  6
CONTINUOUS
 62
    3
 10
2558.3930775458175
 20
209.12865853712901
 40
1
 50
90
 51
180
  0
LINE
  8
_e-0_
  6
CONTINUOUS
 62
    3
 10
2572.0397992563612
 20
209.12865853712901
 11
2572.0397992563612
 21
157.07513043814088
  0
LINE
  8
_e-0_
  6
CONTINUOUS
 62
    3
 10
2571.0397992563616
 20
210.12865853712895
 11
2558.3930775458175
 21
210.12865853712895
  0
ARC
  8
_e-0_
  6
CONTINUOUS
 62
    3
 10
2571.0397992563616
 20
209.12865853712901
 40
1
 50
0
 51
90
  0
CIRCLE
  8
_e-0_
  6
CONTINUOUS
 62
    3
 10
2607.4932845795829
 20
162.61858771142584
 40
13.33773795583065
  0
CIRCLE
  8
_e-0_
  6
CONTINUOUS
 62
    3
 10
2607.2095671322085
 20
162.334870264051
 40
25.691707563897665
  0
ARC
  8
_e-0_
  6
CONTINUOUS
 62
    3
 10
2361.3056445788688
 20
183.56108960512415
 40
5
 50
90
 51
106.05338143786268
  0
ARC
  8
_e-0_
  6
CONTINUOUS
 62
    3
 10
2361.3056445788688
 20
183.56108960512415
 40
5
 50
90
 51
106.05338143786268
  0
ARC
  8
_e-0_
  6
CONTINUOUS
 62
    3
 10
2361.3056445788688
 20
183.56108960512415
 40
5
 50
90
 51
106.05338143786268
  0
ARC
  8
_e-0_
  6
CONTINUOUS
 62
    3
 10
2361.3056445788688
 20
183.56108960512415
 40
5
 50
90
 51
106.05338143786268
  0
LINE
  8
_e-0_
  6
CONTINUOUS
 62
    7
 10
2346.3470804331013
 20
179.59716504486777
 11
2368.5044577934554
 21
187.66179087344028
  0
LINE
  8
_e-0_
  6
CONTINUOUS
 62
    7
 10
2361.2415063076145
 20
179.69740385729494
 11
2376.5205845613304
 21
185.25853354867166
  0
LINE
  8
_e-0_
  6
CONTINUOUS
 62
    7
 10
2341.7511550984831
 20
172.60349616177705
 11
2361.2415063076145
 21
179.69740385729494
  0
LINE
  8
_e-0_
  6
CONTINUOUS
 62
    7
 10
2339.9278406436087
 20
166.61897511011602
 11
2357.2356669233163
 21
172.91850869577984
  0
LINE
  8
_e-0_
  6
CONTINUOUS
 62
    7
 10
2339.5613566552269
 20
161.16469698463049
 11
2352.6357267551816
 21
165.92337853279389
  0
LINE
  8
_e-0_
  6
CONTINUOUS
 62
    7
 10
2340.2704529847874
 20
156.10189807943811
 11
2352.3257797311662
 21
160.489678179473
  0
LINE
  8
_e-0_
  6
CONTINUOUS
 62
    7
 10
2341.9204823498939
 20
151.38157079162255
 11
2353.9794571535694
 21
155.77067867592631
  0
LINE
  8
_e-0_
  6
CONTINUOUS
 62
    7
 10
2344.504128974107
 20
147.00105239631881
 11
2357.564943671171
 21
151.75480018131679
  0
LINE
  8
_e-0_
  6
CONTINUOUS
 62
    7
 10
2348.1361647674011
 20
143.00211645248765
 11
2364.9879954656798
 21
149.13568121955449
  0
LINE
  8
_e-0_
  6
CONTINUOUS
 62
    7
 10
2353.1501292054063
 20
139.50616140121155
 11
2375.2534753949121
 21
147.55112149187283
  0
LINE
  8
_e-0_
  6
CONTINUOUS
 62
    7
 10
2360.6217579801264
 20
136.90472301431668
 11
2375.3071030149835
 21
142.24975148693374
  0
LINE
  8
_e-0_
  6
CONTINUOUS
 62
    7
 10
2375.3071030149835
 20
142.24975148693374
 11
2385.0115931457403
 21
145.78189703325932
  0
LINE
  8
_e-0_
  6
CONTINUOUS
 62
    7
 10
2374.4001538198344
 20
147.24053783828736
 11
2389.063020487204
 21
152.57738485422379
  0
LINE
  8
_e-0_
  6
CONTINUOUS
 62
    7
 10
2374.4883804748506
 20
152.59353857696169
 11
2390.6567834919524
 21
158.47835601080646
  0
LINE
  8
_e-0_
  6
CONTINUOUS
 62
    7
 10
2378.4912308361026
 20
159.37134582305873
 11
2390.8686178519897
 21
163.87634627483464
  0
LINE
  8
_e-0_
  6
CONTINUOUS
 62
    7
 10
2378.6565159204478
 20
164.75239353630797
 11
2390.0320630429459
 21
168.89275408738967
  0
LINE
  8
_e-0_
  6
CONTINUOUS
 62
    7
 10
2365.1397018509305
 20
175.7953421400316
 11
2381.7641004494612
 21
181.84612839247364
  0
LINE
  8
_e-0_
  6
CONTINUOUS
 62
    7
 10
2373.159843452322
 20
173.39354609515908
 11
2385.5507858710998
 21
177.90348031010012
  0
LINE
  8
_e-0_
  6
CONTINUOUS
 62
    7
 10
2399.4939617252575
 20
182.97838129215278
 11
2414.0119690553087
 21
188.26250382114977
  0
LINE
  8
_e-0_
  6
CONTINUOUS
 62
    7
 10
2399.4939617252575
 20
177.65749242977335
 11
2428.3670442872125
 21
188.16643505383524
  0
LINE
  8
_e-0_
  6
CONTINUOUS
 62
    7
 10
2399.4939617252575
 20
172.33660356739392
 11
2436.7743097980664
 21
185.90554058897964
  0
LINE
  8
_e-0_
  6
CONTINUOUS
 62
    7
 10
2399.4939617252575
 20
167.01571470501448
 11
2442.1110032081055
 21
182.52704927725858
  0
LINE
  8
_e-0_
  6
CONTINUOUS
 62
    7
 10
2399.4939617252575
 20
161.69482584263505
 11
2414.856930753669
 21
167.28648927893004
  0
LINE
  8
_e-0_
  6
CONTINUOUS
 62
    7
 10
2428.7090082786239
 20
172.32823318076128
 11
2445.9244086202584
 21
178.5941264760919
  0
LINE
  8
_e-0_
  6
CONTINUOUS
 62
    7
 10
2399.4939617252575
 20
156.37393698025562
 11
2414.856930753669
 21
161.96560041655061
  0
LINE
  8
_e-0_
  6
CONTINUOUS
 62
    7
 10
2403.3398935234458
 20
136.49018622829544
 11
2414.856930753669
 21
140.68204496703231
  0
LINE
  8
_e-0_
  6
CONTINUOUS
 62
    7
 10
2399.4939617252575
 20
140.41127039311675
 11
2414.856930753669
 21
146.00293382941202
  0
LINE
  8
_e-0_
  6
CONTINUOUS
 62
    7
 10
2399.4939617252575
 20
145.73215925549646
 11
2414.856930753669
 21
151.32382269179146
  0
LINE
  8
_e-0_
  6
CONTINUOUS
 62
    7
 10
2399.4939617252575
 20
151.0530481178759
 11
2414.856930753669
 21
156.64471155417118
  0
LINE
  8
_e-0_
  6
CONTINUOUS
 62
    7
 10
2436.2585234464268
 20
159.113365397844
 11
2451.1774760289304
 21
164.5434200643038
  0
LINE
  8
_e-0_
  6
CONTINUOUS
 62
    7
 10
2436.2585234464268
 20
153.79247653546485
 11
2451.1774760289304
 21
159.22253120192465
  0
LINE
  8
_e-0_
  6
CONTINUOUS
 62
    7
 10
2436.105047565391
 20
164.37839360784892
 11
2450.3687179376247
 21
169.56994505472636
  0
LINE
  8
_e-0_
  6
CONTINUOUS
 62
    7
 10
2436.2585234464268
 20
148.47158767308542
 11
2451.1774760289304
 21
153.90164233954521
  0
LINE
  8
_e-0_
  6
CONTINUOUS
 62
    7
 10
2436.2585234464268
 20
143.1506988107057
 11
2451.1774760289304
 21
148.5807534771655
  0
LINE
  8
_e-0_
  6
CONTINUOUS
 62
    7
 10
2436.2585234464268
 20
137.82980994832598
 11
2451.1774760289304
 21
143.25986461478606
  0
LINE
  8
_e-0_
  6
CONTINUOUS
 62
    7
 10
2447.1969595258929
 20
136.49018622829544
 11
2451.1774760289304
 21
137.93897575240634
  0
LINE
  8
_e-0_
  6
CONTINUOUS
 62
    7
 10
2434.0189024056153
 20
168.93998772771169
 11
2448.6296862431445
 21
174.25787814386978
  0
LINE
  8
_e-0_
  6
CONTINUOUS
 62
    7
 10
2469.1883842563338
 20
181.74063227593791
 11
2487.7135419125711
 21
188.48323824789645
  0
LINE
  8
_e-0_
  6
CONTINUOUS
 62
    7
 10
2463.6316388937825
 20
174.39725350219305
 11
2496.6904887083792
 21
186.42969081378254
  0
LINE
  8
_e-0_
  6
CONTINUOUS
 62
    7
 10
2461.4628990865917
 20
168.28700790412767
 11
2502.2794299488264
 21
183.14301020398858
  0
LINE
  8
_e-0_
  6
CONTINUOUS
 62
    7
 10
2461.4992419870632
 20
162.97934677574687
 11
2473.9894671720021
 21
167.52541696234658
  0
LINE
  8
_e-0_
  6
CONTINUOUS
 62
    7
 10
2492.1508316310541
 20
174.13561303910114
 11
2506.2885679576884
 21
179.28132824190015
  0
LINE
  8
_e-0_
  6
CONTINUOUS
 62
    7
 10
2496.6927278595248
 20
170.46783921101109
 11
2509.1784918759253
 21
175.01228566505261
  0
LINE
  8
_e-0_
  6
CONTINUOUS
 62
    7
 10
2463.2093427036916
 20
158.28088367181749
 11
2488.4793399340492
 21
167.47841048365671
  0
LINE
  8
_e-0_
  6
CONTINUOUS
 62
    7
 10
2462.8888794596255
 20
152.84335572742151
 11
2511.1140538755621
 21
170.39588375711787
  0
LINE
  8
_e-0_
  6
CONTINUOUS
 62
    7
 10
2465.300291731432
 20
148.400149154524
 11
2476.9283430630944
 21
152.63241372176821
  0
LINE
  8
_e-0_
  6
CONTINUOUS
 62
    7
 10
2488.1225212892722
 20
156.70676139316753
 11
2512.1228430370119
 21
165.44216412215632
  0
LINE
  8
_e-0_
  6
CONTINUOUS
 62
    7
 10
2502.7415432900879
 20
156.70676139316753
 11
2512.1151621126959
 21
160.11847963195407
  0
LINE
  8
_e-0_
  6
CONTINUOUS
 62
    7
 10
2468.7281740890052
 20
144.32690743686691
 11
2482.5550140975401
 21
149.35946563393486
  0
LINE
  8
_e-0_
  6
CONTINUOUS
 62
    7
 10
2473.4508580764295
 20
140.72493497175571
 11
2502.4973614552445
 21
151.29699761115659
  0
LINE
  8
_e-0_
  6
CONTINUOUS
 62
    7
 10
2480.3069495598269
 20
137.89945933273884
 11
2507.3767895083869
 21
147.75207532036432
  0
LINE
  8
_e-0_
  6
CONTINUOUS
 62
    7
 10
2552.6231690921717
 20
137.61596638527407
 11
2558.7418873346696
 21
139.84299769740459
  0
LINE
  8
_e-0_
  6
CONTINUOUS
 62
    7
 10
2539.4012676014826
 20
138.12447666464265
 11
2568.5435873921023
 21
148.73141362589478
  0
LINE
  8
_e-0_
  6
CONTINUOUS
 62
    7
 10
2532.9976800904732
 20
141.11465028049622
 11
2571.5269734698549
 21
155.13816621790056
  0
LINE
  8
_e-0_
  6
CONTINUOUS
 62
    7
 10
2522.081864354775
 20
169.06695144424446
 11
2572.0397992563612
 21
187.25015271383
  0
LINE
  8
_e-0_
  6
CONTINUOUS
 62
    7
 10
2524.5896829795606
 20
175.30061163898437
 11
2572.0397992563612
 21
192.57104157620943
  0
LINE
  8
_e-0_
  6
CONTINUOUS
 62
    7
 10
2557.3930775458175
 20
208.52362629350906
 11
2561.8028673926596
 21
210.12865853712895
  0
LINE
  8
_e-0_
  6
CONTINUOUS
 62
    7
 10
2557.3930775458175
 20
203.20273743112977
 11
2572.0397992563612
 21
208.53370816334788
  0
LINE
  8
_e-0_
  6
CONTINUOUS
 62
    7
 10
2557.3930775458175
 20
197.88184856875005
 11
2572.0397992563612
 21
203.21281930096859
  0
LINE
  8
_e-0_
  6
CONTINUOUS
 62
    7
 10
2557.3930775458175
 20
192.56095970637034
 11
2572.0397992563612
 21
197.89193043858915
  0
LINE
  8
_e-0_
  6
CONTINUOUS
 62
    7
 10
2531.3600319802562
 20
183.08570601321093
 11
2545.8030101140193
 21
188.34252014805827
  0
LINE
  8
_e-0_
  6
CONTINUOUS
 62
    7
 10
2548.0525958796984
 20
173.19863581905565
 11
2572.0397992563612
 21
181.92926385145057
  0
LINE
  8
_e-0_
  6
CONTINUOUS
 62
    7
 10
2521.2864022906337
 20
163.45653806802943
 11
2538.3752084417083
 21
169.67635484616607
  0
LINE
  8
_e-0_
  6
CONTINUOUS
 62
    7
 10
2521.6554107736333
 20
158.26995730965364
 11
2535.4846691325356
 21
163.30339571427089
  0
LINE
  8
_e-0_
  6
CONTINUOUS
 62
    7
 10
2522.9940114609526
 20
153.43627925302655
 11
2536.1404517985765
 21
158.22119222247806
  0
LINE
  8
_e-0_
  6
CONTINUOUS
 62
    7
 10
2525.2563435788042
 20
148.93881194156961
 11
2539.0354883761397
 21
153.95401050144357
  0
LINE
  8
_e-0_
  6
CONTINUOUS
 62
    7
 10
2528.5117312327797
 20
144.80278728623488
 11
2545.7561370732087
 21
151.07923771975691
  0
LINE
  8
_e-0_
  6
CONTINUOUS
 62
    7
 10
2554.2054905278623
 20
154.15455087604527
 11
2572.0397992563612
 21
160.64570840193255
  0
LINE
  8
_e-0_
  6
CONTINUOUS
 62
    7
 10
2557.505937791675
 20
160.67670430221767
 11
2572.0397992563612
 21
165.96659726431198
  0
LINE
  8
_e-0_
  6
CONTINUOUS
 62
    7
 10
2557.5903561511468
 20
166.02831893467055
 11
2572.0397992563612
 21
171.28748612669141
  0
LINE
  8
_e-0_
  6
CONTINUOUS
 62
    7
 10
2557.5903561511468
 20
171.34920779704998
 11
2572.0397992563612
 21
176.60837498907085
  0
LINE
  8
_e-0_
  6
CONTINUOUS
 62
    7
 10
2595.1467628188602
 20
185.01862193009401
 11
2601.869376832742
 21
187.46545332760774
  0
LINE
  8
_e-0_
  6
CONTINUOUS
 62
    7
 10
2585.5936460434281
 20
176.22068291698809
 11
2614.8426950414304
 21
186.86646613285404
  0
LINE
  8
_e-0_
  6
CONTINUOUS
 62
    7
 10
2608.5181174973608
 20
136.67650840108905
 11
2622.7000364868072
 21
141.83830477802189
  0
LINE
  8
_e-0_
  6
CONTINUOUS
 62
    7
 10
2598.2444761483161
 20
138.25809761488983
 11
2629.5534764025951
 21
149.65364177207987
  0
LINE
  8
_e-0_
  6
CONTINUOUS
 62
    7
 10
2582.6330921261528
 20
169.82224055178022
 11
2621.2234503919626
 21
183.86798229020314
  0
LINE
  8
_e-0_
  6
CONTINUOUS
 62
    7
 10
2592.2968185805402
 20
141.41421615899105
 11
2632.0809325371146
 21
155.89444943583799
  0
LINE
  8
_e-0_
  6
CONTINUOUS
 62
    7
 10
2588.0695495912832
 20
145.19650493704432
 11
2602.246111940276
 21
150.35635165629656
  0
LINE
  8
_e-0_
  6
CONTINUOUS
 62
    7
 10
2585.0094293819529
 20
149.40360112995108
 11
2597.3909335115822
 21
153.91010008858017
  0
LINE
  8
_e-0_
  6
CONTINUOUS
 62
    7
 10
2582.919829983693
 20
153.96393800982366
 11
2594.8695180063709
 21
158.31326875884542
  0
LINE
  8
_e-0_
  6
CONTINUOUS
 62
    7
 10
2581.7538748691904
 20
158.86045391603374
 11
2594.1774270088017
 21
163.38225709870641
  0
LINE
  8
_e-0_
  6
CONTINUOUS
 62
    7
 10
2581.5798124660104
 20
164.11798924475078
 11
2595.9853391150813
 21
169.36117215394091
  0
LINE
  8
_e-0_
  6
CONTINUOUS
 62
    7
 10
2611.9748325174678
 20
175.18087181340547
 11
2625.6969314853622
 21
180.17530738937352
  0
LINE
  8
_e-0_
  6
CONTINUOUS
 62
    7
 10
2617.2029460570038
 20
171.76286066078091
 11
2628.9430705154381
 21
176.03591651023151
  0
LINE
  8
_e-0_
  6
CONTINUOUS
 62
    7
 10
2619.9310564926913
 20
167.43492279278257
 11
2631.1973168341919
 21
171.53550620858254
  0
LINE
  8
_e-0_
  6
CONTINUOUS
 62
    7
 10
2620.8298424207368
 20
162.44116525518904
 11
2632.5279188691888
 21
166.69891688059578
  0
LINE
  8
_e-0_
  6
CONTINUOUS
 62
    7
 10
2619.394865425299
 20
156.5979874796136
 11
2632.8880000931144
 21
161.50908686564349
  0
TEXT
  8
_e-0_
 62
    7
 10
2642.8586825750176
 20
180.56247057449553
 40
35
 41
0.5714285714285711
 50
0
  1
ワンド
  0
TEXT
  8
_e-0_
 62
    7
 10
2649.7045100149039
 20
147.0179161190498
 40
30
 41
0.6666666666666666
 50
0
  1
株式
  0
TEXT
  8
_e-0_
 62
    7
 10
2649.0199272709155
 20
118.95002361551377
 40
30
 41
0.6666666666666666
 50
0
  1
会社
  0
TEXT
  8
_f-8_
 62
    7
 10
701.82483193568509
 20
137.22707741354213
 40
45
 41
0.8
 50
0
  1
吊り戸棚　高さ４５ｃｍタイプ
  0
TEXT
  8
_f-8_
 62
    7
 10
1556.5531914893617
 20
137.5
 40
45
 41
0.6666666666666666
 50
0
  1
ＫＴＤ３－４５－１２０ＨＳ
  0
TEXT
  8
_f-8_
 62
    7
 10
3043.0000000000009
 20
142.5
 40
35
 41
0.5714285714285711
 50
0
  1
２０２３．０５．０１
  0
TEXT
  8
_f-8_
 62
    7
 10
3582
 20
145
 40
30
 41
0.7333333333333329
 50
0
  1
Ｔ．Ｋ
  0
POINT
  8
_0-9_
 62
    9
 10
2308.0149999999998
 20
1357
  0
POINT
  8
_0-9_
 62
    9
 10
1966.015000000001
 20
1357
  0
POINT
  8
_0-9_
 62
    9
 10
1966.015000000001
 20
1357
  0
POINT
  8
_0-9_
 62
    3
 10
1966.015000000001
 20
1357
  0
POINT
  8
_0-9_
 62
    3
 10
2308.0149999999998
 20
1357
  0
LINE
  8
_0-9_
  6
CONTINUOUS
 62
    4
 10
1966.015000000001
 20
1357
 11
2308.0149999999998
 21
1357
  0
TEXT
  8
_0-9_
 62
    7
 10
2103.9150000000008
 20
1362
 40
35
 41
0.6285714285714286
 50
0
  1
３４２
  0
LINE
  8
_0-9_
  6
CONTINUOUS
 62
    4
 10
1966.015000000001
 20
1357
 11
1966.015000000001
 21
1237
  0
LINE
  8
_0-9_
  6
CONTINUOUS
 62
    4
 10
1996.5150000000012
 20
1093.5
 11
1996.5150000000012
 21
1029.5000275176662
  0
LINE
  8
_0-9_
  6
CONTINUOUS
 62
    4
 10
2286.0150000000012
 20
1083.5
 11
1996.5150000000012
 21
1083.5
  0
TEXT
  8
_0-9_
 62
    7
 10
2108.1650000000008
 20
1088.5
 40
35
 41
0.6285714285714286
 50
0
  1
２９０
  0
POINT
  8
_0-9_
 62
    3
 10
2286.0150000000012
 20
1083.5
  0
POINT
  8
_0-9_
 62
    3
 10
2286.0150000000012
 20
1083.5
  0
POINT
  8
_0-9_
 62
    3
 10
1996.5150000000012
 20
1083.5
  0
LINE
  8
_0-9_
  6
CONTINUOUS
 62
    4
 10
2286.0150000000012
 20
1093.5
 11
2286.0150000000012
 21
1029.5000275176662
  0
ENDSEC
  0
EOF
