  0
SECTION
  2
HEADER
  9
$ACADVER
  1
AC1009
  9
$INSBASE
 10
0
 20
0
 30
0
  9
$EXTMIN
 10
0
 20
0
  9
$EXTMAX
 10
4200
 20
2970
  9
$LIMMIN
 10
0
 20
0
  9
$LIMMAX
 10
4200
 20
2970
  9
$LTSCALE
 40
10
  0
ENDSEC
  0
SECTION
  2
TABLES
  0
TABLE
  2
LTYPE
 70
     9
  0
LTYPE
  2
CONTINUOUS
 70
    64
  3
実線
 72
    65
 73
     0
 40
0.0
  0
LTYPE
  2
DASHED1
 70
    64
  3
--  --  --  --  --  --  --  --  
 72
    65
 73
     2
 40
2.5
 49
1.25
 49
-1.25
  0
LTYPE
  2
DASHED2
 70
    64
  3
----    ----    ----    ----    
 72
    65
 73
     2
 40
5.0
 49
2.5
 49
-2.5
  0
LTYPE
  2
DASHED3
 70
    64
  3
------  ------  ------  ------  
 72
    65
 73
     2
 40
5.0
 49
3.75
 49
-1.25
  0
LTYPE
  2
CENTER1
 70
    64
  3
----- - ----- - ----- - ----- - 
 72
    65
 73
     4
 40
10.0
 49
6.25
 49
-1.25
 49
1.25
 49
-1.25
  0
LTYPE
  2
CENTER2
 70
    64
  3
----------  --  ----------  --  
 72
    65
 73
     4
 40
20.0
 49
12.5
 49
-2.5
 49
2.5
 49
-2.5
  0
LTYPE
  2
PHANTOM1
 70
    64
  3
--- - - --- - - --- - - --- - - 
 72
    65
 73
     6
 40
10.0
 49
3.25
 49
-1.25
 49
1.25
 49
-1.25
 49
1.25
 49
-1.25
  0
LTYPE
  2
PHANTOM2
 70
    64
  3
--------  -  -  --------  -  -  
 72
    65
 73
     6
 40
20.0
 49
10.0
 49
-2.5
 49
1.25
 49
-2.5
 49
1.25
 49
-2.5
  0
LTYPE
  2
DOT
 70
    64
  3
-   -   -   -   -   -   -   -   
 72
    65
 73
     2
 40
2.5
 49
0.625
 49
-1.875
  0
LTYPE
  2
DUMMY
 70
    64
  3
ダミー
 72
    65
 73
     0
 40
0.0
  0
LTYPE
  2
RAND1
 70
    64
  3
ランダム線1
 72
    65
 73
     4
 40
10.0
 49
1.0
 49
-2.0
 49
3.0
 49
-4.0
  0
LTYPE
  2
RAND2
 70
    64
  3
ランダム線2
 72
    65
 73
     4
 40
14.0
 49
2.0
 49
-3.0
 49
4.0
 49
-5.0
  0
LTYPE
  2
RAND3
 70
    64
  3
ランダム線3
 72
    65
 73
     4
 40
18.0
 49
3.0
 49
-4.0
 49
5.0
 49
-6.0
  0
LTYPE
  2
RAND4
 70
    64
  3
ランダム線4
 72
    65
 73
     4
 40
22.0
 49
4.0
 49
-5.0
 49
6.0
 49
-7.0
  0
LTYPE
  2
RAND5
 70
    64
  3
ランダム線5
 72
    65
 73
     4
 40
26.0
 49
5.0
 49
-6.0
 49
7.0
 49
-8.0
  0
LTYPE
  2
LONG1
 70
    64
  3
----------  --  ----------  --  
 72
    65
 73
     4
 40
40.0
 49
32.5
 49
-2.5
 49
2.5
 49
-2.5
  0
LTYPE
  2
LONG2
 70
    64
  3
--------  -  -  --------  -  -  
 72
    65
 73
     6
 40
40.0
 49
30.0
 49
-2.5
 49
1.25
 49
-2.5
 49
1.25
 49
-2.5
  0
LTYPE
  2
LONG3
 70
    64
  3
+++++++++++++++..+++++++++++++++
 72
    65
 73
     2
 40
40.0
 49
37.5
 49
-2.5
  0
LTYPE
  2
LONG4
 70
    64
  3
+++++++++++++++..+++++++++++++++
 72
    65
 73
     2
 40
80.0
 49
75.0
 49
-5.0
  0
LTYPE
  2
LONG5
 70
    64
  3
----------  --  ----------  --  
 72
    65
 73
     4
 40
60.0
 49
37.5
 49
-7.5
 49
7.5
 49
-7.5
  0
LTYPE
  2
dashed
 70
   64
  3
-------   -------------   ------
 72
   65
 73
    2
 40
7.5
 49
6
 49
-1.5
  0
LTYPE
  2
dashed_spaced
 70
   64
  3
----        --------        ----
 72
   65
 73
    2
 40
12
 49
6
 49
-6
  0
LTYPE
  2
long_dashed_dotted
 70
   64
  3
------------- --- --------------
 72
   65
 73
    4
 40
15.25
 49
12
 49
-1.5
 49
0.25
 49
-1.5
  0
LTYPE
  2
long_dashed_double-dotted
 70
   64
  3
----------- --- --- ------------
 72
   65
 73
    6
 40
17
 49
12
 49
-1.5
 49
0.25
 49
-1.5
 49
0.25
 49
-1.5
  0
LTYPE
  2
long_dashed_triplicate-dotted
 70
   64
  3
--------- --- --- --- ----------
 72
   65
 73
    8
 40
18.75
 49
12
 49
-1.5
 49
0.25
 49
-1.5
 49
0.25
 49
-1.5
 49
0.25
 49
-1.5
  0
LTYPE
  2
dotted
 70
   64
  3
   -       -       -       -    
 72
   65
 73
    2
 40
1.75
 49
0.25
 49
-1.5
  0
LTYPE
  2
chain
 70
   64
  3
-------------- -- --------------
 72
   65
 73
    4
 40
18.5
 49
12
 49
-1.5
 49
3.5
 49
-1.5
  0
LTYPE
  2
chain_double_dash
 70
   64
  3
------------ -- -- -------------
 72
   65
 73
    6
 40
23.5
 49
12
 49
-1.5
 49
3.5
 49
-1.5
 49
3.5
 49
-1.5
  0
LTYPE
  2
dashed_dotted
 70
   64
  3
-----------     -     ----------
 72
   65
 73
    4
 40
9.25
 49
6
 49
-1.5
 49
0.25
 49
-1.5
  0
LTYPE
  2
double-dashed_dotted
 70
   64
  3
------   -----------   -   -----
 72
   65
 73
    6
 40
16.75
 49
6
 49
-1.5
 49
6
 49
-1.5
 49
0.25
 49
-1.5
  0
LTYPE
  2
dashed_double-dotted
 70
   64
  3
---------    -    -    ---------
 72
   65
 73
    6
 40
11
 49
6
 49
-1.5
 49
0.25
 49
-1.5
 49
0.25
 49
-1.5
  0
LTYPE
  2
double-dashed_double-dotted
 70
   64
  3
-----   ---------   -   -   ----
 72
   65
 73
    8
 40
18.5
 49
6
 49
-1.5
 49
6
 49
-1.5
 49
0.25
 49
-1.5
 49
0.25
 49
-1.5
  0
LTYPE
  2
dashed_triplicate-dotted
 70
   64
  3
-------    -    -    -    ------
 72
   65
 73
    8
 40
12.75
 49
6
 49
-1.5
 49
0.25
 49
-1.5
 49
0.25
 49
-1.5
 49
0.25
 49
-1.5
  0
LTYPE
  2
double-dashed_triplicate-dotted
 70
   64
  3
-----  ---------  -  -  -  -----
 72
   65
 73
   10
 40
20.25
 49
6
 49
-1.5
 49
6
 49
-1.5
 49
0.25
 49
-1.5
 49
0.25
 49
-1.5
 49
0.25
 49
-1.5
  0
LTYPE
  2
undefined
 70
   64
  3
--------------------------------
 72
   65
 73
    0
 40
0
  0
LTYPE
  2
_
 70
   64
  3
                                
 72
   65
 73
    0
 40
0
  0
LTYPE
  2
__18
 70
   64
  3
                                
 72
   65
 73
    0
 40
0
  0
LTYPE
  2
__19
 70
   64
  3
                                
 72
   65
 73
    0
 40
0
  0
LTYPE
  2
__20
 70
   64
  3
                                
 72
   65
 73
    0
 40
0
  0
LTYPE
  2
__21
 70
   64
  3
                                
 72
   65
 73
    0
 40
0
  0
LTYPE
  2
__22
 70
   64
  3
                                
 72
   65
 73
    0
 40
0
  0
LTYPE
  2
__23
 70
   64
  3
                                
 72
   65
 73
    0
 40
0
  0
LTYPE
  2
__24
 70
   64
  3
                                
 72
   65
 73
    0
 40
0
  0
LTYPE
  2
__25
 70
   64
  3
                                
 72
   65
 73
    0
 40
0
  0
LTYPE
  2
__26
 70
   64
  3
                                
 72
   65
 73
    0
 40
0
  0
LTYPE
  2
__27
 70
   64
  3
                                
 72
   65
 73
    0
 40
0
  0
LTYPE
  2
__28
 70
   64
  3
                                
 72
   65
 73
    0
 40
0
  0
LTYPE
  2
__29
 70
   64
  3
                                
 72
   65
 73
    0
 40
0
  0
LTYPE
  2
__30
 70
   64
  3
                                
 72
   65
 73
    0
 40
0
  0
LTYPE
  2
__31
 70
   64
  3
                                
 72
   65
 73
    0
 40
0
  0
LTYPE
  2
__32
 70
   64
  3
                                
 72
   65
 73
    0
 40
0
  0
ENDTAB
  0
TABLE
  2
STYLE
  5
3
100
AcDbSymbolTable
 70
     1
  0
STYLE
  5
10
100
AcDbSymbolTableRecord
100
AcDbTextStyleTableRecord
  2
STANDARD
 70
     0
 40
0.0
 41
1.0
 50
0.0
 71
     0
 42
0.2
  3
txt
  4
bigfont.shx
  0
STYLE
  5
26
100
AcDbSymbolTableRecord
100
AcDbTextStyleTableRecord
  2
TATEGAKI
 70
    68
 40
0.0
 41
1.0
 50
0.0
 71
     0
 42
1.0
  3
txt
  4
bigfont.shx
  0
ENDTAB
  0
TABLE
  2
LAYER
 70
   16
  0
LAYER
  2
_0-0_
 70
   64
 62
    7
  6
CONTINUOUS
  0
LAYER
  2
_0-3_
 70
   64
 62
    7
  6
CONTINUOUS
  0
LAYER
  2
_0-4_
 70
   64
 62
    7
  6
CONTINUOUS
  0
LAYER
  2
_0-5_
 70
   64
 62
    7
  6
CONTINUOUS
  0
LAYER
  2
_0-6_
 70
   64
 62
    7
  6
CONTINUOUS
  0
LAYER
  2
_0-8_
 70
   64
 62
    7
  6
CONTINUOUS
  0
LAYER
  2
_0-9_
 70
   64
 62
    7
  6
CONTINUOUS
  0
LAYER
  2
_0-a_
 70
   64
 62
    7
  6
CONTINUOUS
  0
LAYER
  2
_0-d_
 70
   64
 62
    7
  6
CONTINUOUS
  0
LAYER
  2
_1-1_
 70
   64
 62
    7
  6
CONTINUOUS
  0
LAYER
  2
_e-0_
 70
   64
 62
    7
  6
CONTINUOUS
  0
LAYER
  2
_f-7_
 70
   64
 62
    7
  6
CONTINUOUS
  0
LAYER
  2
_f-8_
 70
   64
 62
    7
  6
CONTINUOUS
  0
LAYER
  2
_f-9_
 70
   64
 62
    7
  6
CONTINUOUS
  0
LAYER
  2
_f-d_固定文字
 70
   64
 62
    7
  6
CONTINUOUS
  0
LAYER
  2
ADD_LINE
 70
   64
 62
    7
  6
CONTINUOUS
  0
ENDTAB
  0
ENDSEC
  0
SECTION
  2
BLOCKS
  0
ENDSEC
  0
SECTION
  2
ENTITIES
  0
LINE
  8
_f-9_
  6
CONTINUOUS
 62
    7
 10
630
 20
120
 11
630
 21
220
  0
LINE
  8
_f-9_
  6
CONTINUOUS
 62
    7
 10
170
 20
120
 11
610
 21
120
  0
LINE
  8
_f-9_
  6
CONTINUOUS
 62
    7
 10
170
 20
220
 11
610
 21
220
  0
LINE
  8
_f-9_
  6
CONTINUOUS
 62
    7
 10
1420
 20
120
 11
1420
 21
220
  0
LINE
  8
_f-9_
  6
CONTINUOUS
 62
    7
 10
2210
 20
120
 11
2210
 21
220
  0
LINE
  8
_f-9_
  6
CONTINUOUS
 62
    7
 10
2220
 20
120
 11
2220
 21
220
  0
LINE
  8
_f-9_
  6
CONTINUOUS
 62
    7
 10
630
 20
120
 11
2210
 21
120
  0
LINE
  8
_f-9_
  6
CONTINUOUS
 62
    7
 10
630
 20
220
 11
2210
 21
220
  0
LINE
  8
_f-9_
  6
CONTINUOUS
 62
    7
 10
2710
 20
120
 11
2710
 21
220
  0
LINE
  8
_f-9_
  6
CONTINUOUS
 62
    7
 10
2720
 20
120
 11
2720
 21
220
  0
LINE
  8
_f-9_
  6
CONTINUOUS
 62
    7
 10
2220
 20
120
 11
2710
 21
120
  0
LINE
  8
_f-9_
  6
CONTINUOUS
 62
    7
 10
2220
 20
220
 11
2710
 21
220
  0
LINE
  8
_f-9_
  6
CONTINUOUS
 62
    7
 10
3020
 20
120
 11
3020
 21
220
  0
LINE
  8
_f-9_
  6
CONTINUOUS
 62
    7
 10
3320
 20
120
 11
3320
 21
220
  0
LINE
  8
_f-9_
  6
CONTINUOUS
 62
    7
 10
3700
 20
120
 11
3700
 21
220
  0
LINE
  8
_f-9_
  6
CONTINUOUS
 62
    7
 10
2720
 20
120
 11
4110
 21
120
  0
LINE
  8
_f-9_
  6
CONTINUOUS
 62
    7
 10
4110
 20
120
 11
4110
 21
220
  0
LINE
  8
_f-9_
  6
CONTINUOUS
 62
    7
 10
2720
 20
220
 11
4110
 21
220
  0
LINE
  8
_0-0_
  6
CONTINUOUS
 62
    7
 10
4130
 20
2860
 11
4130
 21
100
  0
LINE
  8
_0-0_
  6
CONTINUOUS
 62
    7
 10
150
 20
2860
 11
4130
 21
2860
  0
LINE
  8
_0-0_
  6
CONTINUOUS
 62
    7
 10
150
 20
100
 11
4130
 21
100
  0
LINE
  8
_0-0_
  6
CONTINUOUS
 62
    7
 10
150
 20
100
 11
150
 21
2860
  0
TEXT
  8
_f-8_
 62
    7
 10
3040
 20
187.5
 40
25
 41
0.64
 50
0
  1
ＤＡＴＡ
  0
TEXT
  8
_f-8_
 62
    7
 10
3340
 20
187.5
 40
25
 41
0.64
 50
0
  1
ＣＨＥＣＫＥＤ
  0
TEXT
  8
_f-8_
 62
    7
 10
3720
 20
187.5
 40
25
 41
0.64
 50
0
  1
ＳＨＥＥＴ　ＮＯ．
  0
TEXT
  8
_f-8_
 62
    7
 10
3542
 20
187.5
 40
25
 41
0.64
 50
0
  1
ＤＲＡＷＩＮＧ
  0
LINE
  8
_f-9_
  6
CONTINUOUS
 62
    7
 10
170
 20
170
 11
610
 21
170
  0
TEXT
  8
_f-8_
 62
    7
 10
2861
 20
142.5
 40
35
 41
0.5714285714285711
 50
0
  1
１／１０
  0
TEXT
  8
_f-8_
 62
    7
 10
2740.3739840854213
 20
187.46937299484983
 40
25
 41
0.64
 50
0
  1
ＳＣＡＬＥ
  0
TEXT
  8
_f-8_
 62
    7
 10
1445
 20
187.5
 40
25
 41
0.8
 50
0
  1
図面名称
  0
TEXT
  8
_f-8_
 62
    7
 10
655
 20
187.5
 40
25
 41
0.8
 50
0
  1
名　称
  0
LINE
  8
_f-8_
  6
CONTINUOUS
 62
    7
 10
2165
 20
2872
 11
2166.15
 21
2874.0000000000004
  0
LINE
  8
_f-8_
  6
CONTINUOUS
 62
    7
 10
2158.6399999999998
 20
2877
 11
2165
 21
2866
  0
LINE
  8
_f-8_
  6
CONTINUOUS
 62
    7
 10
2165
 20
2866
 11
2171.3499999999999
 21
2877
  0
LINE
  8
_f-8_
  6
CONTINUOUS
 62
    7
 10
2165
 20
2860
 11
2176.5399999999999
 21
2880
  0
LINE
  8
_f-8_
  6
CONTINUOUS
 62
    7
 10
2153.4499999999998
 20
2880
 11
2165
 21
2860
  0
LINE
  8
_f-8_
  6
CONTINUOUS
 62
    7
 10
2176.5399999999999
 20
2880
 11
2153.4499999999998
 21
2880
  0
LINE
  8
_f-8_
  6
CONTINUOUS
 62
    7
 10
2163.8400000000001
 20
2874.0000000000004
 11
2165
 21
2872
  0
LINE
  8
_f-8_
  6
CONTINUOUS
 62
    7
 10
2166.15
 20
2874.0000000000004
 11
2163.8400000000001
 21
2874.0000000000004
  0
LINE
  8
_f-8_
  6
CONTINUOUS
 62
    7
 10
2171.3499999999999
 20
2877
 11
2158.6399999999998
 21
2877
  0
LINE
  8
_f-7_
  6
CONTINUOUS
 62
    7
 10
120
 20
1462.6794919243113
 11
120
 21
1497.3205080756886
  0
LINE
  8
_f-7_
  6
CONTINUOUS
 62
    7
 10
120
 20
1497.3205080756886
 11
150
 21
1480
  0
LINE
  8
_f-7_
  6
CONTINUOUS
 62
    7
 10
150
 20
1480
 11
120
 21
1462.6794919243113
  0
LINE
  8
_f-7_
  6
CONTINUOUS
 62
    7
 10
125
 20
1471.3397459621555
 11
125
 21
1488.6602540378444
  0
LINE
  8
_f-7_
  6
CONTINUOUS
 62
    7
 10
125
 20
1488.6602540378444
 11
140
 21
1480
  0
LINE
  8
_f-7_
  6
CONTINUOUS
 62
    7
 10
140
 20
1480
 11
125
 21
1471.3397459621555
  0
LINE
  8
_f-7_
  6
CONTINUOUS
 62
    7
 10
128.99999999999977
 20
1478.2679491924309
 11
128.99999999999977
 21
1481.732050807569
  0
LINE
  8
_f-7_
  6
CONTINUOUS
 62
    7
 10
128.99999999999977
 20
1481.732050807569
 11
132.00000000000045
 21
1480
  0
LINE
  8
_f-7_
  6
CONTINUOUS
 62
    7
 10
132.00000000000045
 20
1480
 11
128.99999999999977
 21
1478.2679491924309
  0
LINE
  8
_f-7_
  6
CONTINUOUS
 62
    7
 10
4160
 20
1462.6794919243113
 11
4160
 21
1497.3205080756886
  0
LINE
  8
_f-7_
  6
CONTINUOUS
 62
    7
 10
4160
 20
1497.3205080756886
 11
4130
 21
1480
  0
LINE
  8
_f-7_
  6
CONTINUOUS
 62
    7
 10
4130
 20
1480
 11
4160
 21
1462.6794919243113
  0
LINE
  8
_f-7_
  6
CONTINUOUS
 62
    7
 10
4155
 20
1471.3397459621555
 11
4155
 21
1488.6602540378444
  0
LINE
  8
_f-7_
  6
CONTINUOUS
 62
    7
 10
4155
 20
1488.6602540378444
 11
4140
 21
1480
  0
LINE
  8
_f-7_
  6
CONTINUOUS
 62
    7
 10
4140
 20
1480
 11
4155
 21
1471.3397459621555
  0
LINE
  8
_f-7_
  6
CONTINUOUS
 62
    7
 10
4151
 20
1478.2679491924309
 11
4151
 21
1481.732050807569
  0
LINE
  8
_f-7_
  6
CONTINUOUS
 62
    7
 10
4151
 20
1481.732050807569
 11
4148
 21
1480
  0
LINE
  8
_f-7_
  6
CONTINUOUS
 62
    7
 10
4148
 20
1480
 11
4151
 21
1478.2679491924309
  0
TEXT
  8
_f-d_固定文字
 62
    7
 10
149.98500000000007
 20
65
 40
20
 41
1
 50
0
  1
%f
  0
TEXT
  8
_f-d_固定文字
 62
    7
 10
3990
 20
65.00000323002979
 40
20
 41
1
 50
0
  1
%y
  0
TEXT
  8
_f-d_固定文字
 62
    7
 10
4020
 20
65.00000323002979
 40
20
 41
1
 50
0
  1
．
  0
TEXT
  8
_f-d_固定文字
 62
    7
 10
4050
 20
65.00000323002979
 40
20
 41
1
 50
0
  1
%m
  0
TEXT
  8
_f-d_固定文字
 62
    7
 10
4080
 20
65.00000323002979
 40
20
 41
1
 50
0
  1
．
  0
TEXT
  8
_f-d_固定文字
 62
    7
 10
4110
 20
65.00000323002979
 40
20
 41
1
 50
0
  1
%d
  0
LINE
  8
_0-9_
  6
CONTINUOUS
 62
    4
 10
400.01499999999992
 20
2610
 11
400.01499999999992
 21
2440
  0
POINT
  8
_0-9_
 62
    3
 10
400.01499999999992
 20
2610
  0
LINE
  8
_0-3_
  6
CONTINUOUS
 62
    5
 10
400.01499999999992
 20
2068
 11
400.01499999999992
 21
2410
  0
LINE
  8
_0-3_
  6
CONTINUOUS
 62
    5
 10
400.01499999999992
 20
2068
 11
415.01499999999992
 21
2068
  0
LINE
  8
_0-8_
  6
CONTINUOUS
 62
    4
 10
800.01499999999987
 20
1962.0000000000004
 11
1050.0149999999998
 21
1962.0000000000004
  0
LINE
  8
_0-8_
  6
CONTINUOUS
 62
    4
 10
1050.0149999999998
 20
1962.0000000000004
 11
1050.0149999999998
 21
1892.0000000000004
  0
LINE
  8
_0-8_
  6
CONTINUOUS
 62
    4
 10
800.01499999999987
 20
1892.0000000000004
 11
1050.0149999999998
 21
1892.0000000000004
  0
LINE
  8
_0-8_
  6
CONTINUOUS
 62
    4
 10
800.01499999999987
 20
1962.0000000000004
 11
800.01499999999987
 21
1892.0000000000004
  0
TEXT
  8
_0-8_
 62
    7
 10
879.9149999999995
 20
1909.5000000000004
 40
35
 41
0.8571428571428568
 50
0
  1
平面図
  0
LINE
  8
_0-9_
  6
CONTINUOUS
 62
    4
 10
1400.0149999999998
 20
2610
 11
1400.0149999999998
 21
2440
  0
POINT
  8
_0-9_
 62
    3
 10
1400.0149999999998
 20
2610
  0
LINE
  8
_0-3_
  6
CONTINUOUS
 62
    5
 10
1400.0149999999998
 20
2068
 11
1400.0149999999998
 21
2410
  0
LINE
  8
_0-9_
  6
CONTINUOUS
 62
    4
 10
1730.0149999999998
 20
2410
 11
1430.0149999999998
 21
2410
  0
LINE
  8
_0-3_
  6
CONTINUOUS
 62
    5
 10
1385.0150000000003
 20
2068
 11
1400.0149999999998
 21
2068
  0
LINE
  8
_0-3_
  6
CONTINUOUS
 62
    5
 10
400.01499999999992
 20
2410
 11
1400.0149999999998
 21
2410
  0
LINE
  8
_0-9_
  6
CONTINUOUS
 62
    4
 10
400.01499999999992
 20
2610
 11
1400.0149999999998
 21
2610
  0
TEXT
  8
_0-9_
 62
    7
 10
844.81500000000005
 20
2611.9999999999981
 40
35
 41
0.6285714285714286
 50
0
  1
１，０００
  0
LINE
  8
_0-9_
  6
CONTINUOUS
 62
    4
 10
1730.0149999999998
 20
2052
 11
1430.0149999999998
 21
2052
  0
LINE
  8
_0-9_
  6
CONTINUOUS
 62
    4
 10
1730.0149999999998
 20
2410
 11
1730.0149999999998
 21
2052
  0
TEXT
  8
_0-9_
 62
    7
 10
1725.0149999999998
 20
2197.9
 40
35
 41
0.6285714285714286
 50
90
  1
３５８
  0
LINE
  8
_0-3_
  6
DASHED1
 62
    2
 10
988.01499999999941
 20
2068
 11
988.01499999999941
 21
2130.5
  0
LINE
  8
_0-3_
  6
DASHED1
 62
    2
 10
988.01499999999941
 20
2130.5
 11
1013.0149999999998
 21
2130.5
  0
LINE
  8
_0-3_
  6
DASHED1
 62
    2
 10
1013.0149999999998
 20
2068
 11
1013.0149999999998
 21
2130.5
  0
LINE
  8
_0-4_
  6
CONTINUOUS
 62
    3
 10
404.01499999999998
 20
2052
 11
404.01499999999998
 21
2064.0000000000004
  0
LINE
  8
_0-4_
  6
CONTINUOUS
 62
    3
 10
404.01499999999998
 20
2064.0000000000004
 11
698.0150000000001
 21
2064.0000000000004
  0
LINE
  8
_0-4_
  6
CONTINUOUS
 62
    3
 10
698.0150000000001
 20
2052
 11
698.0150000000001
 21
2064.0000000000004
  0
LINE
  8
_0-4_
  6
CONTINUOUS
 62
    3
 10
404.01499999999998
 20
2052
 11
698.0150000000001
 21
2052
  0
LINE
  8
_0-4_
  6
CONTINUOUS
 62
    3
 10
1396.0149999999998
 20
2052
 11
1396.0149999999998
 21
2064.0000000000004
  0
LINE
  8
_0-4_
  6
CONTINUOUS
 62
    3
 10
1002.0149999999998
 20
2052
 11
1002.0149999999998
 21
2064.0000000000004
  0
LINE
  8
_0-4_
  6
CONTINUOUS
 62
    3
 10
1002.0149999999998
 20
2064.0000000000004
 11
1396.0149999999998
 21
2064.0000000000004
  0
LINE
  8
_0-4_
  6
CONTINUOUS
 62
    3
 10
1002.0149999999998
 20
2052
 11
1396.0149999999998
 21
2052
  0
LINE
  8
_0-4_
  6
CONTINUOUS
 62
    3
 10
993.0150000000001
 20
2052
 11
993.0150000000001
 21
2064.0000000000004
  0
LINE
  8
_0-4_
  6
CONTINUOUS
 62
    3
 10
699.01499999999964
 20
2052
 11
993.0150000000001
 21
2052
  0
LINE
  8
_0-4_
  6
CONTINUOUS
 62
    3
 10
699.01499999999964
 20
2052
 11
699.01499999999964
 21
2064.0000000000004
  0
LINE
  8
_0-4_
  6
CONTINUOUS
 62
    3
 10
699.01499999999964
 20
2064.0000000000004
 11
993.0150000000001
 21
2064.0000000000004
  0
LINE
  8
_0-3_
  6
CONTINUOUS
 62
    4
 10
414.51499999999981
 20
2068
 11
414.51499999999981
 21
2410
  0
LINE
  8
_0-3_
  6
CONTINUOUS
 62
    4
 10
1385.5149999999998
 20
2068
 11
1385.5149999999998
 21
2410
  0
LINE
  8
_0-3_
  6
CONTINUOUS
 62
    2
 10
414.51499999999981
 20
2395
 11
1385.5149999999998
 21
2395
  0
LINE
  8
_0-3_
  6
CONTINUOUS
 62
    4
 10
414.51499999999981
 20
2068
 11
1385.5149999999998
 21
2068
  0
LINE
  8
_0-3_
  6
DASHED1
 62
    2
 10
988.01500000000032
 20
2329.5
 11
1013.0149999999998
 21
2329.5
  0
LINE
  8
_0-3_
  6
DASHED1
 62
    2
 10
988.01500000000032
 20
2329.5
 11
988.01500000000032
 21
2392
  0
LINE
  8
_0-3_
  6
DASHED1
 62
    2
 10
1013.0149999999998
 20
2329.5
 11
1013.0149999999998
 21
2392
  0
LINE
  8
_0-3_
  6
DASHED1
 62
    2
 10
414.51499999999981
 20
2392
 11
1385.5149999999998
 21
2392
  0
LINE
  8
_0-6_
  6
DASHED1
 62
    7
 10
1383.5149999999998
 20
2098.5
 11
1383.5149999999998
 21
2387.5
  0
LINE
  8
_0-6_
  6
DASHED1
 62
    7
 10
416.5149999999997
 20
2098.5
 11
416.5149999999997
 21
2387.5
  0
LINE
  8
_0-6_
  6
DASHED1
 62
    7
 10
1015.0149999999998
 20
2098.5
 11
1015.0149999999998
 21
2387.5
  0
LINE
  8
_0-6_
  6
DASHED1
 62
    7
 10
986.01499999999987
 20
2098.5
 11
986.01499999999987
 21
2387.5
  0
LINE
  8
_0-6_
  6
DASHED1
 62
    7
 10
416.5149999999997
 20
2098.5
 11
986.01499999999987
 21
2098.5
  0
LINE
  8
_0-6_
  6
DASHED1
 62
    7
 10
416.5149999999997
 20
2387.5
 11
986.01499999999987
 21
2387.5
  0
LINE
  8
_0-6_
  6
DASHED1
 62
    7
 10
1015.0149999999998
 20
2387.5
 11
1383.5149999999998
 21
2387.5
  0
LINE
  8
_0-6_
  6
DASHED1
 62
    7
 10
1015.0149999999998
 20
2098.5
 11
1383.5149999999998
 21
2098.5
  0
LINE
  8
_e-0_
  6
CONTINUOUS
 62
    7
 10
2243.7859302690862
 20
199.51965480360598
 11
2272.9339284698526
 21
210.12865853712995
  0
LINE
  8
_e-0_
  6
CONTINUOUS
 62
    7
 10
2237.6336615052869
 20
191.95952323799758
 11
2287.5529504706664
 21
210.12865853712895
  0
LINE
  8
_e-0_
  6
CONTINUOUS
 62
    7
 10
2234.2067375789874
 20
185.39133607135255
 11
2263.8643430051365
 21
196.18582166608263
  0
LINE
  8
_e-0_
  6
CONTINUOUS
 62
    7
 10
2232.2119570371696
 20
179.34440646785787
 11
2253.9586582709303
 21
187.25955841042662
  0
LINE
  8
_e-0_
  6
CONTINUOUS
 62
    7
 10
2231.2024514117433
 20
173.65608760649877
 11
2249.4574587956462
 21
180.3003669205492
  0
LINE
  8
_e-0_
  6
CONTINUOUS
 62
    7
 10
2230.9649088875535
 20
168.248740335938
 11
2249.3748102388385
 21
174.94939644358311
  0
LINE
  8
_e-0_
  6
CONTINUOUS
 62
    7
 10
2231.3837497438626
 20
163.08029707814966
 11
2249.8286640768283
 21
169.79369686893903
  0
LINE
  8
_e-0_
  6
CONTINUOUS
 62
    7
 10
2232.3950068941753
 20
158.12747571767488
 11
2251.269568818267
 21
164.99725444285843
  0
LINE
  8
_e-0_
  6
CONTINUOUS
 62
    7
 10
2233.9675550564961
 20
153.37894757832998
 11
2253.6625167678698
 21
160.54732740628253
  0
LINE
  8
_e-0_
  6
CONTINUOUS
 62
    7
 10
2236.0955302019183
 20
148.83257832814223
 11
2257.099910488102
 21
156.47754754152117
  0
LINE
  8
_e-0_
  6
CONTINUOUS
 62
    7
 10
2238.7970089264299
 20
144.49494730998821
 11
2261.880116002736
 21
152.89651120014326
  0
LINE
  8
_e-0_
  6
CONTINUOUS
 62
    7
 10
2242.1181877425701
 20
140.38286867935909
 11
2268.9468388985251
 21
150.14769912563821
  0
LINE
  8
_e-0_
  6
CONTINUOUS
 62
    7
 10
2246.1455691824353
 20
136.52782678312661
 11
2284.5651405528205
 21
150.51140717521263
  0
LINE
  8
_e-0_
  6
CONTINUOUS
 62
    7
 10
2251.0351047702797
 20
132.98658333410969
 11
2279.1844822576495
 21
143.2321188526356
  0
LINE
  8
_e-0_
  6
CONTINUOUS
 62
    7
 10
2279.5849322183671
 20
201.90764820482513
 11
2302.1719724714803
 21
210.12865853713066
  0
LINE
  8
_e-0_
  6
CONTINUOUS
 62
    7
 10
2260.5624543087296
 20
189.663143601351
 11
2313.0511299164636
 21
208.76745915862059
  0
LINE
  8
_e-0_
  6
CONTINUOUS
 62
    7
 10
2273.0696188494734
 20
188.89449034687174
 11
2313.0511299164636
 21
203.44657029624102
  0
LINE
  8
_e-0_
  6
CONTINUOUS
 62
    7
 10
2287.6886408502887
 20
188.89449034687174
 11
2313.0511299164636
 21
198.12568143386158
  0
LINE
  8
_e-0_
  6
CONTINUOUS
 62
    7
 10
2291.8751463425487
 20
185.09736486926669
 11
2313.0511299164636
 21
192.80479257148215
  0
LINE
  8
_e-0_
  6
CONTINUOUS
 62
    7
 10
2291.8751463425487
 20
179.77647600688726
 11
2313.0511299164636
 21
187.48390370910215
  0
LINE
  8
_e-0_
  6
CONTINUOUS
 62
    7
 10
2291.8751463425487
 20
174.45558714450783
 11
2313.0511299164636
 21
182.16301484672271
  0
LINE
  8
_e-0_
  6
CONTINUOUS
 62
    7
 10
2291.8751463425487
 20
169.13469828212839
 11
2313.0511299164636
 21
176.84212598434328
  0
LINE
  8
_e-0_
  6
CONTINUOUS
 62
    7
 10
2291.8008475696451
 20
163.78676687796939
 11
2313.0511299164636
 21
171.52123712196384
  0
LINE
  8
_e-0_
  6
CONTINUOUS
 62
    7
 10
2290.6539909363364
 20
158.04845633809463
 11
2313.0511299164636
 21
166.20034825958413
  0
LINE
  8
_e-0_
  6
CONTINUOUS
 62
    7
 10
2288.3949962857823
 20
151.90536066354695
 11
2313.0511299164636
 21
160.87945939720469
  0
LINE
  8
_e-0_
  6
CONTINUOUS
 62
    7
 10
2284.4003861827632
 20
145.13055262616916
 11
2311.8608666367176
 21
155.12535013005759
  0
LINE
  8
_e-0_
  6
CONTINUOUS
 62
    7
 10
2275.7463468865153
 20
136.65985105378524
 11
2309.0387712913652
 21
148.77730256370853
  0
LINE
  8
_e-0_
  6
CONTINUOUS
 62
    7
 10
2266.9791201478205
 20
128.14795262145821
 11
2304.1703780821812
 21
141.68446348448242
  0
LINE
  8
_e-0_
  6
CONTINUOUS
 62
    7
 10
2282.1376414569663
 20
128.34431431109749
 11
2292.7244583873175
 21
132.19760054937069
  0
LINE
  8
_e-0_
  6
CONTINUOUS
 62
    3
 10
2266.4464672734898
 20
197.56612819678281
 11
2262.3244734593249
 21
194.75680664380121
  0
LINE
  8
_e-0_
  6
CONTINUOUS
 62
    3
 10
2282.3868421919432
 20
128.14795262145651
 11
2266.9204010401704
 21
128.14795262145651
  0
ARC
  8
_e-0_
  6
CONTINUOUS
 62
    3
 10
2282.3868421919432
 20
133.14795262145651
 40
5
 50
270
 51
286.20399351045659
  0
LINE
  8
_e-0_
  6
CONTINUOUS
 62
    3
 10
2313.2288608412613
 20
210.12865853712895
 11
2313.2288608412613
 21
159.77346730566921
  0
ARC
  8
_e-0_
  6
CONTINUOUS
 62
    3
 10
2271.9221657766447
 20
169.15823653484835
 40
42.5
 50
286.20399351045648
 51
345.50707147989851
  0
ARC
  8
_e-0_
  6
CONTINUOUS
 62
    3
 10
2308.2288608412613
 20
159.77346730566921
 40
5
 50
345.50707147989879
 51
0.0000000000000159
  0
ARC
  8
_e-0_
  6
CONTINUOUS
 62
    3
 10
2250.0927387377205
 20
170.4956084628958
 40
40
 50
279.71265316664215
 51
332.69093929010892
  0
ARC
  8
_e-0_
  6
CONTINUOUS
 62
    3
 10
2255.9974857549714
 20
135.99729020443191
 40
5
 50
241.9452628118
 51
279.71265316664221
  0
ARC
  8
_e-0_
  6
CONTINUOUS
 62
    3
 10
2263.2643122966178
 20
205.12865853712895
 40
5
 50
90
 51
106.05338143786268
  0
LINE
  8
_e-0_
  6
CONTINUOUS
 62
    3
 10
2288.4334989152221
 20
210.12865853712881
 11
2278.2181989551913
 21
205.24067691222057
  0
LINE
  8
_e-0_
  6
CONTINUOUS
 62
    3
 10
2278.2181989551913
 20
205.24067691222057
 11
2272.2994583375816
 21
201.4444897898403
  0
LINE
  8
_e-0_
  6
CONTINUOUS
 62
    3
 10
2266.4464672734898
 20
197.56612819678252
 11
2272.2994583375816
 21
201.4444897898403
  0
ARC
  8
_e-0_
  6
CONTINUOUS
 62
    3
 10
2263.2643122966178
 20
205.12865853712895
 40
5
 50
90
 51
106.05338143786268
  0
ARC
  8
_e-0_
  6
CONTINUOUS
 62
    3
 10
2263.2643122966178
 20
205.12865853712895
 40
5
 50
90
 51
106.05338143786268
  0
LINE
  8
_e-0_
  6
CONTINUOUS
 62
    3
 10
2288.4334989152221
 20
210.12865853712895
 11
2263.2643122966178
 21
210.12865853712895
  0
ARC
  8
_e-0_
  6
CONTINUOUS
 62
    3
 10
2273.6342932765642
 20
169.09099082020304
 40
42.5
 50
106.05338143786271
 51
241.94526281180051
  0
ARC
  8
_e-0_
  6
CONTINUOUS
 62
    3
 10
2263.2643122966178
 20
205.12865853712895
 40
5
 50
90
 51
106.05338143786268
  0
LINE
  8
_e-0_
  6
CONTINUOUS
 62
    3
 10
2299.1719829458552
 20
210.12865853712895
 11
2313.2288608412613
 21
210.12865853712895
  0
ARC
  8
_e-0_
  6
CONTINUOUS
 62
    3
 10
2299.1719829458552
 20
205.12865853712895
 40
5
 50
90
 51
112.84552721528325
  0
LINE
  8
_e-0_
  6
CONTINUOUS
 62
    3
 10
2292.0528772673465
 20
188.89449034687004
 11
2269.0173546029673
 21
188.89449034687004
  0
ARC
  8
_e-0_
  6
CONTINUOUS
 62
    3
 10
2269.0173546029673
 20
183.89449034687004
 40
5
 50
90
 51
110.93110431809542
  0
ARC
  8
_e-0_
  6
CONTINUOUS
 62
    3
 10
2254.2292662802574
 20
177.70386452217394
 40
0.5
 50
165.368776721252
 51
224.67319701305797
  0
LINE
  8
_e-0_
  6
CONTINUOUS
 62
    3
 10
2253.8737020580624
 20
177.3523334653737
 11
2253.6837582739271
 21
177.54445650133447
  0
ARC
  8
_e-0_
  6
CONTINUOUS
 62
    3
 10
2276.1622566207875
 20
165.2142768803236
 40
25
 50
110.93110431809527
 51
150.17701829297226
  0
ARC
  8
_e-0_
  6
CONTINUOUS
 62
    3
 10
2254.0393224961217
 20
177.89598755813472
 40
0.5
 50
224.67319701305652
 51
330.17701829297561
  0
LINE
  8
_e-0_
  6
CONTINUOUS
 62
    3
 10
2297.2307430642558
 20
209.73643324104926
 11
2283.5233941157548
 21
203.96157353985984
  0
LINE
  8
_e-0_
  6
CONTINUOUS
 62
    3
 10
2283.5233941157548
 20
203.96157353985984
 11
2277.114528385443
 21
200.4613679180602
  0
ARC
  8
_e-0_
  6
CONTINUOUS
 62
    3
 10
2277.9347719955744
 20
171.51524603489747
 40
25
 50
126.05682261028302
 51
165.36877672125814
  0
ARC
  8
_e-0_
  6
CONTINUOUS
 62
    3
 10
2322.0287923520791
 20
111.11536133502738
 40
100
 50
116.68868989749238
 51
126.03335467187628
  0
LINE
  8
_e-0_
  6
CONTINUOUS
 62
    3
 10
2262.3244734593245
 20
194.75680664380149
 11
2254.3560414411385
 21
187.50185893935451
  0
LINE
  8
_e-0_
  6
CONTINUOUS
 62
    3
 10
2254.3560414411385
 20
187.50185893935451
 11
2252.5108960046536
 21
185.36863764275494
  0
ARC
  8
_e-0_
  6
CONTINUOUS
 62
    3
 10
2274.5493829743445
 20
174.5520307550089
 40
25
 50
169.07329675873063
 51
296.32138326661799
  0
LINE
  8
_e-0_
  6
CONTINUOUS
 62
    3
 10
2252.5108960046541
 20
185.36863764275494
 11
2250.002621066113
 21
179.29085759512361
  0
LINE
  8
_e-0_
  6
CONTINUOUS
 62
    3
 10
2292.0528772673465
 20
188.89449034687004
 11
2292.0528772673465
 21
164.42425885831653
  0
ARC
  8
_e-0_
  6
CONTINUOUS
 62
    3
 10
2277.2840925230507
 20
144.13090983307199
 40
5
 50
311.4163090429962
 51
326.13300916724881
  0
ARC
  8
_e-0_
  6
CONTINUOUS
 62
    3
 10
2252.285941088533
 20
168.73596234419835
 40
40
 50
316.78132524618342
 51
353.81191653224226
  0
ARC
  8
_e-0_
  6
CONTINUOUS
 62
    3
 10
2240.9001979970053
 20
185.376663785662
 40
60
 50
294.69555798319504
 51
311.41630904299643
  0
ARC
  8
_e-0_
  6
CONTINUOUS
 62
    3
 10
2271.9268153318698
 20
202.98067150791609
 40
75
 50
264.68313230529076
 51
266.17253517307824
  0
ARC
  8
_e-0_
  6
CONTINUOUS
 62
    3
 10
2265.0233680716155
 20
128.80121063143832
 40
0.5
 50
174.02086603460466
 51
264.68313230528985
  0
ARC
  8
_e-0_
  6
CONTINUOUS
 62
    3
 10
2267.0124878650103
 20
128.59287809071872
 40
2.5
 50
114.69555798319522
 51
174.02086603461154
  0
LINE
  8
_e-0_
  6
CONTINUOUS
 62
    7
 10
2376.8899919095943
 20
169.43032024062034
 11
2388.2618909747961
 21
173.56935300743344
  0
LINE
  8
_e-0_
  6
CONTINUOUS
 62
    3
 10
2436.2585234464268
 20
162.63312492519389
 11
2436.2585234464268
 21
136.49018622829544
  0
CIRCLE
  8
_e-0_
  6
CONTINUOUS
 62
    3
 10
2365.5167430510387
 20
162.46293449130519
 40
13.33773795583065
  0
CIRCLE
  8
_e-0_
  6
CONTINUOUS
 62
    3
 10
2365.2330256036634
 20
162.17921704393006
 40
25.691707563897665
  0
LINE
  8
_e-0_
  6
CONTINUOUS
 62
    3
 10
2399.4939617252575
 20
188.26250382114977
 11
2399.4939617252575
 21
136.49018622829544
  0
LINE
  8
_e-0_
  6
CONTINUOUS
 62
    3
 10
2399.4939617252575
 20
136.49018622829544
 11
2414.856930753669
 21
136.49018622829544
  0
LINE
  8
_e-0_
  6
CONTINUOUS
 62
    3
 10
2414.856930753669
 20
136.49018622829544
 11
2414.856930753669
 21
172.63312492519389
  0
LINE
  8
_e-0_
  6
CONTINUOUS
 62
    3
 10
2451.1774760289304
 20
136.49018622829544
 11
2436.2585234464268
 21
136.49018622829544
  0
LINE
  8
_e-0_
  6
CONTINUOUS
 62
    3
 10
2426.2585234464268
 20
172.63312492519389
 11
2414.856930753669
 21
172.63312492519389
  0
ARC
  8
_e-0_
  6
CONTINUOUS
 62
    3
 10
2426.2585234464268
 20
162.63312492519389
 40
10
 50
0
 51
90
  0
LINE
  8
_e-0_
  6
CONTINUOUS
 62
    3
 10
2426.1774760289299
 20
188.26250382114977
 11
2399.4939617252575
 21
188.26250382114977
  0
LINE
  8
_e-0_
  6
CONTINUOUS
 62
    3
 10
2451.1774760289304
 20
163.26250382114977
 11
2451.1774760289304
 21
136.49018622829544
  0
ARC
  8
_e-0_
  6
CONTINUOUS
 62
    3
 10
2426.1774760289299
 20
163.26250382114977
 40
25
 50
0
 51
90
  0
ARC
  8
_e-0_
  6
CONTINUOUS
 62
    3
 10
2486.2452606175233
 20
162.17653762406428
 40
13.33773795583065
 50
23.422555400004949
 51
97.191484740792631
  0
LINE
  8
_e-0_
  6
CONTINUOUS
 62
    3
 10
2474.0065761310629
 20
167.47841048365671
 11
2498.4839451039833
 21
167.47841048365671
  0
ARC
  8
_e-0_
  6
CONTINUOUS
 62
    3
 10
2486.2452606175233
 20
162.17653762406428
 40
13.33773795583065
 50
92.530763017635237
 51
156.57744459999506
  0
ARC
  8
_e-0_
  6
CONTINUOUS
 62
    3
 10
2486.2452606175233
 20
162.17653762406428
 40
13.33773795583065
 50
204.21097500392608
 51
316.0067678116265
  0
LINE
  8
_e-0_
  6
CONTINUOUS
 62
    3
 10
2474.0806890359867
 20
156.70676139316753
 11
2511.5200753562385
 21
156.70676139316753
  0
LINE
  8
_e-0_
  6
CONTINUOUS
 62
    3
 10
2495.8407207162626
 20
152.91249966689292
 11
2508.7092412098891
 21
149.78943472664496
  0
ARC
  8
_e-0_
  6
CONTINUOUS
 62
    3
 10
2486.5655867677851
 20
162.8171899245882
 40
25.691707563897665
 50
346.24110979921471
 51
329.53046432565093
  0
ARC
  8
_e-0_
  6
CONTINUOUS
 62
    3
 10
2546.5135590423406
 20
162.14309845353909
 40
11.089756641867943
 50
94.502189492040685
 51
357.22978420280037
  0
LINE
  8
_e-0_
  6
CONTINUOUS
 62
    3
 10
2556.5903561511468
 20
173.19863581905565
 11
2545.6430442891501
 21
173.19863581905565
  0
LINE
  8
_e-0_
  6
CONTINUOUS
 62
    3
 10
2557.5903561511468
 20
172.19863581905599
 11
2557.5903561511468
 21
161.60712439988742
  0
ARC
  8
_e-0_
  6
CONTINUOUS
 62
    3
 10
2556.5903561511468
 20
172.19863581905599
 40
1
 50
0
 51
90
  0
LINE
  8
_e-0_
  6
CONTINUOUS
 62
    3
 10
2548.9703457355517
 20
188.29058742736094
 11
2557.3930775458175
 21
188.29058742736094
  0
ARC
  8
_e-0_
  6
CONTINUOUS
 62
    3
 10
2546.9662856612039
 20
162.67716163604518
 40
25.691707563897665
 50
85.526146014136969
 51
347.40557840019874
  0
LINE
  8
_e-0_
  6
CONTINUOUS
 62
    3
 10
2557.3930775458175
 20
209.12865853712901
 11
2557.3930775458175
 21
188.29058742736094
  0
ARC
  8
_e-0_
  6
CONTINUOUS
 62
    3
 10
2558.3930775458175
 20
209.12865853712901
 40
1
 50
90
 51
180
  0
LINE
  8
_e-0_
  6
CONTINUOUS
 62
    3
 10
2572.0397992563612
 20
209.12865853712901
 11
2572.0397992563612
 21
157.07513043814088
  0
LINE
  8
_e-0_
  6
CONTINUOUS
 62
    3
 10
2571.0397992563616
 20
210.12865853712895
 11
2558.3930775458175
 21
210.12865853712895
  0
ARC
  8
_e-0_
  6
CONTINUOUS
 62
    3
 10
2571.0397992563616
 20
209.12865853712901
 40
1
 50
0
 51
90
  0
CIRCLE
  8
_e-0_
  6
CONTINUOUS
 62
    3
 10
2607.4932845795829
 20
162.61858771142584
 40
13.33773795583065
  0
CIRCLE
  8
_e-0_
  6
CONTINUOUS
 62
    3
 10
2607.2095671322085
 20
162.334870264051
 40
25.691707563897665
  0
ARC
  8
_e-0_
  6
CONTINUOUS
 62
    3
 10
2361.3056445788688
 20
183.56108960512415
 40
5
 50
90
 51
106.05338143786268
  0
ARC
  8
_e-0_
  6
CONTINUOUS
 62
    3
 10
2361.3056445788688
 20
183.56108960512415
 40
5
 50
90
 51
106.05338143786268
  0
ARC
  8
_e-0_
  6
CONTINUOUS
 62
    3
 10
2361.3056445788688
 20
183.56108960512415
 40
5
 50
90
 51
106.05338143786268
  0
ARC
  8
_e-0_
  6
CONTINUOUS
 62
    3
 10
2361.3056445788688
 20
183.56108960512415
 40
5
 50
90
 51
106.05338143786268
  0
LINE
  8
_e-0_
  6
CONTINUOUS
 62
    7
 10
2346.3470804331013
 20
179.59716504486777
 11
2368.5044577934554
 21
187.66179087344028
  0
LINE
  8
_e-0_
  6
CONTINUOUS
 62
    7
 10
2361.2415063076145
 20
179.69740385729494
 11
2376.5205845613304
 21
185.25853354867166
  0
LINE
  8
_e-0_
  6
CONTINUOUS
 62
    7
 10
2341.7511550984831
 20
172.60349616177705
 11
2361.2415063076145
 21
179.69740385729494
  0
LINE
  8
_e-0_
  6
CONTINUOUS
 62
    7
 10
2339.9278406436087
 20
166.61897511011602
 11
2357.2356669233163
 21
172.91850869577984
  0
LINE
  8
_e-0_
  6
CONTINUOUS
 62
    7
 10
2339.5613566552269
 20
161.16469698463049
 11
2352.6357267551816
 21
165.92337853279389
  0
LINE
  8
_e-0_
  6
CONTINUOUS
 62
    7
 10
2340.2704529847874
 20
156.10189807943811
 11
2352.3257797311662
 21
160.489678179473
  0
LINE
  8
_e-0_
  6
CONTINUOUS
 62
    7
 10
2341.9204823498939
 20
151.38157079162255
 11
2353.9794571535694
 21
155.77067867592631
  0
LINE
  8
_e-0_
  6
CONTINUOUS
 62
    7
 10
2344.504128974107
 20
147.00105239631881
 11
2357.564943671171
 21
151.75480018131679
  0
LINE
  8
_e-0_
  6
CONTINUOUS
 62
    7
 10
2348.1361647674011
 20
143.00211645248765
 11
2364.9879954656798
 21
149.13568121955449
  0
LINE
  8
_e-0_
  6
CONTINUOUS
 62
    7
 10
2353.1501292054063
 20
139.50616140121155
 11
2375.2534753949121
 21
147.55112149187283
  0
LINE
  8
_e-0_
  6
CONTINUOUS
 62
    7
 10
2360.6217579801264
 20
136.90472301431668
 11
2375.3071030149835
 21
142.24975148693374
  0
LINE
  8
_e-0_
  6
CONTINUOUS
 62
    7
 10
2375.3071030149835
 20
142.24975148693374
 11
2385.0115931457403
 21
145.78189703325932
  0
LINE
  8
_e-0_
  6
CONTINUOUS
 62
    7
 10
2374.4001538198344
 20
147.24053783828736
 11
2389.063020487204
 21
152.57738485422379
  0
LINE
  8
_e-0_
  6
CONTINUOUS
 62
    7
 10
2374.4883804748506
 20
152.59353857696169
 11
2390.6567834919524
 21
158.47835601080646
  0
LINE
  8
_e-0_
  6
CONTINUOUS
 62
    7
 10
2378.4912308361026
 20
159.37134582305873
 11
2390.8686178519897
 21
163.87634627483464
  0
LINE
  8
_e-0_
  6
CONTINUOUS
 62
    7
 10
2378.6565159204478
 20
164.75239353630797
 11
2390.0320630429459
 21
168.89275408738967
  0
LINE
  8
_e-0_
  6
CONTINUOUS
 62
    7
 10
2365.1397018509305
 20
175.7953421400316
 11
2381.7641004494612
 21
181.84612839247364
  0
LINE
  8
_e-0_
  6
CONTINUOUS
 62
    7
 10
2373.159843452322
 20
173.39354609515908
 11
2385.5507858710998
 21
177.90348031010012
  0
LINE
  8
_e-0_
  6
CONTINUOUS
 62
    7
 10
2399.4939617252575
 20
182.97838129215278
 11
2414.0119690553087
 21
188.26250382114977
  0
LINE
  8
_e-0_
  6
CONTINUOUS
 62
    7
 10
2399.4939617252575
 20
177.65749242977335
 11
2428.3670442872125
 21
188.16643505383524
  0
LINE
  8
_e-0_
  6
CONTINUOUS
 62
    7
 10
2399.4939617252575
 20
172.33660356739392
 11
2436.7743097980664
 21
185.90554058897964
  0
LINE
  8
_e-0_
  6
CONTINUOUS
 62
    7
 10
2399.4939617252575
 20
167.01571470501448
 11
2442.1110032081055
 21
182.52704927725858
  0
LINE
  8
_e-0_
  6
CONTINUOUS
 62
    7
 10
2399.4939617252575
 20
161.69482584263505
 11
2414.856930753669
 21
167.28648927893004
  0
LINE
  8
_e-0_
  6
CONTINUOUS
 62
    7
 10
2428.7090082786239
 20
172.32823318076128
 11
2445.9244086202584
 21
178.5941264760919
  0
LINE
  8
_e-0_
  6
CONTINUOUS
 62
    7
 10
2399.4939617252575
 20
156.37393698025562
 11
2414.856930753669
 21
161.96560041655061
  0
LINE
  8
_e-0_
  6
CONTINUOUS
 62
    7
 10
2403.3398935234458
 20
136.49018622829544
 11
2414.856930753669
 21
140.68204496703231
  0
LINE
  8
_e-0_
  6
CONTINUOUS
 62
    7
 10
2399.4939617252575
 20
140.41127039311675
 11
2414.856930753669
 21
146.00293382941202
  0
LINE
  8
_e-0_
  6
CONTINUOUS
 62
    7
 10
2399.4939617252575
 20
145.73215925549646
 11
2414.856930753669
 21
151.32382269179146
  0
LINE
  8
_e-0_
  6
CONTINUOUS
 62
    7
 10
2399.4939617252575
 20
151.0530481178759
 11
2414.856930753669
 21
156.64471155417118
  0
LINE
  8
_e-0_
  6
CONTINUOUS
 62
    7
 10
2436.2585234464268
 20
159.113365397844
 11
2451.1774760289304
 21
164.5434200643038
  0
LINE
  8
_e-0_
  6
CONTINUOUS
 62
    7
 10
2436.2585234464268
 20
153.79247653546485
 11
2451.1774760289304
 21
159.22253120192465
  0
LINE
  8
_e-0_
  6
CONTINUOUS
 62
    7
 10
2436.105047565391
 20
164.37839360784892
 11
2450.3687179376247
 21
169.56994505472636
  0
LINE
  8
_e-0_
  6
CONTINUOUS
 62
    7
 10
2436.2585234464268
 20
148.47158767308542
 11
2451.1774760289304
 21
153.90164233954521
  0
LINE
  8
_e-0_
  6
CONTINUOUS
 62
    7
 10
2436.2585234464268
 20
143.1506988107057
 11
2451.1774760289304
 21
148.5807534771655
  0
LINE
  8
_e-0_
  6
CONTINUOUS
 62
    7
 10
2436.2585234464268
 20
137.82980994832598
 11
2451.1774760289304
 21
143.25986461478606
  0
LINE
  8
_e-0_
  6
CONTINUOUS
 62
    7
 10
2447.1969595258929
 20
136.49018622829544
 11
2451.1774760289304
 21
137.93897575240634
  0
LINE
  8
_e-0_
  6
CONTINUOUS
 62
    7
 10
2434.0189024056153
 20
168.93998772771169
 11
2448.6296862431445
 21
174.25787814386978
  0
LINE
  8
_e-0_
  6
CONTINUOUS
 62
    7
 10
2469.1883842563338
 20
181.74063227593791
 11
2487.7135419125711
 21
188.48323824789645
  0
LINE
  8
_e-0_
  6
CONTINUOUS
 62
    7
 10
2463.6316388937825
 20
174.39725350219305
 11
2496.6904887083792
 21
186.42969081378254
  0
LINE
  8
_e-0_
  6
CONTINUOUS
 62
    7
 10
2461.4628990865917
 20
168.28700790412767
 11
2502.2794299488264
 21
183.14301020398858
  0
LINE
  8
_e-0_
  6
CONTINUOUS
 62
    7
 10
2461.4992419870632
 20
162.97934677574687
 11
2473.9894671720021
 21
167.52541696234658
  0
LINE
  8
_e-0_
  6
CONTINUOUS
 62
    7
 10
2492.1508316310541
 20
174.13561303910114
 11
2506.2885679576884
 21
179.28132824190015
  0
LINE
  8
_e-0_
  6
CONTINUOUS
 62
    7
 10
2496.6927278595248
 20
170.46783921101109
 11
2509.1784918759253
 21
175.01228566505261
  0
LINE
  8
_e-0_
  6
CONTINUOUS
 62
    7
 10
2463.2093427036916
 20
158.28088367181749
 11
2488.4793399340492
 21
167.47841048365671
  0
LINE
  8
_e-0_
  6
CONTINUOUS
 62
    7
 10
2462.8888794596255
 20
152.84335572742151
 11
2511.1140538755621
 21
170.39588375711787
  0
LINE
  8
_e-0_
  6
CONTINUOUS
 62
    7
 10
2465.300291731432
 20
148.400149154524
 11
2476.9283430630944
 21
152.63241372176821
  0
LINE
  8
_e-0_
  6
CONTINUOUS
 62
    7
 10
2488.1225212892722
 20
156.70676139316753
 11
2512.1228430370119
 21
165.44216412215632
  0
LINE
  8
_e-0_
  6
CONTINUOUS
 62
    7
 10
2502.7415432900879
 20
156.70676139316753
 11
2512.1151621126959
 21
160.11847963195407
  0
LINE
  8
_e-0_
  6
CONTINUOUS
 62
    7
 10
2468.7281740890052
 20
144.32690743686691
 11
2482.5550140975401
 21
149.35946563393486
  0
LINE
  8
_e-0_
  6
CONTINUOUS
 62
    7
 10
2473.4508580764295
 20
140.72493497175571
 11
2502.4973614552445
 21
151.29699761115659
  0
LINE
  8
_e-0_
  6
CONTINUOUS
 62
    7
 10
2480.3069495598269
 20
137.89945933273884
 11
2507.3767895083869
 21
147.75207532036432
  0
LINE
  8
_e-0_
  6
CONTINUOUS
 62
    7
 10
2552.6231690921717
 20
137.61596638527407
 11
2558.7418873346696
 21
139.84299769740459
  0
LINE
  8
_e-0_
  6
CONTINUOUS
 62
    7
 10
2539.4012676014826
 20
138.12447666464265
 11
2568.5435873921023
 21
148.73141362589478
  0
LINE
  8
_e-0_
  6
CONTINUOUS
 62
    7
 10
2532.9976800904732
 20
141.11465028049622
 11
2571.5269734698549
 21
155.13816621790056
  0
LINE
  8
_e-0_
  6
CONTINUOUS
 62
    7
 10
2522.081864354775
 20
169.06695144424446
 11
2572.0397992563612
 21
187.25015271383
  0
LINE
  8
_e-0_
  6
CONTINUOUS
 62
    7
 10
2524.5896829795606
 20
175.30061163898437
 11
2572.0397992563612
 21
192.57104157620943
  0
LINE
  8
_e-0_
  6
CONTINUOUS
 62
    7
 10
2557.3930775458175
 20
208.52362629350906
 11
2561.8028673926596
 21
210.12865853712895
  0
LINE
  8
_e-0_
  6
CONTINUOUS
 62
    7
 10
2557.3930775458175
 20
203.20273743112977
 11
2572.0397992563612
 21
208.53370816334788
  0
LINE
  8
_e-0_
  6
CONTINUOUS
 62
    7
 10
2557.3930775458175
 20
197.88184856875005
 11
2572.0397992563612
 21
203.21281930096859
  0
LINE
  8
_e-0_
  6
CONTINUOUS
 62
    7
 10
2557.3930775458175
 20
192.56095970637034
 11
2572.0397992563612
 21
197.89193043858915
  0
LINE
  8
_e-0_
  6
CONTINUOUS
 62
    7
 10
2531.3600319802562
 20
183.08570601321093
 11
2545.8030101140193
 21
188.34252014805827
  0
LINE
  8
_e-0_
  6
CONTINUOUS
 62
    7
 10
2548.0525958796984
 20
173.19863581905565
 11
2572.0397992563612
 21
181.92926385145057
  0
LINE
  8
_e-0_
  6
CONTINUOUS
 62
    7
 10
2521.2864022906337
 20
163.45653806802943
 11
2538.3752084417083
 21
169.67635484616607
  0
LINE
  8
_e-0_
  6
CONTINUOUS
 62
    7
 10
2521.6554107736333
 20
158.26995730965364
 11
2535.4846691325356
 21
163.30339571427089
  0
LINE
  8
_e-0_
  6
CONTINUOUS
 62
    7
 10
2522.9940114609526
 20
153.43627925302655
 11
2536.1404517985765
 21
158.22119222247806
  0
LINE
  8
_e-0_
  6
CONTINUOUS
 62
    7
 10
2525.2563435788042
 20
148.93881194156961
 11
2539.0354883761397
 21
153.95401050144357
  0
LINE
  8
_e-0_
  6
CONTINUOUS
 62
    7
 10
2528.5117312327797
 20
144.80278728623488
 11
2545.7561370732087
 21
151.07923771975691
  0
LINE
  8
_e-0_
  6
CONTINUOUS
 62
    7
 10
2554.2054905278623
 20
154.15455087604527
 11
2572.0397992563612
 21
160.64570840193255
  0
LINE
  8
_e-0_
  6
CONTINUOUS
 62
    7
 10
2557.505937791675
 20
160.67670430221767
 11
2572.0397992563612
 21
165.96659726431198
  0
LINE
  8
_e-0_
  6
CONTINUOUS
 62
    7
 10
2557.5903561511468
 20
166.02831893467055
 11
2572.0397992563612
 21
171.28748612669141
  0
LINE
  8
_e-0_
  6
CONTINUOUS
 62
    7
 10
2557.5903561511468
 20
171.34920779704998
 11
2572.0397992563612
 21
176.60837498907085
  0
LINE
  8
_e-0_
  6
CONTINUOUS
 62
    7
 10
2595.1467628188602
 20
185.01862193009401
 11
2601.869376832742
 21
187.46545332760774
  0
LINE
  8
_e-0_
  6
CONTINUOUS
 62
    7
 10
2585.5936460434281
 20
176.22068291698809
 11
2614.8426950414304
 21
186.86646613285404
  0
LINE
  8
_e-0_
  6
CONTINUOUS
 62
    7
 10
2608.5181174973608
 20
136.67650840108905
 11
2622.7000364868072
 21
141.83830477802189
  0
LINE
  8
_e-0_
  6
CONTINUOUS
 62
    7
 10
2598.2444761483161
 20
138.25809761488983
 11
2629.5534764025951
 21
149.65364177207987
  0
LINE
  8
_e-0_
  6
CONTINUOUS
 62
    7
 10
2582.6330921261528
 20
169.82224055178022
 11
2621.2234503919626
 21
183.86798229020314
  0
LINE
  8
_e-0_
  6
CONTINUOUS
 62
    7
 10
2592.2968185805402
 20
141.41421615899105
 11
2632.0809325371146
 21
155.89444943583799
  0
LINE
  8
_e-0_
  6
CONTINUOUS
 62
    7
 10
2588.0695495912832
 20
145.19650493704432
 11
2602.246111940276
 21
150.35635165629656
  0
LINE
  8
_e-0_
  6
CONTINUOUS
 62
    7
 10
2585.0094293819529
 20
149.40360112995108
 11
2597.3909335115822
 21
153.91010008858017
  0
LINE
  8
_e-0_
  6
CONTINUOUS
 62
    7
 10
2582.919829983693
 20
153.96393800982366
 11
2594.8695180063709
 21
158.31326875884542
  0
LINE
  8
_e-0_
  6
CONTINUOUS
 62
    7
 10
2581.7538748691904
 20
158.86045391603374
 11
2594.1774270088017
 21
163.38225709870641
  0
LINE
  8
_e-0_
  6
CONTINUOUS
 62
    7
 10
2581.5798124660104
 20
164.11798924475078
 11
2595.9853391150813
 21
169.36117215394091
  0
LINE
  8
_e-0_
  6
CONTINUOUS
 62
    7
 10
2611.9748325174678
 20
175.18087181340547
 11
2625.6969314853622
 21
180.17530738937352
  0
LINE
  8
_e-0_
  6
CONTINUOUS
 62
    7
 10
2617.2029460570038
 20
171.76286066078091
 11
2628.9430705154381
 21
176.03591651023151
  0
LINE
  8
_e-0_
  6
CONTINUOUS
 62
    7
 10
2619.9310564926913
 20
167.43492279278257
 11
2631.1973168341919
 21
171.53550620858254
  0
LINE
  8
_e-0_
  6
CONTINUOUS
 62
    7
 10
2620.8298424207368
 20
162.44116525518904
 11
2632.5279188691888
 21
166.69891688059578
  0
LINE
  8
_e-0_
  6
CONTINUOUS
 62
    7
 10
2619.394865425299
 20
156.5979874796136
 11
2632.8880000931144
 21
161.50908686564349
  0
TEXT
  8
_e-0_
 62
    7
 10
2642.8586825750176
 20
180.56247057449553
 40
35
 41
0.5714285714285711
 50
0
  1
ワンド
  0
TEXT
  8
_e-0_
 62
    7
 10
2649.7045100149039
 20
147.0179161190498
 40
30
 41
0.6666666666666666
 50
0
  1
株式
  0
TEXT
  8
_e-0_
 62
    7
 10
2649.0199272709155
 20
118.95002361551377
 40
30
 41
0.6666666666666666
 50
0
  1
会社
  0
TEXT
  8
_f-8_
 62
    7
 10
1556.5531914893617
 20
137.5
 40
45
 41
0.6666666666666666
 50
0
  1
ＫＴＤ３－５０－１００ＦＨ
  0
TEXT
  8
_f-8_
 62
    7
 10
3040
 20
142.5
 40
35
 41
0.5714285714285711
 50
0
  1
２０２３．０５．０１
  0
TEXT
  8
_f-8_
 62
    7
 10
3582
 20
145
 40
30
 41
0.7333333333333329
 50
0
  1
Ｔ．Ｋ
  0
LINE
  8
_0-9_
  6
CONTINUOUS
 62
    4
 10
2308.0149999999998
 20
1487
 11
2308.0149999999998
 21
1287
  0
POINT
  8
_0-9_
 62
    3
 10
2308.0149999999998
 20
1487
  0
LINE
  8
_0-9_
  6
CONTINUOUS
 62
    4
 10
2488.0149999999998
 20
1257
 11
2338.0149999999998
 21
1257
  0
POINT
  8
_0-9_
 62
    3
 10
2478.0149999999998
 20
1257
  0
LINE
  8
_0-9_
  6
CONTINUOUS
 62
    4
 10
400.01499999999992
 20
1497
 11
400.01499999999992
 21
1287
  0
POINT
  8
_0-9_
 62
    3
 10
400.01499999999992
 20
1487
  0
POINT
  8
_0-9_
 62
    3
 10
2830.0149999999994
 20
1487
  0
LINE
  8
_0-9_
  6
CONTINUOUS
 62
    4
 10
2830.0149999999994
 20
1497
 11
2830.0149999999994
 21
1287
  0
LINE
  8
_0-9_
  6
CONTINUOUS
 62
    4
 10
1400.0149999999998
 20
1497
 11
1400.0149999999998
 21
1287
  0
POINT
  8
_0-9_
 62
    3
 10
1400.0149999999998
 20
1487
  0
POINT
  8
_0-9_
 62
    3
 10
1570.0149999999998
 20
1257
  0
LINE
  8
_0-9_
  6
CONTINUOUS
 62
    4
 10
1570.0149999999998
 20
1257
 11
1430.0149999999998
 21
1257
  0
LINE
  8
_0-3_
  6
CONTINUOUS
 62
    5
 10
400.01499999999992
 20
1257
 11
1400.0149999999998
 21
1257
  0
POINT
  8
_0-9_
 62
    3
 10
3830.0149999999994
 20
1487
  0
LINE
  8
_0-9_
  6
CONTINUOUS
 62
    4
 10
3830.0149999999994
 20
1497
 11
3830.0149999999994
 21
1287
  0
LINE
  8
_0-9_
  6
CONTINUOUS
 62
    4
 10
2488.0149999999998
 20
757
 11
2338.0149999999998
 21
757
  0
POINT
  8
_0-9_
 62
    3
 10
2478.0149999999998
 20
757
  0
LINE
  8
_0-9_
  6
CONTINUOUS
 62
    4
 10
2478.0149999999998
 20
757
 11
2478.0149999999998
 21
1257
  0
TEXT
  8
_0-9_
 62
    7
 10
2478.0149999999998
 20
973.89999999999997
 40
35
 41
0.6285714285714286
 50
90
  1
５００
  0
LINE
  8
_0-8_
  6
CONTINUOUS
 62
    4
 10
2004.0149999999998
 20
427
 11
2254.0149999999998
 21
427
  0
LINE
  8
_0-8_
  6
CONTINUOUS
 62
    4
 10
2254.0149999999998
 20
427
 11
2254.0149999999998
 21
357
  0
LINE
  8
_0-8_
  6
CONTINUOUS
 62
    4
 10
2004.0149999999998
 20
357
 11
2254.0149999999998
 21
357
  0
LINE
  8
_0-8_
  6
CONTINUOUS
 62
    4
 10
2004.0149999999998
 20
427
 11
2004.0149999999998
 21
357
  0
TEXT
  8
_0-8_
 62
    7
 10
2083.9149999999999
 20
374.5
 40
35
 41
0.8571428571428568
 50
0
  1
断面図
  0
LINE
  8
_0-3_
  6
CONTINUOUS
 62
    5
 10
400.01499999999992
 20
1257
 11
400.01499999999992
 21
757
  0
TEXT
  8
_0-8_
 62
    7
 10
879.9149999999995
 20
374.5
 40
35
 41
0.8571428571428568
 50
0
  1
立面図
  0
LINE
  8
_0-8_
  6
CONTINUOUS
 62
    4
 10
800.01499999999987
 20
427
 11
800.01499999999987
 21
357
  0
LINE
  8
_0-8_
  6
CONTINUOUS
 62
    4
 10
800.01499999999987
 20
357
 11
1050.0149999999998
 21
357
  0
LINE
  8
_0-8_
  6
CONTINUOUS
 62
    4
 10
1050.0149999999998
 20
427
 11
1050.0149999999998
 21
357
  0
LINE
  8
_0-8_
  6
CONTINUOUS
 62
    4
 10
800.01499999999987
 20
427
 11
1050.0149999999998
 21
427
  0
LINE
  8
_0-3_
  6
CONTINUOUS
 62
    5
 10
1400.0149999999998
 20
1257
 11
1400.0149999999998
 21
757
  0
LINE
  8
_0-9_
  6
CONTINUOUS
 62
    4
 10
1580.0149999999998
 20
757
 11
1430.0149999999998
 21
757
  0
LINE
  8
_0-8_
  6
CONTINUOUS
 62
    4
 10
3205.0149999999994
 20
427
 11
3455.0149999999994
 21
427
  0
LINE
  8
_0-8_
  6
CONTINUOUS
 62
    4
 10
3455.0149999999994
 20
427
 11
3455.0149999999994
 21
357
  0
LINE
  8
_0-8_
  6
CONTINUOUS
 62
    4
 10
3205.0149999999994
 20
357
 11
3455.0149999999994
 21
357
  0
LINE
  8
_0-8_
  6
CONTINUOUS
 62
    4
 10
3205.0149999999994
 20
427
 11
3205.0149999999994
 21
357
  0
TEXT
  8
_0-8_
 62
    7
 10
3284.9150000000008
 20
374.5
 40
35
 41
0.8571428571428568
 50
0
  1
背面図
  0
LINE
  8
_0-9_
  6
CONTINUOUS
 62
    4
 10
2842.0150000000003
 20
517
 11
2842.0150000000003
 21
727
  0
POINT
  8
_0-9_
 62
    3
 10
2842.0150000000003
 20
527
  0
LINE
  8
_0-9_
  6
CONTINUOUS
 62
    4
 10
1580.0149999999998
 20
742.00000000000022
 11
1430.0149999999998
 21
742.00000000000022
  0
LINE
  8
_0-9_
  6
CONTINUOUS
 62
    4
 10
1570.0149999999998
 20
742.00000000000022
 11
1570.0149999999998
 21
706.21007640863592
  0
POINT
  8
_0-9_
 62
    4
 10
1570.0149999999998
 20
757
  0
POINT
  8
_0-9_
 62
    4
 10
1570.0149999999998
 20
742.00000000000022
  0
POINT
  8
_0-9_
 62
    3
 10
1570.0149999999998
 20
742.00000000000022
  0
POINT
  8
_0-9_
 62
    3
 10
1570.0149999999998
 20
757
  0
LINE
  8
_0-9_
  6
CONTINUOUS
 62
    4
 10
1950.0149999999998
 20
1487
 11
1950.0149999999998
 21
1287
  0
POINT
  8
_0-9_
 62
    4
 10
1950.0149999999998
 20
1487
  0
POINT
  8
_0-9_
 62
    3
 10
1950.0149999999998
 20
1487
  0
POINT
  8
_0-9_
 62
    3
 10
2308.0149999999998
 20
1487
  0
LINE
  8
_0-4_
  6
CONTINUOUS
 62
    3
 10
1950.0149999999998
 20
1252
 11
1962.0150000000003
 21
1252
  0
LINE
  8
_0-9_
  6
CONTINUOUS
 62
    4
 10
2408.0149999999998
 20
757
 11
2338.0149999999998
 21
757
  0
LINE
  8
_0-9_
  6
CONTINUOUS
 62
    4
 10
2408.0149999999998
 20
947
 11
2338.0149999999998
 21
947
  0
LINE
  8
_0-9_
  6
CONTINUOUS
 62
    4
 10
2408.0149999999998
 20
1007
 11
2338.0149999999998
 21
1007
  0
LINE
  8
_0-9_
  6
CONTINUOUS
 62
    4
 10
2408.0149999999998
 20
1067
 11
2338.0149999999998
 21
1067
  0
LINE
  8
_0-9_
  6
CONTINUOUS
 62
    4
 10
2398.0149999999998
 20
1007
 11
2398.0149999999998
 21
1067
  0
TEXT
  8
_0-9_
 62
    7
 10
2393.0149999999998
 20
1014.95
 40
35
 41
0.6285714285714286
 50
89.999999999999957
  1
６０
  0
LINE
  8
_0-9_
  6
CONTINUOUS
 62
    4
 10
2398.0149999999998
 20
947
 11
2398.0149999999998
 21
1007
  0
TEXT
  8
_0-9_
 62
    7
 10
2393.0149999999998
 20
954.95000000000004
 40
35
 41
0.6285714285714286
 50
90
  1
６０
  0
LINE
  8
_0-9_
  6
CONTINUOUS
 62
    4
 10
2398.0149999999998
 20
757
 11
2398.0149999999998
 21
947
  0
TEXT
  8
_0-9_
 62
    7
 10
2393.0149999999998
 20
818.89999999999997
 40
35
 41
0.6285714285714286
 50
90
  1
１９０
  0
LINE
  8
_0-9_
  6
CONTINUOUS
 62
    4
 10
2842.0150000000003
 20
527
 11
3818.0150000000003
 21
527
  0
TEXT
  8
_0-9_
 62
    7
 10
3296.9149999999999
 20
527
 40
35
 41
0.6285714285714286
 50
0
  1
９７６
  0
LINE
  8
_0-9_
  6
CONTINUOUS
 62
    4
 10
2830.0149999999994
 20
1487
 11
3830.0149999999994
 21
1487
  0
TEXT
  8
_0-9_
 62
    7
 10
3274.8149999999995
 20
1487
 40
35
 41
0.6285714285714286
 50
0
  1
１，０００
  0
LINE
  8
_0-9_
  6
CONTINUOUS
 62
    4
 10
400.01499999999992
 20
1487
 11
1400.0149999999998
 21
1487
  0
TEXT
  8
_0-9_
 62
    7
 10
844.81500000000005
 20
1487
 40
35
 41
0.6285714285714286
 50
0
  1
１，０００
  0
LINE
  8
_0-9_
  6
CONTINUOUS
 62
    4
 10
1950.0149999999998
 20
1487
 11
2308.0149999999998
 21
1487
  0
TEXT
  8
_0-9_
 62
    7
 10
2095.9149999999999
 20
1492
 40
35
 41
0.6285714285714286
 50
0
  1
３５８
  0
LINE
  8
_0-9_
  6
CONTINUOUS
 62
    4
 10
1570.0149999999998
 20
757
 11
1570.0149999999998
 21
742.00000000000022
  0
TEXT
  8
_0-9_
 62
    7
 10
1570.020079940612
 20
699.76170504138167
 40
35
 41
0.6285714285714286
 50
90
  1
１５
  0
LINE
  8
_0-9_
  6
CONTINUOUS
 62
    4
 10
1570.0149999999998
 20
757
 11
1570.0149999999998
 21
1257
  0
TEXT
  8
_0-9_
 62
    7
 10
1568.0149999999994
 20
973.89999999999997
 40
35
 41
0.6285714285714286
 50
90
  1
５００
  0
ARC
  8
_0-5_
  6
CONTINUOUS
 62
    4
 10
1961.6149999999997
 20
744.00000000000022
 40
1.9999999999999995
 50
269.99999999999994
 51
359.99999999999994
  0
ARC
  8
_0-5_
  6
CONTINUOUS
 62
    4
 10
1961.6149999999997
 20
744.00000000000022
 40
0.6999999999999997
 50
270
 51
0
  0
LINE
  8
_0-5_
  6
CONTINUOUS
 62
    4
 10
1963.6150000000002
 20
786.00000000000034
 11
1963.6150000000002
 21
744.00000000000022
  0
ARC
  8
_0-5_
  6
CONTINUOUS
 62
    4
 10
1963.1150000000002
 20
786.00000000000034
 40
0.4999999999999997
 50
0
 51
90
  0
ARC
  8
_0-5_
  6
CONTINUOUS
 62
    4
 10
1962.8150000000005
 20
785.70000000000027
 40
0.8000000000000001
 50
89.999999999999971
 51
231.31781254650667
  0
LINE
  8
_0-5_
  6
CONTINUOUS
 62
    4
 10
1963.1150000000002
 20
786.50000000000022
 11
1962.8150000000005
 21
786.50000000000022
  0
LINE
  8
_0-5_
  6
CONTINUOUS
 62
    4
 10
1962.3150000000009
 20
777.72449979984003
 11
1962.3150000000009
 21
785.0755002001606
  0
ARC
  8
_0-5_
  6
CONTINUOUS
 62
    4
 10
1962.8150000000005
 20
777.10000000000013
 40
0.8000000000000001
 50
128.68218745349335
 51
231.31781254650667
  0
LINE
  8
_0-5_
  6
CONTINUOUS
 62
    4
 10
1962.3150000000009
 20
772.30000000000018
 11
1962.3150000000009
 21
776.47550020016046
  0
ARC
  8
_0-5_
  6
CONTINUOUS
 62
    4
 10
1962.0150000000007
 20
772.30000000000018
 40
0.2999999999999998
 50
270
 51
0
  0
LINE
  8
_0-5_
  6
CONTINUOUS
 62
    4
 10
1962.3150000000009
 20
768.55038733822539
 11
1962.3150000000009
 21
744.00000000000022
  0
ARC
  8
_0-5_
  6
CONTINUOUS
 62
    4
 10
1961.315
 20
768.55038733822539
 40
0.9999999999999995
 50
359.99999999999994
 51
87.03906386583624
  0
ARC
  8
_0-5_
  6
CONTINUOUS
 62
    4
 10
1948.5150000000003
 20
777.20000000000004
 40
0.8000000000000001
 50
0.0000000000000254
 51
179.99999999999997
  0
LINE
  8
_0-5_
  6
CONTINUOUS
 62
    4
 10
1950.8435714285724
 20
742.00000000000022
 11
1961.6149999999997
 21
742.00000000000022
  0
ARC
  8
_0-5_
  6
CONTINUOUS
 62
    4
 10
1950.8435714285724
 20
744.00000000000022
 40
1.9999999999999995
 50
198.92464441605042
 51
270
  0
ARC
  8
_0-5_
  6
CONTINUOUS
 62
    4
 10
1950.8435714285724
 20
744.00000000000022
 40
0.6999999999999997
 50
198.92464441604994
 51
270
  0
LINE
  8
_0-5_
  6
CONTINUOUS
 62
    4
 10
1961.6149999999997
 20
743.30000000000018
 11
1950.8435714285724
 21
743.30000000000018
  0
LINE
  8
_0-5_
  6
CONTINUOUS
 62
    4
 10
1950.1814092664089
 20
743.77297297297309
 11
1949.0525798523667
 21
747.0653920972644
  0
ARC
  8
_0-5_
  6
CONTINUOUS
 62
    4
 10
1949.2417690415554
 20
747.13025696212912
 40
0.2
 50
133.54896276822287
 51
198.92464441605298
  0
ARC
  8
_0-5_
  6
CONTINUOUS
 62
    4
 10
1948.4150000000004
 20
748
 40
0.9999999999999995
 50
313.54896276821995
 51
198.92464441604971
  0
LINE
  8
_0-5_
  6
CONTINUOUS
 62
    4
 10
1948.9516795366803
 20
743.35135135135158
 11
1947.4690540540545
 21
747.67567567567584
  0
LINE
  8
_0-5_
  6
CONTINUOUS
 62
    4
 10
1949.3149999999995
 20
772.30000000000018
 11
1949.3149999999995
 21
777.20000000000004
  0
ARC
  8
_0-5_
  6
CONTINUOUS
 62
    4
 10
1949.6150000000006
 20
772.30000000000018
 40
0.2999999999999998
 50
179.99999999999997
 51
270
  0
LINE
  8
_0-5_
  6
CONTINUOUS
 62
    4
 10
1962.0150000000007
 20
772.00000000000022
 11
1949.6150000000006
 21
772.00000000000022
  0
LINE
  8
_0-5_
  6
CONTINUOUS
 62
    4
 10
1947.7150000000006
 20
771.34961266177469
 11
1947.7150000000006
 21
777.20000000000004
  0
ARC
  8
_0-5_
  6
CONTINUOUS
 62
    4
 10
1948.7150000000001
 20
771.34961266177469
 40
0.9999999999999995
 50
180
 51
267.03906386583628
  0
LINE
  8
_0-5_
  6
CONTINUOUS
 62
    4
 10
1961.3666550854281
 20
769.54905232316764
 11
1948.6633449145715
 21
770.35094767683267
  0
LINE
  8
_0-4_
  6
CONTINUOUS
 62
    3
 10
1950.0149999999998
 20
1252
 11
1950.0149999999998
 21
772.00000000000022
  0
LINE
  8
_0-4_
  6
CONTINUOUS
 62
    3
 10
1962.0150000000003
 20
1252
 11
1962.0150000000003
 21
772.00000000000022
  0
LINE
  8
_0-3_
  6
CONTINUOUS
 62
    5
 10
2830.0149999999994
 20
1257
 11
2830.0149999999994
 21
756.99999999999988
  0
LINE
  8
_0-3_
  6
CONTINUOUS
 62
    5
 10
3830.0149999999994
 20
1257
 11
3830.0149999999994
 21
756.99999999999988
  0
LINE
  8
_0-3_
  6
CONTINUOUS
 62
    5
 10
2830.0149999999994
 20
1257
 11
3830.0149999999994
 21
1257
  0
LINE
  8
_0-3_
  6
CONTINUOUS
 62
    5
 10
2830.0149999999994
 20
756.99999999999988
 11
3830.0149999999994
 21
756.99999999999988
  0
LINE
  8
_0-a_
  6
CONTINUOUS
 62
    4
 10
3703.6248173426465
 20
1172.0000000000034
 11
3788.6248173426447
 21
1257.0000000000018
  0
LINE
  8
_0-a_
  6
CONTINUOUS
 62
    4
 10
3675.3405460951767
 20
1172.0000000000004
 11
3760.3405460951753
 21
1256.9999999999984
  0
LINE
  8
_0-a_
  6
CONTINUOUS
 62
    4
 10
3647.0562748477123
 20
1172.0000000000029
 11
3732.0562748477104
 21
1257.0000000000009
  0
LINE
  8
_0-a_
  6
CONTINUOUS
 62
    4
 10
3618.7720036002524
 20
1172.0000000000004
 11
3703.772003600256
 21
1257.0000000000038
  0
LINE
  8
_0-a_
  6
CONTINUOUS
 62
    4
 10
3590.4877323527985
 20
1172.0000000000036
 11
3675.4877323527962
 21
1257.0000000000018
  0
LINE
  8
_0-a_
  6
CONTINUOUS
 62
    4
 10
3562.2034611053281
 20
1172.0000000000004
 11
3647.2034611053268
 21
1256.9999999999986
  0
LINE
  8
_0-a_
  6
CONTINUOUS
 62
    4
 10
3533.9191898578637
 20
1172.0000000000029
 11
3618.9191898578619
 21
1257.0000000000011
  0
LINE
  8
_0-a_
  6
CONTINUOUS
 62
    4
 10
3505.6349186104134
 20
1172.0000000000013
 11
3590.6349186104171
 21
1257.0000000000047
  0
LINE
  8
_0-a_
  6
CONTINUOUS
 62
    4
 10
3477.3506473629495
 20
1172.0000000000036
 11
3562.3506473629481
 21
1257.0000000000018
  0
LINE
  8
_0-a_
  6
CONTINUOUS
 62
    4
 10
3449.0663761154801
 20
1172.0000000000006
 11
3534.0663761154783
 21
1256.999999999999
  0
LINE
  8
_0-a_
  6
CONTINUOUS
 62
    4
 10
3420.7821048680102
 20
1171.9999999999979
 11
3505.7821048680134
 21
1257.0000000000013
  0
LINE
  8
_0-a_
  6
CONTINUOUS
 62
    4
 10
3392.4978336205649
 20
1172.0000000000013
 11
3477.497833620564
 21
1256.9999999999997
  0
LINE
  8
_0-a_
  6
CONTINUOUS
 62
    4
 10
3364.2135623730964
 20
1171.9999999999986
 11
3449.2135623730946
 21
1256.9999999999968
  0
LINE
  8
_0-a_
  6
CONTINUOUS
 62
    4
 10
3335.9292911256316
 20
1172.0000000000009
 11
3420.9292911256297
 21
1256.999999999999
  0
LINE
  8
_0-a_
  6
CONTINUOUS
 62
    4
 10
3307.6450198781617
 20
1171.9999999999979
 11
3392.6450198781649
 21
1257.0000000000013
  0
LINE
  8
_0-a_
  6
CONTINUOUS
 62
    4
 10
3279.3607486307173
 20
1172.0000000000018
 11
3364.3607486307155
 21
1257
  0
LINE
  8
_0-a_
  6
CONTINUOUS
 62
    4
 10
3251.0764773832479
 20
1171.9999999999988
 11
3336.0764773832461
 21
1256.9999999999968
  0
LINE
  8
_0-a_
  6
CONTINUOUS
 62
    4
 10
3222.792206135783
 20
1172.0000000000009
 11
3307.7922061357817
 21
1256.9999999999993
  0
LINE
  8
_0-a_
  6
CONTINUOUS
 62
    4
 10
3194.5079348883132
 20
1171.9999999999979
 11
3279.5079348883173
 21
1257.0000000000015
  0
LINE
  8
_0-a_
  6
CONTINUOUS
 62
    4
 10
3166.2236636408692
 20
1172.0000000000018
 11
3251.223663640867
 21
1257.0000000000002
  0
LINE
  8
_0-a_
  6
CONTINUOUS
 62
    4
 10
3137.9393923933994
 20
1171.999999999999
 11
3222.9393923933976
 21
1256.999999999997
  0
LINE
  8
_0-a_
  6
CONTINUOUS
 62
    4
 10
3109.6551211459345
 20
1172.0000000000013
 11
3194.6551211459332
 21
1256.9999999999993
  0
LINE
  8
_0-a_
  6
CONTINUOUS
 62
    4
 10
3081.3708498984651
 20
1171.9999999999981
 11
3166.3708498984688
 21
1257.0000000000018
  0
LINE
  8
_0-a_
  6
CONTINUOUS
 62
    4
 10
3053.0865786510207
 20
1172.000000000002
 11
3138.0865786510184
 21
1257.0000000000002
  0
LINE
  8
_0-a_
  6
CONTINUOUS
 62
    4
 10
3024.8023074035509
 20
1171.999999999999
 11
3109.802307403549
 21
1256.9999999999972
  0
LINE
  8
_0-a_
  6
CONTINUOUS
 62
    4
 10
2996.518036156086
 20
1172.0000000000013
 11
3081.5180361560851
 21
1256.9999999999995
  0
LINE
  8
_0-a_
  6
CONTINUOUS
 62
    4
 10
2968.2337649086366
 20
1172
 11
3053.2337649086402
 21
1257.0000000000031
  0
LINE
  8
_0-a_
  6
CONTINUOUS
 62
    4
 10
2939.9494936611722
 20
1172.0000000000022
 11
3024.9494936611704
 21
1257.0000000000004
  0
LINE
  8
_0-a_
  6
CONTINUOUS
 62
    4
 10
2911.6652224137028
 20
1171.9999999999993
 11
2996.665222413701
 21
1256.9999999999977
  0
LINE
  8
_0-a_
  6
CONTINUOUS
 62
    4
 10
2883.3809511662329
 20
1171.9999999999961
 11
2968.3809511662366
 21
1257
  0
LINE
  8
_0-a_
  6
CONTINUOUS
 62
    4
 10
2855.0966799187881
 20
1172
 11
2940.0966799187863
 21
1256.9999999999984
  0
LINE
  8
_0-a_
  6
CONTINUOUS
 62
    4
 10
3748.173157302036
 20
763.99999999999965
 11
3793.1731573020406
 21
809.00000000000341
  0
LINE
  8
_0-a_
  6
CONTINUOUS
 62
    4
 10
3719.8888860545725
 20
764.00000000000204
 11
3764.8888860545707
 21
809.00000000000068
  0
LINE
  8
_0-a_
  6
CONTINUOUS
 62
    4
 10
3691.6046148071027
 20
763.99999999999886
 11
3736.6046148071013
 21
808.99999999999761
  0
LINE
  8
_0-a_
  6
CONTINUOUS
 62
    4
 10
3663.3203435596387
 20
764.00000000000147
 11
3708.3203435596369
 21
808.99999999999988
  0
LINE
  8
_0-a_
  6
CONTINUOUS
 62
    4
 10
3635.0360723121884
 20
763.99999999999977
 11
3680.0360723121921
 21
809.00000000000375
  0
LINE
  8
_0-a_
  6
CONTINUOUS
 62
    4
 10
3606.751801064724
 20
764.00000000000204
 11
3651.7518010647222
 21
809.00000000000068
  0
LINE
  8
_0-a_
  6
CONTINUOUS
 62
    4
 10
3578.4675298172542
 20
763.9999999999992
 11
3623.4675298172528
 21
808.99999999999772
  0
LINE
  8
_0-a_
  6
CONTINUOUS
 62
    4
 10
3550.1832585697902
 20
764.00000000000147
 11
3595.1832585697889
 21
809
  0
LINE
  8
_0-a_
  6
CONTINUOUS
 62
    4
 10
3521.8989873223399
 20
764
 11
3566.8989873223436
 21
809.00000000000409
  0
LINE
  8
_0-a_
  6
CONTINUOUS
 62
    4
 10
3493.6147160748705
 20
763.99999999999693
 11
3538.6147160748691
 21
808.99999999999567
  0
LINE
  8
_0-a_
  6
CONTINUOUS
 62
    4
 10
3465.3304448274056
 20
763.99999999999954
 11
3510.3304448274047
 21
808.99999999999795
  0
LINE
  8
_0-a_
  6
CONTINUOUS
 62
    4
 10
3437.0461735799417
 20
764.00000000000159
 11
3482.0461735799403
 21
809.00000000000034
  0
LINE
  8
_0-a_
  6
CONTINUOUS
 62
    4
 10
3408.7619023324918
 20
764
 11
3453.761902332495
 21
809.00000000000386
  0
LINE
  8
_0-a_
  6
CONTINUOUS
 62
    4
 10
3380.477631085022
 20
763.99999999999727
 11
3425.4776310850206
 21
808.99999999999567
  0
LINE
  8
_0-a_
  6
CONTINUOUS
 62
    4
 10
3352.1933598375571
 20
763.99999999999954
 11
3397.1933598375562
 21
808.99999999999806
  0
LINE
  8
_0-a_
  6
CONTINUOUS
 62
    4
 10
3323.9090885900932
 20
764.00000000000181
 11
3368.9090885900918
 21
809.00000000000034
  0
LINE
  8
_0-a_
  6
CONTINUOUS
 62
    4
 10
3295.6248173426433
 20
764.00000000000034
 11
3340.6248173426465
 21
809.0000000000042
  0
LINE
  8
_0-a_
  6
CONTINUOUS
 62
    4
 10
3267.3405460951735
 20
763.99999999999738
 11
3312.3405460951721
 21
808.99999999999613
  0
LINE
  8
_0-a_
  6
CONTINUOUS
 62
    4
 10
3239.0562748477095
 20
763.99999999999965
 11
3284.0562748477077
 21
808.9999999999984
  0
LINE
  8
_0-a_
  6
CONTINUOUS
 62
    4
 10
3210.7720036002492
 20
763.99999999999738
 11
3255.7720036002538
 21
809.00000000000113
  0
LINE
  8
_0-a_
  6
CONTINUOUS
 62
    4
 10
3182.4877323527948
 20
764.00000000000068
 11
3227.4877323527935
 21
808.99999999999909
  0
LINE
  8
_0-a_
  6
CONTINUOUS
 62
    4
 10
3154.2034611053254
 20
763.99999999999749
 11
3199.2034611053236
 21
808.99999999999613
  0
LINE
  8
_0-a_
  6
CONTINUOUS
 62
    4
 10
3125.919189857861
 20
763.99999999999977
 11
3170.9191898578592
 21
808.9999999999984
  0
LINE
  8
_0-a_
  6
CONTINUOUS
 62
    4
 10
3097.6349186104107
 20
763.9999999999984
 11
3142.6349186104148
 21
809.00000000000216
  0
LINE
  8
_0-a_
  6
CONTINUOUS
 62
    4
 10
3069.3506473629463
 20
764.00000000000068
 11
3114.3506473629449
 21
808.9999999999992
  0
LINE
  8
_0-a_
  6
CONTINUOUS
 62
    4
 10
3041.0663761154769
 20
763.99999999999772
 11
3086.0663761154755
 21
808.99999999999636
  0
LINE
  8
_0-a_
  6
CONTINUOUS
 62
    4
 10
3012.7821048680125
 20
764
 11
3057.7821048680111
 21
808.99999999999863
  0
LINE
  8
_0-a_
  6
CONTINUOUS
 62
    4
 10
2984.4978336205622
 20
763.99999999999852
 11
3029.4978336205663
 21
809.00000000000227
  0
LINE
  8
_0-a_
  6
CONTINUOUS
 62
    4
 10
2956.2135623730932
 20
763.99999999999545
 11
3001.2135623730914
 21
808.99999999999408
  0
LINE
  8
_0-a_
  6
CONTINUOUS
 62
    4
 10
2927.9292911256288
 20
763.99999999999772
 11
2972.929291125627
 21
808.99999999999636
  0
LINE
  8
_0-a_
  6
CONTINUOUS
 62
    4
 10
2899.6450198781644
 20
764.00000000000022
 11
2944.6450198781626
 21
808.99999999999874
  0
LINE
  8
_0-a_
  6
CONTINUOUS
 62
    4
 10
2871.3607486307141
 20
763.99999999999863
 11
2916.3607486307182
 21
809.0000000000025
  0
LINE
  8
_0-4_
  6
CONTINUOUS
 62
    3
 10
404.01499999999998
 20
1252
 11
404.01499999999998
 21
742
  0
LINE
  8
_0-4_
  6
CONTINUOUS
 62
    3
 10
698.0150000000001
 20
1252
 11
404.01499999999998
 21
1252
  0
LINE
  8
_0-4_
  6
CONTINUOUS
 62
    3
 10
698.0150000000001
 20
1252
 11
698.0150000000001
 21
742
  0
ARC
  8
_0-5_
  6
CONTINUOUS
 62
    4
 10
407.0150000000001
 20
746.00000000000022
 40
3.0000000000000004
 50
90
 51
180
  0
LINE
  8
_0-5_
  6
CONTINUOUS
 62
    4
 10
698.0150000000001
 20
777.99999999999977
 11
404.01499999999998
 21
777.99999999999977
  0
LINE
  8
_0-5_
  6
CONTINUOUS
 62
    4
 10
698.0150000000001
 20
770.39999999999736
 11
404.01499999999998
 21
770.39999999999736
  0
ARC
  8
_0-5_
  6
CONTINUOUS
 62
    4
 10
695.01499999999987
 20
746.00000000000022
 40
3.0000000000000004
 50
0
 51
90
  0
LINE
  8
_0-5_
  6
CONTINUOUS
 62
    4
 10
407.0150000000001
 20
749.00000000000022
 11
695.01499999999987
 21
749.00000000000022
  0
LINE
  8
_0-5_
  6
CONTINUOUS
 62
    4
 10
698.0150000000001
 20
742
 11
404.01499999999998
 21
742
  0
LINE
  8
_0-4_
  6
CENTER2
 62
    4
 10
698.0150000000001
 20
1252
 11
404.01499999999998
 21
1000.9999999999995
  0
LINE
  8
_0-4_
  6
CENTER2
 62
    4
 10
404.01499999999998
 20
1000.9999999999995
 11
698.0150000000001
 21
742
  0
LINE
  8
_0-4_
  6
CONTINUOUS
 62
    3
 10
1396.0149999999998
 20
1252
 11
1396.0149999999998
 21
741.99999999999988
  0
LINE
  8
_0-4_
  6
CONTINUOUS
 62
    3
 10
1002.0149999999998
 20
1252
 11
1396.0149999999998
 21
1252
  0
LINE
  8
_0-4_
  6
CONTINUOUS
 62
    3
 10
1002.0149999999998
 20
1252
 11
1002.0149999999998
 21
741.99999999999988
  0
LINE
  8
_0-5_
  6
CONTINUOUS
 62
    4
 10
1396.0149999999998
 20
777.99999999999977
 11
1002.0149999999998
 21
777.99999999999977
  0
LINE
  8
_0-5_
  6
CONTINUOUS
 62
    4
 10
1396.0149999999998
 20
770.39999999999736
 11
1002.0149999999998
 21
770.39999999999736
  0
ARC
  8
_0-5_
  6
CONTINUOUS
 62
    4
 10
1005.0150000000001
 20
746.00000000000022
 40
3.0000000000000004
 50
90
 51
180
  0
LINE
  8
_0-5_
  6
CONTINUOUS
 62
    4
 10
1396.0149999999998
 20
741.99999999999988
 11
1002.0149999999998
 21
741.99999999999988
  0
LINE
  8
_0-4_
  6
CENTER2
 62
    4
 10
1002.0149999999998
 20
1252
 11
1396.0149999999998
 21
1000.9999999999995
  0
LINE
  8
_0-4_
  6
CENTER2
 62
    4
 10
1396.0149999999998
 20
1000.9999999999995
 11
1002.0149999999998
 21
741.99999999999988
  0
ARC
  8
_0-5_
  6
CONTINUOUS
 62
    4
 10
1393.0149999999998
 20
746.00000000000022
 40
3.0000000000000004
 50
0
 51
90
  0
LINE
  8
_0-5_
  6
CONTINUOUS
 62
    4
 10
1005.0150000000001
 20
749.00000000000022
 11
1393.0149999999998
 21
749.00000000000022
  0
POINT
  8
_0-9_
 62
    3
 10
2738.0149999999994
 20
1257
  0
POINT
  8
_0-9_
 62
    3
 10
2738.0149999999994
 20
1172
  0
LINE
  8
_0-9_
  6
CONTINUOUS
 62
    4
 10
2728.0149999999994
 20
1257
 11
2800.0149999999994
 21
1257
  0
LINE
  8
_0-9_
  6
CONTINUOUS
 62
    4
 10
2728.0149999999994
 20
1172
 11
2800.0149999999994
 21
1172
  0
LINE
  8
_0-9_
  6
CONTINUOUS
 62
    4
 10
2738.0149999999994
 20
1257
 11
2738.0149999999994
 21
1172
  0
TEXT
  8
_0-9_
 62
    7
 10
2733.0149999999994
 20
1192.45
 40
35
 41
0.6285714285714286
 50
90
  1
８５
  0
POINT
  8
_0-9_
 62
    3
 10
2738.0149999999994
 20
809
  0
POINT
  8
_0-9_
 62
    3
 10
2738.0149999999994
 20
763.99999999999977
  0
LINE
  8
_0-9_
  6
CONTINUOUS
 62
    4
 10
2728.0149999999994
 20
809
 11
2800.0149999999994
 21
809
  0
LINE
  8
_0-9_
  6
CONTINUOUS
 62
    4
 10
2728.0149999999994
 20
763.99999999999977
 11
2800.0149999999994
 21
763.99999999999977
  0
LINE
  8
_0-9_
  6
CONTINUOUS
 62
    4
 10
2738.0149999999994
 20
809
 11
2738.0149999999994
 21
763.99999999999977
  0
TEXT
  8
_0-9_
 62
    7
 10
2733.0149999999994
 20
710.99248082150097
 40
35
 41
0.6285714285714286
 50
90
  1
４５
  0
LINE
  8
_0-9_
  6
CONTINUOUS
 62
    4
 10
2738.0149999999994
 20
763.99999999999977
 11
2738.0149999999994
 21
712.23240278162597
  0
POINT
  8
_0-9_
 62
    3
 10
1396.0149999999998
 20
526.99999999999977
  0
POINT
  8
_0-9_
 62
    3
 10
1002.0149999999994
 20
526.99999999999977
  0
LINE
  8
_0-9_
  6
CONTINUOUS
 62
    4
 10
1396.0149999999998
 20
526.99999999999977
 11
1002.0149999999994
 21
526.99999999999977
  0
TEXT
  8
_0-9_
 62
    7
 10
1165.9149999999997
 20
531.99999999999977
 40
35
 41
0.6285714285714286
 50
0
  1
３９４
  0
POINT
  8
_0-9_
 62
    3
 10
698.0150000000001
 20
526.99999999999977
  0
POINT
  8
_0-9_
 62
    3
 10
404.01499999999998
 20
526.99999999999977
  0
LINE
  8
_0-9_
  6
CONTINUOUS
 62
    4
 10
698.0150000000001
 20
526.99999999999977
 11
404.01499999999998
 21
526.99999999999977
  0
TEXT
  8
_0-9_
 62
    7
 10
517.91499999999984
 20
531.99999999999977
 40
35
 41
0.6285714285714286
 50
0
  1
２９４
  0
LINE
  8
_0-9_
  6
CONTINUOUS
 62
    4
 10
1396.0149999999998
 20
516.99999999999977
 11
1396.0149999999998
 21
726.99999999999977
  0
LINE
  8
_0-9_
  6
CONTINUOUS
 62
    4
 10
1002.0149999999994
 20
516.99999999999977
 11
1002.0149999999994
 21
726.99999999999977
  0
LINE
  8
_0-9_
  6
CONTINUOUS
 62
    4
 10
404.01499999999998
 20
516.99999999999977
 11
404.01499999999998
 21
726.99999999999977
  0
LINE
  8
_0-9_
  6
CONTINUOUS
 62
    4
 10
698.0150000000001
 20
516.99999999999977
 11
698.0150000000001
 21
726.99999999999977
  0
POINT
  8
_0-9_
 62
    3
 10
995.01499999999964
 20
527
  0
LINE
  8
_0-9_
  6
CONTINUOUS
 62
    4
 10
995.01499999999964
 20
517
 11
995.01499999999964
 21
727
  0
LINE
  8
_0-9_
  6
CONTINUOUS
 62
    4
 10
995.01499999999964
 20
527
 11
701.0150000000001
 21
527
  0
TEXT
  8
_0-9_
 62
    7
 10
814.91499999999973
 20
532
 40
35
 41
0.6285714285714286
 50
0
  1
２９４
  0
LINE
  8
_0-9_
  6
CONTINUOUS
 62
    4
 10
701.0150000000001
 20
517
 11
701.0150000000001
 21
727
  0
POINT
  8
_0-9_
 62
    3
 10
701.0150000000001
 20
527
  0
LINE
  8
_0-4_
  6
CONTINUOUS
 62
    3
 10
993.01499999999987
 20
1252
 11
993.01499999999987
 21
741.99999999999988
  0
LINE
  8
_0-4_
  6
CONTINUOUS
 62
    3
 10
699.01499999999964
 20
1252
 11
993.01499999999987
 21
1252
  0
LINE
  8
_0-4_
  6
CONTINUOUS
 62
    3
 10
699.01499999999964
 20
1252
 11
699.01499999999964
 21
741.99999999999988
  0
ARC
  8
_0-5_
  6
CONTINUOUS
 62
    4
 10
990.0150000000001
 20
746.00000000000022
 40
3.0000000000000004
 50
0
 51
90
  0
LINE
  8
_0-5_
  6
CONTINUOUS
 62
    4
 10
993.01500000000032
 20
777.99999999999977
 11
699.01499999999964
 21
777.99999999999977
  0
LINE
  8
_0-5_
  6
CONTINUOUS
 62
    4
 10
993.01500000000032
 20
770.39999999999736
 11
699.01499999999964
 21
770.39999999999736
  0
ARC
  8
_0-5_
  6
CONTINUOUS
 62
    4
 10
702.01499999999987
 20
746.00000000000022
 40
3.0000000000000004
 50
90
 51
180
  0
LINE
  8
_0-5_
  6
CONTINUOUS
 62
    4
 10
702.01499999999987
 20
749.00000000000022
 11
990.0150000000001
 21
749.00000000000022
  0
LINE
  8
_0-5_
  6
CONTINUOUS
 62
    4
 10
993.01499999999987
 20
741.99999999999988
 11
699.01499999999964
 21
741.99999999999988
  0
LINE
  8
_0-4_
  6
CENTER2
 62
    4
 10
699.01499999999964
 20
741.99999999999988
 11
993.01499999999987
 21
1000.9999999999995
  0
LINE
  8
_0-4_
  6
CENTER2
 62
    4
 10
993.01499999999987
 20
1000.9999999999995
 11
699.01499999999964
 21
1252
  0
POINT
  8
_0-9_
 62
    3
 10
2842.0150000000003
 20
527
  0
LINE
  8
_0-9_
  6
CONTINUOUS
 62
    4
 10
2842.0150000000003
 20
517
 11
2842.0150000000003
 21
727
  0
POINT
  8
_0-9_
 62
    3
 10
3818.0149999999994
 20
527
  0
LINE
  8
_0-9_
  6
CONTINUOUS
 62
    4
 10
3818.0149999999994
 20
517
 11
3818.0149999999994
 21
727
  0
LINE
  8
_0-3_
  6
DASHED1
 62
    2
 10
414.51499999999981
 20
1257
 11
414.51499999999981
 21
757
  0
LINE
  8
_0-3_
  6
DASHED1
 62
    2
 10
1385.5149999999998
 20
1257
 11
1385.5149999999998
 21
757
  0
LINE
  8
_0-3_
  6
CONTINUOUS
 62
    5
 10
2844.5149999999994
 20
1257
 11
2844.5149999999994
 21
756.99999999999988
  0
LINE
  8
_0-3_
  6
CONTINUOUS
 62
    5
 10
3815.5149999999998
 20
1257
 11
3815.5149999999998
 21
756.99999999999988
  0
LINE
  8
_0-3_
  6
DASHED1
 62
    2
 10
414.51499999999981
 20
777.50000000000011
 11
1385.5149999999998
 21
777.50000000000011
  0
LINE
  8
_0-3_
  6
DASHED1
 62
    2
 10
988.01499999999987
 20
777.50000000000011
 11
988.01499999999987
 21
1242.0000000000002
  0
LINE
  8
_0-3_
  6
DASHED1
 62
    2
 10
1013.0149999999998
 20
777.50000000000011
 11
1013.0149999999998
 21
1242.0000000000002
  0
LINE
  8
_0-3_
  6
CONTINUOUS
 62
    2
 10
2844.5149999999994
 20
1172
 11
3815.5149999999998
 21
1172
  0
LINE
  8
_0-3_
  6
CONTINUOUS
 62
    4
 10
2844.5149999999994
 20
763.99999999999977
 11
3815.5149999999998
 21
763.99999999999977
  0
LINE
  8
_0-3_
  6
CONTINUOUS
 62
    2
 10
2844.5149999999994
 20
809
 11
3815.5149999999998
 21
809
  0
LINE
  8
_0-a_
  6
CONTINUOUS
 62
    4
 10
2844.5149999999994
 20
1246.2711338236115
 11
2855.2438661763881
 21
1257
  0
LINE
  8
_0-a_
  6
CONTINUOUS
 62
    4
 10
2844.5149999999994
 20
1217.9868625761448
 11
2883.5281374238525
 21
1256.9999999999977
  0
LINE
  8
_0-a_
  6
CONTINUOUS
 62
    4
 10
2844.5149999999994
 20
1189.7025913286781
 11
2911.8124086713169
 21
1256.9999999999954
  0
LINE
  8
_0-a_
  6
CONTINUOUS
 62
    4
 10
2844.5149999999994
 20
793.72279386421746
 11
2859.7922061357785
 21
808.99999999999658
  0
LINE
  8
_0-a_
  6
CONTINUOUS
 62
    4
 10
2844.5149999999994
 20
765.43852261675078
 11
2888.0764773832429
 21
808.99999999999431
  0
LINE
  8
_0-a_
  6
CONTINUOUS
 62
    4
 10
3804.7416997969507
 20
763.99999999999863
 11
3815.5149999999998
 21
774.77330020304748
  0
LINE
  8
_0-a_
  6
CONTINUOUS
 62
    4
 10
3776.4574285494873
 20
764.00000000000113
 11
3815.5149999999998
 21
803.05757145051438
  0
LINE
  8
_0-a_
  6
CONTINUOUS
 62
    4
 10
3731.9090885900914
 20
1171.9999999999997
 11
3815.5149999999998
 21
1255.6059114099082
  0
LINE
  8
_0-a_
  6
CONTINUOUS
 62
    4
 10
3760.1933598375608
 20
1172.0000000000025
 11
3815.5149999999998
 21
1227.3216401624415
  0
LINE
  8
_0-a_
  6
CONTINUOUS
 62
    4
 10
3788.4776310850247
 20
1172.0000000000002
 11
3815.5149999999998
 21
1199.0373689149748
  0
LINE
  8
_0-3_
  6
CONTINUOUS
 62
    5
 10
400.01499999999992
 20
757
 11
404.01499999999998
 21
757
  0
LINE
  8
_0-3_
  6
DASHED1
 62
    2
 10
404.01499999999998
 20
757
 11
1396.0149999999998
 21
757
  0
LINE
  8
_0-3_
  6
CONTINUOUS
 62
    5
 10
1396.0149999999998
 20
757
 11
1400.0149999999998
 21
757
  0
CIRCLE
  8
_0-0_
  6
CONTINUOUS
 62
    7
 10
2015.015000000001
 20
1007
 40
1.5000000000000002
  0
LINE
  8
_0-0_
  6
CONTINUOUS
 62
    7
 10
2020.015000000001
 20
1008.068875
 11
2020.015000000001
 21
1009
  0
LINE
  8
_0-0_
  6
CONTINUOUS
 62
    7
 10
2020.015000000001
 20
1009
 11
2020.9437750000008
 21
1009.066325
  0
LINE
  8
_0-0_
  6
CONTINUOUS
 62
    7
 10
2010.015000000001
 20
1007
 11
2010.015000000001
 21
1008
  0
LINE
  8
_0-0_
  6
CONTINUOUS
 62
    7
 10
2009.0150000000007
 20
1009
 11
1996.5150000000007
 21
1009
  0
LINE
  8
_0-0_
  6
CONTINUOUS
 62
    7
 10
2020.015000000001
 20
1007
 11
2020.015000000001
 21
1008.068875
  0
LINE
  8
_0-0_
  6
CONTINUOUS
 62
    7
 10
2020.9437750000008
 20
1009.066325
 11
2033.0862500000009
 21
1009.9336499999999
  0
LINE
  8
_0-0_
  6
CONTINUOUS
 62
    7
 10
2034.0150000000007
 20
1010.9311
 11
2034.0150000000007
 21
1011
  0
LINE
  8
_0-0_
  6
CONTINUOUS
 62
    7
 10
2001.6489750000007
 20
1029
 11
1999.7726000000009
 21
1032.25
  0
LINE
  8
_0-0_
  6
CONTINUOUS
 62
    7
 10
2033.0150000000007
 20
1012
 11
1997.515000000001
 21
1012
  0
LINE
  8
_0-0_
  6
CONTINUOUS
 62
    7
 10
2000.7829500000007
 20
1027.5
 11
1997.515000000001
 21
1027.5
  0
LINE
  8
_0-0_
  6
CONTINUOUS
 62
    7
 10
1996.5150000000007
 20
1026.5
 11
1996.5150000000007
 21
1013
  0
ARC
  8
_0-0_
  6
CONTINUOUS
 62
    7
 10
1996.5150000000007
 20
1012.7999999999999
 40
3.7999999999999998
 50
177.46800000000004
 51
270.00000000000005
  0
ARC
  8
_0-0_
  6
CONTINUOUS
 62
    7
 10
2015.015000000001
 20
1007
 40
5
 50
180.00000000000005
 51
0.0000000000001017
  0
CIRCLE
  8
_0-0_
  6
PHANTOM2
 62
    7
 10
2015.015000000001
 20
1007
 40
4.0999999999999996
  0
CIRCLE
  8
_0-0_
  6
PHANTOM2
 62
    7
 10
2015.015000000001
 20
1007
 40
1.925
  0
ARC
  8
_0-0_
  6
CONTINUOUS
 62
    7
 10
1994.6717750000007
 20
1031.5
 40
1
 50
90.000000000000028
 51
177.46800000000004
  0
ARC
  8
_0-0_
  6
CONTINUOUS
 62
    7
 10
1999.3395750000011
 20
1032
 40
0.5
 50
30.000000000000003
 51
90.000000000000028
  0
ARC
  8
_0-0_
  6
CONTINUOUS
 62
    7
 10
2009.0150000000007
 20
1008
 40
1
 50
0
 51
90.000000000000028
  0
ARC
  8
_0-0_
  6
CONTINUOUS
 62
    7
 10
2021.015000000001
 20
1008.068875
 40
1
 50
94.086000000000041
 51
180.00000000000005
  0
ARC
  8
_0-0_
  6
CONTINUOUS
 62
    7
 10
2033.0150000000007
 20
1010.9311
 40
1
 50
274.08600000000006
 51
0.0000000000000508
  0
ARC
  8
_0-0_
  6
CONTINUOUS
 62
    7
 10
2033.0150000000007
 20
1011
 40
1
 50
0
 51
90.000000000000028
  0
ARC
  8
_0-0_
  6
CONTINUOUS
 62
    7
 10
2000.7829500000007
 20
1028.5
 40
1
 50
270.00000000000005
 51
30.000000000000042
  0
ARC
  8
_0-0_
  6
CONTINUOUS
 62
    7
 10
1997.515000000001
 20
1026.5
 40
1
 50
90.000000000000028
 51
180.00000000000005
  0
ARC
  8
_0-0_
  6
CONTINUOUS
 62
    7
 10
1997.515000000001
 20
1013
 40
1
 50
180.00000000000005
 51
270.00000000000005
  0
LINE
  8
_0-0_
  6
CONTINUOUS
 62
    7
 10
1994.6717750000007
 20
1032.5
 11
1999.3395750000011
 21
1032.5
  0
LINE
  8
_0-0_
  6
CONTINUOUS
 62
    7
 10
1992.7187250000008
 20
1012.9678499999997
 11
1993.6734719492496
 21
1031.5582324553936
  0
LINE
  8
_0-0_
  6
CENTER1
 62
    7
 10
2015.015000000001
 20
1007
 11
2015.015000000001
 21
1000.8852721223418
  0
LINE
  8
_0-0_
  6
CENTER1
 62
    7
 10
2015.015000000001
 20
1007
 11
2015.015000000001
 21
1013.0974029520527
  0
LINE
  8
_0-0_
  6
CENTER1
 62
    7
 10
2015.1278620711204
 20
1007
 11
2012.448223649189
 21
1007
  0
LINE
  8
_0-0_
  6
CENTER1
 62
    7
 10
2015.1278620711204
 20
1007
 11
2017.7931451757658
 21
1007
  0
ARC
  8
_0-0_
  6
CONTINUOUS
 62
    7
 10
2281.2470500000013
 20
1028.5
 40
1
 50
149.99999999999994
 51
269.99999999999994
  0
CIRCLE
  8
_0-0_
  6
CONTINUOUS
 62
    7
 10
2267.0150000000007
 20
1007
 40
1.5000000000000002
  0
LINE
  8
_0-0_
  6
CONTINUOUS
 62
    7
 10
2262.0150000000007
 20
1008.068875
 11
2262.0150000000007
 21
1009
  0
LINE
  8
_0-0_
  6
CONTINUOUS
 62
    7
 10
2262.0150000000007
 20
1009
 11
2261.0862250000009
 21
1009.066325
  0
LINE
  8
_0-0_
  6
CONTINUOUS
 62
    7
 10
2272.0150000000007
 20
1007
 11
2272.0150000000007
 21
1008
  0
LINE
  8
_0-0_
  6
CONTINUOUS
 62
    7
 10
2273.0150000000012
 20
1009
 11
2285.5150000000012
 21
1009
  0
LINE
  8
_0-0_
  6
CONTINUOUS
 62
    7
 10
2262.0150000000007
 20
1007
 11
2262.0150000000007
 21
1008.068875
  0
LINE
  8
_0-0_
  6
CONTINUOUS
 62
    7
 10
2261.0862250000009
 20
1009.066325
 11
2248.9437500000012
 21
1009.9336499999999
  0
LINE
  8
_0-0_
  6
CONTINUOUS
 62
    7
 10
2248.0150000000012
 20
1010.9311
 11
2248.0150000000012
 21
1011
  0
LINE
  8
_0-0_
  6
CONTINUOUS
 62
    7
 10
2280.381025000001
 20
1029
 11
2282.2574000000013
 21
1032.25
  0
LINE
  8
_0-0_
  6
CONTINUOUS
 62
    7
 10
2249.0150000000012
 20
1012
 11
2284.5150000000007
 21
1012
  0
LINE
  8
_0-0_
  6
CONTINUOUS
 62
    7
 10
2281.2470500000013
 20
1027.5
 11
2284.5150000000007
 21
1027.5
  0
LINE
  8
_0-0_
  6
CONTINUOUS
 62
    7
 10
2285.5150000000012
 20
1026.5
 11
2285.5150000000012
 21
1013
  0
ARC
  8
_0-0_
  6
CONTINUOUS
 62
    7
 10
2285.5150000000012
 20
1012.7999999999999
 40
3.7999999999999998
 50
269.99999999999994
 51
2.5319999999999902
  0
ARC
  8
_0-0_
  6
CONTINUOUS
 62
    7
 10
2267.0150000000007
 20
1007
 40
5
 50
179.99999999999985
 51
359.99999999999988
  0
CIRCLE
  8
_0-0_
  6
PHANTOM2
 62
    7
 10
2267.0150000000007
 20
1007
 40
4.0999999999999996
  0
CIRCLE
  8
_0-0_
  6
PHANTOM2
 62
    7
 10
2267.0150000000007
 20
1007
 40
1.925
  0
ARC
  8
_0-0_
  6
CONTINUOUS
 62
    7
 10
2287.3582250000008
 20
1031.5
 40
1
 50
2.531999999999964
 51
89.999999999999943
  0
ARC
  8
_0-0_
  6
CONTINUOUS
 62
    7
 10
2282.6904250000011
 20
1032
 40
0.5
 50
89.999999999999985
 51
149.99999999999997
  0
ARC
  8
_0-0_
  6
CONTINUOUS
 62
    7
 10
2273.0150000000012
 20
1008
 40
1
 50
89.999999999999971
 51
180
  0
ARC
  8
_0-0_
  6
CONTINUOUS
 62
    7
 10
2261.0150000000012
 20
1008.068875
 40
1
 50
359.99999999999994
 51
85.913999999999987
  0
ARC
  8
_0-0_
  6
CONTINUOUS
 62
    7
 10
2249.0150000000012
 20
1010.9311
 40
1
 50
179.99999999999994
 51
265.91399999999993
  0
ARC
  8
_0-0_
  6
CONTINUOUS
 62
    7
 10
2249.0150000000012
 20
1011
 40
1
 50
89.999999999999971
 51
180
  0
ARC
  8
_0-0_
  6
CONTINUOUS
 62
    7
 10
2284.5150000000007
 20
1026.5
 40
1
 50
359.99999999999994
 51
89.999999999999943
  0
ARC
  8
_0-0_
  6
CONTINUOUS
 62
    7
 10
2284.5150000000007
 20
1013
 40
1
 50
269.99999999999988
 51
359.99999999999988
  0
LINE
  8
_0-0_
  6
CONTINUOUS
 62
    7
 10
2287.3582250000008
 20
1032.5
 11
2282.6904250000011
 21
1032.5
  0
LINE
  8
_0-0_
  6
CONTINUOUS
 62
    7
 10
2289.3112750000009
 20
1012.9678499999997
 11
2288.3565280507518
 21
1031.5582324553936
  0
LINE
  8
_0-0_
  6
CENTER1
 62
    7
 10
2267.0150000000007
 20
1007
 11
2267.0150000000007
 21
1000.8852721223418
  0
LINE
  8
_0-0_
  6
CENTER1
 62
    7
 10
2267.0150000000007
 20
1007
 11
2267.0150000000007
 21
1013.0974029520527
  0
LINE
  8
_0-0_
  6
CENTER1
 62
    7
 10
2266.9021379288815
 20
1007
 11
2269.581776350813
 21
1007
  0
LINE
  8
_0-0_
  6
CENTER1
 62
    7
 10
2266.9021379288815
 20
1007
 11
2264.2368548242361
 21
1007
  0
ARC
  8
_0-0_
  6
CONTINUOUS
 62
    7
 10
2015.015000000001
 20
1007
 40
7.0000000000000017
 50
45.585000000000007
 51
134.41500000000002
  0
ARC
  8
_0-0_
  6
CONTINUOUS
 62
    7
 10
2015.015000000001
 20
1007
 40
11
 50
27.036000000000012
 51
152.96400000000005
  0
ARC
  8
_0-0_
  6
CONTINUOUS
 62
    7
 10
2267.0150000000007
 20
1007
 40
7.0000000000000017
 50
45.585000000000007
 51
134.41500000000002
  0
ARC
  8
_0-0_
  6
CONTINUOUS
 62
    7
 10
2267.0150000000007
 20
1007
 40
11
 50
27.036000000000012
 51
152.96400000000005
  0
LINE
  8
_0-0_
  6
DASHED1
 62
    7
 10
1384.5150000000001
 20
1012
 11
1375.5149999999998
 21
1012
  0
LINE
  8
_0-0_
  6
DASHED1
 62
    7
 10
1385.5149999999998
 20
1012
 11
1375.5149999999998
 21
1012
  0
LINE
  8
_0-0_
  6
DASHED1
 62
    7
 10
1395.5097
 20
1007
 11
1373.228775
 21
1007
  0
LINE
  8
_0-0_
  6
DASHED1
 62
    7
 10
1385.5149999999998
 20
1003.4
 11
1385.5149999999998
 21
1010.6
  0
LINE
  8
_0-0_
  6
DASHED1
 62
    7
 10
1384.7149999999999
 20
1009.5
 11
1384.7149999999999
 21
1004.5
  0
LINE
  8
_0-0_
  6
DASHED1
 62
    7
 10
1376.7149999999996
 20
1005
 11
1384.2149999999996
 21
1005
  0
LINE
  8
_0-0_
  6
DASHED1
 62
    7
 10
1384.7149999999999
 20
1004.5
 11
1384.7149999999999
 21
1003.4
  0
LINE
  8
_0-0_
  6
DASHED1
 62
    7
 10
1386.0149999999998
 20
1004.5999999999999
 11
1394.0149999999998
 21
1004.5999999999999
  0
LINE
  8
_0-0_
  6
DASHED1
 62
    7
 10
1394.5150000000001
 20
1005.1
 11
1394.5150000000001
 21
1008.8999999999997
  0
LINE
  8
_0-0_
  6
DASHED1
 62
    7
 10
1394.0149999999998
 20
1009.3999999999996
 11
1386.0149999999998
 21
1009.3999999999996
  0
LINE
  8
_0-0_
  6
DASHED1
 62
    7
 10
1384.7149999999999
 20
1010.6
 11
1384.7149999999999
 21
1009.5
  0
LINE
  8
_0-0_
  6
DASHED1
 62
    7
 10
1384.2149999999996
 20
1009
 11
1376.7149999999996
 21
1009
  0
LINE
  8
_0-0_
  6
DASHED1
 62
    7
 10
1376.7149999999996
 20
1009
 11
1376.7149999999996
 21
1005
  0
LINE
  8
_0-0_
  6
DASHED1
 62
    7
 10
1376.315
 20
1008.5
 11
1376.315
 21
1009
  0
LINE
  8
_0-0_
  6
DASHED1
 62
    7
 10
1375.5149999999998
 20
1011.1
 11
1375.5149999999998
 21
1002.5
  0
LINE
  8
_0-0_
  6
DASHED1
 62
    7
 10
1376.315
 20
1008.5
 11
1375.5149999999998
 21
1008.5
  0
LINE
  8
_0-0_
  6
DASHED1
 62
    7
 10
1376.315
 20
1005.5
 11
1375.5149999999998
 21
1005.5
  0
LINE
  8
_0-0_
  6
DASHED1
 62
    7
 10
1385.5149999999998
 20
1005
 11
1376.7149999999996
 21
1005
  0
LINE
  8
_0-0_
  6
DASHED1
 62
    7
 10
1385.5149999999998
 20
1002.5
 11
1385.5149999999998
 21
1005
  0
LINE
  8
_0-0_
  6
DASHED1
 62
    7
 10
1376.7149999999996
 20
1005
 11
1376.315
 21
1005
  0
LINE
  8
_0-0_
  6
DASHED1
 62
    7
 10
1385.5149999999998
 20
1009
 11
1376.315
 21
1009
  0
LINE
  8
_0-0_
  6
DASHED1
 62
    7
 10
1376.315
 20
1005
 11
1376.315
 21
1005.5
  0
LINE
  8
_0-0_
  6
DASHED1
 62
    7
 10
1385.5149999999998
 20
1009.9336499999999
 11
1375.5149999999998
 21
1009.9336499999999
  0
LINE
  8
_0-0_
  6
DASHED1
 62
    7
 10
1376.315
 20
1009
 11
1375.5149999999998
 21
1009
  0
LINE
  8
_0-0_
  6
DASHED1
 62
    7
 10
1375.5149999999998
 20
1012
 11
1375.5149999999998
 21
1011.1
  0
LINE
  8
_0-0_
  6
DASHED1
 62
    7
 10
1385.5149999999998
 20
1005
 11
1385.5149999999998
 21
1012
  0
LINE
  8
_0-0_
  6
DASHED1
 62
    7
 10
1385.0150000000003
 20
1032.5
 11
1376.0149999999998
 21
1032.5
  0
LINE
  8
_0-0_
  6
DASHED1
 62
    7
 10
1376.0149999999998
 20
1002
 11
1385.0150000000003
 21
1002
  0
LINE
  8
_0-0_
  6
DASHED1
 62
    7
 10
1386.9923999999996
 20
1007
 11
1373.9185750000001
 21
1007
  0
LINE
  8
_0-0_
  6
DASHED1
 62
    7
 10
1375.5149999999998
 20
1032
 11
1375.5149999999998
 21
1012
  0
ARC
  8
_0-0_
  6
DASHED1
 62
    7
 10
1386.0149999999998
 20
1009.8999999999998
 40
0.5
 50
179.99999999999991
 51
269.99999999999994
  0
ARC
  8
_0-0_
  6
DASHED1
 62
    7
 10
1386.0149999999998
 20
1004.0999999999999
 40
0.5
 50
89.999999999999971
 51
180
  0
ARC
  8
_0-0_
  6
DASHED1
 62
    7
 10
1384.2149999999996
 20
1004.5
 40
0.5
 50
359.99999999999994
 51
89.999999999999943
  0
ARC
  8
_0-0_
  6
DASHED1
 62
    7
 10
1384.2149999999996
 20
1009.5
 40
0.5
 50
269.99999999999988
 51
359.99999999999988
  0
ARC
  8
_0-0_
  6
DASHED1
 62
    7
 10
1394.0149999999998
 20
1008.8999999999997
 40
0.5
 50
359.99999999999994
 51
89.999999999999943
  0
ARC
  8
_0-0_
  6
DASHED1
 62
    7
 10
1394.0149999999998
 20
1005.1
 40
0.5
 50
269.99999999999988
 51
359.99999999999988
  0
ARC
  8
_0-0_
  6
DASHED1
 62
    7
 10
1385.1150000000002
 20
1003.4
 40
0.4
 50
179.99999999999991
 51
269.99999999999994
  0
ARC
  8
_0-0_
  6
DASHED1
 62
    7
 10
1385.1150000000002
 20
1003.4
 40
0.4
 50
269.99999999999988
 51
359.99999999999988
  0
ARC
  8
_0-0_
  6
DASHED1
 62
    7
 10
1385.1150000000002
 20
1010.6
 40
0.4
 50
359.99999999999994
 51
89.999999999999943
  0
ARC
  8
_0-0_
  6
DASHED1
 62
    7
 10
1385.1150000000002
 20
1010.6
 40
0.4
 50
89.999999999999971
 51
180
  0
ARC
  8
_0-0_
  6
DASHED1
 62
    7
 10
1385.0150000000003
 20
1032
 40
0.5
 50
359.99999999999994
 51
89.999999999999943
  0
ARC
  8
_0-0_
  6
DASHED1
 62
    7
 10
1376.0149999999998
 20
1032
 40
0.5
 50
89.999999999999971
 51
180
  0
ARC
  8
_0-0_
  6
DASHED1
 62
    7
 10
1376.0149999999998
 20
1002.5
 40
0.5
 50
179.99999999999991
 51
269.99999999999994
  0
ARC
  8
_0-0_
  6
DASHED1
 62
    7
 10
1385.0150000000003
 20
1002.5
 40
0.5
 50
269.99999999999988
 51
359.99999999999988
  0
LINE
  8
_0-0_
  6
DASHED1
 62
    7
 10
1385.5149999999998
 20
1012
 11
1385.5149999999998
 21
1032
  0
LINE
  8
_0-0_
  6
DASHED1
 62
    7
 10
1014.0149999999994
 20
1012
 11
1023.0149999999998
 21
1012
  0
LINE
  8
_0-0_
  6
DASHED1
 62
    7
 10
1013.0149999999998
 20
1012
 11
1023.0149999999998
 21
1012
  0
LINE
  8
_0-0_
  6
DASHED1
 62
    7
 10
1003.0202999999996
 20
1007
 11
1025.3012249999997
 21
1007
  0
LINE
  8
_0-0_
  6
DASHED1
 62
    7
 10
1013.0149999999998
 20
1003.4
 11
1013.0149999999998
 21
1010.6
  0
LINE
  8
_0-0_
  6
DASHED1
 62
    7
 10
1013.8149999999995
 20
1009.5
 11
1013.8149999999995
 21
1004.5
  0
LINE
  8
_0-0_
  6
DASHED1
 62
    7
 10
1021.8149999999998
 20
1005
 11
1014.3149999999998
 21
1005
  0
LINE
  8
_0-0_
  6
DASHED1
 62
    7
 10
1013.8149999999995
 20
1004.5
 11
1013.8149999999995
 21
1003.4
  0
LINE
  8
_0-0_
  6
DASHED1
 62
    7
 10
1012.5149999999998
 20
1004.5999999999999
 11
1004.5149999999996
 21
1004.5999999999999
  0
LINE
  8
_0-0_
  6
DASHED1
 62
    7
 10
1004.0149999999994
 20
1005.1
 11
1004.0149999999994
 21
1008.8999999999997
  0
LINE
  8
_0-0_
  6
DASHED1
 62
    7
 10
1004.5149999999996
 20
1009.3999999999996
 11
1012.5149999999998
 21
1009.3999999999996
  0
LINE
  8
_0-0_
  6
DASHED1
 62
    7
 10
1013.8149999999995
 20
1010.6
 11
1013.8149999999995
 21
1009.5
  0
LINE
  8
_0-0_
  6
DASHED1
 62
    7
 10
1014.3149999999998
 20
1009
 11
1021.8149999999998
 21
1009
  0
LINE
  8
_0-0_
  6
DASHED1
 62
    7
 10
1021.8149999999998
 20
1009
 11
1021.8149999999998
 21
1005
  0
LINE
  8
_0-0_
  6
DASHED1
 62
    7
 10
1022.2149999999992
 20
1008.5
 11
1022.2149999999992
 21
1009
  0
LINE
  8
_0-0_
  6
DASHED1
 62
    7
 10
1023.0149999999998
 20
1011.1
 11
1023.0149999999998
 21
1002.5
  0
LINE
  8
_0-0_
  6
DASHED1
 62
    7
 10
1022.2149999999992
 20
1008.5
 11
1023.0149999999998
 21
1008.5
  0
LINE
  8
_0-0_
  6
DASHED1
 62
    7
 10
1022.2149999999992
 20
1005.5
 11
1023.0149999999998
 21
1005.5
  0
LINE
  8
_0-0_
  6
DASHED1
 62
    7
 10
1013.0149999999998
 20
1005
 11
1021.8149999999998
 21
1005
  0
LINE
  8
_0-0_
  6
DASHED1
 62
    7
 10
1013.0149999999998
 20
1002.5
 11
1013.0149999999998
 21
1005
  0
LINE
  8
_0-0_
  6
DASHED1
 62
    7
 10
1021.8149999999998
 20
1005
 11
1022.2149999999992
 21
1005
  0
LINE
  8
_0-0_
  6
DASHED1
 62
    7
 10
1013.0149999999998
 20
1009
 11
1022.2149999999992
 21
1009
  0
LINE
  8
_0-0_
  6
DASHED1
 62
    7
 10
1022.2149999999992
 20
1005
 11
1022.2149999999992
 21
1005.5
  0
LINE
  8
_0-0_
  6
DASHED1
 62
    7
 10
1013.0149999999998
 20
1009.9336499999999
 11
1023.0149999999998
 21
1009.9336499999999
  0
LINE
  8
_0-0_
  6
DASHED1
 62
    7
 10
1022.2149999999992
 20
1009
 11
1023.0149999999998
 21
1009
  0
LINE
  8
_0-0_
  6
DASHED1
 62
    7
 10
1023.0149999999998
 20
1012
 11
1023.0149999999998
 21
1011.1
  0
LINE
  8
_0-0_
  6
DASHED1
 62
    7
 10
1013.0149999999998
 20
1005
 11
1013.0149999999998
 21
1012
  0
LINE
  8
_0-0_
  6
DASHED1
 62
    7
 10
1013.5149999999998
 20
1032.5
 11
1022.5149999999998
 21
1032.5
  0
LINE
  8
_0-0_
  6
DASHED1
 62
    7
 10
1022.5149999999998
 20
1002
 11
1013.5149999999998
 21
1002
  0
LINE
  8
_0-0_
  6
DASHED1
 62
    7
 10
1011.5375999999996
 20
1007
 11
1024.6114249999995
 21
1007
  0
LINE
  8
_0-0_
  6
DASHED1
 62
    7
 10
1023.0149999999998
 20
1032
 11
1023.0149999999998
 21
1012
  0
ARC
  8
_0-0_
  6
DASHED1
 62
    7
 10
1012.5149999999998
 20
1009.8999999999998
 40
0.5
 50
270.00000000000005
 51
0.0000000000000508
  0
ARC
  8
_0-0_
  6
DASHED1
 62
    7
 10
1012.5149999999998
 20
1004.0999999999999
 40
0.5
 50
0
 51
90.000000000000028
  0
ARC
  8
_0-0_
  6
DASHED1
 62
    7
 10
1014.3149999999998
 20
1004.5
 40
0.5
 50
90.000000000000028
 51
180.00000000000005
  0
ARC
  8
_0-0_
  6
DASHED1
 62
    7
 10
1014.3149999999998
 20
1009.5
 40
0.5
 50
180.00000000000005
 51
270.00000000000005
  0
ARC
  8
_0-0_
  6
DASHED1
 62
    7
 10
1004.5149999999996
 20
1008.8999999999997
 40
0.5
 50
90.000000000000028
 51
180.00000000000005
  0
ARC
  8
_0-0_
  6
DASHED1
 62
    7
 10
1004.5149999999996
 20
1005.1
 40
0.5
 50
180.00000000000005
 51
270.00000000000005
  0
ARC
  8
_0-0_
  6
DASHED1
 62
    7
 10
1013.4149999999999
 20
1003.4
 40
0.4
 50
270.00000000000005
 51
0.0000000000000508
  0
ARC
  8
_0-0_
  6
DASHED1
 62
    7
 10
1013.4149999999999
 20
1003.4
 40
0.4
 50
180.00000000000005
 51
270.00000000000005
  0
ARC
  8
_0-0_
  6
DASHED1
 62
    7
 10
1013.4149999999999
 20
1010.6
 40
0.4
 50
90.000000000000028
 51
180.00000000000005
  0
ARC
  8
_0-0_
  6
DASHED1
 62
    7
 10
1013.4149999999999
 20
1010.6
 40
0.4
 50
0
 51
90.000000000000028
  0
ARC
  8
_0-0_
  6
DASHED1
 62
    7
 10
1013.5149999999998
 20
1032
 40
0.5
 50
90.000000000000028
 51
180.00000000000005
  0
ARC
  8
_0-0_
  6
DASHED1
 62
    7
 10
1022.5149999999998
 20
1032
 40
0.5
 50
0
 51
90.000000000000028
  0
ARC
  8
_0-0_
  6
DASHED1
 62
    7
 10
1022.5149999999998
 20
1002.5
 40
0.5
 50
270.00000000000005
 51
0.0000000000000508
  0
ARC
  8
_0-0_
  6
DASHED1
 62
    7
 10
1013.5149999999998
 20
1002.5
 40
0.5
 50
180.00000000000005
 51
270.00000000000005
  0
LINE
  8
_0-0_
  6
DASHED1
 62
    7
 10
1013.0149999999998
 20
1012
 11
1013.0149999999998
 21
1032
  0
LINE
  8
_0-0_
  6
DASHED1
 62
    7
 10
987.0150000000001
 20
1012
 11
978.01499999999987
 21
1012
  0
LINE
  8
_0-0_
  6
DASHED1
 62
    7
 10
988.01499999999987
 20
1012
 11
978.01499999999987
 21
1012
  0
LINE
  8
_0-0_
  6
DASHED1
 62
    7
 10
998.00970000000006
 20
1007
 11
975.72877500000004
 21
1007
  0
LINE
  8
_0-0_
  6
DASHED1
 62
    7
 10
988.01499999999987
 20
1003.4
 11
988.01499999999987
 21
1010.6
  0
LINE
  8
_0-0_
  6
DASHED1
 62
    7
 10
987.21499999999991
 20
1009.5
 11
987.21499999999991
 21
1004.5
  0
LINE
  8
_0-0_
  6
DASHED1
 62
    7
 10
979.21499999999991
 20
1005
 11
986.71499999999991
 21
1005
  0
LINE
  8
_0-0_
  6
DASHED1
 62
    7
 10
987.21499999999991
 20
1004.5
 11
987.21499999999991
 21
1003.4
  0
LINE
  8
_0-0_
  6
DASHED1
 62
    7
 10
988.51499999999987
 20
1004.5999999999999
 11
996.51499999999987
 21
1004.5999999999999
  0
LINE
  8
_0-0_
  6
DASHED1
 62
    7
 10
997.0150000000001
 20
1005.1
 11
997.0150000000001
 21
1008.8999999999997
  0
LINE
  8
_0-0_
  6
DASHED1
 62
    7
 10
996.51499999999987
 20
1009.3999999999996
 11
988.51499999999987
 21
1009.3999999999996
  0
LINE
  8
_0-0_
  6
DASHED1
 62
    7
 10
987.21499999999991
 20
1010.6
 11
987.21499999999991
 21
1009.5
  0
LINE
  8
_0-0_
  6
DASHED1
 62
    7
 10
986.71499999999991
 20
1009
 11
979.21499999999991
 21
1009
  0
LINE
  8
_0-0_
  6
DASHED1
 62
    7
 10
979.21499999999991
 20
1009
 11
979.21499999999991
 21
1005
  0
LINE
  8
_0-0_
  6
DASHED1
 62
    7
 10
978.81500000000005
 20
1008.5
 11
978.81500000000005
 21
1009
  0
LINE
  8
_0-0_
  6
DASHED1
 62
    7
 10
978.01499999999987
 20
1011.1
 11
978.01499999999987
 21
1002.5
  0
LINE
  8
_0-0_
  6
DASHED1
 62
    7
 10
978.81500000000005
 20
1008.5
 11
978.01499999999987
 21
1008.5
  0
LINE
  8
_0-0_
  6
DASHED1
 62
    7
 10
978.81500000000005
 20
1005.5
 11
978.01499999999987
 21
1005.5
  0
LINE
  8
_0-0_
  6
DASHED1
 62
    7
 10
988.01499999999987
 20
1005
 11
979.21499999999991
 21
1005
  0
LINE
  8
_0-0_
  6
DASHED1
 62
    7
 10
988.01499999999987
 20
1002.5
 11
988.01499999999987
 21
1005
  0
LINE
  8
_0-0_
  6
DASHED1
 62
    7
 10
979.21499999999991
 20
1005
 11
978.81500000000005
 21
1005
  0
LINE
  8
_0-0_
  6
DASHED1
 62
    7
 10
988.01499999999987
 20
1009
 11
978.81500000000005
 21
1009
  0
LINE
  8
_0-0_
  6
DASHED1
 62
    7
 10
978.81500000000005
 20
1005
 11
978.81500000000005
 21
1005.5
  0
LINE
  8
_0-0_
  6
DASHED1
 62
    7
 10
988.01499999999987
 20
1009.9336499999999
 11
978.01499999999987
 21
1009.9336499999999
  0
LINE
  8
_0-0_
  6
DASHED1
 62
    7
 10
978.81500000000005
 20
1009
 11
978.01499999999987
 21
1009
  0
LINE
  8
_0-0_
  6
DASHED1
 62
    7
 10
978.01499999999987
 20
1012
 11
978.01499999999987
 21
1011.1
  0
LINE
  8
_0-0_
  6
DASHED1
 62
    7
 10
988.01499999999987
 20
1005
 11
988.01499999999987
 21
1012
  0
LINE
  8
_0-0_
  6
DASHED1
 62
    7
 10
987.51500000000032
 20
1032.5
 11
978.51499999999987
 21
1032.5
  0
LINE
  8
_0-0_
  6
DASHED1
 62
    7
 10
978.51499999999987
 20
1002
 11
987.51500000000032
 21
1002
  0
LINE
  8
_0-0_
  6
DASHED1
 62
    7
 10
989.49239999999986
 20
1007
 11
976.41857500000014
 21
1007
  0
LINE
  8
_0-0_
  6
DASHED1
 62
    7
 10
978.01499999999987
 20
1032
 11
978.01499999999987
 21
1012
  0
ARC
  8
_0-0_
  6
DASHED1
 62
    7
 10
988.51499999999987
 20
1009.8999999999998
 40
0.5
 50
179.99999999999991
 51
269.99999999999994
  0
ARC
  8
_0-0_
  6
DASHED1
 62
    7
 10
988.51499999999987
 20
1004.0999999999999
 40
0.5
 50
89.999999999999971
 51
180
  0
ARC
  8
_0-0_
  6
DASHED1
 62
    7
 10
986.71499999999991
 20
1004.5
 40
0.5
 50
359.99999999999994
 51
89.999999999999943
  0
ARC
  8
_0-0_
  6
DASHED1
 62
    7
 10
986.71499999999991
 20
1009.5
 40
0.5
 50
269.99999999999988
 51
359.99999999999988
  0
ARC
  8
_0-0_
  6
DASHED1
 62
    7
 10
996.51499999999987
 20
1008.8999999999997
 40
0.5
 50
359.99999999999994
 51
89.999999999999943
  0
ARC
  8
_0-0_
  6
DASHED1
 62
    7
 10
996.51499999999987
 20
1005.1
 40
0.5
 50
269.99999999999988
 51
359.99999999999988
  0
ARC
  8
_0-0_
  6
DASHED1
 62
    7
 10
987.61500000000023
 20
1003.4
 40
0.4
 50
179.99999999999991
 51
269.99999999999994
  0
ARC
  8
_0-0_
  6
DASHED1
 62
    7
 10
987.61500000000023
 20
1003.4
 40
0.4
 50
269.99999999999988
 51
359.99999999999988
  0
ARC
  8
_0-0_
  6
DASHED1
 62
    7
 10
987.61500000000023
 20
1010.6
 40
0.4
 50
359.99999999999994
 51
89.999999999999943
  0
ARC
  8
_0-0_
  6
DASHED1
 62
    7
 10
987.61500000000023
 20
1010.6
 40
0.4
 50
89.999999999999971
 51
180
  0
ARC
  8
_0-0_
  6
DASHED1
 62
    7
 10
987.51500000000032
 20
1032
 40
0.5
 50
359.99999999999994
 51
89.999999999999943
  0
ARC
  8
_0-0_
  6
DASHED1
 62
    7
 10
978.51499999999987
 20
1032
 40
0.5
 50
89.999999999999971
 51
180
  0
ARC
  8
_0-0_
  6
DASHED1
 62
    7
 10
978.51499999999987
 20
1002.5
 40
0.5
 50
179.99999999999991
 51
269.99999999999994
  0
ARC
  8
_0-0_
  6
DASHED1
 62
    7
 10
987.51500000000032
 20
1002.5
 40
0.5
 50
269.99999999999988
 51
359.99999999999988
  0
LINE
  8
_0-0_
  6
DASHED1
 62
    7
 10
988.01499999999987
 20
1012
 11
988.01499999999987
 21
1032
  0
LINE
  8
_0-0_
  6
DASHED1
 62
    7
 10
415.51499999999919
 20
1012
 11
424.51499999999953
 21
1012
  0
LINE
  8
_0-0_
  6
DASHED1
 62
    7
 10
414.51499999999953
 20
1012
 11
424.51499999999953
 21
1012
  0
LINE
  8
_0-0_
  6
DASHED1
 62
    7
 10
404.52029999999922
 20
1007
 11
426.80122499999924
 21
1007
  0
LINE
  8
_0-0_
  6
DASHED1
 62
    7
 10
414.51499999999953
 20
1003.4
 11
414.51499999999953
 21
1010.6
  0
LINE
  8
_0-0_
  6
DASHED1
 62
    7
 10
415.31499999999937
 20
1009.5
 11
415.31499999999937
 21
1004.5
  0
LINE
  8
_0-0_
  6
DASHED1
 62
    7
 10
423.31499999999948
 20
1005
 11
415.81499999999948
 21
1005
  0
LINE
  8
_0-0_
  6
DASHED1
 62
    7
 10
415.31499999999937
 20
1004.5
 11
415.31499999999937
 21
1003.4
  0
LINE
  8
_0-0_
  6
DASHED1
 62
    7
 10
414.01499999999941
 20
1004.5999999999999
 11
406.0149999999993
 21
1004.5999999999999
  0
LINE
  8
_0-0_
  6
DASHED1
 62
    7
 10
405.51499999999919
 20
1005.1
 11
405.51499999999919
 21
1008.8999999999997
  0
LINE
  8
_0-0_
  6
DASHED1
 62
    7
 10
406.0149999999993
 20
1009.3999999999996
 11
414.01499999999941
 21
1009.3999999999996
  0
LINE
  8
_0-0_
  6
DASHED1
 62
    7
 10
415.31499999999937
 20
1010.6
 11
415.31499999999937
 21
1009.5
  0
LINE
  8
_0-0_
  6
DASHED1
 62
    7
 10
415.81499999999948
 20
1009
 11
423.31499999999948
 21
1009
  0
LINE
  8
_0-0_
  6
DASHED1
 62
    7
 10
423.31499999999948
 20
1009
 11
423.31499999999948
 21
1005
  0
LINE
  8
_0-0_
  6
DASHED1
 62
    7
 10
423.71499999999912
 20
1008.5
 11
423.71499999999912
 21
1009
  0
LINE
  8
_0-0_
  6
DASHED1
 62
    7
 10
424.51499999999953
 20
1011.1
 11
424.51499999999953
 21
1002.5
  0
LINE
  8
_0-0_
  6
DASHED1
 62
    7
 10
423.71499999999912
 20
1008.5
 11
424.51499999999953
 21
1008.5
  0
LINE
  8
_0-0_
  6
DASHED1
 62
    7
 10
423.71499999999912
 20
1005.5
 11
424.51499999999953
 21
1005.5
  0
LINE
  8
_0-0_
  6
DASHED1
 62
    7
 10
414.51499999999953
 20
1005
 11
423.31499999999948
 21
1005
  0
LINE
  8
_0-0_
  6
DASHED1
 62
    7
 10
414.51499999999953
 20
1002.5
 11
414.51499999999953
 21
1005
  0
LINE
  8
_0-0_
  6
DASHED1
 62
    7
 10
423.31499999999948
 20
1005
 11
423.71499999999912
 21
1005
  0
LINE
  8
_0-0_
  6
DASHED1
 62
    7
 10
414.51499999999953
 20
1009
 11
423.71499999999912
 21
1009
  0
LINE
  8
_0-0_
  6
DASHED1
 62
    7
 10
423.71499999999912
 20
1005
 11
423.71499999999912
 21
1005.5
  0
LINE
  8
_0-0_
  6
DASHED1
 62
    7
 10
414.51499999999953
 20
1009.9336499999999
 11
424.51499999999953
 21
1009.9336499999999
  0
LINE
  8
_0-0_
  6
DASHED1
 62
    7
 10
423.71499999999912
 20
1009
 11
424.51499999999953
 21
1009
  0
LINE
  8
_0-0_
  6
DASHED1
 62
    7
 10
424.51499999999953
 20
1012
 11
424.51499999999953
 21
1011.1
  0
LINE
  8
_0-0_
  6
DASHED1
 62
    7
 10
414.51499999999953
 20
1005
 11
414.51499999999953
 21
1012
  0
LINE
  8
_0-0_
  6
DASHED1
 62
    7
 10
415.01499999999964
 20
1032.5
 11
424.01499999999941
 21
1032.5
  0
LINE
  8
_0-0_
  6
DASHED1
 62
    7
 10
424.01499999999941
 20
1002
 11
415.01499999999964
 21
1002
  0
LINE
  8
_0-0_
  6
DASHED1
 62
    7
 10
413.03759999999954
 20
1007
 11
426.11142499999914
 21
1007
  0
LINE
  8
_0-0_
  6
DASHED1
 62
    7
 10
424.51499999999953
 20
1032
 11
424.51499999999953
 21
1012
  0
ARC
  8
_0-0_
  6
DASHED1
 62
    7
 10
414.01499999999941
 20
1009.8999999999998
 40
0.5
 50
270.00000000000005
 51
0.0000000000000508
  0
ARC
  8
_0-0_
  6
DASHED1
 62
    7
 10
414.01499999999941
 20
1004.0999999999999
 40
0.5
 50
0
 51
90.000000000000028
  0
ARC
  8
_0-0_
  6
DASHED1
 62
    7
 10
415.81499999999948
 20
1004.5
 40
0.5
 50
90.000000000000028
 51
180.00000000000005
  0
ARC
  8
_0-0_
  6
DASHED1
 62
    7
 10
415.81499999999948
 20
1009.5
 40
0.5
 50
180.00000000000005
 51
270.00000000000005
  0
ARC
  8
_0-0_
  6
DASHED1
 62
    7
 10
406.0149999999993
 20
1008.8999999999997
 40
0.5
 50
90.000000000000028
 51
180.00000000000005
  0
ARC
  8
_0-0_
  6
DASHED1
 62
    7
 10
406.0149999999993
 20
1005.1
 40
0.5
 50
180.00000000000005
 51
270.00000000000005
  0
ARC
  8
_0-0_
  6
DASHED1
 62
    7
 10
414.91499999999973
 20
1003.4
 40
0.4
 50
270.00000000000005
 51
0.0000000000000508
  0
ARC
  8
_0-0_
  6
DASHED1
 62
    7
 10
414.91499999999973
 20
1003.4
 40
0.4
 50
180.00000000000005
 51
270.00000000000005
  0
ARC
  8
_0-0_
  6
DASHED1
 62
    7
 10
414.91499999999973
 20
1010.6
 40
0.4
 50
90.000000000000028
 51
180.00000000000005
  0
ARC
  8
_0-0_
  6
DASHED1
 62
    7
 10
414.91499999999973
 20
1010.6
 40
0.4
 50
0
 51
90.000000000000028
  0
ARC
  8
_0-0_
  6
DASHED1
 62
    7
 10
415.01499999999964
 20
1032
 40
0.5
 50
90.000000000000028
 51
180.00000000000005
  0
ARC
  8
_0-0_
  6
DASHED1
 62
    7
 10
424.01499999999941
 20
1032
 40
0.5
 50
0
 51
90.000000000000028
  0
ARC
  8
_0-0_
  6
DASHED1
 62
    7
 10
424.01499999999941
 20
1002.5
 40
0.5
 50
270.00000000000005
 51
0.0000000000000508
  0
ARC
  8
_0-0_
  6
DASHED1
 62
    7
 10
415.01499999999964
 20
1002.5
 40
0.5
 50
180.00000000000005
 51
270.00000000000005
  0
LINE
  8
_0-0_
  6
DASHED1
 62
    7
 10
414.51499999999953
 20
1012
 11
414.51499999999953
 21
1032
  0
LINE
  8
_0-3_
  6
DASHED1
 62
    4
 10
414.51499999999981
 20
1242
 11
1385.5149999999998
 21
1242
  0
LINE
  8
_0-3_
  6
CONTINUOUS
 62
    4
 10
1966.015000000001
 20
1257
 11
1966.015000000001
 21
772
  0
LINE
  8
_0-3_
  6
CONTINUOUS
 62
    5
 10
2308.0149999999998
 20
764.00000000000022
 11
2308.0149999999998
 21
757
  0
LINE
  8
_0-3_
  6
CONTINUOUS
 62
    5
 10
1966.015000000001
 20
757
 11
2308.0149999999998
 21
757
  0
LINE
  8
_0-3_
  6
CONTINUOUS
 62
    5
 10
1966.015000000001
 20
772
 11
1966.015000000001
 21
757
  0
LINE
  8
_0-3_
  6
CONTINUOUS
 62
    4
 10
2308.0149999999998
 20
809.00000000000022
 11
2293.0149999999998
 21
764.00000000000022
  0
LINE
  8
_0-3_
  6
CONTINUOUS
 62
    4
 10
2293.0149999999998
 20
809.00000000000022
 11
2308.0149999999998
 21
809.00000000000022
  0
LINE
  8
_0-3_
  6
CONTINUOUS
 62
    4
 10
1966.015000000001
 20
1257
 11
2308.0149999999998
 21
1257
  0
LINE
  8
_0-3_
  6
CONTINUOUS
 62
    4
 10
2308.0149999999998
 20
1239.0000000000002
 11
2308.0149999999998
 21
1243
  0
LINE
  8
_0-3_
  6
CONTINUOUS
 62
    4
 10
2308.0149999999998
 20
1257
 11
2308.0149999999998
 21
1243
  0
LINE
  8
_0-3_
  6
CONTINUOUS
 62
    4
 10
2293.0149999999998
 20
1172
 11
2308.0149999999998
 21
1172
  0
LINE
  8
_0-3_
  6
CONTINUOUS
 62
    4
 10
2308.0149999999998
 20
1257
 11
2293.0149999999998
 21
1172
  0
LINE
  8
_0-3_
  6
CONTINUOUS
 62
    4
 10
2293.0149999999998
 20
764.00000000000022
 11
2293.0149999999998
 21
1257
  0
LINE
  8
_0-3_
  6
CONTINUOUS
 62
    4
 10
2308.0149999999998
 20
1239.0000000000002
 11
2308.0149999999998
 21
764.00000000000022
  0
CIRCLE
  8
_0-3_
  6
CONTINUOUS
 62
    4
 10
2015.015000000001
 20
1067
 40
2.5
  0
CIRCLE
  8
_0-3_
  6
CONTINUOUS
 62
    4
 10
2015.015000000001
 20
1007
 40
2.5
  0
CIRCLE
  8
_0-3_
  6
CONTINUOUS
 62
    4
 10
2015.015000000001
 20
947
 40
2.5
  0
CIRCLE
  8
_0-3_
  6
CONTINUOUS
 62
    7
 10
2015.015000000001
 20
1067
 40
2.5
  0
CIRCLE
  8
_0-3_
  6
CONTINUOUS
 62
    7
 10
2015.015000000001
 20
947
 40
2.5
  0
CIRCLE
  8
_0-3_
  6
CONTINUOUS
 62
    7
 10
2015.015000000001
 20
1006.9999999999995
 40
2.5
  0
LINE
  8
_0-3_
  6
CENTER2
 62
    4
 10
2015.015000000001
 20
1077
 11
2015.015000000001
 21
1057
  0
LINE
  8
_0-3_
  6
CENTER2
 62
    4
 10
2005.015000000001
 20
1067
 11
2027.515000000001
 21
1067
  0
LINE
  8
_0-3_
  6
CENTER2
 62
    4
 10
2015.015000000001
 20
1016.9999999999995
 11
2015.015000000001
 21
997
  0
LINE
  8
_0-3_
  6
CENTER2
 62
    4
 10
2005.015000000001
 20
1006.9999999999995
 11
2027.515000000001
 21
1006.9999999999995
  0
LINE
  8
_0-3_
  6
CENTER2
 62
    4
 10
2015.015000000001
 20
957
 11
2015.015000000001
 21
937
  0
LINE
  8
_0-3_
  6
CENTER2
 62
    4
 10
2005.015000000001
 20
947
 11
2027.515000000001
 21
947
  0
CIRCLE
  8
_0-3_
  6
CONTINUOUS
 62
    4
 10
2267.0150000000007
 20
1007
 40
2.5
  0
CIRCLE
  8
_0-3_
  6
CONTINUOUS
 62
    4
 10
2267.0150000000007
 20
947
 40
2.5
  0
CIRCLE
  8
_0-3_
  6
CONTINUOUS
 62
    7
 10
2267.0150000000007
 20
947
 40
2.5
  0
CIRCLE
  8
_0-3_
  6
CONTINUOUS
 62
    7
 10
2267.0150000000007
 20
1006.9999999999995
 40
2.5
  0
LINE
  8
_0-3_
  6
CENTER2
 62
    4
 10
2267.0150000000007
 20
1016.9999999999995
 11
2267.0150000000007
 21
997
  0
LINE
  8
_0-3_
  6
CENTER2
 62
    4
 10
2257.0150000000007
 20
1006.9999999999995
 11
2279.5150000000007
 21
1006.9999999999995
  0
LINE
  8
_0-3_
  6
CENTER2
 62
    4
 10
2267.0150000000007
 20
957
 11
2267.0150000000007
 21
937
  0
LINE
  8
_0-3_
  6
CENTER2
 62
    4
 10
2257.0150000000007
 20
947
 11
2279.5150000000007
 21
947
  0
CIRCLE
  8
_0-3_
  6
CONTINUOUS
 62
    4
 10
2267.0150000000007
 20
1067
 40
2.5
  0
CIRCLE
  8
_0-3_
  6
CONTINUOUS
 62
    7
 10
2267.0150000000007
 20
1067
 40
2.5
  0
LINE
  8
_0-3_
  6
CENTER2
 62
    4
 10
2267.0150000000007
 20
1077
 11
2267.0150000000007
 21
1057
  0
LINE
  8
_0-3_
  6
CENTER2
 62
    4
 10
2257.0150000000007
 20
1067
 11
2279.5150000000007
 21
1067
  0
LINE
  8
_0-3_
  6
CONTINUOUS
 62
    4
 10
2290.0149999999998
 20
764.00000000000022
 11
2290.0149999999998
 21
1257
  0
LINE
  8
_0-3_
  6
CONTINUOUS
 62
    7
 10
2292.5149999999998
 20
764.00000000000022
 11
2292.5149999999998
 21
1257
  0
LINE
  8
_0-3_
  6
CONTINUOUS
 62
    5
 10
2290.0149999999998
 20
764.00000000000022
 11
2290.0149999999998
 21
777.5
  0
LINE
  8
_0-3_
  6
CONTINUOUS
 62
    5
 10
1966.015000000001
 20
777.5
 11
2290.0149999999998
 21
777.5
  0
LINE
  8
_0-3_
  6
CONTINUOUS
 62
    5
 10
2290.0149999999998
 20
764.00000000000022
 11
2308.0149999999998
 21
764.00000000000022
  0
LINE
  8
_0-3_
  6
CONTINUOUS
 62
    4
 10
1966.015000000001
 20
1242
 11
2290.0149999999998
 21
1242
  0
LINE
  8
_0-6_
  6
CONTINUOUS
 62
    7
 10
1996.5150000000012
 20
1012
 11
2285.5150000000012
 21
1012
  0
LINE
  8
_0-6_
  6
CONTINUOUS
 62
    7
 10
2285.5150000000012
 20
1012
 11
2285.5150000000012
 21
1027
  0
LINE
  8
_0-6_
  6
CONTINUOUS
 62
    7
 10
2285.5150000000012
 20
1027
 11
1996.5150000000012
 21
1027
  0
LINE
  8
_0-6_
  6
CONTINUOUS
 62
    7
 10
1996.5150000000012
 20
1027
 11
1996.5150000000012
 21
1012
  0
LINE
  8
_0-6_
  6
CONTINUOUS
 62
    7
 10
1996.5150000000012
 20
1012
 11
2285.5150000000012
 21
1012
  0
LINE
  8
_0-6_
  6
CONTINUOUS
 62
    7
 10
2285.5150000000012
 20
1012
 11
2285.5150000000012
 21
1027
  0
LINE
  8
_0-6_
  6
CONTINUOUS
 62
    7
 10
2285.5150000000012
 20
1027
 11
1996.5150000000012
 21
1027
  0
LINE
  8
_0-6_
  6
CONTINUOUS
 62
    7
 10
1996.5150000000012
 20
1027
 11
1996.5150000000012
 21
1012
  0
LINE
  8
_0-6_
  6
DASHED1
 62
    7
 10
1383.5149999999998
 20
1012
 11
1383.5149999999998
 21
1027
  0
LINE
  8
_0-6_
  6
DASHED1
 62
    7
 10
416.5149999999997
 20
1027
 11
416.5149999999997
 21
1012
  0
LINE
  8
_0-6_
  6
DASHED1
 62
    7
 10
1015.0149999999998
 20
1027
 11
1015.0149999999998
 21
1012
  0
LINE
  8
_0-6_
  6
DASHED1
 62
    7
 10
986.01499999999987
 20
1012
 11
986.01499999999987
 21
1027
  0
LINE
  8
_0-6_
  6
DASHED1
 62
    7
 10
986.01499999999987
 20
1027
 11
416.5149999999997
 21
1027
  0
LINE
  8
_0-6_
  6
DASHED1
 62
    7
 10
986.01499999999987
 20
1012
 11
416.5149999999997
 21
1012
  0
LINE
  8
_0-6_
  6
DASHED1
 62
    7
 10
1383.5149999999998
 20
1027
 11
1015.0149999999998
 21
1027
  0
LINE
  8
_0-6_
  6
DASHED1
 62
    7
 10
1383.5149999999998
 20
1012
 11
1015.0149999999998
 21
1012
  0
POINT
  8
_0-9_
 62
    9
 10
2308.0149999999998
 20
1407
  0
POINT
  8
_0-9_
 62
    9
 10
1966.015000000001
 20
1407
  0
LINE
  8
_0-9_
  6
CONTINUOUS
 62
    4
 10
1966.015000000001
 20
1407
 11
1966.015000000001
 21
1287
  0
POINT
  8
_0-9_
 62
    3
 10
1966.015000000001
 20
1407
  0
POINT
  8
_0-9_
 62
    3
 10
2308.0149999999998
 20
1407
  0
LINE
  8
_0-9_
  6
CONTINUOUS
 62
    4
 10
1966.015000000001
 20
1407
 11
2308.0149999999998
 21
1407
  0
TEXT
  8
_0-9_
 62
    7
 10
2103.9150000000008
 20
1412
 40
35
 41
0.6285714285714286
 50
0
  1
３４２
  0
TEXT
  8
_0-d_
 62
    7
 10
3859.8692808597488
 20
2080.4530697731929
 40
35
 41
0.8571428571428568
 50
0
  1
扉　色
  0
TEXT
  8
_0-d_
 62
    7
 10
3714.9604406654852
 20
2012.9530697731929
 40
35
 41
0.8571428571428568
 50
0
  1
ＳＷ
  0
TEXT
  8
_0-d_
 62
    7
 10
3829.4903410729093
 20
2012.9530697731929
 40
35
 41
0.8571428571428568
 50
0
  1
ホワイト
  0
TEXT
  8
_0-d_
 62
    7
 10
3719.9518960751729
 20
1953.5423965889731
 40
35
 41
0.8571428571428568
 50
0
  1
ＬＧ
  0
TEXT
  8
_0-d_
 62
    7
 10
3829.5893349779444
 20
1953.5423965889731
 40
35
 41
0.8571428571428568
 50
0
  1
木　　目
  0
TEXT
  8
_0-d_
 62
    7
 10
3714.9604406654852
 20
1887.9530697731922
 40
35
 41
0.8571428571428568
 50
0
  1
ＵＷ
  0
TEXT
  8
_0-d_
 62
    7
 10
3829.4903410729084
 20
1887.9530697731922
 40
35
 41
0.8571428571428568
 50
0
  1
ｳﾙﾄﾗﾎﾜｲﾄ（艶有）
  0
TEXT
  8
_0-d_
 62
    7
 10
3719.9518960751729
 20
1828.5423965889729
 40
35
 41
0.8571428571428568
 50
0
  1
ＷＮ
  0
TEXT
  8
_0-d_
 62
    7
 10
3829.4903410729093
 20
1827.9530697731922
 40
35
 41
0.8571428571428568
 50
0
  1
ｳｨﾝｻﾞｰﾅｯﾄ（艶有）
  0
LINE
  8
_0-d_
  6
CONTINUOUS
 62
    3
 10
4114.2482206465883
 20
2130.4530697731929
 11
4114.2482206465883
 21
1635.453069773192
  0
LINE
  8
_0-d_
  6
CONTINUOUS
 62
    7
 10
3799.4903410729093
 20
2060.4530697731929
 11
3799.4903410729093
 21
1940.4530697731922
  0
TEXT
  8
_0-d_
 62
    7
 10
3719.9518960751729
 20
1768.5423965889726
 40
35
 41
0.8571428571428568
 50
0
  1
ＢＳ
  0
TEXT
  8
_0-d_
 62
    7
 10
3829.5893349779444
 20
1768.5423965889726
 40
35
 41
0.8571428571428568
 50
0
  1
ブラックストーン
  0
LINE
  8
_0-d_
  6
CONTINUOUS
 62
    3
 10
3699.4903410729093
 20
2130.4530697731929
 11
3699.4903410729093
 21
1635.453069773192
  0
LINE
  8
_0-d_
  6
CONTINUOUS
 62
    7
 10
3799.4903410729093
 20
1935.4530697731922
 11
3799.4903410729093
 21
1635.453069773192
  0
TEXT
  8
_0-d_
 62
    7
 10
3719.9518960751729
 20
1708.5423965889726
 40
35
 41
0.8571428571428568
 50
0
  1
ＰＭ
  0
TEXT
  8
_0-d_
 62
    7
 10
3829.5893349779453
 20
1708.5423965889726
 40
35
 41
0.8571428571428568
 50
0
  1
ペールグレイン
  0
TEXT
  8
_0-d_
 62
    7
 10
3719.9518960751729
 20
1648.5423965889726
 40
35
 41
0.8571428571428568
 50
0
  1
ＭＤ
  0
TEXT
  8
_0-d_
 62
    7
 10
3829.5893349779453
 20
1648.5423965889726
 40
35
 41
0.8571428571428568
 50
0
  1
ダークグレイン
  0
LINE
  8
_0-d_
  6
CONTINUOUS
 62
    3
 10
4114.2482206465883
 20
2130.4530697731929
 11
3699.4903410729093
 21
2130.4530697731929
  0
LINE
  8
_0-d_
  6
CONTINUOUS
 62
    3
 10
4114.2482206465883
 20
1635.453069773192
 11
3699.4903410729093
 21
1635.453069773192
  0
LINE
  8
_0-d_
  6
CONTINUOUS
 62
    7
 10
3699.4903410729093
 20
2000.4530697731929
 11
4114.2482206465883
 21
2000.4530697731929
  0
LINE
  8
_0-d_
  6
CONTINUOUS
 62
    7
 10
4114.2482206465883
 20
2000.4530697731929
 11
3699.4903410729093
 21
2000.4530697731929
  0
LINE
  8
_0-d_
  6
CONTINUOUS
 62
    3
 10
4114.2482206465883
 20
2000.4530697731929
 11
3699.4903410729093
 21
2000.4530697731929
  0
LINE
  8
_0-d_
  6
CONTINUOUS
 62
    3
 10
4114.2482206465883
 20
1940.4530697731922
 11
3699.4903410729093
 21
1940.4530697731922
  0
LINE
  8
_0-d_
  6
CONTINUOUS
 62
    7
 10
4114.2482206465883
 20
1875.4530697731922
 11
3699.4903410729093
 21
1875.4530697731922
  0
LINE
  8
_0-d_
  6
CONTINUOUS
 62
    3
 10
4114.2482206465883
 20
1875.4530697731922
 11
3699.4903410729093
 21
1875.4530697731922
  0
LINE
  8
_0-d_
  6
CONTINUOUS
 62
    3
 10
4114.2482206465883
 20
1815.4530697731922
 11
3699.4903410729093
 21
1815.4530697731922
  0
LINE
  8
_0-d_
  6
CONTINUOUS
 62
    7
 10
3699.4903410729093
 20
1875.4530697731922
 11
4114.2482206465883
 21
1875.4530697731922
  0
LINE
  8
_0-d_
  6
CONTINUOUS
 62
    7
 10
4114.2482206465883
 20
1940.4530697731922
 11
3699.4903410729093
 21
1940.4530697731922
  0
LINE
  8
_0-d_
  6
CONTINUOUS
 62
    7
 10
4114.2482206465883
 20
1935.4530697731922
 11
3699.4903410729093
 21
1935.4530697731922
  0
LINE
  8
_0-d_
  6
CONTINUOUS
 62
    7
 10
4114.2482206465883
 20
1815.4530697731922
 11
3699.4903410729093
 21
1815.4530697731922
  0
LINE
  8
_0-d_
  6
CONTINUOUS
 62
    3
 10
4114.2482206465883
 20
1815.4530697731922
 11
3699.4903410729093
 21
1815.4530697731922
  0
LINE
  8
_0-d_
  6
CONTINUOUS
 62
    3
 10
4114.2482206465883
 20
1755.453069773192
 11
3699.4903410729093
 21
1755.453069773192
  0
LINE
  8
_0-d_
  6
CONTINUOUS
 62
    7
 10
3699.4903410729093
 20
1815.4530697731922
 11
4114.2482206465883
 21
1815.4530697731922
  0
LINE
  8
_0-d_
  6
CONTINUOUS
 62
    7
 10
4114.2482206465883
 20
1755.453069773192
 11
3699.4903410729093
 21
1755.453069773192
  0
LINE
  8
_0-d_
  6
CONTINUOUS
 62
    3
 10
4114.2482206465883
 20
1755.453069773192
 11
3699.4903410729093
 21
1755.453069773192
  0
LINE
  8
_0-d_
  6
CONTINUOUS
 62
    3
 10
4114.2482206465883
 20
1695.453069773192
 11
3699.4903410729093
 21
1695.453069773192
  0
LINE
  8
_0-d_
  6
CONTINUOUS
 62
    7
 10
3699.4903410729093
 20
1755.453069773192
 11
4114.2482206465883
 21
1755.453069773192
  0
LINE
  8
_0-d_
  6
CONTINUOUS
 62
    7
 10
4114.2482206465883
 20
1695.453069773192
 11
3699.4903410729093
 21
1695.453069773192
  0
LINE
  8
_0-d_
  6
CONTINUOUS
 62
    3
 10
4114.2482206465883
 20
1695.453069773192
 11
3699.4903410729093
 21
1695.453069773192
  0
LINE
  8
_0-d_
  6
CONTINUOUS
 62
    7
 10
3699.4903410729093
 20
1695.453069773192
 11
4114.2482206465883
 21
1695.453069773192
  0
LINE
  8
_0-d_
  6
CONTINUOUS
 62
    7
 10
4114.2482206465883
 20
2060.4530697731929
 11
3699.4903410729093
 21
2060.4530697731929
  0
LINE
  8
_0-d_
  6
CONTINUOUS
 62
    7
 10
4114.2482206465883
 20
2065.4530697731929
 11
3699.4903410729093
 21
2065.4530697731929
  0
LINE
  8
_0-d_
  6
CONTINUOUS
 62
    7
 10
4114.2482206465883
 20
2285.4530697731929
 11
2833.9910235721818
 21
2285.4530697731929
  0
TEXT
  8
_0-d_
 62
    7
 10
2913.8437946156864
 20
2725.1330729428532
 40
35
 41
0.8571428571428568
 50
0
  1
天　板
  0
LINE
  8
_0-d_
  6
CONTINUOUS
 62
    3
 10
4114.2482206465883
 20
2845.4530697731929
 11
2833.9910235721818
 21
2845.4530697731929
  0
TEXT
  8
_0-d_
 62
    7
 10
3279.4915235721828
 20
2795.4530697731929
 40
35
 41
0.8571428571428568
 50
0
  1
仕　様
  0
TEXT
  8
_0-d_
 62
    7
 10
3173.9910235721818
 20
2722.9530697731929
 40
35
 41
0.8571428571428568
 50
0
  1
片面化粧パーティクルボード　１５ｔ
  0
LINE
  8
_0-d_
  6
CONTINUOUS
 62
    3
 10
2833.9910235721818
 20
2215.4530697731929
 11
4114.2482206465883
 21
2215.4530697731929
  0
LINE
  8
_0-d_
  6
CONTINUOUS
 62
    7
 10
4114.2482206465883
 20
2565.4530697731929
 11
2833.9910235721818
 21
2565.4530697731929
  0
LINE
  8
_0-d_
  6
CONTINUOUS
 62
    7
 10
4114.2482206465883
 20
2495.4530697731929
 11
2833.9910235721818
 21
2495.4530697731929
  0
LINE
  8
_0-d_
  6
CONTINUOUS
 62
    7
 10
4114.2482206465883
 20
2425.4530697731929
 11
2833.9910235721818
 21
2425.4530697731929
  0
LINE
  8
_0-d_
  6
CONTINUOUS
 62
    7
 10
4114.2482206465883
 20
2355.4530697731929
 11
2833.9910235721818
 21
2355.4530697731929
  0
LINE
  8
_0-d_
  6
CONTINUOUS
 62
    7
 10
4114.2482206465883
 20
2635.4530697731929
 11
2833.9910235721818
 21
2635.4530697731929
  0
LINE
  8
_0-d_
  6
CONTINUOUS
 62
    7
 10
4114.2482206465883
 20
2705.4530697731929
 11
2833.9910235721818
 21
2705.4530697731929
  0
LINE
  8
_0-d_
  6
CONTINUOUS
 62
    7
 10
4114.2482206465883
 20
2775.4530697731929
 11
2833.9910235721818
 21
2775.4530697731929
  0
LINE
  8
_0-d_
  6
CONTINUOUS
 62
    7
 10
4114.2482206465883
 20
2780.4530697731929
 11
2833.9910235721818
 21
2780.4530697731929
  0
TEXT
  8
_0-d_
 62
    7
 10
2913.9910235721836
 20
2232.9530697731929
 40
35
 41
0.8571428571428568
 50
0
  1
棚　板
  0
TEXT
  8
_0-d_
 62
    7
 10
2913.9910235721836
 20
2302.9530697731929
 40
35
 41
0.8571428571428568
 50
0
  1
丁　番
  0
TEXT
  8
_0-d_
 62
    7
 10
2913.9910235721827
 20
2372.9530697731929
 40
35
 41
0.8571428571428568
 50
0
  1
　扉
  0
TEXT
  8
_0-d_
 62
    7
 10
2913.9910235721836
 20
2442.9530697731929
 40
35
 41
0.8571428571428568
 50
0
  1
背　板
  0
TEXT
  8
_0-d_
 62
    7
 10
2913.9910235721804
 20
2512.9530697731929
 40
35
 41
0.8571428571428568
 50
0
  1
見　上　板
  0
TEXT
  8
_0-d_
 62
    7
 10
2913.9910235721808
 20
2652.9530697731929
 40
35
 41
0.8571428571428568
 50
0
  1
左　側　板
  0
TEXT
  8
_0-d_
 62
    7
 10
2913.9910235721804
 20
2582.9530697731929
 40
35
 41
0.8571428571428568
 50
0
  1
右　側　板
  0
TEXT
  8
_0-d_
 62
    7
 10
3173.9910235721818
 20
2512.9530697731929
 40
35
 41
0.8571428571428568
 50
0
  1
両面フラッシュ２０．５ｔ　片面不燃材６ｔ貼
  0
TEXT
  8
_0-d_
 62
    7
 10
3176.4350544529957
 20
2652.9826101069716
 40
35
 41
0.8571428571428568
 50
0
  1
両面フラッシュ１４．５ｔ　片側不燃材９ｔ貼
  0
LINE
  8
_0-d_
  6
CONTINUOUS
 62
    7
 10
4114.2482206465883
 20
2215.4530697731929
 11
2833.9910235721818
 21
2215.4530697731929
  0
LINE
  8
_0-d_
  6
CONTINUOUS
 62
    3
 10
2833.9910235721818
 20
2145.4530697731929
 11
4114.2482206465883
 21
2145.4530697731929
  0
LINE
  8
_0-d_
  6
CONTINUOUS
 62
    3
 10
2833.9910235721818
 20
2845.4530697731929
 11
2833.9910235721818
 21
2145.4530697731929
  0
LINE
  8
_0-d_
  6
CONTINUOUS
 62
    3
 10
4114.2482206465883
 20
2845.4530697731929
 11
4114.2482206465883
 21
2145.4530697731929
  0
LINE
  8
_0-d_
  6
CONTINUOUS
 62
    7
 10
3133.9910235721818
 20
2775.4530697731929
 11
3133.9910235721818
 21
2145.4530697731929
  0
TEXT
  8
_0-d_
 62
    7
 10
3173.9910235721808
 20
2162.9530697731929
 40
35
 41
0.8571428571428568
 50
0
  1
アルミ一文字把手
  0
TEXT
  8
_0-d_
 62
    7
 10
3173.9910235721822
 20
2442.9530697731929
 40
35
 41
0.8571428571428568
 50
0
  1
カラーＭＤＦ・落とし込み
  0
TEXT
  8
_0-d_
 62
    7
 10
2913.9910235721808
 20
2162.9530697731929
 40
35
 41
0.8571428571428568
 50
0
  1
把　手
  0
TEXT
  8
_0-d_
 62
    7
 10
3173.9910235721822
 20
2232.9530697731929
 40
35
 41
0.8571428571428568
 50
0
  1
可動式　棚板　１５ｔ
  0
TEXT
  8
_0-d_
 62
    7
 10
3173.9910235721822
 20
2302.9530697731929
 40
35
 41
0.8571428571428568
 50
0
  1
ワンタッチスライド式丁番
  0
TEXT
  8
_0-d_
 62
    7
 10
3176.4350544529957
 20
2582.9826101069716
 40
35
 41
0.8571428571428568
 50
0
  1
両面フラッシュ１４．５ｔ　片側不燃材９ｔ貼
  0
TEXT
  8
_0-d_
 62
    7
 10
3173.9910235721808
 20
2372.9530697731929
 40
35
 41
0.8571428571428568
 50
0
  1
両面化粧パ－ティクルボ－ド　１２ｔ　耐震ラッチ付
  0
LINE
  8
_1-1_
  6
DASHED1
 62
    7
 10
2044.5150000000012
 20
1239.4235500000004
 11
2043.4083500000008
 21
1240.0625000000002
  0
LINE
  8
_1-1_
  6
DASHED1
 62
    7
 10
2044.5150000000012
 20
1238.5575500000002
 11
2042.515000000001
 21
1239.7122500000002
  0
LINE
  8
_1-1_
  6
DASHED1
 62
    7
 10
2044.5150000000012
 20
1237.6915000000003
 11
2042.515000000001
 21
1238.8462000000001
  0
LINE
  8
_1-1_
  6
DASHED1
 62
    7
 10
2044.5150000000012
 20
1236.8255000000003
 11
2042.515000000001
 21
1237.9802000000001
  0
LINE
  8
_1-1_
  6
DASHED1
 62
    7
 10
2044.5150000000012
 20
1235.9594500000002
 11
2042.515000000001
 21
1237.1141500000003
  0
LINE
  8
_1-1_
  6
DASHED1
 62
    7
 10
2044.5150000000012
 20
1235.0934500000003
 11
2042.515000000001
 21
1236.2481500000003
  0
LINE
  8
_1-1_
  6
DASHED1
 62
    7
 10
2044.5150000000012
 20
1234.2274000000002
 11
2042.515000000001
 21
1235.3821000000002
  0
LINE
  8
_1-1_
  6
DASHED1
 62
    7
 10
2044.5150000000012
 20
1233.3614000000002
 11
2042.515000000001
 21
1234.5161000000002
  0
LINE
  8
_1-1_
  6
DASHED1
 62
    7
 10
2044.5150000000012
 20
1232.4953500000001
 11
2042.515000000001
 21
1233.6500500000001
  0
LINE
  8
_1-1_
  6
DASHED1
 62
    7
 10
2044.5150000000012
 20
1231.6293500000003
 11
2042.515000000001
 21
1232.7840500000004
  0
LINE
  8
_1-1_
  6
DASHED1
 62
    7
 10
2044.5150000000012
 20
1230.7633000000002
 11
2042.515000000001
 21
1231.9180000000003
  0
LINE
  8
_1-1_
  6
DASHED1
 62
    7
 10
2044.5150000000012
 20
1229.8973000000003
 11
2042.515000000001
 21
1231.0520000000001
  0
LINE
  8
_1-1_
  6
DASHED1
 62
    7
 10
2044.5150000000012
 20
1229.0312500000002
 11
2042.515000000001
 21
1230.1859500000002
  0
LINE
  8
_1-1_
  6
DASHED1
 62
    7
 10
2044.5150000000012
 20
1228.1652500000002
 11
2042.515000000001
 21
1229.3199500000002
  0
LINE
  8
_1-1_
  6
DASHED1
 62
    7
 10
2044.5150000000012
 20
1227.2992000000001
 11
2042.515000000001
 21
1228.4539000000002
  0
LINE
  8
_1-1_
  6
DASHED1
 62
    7
 10
2044.5150000000012
 20
1226.4332000000003
 11
2042.515000000001
 21
1227.5879000000004
  0
LINE
  8
_1-1_
  6
DASHED1
 62
    7
 10
2044.5150000000012
 20
1225.5671500000003
 11
2042.515000000001
 21
1226.7218500000003
  0
LINE
  8
_1-1_
  6
DASHED1
 62
    7
 10
2044.5150000000012
 20
1224.7011500000003
 11
2042.515000000001
 21
1225.8558500000001
  0
LINE
  8
_1-1_
  6
DASHED1
 62
    7
 10
2044.5150000000012
 20
1223.8351000000002
 11
2042.515000000001
 21
1224.9898000000002
  0
LINE
  8
_1-1_
  6
DASHED1
 62
    7
 10
2044.5150000000012
 20
1222.9691000000002
 11
2042.515000000001
 21
1224.1238000000003
  0
LINE
  8
_1-1_
  6
DASHED1
 62
    7
 10
2044.5150000000012
 20
1222.1030500000003
 11
2042.515000000001
 21
1223.2577500000002
  0
LINE
  8
_1-1_
  6
DASHED1
 62
    7
 10
2044.5150000000012
 20
1221.2370500000001
 11
2042.515000000001
 21
1222.3917500000002
  0
LINE
  8
_1-1_
  6
DASHED1
 62
    7
 10
2044.5150000000012
 20
1220.3710000000003
 11
2042.515000000001
 21
1221.5257000000001
  0
LINE
  8
_1-1_
  6
DASHED1
 62
    7
 10
2044.5150000000012
 20
1219.5050000000003
 11
2042.515000000001
 21
1220.6597000000001
  0
LINE
  8
_1-1_
  6
DASHED1
 62
    7
 10
2044.5150000000012
 20
1218.6389500000002
 11
2042.515000000001
 21
1219.7936500000002
  0
LINE
  8
_1-1_
  6
DASHED1
 62
    7
 10
2044.404950000001
 20
1217.8365000000003
 11
2042.515000000001
 21
1218.9276500000003
  0
LINE
  8
_1-1_
  6
DASHED1
 62
    7
 10
2044.2842000000009
 20
1217.0401500000002
 11
2042.4429000000009
 21
1218.1032500000003
  0
LINE
  8
_1-1_
  6
DASHED1
 62
    7
 10
2044.0114500000008
 20
1216.3316000000004
 11
2042.2549000000008
 21
1217.3457500000004
  0
LINE
  8
_1-1_
  6
DASHED1
 62
    7
 10
2043.6666000000009
 20
1215.6647000000002
 11
2041.9546000000009
 21
1216.6531000000004
  0
LINE
  8
_1-1_
  6
DASHED1
 62
    7
 10
2043.3217500000012
 20
1214.9977500000002
 11
2041.406550000001
 21
1216.1035000000001
  0
LINE
  8
_1-1_
  6
DASHED1
 62
    7
 10
2042.819200000001
 20
1214.4219000000002
 11
2040.9115500000009
 21
1215.5232500000001
  0
LINE
  8
_1-1_
  6
DASHED1
 62
    7
 10
2042.2416000000009
 20
1213.8893000000002
 11
2039.6900000000009
 21
1215.3625000000001
  0
LINE
  8
_1-1_
  6
DASHED1
 62
    7
 10
2041.5726500000009
 20
1213.4095000000002
 11
2038.1900000000009
 21
1215.3625000000001
  0
LINE
  8
_1-1_
  6
DASHED1
 62
    7
 10
2040.6842500000011
 20
1213.0564000000001
 11
2036.6900000000009
 21
1215.3625000000001
  0
LINE
  8
_1-1_
  6
DASHED1
 62
    7
 10
2039.769950000001
 20
1212.7182500000003
 11
2035.1900000000011
 21
1215.3625000000001
  0
LINE
  8
_1-1_
  6
DASHED1
 62
    7
 10
2037.039750000001
 20
1212.5625000000002
 11
2032.7249500000011
 21
1215.0536500000002
  0
LINE
  8
_1-1_
  6
DASHED1
 62
    7
 10
2038.4896000000007
 20
1212.5914500000003
 11
2033.749500000001
 21
1215.3281500000002
  0
LINE
  8
_1-1_
  6
DASHED1
 62
    7
 10
2035.5397500000008
 20
1212.5625000000002
 11
2031.7004500000009
 21
1214.7791000000001
  0
LINE
  8
_1-1_
  6
DASHED1
 62
    7
 10
2032.5397500000008
 20
1212.5625000000002
 11
2029.6514000000011
 21
1214.2300500000003
  0
LINE
  8
_1-1_
  6
DASHED1
 62
    7
 10
2034.0397500000012
 20
1212.5625000000002
 11
2030.6759500000009
 21
1214.5046000000002
  0
LINE
  8
_1-1_
  6
DASHED1
 62
    7
 10
2031.039750000001
 20
1212.5625000000002
 11
2028.2634000000009
 21
1214.1654000000003
  0
LINE
  8
_1-1_
  6
DASHED1
 62
    7
 10
2029.539750000001
 20
1212.5625000000002
 11
2026.8196000000011
 21
1214.1330000000002
  0
LINE
  8
_1-1_
  6
DASHED1
 62
    7
 10
2028.0397500000008
 20
1212.5625000000002
 11
2024.9639000000011
 21
1214.3383000000003
  0
LINE
  8
_1-1_
  6
DASHED1
 62
    7
 10
2026.5397500000012
 20
1212.5625000000002
 11
2022.5899000000008
 21
1214.8429500000002
  0
LINE
  8
_1-1_
  6
DASHED1
 62
    7
 10
2025.0397500000008
 20
1212.5625000000002
 11
2020.215900000001
 21
1215.3475500000004
  0
LINE
  8
_1-1_
  6
DASHED1
 62
    7
 10
2023.539750000001
 20
1212.5625000000002
 11
2017.841900000001
 21
1215.8521500000003
  0
LINE
  8
_1-1_
  6
DASHED1
 62
    7
 10
2022.039750000001
 20
1212.5625000000002
 11
2015.4678500000011
 21
1216.3567500000001
  0
LINE
  8
_1-1_
  6
DASHED1
 62
    7
 10
2020.5397500000008
 20
1212.5625000000002
 11
2013.0938500000011
 21
1216.8614000000002
  0
LINE
  8
_1-1_
  6
DASHED1
 62
    7
 10
2019.0397500000012
 20
1212.5625000000002
 11
2001.199600000001
 21
1222.8625000000001
  0
LINE
  8
_1-1_
  6
DASHED1
 62
    7
 10
2017.5397500000008
 20
1212.5625000000002
 11
1998.515000000001
 21
1223.5464500000002
  0
LINE
  8
_1-1_
  6
DASHED1
 62
    7
 10
2016.039750000001
 20
1212.5625000000002
 11
1998.515000000001
 21
1222.6804000000001
  0
LINE
  8
_1-1_
  6
DASHED1
 62
    7
 10
2014.539750000001
 20
1212.5625000000002
 11
1998.515000000001
 21
1221.8144000000002
  0
LINE
  8
_1-1_
  6
DASHED1
 62
    7
 10
2011.5150000000012
 20
1228.1652500000002
 11
2009.515000000001
 21
1229.3199500000002
  0
LINE
  8
_1-1_
  6
DASHED1
 62
    7
 10
2011.5150000000012
 20
1227.2992000000001
 11
2009.515000000001
 21
1228.4539000000002
  0
LINE
  8
_1-1_
  6
DASHED1
 62
    7
 10
2011.5150000000012
 20
1226.4332000000003
 11
2009.515000000001
 21
1227.5879000000004
  0
LINE
  8
_1-1_
  6
DASHED1
 62
    7
 10
2011.5150000000012
 20
1225.5671500000003
 11
2009.244200000001
 21
1226.8782000000003
  0
LINE
  8
_1-1_
  6
DASHED1
 62
    7
 10
2011.5150000000012
 20
1224.7011500000003
 11
2008.2066000000008
 21
1226.6112500000003
  0
LINE
  8
_1-1_
  6
DASHED1
 62
    7
 10
2011.5150000000012
 20
1223.8351000000002
 11
2006.791000000001
 21
1226.5625000000002
  0
LINE
  8
_1-1_
  6
DASHED1
 62
    7
 10
2011.5150000000012
 20
1222.9691000000002
 11
2005.2910000000008
 21
1226.5625000000002
  0
LINE
  8
_1-1_
  6
DASHED1
 62
    7
 10
2011.5150000000012
 20
1222.1030500000003
 11
2003.791000000001
 21
1226.5625000000002
  0
LINE
  8
_1-1_
  6
DASHED1
 62
    7
 10
2011.5150000000012
 20
1221.2370500000001
 11
2008.699600000001
 21
1222.8625000000001
  0
LINE
  8
_1-1_
  6
DASHED1
 62
    7
 10
2011.5150000000012
 20
1220.3710000000003
 11
2007.199600000001
 21
1222.8625000000001
  0
LINE
  8
_1-1_
  6
DASHED1
 62
    7
 10
2011.5150000000012
 20
1219.5050000000003
 11
2005.6996000000008
 21
1222.8625000000001
  0
LINE
  8
_1-1_
  6
DASHED1
 62
    7
 10
2011.518400000001
 20
1218.6370000000001
 11
2004.1996000000012
 21
1222.8625000000001
  0
LINE
  8
_1-1_
  6
DASHED1
 62
    7
 10
2011.6501500000008
 20
1217.6949000000004
 11
2002.6996000000008
 21
1222.8625000000001
  0
LINE
  8
_1-1_
  6
DASHED1
 62
    7
 10
2008.699600000001
 20
1222.8625000000001
 11
2002.291000000001
 21
1226.5625000000002
  0
LINE
  8
_1-1_
  6
DASHED1
 62
    7
 10
2007.199600000001
 20
1222.8625000000001
 11
2000.791000000001
 21
1226.5625000000002
  0
LINE
  8
_1-1_
  6
DASHED1
 62
    7
 10
2005.6996000000008
 20
1222.8625000000001
 11
1999.515000000001
 21
1226.4332000000003
  0
LINE
  8
_1-1_
  6
DASHED1
 62
    7
 10
2004.1996000000012
 20
1222.8625000000001
 11
1998.515000000001
 21
1226.1445000000003
  0
LINE
  8
_1-1_
  6
DASHED1
 62
    7
 10
2002.6996000000008
 20
1222.8625000000001
 11
1998.515000000001
 21
1225.2785000000003
  0
LINE
  8
_1-1_
  6
DASHED1
 62
    7
 10
2001.199600000001
 20
1222.8625000000001
 11
1998.515000000001
 21
1224.4124500000002
  0
LINE
  8
_1-1_
  6
DASHED1
 62
    7
 10
2044.5150000000012
 20
1240.1735500000002
 11
2043.515000000001
 21
1240.7509000000002
  0
LINE
  8
_1-1_
  6
DASHED1
 62
    7
 10
2044.5150000000012
 20
1240.1735500000002
 11
2043.4083500000008
 21
1240.8125000000002
  0
LINE
  8
_1-1_
  6
DASHED1
 62
    7
 10
2044.5150000000012
 20
1240.9235500000002
 11
2043.7547500000009
 21
1241.3625000000004
  0
LINE
  8
_1-1_
  6
DASHED1
 62
    7
 10
2009.515000000001
 20
1231.0625000000002
 11
2009.515000000001
 21
1233.0625000000004
  0
LINE
  8
_1-1_
  6
DASHED1
 62
    7
 10
2029.515000000001
 20
1214.1935000000003
 11
2027.015000000001
 21
1214.0625000000002
  0
LINE
  8
_1-1_
  6
DASHED1
 62
    7
 10
2033.8777000000009
 20
1215.3625000000001
 11
2029.515000000001
 21
1214.1935000000003
  0
LINE
  8
_1-1_
  6
DASHED1
 62
    7
 10
2011.5150000000012
 20
1228.4078000000001
 11
2009.515000000001
 21
1229.5625000000002
  0
LINE
  8
_1-1_
  6
DASHED1
 62
    7
 10
2011.5150000000012
 20
1218.6707000000003
 11
2011.5150000000012
 21
1228.4078000000001
  0
LINE
  8
_1-1_
  6
DASHED1
 62
    7
 10
2034.5650000000011
 20
1240.0625000000002
 11
2034.5650000000011
 21
1239.0625000000002
  0
LINE
  8
_1-1_
  6
DASHED1
 62
    7
 10
2007.7829500000009
 20
1233.5625000000002
 11
2009.515000000001
 21
1230.5625000000004
  0
LINE
  8
_1-1_
  6
DASHED1
 62
    7
 10
2026.015000000001
 20
1214.1149000000002
 11
2027.015000000001
 21
1214.0625000000002
  0
LINE
  8
_1-1_
  6
DASHED1
 62
    7
 10
2011.8230000000012
 20
1217.1315000000001
 11
2026.015000000001
 21
1214.1149000000002
  0
LINE
  8
_1-1_
  6
DASHED1
 62
    7
 10
2042.515000000001
 20
1240.0625000000002
 11
2042.515000000001
 21
1218.6602000000002
  0
LINE
  8
_1-1_
  6
DASHED1
 62
    7
 10
2033.8777000000009
 20
1215.3625000000001
 11
2040.7789000000007
 21
1215.3625000000001
  0
LINE
  8
_1-1_
  6
DASHED1
 62
    7
 10
2002.015000000001
 20
1235.2625000000002
 11
2002.015000000001
 21
1242.8625000000001
  0
LINE
  8
_1-1_
  6
DASHED1
 62
    7
 10
2016.8150000000009
 20
1239.0625000000002
 11
2034.5650000000011
 21
1239.0625000000002
  0
LINE
  8
_1-1_
  6
DASHED1
 62
    7
 10
2044.5150000000012
 20
1218.5625000000002
 11
2044.5150000000012
 21
1241.3625000000004
  0
LINE
  8
_1-1_
  6
DASHED1
 62
    7
 10
2043.515000000001
 20
1240.0625000000002
 11
2043.515000000001
 21
1241.3791500000004
  0
LINE
  8
_1-1_
  6
DASHED1
 62
    7
 10
2044.5150000000012
 20
1241.3625000000004
 11
1984.515000000001
 21
1242.2625000000002
  0
LINE
  8
_1-1_
  6
DASHED1
 62
    7
 10
1985.5150000000007
 20
1242.2625000000002
 11
1985.5150000000007
 21
1240.9625000000003
  0
LINE
  8
_1-1_
  6
DASHED1
 62
    7
 10
2006.7745500000009
 20
1240.9625000000003
 11
2011.015000000001
 21
1240.9625000000003
  0
LINE
  8
_1-1_
  6
DASHED1
 62
    7
 10
1994.6935500000008
 20
1240.9625000000003
 11
1985.6150000000011
 21
1240.9625000000003
  0
LINE
  8
_1-1_
  6
DASHED1
 62
    7
 10
2011.015000000001
 20
1239.0625000000002
 11
2012.215000000001
 21
1239.0625000000002
  0
LINE
  8
_1-1_
  6
DASHED1
 62
    7
 10
1975.5150500000011
 20
1231.0625000000002
 11
1973.5150500000008
 21
1233.0625000000004
  0
LINE
  8
_1-1_
  6
DASHED1
 62
    7
 10
1973.5150500000008
 20
1233.0625000000004
 11
1973.5150500000008
 21
1240.0625000000002
  0
LINE
  8
_1-1_
  6
DASHED1
 62
    7
 10
1978.5150500000008
 20
1237.0625000000002
 11
1978.5150500000008
 21
1235.7625000000002
  0
LINE
  8
_1-1_
  6
DASHED1
 62
    7
 10
2014.515000000001
 20
1236.9625000000003
 11
2014.515000000001
 21
1225.7625000000002
  0
LINE
  8
_1-1_
  6
DASHED1
 62
    7
 10
1973.5150500000008
 20
1237.0625000000002
 11
2003.443400000001
 21
1237.0625000000002
  0
LINE
  8
_1-1_
  6
DASHED1
 62
    7
 10
2004.857650000001
 20
1236.4767000000003
 11
2012.3934000000008
 21
1228.9409000000002
  0
LINE
  8
_1-1_
  6
DASHED1
 62
    7
 10
2006.6860500000009
 20
1241.0625000000002
 11
1974.5150500000008
 21
1241.0625000000002
  0
LINE
  8
_1-1_
  6
DASHED1
 62
    7
 10
2010.2216000000009
 20
1239.5980500000002
 11
2013.9997500000008
 21
1235.8198500000003
  0
LINE
  8
_1-1_
  6
DASHED1
 62
    7
 10
2009.3150000000009
 20
1231.0625000000002
 11
2018.6250000000009
 21
1231.0625000000002
  0
LINE
  8
_1-1_
  6
DASHED1
 62
    7
 10
2028.0150000000007
 20
1220.1325000000001
 11
2028.0150000000007
 21
1240.8525000000004
  0
LINE
  8
_1-1_
  6
DASHED1
 62
    7
 10
1984.0150500000008
 20
1237.0625000000002
 11
1984.0150500000008
 21
1241.0625000000002
  0
LINE
  8
_1-1_
  6
DASHED1
 62
    7
 10
1978.5150500000008
 20
1241.0625000000002
 11
1978.5150500000008
 21
1237.0625000000002
  0
LINE
  8
_1-1_
  6
DASHED1
 62
    7
 10
1975.5150500000011
 20
1231.0625000000002
 11
1982.5150500000008
 21
1231.0625000000002
  0
LINE
  8
_1-1_
  6
DASHED1
 62
    7
 10
1982.5150500000008
 20
1232.2225000000003
 11
1982.5150500000008
 21
1231.0625000000002
  0
LINE
  8
_1-1_
  6
DASHED1
 62
    7
 10
1982.5150500000008
 20
1232.2225000000003
 11
1978.5150500000008
 21
1235.7625000000002
  0
LINE
  8
_1-1_
  6
DASHED1
 62
    7
 10
2040.944100000001
 20
1225.3406500000003
 11
2041.9044000000008
 21
1233.1619000000002
  0
LINE
  8
_1-1_
  6
DASHED1
 62
    7
 10
2041.909150000001
 20
1233.1603500000003
 11
2036.2241500000009
 21
1235.0625000000002
  0
LINE
  8
_1-1_
  6
DASHED1
 62
    7
 10
2026.015000000001
 20
1234.0625000000002
 11
2014.515000000001
 21
1234.0625000000002
  0
LINE
  8
_1-1_
  6
DASHED1
 62
    7
 10
2026.015000000001
 20
1234.0625000000002
 11
2026.015000000001
 21
1235.0625000000002
  0
LINE
  8
_1-1_
  6
DASHED1
 62
    7
 10
2026.015000000001
 20
1235.0625000000002
 11
2036.2241500000009
 21
1235.0625000000002
  0
LINE
  8
_1-1_
  6
DASHED1
 62
    7
 10
2022.9091500000008
 20
1228.1487000000001
 11
2022.9091500000008
 21
1227.4468500000002
  0
LINE
  8
_1-1_
  6
DASHED1
 62
    7
 10
2022.9091500000008
 20
1228.1487000000001
 11
2026.4091500000013
 21
1231.0261000000002
  0
LINE
  8
_1-1_
  6
DASHED1
 62
    7
 10
2033.409150000001
 20
1230.1782000000002
 11
2033.409150000001
 21
1226.5588500000003
  0
LINE
  8
_1-1_
  6
DASHED1
 62
    7
 10
2022.9091500000008
 20
1227.4468500000002
 11
2026.4091500000013
 21
1230.6079000000001
  0
LINE
  8
_1-1_
  6
DASHED1
 62
    7
 10
2033.409150000001
 20
1226.5588500000003
 11
2033.409150000001
 21
1227.0774000000003
  0
LINE
  8
_1-1_
  6
DASHED1
 62
    7
 10
2016.8150000000009
 20
1239.0625000000002
 11
2016.8150000000009
 21
1234.2347500000003
  0
LINE
  8
_1-1_
  6
DASHED1
 62
    7
 10
2012.215000000001
 20
1239.0625000000002
 11
2012.215000000001
 21
1237.6046000000001
  0
LINE
  8
_1-1_
  6
DASHED1
 62
    7
 10
2012.215000000001
 20
1237.6046000000001
 11
2012.215000000001
 21
1230.3999500000004
  0
LINE
  8
_1-1_
  6
DASHED1
 62
    7
 10
2016.8150000000009
 20
1234.2347500000003
 11
2016.8150000000009
 21
1231.0625000000002
  0
LINE
  8
_1-1_
  6
DASHED1
 62
    7
 10
2011.015000000001
 20
1238.8046000000003
 11
2011.015000000001
 21
1241.8650000000002
  0
LINE
  8
_1-1_
  6
DASHED1
 62
    7
 10
2011.015000000001
 20
1228.6965000000004
 11
2011.015000000001
 21
1230.3193500000002
  0
LINE
  8
_1-1_
  6
DASHED1
 62
    7
 10
2011.015000000001
 20
1238.8046000000003
 11
2011.015000000001
 21
1230.3193500000002
  0
LINE
  8
_1-1_
  6
DASHED1
 62
    7
 10
2007.515000000001
 20
1235.0625000000002
 11
2007.515000000001
 21
1234.5625000000002
  0
LINE
  8
_1-1_
  6
DASHED1
 62
    7
 10
2003.443400000001
 20
1237.0625000000002
 11
1985.5150000000007
 21
1237.0625000000002
  0
LINE
  8
_1-1_
  6
DASHED1
 62
    7
 10
2005.5150000000007
 20
1237.0625000000002
 11
2003.9150000000008
 21
1237.0625000000002
  0
LINE
  8
_1-1_
  6
DASHED1
 62
    7
 10
1994.6935500000008
 20
1240.9625000000003
 11
1999.1150000000011
 21
1240.9625000000003
  0
LINE
  8
_1-1_
  6
DASHED1
 62
    7
 10
1999.1220000000009
 20
1242.0190500000003
 11
1999.116100000001
 21
1240.9625000000003
  0
LINE
  8
_1-1_
  6
DASHED1
 62
    7
 10
2004.9085000000011
 20
1241.9226000000003
 11
2004.9139000000011
 21
1240.9625000000003
  0
LINE
  8
_1-1_
  6
DASHED1
 62
    7
 10
2004.9150000000008
 20
1240.9625000000003
 11
2006.7745500000009
 21
1240.9625000000003
  0
LINE
  8
_1-1_
  6
DASHED1
 62
    7
 10
2003.9150000000008
 20
1237.0625000000002
 11
2003.9150000000008
 21
1241.9715000000003
  0
LINE
  8
_1-1_
  6
DASHED1
 62
    7
 10
2000.1150000000009
 20
1237.0625000000002
 11
2000.1150000000009
 21
1242.0030500000002
  0
LINE
  8
_1-1_
  6
DASHED1
 62
    7
 10
2027.015000000001
 20
1237.5625000000002
 11
2027.015000000001
 21
1242.5625000000002
  0
LINE
  8
_1-1_
  6
DASHED1
 62
    7
 10
2016.8150000000009
 20
1239.0625000000002
 11
2016.8150000000009
 21
1234.2625000000002
  0
LINE
  8
_1-1_
  6
DASHED1
 62
    7
 10
2030.3150000000009
 20
1239.0625000000002
 11
2011.1150000000009
 21
1239.0625000000002
  0
LINE
  8
_1-1_
  6
DASHED1
 62
    7
 10
2013.1150000000011
 20
1239.0625000000002
 11
2013.1150000000011
 21
1234.0625000000002
  0
LINE
  8
_1-1_
  6
DASHED1
 62
    7
 10
2013.1150000000011
 20
1234.0625000000002
 11
2012.515000000001
 21
1234.0625000000002
  0
LINE
  8
_1-1_
  6
DASHED1
 62
    7
 10
2030.3150000000009
 20
1239.0625000000002
 11
2032.515000000001
 21
1240.0625000000002
  0
LINE
  8
_1-1_
  6
DASHED1
 62
    7
 10
2041.8150000000009
 20
1240.0625000000002
 11
2041.8150000000009
 21
1238.0625000000004
  0
LINE
  8
_1-1_
  6
DASHED1
 62
    7
 10
2043.515000000001
 20
1240.0625000000002
 11
2032.515000000001
 21
1240.0625000000002
  0
LINE
  8
_1-1_
  6
DASHED1
 62
    7
 10
2043.515000000001
 20
1241.2625000000002
 11
2011.1150000000009
 21
1241.7625000000002
  0
LINE
  8
_1-1_
  6
DASHED1
 62
    7
 10
2043.515000000001
 20
1241.2625000000002
 11
2043.515000000001
 21
1240.0625000000002
  0
LINE
  8
_1-1_
  6
DASHED1
 62
    7
 10
2042.515000000001
 20
1238.0625000000004
 11
2041.8150000000009
 21
1238.0625000000004
  0
LINE
  8
_1-1_
  6
DASHED1
 62
    7
 10
2011.1150000000009
 20
1234.0625000000002
 11
2012.515000000001
 21
1234.0625000000002
  0
LINE
  8
_1-1_
  6
DASHED1
 62
    7
 10
2011.1150000000009
 20
1241.7625000000002
 11
2011.1150000000009
 21
1238.7046000000002
  0
LINE
  8
_1-1_
  6
DASHED1
 62
    7
 10
2012.515000000001
 20
1239.0625000000002
 11
2012.515000000001
 21
1237.3046000000003
  0
LINE
  8
_1-1_
  6
DASHED1
 62
    7
 10
2012.515000000001
 20
1237.3046000000003
 11
2012.515000000001
 21
1234.2625000000002
  0
LINE
  8
_1-1_
  6
DASHED1
 62
    7
 10
2011.1150000000009
 20
1238.7046000000002
 11
2011.1150000000009
 21
1234.0625000000002
  0
LINE
  8
_1-1_
  6
DASHED1
 62
    7
 10
2015.8150000000011
 20
1233.2625000000002
 11
2013.515000000001
 21
1233.2625000000002
  0
LINE
  8
_1-1_
  6
DASHED1
 62
    7
 10
2042.515000000001
 20
1240.9625000000003
 11
2012.1150000000011
 21
1240.9625000000003
  0
LINE
  8
_1-1_
  6
DASHED1
 62
    7
 10
2012.1150000000011
 20
1240.9625000000003
 11
2012.1150000000011
 21
1241.7440000000003
  0
LINE
  8
_1-1_
  6
DASHED1
 62
    7
 10
2034.5650000000011
 20
1240.0625000000002
 11
2043.515000000001
 21
1240.0625000000002
  0
LINE
  8
_1-1_
  6
DASHED1
 62
    7
 10
2042.515000000001
 20
1240.9625000000003
 11
2042.515000000001
 21
1241.2779500000003
  0
LINE
  8
_1-1_
  6
DASHED1
 62
    7
 10
2011.1752500000011
 20
1241.7614000000003
 11
2011.1150000000009
 21
1241.7266000000004
  0
LINE
  8
_1-1_
  6
DASHED1
 62
    7
 10
2018.7915500000008
 20
1240.9625000000003
 11
2015.500650000001
 21
1239.0625000000002
  0
LINE
  8
_1-1_
  6
DASHED1
 62
    7
 10
2017.291550000001
 20
1240.9625000000003
 11
2014.0006500000008
 21
1239.0625000000002
  0
LINE
  8
_1-1_
  6
DASHED1
 62
    7
 10
2015.791550000001
 20
1240.9625000000003
 11
2012.5006500000013
 21
1239.0625000000002
  0
LINE
  8
_1-1_
  6
DASHED1
 62
    7
 10
2014.2915500000008
 20
1240.9625000000003
 11
2011.1150000000009
 21
1239.1285000000002
  0
LINE
  8
_1-1_
  6
DASHED1
 62
    7
 10
2012.7915500000012
 20
1240.9625000000003
 11
2011.1150000000009
 21
1239.9945500000003
  0
LINE
  8
_1-1_
  6
DASHED1
 62
    7
 10
2012.1150000000011
 20
1241.4379000000003
 11
2011.1150000000009
 21
1240.8605500000003
  0
LINE
  8
_1-1_
  6
DASHED1
 62
    7
 10
2032.291550000001
 20
1240.9625000000003
 11
2029.0006500000008
 21
1239.0625000000002
  0
LINE
  8
_1-1_
  6
DASHED1
 62
    7
 10
2030.791550000001
 20
1240.9625000000003
 11
2027.5006500000013
 21
1239.0625000000002
  0
LINE
  8
_1-1_
  6
DASHED1
 62
    7
 10
2029.2915500000008
 20
1240.9625000000003
 11
2026.0006500000008
 21
1239.0625000000002
  0
LINE
  8
_1-1_
  6
DASHED1
 62
    7
 10
2027.7915500000012
 20
1240.9625000000003
 11
2024.500650000001
 21
1239.0625000000002
  0
LINE
  8
_1-1_
  6
DASHED1
 62
    7
 10
2026.2915500000008
 20
1240.9625000000003
 11
2023.000650000001
 21
1239.0625000000002
  0
LINE
  8
_1-1_
  6
DASHED1
 62
    7
 10
2024.791550000001
 20
1240.9625000000003
 11
2021.5006500000008
 21
1239.0625000000002
  0
LINE
  8
_1-1_
  6
DASHED1
 62
    7
 10
2023.291550000001
 20
1240.9625000000003
 11
2020.0006500000013
 21
1239.0625000000002
  0
LINE
  8
_1-1_
  6
DASHED1
 62
    7
 10
2021.7915500000008
 20
1240.9625000000003
 11
2018.5006500000008
 21
1239.0625000000002
  0
LINE
  8
_1-1_
  6
DASHED1
 62
    7
 10
2020.2915500000012
 20
1240.9625000000003
 11
2017.000650000001
 21
1239.0625000000002
  0
LINE
  8
_1-1_
  6
DASHED1
 62
    7
 10
2033.7915500000008
 20
1240.9625000000003
 11
2031.1878500000011
 21
1239.4592500000003
  0
LINE
  8
_1-1_
  6
DASHED1
 62
    7
 10
2035.2915500000012
 20
1240.9625000000003
 11
2033.7327000000009
 21
1240.0625000000002
  0
LINE
  8
_1-1_
  6
DASHED1
 62
    7
 10
2036.7915500000008
 20
1240.9625000000003
 11
2035.2327000000009
 21
1240.0625000000002
  0
LINE
  8
_1-1_
  6
DASHED1
 62
    7
 10
2038.291550000001
 20
1240.9625000000003
 11
2036.7327000000011
 21
1240.0625000000002
  0
LINE
  8
_1-1_
  6
DASHED1
 62
    7
 10
2039.791550000001
 20
1240.9625000000003
 11
2038.2327000000009
 21
1240.0625000000002
  0
LINE
  8
_1-1_
  6
DASHED1
 62
    7
 10
2041.2915500000008
 20
1240.9625000000003
 11
2039.7327000000009
 21
1240.0625000000002
  0
LINE
  8
_1-1_
  6
DASHED1
 62
    7
 10
2043.3164500000009
 20
1241.2655500000003
 11
2041.2327000000009
 21
1240.0625000000002
  0
LINE
  8
_1-1_
  6
DASHED1
 62
    7
 10
2043.515000000001
 20
1240.5141500000004
 11
2042.7327000000009
 21
1240.0625000000002
  0
LINE
  8
_1-1_
  6
DASHED1
 62
    7
 10
1984.515000000001
 20
1242.2625000000002
 11
1984.515000000001
 21
1241.0625000000002
  0
LINE
  8
_1-1_
  6
DASHED1
 62
    7
 10
1984.515000000001
 20
1241.0625000000002
 11
1984.515000000001
 21
1238.0625000000004
  0
LINE
  8
_1-1_
  6
DASHED1
 62
    7
 10
2013.0397500000008
 20
1212.5625000000002
 11
1998.515000000001
 21
1220.9483500000003
  0
LINE
  8
_1-1_
  6
DASHED1
 62
    7
 10
2011.5397500000012
 20
1212.5625000000002
 11
1998.515000000001
 21
1220.0823500000003
  0
LINE
  8
_1-1_
  6
DASHED1
 62
    7
 10
2010.0397500000008
 20
1212.5625000000002
 11
1998.490650000001
 21
1219.2304000000003
  0
LINE
  8
_1-1_
  6
DASHED1
 62
    7
 10
2008.539750000001
 20
1212.5625000000002
 11
1998.515000000001
 21
1218.3503000000002
  0
LINE
  8
_1-1_
  6
DASHED1
 62
    7
 10
2007.039750000001
 20
1212.5625000000002
 11
1998.515000000001
 21
1217.4842500000002
  0
LINE
  8
_1-1_
  6
DASHED1
 62
    7
 10
2005.5397500000008
 20
1212.5625000000002
 11
1998.515000000001
 21
1216.6182500000002
  0
LINE
  8
_1-1_
  6
DASHED1
 62
    7
 10
2004.0397500000012
 20
1212.5625000000002
 11
1998.515000000001
 21
1215.7522000000003
  0
LINE
  8
_1-1_
  6
DASHED1
 62
    7
 10
2002.5397500000008
 20
1212.5625000000002
 11
1998.515000000001
 21
1214.8862000000003
  0
LINE
  8
_1-1_
  6
DASHED1
 62
    7
 10
2001.039750000001
 20
1212.5625000000002
 11
1998.605400000001
 21
1213.9679500000002
  0
LINE
  8
_1-1_
  6
DASHED1
 62
    7
 10
2009.515000000001
 20
1231.0625000000002
 11
2009.515000000001
 21
1227.5625000000002
  0
LINE
  8
_1-1_
  6
DASHED1
 62
    7
 10
1998.515000000001
 20
1214.5625000000002
 11
1998.515000000001
 21
1237.0625000000002
  0
LINE
  8
_1-1_
  6
DASHED1
 62
    7
 10
2000.5150000000007
 20
1212.5625000000002
 11
2038.515000000001
 21
1212.5625000000002
  0
LINE
  8
_1-1_
  6
DASHED1
 62
    7
 10
2008.515000000001
 20
1226.5625000000002
 11
1998.515000000001
 21
1226.5625000000002
  0
LINE
  8
_1-1_
  6
DASHED1
 62
    7
 10
2038.7238000000011
 20
1214.6761500000002
 11
2029.515000000001
 21
1214.1935000000003
  0
LINE
  8
_1-1_
  6
DASHED1
 62
    7
 10
2015.3056500000011
 20
1214.6761500000002
 11
2026.015000000001
 21
1214.1149000000002
  0
LINE
  8
_1-1_
  6
DASHED1
 62
    7
 10
2026.4091500000013
 20
1231.0261000000002
 11
2026.4091500000013
 21
1230.6079000000001
  0
LINE
  8
_1-1_
  6
DASHED1
 62
    7
 10
2040.3767000000011
 20
1226.4254500000001
 11
2028.0150000000007
 21
1233.5625000000002
  0
LINE
  8
_1-1_
  6
DASHED1
 62
    7
 10
2041.3684000000009
 20
1228.7963000000002
 11
2030.5150000000007
 21
1235.0625000000002
  0
LINE
  8
_1-1_
  6
DASHED1
 62
    7
 10
2012.6074000000012
 20
1229.4340500000002
 11
2028.0150000000007
 21
1233.5625000000002
  0
LINE
  8
_1-1_
  6
DASHED1
 62
    7
 10
2009.515000000001
 20
1222.8625000000001
 11
2000.5150000000007
 21
1222.8625000000001
  0
LINE
  8
_1-1_
  6
DASHED1
 62
    7
 10
2009.515000000001
 20
1222.8625000000001
 11
2009.515000000001
 21
1218.5625000000002
  0
LINE
  8
_1-1_
  6
DASHED1
 62
    7
 10
2009.515000000001
 20
1222.8625000000001
 11
2009.515000000001
 21
1227.5625000000002
  0
LINE
  8
_1-1_
  6
DASHED1
 62
    7
 10
1977.2650500000008
 20
1233.5625000000002
 11
1974.7650500000008
 21
1233.5625000000002
  0
LINE
  8
_1-1_
  6
DASHED1
 62
    7
 10
1974.7650500000008
 20
1241.0625000000002
 11
1974.7650500000008
 21
1233.5625000000002
  0
LINE
  8
_1-1_
  6
DASHED1
 62
    7
 10
1977.2650500000008
 20
1241.0625000000002
 11
1977.2650500000008
 21
1233.5625000000002
  0
LINE
  8
_1-1_
  6
DASHED1
 62
    7
 10
1976.0150500000008
 20
1231.9725000000003
 11
1976.0150500000008
 21
1243.0625000000004
  0
ARC
  8
_1-1_
  6
DASHED1
 62
    7
 10
2038.515000000001
 20
1218.5625000000002
 40
6.0000000000000008
 50
269.99999999999988
 51
359.99999999999988
  0
ARC
  8
_1-1_
  6
DASHED1
 62
    7
 10
2015.5150000000007
 20
1218.6707000000003
 40
4
 50
179.99999999999991
 51
202.63099999999988
  0
ARC
  8
_1-1_
  6
DASHED1
 62
    7
 10
2038.515000000001
 20
1218.6602000000002
 40
4
 50
304.46999999999991
 51
0.0000000000000826
  0
ARC
  8
_1-1_
  6
DASHED1
 62
    7
 10
2005.5150000000007
 20
1233.0625000000004
 40
4
 50
84.812999999999973
 51
89.999999999999971
  0
ARC
  8
_1-1_
  6
DASHED1
 62
    7
 10
2005.5150000000007
 20
1233.0625000000004
 40
4
 50
359.99999999999994
 51
84.813000000000002
  0
CIRCLE
  8
_1-1_
  6
DASHED1
 62
    7
 10
2014.515000000001
 20
1231.0625000000002
 40
2.1
  0
CIRCLE
  8
_1-1_
  6
DASHED1
 62
    7
 10
2014.515000000001
 20
1231.0625000000002
 40
3.0000000000000004
  0
ARC
  8
_1-1_
  6
DASHED1
 62
    7
 10
1974.5150500000008
 20
1240.0625000000002
 40
1
 50
89.999999999999971
 51
180
  0
ARC
  8
_1-1_
  6
DASHED1
 62
    7
 10
2016.6826500000011
 20
1233.1364500000001
 40
6.0000000000000008
 50
223.73399999999995
 51
281.21399999999994
  0
CIRCLE
  8
_1-1_
  6
DASHED1
 62
    7
 10
2014.515000000001
 20
1231.0625000000002
 40
3.0000000000000004
  0
CIRCLE
  8
_1-1_
  6
DASHED1
 62
    7
 10
2014.515000000001
 20
1231.0625000000002
 40
2.1
  0
ARC
  8
_1-1_
  6
DASHED1
 62
    7
 10
2003.443400000001
 20
1235.0625000000002
 40
2
 50
44.999999999999964
 51
89.999999999999971
  0
ARC
  8
_1-1_
  6
DASHED1
 62
    7
 10
2006.6860500000009
 20
1236.0625000000002
 40
5
 50
44.999999999999964
 51
89.999999999999971
  0
ARC
  8
_1-1_
  6
DASHED1
 62
    7
 10
2018.2424000000009
 20
1240.0625000000002
 40
6.0000000000000008
 50
224.99999999999994
 51
269.99999999999994
  0
ARC
  8
_1-1_
  6
DASHED1
 62
    7
 10
2012.3486000000007
 20
1230.3999500000004
 40
1
 50
224.99999999999991
 51
284.99999999999994
  0
ARC
  8
_1-1_
  6
DASHED1
 62
    7
 10
2041.8809500000008
 20
1234.2532500000002
 40
10
 50
240.93599999999992
 51
257.62099999999992
  0
ARC
  8
_1-1_
  6
DASHED1
 62
    7
 10
2039.9515500000009
 20
1225.4625000000003
 40
1
 50
257.62099999999986
 51
352.99999999999994
  0
ARC
  8
_1-1_
  6
DASHED1
 62
    7
 10
2026.1150000000009
 20
1185.5625000000004
 40
42.00685
 50
86.96199999999996
 51
94.376999999999995
  0
ARC
  8
_1-1_
  6
DASHED1
 62
    7
 10
2027.3074500000009
 20
1208.0309000000002
 40
19.50685
 50
71.771999999999977
 51
86.961999999999974
  0
ARC
  8
_1-1_
  6
DASHED1
 62
    7
 10
2026.1150000000009
 20
1185.5625000000004
 40
42.706699999999997
 50
86.96199999999996
 51
94.304999999999992
  0
ARC
  8
_1-1_
  6
DASHED1
 62
    7
 10
2027.3074500000009
 20
1208.0309000000002
 40
20.206700000000004
 50
72.423999999999978
 51
86.961999999999974
  0
ARC
  8
_1-1_
  6
DASHED1
 62
    7
 10
2026.1150000000009
 20
1185.5625000000004
 40
42.5
 50
86.96199999999996
 51
101.21399999999999
  0
ARC
  8
_1-1_
  6
DASHED1
 62
    7
 10
2027.3074500000009
 20
1208.0309000000002
 40
20
 50
60.935999999999985
 51
87.972999999999984
  0
ARC
  8
_1-1_
  6
DASHED1
 62
    7
 10
2040.6267000000007
 20
1226.8585000000002
 40
0.5
 50
239.99999999999994
 51
352.99999999999994
  0
ARC
  8
_1-1_
  6
DASHED1
 62
    7
 10
2014.515000000001
 20
1231.0625000000002
 40
2.2999999999999998
 50
179.99999999999985
 51
359.99999999999988
  0
ARC
  8
_1-1_
  6
DASHED1
 62
    7
 10
2005.5150000000007
 20
1235.0625000000002
 40
2
 50
359.99999999999994
 51
89.999999999999943
  0
ARC
  8
_1-1_
  6
DASHED1
 62
    7
 10
2009.515000000001
 20
1234.5625000000002
 40
2
 50
179.99999999999985
 51
209.99999999999991
  0
ARC
  8
_1-1_
  6
DASHED1
 62
    7
 10
2013.515000000001
 20
1234.2625000000002
 40
1
 50
179.99999999999991
 51
269.99999999999994
  0
ARC
  8
_1-1_
  6
DASHED1
 62
    7
 10
2015.8150000000011
 20
1234.2625000000002
 40
1
 50
269.99999999999988
 51
359.99999999999988
  0
ARC
  8
_1-1_
  6
DASHED1
 62
    7
 10
1985.5150000000007
 20
1238.0625000000004
 40
1
 50
179.99999999999991
 51
269.99999999999994
  0
ARC
  8
_1-1_
  6
DASHED1
 62
    7
 10
2027.5750000000011
 20
1222.8525000000004
 40
8.7300000000000004
 50
146.57599999999996
 51
22.665999999999996
  0
ARC
  8
_1-1_
  6
DASHED1
 62
    7
 10
2000.5150000000007
 20
1223.8625000000004
 40
1
 50
179.99999999999991
 51
269.99999999999994
  0
ARC
  8
_1-1_
  6
DASHED1
 62
    7
 10
2008.515000000001
 20
1227.5625000000002
 40
1
 50
269.99999999999988
 51
359.99999999999988
  0
ARC
  8
_1-1_
  6
DASHED1
 62
    7
 10
2000.5150000000007
 20
1214.5625000000002
 40
2
 50
179.99999999999991
 51
269.99999999999994
  0
ARC
  8
_1-1_
  6
DASHED1
 62
    7
 10
2038.515000000001
 20
1218.6602000000002
 40
4
 50
273
 51
304.46999999999985
  0
ARC
  8
_1-1_
  6
DASHED1
 62
    7
 10
2015.5150000000007
 20
1218.6707000000003
 40
4
 50
202.63099999999991
 51
266.99999999999994
  0
ARC
  8
_1-1_
  6
DASHED1
 62
    7
 10
2026.1150000000009
 20
1185.5625000000004
 40
45.472499999999996
 50
86.96199999999996
 51
89.629000000000019
  0
ARC
  8
_1-1_
  6
DASHED1
 62
    7
 10
2026.1150000000009
 20
1185.5625000000004
 40
45.046349999999996
 50
86.96199999999996
 51
89.625999999999976
  0
ARC
  8
_1-1_
  6
DASHED1
 62
    7
 10
2027.3074500000009
 20
1208.0309000000002
 40
22.54635
 50
74.297999999999973
 51
86.961999999999974
  0
ARC
  8
_1-1_
  6
DASHED1
 62
    7
 10
2027.3074500000009
 20
1208.0309000000002
 40
22.9725
 50
74.596999999999965
 51
86.96199999999996
  0
ARC
  8
_1-1_
  6
DASHED1
 62
    7
 10
2027.5750000000011
 20
1222.8525000000004
 40
8.7300000000000004
 50
22.665999999999975
 51
146.57599999999999
  0
ARC
  8
_1-1_
  6
DASHED1
 62
    7
 10
2015.5150000000007
 20
1218.5625000000002
 40
6.0000000000000008
 50
179.99999999999991
 51
269.99999999999994
  0
LINE
  8
_1-1_
  6
DASHED1
 62
    7
 10
2027.015000000001
 20
1243.1625000000003
 11
2027.015000000001
 21
1208.7625000000002
  0
ARC
  8
_1-1_
  6
DASHED1
 62
    7
 10
1963.2150000000003
 20
1227.0000000000002
 40
1.1999999999999999
 50
90.000000000000028
 51
180.00000000000005
  0
ARC
  8
_1-1_
  6
DASHED1
 62
    7
 10
1963.2150000000003
 20
1227.0000000000002
 40
1.1999999999999999
 50
90.000000000000028
 51
180.00000000000005
  0
LINE
  8
_1-1_
  6
DASHED1
 62
    7
 10
1962.0150000000003
 20
1224.0000000000004
 11
1963.2150000000003
 21
1224.0000000000004
  0
LINE
  8
_1-1_
  6
DASHED1
 62
    7
 10
1963.2150000000003
 20
1227.0000000000002
 11
1963.2150000000003
 21
1207.0000000000002
  0
LINE
  8
_1-1_
  6
DASHED1
 62
    7
 10
1962.0150000000003
 20
1207.0000000000002
 11
1963.2150000000003
 21
1207.0000000000002
  0
LINE
  8
_1-1_
  6
DASHED1
 62
    7
 10
1962.0150000000003
 20
1227.0000000000002
 11
1962.0150000000003
 21
1207.0000000000002
  0
LINE
  8
_1-1_
  6
DASHED1
 62
    7
 10
1963.2150000000003
 20
1226.5000000000004
 11
1963.2150000000003
 21
1211.3593000000003
  0
LINE
  8
_1-1_
  6
DASHED1
 62
    7
 10
1963.7150000000006
 20
1227.0000000000002
 11
1978.8557000000005
 21
1227.0000000000002
  0
LINE
  8
_1-1_
  6
DASHED1
 62
    7
 10
1993.0150000000003
 20
1227.0000000000002
 11
1993.0150000000003
 21
1228.2000000000002
  0
LINE
  8
_1-1_
  6
DASHED1
 62
    7
 10
1963.2150000000003
 20
1228.2000000000002
 11
1999.0150000000005
 21
1228.2000000000002
  0
LINE
  8
_1-1_
  6
DASHED1
 62
    7
 10
1963.2150000000003
 20
1227.0000000000002
 11
1999.0150000000005
 21
1227.0000000000002
  0
LINE
  8
_1-1_
  6
DASHED1
 62
    7
 10
1999.0150000000005
 20
1228.2000000000002
 11
1999.0150000000005
 21
1227.0000000000002
  0
LINE
  8
_1-1_
  6
DASHED1
 62
    7
 10
1064.5149999999998
 20
1243.9
 11
1064.5149999999998
 21
1235.5
  0
LINE
  8
_1-1_
  6
DASHED1
 62
    7
 10
1063.5150000000001
 20
1212.3000000000001
 11
1040.5150000000001
 21
1212.3000000000001
  0
LINE
  8
_1-1_
  6
DASHED1
 62
    7
 10
1052.0149999999998
 20
1229.3000000000001
 11
1044.5149999999998
 21
1229.3000000000001
  0
LINE
  8
_1-1_
  6
DASHED1
 62
    7
 10
1042.0149999999998
 20
1236.8000000000001
 11
1042.0149999999998
 21
1231.2999999999999
  0
LINE
  8
_1-1_
  6
DASHED1
 62
    7
 10
1043.5150000000001
 20
1230.8000000000001
 11
1042.5149999999996
 21
1230.8000000000001
  0
LINE
  8
_1-1_
  6
DASHED1
 62
    7
 10
1071.595
 20
1240.2500000000002
 11
1071.6149999999997
 21
1240.2500000000002
  0
LINE
  8
_1-1_
  6
DASHED1
 62
    7
 10
1034.5149999999998
 20
1222.6000000000001
 11
1033.5150000000001
 21
1222.6000000000001
  0
LINE
  8
_1-1_
  6
DASHED1
 62
    7
 10
1035.5150000000001
 20
1236.8000000000001
 11
1043.0150000000001
 21
1236.8000000000001
  0
LINE
  8
_1-1_
  6
DASHED1
 62
    7
 10
1034.5149999999998
 20
1235.8000000000001
 11
1034.5149999999998
 21
1218.3000000000001
  0
LINE
  8
_1-1_
  6
DASHED1
 62
    7
 10
1032.5149999999996
 20
1242.0000000000002
 11
1032.5149999999996
 21
1223.6000000000001
  0
LINE
  8
_1-1_
  6
DASHED1
 62
    7
 10
1044.0149999999998
 20
1242.0000000000002
 11
1032.5149999999996
 21
1242.0000000000002
  0
LINE
  8
_1-1_
  6
DASHED1
 62
    7
 10
1034.5149999999998
 20
1242.0000000000002
 11
1034.5149999999998
 21
1237.8000000000001
  0
LINE
  8
_1-1_
  6
DASHED1
 62
    7
 10
1044.0149999999998
 20
1242.0000000000002
 11
1044.0149999999998
 21
1229.8000000000001
  0
LINE
  8
_1-1_
  6
DASHED1
 62
    7
 10
1069.5149999999998
 20
1242.0000000000002
 11
1069.5149999999998
 21
1218.3000000000001
  0
LINE
  8
_1-1_
  6
DASHED1
 62
    7
 10
1060.0149999999996
 20
1242.0000000000002
 11
1071.5149999999998
 21
1242.0000000000002
  0
LINE
  8
_1-1_
  6
DASHED1
 62
    7
 10
1071.5149999999998
 20
1242.0000000000002
 11
1071.5149999999998
 21
1223.6000000000001
  0
LINE
  8
_1-1_
  6
DASHED1
 62
    7
 10
1069.5149999999998
 20
1222.6000000000001
 11
1070.5150000000001
 21
1222.6000000000001
  0
LINE
  8
_1-1_
  6
DASHED1
 62
    7
 10
1044.0149999999998
 20
1241.1000000000001
 11
1060.0149999999996
 21
1241.1000000000001
  0
LINE
  8
_1-1_
  6
DASHED1
 62
    7
 10
1060.0149999999996
 20
1242.0000000000002
 11
1060.0149999999996
 21
1229.8000000000001
  0
LINE
  8
_1-1_
  6
DASHED1
 62
    7
 10
1052.0149999999998
 20
1229.3000000000001
 11
1059.5149999999998
 21
1229.3000000000001
  0
LINE
  8
_1-1_
  6
DASHED1
 62
    7
 10
1068.5150000000001
 20
1236.8000000000001
 11
1061.0150000000001
 21
1236.8000000000001
  0
LINE
  8
_1-1_
  6
DASHED1
 62
    7
 10
1058.5150000000001
 20
1240.8000000000001
 11
1045.5150000000001
 21
1240.8000000000001
  0
LINE
  8
_1-1_
  6
DASHED1
 62
    7
 10
1049.0149999999998
 20
1236.8000000000001
 11
1049.0149999999998
 21
1231.8000000000001
  0
LINE
  8
_1-1_
  6
DASHED1
 62
    7
 10
1054.0149999999998
 20
1230.8000000000001
 11
1050.0149999999996
 21
1230.8000000000001
  0
LINE
  8
_1-1_
  6
DASHED1
 62
    7
 10
1055.0149999999996
 20
1236.8000000000001
 11
1055.0149999999996
 21
1231.8000000000001
  0
LINE
  8
_1-1_
  6
DASHED1
 62
    7
 10
1058.5150000000001
 20
1236.8000000000001
 11
1055.0149999999996
 21
1236.8000000000001
  0
LINE
  8
_1-1_
  6
DASHED1
 62
    7
 10
1049.0149999999998
 20
1236.8000000000001
 11
1045.5150000000001
 21
1236.8000000000001
  0
LINE
  8
_1-1_
  6
DASHED1
 62
    7
 10
1046.5149999999998
 20
1230.4038500000001
 11
1046.3183999999998
 21
1230.8636000000001
  0
LINE
  8
_1-1_
  6
DASHED1
 62
    7
 10
1057.5149999999996
 20
1230.4038500000001
 11
1057.7115999999998
 21
1230.8636000000001
  0
LINE
  8
_1-1_
  6
DASHED1
 62
    7
 10
1059.5149999999998
 20
1229.3000000000001
 11
1059.5149999999998
 21
1239.8000000000001
  0
LINE
  8
_1-1_
  6
DASHED1
 62
    7
 10
1044.5149999999998
 20
1229.3000000000001
 11
1044.5149999999998
 21
1239.8000000000001
  0
LINE
  8
_1-1_
  6
DASHED1
 62
    7
 10
1060.5150000000001
 20
1230.8000000000001
 11
1061.5149999999998
 21
1230.8000000000001
  0
LINE
  8
_1-1_
  6
DASHED1
 62
    7
 10
1062.0149999999998
 20
1236.8000000000001
 11
1062.0149999999998
 21
1231.2999999999999
  0
LINE
  8
_1-1_
  6
DASHED1
 62
    7
 10
1044.0149999999998
 20
1234.8000000000001
 11
1044.5149999999998
 21
1234.8000000000001
  0
LINE
  8
_1-1_
  6
DASHED1
 62
    7
 10
1044.0149999999998
 20
1233.8000000000001
 11
1044.5149999999998
 21
1233.8000000000001
  0
LINE
  8
_1-1_
  6
DASHED1
 62
    7
 10
1059.5149999999998
 20
1233.8000000000001
 11
1060.0149999999996
 21
1233.8000000000001
  0
LINE
  8
_1-1_
  6
DASHED1
 62
    7
 10
1059.5149999999998
 20
1234.8000000000001
 11
1060.0149999999996
 21
1234.8000000000001
  0
LINE
  8
_1-1_
  6
DASHED1
 62
    7
 10
1044.0149999999998
 20
1241.5000000000002
 11
1060.0149999999996
 21
1241.5000000000002
  0
LINE
  8
_1-1_
  6
DASHED1
 62
    7
 10
1052.0149999999998
 20
1212.3000000000001
 11
1051.3149999999998
 21
1212.3000000000001
  0
LINE
  8
_1-1_
  6
DASHED1
 62
    7
 10
1052.0149999999998
 20
1212.3000000000001
 11
1052.7150000000001
 21
1212.3000000000001
  0
LINE
  8
_1-1_
  6
DASHED1
 62
    7
 10
1051.5149999999998
 20
1226.2999999999999
 11
1052.0149999999998
 21
1226.2999999999999
  0
LINE
  8
_1-1_
  6
DASHED1
 62
    7
 10
1051.0150000000001
 20
1212.6000000000001
 11
1051.0150000000001
 21
1225.8000000000001
  0
LINE
  8
_1-1_
  6
DASHED1
 62
    7
 10
1053.0150000000001
 20
1212.6000000000001
 11
1053.0150000000001
 21
1225.8000000000001
  0
LINE
  8
_1-1_
  6
DASHED1
 62
    7
 10
1052.0149999999998
 20
1226.2999999999999
 11
1052.5149999999996
 21
1226.2999999999999
  0
LINE
  8
_1-1_
  6
DASHED1
 62
    7
 10
1052.0149999999998
 20
1242.6000000000001
 11
1052.0149999999998
 21
1209.6000000000001
  0
ARC
  8
_1-1_
  6
DASHED1
 62
    7
 10
1040.5150000000001
 20
1218.3000000000001
 40
6.0000000000000008
 50
180.00000000000005
 51
270.00000000000005
  0
ARC
  8
_1-1_
  6
DASHED1
 62
    7
 10
1063.5150000000001
 20
1218.3000000000001
 40
6.0000000000000008
 50
270.00000000000005
 51
0.0000000000000508
  0
ARC
  8
_1-1_
  6
DASHED1
 62
    7
 10
1043.0150000000001
 20
1237.8000000000001
 40
1
 50
270.00000000000005
 51
0.0000000000000508
  0
ARC
  8
_1-1_
  6
DASHED1
 62
    7
 10
1035.5150000000001
 20
1237.8000000000001
 40
1
 50
180.00000000000005
 51
270.00000000000005
  0
ARC
  8
_1-1_
  6
DASHED1
 62
    7
 10
1044.5149999999998
 20
1229.8000000000001
 40
0.5
 50
180.00000000000005
 51
270.00000000000005
  0
ARC
  8
_1-1_
  6
DASHED1
 62
    7
 10
1043.5150000000001
 20
1231.2999999999999
 40
0.5
 50
270.00000000000005
 51
0.0000000000000508
  0
ARC
  8
_1-1_
  6
DASHED1
 62
    7
 10
1042.5149999999996
 20
1231.2999999999999
 40
0.5
 50
180.00000000000005
 51
270.00000000000005
  0
ARC
  8
_1-1_
  6
DASHED1
 62
    7
 10
1033.5150000000001
 20
1223.6000000000001
 40
1
 50
180.00000000000005
 51
270.00000000000005
  0
ARC
  8
_1-1_
  6
DASHED1
 62
    7
 10
1035.5150000000001
 20
1235.8000000000001
 40
1
 50
90.000000000000028
 51
180.00000000000005
  0
ARC
  8
_1-1_
  6
DASHED1
 62
    7
 10
1070.5150000000001
 20
1223.6000000000001
 40
1
 50
270.00000000000005
 51
0.0000000000000508
  0
ARC
  8
_1-1_
  6
DASHED1
 62
    7
 10
1059.5149999999998
 20
1229.8000000000001
 40
0.5
 50
270.00000000000005
 51
0.0000000000000508
  0
ARC
  8
_1-1_
  6
DASHED1
 62
    7
 10
1061.0150000000001
 20
1237.8000000000001
 40
1
 50
180.00000000000005
 51
270.00000000000005
  0
ARC
  8
_1-1_
  6
DASHED1
 62
    7
 10
1068.5150000000001
 20
1237.8000000000001
 40
1
 50
270.00000000000005
 51
0.0000000000000508
  0
ARC
  8
_1-1_
  6
DASHED1
 62
    7
 10
1045.5150000000001
 20
1239.8000000000001
 40
1
 50
90.000000000000028
 51
180.00000000000005
  0
ARC
  8
_1-1_
  6
DASHED1
 62
    7
 10
1058.5150000000001
 20
1239.8000000000001
 40
1
 50
0
 51
90.000000000000028
  0
ARC
  8
_1-1_
  6
DASHED1
 62
    7
 10
1045.5150000000001
 20
1237.8000000000001
 40
1
 50
180.00000000000005
 51
270.00000000000005
  0
ARC
  8
_1-1_
  6
DASHED1
 62
    7
 10
1058.5150000000001
 20
1237.8000000000001
 40
1
 50
270.00000000000005
 51
0.0000000000000508
  0
ARC
  8
_1-1_
  6
DASHED1
 62
    7
 10
1050.0149999999996
 20
1231.8000000000001
 40
1
 50
180.00000000000005
 51
270.00000000000005
  0
ARC
  8
_1-1_
  6
DASHED1
 62
    7
 10
1054.0149999999998
 20
1231.8000000000001
 40
1
 50
270.00000000000005
 51
0.0000000000000508
  0
ARC
  8
_1-1_
  6
DASHED1
 62
    7
 10
1060.5150000000001
 20
1231.2999999999999
 40
0.5
 50
180.00000000000005
 51
270.00000000000005
  0
ARC
  8
_1-1_
  6
DASHED1
 62
    7
 10
1061.5149999999998
 20
1231.2999999999999
 40
0.5
 50
270.00000000000005
 51
0.0000000000000508
  0
ARC
  8
_1-1_
  6
DASHED1
 62
    7
 10
1051.3149999999998
 20
1212.6000000000001
 40
0.2999999999999998
 50
180.00000000000005
 51
270.00000000000005
  0
ARC
  8
_1-1_
  6
DASHED1
 62
    7
 10
1052.7150000000001
 20
1212.6000000000001
 40
0.2999999999999998
 50
270.00000000000005
 51
0.0000000000000508
  0
ARC
  8
_1-1_
  6
DASHED1
 62
    7
 10
1051.5149999999998
 20
1225.8000000000001
 40
0.5
 50
90.000000000000028
 51
180.00000000000005
  0
ARC
  8
_1-1_
  6
DASHED1
 62
    7
 10
1052.5149999999996
 20
1225.8000000000001
 40
0.5
 50
0
 51
90.000000000000028
  0
LINE
  8
_1-1_
  6
DASHED1
 62
    7
 10
1039.5149999999998
 20
1243.9
 11
1039.5149999999998
 21
1235.5
  0
LINE
  8
_1-1_
  6
DASHED1
 62
    7
 10
660.51499999999975
 20
1243.9
 11
660.51499999999975
 21
1235.5
  0
LINE
  8
_1-1_
  6
DASHED1
 62
    7
 10
659.5150000000001
 20
1212.3000000000001
 11
636.51499999999998
 21
1212.3000000000001
  0
LINE
  8
_1-1_
  6
DASHED1
 62
    7
 10
648.01499999999975
 20
1229.3000000000001
 11
640.51499999999975
 21
1229.3000000000001
  0
LINE
  8
_1-1_
  6
DASHED1
 62
    7
 10
638.01499999999975
 20
1236.8000000000001
 11
638.01499999999975
 21
1231.2999999999999
  0
LINE
  8
_1-1_
  6
DASHED1
 62
    7
 10
639.5150000000001
 20
1230.8000000000001
 11
638.51499999999987
 21
1230.8000000000001
  0
LINE
  8
_1-1_
  6
DASHED1
 62
    7
 10
667.59500000000002
 20
1240.2500000000002
 11
667.61499999999955
 21
1240.2500000000002
  0
LINE
  8
_1-1_
  6
DASHED1
 62
    7
 10
630.51499999999975
 20
1222.6000000000001
 11
629.5150000000001
 21
1222.6000000000001
  0
LINE
  8
_1-1_
  6
DASHED1
 62
    7
 10
631.51499999999998
 20
1236.8000000000001
 11
639.01499999999998
 21
1236.8000000000001
  0
LINE
  8
_1-1_
  6
DASHED1
 62
    7
 10
630.51499999999975
 20
1235.8000000000001
 11
630.51499999999975
 21
1218.3000000000001
  0
LINE
  8
_1-1_
  6
DASHED1
 62
    7
 10
628.51499999999987
 20
1242.0000000000002
 11
628.51499999999987
 21
1223.6000000000001
  0
LINE
  8
_1-1_
  6
DASHED1
 62
    7
 10
640.01499999999964
 20
1242.0000000000002
 11
628.51499999999987
 21
1242.0000000000002
  0
LINE
  8
_1-1_
  6
DASHED1
 62
    7
 10
630.51499999999975
 20
1242.0000000000002
 11
630.51499999999975
 21
1237.8000000000001
  0
LINE
  8
_1-1_
  6
DASHED1
 62
    7
 10
640.01499999999964
 20
1242.0000000000002
 11
640.01499999999964
 21
1229.8000000000001
  0
LINE
  8
_1-1_
  6
DASHED1
 62
    7
 10
665.51499999999975
 20
1242.0000000000002
 11
665.51499999999975
 21
1218.3000000000001
  0
LINE
  8
_1-1_
  6
DASHED1
 62
    7
 10
656.01499999999987
 20
1242.0000000000002
 11
667.51499999999964
 21
1242.0000000000002
  0
LINE
  8
_1-1_
  6
DASHED1
 62
    7
 10
667.51499999999964
 20
1242.0000000000002
 11
667.51499999999964
 21
1223.6000000000001
  0
LINE
  8
_1-1_
  6
DASHED1
 62
    7
 10
665.51499999999975
 20
1222.6000000000001
 11
666.51499999999998
 21
1222.6000000000001
  0
LINE
  8
_1-1_
  6
DASHED1
 62
    7
 10
640.01499999999964
 20
1241.1000000000001
 11
656.01499999999987
 21
1241.1000000000001
  0
LINE
  8
_1-1_
  6
DASHED1
 62
    7
 10
656.01499999999987
 20
1242.0000000000002
 11
656.01499999999987
 21
1229.8000000000001
  0
LINE
  8
_1-1_
  6
DASHED1
 62
    7
 10
648.01499999999975
 20
1229.3000000000001
 11
655.51499999999975
 21
1229.3000000000001
  0
LINE
  8
_1-1_
  6
DASHED1
 62
    7
 10
664.5150000000001
 20
1236.8000000000001
 11
657.0150000000001
 21
1236.8000000000001
  0
LINE
  8
_1-1_
  6
DASHED1
 62
    7
 10
654.5150000000001
 20
1240.8000000000001
 11
641.51499999999998
 21
1240.8000000000001
  0
LINE
  8
_1-1_
  6
DASHED1
 62
    7
 10
645.01499999999964
 20
1236.8000000000001
 11
645.01499999999964
 21
1231.8000000000001
  0
LINE
  8
_1-1_
  6
DASHED1
 62
    7
 10
650.01499999999964
 20
1230.8000000000001
 11
646.01499999999987
 21
1230.8000000000001
  0
LINE
  8
_1-1_
  6
DASHED1
 62
    7
 10
651.01499999999987
 20
1236.8000000000001
 11
651.01499999999987
 21
1231.8000000000001
  0
LINE
  8
_1-1_
  6
DASHED1
 62
    7
 10
654.5150000000001
 20
1236.8000000000001
 11
651.01499999999987
 21
1236.8000000000001
  0
LINE
  8
_1-1_
  6
DASHED1
 62
    7
 10
645.01499999999964
 20
1236.8000000000001
 11
641.51499999999998
 21
1236.8000000000001
  0
LINE
  8
_1-1_
  6
DASHED1
 62
    7
 10
642.51499999999964
 20
1230.4038500000001
 11
642.31839999999976
 21
1230.8636000000001
  0
LINE
  8
_1-1_
  6
DASHED1
 62
    7
 10
653.51499999999987
 20
1230.4038500000001
 11
653.71159999999974
 21
1230.8636000000001
  0
LINE
  8
_1-1_
  6
DASHED1
 62
    7
 10
655.51499999999975
 20
1229.3000000000001
 11
655.51499999999975
 21
1239.8000000000001
  0
LINE
  8
_1-1_
  6
DASHED1
 62
    7
 10
640.51499999999975
 20
1229.3000000000001
 11
640.51499999999975
 21
1239.8000000000001
  0
LINE
  8
_1-1_
  6
DASHED1
 62
    7
 10
656.51499999999998
 20
1230.8000000000001
 11
657.51499999999964
 21
1230.8000000000001
  0
LINE
  8
_1-1_
  6
DASHED1
 62
    7
 10
658.01499999999975
 20
1236.8000000000001
 11
658.01499999999975
 21
1231.2999999999999
  0
LINE
  8
_1-1_
  6
DASHED1
 62
    7
 10
640.01499999999964
 20
1234.8000000000001
 11
640.51499999999975
 21
1234.8000000000001
  0
LINE
  8
_1-1_
  6
DASHED1
 62
    7
 10
640.01499999999964
 20
1233.8000000000001
 11
640.51499999999975
 21
1233.8000000000001
  0
LINE
  8
_1-1_
  6
DASHED1
 62
    7
 10
655.51499999999975
 20
1233.8000000000001
 11
656.01499999999987
 21
1233.8000000000001
  0
LINE
  8
_1-1_
  6
DASHED1
 62
    7
 10
655.51499999999975
 20
1234.8000000000001
 11
656.01499999999987
 21
1234.8000000000001
  0
LINE
  8
_1-1_
  6
DASHED1
 62
    7
 10
640.01499999999964
 20
1241.5000000000002
 11
656.01499999999987
 21
1241.5000000000002
  0
LINE
  8
_1-1_
  6
DASHED1
 62
    7
 10
648.01499999999975
 20
1212.3000000000001
 11
647.31499999999982
 21
1212.3000000000001
  0
LINE
  8
_1-1_
  6
DASHED1
 62
    7
 10
648.01499999999975
 20
1212.3000000000001
 11
648.71499999999969
 21
1212.3000000000001
  0
LINE
  8
_1-1_
  6
DASHED1
 62
    7
 10
647.51499999999964
 20
1226.2999999999999
 11
648.01499999999975
 21
1226.2999999999999
  0
LINE
  8
_1-1_
  6
DASHED1
 62
    7
 10
647.0150000000001
 20
1212.6000000000001
 11
647.0150000000001
 21
1225.8000000000001
  0
LINE
  8
_1-1_
  6
DASHED1
 62
    7
 10
649.01499999999998
 20
1212.6000000000001
 11
649.01499999999998
 21
1225.8000000000001
  0
LINE
  8
_1-1_
  6
DASHED1
 62
    7
 10
648.01499999999975
 20
1226.2999999999999
 11
648.51499999999987
 21
1226.2999999999999
  0
LINE
  8
_1-1_
  6
DASHED1
 62
    7
 10
648.01499999999975
 20
1242.6000000000001
 11
648.01499999999975
 21
1209.6000000000001
  0
ARC
  8
_1-1_
  6
DASHED1
 62
    7
 10
636.51499999999998
 20
1218.3000000000001
 40
6.0000000000000008
 50
180.00000000000005
 51
270.00000000000005
  0
ARC
  8
_1-1_
  6
DASHED1
 62
    7
 10
659.5150000000001
 20
1218.3000000000001
 40
6.0000000000000008
 50
270.00000000000005
 51
0.0000000000000508
  0
ARC
  8
_1-1_
  6
DASHED1
 62
    7
 10
639.01499999999998
 20
1237.8000000000001
 40
1
 50
270.00000000000005
 51
0.0000000000000508
  0
ARC
  8
_1-1_
  6
DASHED1
 62
    7
 10
631.51499999999998
 20
1237.8000000000001
 40
1
 50
180.00000000000005
 51
270.00000000000005
  0
ARC
  8
_1-1_
  6
DASHED1
 62
    7
 10
640.51499999999975
 20
1229.8000000000001
 40
0.5
 50
180.00000000000005
 51
270.00000000000005
  0
ARC
  8
_1-1_
  6
DASHED1
 62
    7
 10
639.5150000000001
 20
1231.2999999999999
 40
0.5
 50
270.00000000000005
 51
0.0000000000000508
  0
ARC
  8
_1-1_
  6
DASHED1
 62
    7
 10
638.51499999999987
 20
1231.2999999999999
 40
0.5
 50
180.00000000000005
 51
270.00000000000005
  0
ARC
  8
_1-1_
  6
DASHED1
 62
    7
 10
629.5150000000001
 20
1223.6000000000001
 40
1
 50
180.00000000000005
 51
270.00000000000005
  0
ARC
  8
_1-1_
  6
DASHED1
 62
    7
 10
631.51499999999998
 20
1235.8000000000001
 40
1
 50
90.000000000000028
 51
180.00000000000005
  0
ARC
  8
_1-1_
  6
DASHED1
 62
    7
 10
666.51499999999998
 20
1223.6000000000001
 40
1
 50
270.00000000000005
 51
0.0000000000000508
  0
ARC
  8
_1-1_
  6
DASHED1
 62
    7
 10
655.51499999999975
 20
1229.8000000000001
 40
0.5
 50
270.00000000000005
 51
0.0000000000000508
  0
ARC
  8
_1-1_
  6
DASHED1
 62
    7
 10
657.0150000000001
 20
1237.8000000000001
 40
1
 50
180.00000000000005
 51
270.00000000000005
  0
ARC
  8
_1-1_
  6
DASHED1
 62
    7
 10
664.5150000000001
 20
1237.8000000000001
 40
1
 50
270.00000000000005
 51
0.0000000000000508
  0
ARC
  8
_1-1_
  6
DASHED1
 62
    7
 10
641.51499999999998
 20
1239.8000000000001
 40
1
 50
90.000000000000028
 51
180.00000000000005
  0
ARC
  8
_1-1_
  6
DASHED1
 62
    7
 10
654.5150000000001
 20
1239.8000000000001
 40
1
 50
0
 51
90.000000000000028
  0
ARC
  8
_1-1_
  6
DASHED1
 62
    7
 10
641.51499999999998
 20
1237.8000000000001
 40
1
 50
180.00000000000005
 51
270.00000000000005
  0
ARC
  8
_1-1_
  6
DASHED1
 62
    7
 10
654.5150000000001
 20
1237.8000000000001
 40
1
 50
270.00000000000005
 51
0.0000000000000508
  0
ARC
  8
_1-1_
  6
DASHED1
 62
    7
 10
646.01499999999987
 20
1231.8000000000001
 40
1
 50
180.00000000000005
 51
270.00000000000005
  0
ARC
  8
_1-1_
  6
DASHED1
 62
    7
 10
650.01499999999964
 20
1231.8000000000001
 40
1
 50
270.00000000000005
 51
0.0000000000000508
  0
ARC
  8
_1-1_
  6
DASHED1
 62
    7
 10
656.51499999999998
 20
1231.2999999999999
 40
0.5
 50
180.00000000000005
 51
270.00000000000005
  0
ARC
  8
_1-1_
  6
DASHED1
 62
    7
 10
657.51499999999964
 20
1231.2999999999999
 40
0.5
 50
270.00000000000005
 51
0.0000000000000508
  0
ARC
  8
_1-1_
  6
DASHED1
 62
    7
 10
647.31499999999982
 20
1212.6000000000001
 40
0.2999999999999998
 50
180.00000000000005
 51
270.00000000000005
  0
ARC
  8
_1-1_
  6
DASHED1
 62
    7
 10
648.71499999999969
 20
1212.6000000000001
 40
0.2999999999999998
 50
270.00000000000005
 51
0.0000000000000508
  0
ARC
  8
_1-1_
  6
DASHED1
 62
    7
 10
647.51499999999964
 20
1225.8000000000001
 40
0.5
 50
90.000000000000028
 51
180.00000000000005
  0
ARC
  8
_1-1_
  6
DASHED1
 62
    7
 10
648.51499999999987
 20
1225.8000000000001
 40
0.5
 50
0
 51
90.000000000000028
  0
LINE
  8
_1-1_
  6
DASHED1
 62
    7
 10
635.51499999999975
 20
1243.9
 11
635.51499999999975
 21
1235.5
  0
LINE
  8
_1-1_
  6
DASHED1
 62
    7
 10
761.51499999999941
 20
1243.9
 11
761.51499999999941
 21
1235.5
  0
LINE
  8
_1-1_
  6
DASHED1
 62
    7
 10
760.51499999999975
 20
1212.3000000000001
 11
737.51499999999964
 21
1212.3000000000001
  0
LINE
  8
_1-1_
  6
DASHED1
 62
    7
 10
749.01499999999941
 20
1229.3000000000001
 11
741.51499999999941
 21
1229.3000000000001
  0
LINE
  8
_1-1_
  6
DASHED1
 62
    7
 10
739.01499999999941
 20
1236.8000000000001
 11
739.01499999999941
 21
1231.2999999999999
  0
LINE
  8
_1-1_
  6
DASHED1
 62
    7
 10
740.51499999999975
 20
1230.8000000000001
 11
739.51499999999953
 21
1230.8000000000001
  0
LINE
  8
_1-1_
  6
DASHED1
 62
    7
 10
768.59499999999968
 20
1240.2500000000002
 11
768.61499999999978
 21
1240.2500000000002
  0
LINE
  8
_1-1_
  6
DASHED1
 62
    7
 10
731.51499999999941
 20
1222.6000000000001
 11
730.51499999999975
 21
1222.6000000000001
  0
LINE
  8
_1-1_
  6
DASHED1
 62
    7
 10
732.51499999999964
 20
1236.8000000000001
 11
740.01499999999964
 21
1236.8000000000001
  0
LINE
  8
_1-1_
  6
DASHED1
 62
    7
 10
731.51499999999941
 20
1235.8000000000001
 11
731.51499999999941
 21
1218.3000000000001
  0
LINE
  8
_1-1_
  6
DASHED1
 62
    7
 10
729.51499999999953
 20
1242.0000000000002
 11
729.51499999999953
 21
1223.6000000000001
  0
LINE
  8
_1-1_
  6
DASHED1
 62
    7
 10
741.01499999999987
 20
1242.0000000000002
 11
729.51499999999953
 21
1242.0000000000002
  0
LINE
  8
_1-1_
  6
DASHED1
 62
    7
 10
731.51499999999941
 20
1242.0000000000002
 11
731.51499999999941
 21
1237.8000000000001
  0
LINE
  8
_1-1_
  6
DASHED1
 62
    7
 10
741.01499999999987
 20
1242.0000000000002
 11
741.01499999999987
 21
1229.8000000000001
  0
LINE
  8
_1-1_
  6
DASHED1
 62
    7
 10
766.51499999999941
 20
1242.0000000000002
 11
766.51499999999941
 21
1218.3000000000001
  0
LINE
  8
_1-1_
  6
DASHED1
 62
    7
 10
757.01499999999953
 20
1242.0000000000002
 11
768.51499999999987
 21
1242.0000000000002
  0
LINE
  8
_1-1_
  6
DASHED1
 62
    7
 10
768.51499999999987
 20
1242.0000000000002
 11
768.51499999999987
 21
1223.6000000000001
  0
LINE
  8
_1-1_
  6
DASHED1
 62
    7
 10
766.51499999999941
 20
1222.6000000000001
 11
767.51499999999964
 21
1222.6000000000001
  0
LINE
  8
_1-1_
  6
DASHED1
 62
    7
 10
741.01499999999987
 20
1241.1000000000001
 11
757.01499999999953
 21
1241.1000000000001
  0
LINE
  8
_1-1_
  6
DASHED1
 62
    7
 10
757.01499999999953
 20
1242.0000000000002
 11
757.01499999999953
 21
1229.8000000000001
  0
LINE
  8
_1-1_
  6
DASHED1
 62
    7
 10
749.01499999999941
 20
1229.3000000000001
 11
756.51499999999941
 21
1229.3000000000001
  0
LINE
  8
_1-1_
  6
DASHED1
 62
    7
 10
765.51499999999975
 20
1236.8000000000001
 11
758.01499999999975
 21
1236.8000000000001
  0
LINE
  8
_1-1_
  6
DASHED1
 62
    7
 10
755.51499999999975
 20
1240.8000000000001
 11
742.51499999999964
 21
1240.8000000000001
  0
LINE
  8
_1-1_
  6
DASHED1
 62
    7
 10
746.01499999999987
 20
1236.8000000000001
 11
746.01499999999987
 21
1231.8000000000001
  0
LINE
  8
_1-1_
  6
DASHED1
 62
    7
 10
751.01499999999987
 20
1230.8000000000001
 11
747.01499999999953
 21
1230.8000000000001
  0
LINE
  8
_1-1_
  6
DASHED1
 62
    7
 10
752.01499999999953
 20
1236.8000000000001
 11
752.01499999999953
 21
1231.8000000000001
  0
LINE
  8
_1-1_
  6
DASHED1
 62
    7
 10
755.51499999999975
 20
1236.8000000000001
 11
752.01499999999953
 21
1236.8000000000001
  0
LINE
  8
_1-1_
  6
DASHED1
 62
    7
 10
746.01499999999987
 20
1236.8000000000001
 11
742.51499999999964
 21
1236.8000000000001
  0
LINE
  8
_1-1_
  6
DASHED1
 62
    7
 10
743.51499999999987
 20
1230.4038500000001
 11
743.31839999999942
 21
1230.8636000000001
  0
LINE
  8
_1-1_
  6
DASHED1
 62
    7
 10
754.51499999999953
 20
1230.4038500000001
 11
754.7115999999994
 21
1230.8636000000001
  0
LINE
  8
_1-1_
  6
DASHED1
 62
    7
 10
756.51499999999941
 20
1229.3000000000001
 11
756.51499999999941
 21
1239.8000000000001
  0
LINE
  8
_1-1_
  6
DASHED1
 62
    7
 10
741.51499999999941
 20
1229.3000000000001
 11
741.51499999999941
 21
1239.8000000000001
  0
LINE
  8
_1-1_
  6
DASHED1
 62
    7
 10
757.51499999999964
 20
1230.8000000000001
 11
758.51499999999987
 21
1230.8000000000001
  0
LINE
  8
_1-1_
  6
DASHED1
 62
    7
 10
759.01499999999941
 20
1236.8000000000001
 11
759.01499999999941
 21
1231.2999999999999
  0
LINE
  8
_1-1_
  6
DASHED1
 62
    7
 10
741.01499999999987
 20
1234.8000000000001
 11
741.51499999999941
 21
1234.8000000000001
  0
LINE
  8
_1-1_
  6
DASHED1
 62
    7
 10
741.01499999999987
 20
1233.8000000000001
 11
741.51499999999941
 21
1233.8000000000001
  0
LINE
  8
_1-1_
  6
DASHED1
 62
    7
 10
756.51499999999941
 20
1233.8000000000001
 11
757.01499999999953
 21
1233.8000000000001
  0
LINE
  8
_1-1_
  6
DASHED1
 62
    7
 10
756.51499999999941
 20
1234.8000000000001
 11
757.01499999999953
 21
1234.8000000000001
  0
LINE
  8
_1-1_
  6
DASHED1
 62
    7
 10
741.01499999999987
 20
1241.5000000000002
 11
757.01499999999953
 21
1241.5000000000002
  0
LINE
  8
_1-1_
  6
DASHED1
 62
    7
 10
749.01499999999941
 20
1212.3000000000001
 11
748.31499999999948
 21
1212.3000000000001
  0
LINE
  8
_1-1_
  6
DASHED1
 62
    7
 10
749.01499999999941
 20
1212.3000000000001
 11
749.71499999999991
 21
1212.3000000000001
  0
LINE
  8
_1-1_
  6
DASHED1
 62
    7
 10
748.51499999999987
 20
1226.2999999999999
 11
749.01499999999941
 21
1226.2999999999999
  0
LINE
  8
_1-1_
  6
DASHED1
 62
    7
 10
748.01499999999975
 20
1212.6000000000001
 11
748.01499999999975
 21
1225.8000000000001
  0
LINE
  8
_1-1_
  6
DASHED1
 62
    7
 10
750.01499999999964
 20
1212.6000000000001
 11
750.01499999999964
 21
1225.8000000000001
  0
LINE
  8
_1-1_
  6
DASHED1
 62
    7
 10
749.01499999999941
 20
1226.2999999999999
 11
749.51499999999953
 21
1226.2999999999999
  0
LINE
  8
_1-1_
  6
DASHED1
 62
    7
 10
749.01499999999941
 20
1242.6000000000001
 11
749.01499999999941
 21
1209.6000000000001
  0
ARC
  8
_1-1_
  6
DASHED1
 62
    7
 10
737.51499999999964
 20
1218.3000000000001
 40
6.0000000000000008
 50
180.00000000000005
 51
270.00000000000005
  0
ARC
  8
_1-1_
  6
DASHED1
 62
    7
 10
760.51499999999975
 20
1218.3000000000001
 40
6.0000000000000008
 50
270.00000000000005
 51
0.0000000000000508
  0
ARC
  8
_1-1_
  6
DASHED1
 62
    7
 10
740.01499999999964
 20
1237.8000000000001
 40
1
 50
270.00000000000005
 51
0.0000000000000508
  0
ARC
  8
_1-1_
  6
DASHED1
 62
    7
 10
732.51499999999964
 20
1237.8000000000001
 40
1
 50
180.00000000000005
 51
270.00000000000005
  0
ARC
  8
_1-1_
  6
DASHED1
 62
    7
 10
741.51499999999941
 20
1229.8000000000001
 40
0.5
 50
180.00000000000005
 51
270.00000000000005
  0
ARC
  8
_1-1_
  6
DASHED1
 62
    7
 10
740.51499999999975
 20
1231.2999999999999
 40
0.5
 50
270.00000000000005
 51
0.0000000000000508
  0
ARC
  8
_1-1_
  6
DASHED1
 62
    7
 10
739.51499999999953
 20
1231.2999999999999
 40
0.5
 50
180.00000000000005
 51
270.00000000000005
  0
ARC
  8
_1-1_
  6
DASHED1
 62
    7
 10
730.51499999999975
 20
1223.6000000000001
 40
1
 50
180.00000000000005
 51
270.00000000000005
  0
ARC
  8
_1-1_
  6
DASHED1
 62
    7
 10
732.51499999999964
 20
1235.8000000000001
 40
1
 50
90.000000000000028
 51
180.00000000000005
  0
ARC
  8
_1-1_
  6
DASHED1
 62
    7
 10
767.51499999999964
 20
1223.6000000000001
 40
1
 50
270.00000000000005
 51
0.0000000000000508
  0
ARC
  8
_1-1_
  6
DASHED1
 62
    7
 10
756.51499999999941
 20
1229.8000000000001
 40
0.5
 50
270.00000000000005
 51
0.0000000000000508
  0
ARC
  8
_1-1_
  6
DASHED1
 62
    7
 10
758.01499999999975
 20
1237.8000000000001
 40
1
 50
180.00000000000005
 51
270.00000000000005
  0
ARC
  8
_1-1_
  6
DASHED1
 62
    7
 10
765.51499999999975
 20
1237.8000000000001
 40
1
 50
270.00000000000005
 51
0.0000000000000508
  0
ARC
  8
_1-1_
  6
DASHED1
 62
    7
 10
742.51499999999964
 20
1239.8000000000001
 40
1
 50
90.000000000000028
 51
180.00000000000005
  0
ARC
  8
_1-1_
  6
DASHED1
 62
    7
 10
755.51499999999975
 20
1239.8000000000001
 40
1
 50
0
 51
90.000000000000028
  0
ARC
  8
_1-1_
  6
DASHED1
 62
    7
 10
742.51499999999964
 20
1237.8000000000001
 40
1
 50
180.00000000000005
 51
270.00000000000005
  0
ARC
  8
_1-1_
  6
DASHED1
 62
    7
 10
755.51499999999975
 20
1237.8000000000001
 40
1
 50
270.00000000000005
 51
0.0000000000000508
  0
ARC
  8
_1-1_
  6
DASHED1
 62
    7
 10
747.01499999999953
 20
1231.8000000000001
 40
1
 50
180.00000000000005
 51
270.00000000000005
  0
ARC
  8
_1-1_
  6
DASHED1
 62
    7
 10
751.01499999999987
 20
1231.8000000000001
 40
1
 50
270.00000000000005
 51
0.0000000000000508
  0
ARC
  8
_1-1_
  6
DASHED1
 62
    7
 10
757.51499999999964
 20
1231.2999999999999
 40
0.5
 50
180.00000000000005
 51
270.00000000000005
  0
ARC
  8
_1-1_
  6
DASHED1
 62
    7
 10
758.51499999999987
 20
1231.2999999999999
 40
0.5
 50
270.00000000000005
 51
0.0000000000000508
  0
ARC
  8
_1-1_
  6
DASHED1
 62
    7
 10
748.31499999999948
 20
1212.6000000000001
 40
0.2999999999999998
 50
180.00000000000005
 51
270.00000000000005
  0
ARC
  8
_1-1_
  6
DASHED1
 62
    7
 10
749.71499999999991
 20
1212.6000000000001
 40
0.2999999999999998
 50
270.00000000000005
 51
0.0000000000000508
  0
ARC
  8
_1-1_
  6
DASHED1
 62
    7
 10
748.51499999999987
 20
1225.8000000000001
 40
0.5
 50
90.000000000000028
 51
180.00000000000005
  0
ARC
  8
_1-1_
  6
DASHED1
 62
    7
 10
749.51499999999953
 20
1225.8000000000001
 40
0.5
 50
0
 51
90.000000000000028
  0
LINE
  8
_1-1_
  6
DASHED1
 62
    7
 10
736.51499999999941
 20
1243.9
 11
736.51499999999941
 21
1235.5
  0
LINE
  8
_1-1_
  6
DASHED1
 62
    7
 10
1063.5150000000001
 20
2085.9999499999998
 11
1063.0149999999998
 21
2085.9999499999998
  0
LINE
  8
_1-1_
  6
DASHED1
 62
    7
 10
1040.5149999999998
 20
2085.9999499999998
 11
1041.0150000000001
 21
2085.9999499999998
  0
LINE
  8
_1-1_
  6
DASHED1
 62
    7
 10
1043.5150000000001
 20
2145.9999499999998
 11
1060.5149999999998
 21
2145.9999499999998
  0
LINE
  8
_1-1_
  6
DASHED1
 62
    7
 10
1044.0149999999998
 20
2110.9999499999998
 11
1060.0149999999998
 21
2110.9999499999998
  0
LINE
  8
_1-1_
  6
DASHED1
 62
    7
 10
1063.5150000000001
 20
2085.9999499999998
 11
1063.0149999999998
 21
2085.9999499999998
  0
LINE
  8
_1-1_
  6
DASHED1
 62
    7
 10
1069.5149999999998
 20
2112.9999499999998
 11
1070.5149999999998
 21
2112.9999499999998
  0
LINE
  8
_1-1_
  6
DASHED1
 62
    7
 10
1069.5149999999998
 20
2136.9999499999998
 11
1069.5149999999998
 21
2112.9999499999998
  0
LINE
  8
_1-1_
  6
DASHED1
 62
    7
 10
1034.5149999999998
 20
2112.9999499999998
 11
1033.5150000000001
 21
2112.9999499999998
  0
LINE
  8
_1-1_
  6
DASHED1
 62
    7
 10
1034.5149999999998
 20
2136.9999499999998
 11
1034.5149999999998
 21
2112.9999499999998
  0
LINE
  8
_1-1_
  6
DASHED1
 62
    7
 10
1033.1249999999997
 20
2115.9999499999998
 11
1040.5149999999998
 21
2115.9999499999998
  0
LINE
  8
_1-1_
  6
DASHED1
 62
    7
 10
1063.5150000000001
 20
2115.9999499999998
 11
1071.6149999999997
 21
2115.9999499999998
  0
LINE
  8
_1-1_
  6
DASHED1
 62
    7
 10
1042.0149999999998
 20
2110.9999499999998
 11
1042.0149999999998
 21
2108.1999500000001
  0
LINE
  8
_1-1_
  6
DASHED1
 62
    7
 10
1043.5150000000001
 20
2109.5999499999998
 11
1042.5149999999998
 21
2109.5999499999998
  0
LINE
  8
_1-1_
  6
DASHED1
 62
    7
 10
1060.5149999999998
 20
2109.5999499999998
 11
1061.5149999999998
 21
2109.5999499999998
  0
LINE
  8
_1-1_
  6
DASHED1
 62
    7
 10
1062.0149999999998
 20
2110.9999499999998
 11
1062.0149999999998
 21
2108.1999500000001
  0
LINE
  8
_1-1_
  6
DASHED1
 62
    7
 10
1060.0149999999998
 20
2110.9999499999998
 11
1060.0149999999998
 21
2088.9999499999998
  0
LINE
  8
_1-1_
  6
DASHED1
 62
    7
 10
1044.0149999999998
 20
2110.9999499999998
 11
1044.0149999999998
 21
2088.9999499999998
  0
LINE
  8
_1-1_
  6
DASHED1
 62
    7
 10
1049.7789500000001
 20
2084
 11
1054.2510499999998
 21
2084
  0
LINE
  8
_1-1_
  6
DASHED1
 62
    7
 10
1055.5149999999998
 20
2082
 11
1055.5149999999998
 21
2080
  0
LINE
  8
_1-1_
  6
DASHED1
 62
    7
 10
1048.5150000000001
 20
2082
 11
1048.5150000000001
 21
2080
  0
LINE
  8
_1-1_
  6
DASHED1
 62
    7
 10
1048.5150000000001
 20
2080
 11
1049.0149999999998
 21
2080
  0
LINE
  8
_1-1_
  6
DASHED1
 62
    7
 10
1055.0149999999998
 20
2080
 11
1055.5149999999998
 21
2080
  0
LINE
  8
_1-1_
  6
DASHED1
 62
    7
 10
1055.5149999999998
 20
2075
 11
1048.5150000000001
 21
2075
  0
LINE
  8
_1-1_
  6
DASHED1
 62
    7
 10
1055.5609499999995
 20
2075.0459499999997
 11
1055.5149999999998
 21
2075
  0
LINE
  8
_1-1_
  6
DASHED1
 62
    7
 10
1048.4690500000001
 20
2075.0459499999997
 11
1048.5150000000001
 21
2075
  0
LINE
  8
_1-1_
  6
DASHED1
 62
    7
 10
1055.0149999999998
 20
2082
 11
1055.0149999999998
 21
2075.9999999999995
  0
LINE
  8
_1-1_
  6
DASHED1
 62
    7
 10
1049.0149999999998
 20
2082
 11
1049.0149999999998
 21
2075.9999999999995
  0
LINE
  8
_1-1_
  6
DASHED1
 62
    7
 10
1049.0149999999998
 20
2080
 11
1055.0149999999998
 21
2080
  0
LINE
  8
_1-1_
  6
DASHED1
 62
    7
 10
1047.4439499999998
 20
2076.07105
 11
1048.4690500000001
 21
2075.0459499999997
  0
LINE
  8
_1-1_
  6
DASHED1
 62
    7
 10
1056.5860499999998
 20
2076.07105
 11
1055.5609499999995
 21
2075.0459499999997
  0
LINE
  8
_1-1_
  6
DASHED1
 62
    7
 10
1059.5149999999998
 20
2083.1421
 11
1059.5149999999998
 21
2110.9999499999998
  0
LINE
  8
_1-1_
  6
DASHED1
 62
    7
 10
1044.5149999999998
 20
2083.1421
 11
1044.5149999999998
 21
2110.9999499999998
  0
LINE
  8
_1-1_
  6
DASHED1
 62
    7
 10
1038.8395499999999
 20
2102.7625499999999
 11
1038.62805
 21
2103.0380500000001
  0
LINE
  8
_1-1_
  6
DASHED1
 62
    7
 10
1038.8395499999999
 20
2102.7625499999999
 11
1039.5149999999998
 21
2103.4999499999998
  0
LINE
  8
_1-1_
  6
DASHED1
 62
    7
 10
1038.62805
 20
2103.0380500000001
 11
1039.5149999999998
 21
2103.4999499999998
  0
LINE
  8
_1-1_
  6
DASHED1
 62
    7
 10
1060.0149999999998
 20
2110.9999499999998
 11
1069.2149999999996
 21
2110.9999499999998
  0
LINE
  8
_1-1_
  6
DASHED1
 62
    7
 10
1044.0149999999998
 20
2110.9999499999998
 11
1034.815
 21
2110.9999499999998
  0
LINE
  8
_1-1_
  6
DASHED1
 62
    7
 10
1053.0149999999998
 20
2110.9999499999998
 11
1053.0149999999998
 21
2101.5003500000002
  0
LINE
  8
_1-1_
  6
DASHED1
 62
    7
 10
1051.0150000000001
 20
2110.9999499999998
 11
1051.0150000000001
 21
2101.5003500000002
  0
LINE
  8
_1-1_
  6
DASHED1
 62
    7
 10
1051.5149999999998
 20
2101.0003499999997
 11
1052.5149999999998
 21
2101.0003499999997
  0
LINE
  8
_1-1_
  6
DASHED1
 62
    7
 10
1051.0150000000001
 20
2105.2199500000001
 11
1044.5149999999998
 21
2105.2199500000001
  0
LINE
  8
_1-1_
  6
DASHED1
 62
    7
 10
1059.5149999999998
 20
2105.2199500000001
 11
1053.0149999999998
 21
2105.2199500000001
  0
LINE
  8
_1-1_
  6
DASHED1
 62
    7
 10
1051.0150000000001
 20
2105.58995
 11
1049.9542499999997
 21
2105.58995
  0
LINE
  8
_1-1_
  6
DASHED1
 62
    7
 10
1047.5757499999999
 20
2105.58995
 11
1044.5149999999998
 21
2105.58995
  0
LINE
  8
_1-1_
  6
DASHED1
 62
    7
 10
1059.5149999999998
 20
2105.58995
 11
1056.4542499999997
 21
2105.58995
  0
LINE
  8
_1-1_
  6
DASHED1
 62
    7
 10
1054.0757499999997
 20
2105.58995
 11
1053.0149999999998
 21
2105.58995
  0
LINE
  8
_1-1_
  6
DASHED1
 62
    7
 10
1071.5149999999998
 20
2100.9999499999998
 11
1071.5149999999998
 21
2111.9999499999998
  0
LINE
  8
_1-1_
  6
DASHED1
 62
    7
 10
1069.5149999999998
 20
2099.9999500000003
 11
1070.5149999999998
 21
2099.9999500000003
  0
LINE
  8
_1-1_
  6
DASHED1
 62
    7
 10
1069.5149999999998
 20
2110.6999500000001
 11
1069.5149999999998
 21
2091.9999499999998
  0
LINE
  8
_1-1_
  6
DASHED1
 62
    7
 10
1032.5149999999998
 20
2100.9999499999998
 11
1032.5149999999998
 21
2111.9999499999998
  0
LINE
  8
_1-1_
  6
DASHED1
 62
    7
 10
1034.5149999999998
 20
2099.9999500000003
 11
1033.5150000000001
 21
2099.9999500000003
  0
LINE
  8
_1-1_
  6
DASHED1
 62
    7
 10
1034.5149999999998
 20
2110.6999500000001
 11
1034.5149999999998
 21
2091.9999499999998
  0
LINE
  8
_1-1_
  6
DASHED1
 62
    7
 10
1052.0149999999998
 20
2147.6999500000001
 11
1052.0149999999998
 21
2072.3999499999995
  0
LINE
  8
_1-1_
  6
DASHED1
 62
    7
 10
1033.3849999999997
 20
2128.4999499999998
 11
1072.4149999999999
 21
2128.4999499999998
  0
LINE
  8
_1-1_
  6
DASHED1
 62
    7
 10
1039.5149999999998
 20
2107.6499499999999
 11
1039.5149999999998
 21
2099.3999499999999
  0
LINE
  8
_1-1_
  6
DASHED1
 62
    7
 10
1042.7649999999998
 20
2103.4999499999998
 11
1036.2149999999999
 21
2103.4999499999998
  0
LINE
  8
_1-1_
  6
DASHED1
 62
    7
 10
1064.5149999999998
 20
2107.31995
 11
1064.5149999999998
 21
2099.5999499999998
  0
LINE
  8
_1-1_
  6
DASHED1
 62
    7
 10
1061.2449999999998
 20
2103.4999499999998
 11
1068.2549999999996
 21
2103.4999499999998
  0
LINE
  8
_1-1_
  6
DASHED1
 62
    7
 10
1055.5749999999998
 20
2077.5
 11
1048.3049999999998
 21
2077.5
  0
ARC
  8
_1-1_
  6
DASHED1
 62
    7
 10
1060.5149999999998
 20
2136.9999499999998
 40
9
 50
0.0000000000000254
 51
90.000000000000056
  0
ARC
  8
_1-1_
  6
DASHED1
 62
    7
 10
1063.5150000000001
 20
2091.9999499999998
 40
6.0000000000000008
 50
270
 51
0
  0
ARC
  8
_1-1_
  6
DASHED1
 62
    7
 10
1063.0149999999998
 20
2088.9999499999998
 40
3.0000000000000004
 50
180.00000000000005
 51
270.00000000000005
  0
ARC
  8
_1-1_
  6
DASHED1
 62
    7
 10
1043.5150000000001
 20
2136.9999499999998
 40
9
 50
90.000000000000056
 51
180.00000000000011
  0
ARC
  8
_1-1_
  6
DASHED1
 62
    7
 10
1040.5149999999998
 20
2091.9999499999998
 40
6.0000000000000008
 50
180.00000000000005
 51
270.00000000000005
  0
ARC
  8
_1-1_
  6
DASHED1
 62
    7
 10
1041.0150000000001
 20
2088.9999499999998
 40
3.0000000000000004
 50
270
 51
0
  0
CIRCLE
  8
_1-1_
  6
DASHED1
 62
    7
 10
1039.5149999999998
 20
2103.4999499999998
 40
1.8999999999999999
  0
CIRCLE
  8
_1-1_
  6
DASHED1
 62
    7
 10
1064.5149999999998
 20
2103.4999499999998
 40
1.8999999999999999
  0
ARC
  8
_1-1_
  6
DASHED1
 62
    7
 10
1070.5149999999998
 20
2111.9999499999998
 40
1
 50
0.0000000000000254
 51
90.000000000000056
  0
ARC
  8
_1-1_
  6
DASHED1
 62
    7
 10
1033.5150000000001
 20
2111.9999499999998
 40
1
 50
90.000000000000056
 51
180.00000000000011
  0
ARC
  8
_1-1_
  6
DASHED1
 62
    7
 10
1036.5149999999998
 20
2112.9999499999998
 40
2
 50
180.00000000000005
 51
270.00000000000005
  0
ARC
  8
_1-1_
  6
DASHED1
 62
    7
 10
1043.5150000000001
 20
2110.0999499999998
 40
0.5
 50
270
 51
0
  0
ARC
  8
_1-1_
  6
DASHED1
 62
    7
 10
1042.5149999999998
 20
2110.0999499999998
 40
0.5
 50
180.00000000000005
 51
270.00000000000005
  0
ARC
  8
_1-1_
  6
DASHED1
 62
    7
 10
1060.5149999999998
 20
2110.0999499999998
 40
0.5
 50
180.00000000000005
 51
270.00000000000005
  0
ARC
  8
_1-1_
  6
DASHED1
 62
    7
 10
1061.5149999999998
 20
2110.0999499999998
 40
0.5
 50
270
 51
0
  0
ARC
  8
_1-1_
  6
DASHED1
 62
    7
 10
1067.5149999999998
 20
2112.9999499999998
 40
2
 50
270
 51
0
  0
ARC
  8
_1-1_
  6
DASHED1
 62
    7
 10
1052.0149999999998
 20
2082
 40
3.5000000000000008
 50
90.000000000000056
 51
180.00000000000011
  0
ARC
  8
_1-1_
  6
DASHED1
 62
    7
 10
1052.0149999999998
 20
2082
 40
3.5000000000000008
 50
0.0000000000000254
 51
90.000000000000056
  0
ARC
  8
_1-1_
  6
DASHED1
 62
    7
 10
1052.0149999999998
 20
2082
 40
3.0000000000000004
 50
138.19000000000005
 51
180.00000000000011
  0
ARC
  8
_1-1_
  6
DASHED1
 62
    7
 10
1052.0149999999998
 20
2082
 40
3.0000000000000004
 50
0.0000000000000254
 51
41.810000000000023
  0
ARC
  8
_1-1_
  6
DASHED1
 62
    7
 10
1050.0149999999998
 20
2075.9999999999995
 40
1
 50
180.00000000000005
 51
270.00000000000005
  0
ARC
  8
_1-1_
  6
DASHED1
 62
    7
 10
1054.0149999999998
 20
2075.9999999999995
 40
1
 50
270
 51
0
  0
ARC
  8
_1-1_
  6
DASHED1
 62
    7
 10
1054.5149999999998
 20
2083.1421
 40
10
 50
180.00000000000005
 51
225.00000000000005
  0
ARC
  8
_1-1_
  6
DASHED1
 62
    7
 10
1049.5149999999998
 20
2083.1421
 40
10
 50
315
 51
0
  0
ARC
  8
_1-1_
  6
DASHED1
 62
    7
 10
1069.2149999999996
 20
2110.6999500000001
 40
0.2999999999999998
 50
0.0000000000000254
 51
90.000000000000056
  0
ARC
  8
_1-1_
  6
DASHED1
 62
    7
 10
1034.815
 20
2110.6999500000001
 40
0.2999999999999998
 50
90.000000000000056
 51
180.00000000000011
  0
ARC
  8
_1-1_
  6
DASHED1
 62
    7
 10
1052.5149999999998
 20
2101.5003500000002
 40
0.5
 50
270
 51
0
  0
ARC
  8
_1-1_
  6
DASHED1
 62
    7
 10
1051.5149999999998
 20
2101.5003500000002
 40
0.5
 50
180.00000000000005
 51
270.00000000000005
  0
ARC
  8
_1-1_
  6
DASHED1
 62
    7
 10
1070.5149999999998
 20
2100.9999499999998
 40
1
 50
270
 51
0
  0
ARC
  8
_1-1_
  6
DASHED1
 62
    7
 10
1033.5150000000001
 20
2100.9999499999998
 40
1
 50
180.00000000000005
 51
270.00000000000005
  0
CIRCLE
  8
_1-1_
  6
DASHED1
 62
    7
 10
1055.2649999999998
 20
2100.9999999999995
 40
2.3250000000000001
  0
CIRCLE
  8
_1-1_
  6
DASHED1
 62
    7
 10
1048.7649999999998
 20
2100.9999999999995
 40
2.3250000000000001
  0
CIRCLE
  8
_1-1_
  6
DASHED1
 62
    7
 10
1048.7649999999998
 20
2107.5
 40
2.3250000000000001
  0
CIRCLE
  8
_1-1_
  6
DASHED1
 62
    7
 10
1055.2649999999998
 20
2107.5
 40
2.3250000000000001
  0
CIRCLE
  8
_1-1_
  6
DASHED1
 62
    7
 10
1052.0149999999998
 20
2077.5
 40
1.25
  0
LINE
  8
_1-1_
  6
DASHED1
 62
    7
 10
659.51500000000032
 20
2085.9999500000003
 11
659.01500000000032
 21
2085.9999500000003
  0
LINE
  8
_1-1_
  6
DASHED1
 62
    7
 10
636.51500000000032
 20
2085.9999500000003
 11
637.01500000000032
 21
2085.9999500000003
  0
LINE
  8
_1-1_
  6
DASHED1
 62
    7
 10
639.51500000000032
 20
2145.9999500000003
 11
656.51500000000032
 21
2145.9999500000003
  0
LINE
  8
_1-1_
  6
DASHED1
 62
    7
 10
640.01500000000021
 20
2110.9999500000003
 11
656.01499999999987
 21
2110.9999500000003
  0
LINE
  8
_1-1_
  6
DASHED1
 62
    7
 10
659.51500000000032
 20
2085.9999500000003
 11
659.01500000000032
 21
2085.9999500000003
  0
LINE
  8
_1-1_
  6
DASHED1
 62
    7
 10
665.5150000000001
 20
2112.9999500000003
 11
666.51500000000032
 21
2112.9999500000003
  0
LINE
  8
_1-1_
  6
DASHED1
 62
    7
 10
665.5150000000001
 20
2136.9999499999998
 11
665.5150000000001
 21
2112.9999500000003
  0
LINE
  8
_1-1_
  6
DASHED1
 62
    7
 10
630.5150000000001
 20
2112.9999500000003
 11
629.51500000000032
 21
2112.9999500000003
  0
LINE
  8
_1-1_
  6
DASHED1
 62
    7
 10
630.5150000000001
 20
2136.9999499999998
 11
630.5150000000001
 21
2112.9999500000003
  0
LINE
  8
_1-1_
  6
DASHED1
 62
    7
 10
629.125
 20
2115.9999500000003
 11
636.51500000000032
 21
2115.9999500000003
  0
LINE
  8
_1-1_
  6
DASHED1
 62
    7
 10
659.51500000000032
 20
2115.9999500000003
 11
667.61500000000012
 21
2115.9999500000003
  0
LINE
  8
_1-1_
  6
DASHED1
 62
    7
 10
638.0150000000001
 20
2110.9999500000003
 11
638.0150000000001
 21
2108.1999500000001
  0
LINE
  8
_1-1_
  6
DASHED1
 62
    7
 10
639.51500000000032
 20
2109.5999499999998
 11
638.51499999999987
 21
2109.5999499999998
  0
LINE
  8
_1-1_
  6
DASHED1
 62
    7
 10
656.51500000000032
 20
2109.5999499999998
 11
657.51500000000021
 21
2109.5999499999998
  0
LINE
  8
_1-1_
  6
DASHED1
 62
    7
 10
658.0150000000001
 20
2110.9999500000003
 11
658.0150000000001
 21
2108.1999500000001
  0
LINE
  8
_1-1_
  6
DASHED1
 62
    7
 10
656.01499999999987
 20
2110.9999500000003
 11
656.01499999999987
 21
2088.9999499999998
  0
LINE
  8
_1-1_
  6
DASHED1
 62
    7
 10
640.01500000000021
 20
2110.9999500000003
 11
640.01500000000021
 21
2088.9999499999998
  0
LINE
  8
_1-1_
  6
DASHED1
 62
    7
 10
645.77895000000034
 20
2084.0000000000004
 11
650.2510500000003
 21
2084.0000000000004
  0
LINE
  8
_1-1_
  6
DASHED1
 62
    7
 10
651.51500000000032
 20
2082
 11
651.51500000000032
 21
2080
  0
LINE
  8
_1-1_
  6
DASHED1
 62
    7
 10
644.51500000000032
 20
2082
 11
644.51500000000032
 21
2080
  0
LINE
  8
_1-1_
  6
DASHED1
 62
    7
 10
644.51500000000032
 20
2080
 11
645.01500000000021
 21
2080
  0
LINE
  8
_1-1_
  6
DASHED1
 62
    7
 10
651.01499999999987
 20
2080
 11
651.51500000000032
 21
2080
  0
LINE
  8
_1-1_
  6
DASHED1
 62
    7
 10
651.51500000000032
 20
2075
 11
644.51500000000032
 21
2075
  0
LINE
  8
_1-1_
  6
DASHED1
 62
    7
 10
651.56095000000027
 20
2075.0459499999997
 11
651.51500000000032
 21
2075
  0
LINE
  8
_1-1_
  6
DASHED1
 62
    7
 10
644.46905000000015
 20
2075.0459499999997
 11
644.51500000000032
 21
2075
  0
LINE
  8
_1-1_
  6
DASHED1
 62
    7
 10
651.01499999999987
 20
2082
 11
651.01499999999987
 21
2076
  0
LINE
  8
_1-1_
  6
DASHED1
 62
    7
 10
645.01500000000021
 20
2082
 11
645.01500000000021
 21
2076
  0
LINE
  8
_1-1_
  6
DASHED1
 62
    7
 10
645.01500000000021
 20
2080
 11
651.01499999999987
 21
2080
  0
LINE
  8
_1-1_
  6
DASHED1
 62
    7
 10
643.44395000000019
 20
2076.07105
 11
644.46905000000015
 21
2075.0459499999997
  0
LINE
  8
_1-1_
  6
DASHED1
 62
    7
 10
652.58604999999988
 20
2076.07105
 11
651.56095000000027
 21
2075.0459499999997
  0
LINE
  8
_1-1_
  6
DASHED1
 62
    7
 10
655.5150000000001
 20
2083.1421
 11
655.5150000000001
 21
2110.9999500000003
  0
LINE
  8
_1-1_
  6
DASHED1
 62
    7
 10
640.5150000000001
 20
2083.1421
 11
640.5150000000001
 21
2110.9999500000003
  0
LINE
  8
_1-1_
  6
DASHED1
 62
    7
 10
634.83955000000014
 20
2102.7625499999999
 11
634.62805000000025
 21
2103.0380500000001
  0
LINE
  8
_1-1_
  6
DASHED1
 62
    7
 10
634.83955000000014
 20
2102.7625499999999
 11
635.5150000000001
 21
2103.4999500000003
  0
LINE
  8
_1-1_
  6
DASHED1
 62
    7
 10
634.62805000000025
 20
2103.0380500000001
 11
635.5150000000001
 21
2103.4999500000003
  0
LINE
  8
_1-1_
  6
DASHED1
 62
    7
 10
656.01499999999987
 20
2110.9999500000003
 11
665.21500000000003
 21
2110.9999500000003
  0
LINE
  8
_1-1_
  6
DASHED1
 62
    7
 10
640.01500000000021
 20
2110.9999500000003
 11
630.81500000000005
 21
2110.9999500000003
  0
LINE
  8
_1-1_
  6
DASHED1
 62
    7
 10
649.01500000000032
 20
2110.9999500000003
 11
649.01500000000032
 21
2101.5003500000002
  0
LINE
  8
_1-1_
  6
DASHED1
 62
    7
 10
647.01500000000032
 20
2110.9999500000003
 11
647.01500000000032
 21
2101.5003500000002
  0
LINE
  8
_1-1_
  6
DASHED1
 62
    7
 10
647.51500000000021
 20
2101.0003499999997
 11
648.51499999999987
 21
2101.0003499999997
  0
LINE
  8
_1-1_
  6
DASHED1
 62
    7
 10
647.01500000000032
 20
2105.2199500000001
 11
640.5150000000001
 21
2105.2199500000001
  0
LINE
  8
_1-1_
  6
DASHED1
 62
    7
 10
655.5150000000001
 20
2105.2199500000001
 11
649.01500000000032
 21
2105.2199500000001
  0
LINE
  8
_1-1_
  6
DASHED1
 62
    7
 10
647.01500000000032
 20
2105.5899500000004
 11
645.95424999999977
 21
2105.5899500000004
  0
LINE
  8
_1-1_
  6
DASHED1
 62
    7
 10
643.57574999999997
 20
2105.5899500000004
 11
640.5150000000001
 21
2105.5899500000004
  0
LINE
  8
_1-1_
  6
DASHED1
 62
    7
 10
655.5150000000001
 20
2105.5899500000004
 11
652.45425000000011
 21
2105.5899500000004
  0
LINE
  8
_1-1_
  6
DASHED1
 62
    7
 10
650.07574999999997
 20
2105.5899500000004
 11
649.01500000000032
 21
2105.5899500000004
  0
LINE
  8
_1-1_
  6
DASHED1
 62
    7
 10
667.51500000000021
 20
2100.9999500000003
 11
667.51500000000021
 21
2111.9999499999998
  0
LINE
  8
_1-1_
  6
DASHED1
 62
    7
 10
665.5150000000001
 20
2099.9999500000003
 11
666.51500000000032
 21
2099.9999500000003
  0
LINE
  8
_1-1_
  6
DASHED1
 62
    7
 10
665.5150000000001
 20
2110.6999500000001
 11
665.5150000000001
 21
2091.9999499999998
  0
LINE
  8
_1-1_
  6
DASHED1
 62
    7
 10
628.51499999999987
 20
2100.9999500000003
 11
628.51499999999987
 21
2111.9999499999998
  0
LINE
  8
_1-1_
  6
DASHED1
 62
    7
 10
630.5150000000001
 20
2099.9999500000003
 11
629.51500000000032
 21
2099.9999500000003
  0
LINE
  8
_1-1_
  6
DASHED1
 62
    7
 10
630.5150000000001
 20
2110.6999500000001
 11
630.5150000000001
 21
2091.9999499999998
  0
LINE
  8
_1-1_
  6
DASHED1
 62
    7
 10
648.0150000000001
 20
2147.6999500000001
 11
648.0150000000001
 21
2072.3999499999999
  0
LINE
  8
_1-1_
  6
DASHED1
 62
    7
 10
629.38499999999976
 20
2128.4999500000003
 11
668.41499999999996
 21
2128.4999500000003
  0
LINE
  8
_1-1_
  6
DASHED1
 62
    7
 10
635.5150000000001
 20
2107.6499499999999
 11
635.5150000000001
 21
2099.3999499999999
  0
LINE
  8
_1-1_
  6
DASHED1
 62
    7
 10
638.76500000000021
 20
2103.4999500000003
 11
632.21500000000014
 21
2103.4999500000003
  0
LINE
  8
_1-1_
  6
DASHED1
 62
    7
 10
660.5150000000001
 20
2107.3199500000005
 11
660.5150000000001
 21
2099.5999499999998
  0
LINE
  8
_1-1_
  6
DASHED1
 62
    7
 10
657.24500000000011
 20
2103.4999500000003
 11
664.25500000000033
 21
2103.4999500000003
  0
LINE
  8
_1-1_
  6
DASHED1
 62
    7
 10
651.57500000000004
 20
2077.5
 11
644.30500000000029
 21
2077.5
  0
ARC
  8
_1-1_
  6
DASHED1
 62
    7
 10
656.51500000000032
 20
2136.9999499999998
 40
9
 50
0.0000000000000254
 51
90.000000000000056
  0
ARC
  8
_1-1_
  6
DASHED1
 62
    7
 10
659.51500000000032
 20
2091.9999499999998
 40
6.0000000000000008
 50
270
 51
0
  0
ARC
  8
_1-1_
  6
DASHED1
 62
    7
 10
659.01500000000032
 20
2088.9999499999998
 40
3.0000000000000004
 50
180.00000000000005
 51
270.00000000000005
  0
ARC
  8
_1-1_
  6
DASHED1
 62
    7
 10
639.51500000000032
 20
2136.9999499999998
 40
9
 50
90.000000000000056
 51
180.00000000000011
  0
ARC
  8
_1-1_
  6
DASHED1
 62
    7
 10
636.51500000000032
 20
2091.9999499999998
 40
6.0000000000000008
 50
180.00000000000005
 51
270.00000000000005
  0
ARC
  8
_1-1_
  6
DASHED1
 62
    7
 10
637.01500000000032
 20
2088.9999499999998
 40
3.0000000000000004
 50
270
 51
0
  0
CIRCLE
  8
_1-1_
  6
DASHED1
 62
    7
 10
635.5150000000001
 20
2103.4999500000003
 40
1.8999999999999999
  0
CIRCLE
  8
_1-1_
  6
DASHED1
 62
    7
 10
660.5150000000001
 20
2103.4999500000003
 40
1.8999999999999999
  0
ARC
  8
_1-1_
  6
DASHED1
 62
    7
 10
666.51500000000032
 20
2111.9999499999998
 40
1
 50
0.0000000000000254
 51
90.000000000000056
  0
ARC
  8
_1-1_
  6
DASHED1
 62
    7
 10
629.51500000000032
 20
2111.9999499999998
 40
1
 50
90.000000000000056
 51
180.00000000000011
  0
ARC
  8
_1-1_
  6
DASHED1
 62
    7
 10
632.51500000000021
 20
2112.9999500000003
 40
2
 50
180.00000000000005
 51
270.00000000000005
  0
ARC
  8
_1-1_
  6
DASHED1
 62
    7
 10
639.51500000000032
 20
2110.0999499999998
 40
0.5
 50
270
 51
0
  0
ARC
  8
_1-1_
  6
DASHED1
 62
    7
 10
638.51499999999987
 20
2110.0999499999998
 40
0.5
 50
180.00000000000005
 51
270.00000000000005
  0
ARC
  8
_1-1_
  6
DASHED1
 62
    7
 10
656.51500000000032
 20
2110.0999499999998
 40
0.5
 50
180.00000000000005
 51
270.00000000000005
  0
ARC
  8
_1-1_
  6
DASHED1
 62
    7
 10
657.51500000000021
 20
2110.0999499999998
 40
0.5
 50
270
 51
0
  0
ARC
  8
_1-1_
  6
DASHED1
 62
    7
 10
663.51499999999987
 20
2112.9999500000003
 40
2
 50
270
 51
0
  0
ARC
  8
_1-1_
  6
DASHED1
 62
    7
 10
648.0150000000001
 20
2082
 40
3.5000000000000008
 50
90.000000000000056
 51
180.00000000000011
  0
ARC
  8
_1-1_
  6
DASHED1
 62
    7
 10
648.0150000000001
 20
2082
 40
3.5000000000000008
 50
0.0000000000000254
 51
90.000000000000056
  0
ARC
  8
_1-1_
  6
DASHED1
 62
    7
 10
648.0150000000001
 20
2082
 40
3.0000000000000004
 50
138.19000000000005
 51
180.00000000000011
  0
ARC
  8
_1-1_
  6
DASHED1
 62
    7
 10
648.0150000000001
 20
2082
 40
3.0000000000000004
 50
0.0000000000000254
 51
41.810000000000023
  0
ARC
  8
_1-1_
  6
DASHED1
 62
    7
 10
646.01499999999987
 20
2076
 40
1
 50
180.00000000000005
 51
270.00000000000005
  0
ARC
  8
_1-1_
  6
DASHED1
 62
    7
 10
650.01500000000021
 20
2076
 40
1
 50
270
 51
0
  0
ARC
  8
_1-1_
  6
DASHED1
 62
    7
 10
650.5150000000001
 20
2083.1421
 40
10
 50
180.00000000000005
 51
225.00000000000005
  0
ARC
  8
_1-1_
  6
DASHED1
 62
    7
 10
645.5150000000001
 20
2083.1421
 40
10
 50
315
 51
0
  0
ARC
  8
_1-1_
  6
DASHED1
 62
    7
 10
665.21500000000003
 20
2110.6999500000001
 40
0.2999999999999998
 50
0.0000000000000254
 51
90.000000000000056
  0
ARC
  8
_1-1_
  6
DASHED1
 62
    7
 10
630.81500000000005
 20
2110.6999500000001
 40
0.2999999999999998
 50
90.000000000000056
 51
180.00000000000011
  0
ARC
  8
_1-1_
  6
DASHED1
 62
    7
 10
648.51499999999987
 20
2101.5003500000002
 40
0.5
 50
270
 51
0
  0
ARC
  8
_1-1_
  6
DASHED1
 62
    7
 10
647.51500000000021
 20
2101.5003500000002
 40
0.5
 50
180.00000000000005
 51
270.00000000000005
  0
ARC
  8
_1-1_
  6
DASHED1
 62
    7
 10
666.51500000000032
 20
2100.9999500000003
 40
1
 50
270
 51
0
  0
ARC
  8
_1-1_
  6
DASHED1
 62
    7
 10
629.51500000000032
 20
2100.9999500000003
 40
1
 50
180.00000000000005
 51
270.00000000000005
  0
CIRCLE
  8
_1-1_
  6
DASHED1
 62
    7
 10
651.26500000000021
 20
2101
 40
2.3250000000000001
  0
CIRCLE
  8
_1-1_
  6
DASHED1
 62
    7
 10
644.76499999999987
 20
2101
 40
2.3250000000000001
  0
CIRCLE
  8
_1-1_
  6
DASHED1
 62
    7
 10
644.76499999999987
 20
2107.5
 40
2.3250000000000001
  0
CIRCLE
  8
_1-1_
  6
DASHED1
 62
    7
 10
651.26500000000021
 20
2107.5
 40
2.3250000000000001
  0
CIRCLE
  8
_1-1_
  6
DASHED1
 62
    7
 10
648.0150000000001
 20
2077.5
 40
1.25
  0
LINE
  8
_1-1_
  6
DASHED1
 62
    7
 10
760.5150000000001
 20
2085.9999500000003
 11
760.01499999999987
 21
2085.9999500000003
  0
LINE
  8
_1-1_
  6
DASHED1
 62
    7
 10
737.51499999999987
 20
2085.9999500000003
 11
738.0150000000001
 21
2085.9999500000003
  0
LINE
  8
_1-1_
  6
DASHED1
 62
    7
 10
740.5150000000001
 20
2145.9999500000003
 11
757.51499999999987
 21
2145.9999500000003
  0
LINE
  8
_1-1_
  6
DASHED1
 62
    7
 10
741.01499999999987
 20
2110.9999500000003
 11
757.01499999999987
 21
2110.9999500000003
  0
LINE
  8
_1-1_
  6
DASHED1
 62
    7
 10
760.5150000000001
 20
2085.9999500000003
 11
760.01499999999987
 21
2085.9999500000003
  0
LINE
  8
_1-1_
  6
DASHED1
 62
    7
 10
766.51499999999998
 20
2112.9999500000003
 11
767.51499999999987
 21
2112.9999500000003
  0
LINE
  8
_1-1_
  6
DASHED1
 62
    7
 10
766.51499999999998
 20
2136.9999499999998
 11
766.51499999999998
 21
2112.9999500000003
  0
LINE
  8
_1-1_
  6
DASHED1
 62
    7
 10
731.51499999999998
 20
2112.9999500000003
 11
730.5150000000001
 21
2112.9999500000003
  0
LINE
  8
_1-1_
  6
DASHED1
 62
    7
 10
731.51499999999998
 20
2136.9999499999998
 11
731.51499999999998
 21
2112.9999500000003
  0
LINE
  8
_1-1_
  6
DASHED1
 62
    7
 10
730.12499999999988
 20
2115.9999500000003
 11
737.51499999999987
 21
2115.9999500000003
  0
LINE
  8
_1-1_
  6
DASHED1
 62
    7
 10
760.5150000000001
 20
2115.9999500000003
 11
768.61499999999978
 21
2115.9999500000003
  0
LINE
  8
_1-1_
  6
DASHED1
 62
    7
 10
739.01499999999998
 20
2110.9999500000003
 11
739.01499999999998
 21
2108.1999500000001
  0
LINE
  8
_1-1_
  6
DASHED1
 62
    7
 10
740.5150000000001
 20
2109.5999499999998
 11
739.51499999999987
 21
2109.5999499999998
  0
LINE
  8
_1-1_
  6
DASHED1
 62
    7
 10
757.51499999999987
 20
2109.5999499999998
 11
758.51499999999987
 21
2109.5999499999998
  0
LINE
  8
_1-1_
  6
DASHED1
 62
    7
 10
759.01499999999998
 20
2110.9999500000003
 11
759.01499999999998
 21
2108.1999500000001
  0
LINE
  8
_1-1_
  6
DASHED1
 62
    7
 10
757.01499999999987
 20
2110.9999500000003
 11
757.01499999999987
 21
2088.9999499999998
  0
LINE
  8
_1-1_
  6
DASHED1
 62
    7
 10
741.01499999999987
 20
2110.9999500000003
 11
741.01499999999987
 21
2088.9999499999998
  0
LINE
  8
_1-1_
  6
DASHED1
 62
    7
 10
746.77895000000012
 20
2084.0000000000004
 11
751.25104999999985
 21
2084.0000000000004
  0
LINE
  8
_1-1_
  6
DASHED1
 62
    7
 10
752.51499999999987
 20
2082
 11
752.51499999999987
 21
2080
  0
LINE
  8
_1-1_
  6
DASHED1
 62
    7
 10
745.5150000000001
 20
2082
 11
745.5150000000001
 21
2080
  0
LINE
  8
_1-1_
  6
DASHED1
 62
    7
 10
745.5150000000001
 20
2080
 11
746.01499999999987
 21
2080
  0
LINE
  8
_1-1_
  6
DASHED1
 62
    7
 10
752.01499999999987
 20
2080
 11
752.51499999999987
 21
2080
  0
LINE
  8
_1-1_
  6
DASHED1
 62
    7
 10
752.51499999999987
 20
2075
 11
745.5150000000001
 21
2075
  0
LINE
  8
_1-1_
  6
DASHED1
 62
    7
 10
752.56094999999959
 20
2075.0459499999997
 11
752.51499999999987
 21
2075
  0
LINE
  8
_1-1_
  6
DASHED1
 62
    7
 10
745.46905000000015
 20
2075.0459499999997
 11
745.5150000000001
 21
2075
  0
LINE
  8
_1-1_
  6
DASHED1
 62
    7
 10
752.01499999999987
 20
2082
 11
752.01499999999987
 21
2076
  0
LINE
  8
_1-1_
  6
DASHED1
 62
    7
 10
746.01499999999987
 20
2082
 11
746.01499999999987
 21
2076
  0
LINE
  8
_1-1_
  6
DASHED1
 62
    7
 10
746.01499999999987
 20
2080
 11
752.01499999999987
 21
2080
  0
LINE
  8
_1-1_
  6
DASHED1
 62
    7
 10
744.44394999999985
 20
2076.07105
 11
745.46905000000015
 21
2075.0459499999997
  0
LINE
  8
_1-1_
  6
DASHED1
 62
    7
 10
753.58604999999988
 20
2076.07105
 11
752.56094999999959
 21
2075.0459499999997
  0
LINE
  8
_1-1_
  6
DASHED1
 62
    7
 10
756.51499999999998
 20
2083.1421
 11
756.51499999999998
 21
2110.9999500000003
  0
LINE
  8
_1-1_
  6
DASHED1
 62
    7
 10
741.51499999999998
 20
2083.1421
 11
741.51499999999998
 21
2110.9999500000003
  0
LINE
  8
_1-1_
  6
DASHED1
 62
    7
 10
735.83955000000003
 20
2102.7625499999999
 11
735.62805000000003
 21
2103.0380500000001
  0
LINE
  8
_1-1_
  6
DASHED1
 62
    7
 10
735.83955000000003
 20
2102.7625499999999
 11
736.51499999999998
 21
2103.4999500000003
  0
LINE
  8
_1-1_
  6
DASHED1
 62
    7
 10
735.62805000000003
 20
2103.0380500000001
 11
736.51499999999998
 21
2103.4999500000003
  0
LINE
  8
_1-1_
  6
DASHED1
 62
    7
 10
757.01499999999987
 20
2110.9999500000003
 11
766.21499999999969
 21
2110.9999500000003
  0
LINE
  8
_1-1_
  6
DASHED1
 62
    7
 10
741.01499999999987
 20
2110.9999500000003
 11
731.81500000000005
 21
2110.9999500000003
  0
LINE
  8
_1-1_
  6
DASHED1
 62
    7
 10
750.01499999999987
 20
2110.9999500000003
 11
750.01499999999987
 21
2101.5003500000002
  0
LINE
  8
_1-1_
  6
DASHED1
 62
    7
 10
748.0150000000001
 20
2110.9999500000003
 11
748.0150000000001
 21
2101.5003500000002
  0
LINE
  8
_1-1_
  6
DASHED1
 62
    7
 10
748.51499999999987
 20
2101.0003499999997
 11
749.51499999999987
 21
2101.0003499999997
  0
LINE
  8
_1-1_
  6
DASHED1
 62
    7
 10
748.0150000000001
 20
2105.2199500000001
 11
741.51499999999998
 21
2105.2199500000001
  0
LINE
  8
_1-1_
  6
DASHED1
 62
    7
 10
756.51499999999998
 20
2105.2199500000001
 11
750.01499999999987
 21
2105.2199500000001
  0
LINE
  8
_1-1_
  6
DASHED1
 62
    7
 10
748.0150000000001
 20
2105.5899500000004
 11
746.95424999999977
 21
2105.5899500000004
  0
LINE
  8
_1-1_
  6
DASHED1
 62
    7
 10
744.57574999999997
 20
2105.5899500000004
 11
741.51499999999998
 21
2105.5899500000004
  0
LINE
  8
_1-1_
  6
DASHED1
 62
    7
 10
756.51499999999998
 20
2105.5899500000004
 11
753.45424999999977
 21
2105.5899500000004
  0
LINE
  8
_1-1_
  6
DASHED1
 62
    7
 10
751.07574999999974
 20
2105.5899500000004
 11
750.01499999999987
 21
2105.5899500000004
  0
LINE
  8
_1-1_
  6
DASHED1
 62
    7
 10
768.51499999999987
 20
2100.9999500000003
 11
768.51499999999987
 21
2111.9999499999998
  0
LINE
  8
_1-1_
  6
DASHED1
 62
    7
 10
766.51499999999998
 20
2099.9999500000003
 11
767.51499999999987
 21
2099.9999500000003
  0
LINE
  8
_1-1_
  6
DASHED1
 62
    7
 10
766.51499999999998
 20
2110.6999500000001
 11
766.51499999999998
 21
2091.9999499999998
  0
LINE
  8
_1-1_
  6
DASHED1
 62
    7
 10
729.51499999999987
 20
2100.9999500000003
 11
729.51499999999987
 21
2111.9999499999998
  0
LINE
  8
_1-1_
  6
DASHED1
 62
    7
 10
731.51499999999998
 20
2099.9999500000003
 11
730.5150000000001
 21
2099.9999500000003
  0
LINE
  8
_1-1_
  6
DASHED1
 62
    7
 10
731.51499999999998
 20
2110.6999500000001
 11
731.51499999999998
 21
2091.9999499999998
  0
LINE
  8
_1-1_
  6
DASHED1
 62
    7
 10
749.01499999999998
 20
2147.6999500000001
 11
749.01499999999998
 21
2072.3999499999999
  0
LINE
  8
_1-1_
  6
DASHED1
 62
    7
 10
730.38499999999976
 20
2128.4999500000003
 11
769.41499999999996
 21
2128.4999500000003
  0
LINE
  8
_1-1_
  6
DASHED1
 62
    7
 10
736.51499999999998
 20
2107.6499499999999
 11
736.51499999999998
 21
2099.3999499999999
  0
LINE
  8
_1-1_
  6
DASHED1
 62
    7
 10
739.76499999999987
 20
2103.4999500000003
 11
733.21499999999991
 21
2103.4999500000003
  0
LINE
  8
_1-1_
  6
DASHED1
 62
    7
 10
761.51499999999998
 20
2107.3199500000005
 11
761.51499999999998
 21
2099.5999499999998
  0
LINE
  8
_1-1_
  6
DASHED1
 62
    7
 10
758.245
 20
2103.4999500000003
 11
765.25499999999965
 21
2103.4999500000003
  0
LINE
  8
_1-1_
  6
DASHED1
 62
    7
 10
752.57499999999993
 20
2077.5
 11
745.30499999999983
 21
2077.5
  0
ARC
  8
_1-1_
  6
DASHED1
 62
    7
 10
757.51499999999987
 20
2136.9999499999998
 40
9
 50
0.0000000000000254
 51
90.000000000000056
  0
ARC
  8
_1-1_
  6
DASHED1
 62
    7
 10
760.5150000000001
 20
2091.9999499999998
 40
6.0000000000000008
 50
270
 51
0
  0
ARC
  8
_1-1_
  6
DASHED1
 62
    7
 10
760.01499999999987
 20
2088.9999499999998
 40
3.0000000000000004
 50
180.00000000000005
 51
270.00000000000005
  0
ARC
  8
_1-1_
  6
DASHED1
 62
    7
 10
740.5150000000001
 20
2136.9999499999998
 40
9
 50
90.000000000000056
 51
180.00000000000011
  0
ARC
  8
_1-1_
  6
DASHED1
 62
    7
 10
737.51499999999987
 20
2091.9999499999998
 40
6.0000000000000008
 50
180.00000000000005
 51
270.00000000000005
  0
ARC
  8
_1-1_
  6
DASHED1
 62
    7
 10
738.0150000000001
 20
2088.9999499999998
 40
3.0000000000000004
 50
270
 51
0
  0
CIRCLE
  8
_1-1_
  6
DASHED1
 62
    7
 10
736.51499999999998
 20
2103.4999500000003
 40
1.8999999999999999
  0
CIRCLE
  8
_1-1_
  6
DASHED1
 62
    7
 10
761.51499999999998
 20
2103.4999500000003
 40
1.8999999999999999
  0
ARC
  8
_1-1_
  6
DASHED1
 62
    7
 10
767.51499999999987
 20
2111.9999499999998
 40
1
 50
0.0000000000000254
 51
90.000000000000056
  0
ARC
  8
_1-1_
  6
DASHED1
 62
    7
 10
730.5150000000001
 20
2111.9999499999998
 40
1
 50
90.000000000000056
 51
180.00000000000011
  0
ARC
  8
_1-1_
  6
DASHED1
 62
    7
 10
733.51499999999987
 20
2112.9999500000003
 40
2
 50
180.00000000000005
 51
270.00000000000005
  0
ARC
  8
_1-1_
  6
DASHED1
 62
    7
 10
740.5150000000001
 20
2110.0999499999998
 40
0.5
 50
270
 51
0
  0
ARC
  8
_1-1_
  6
DASHED1
 62
    7
 10
739.51499999999987
 20
2110.0999499999998
 40
0.5
 50
180.00000000000005
 51
270.00000000000005
  0
ARC
  8
_1-1_
  6
DASHED1
 62
    7
 10
757.51499999999987
 20
2110.0999499999998
 40
0.5
 50
180.00000000000005
 51
270.00000000000005
  0
ARC
  8
_1-1_
  6
DASHED1
 62
    7
 10
758.51499999999987
 20
2110.0999499999998
 40
0.5
 50
270
 51
0
  0
ARC
  8
_1-1_
  6
DASHED1
 62
    7
 10
764.51499999999987
 20
2112.9999500000003
 40
2
 50
270
 51
0
  0
ARC
  8
_1-1_
  6
DASHED1
 62
    7
 10
749.01499999999998
 20
2082
 40
3.5000000000000008
 50
90.000000000000056
 51
180.00000000000011
  0
ARC
  8
_1-1_
  6
DASHED1
 62
    7
 10
749.01499999999998
 20
2082
 40
3.5000000000000008
 50
0.0000000000000254
 51
90.000000000000056
  0
ARC
  8
_1-1_
  6
DASHED1
 62
    7
 10
749.01499999999998
 20
2082
 40
3.0000000000000004
 50
138.19000000000005
 51
180.00000000000011
  0
ARC
  8
_1-1_
  6
DASHED1
 62
    7
 10
749.01499999999998
 20
2082
 40
3.0000000000000004
 50
0.0000000000000254
 51
41.810000000000023
  0
ARC
  8
_1-1_
  6
DASHED1
 62
    7
 10
747.01499999999987
 20
2076
 40
1
 50
180.00000000000005
 51
270.00000000000005
  0
ARC
  8
_1-1_
  6
DASHED1
 62
    7
 10
751.01499999999987
 20
2076
 40
1
 50
270
 51
0
  0
ARC
  8
_1-1_
  6
DASHED1
 62
    7
 10
751.51499999999998
 20
2083.1421
 40
10
 50
180.00000000000005
 51
225.00000000000005
  0
ARC
  8
_1-1_
  6
DASHED1
 62
    7
 10
746.51499999999998
 20
2083.1421
 40
10
 50
315
 51
0
  0
ARC
  8
_1-1_
  6
DASHED1
 62
    7
 10
766.21499999999969
 20
2110.6999500000001
 40
0.2999999999999998
 50
0.0000000000000254
 51
90.000000000000056
  0
ARC
  8
_1-1_
  6
DASHED1
 62
    7
 10
731.81500000000005
 20
2110.6999500000001
 40
0.2999999999999998
 50
90.000000000000056
 51
180.00000000000011
  0
ARC
  8
_1-1_
  6
DASHED1
 62
    7
 10
749.51499999999987
 20
2101.5003500000002
 40
0.5
 50
270
 51
0
  0
ARC
  8
_1-1_
  6
DASHED1
 62
    7
 10
748.51499999999987
 20
2101.5003500000002
 40
0.5
 50
180.00000000000005
 51
270.00000000000005
  0
ARC
  8
_1-1_
  6
DASHED1
 62
    7
 10
767.51499999999987
 20
2100.9999500000003
 40
1
 50
270
 51
0
  0
ARC
  8
_1-1_
  6
DASHED1
 62
    7
 10
730.5150000000001
 20
2100.9999500000003
 40
1
 50
180.00000000000005
 51
270.00000000000005
  0
CIRCLE
  8
_1-1_
  6
DASHED1
 62
    7
 10
752.26499999999987
 20
2101
 40
2.3250000000000001
  0
CIRCLE
  8
_1-1_
  6
DASHED1
 62
    7
 10
745.76499999999987
 20
2101
 40
2.3250000000000001
  0
CIRCLE
  8
_1-1_
  6
DASHED1
 62
    7
 10
745.76499999999987
 20
2107.5
 40
2.3250000000000001
  0
CIRCLE
  8
_1-1_
  6
DASHED1
 62
    7
 10
752.26499999999987
 20
2107.5
 40
2.3250000000000001
  0
CIRCLE
  8
_1-1_
  6
DASHED1
 62
    7
 10
749.01499999999998
 20
2077.5
 40
1.25
  0
POINT
  8
_0-9_
 62
    3
 10
2398.0149999999998
 20
757
  0
POINT
  8
_0-9_
 62
    3
 10
2398.0149999999998
 20
757
  0
POINT
  8
_0-9_
 62
    3
 10
2398.0149999999998
 20
947
  0
POINT
  8
_0-9_
 62
    3
 10
2398.0149999999998
 20
1007
  0
POINT
  8
_0-9_
 62
    3
 10
2398.0149999999998
 20
1067
  0
POINT
  8
_0-9_
 62
    4
 10
2286.0150000000012
 20
1108.5
  0
LINE
  8
_0-9_
  6
CONTINUOUS
 62
    4
 10
1996.5150000000012
 20
1118.5
 11
1996.5150000000012
 21
1054.4998623052642
  0
LINE
  8
_0-9_
  6
CONTINUOUS
 62
    4
 10
2286.0150000000012
 20
1108.5
 11
1996.5150000000012
 21
1108.5
  0
TEXT
  8
_0-9_
 62
    7
 10
2108.1650000000008
 20
1113.5
 40
35
 41
0.6285714285714286
 50
0
  1
２９０
  0
POINT
  8
_0-9_
 62
    3
 10
2286.0150000000012
 20
1108.5
  0
POINT
  8
_0-9_
 62
    3
 10
1996.5150000000012
 20
1108.5
  0
LINE
  8
_0-9_
  6
CONTINUOUS
 62
    4
 10
2286.0150000000012
 20
1118.5
 11
2286.0150000000012
 21
1054.4998623052642
  0
POINT
  8
_0-9_
 62
    3
 10
1730.0149999999998
 20
2410
  0
POINT
  8
_0-9_
 62
    3
 10
1730.0149999999998
 20
2052
  0
POINT
  8
_0-9_
 62
    3
 10
1730.0149999999998
 20
2410
  0
POINT
  8
_0-9_
 62
    3
 10
1730.0149999999998
 20
2052
  0
TEXT
  8
_f-8_
 62
    7
 10
709.78723404255333
 20
134.89144027884947
 40
45
 41
0.6666666666666666
 50
0
  1
不燃仕様　吊戸棚　高さ５０ｃｍタイプ
  0
ENDSEC
  0
EOF
