  0
SECTION
  2
HEADER
  9
$ACADVER
  1
AC1009
  9
$INSBASE
 10
0
 20
0
 30
0
  9
$EXTMIN
 10
0
 20
0
  9
$EXTMAX
 10
4200
 20
2970
  9
$LIMMIN
 10
0
 20
0
  9
$LIMMAX
 10
4200
 20
2970
  9
$LTSCALE
 40
10
  0
ENDSEC
  0
SECTION
  2
TABLES
  0
TABLE
  2
LTYPE
 70
     9
  0
LTYPE
  2
CONTINUOUS
 70
    64
  3
実線
 72
    65
 73
     0
 40
0.0
  0
LTYPE
  2
DASHED1
 70
    64
  3
--  --  --  --  --  --  --  --  
 72
    65
 73
     2
 40
2.5
 49
1.25
 49
-1.25
  0
LTYPE
  2
DASHED2
 70
    64
  3
----    ----    ----    ----    
 72
    65
 73
     2
 40
5.0
 49
2.5
 49
-2.5
  0
LTYPE
  2
DASHED3
 70
    64
  3
------  ------  ------  ------  
 72
    65
 73
     2
 40
5.0
 49
3.75
 49
-1.25
  0
LTYPE
  2
CENTER1
 70
    64
  3
----- - ----- - ----- - ----- - 
 72
    65
 73
     4
 40
10.0
 49
6.25
 49
-1.25
 49
1.25
 49
-1.25
  0
LTYPE
  2
CENTER2
 70
    64
  3
----------  --  ----------  --  
 72
    65
 73
     4
 40
20.0
 49
12.5
 49
-2.5
 49
2.5
 49
-2.5
  0
LTYPE
  2
PHANTOM1
 70
    64
  3
--- - - --- - - --- - - --- - - 
 72
    65
 73
     6
 40
10.0
 49
3.25
 49
-1.25
 49
1.25
 49
-1.25
 49
1.25
 49
-1.25
  0
LTYPE
  2
PHANTOM2
 70
    64
  3
--------  -  -  --------  -  -  
 72
    65
 73
     6
 40
20.0
 49
10.0
 49
-2.5
 49
1.25
 49
-2.5
 49
1.25
 49
-2.5
  0
LTYPE
  2
DOT
 70
    64
  3
-   -   -   -   -   -   -   -   
 72
    65
 73
     2
 40
2.5
 49
0.625
 49
-1.875
  0
LTYPE
  2
DUMMY
 70
    64
  3
ダミー
 72
    65
 73
     0
 40
0.0
  0
LTYPE
  2
RAND1
 70
    64
  3
ランダム線1
 72
    65
 73
     4
 40
10.0
 49
1.0
 49
-2.0
 49
3.0
 49
-4.0
  0
LTYPE
  2
RAND2
 70
    64
  3
ランダム線2
 72
    65
 73
     4
 40
14.0
 49
2.0
 49
-3.0
 49
4.0
 49
-5.0
  0
LTYPE
  2
RAND3
 70
    64
  3
ランダム線3
 72
    65
 73
     4
 40
18.0
 49
3.0
 49
-4.0
 49
5.0
 49
-6.0
  0
LTYPE
  2
RAND4
 70
    64
  3
ランダム線4
 72
    65
 73
     4
 40
22.0
 49
4.0
 49
-5.0
 49
6.0
 49
-7.0
  0
LTYPE
  2
RAND5
 70
    64
  3
ランダム線5
 72
    65
 73
     4
 40
26.0
 49
5.0
 49
-6.0
 49
7.0
 49
-8.0
  0
LTYPE
  2
LONG1
 70
    64
  3
----------  --  ----------  --  
 72
    65
 73
     4
 40
40.0
 49
32.5
 49
-2.5
 49
2.5
 49
-2.5
  0
LTYPE
  2
LONG2
 70
    64
  3
--------  -  -  --------  -  -  
 72
    65
 73
     6
 40
40.0
 49
30.0
 49
-2.5
 49
1.25
 49
-2.5
 49
1.25
 49
-2.5
  0
LTYPE
  2
LONG3
 70
    64
  3
+++++++++++++++..+++++++++++++++
 72
    65
 73
     2
 40
40.0
 49
37.5
 49
-2.5
  0
LTYPE
  2
LONG4
 70
    64
  3
+++++++++++++++..+++++++++++++++
 72
    65
 73
     2
 40
80.0
 49
75.0
 49
-5.0
  0
LTYPE
  2
LONG5
 70
    64
  3
----------  --  ----------  --  
 72
    65
 73
     4
 40
60.0
 49
37.5
 49
-7.5
 49
7.5
 49
-7.5
  0
LTYPE
  2
dashed
 70
   64
  3
-------   -------------   ------
 72
   65
 73
    2
 40
7.5
 49
6
 49
-1.5
  0
LTYPE
  2
dashed_spaced
 70
   64
  3
----        --------        ----
 72
   65
 73
    2
 40
12
 49
6
 49
-6
  0
LTYPE
  2
long_dashed_dotted
 70
   64
  3
------------- --- --------------
 72
   65
 73
    4
 40
15.25
 49
12
 49
-1.5
 49
0.25
 49
-1.5
  0
LTYPE
  2
long_dashed_double-dotted
 70
   64
  3
----------- --- --- ------------
 72
   65
 73
    6
 40
17
 49
12
 49
-1.5
 49
0.25
 49
-1.5
 49
0.25
 49
-1.5
  0
LTYPE
  2
long_dashed_triplicate-dotted
 70
   64
  3
--------- --- --- --- ----------
 72
   65
 73
    8
 40
18.75
 49
12
 49
-1.5
 49
0.25
 49
-1.5
 49
0.25
 49
-1.5
 49
0.25
 49
-1.5
  0
LTYPE
  2
dotted
 70
   64
  3
   -       -       -       -    
 72
   65
 73
    2
 40
1.75
 49
0.25
 49
-1.5
  0
LTYPE
  2
chain
 70
   64
  3
-------------- -- --------------
 72
   65
 73
    4
 40
18.5
 49
12
 49
-1.5
 49
3.5
 49
-1.5
  0
LTYPE
  2
chain_double_dash
 70
   64
  3
------------ -- -- -------------
 72
   65
 73
    6
 40
23.5
 49
12
 49
-1.5
 49
3.5
 49
-1.5
 49
3.5
 49
-1.5
  0
LTYPE
  2
dashed_dotted
 70
   64
  3
-----------     -     ----------
 72
   65
 73
    4
 40
9.25
 49
6
 49
-1.5
 49
0.25
 49
-1.5
  0
LTYPE
  2
double-dashed_dotted
 70
   64
  3
------   -----------   -   -----
 72
   65
 73
    6
 40
16.75
 49
6
 49
-1.5
 49
6
 49
-1.5
 49
0.25
 49
-1.5
  0
LTYPE
  2
dashed_double-dotted
 70
   64
  3
---------    -    -    ---------
 72
   65
 73
    6
 40
11
 49
6
 49
-1.5
 49
0.25
 49
-1.5
 49
0.25
 49
-1.5
  0
LTYPE
  2
double-dashed_double-dotted
 70
   64
  3
-----   ---------   -   -   ----
 72
   65
 73
    8
 40
18.5
 49
6
 49
-1.5
 49
6
 49
-1.5
 49
0.25
 49
-1.5
 49
0.25
 49
-1.5
  0
LTYPE
  2
dashed_triplicate-dotted
 70
   64
  3
-------    -    -    -    ------
 72
   65
 73
    8
 40
12.75
 49
6
 49
-1.5
 49
0.25
 49
-1.5
 49
0.25
 49
-1.5
 49
0.25
 49
-1.5
  0
LTYPE
  2
double-dashed_triplicate-dotted
 70
   64
  3
-----  ---------  -  -  -  -----
 72
   65
 73
   10
 40
20.25
 49
6
 49
-1.5
 49
6
 49
-1.5
 49
0.25
 49
-1.5
 49
0.25
 49
-1.5
 49
0.25
 49
-1.5
  0
LTYPE
  2
undefined
 70
   64
  3
--------------------------------
 72
   65
 73
    0
 40
0
  0
LTYPE
  2
_
 70
   64
  3
                                
 72
   65
 73
    0
 40
0
  0
LTYPE
  2
__18
 70
   64
  3
                                
 72
   65
 73
    0
 40
0
  0
LTYPE
  2
__19
 70
   64
  3
                                
 72
   65
 73
    0
 40
0
  0
LTYPE
  2
__20
 70
   64
  3
                                
 72
   65
 73
    0
 40
0
  0
LTYPE
  2
__21
 70
   64
  3
                                
 72
   65
 73
    0
 40
0
  0
LTYPE
  2
__22
 70
   64
  3
                                
 72
   65
 73
    0
 40
0
  0
LTYPE
  2
__23
 70
   64
  3
                                
 72
   65
 73
    0
 40
0
  0
LTYPE
  2
__24
 70
   64
  3
                                
 72
   65
 73
    0
 40
0
  0
LTYPE
  2
__25
 70
   64
  3
                                
 72
   65
 73
    0
 40
0
  0
LTYPE
  2
__26
 70
   64
  3
                                
 72
   65
 73
    0
 40
0
  0
LTYPE
  2
__27
 70
   64
  3
                                
 72
   65
 73
    0
 40
0
  0
LTYPE
  2
__28
 70
   64
  3
                                
 72
   65
 73
    0
 40
0
  0
LTYPE
  2
__29
 70
   64
  3
                                
 72
   65
 73
    0
 40
0
  0
LTYPE
  2
__30
 70
   64
  3
                                
 72
   65
 73
    0
 40
0
  0
LTYPE
  2
__31
 70
   64
  3
                                
 72
   65
 73
    0
 40
0
  0
LTYPE
  2
__32
 70
   64
  3
                                
 72
   65
 73
    0
 40
0
  0
ENDTAB
  0
TABLE
  2
STYLE
  5
3
100
AcDbSymbolTable
 70
     1
  0
STYLE
  5
10
100
AcDbSymbolTableRecord
100
AcDbTextStyleTableRecord
  2
STANDARD
 70
     0
 40
0.0
 41
1.0
 50
0.0
 71
     0
 42
0.2
  3
txt
  4
bigfont.shx
  0
STYLE
  5
26
100
AcDbSymbolTableRecord
100
AcDbTextStyleTableRecord
  2
TATEGAKI
 70
    68
 40
0.0
 41
1.0
 50
0.0
 71
     0
 42
1.0
  3
txt
  4
bigfont.shx
  0
ENDTAB
  0
TABLE
  2
LAYER
 70
   16
  0
LAYER
  2
_0-0_
 70
   64
 62
    7
  6
CONTINUOUS
  0
LAYER
  2
_0-3_
 70
   64
 62
    7
  6
CONTINUOUS
  0
LAYER
  2
_0-4_
 70
   64
 62
    7
  6
CONTINUOUS
  0
LAYER
  2
_0-5_
 70
   64
 62
    7
  6
CONTINUOUS
  0
LAYER
  2
_0-6_
 70
   64
 62
    7
  6
CONTINUOUS
  0
LAYER
  2
_0-8_
 70
   64
 62
    7
  6
CONTINUOUS
  0
LAYER
  2
_0-9_
 70
   64
 62
    7
  6
CONTINUOUS
  0
LAYER
  2
_0-a_
 70
   64
 62
    7
  6
CONTINUOUS
  0
LAYER
  2
_0-b_
 70
   64
 62
    7
  6
CONTINUOUS
  0
LAYER
  2
_0-d_
 70
   64
 62
    7
  6
CONTINUOUS
  0
LAYER
  2
_e-0_
 70
   64
 62
    7
  6
CONTINUOUS
  0
LAYER
  2
_f-7_
 70
   64
 62
    7
  6
CONTINUOUS
  0
LAYER
  2
_f-8_
 70
   64
 62
    7
  6
CONTINUOUS
  0
LAYER
  2
_f-9_
 70
   64
 62
    7
  6
CONTINUOUS
  0
LAYER
  2
_f-d_固定文字
 70
   64
 62
    7
  6
CONTINUOUS
  0
LAYER
  2
ADD_LINE
 70
   64
 62
    7
  6
CONTINUOUS
  0
ENDTAB
  0
ENDSEC
  0
SECTION
  2
BLOCKS
  0
ENDSEC
  0
SECTION
  2
ENTITIES
  0
LINE
  8
_0-9_
  6
CONTINUOUS
 62
    4
 10
1748.3796675245298
 20
2410
 11
1505
 21
2410
  0
LINE
  8
_f-9_
  6
CONTINUOUS
 62
    7
 10
630
 20
120
 11
630
 21
220
  0
LINE
  8
_f-9_
  6
CONTINUOUS
 62
    7
 10
170
 20
120
 11
610
 21
120
  0
LINE
  8
_f-9_
  6
CONTINUOUS
 62
    7
 10
170
 20
220
 11
610
 21
220
  0
LINE
  8
_f-9_
  6
CONTINUOUS
 62
    7
 10
1420
 20
120
 11
1420
 21
220
  0
LINE
  8
_f-9_
  6
CONTINUOUS
 62
    7
 10
2210
 20
120
 11
2210
 21
220
  0
LINE
  8
_f-9_
  6
CONTINUOUS
 62
    7
 10
2220
 20
120
 11
2220
 21
220
  0
LINE
  8
_f-9_
  6
CONTINUOUS
 62
    7
 10
630
 20
120
 11
2210
 21
120
  0
LINE
  8
_f-9_
  6
CONTINUOUS
 62
    7
 10
630
 20
220
 11
2210
 21
220
  0
LINE
  8
_f-9_
  6
CONTINUOUS
 62
    7
 10
2710
 20
120
 11
2710
 21
220
  0
LINE
  8
_f-9_
  6
CONTINUOUS
 62
    7
 10
2720
 20
120
 11
2720
 21
220
  0
LINE
  8
_f-9_
  6
CONTINUOUS
 62
    7
 10
2220
 20
120
 11
2710
 21
120
  0
LINE
  8
_f-9_
  6
CONTINUOUS
 62
    7
 10
2220
 20
220
 11
2710
 21
220
  0
LINE
  8
_f-9_
  6
CONTINUOUS
 62
    7
 10
3020
 20
120
 11
3020
 21
220
  0
LINE
  8
_f-9_
  6
CONTINUOUS
 62
    7
 10
3320
 20
120
 11
3320
 21
220
  0
LINE
  8
_f-9_
  6
CONTINUOUS
 62
    7
 10
3700
 20
120
 11
3700
 21
220
  0
LINE
  8
_f-9_
  6
CONTINUOUS
 62
    7
 10
2720
 20
120
 11
4110
 21
120
  0
LINE
  8
_f-9_
  6
CONTINUOUS
 62
    7
 10
4110
 20
120
 11
4110
 21
220
  0
LINE
  8
_f-9_
  6
CONTINUOUS
 62
    7
 10
2720
 20
220
 11
4110
 21
220
  0
LINE
  8
_0-0_
  6
CONTINUOUS
 62
    7
 10
4130
 20
2860
 11
4130
 21
100
  0
LINE
  8
_0-0_
  6
CONTINUOUS
 62
    7
 10
150
 20
2860
 11
4130
 21
2860
  0
LINE
  8
_0-0_
  6
CONTINUOUS
 62
    7
 10
150
 20
100
 11
4130
 21
100
  0
LINE
  8
_0-0_
  6
CONTINUOUS
 62
    7
 10
150
 20
100
 11
150
 21
2860
  0
TEXT
  8
_f-8_
 62
    7
 10
3040
 20
187.5
 40
25
 41
0.64
 50
0
  1
ＤＡＴＡ
  0
TEXT
  8
_f-8_
 62
    7
 10
3340
 20
187.5
 40
25
 41
0.64
 50
0
  1
ＣＨＥＣＫＥＤ
  0
TEXT
  8
_f-8_
 62
    7
 10
3720
 20
187.5
 40
25
 41
0.64
 50
0
  1
ＳＨＥＥＴ　ＮＯ．
  0
TEXT
  8
_f-8_
 62
    7
 10
3542
 20
187.5
 40
25
 41
0.64
 50
0
  1
ＤＲＡＷＩＮＧ
  0
LINE
  8
_f-9_
  6
CONTINUOUS
 62
    7
 10
170
 20
170
 11
610
 21
170
  0
TEXT
  8
_f-8_
 62
    7
 10
2861
 20
142.5
 40
35
 41
0.5714285714285711
 50
0
  1
１／１０
  0
TEXT
  8
_f-8_
 62
    7
 10
2740.3739840854213
 20
187.46937299484983
 40
25
 41
0.64
 50
0
  1
ＳＣＡＬＥ
  0
TEXT
  8
_f-8_
 62
    7
 10
1445
 20
187.5
 40
25
 41
0.8
 50
0
  1
図面名称
  0
TEXT
  8
_f-8_
 62
    7
 10
655
 20
187.5
 40
25
 41
0.8
 50
0
  1
名　称
  0
LINE
  8
_f-8_
  6
CONTINUOUS
 62
    7
 10
2165
 20
2872
 11
2166.15
 21
2874.0000000000004
  0
LINE
  8
_f-8_
  6
CONTINUOUS
 62
    7
 10
2158.6399999999998
 20
2877
 11
2165
 21
2866
  0
LINE
  8
_f-8_
  6
CONTINUOUS
 62
    7
 10
2165
 20
2866
 11
2171.3499999999999
 21
2877
  0
LINE
  8
_f-8_
  6
CONTINUOUS
 62
    7
 10
2165
 20
2860
 11
2176.5399999999999
 21
2880
  0
LINE
  8
_f-8_
  6
CONTINUOUS
 62
    7
 10
2153.4499999999998
 20
2880
 11
2165
 21
2860
  0
LINE
  8
_f-8_
  6
CONTINUOUS
 62
    7
 10
2176.5399999999999
 20
2880
 11
2153.4499999999998
 21
2880
  0
LINE
  8
_f-8_
  6
CONTINUOUS
 62
    7
 10
2163.8400000000001
 20
2874.0000000000004
 11
2165
 21
2872
  0
LINE
  8
_f-8_
  6
CONTINUOUS
 62
    7
 10
2166.15
 20
2874.0000000000004
 11
2163.8400000000001
 21
2874.0000000000004
  0
LINE
  8
_f-8_
  6
CONTINUOUS
 62
    7
 10
2171.3499999999999
 20
2877
 11
2158.6399999999998
 21
2877
  0
LINE
  8
_f-7_
  6
CONTINUOUS
 62
    7
 10
120
 20
1462.6794919243113
 11
120
 21
1497.3205080756886
  0
LINE
  8
_f-7_
  6
CONTINUOUS
 62
    7
 10
120
 20
1497.3205080756886
 11
150
 21
1480
  0
LINE
  8
_f-7_
  6
CONTINUOUS
 62
    7
 10
150
 20
1480
 11
120
 21
1462.6794919243113
  0
LINE
  8
_f-7_
  6
CONTINUOUS
 62
    7
 10
125
 20
1471.3397459621555
 11
125
 21
1488.6602540378444
  0
LINE
  8
_f-7_
  6
CONTINUOUS
 62
    7
 10
125
 20
1488.6602540378444
 11
140
 21
1480
  0
LINE
  8
_f-7_
  6
CONTINUOUS
 62
    7
 10
140
 20
1480
 11
125
 21
1471.3397459621555
  0
LINE
  8
_f-7_
  6
CONTINUOUS
 62
    7
 10
128.99999999999977
 20
1478.2679491924309
 11
128.99999999999977
 21
1481.732050807569
  0
LINE
  8
_f-7_
  6
CONTINUOUS
 62
    7
 10
128.99999999999977
 20
1481.732050807569
 11
132.00000000000045
 21
1480
  0
LINE
  8
_f-7_
  6
CONTINUOUS
 62
    7
 10
132.00000000000045
 20
1480
 11
128.99999999999977
 21
1478.2679491924309
  0
LINE
  8
_f-7_
  6
CONTINUOUS
 62
    7
 10
4160
 20
1462.6794919243113
 11
4160
 21
1497.3205080756886
  0
LINE
  8
_f-7_
  6
CONTINUOUS
 62
    7
 10
4160
 20
1497.3205080756886
 11
4130
 21
1480
  0
LINE
  8
_f-7_
  6
CONTINUOUS
 62
    7
 10
4130
 20
1480
 11
4160
 21
1462.6794919243113
  0
LINE
  8
_f-7_
  6
CONTINUOUS
 62
    7
 10
4155
 20
1471.3397459621555
 11
4155
 21
1488.6602540378444
  0
LINE
  8
_f-7_
  6
CONTINUOUS
 62
    7
 10
4155
 20
1488.6602540378444
 11
4140
 21
1480
  0
LINE
  8
_f-7_
  6
CONTINUOUS
 62
    7
 10
4140
 20
1480
 11
4155
 21
1471.3397459621555
  0
LINE
  8
_f-7_
  6
CONTINUOUS
 62
    7
 10
4151
 20
1478.2679491924309
 11
4151
 21
1481.732050807569
  0
LINE
  8
_f-7_
  6
CONTINUOUS
 62
    7
 10
4151
 20
1481.732050807569
 11
4148
 21
1480
  0
LINE
  8
_f-7_
  6
CONTINUOUS
 62
    7
 10
4148
 20
1480
 11
4151
 21
1478.2679491924309
  0
TEXT
  8
_f-d_固定文字
 62
    7
 10
149.98500000000007
 20
65
 40
20
 41
1
 50
0
  1
%f
  0
TEXT
  8
_f-d_固定文字
 62
    7
 10
3990
 20
65.00000323002979
 40
20
 41
1
 50
0
  1
%y
  0
TEXT
  8
_f-d_固定文字
 62
    7
 10
4020
 20
65.00000323002979
 40
20
 41
1
 50
0
  1
．
  0
TEXT
  8
_f-d_固定文字
 62
    7
 10
4050
 20
65.00000323002979
 40
20
 41
1
 50
0
  1
%m
  0
TEXT
  8
_f-d_固定文字
 62
    7
 10
4080
 20
65.00000323002979
 40
20
 41
1
 50
0
  1
．
  0
TEXT
  8
_f-d_固定文字
 62
    7
 10
4110
 20
65.00000323002979
 40
20
 41
1
 50
0
  1
%d
  0
LINE
  8
_0-9_
  6
CONTINUOUS
 62
    4
 10
375
 20
2610
 11
375
 21
2440
  0
POINT
  8
_0-9_
 62
    3
 10
375
 20
2610
  0
LINE
  8
_0-3_
  6
CONTINUOUS
 62
    5
 10
375
 20
2068
 11
375
 21
2410
  0
LINE
  8
_0-3_
  6
CONTINUOUS
 62
    5
 10
375
 20
2068
 11
386.99999999999988
 21
2068
  0
LINE
  8
_0-3_
  6
CONTINUOUS
 62
    2
 10
386.99999999999988
 20
2068
 11
386.99999999999988
 21
2410
  0
LINE
  8
_0-9_
  6
CONTINUOUS
 62
    4
 10
1475
 20
2610
 11
1475
 21
2440
  0
POINT
  8
_0-9_
 62
    3
 10
1475
 20
2610
  0
LINE
  8
_0-3_
  6
CONTINUOUS
 62
    5
 10
1475
 20
2068
 11
1475
 21
2410
  0
LINE
  8
_0-3_
  6
CONTINUOUS
 62
    5
 10
1463
 20
2068
 11
1475
 21
2068
  0
POINT
  8
_0-9_
 62
    3
 10
1748.3796675245298
 20
2410
  0
LINE
  8
_0-3_
  6
CONTINUOUS
 62
    2
 10
1463
 20
2068
 11
1463
 21
2410
  0
LINE
  8
_0-3_
  6
CONTINUOUS
 62
    5
 10
375
 20
2410
 11
1475
 21
2410
  0
LINE
  8
_0-9_
  6
CONTINUOUS
 62
    4
 10
375
 20
2610
 11
1475
 21
2610
  0
TEXT
  8
_0-9_
 62
    7
 10
869.80000000000018
 20
2611.9999999999981
 40
35
 41
0.6285714285714286
 50
0
  1
１，１００
  0
LINE
  8
_0-8_
  6
CONTINUOUS
 62
    4
 10
800
 20
1962.0000000000004
 11
1050
 21
1962.0000000000004
  0
LINE
  8
_0-8_
  6
CONTINUOUS
 62
    4
 10
1050
 20
1962.0000000000004
 11
1050
 21
1892.0000000000004
  0
LINE
  8
_0-8_
  6
CONTINUOUS
 62
    4
 10
800
 20
1892.0000000000004
 11
1050
 21
1892.0000000000004
  0
LINE
  8
_0-8_
  6
CONTINUOUS
 62
    4
 10
800
 20
1962.0000000000004
 11
800
 21
1892.0000000000004
  0
TEXT
  8
_0-8_
 62
    7
 10
879.89999999999963
 20
1909.5000000000004
 40
35
 41
0.8571428571428568
 50
0
  1
平面図
  0
LINE
  8
_0-9_
  6
CONTINUOUS
 62
    4
 10
1748.3796675245298
 20
2052
 11
1505
 21
2052
  0
POINT
  8
_0-9_
 62
    3
 10
1748.3796675245298
 20
2052
  0
POINT
  8
_0-9_
 62
    3
 10
1748.3796675245298
 20
2410
  0
POINT
  8
_0-9_
 62
    3
 10
1748.3796675245298
 20
2052
  0
LINE
  8
_0-9_
  6
CONTINUOUS
 62
    4
 10
1748.3796675245298
 20
2410
 11
1748.3796675245298
 21
2052
  0
TEXT
  8
_0-9_
 62
    7
 10
1748.3796675245298
 20
2197.9
 40
35
 41
0.6285714285714286
 50
90
  1
３５８
  0
LINE
  8
_0-3_
  6
DASHED1
 62
    2
 10
1063
 20
2068
 11
1063
 21
2130.5
  0
LINE
  8
_0-3_
  6
DASHED1
 62
    2
 10
1063
 20
2130.5
 11
1088.0000000000002
 21
2130.5
  0
LINE
  8
_0-3_
  6
DASHED1
 62
    2
 10
1088.0000000000002
 20
2068
 11
1088.0000000000002
 21
2130.5
  0
LINE
  8
_0-4_
  6
CONTINUOUS
 62
    3
 10
379.00000000000005
 20
2052
 11
379.00000000000005
 21
2064.0000000000004
  0
LINE
  8
_0-4_
  6
CONTINUOUS
 62
    3
 10
1471
 20
2052
 11
1471
 21
2064.0000000000004
  0
LINE
  8
_0-4_
  6
CONTINUOUS
 62
    3
 10
1068
 20
2052
 11
1068
 21
2064.0000000000004
  0
LINE
  8
_0-4_
  6
CONTINUOUS
 62
    3
 10
379.00000000000005
 20
2064.0000000000004
 11
723.00000000000068
 21
2064.0000000000004
  0
LINE
  8
_0-4_
  6
CONTINUOUS
 62
    3
 10
723.00000000000068
 20
2052
 11
723.00000000000068
 21
2064.0000000000004
  0
LINE
  8
_0-4_
  6
CONTINUOUS
 62
    3
 10
379.00000000000005
 20
2052
 11
723.00000000000068
 21
2052
  0
LINE
  8
_0-4_
  6
CONTINUOUS
 62
    3
 10
724.00000000000068
 20
2052
 11
1068
 21
2052
  0
LINE
  8
_0-4_
  6
CONTINUOUS
 62
    3
 10
724.00000000000068
 20
2064.0000000000004
 11
1068
 21
2064.0000000000004
  0
LINE
  8
_0-4_
  6
CONTINUOUS
 62
    3
 10
724.00000000000068
 20
2052
 11
724.00000000000068
 21
2064.0000000000004
  0
LINE
  8
_0-4_
  6
CONTINUOUS
 62
    3
 10
1077
 20
2064.0000000000004
 11
1471
 21
2064.0000000000004
  0
LINE
  8
_0-4_
  6
CONTINUOUS
 62
    3
 10
1077
 20
2052
 11
1077
 21
2064.0000000000004
  0
LINE
  8
_0-4_
  6
CONTINUOUS
 62
    3
 10
1077
 20
2052
 11
1471
 21
2052
  0
LINE
  8
_0-3_
  6
DASHED1
 62
    2
 10
1063
 20
2329.5
 11
1088.0000000000002
 21
2329.5
  0
LINE
  8
_0-3_
  6
DASHED1
 62
    2
 10
1063
 20
2329.5
 11
1063
 21
2392
  0
LINE
  8
_0-3_
  6
DASHED1
 62
    2
 10
1088.0000000000002
 20
2329.5
 11
1088.0000000000002
 21
2392
  0
LINE
  8
_0-3_
  6
DASHED1
 62
    2
 10
386.99999999999988
 20
2392
 11
1463
 21
2392
  0
LINE
  8
_0-6_
  6
DASHED1
 62
    7
 10
1461.0000000000002
 20
2098.5
 11
1461.0000000000002
 21
2387.5000000000004
  0
LINE
  8
_0-6_
  6
DASHED1
 62
    7
 10
1461.0000000000002
 20
2098.5
 11
1461.0000000000002
 21
2387.5000000000004
  0
LINE
  8
_0-6_
  6
DASHED1
 62
    7
 10
1090
 20
2098.5
 11
1090
 21
2387.5000000000004
  0
LINE
  8
_0-6_
  6
DASHED1
 62
    7
 10
1090
 20
2098.5
 11
1090
 21
2387.5000000000004
  0
LINE
  8
_0-6_
  6
DASHED1
 62
    7
 10
1060.9999999999993
 20
2098.5
 11
1060.9999999999993
 21
2387.5000000000004
  0
LINE
  8
_0-6_
  6
DASHED1
 62
    7
 10
1060.9999999999993
 20
2098.5
 11
1060.9999999999993
 21
2387.5000000000004
  0
LINE
  8
_0-6_
  6
DASHED1
 62
    7
 10
1090
 20
2387.5000000000004
 11
1461.0000000000002
 21
2387.5000000000004
  0
LINE
  8
_0-6_
  6
DASHED1
 62
    7
 10
1090
 20
2098.5
 11
1461.0000000000002
 21
2098.5
  0
LINE
  8
_0-6_
  6
DASHED1
 62
    7
 10
388.99999999999977
 20
2098.5
 11
388.99999999999977
 21
2387.5000000000004
  0
LINE
  8
_0-6_
  6
DASHED1
 62
    7
 10
388.99999999999977
 20
2098.5
 11
388.99999999999977
 21
2387.5000000000004
  0
LINE
  8
_0-6_
  6
DASHED1
 62
    7
 10
388.99999999999977
 20
2387.5000000000004
 11
1061
 21
2387.5000000000004
  0
LINE
  8
_0-6_
  6
DASHED1
 62
    7
 10
388.99999999999977
 20
2098.5
 11
1061
 21
2098.5
  0
LINE
  8
_0-3_
  6
CONTINUOUS
 62
    2
 10
386.99999999999988
 20
2395
 11
1463
 21
2395
  0
LINE
  8
_0-b_
  6
DASHED1
 62
    7
 10
684.50000000000102
 20
2086.5000000000004
 11
684.0000000000009
 21
2086.5000000000004
  0
LINE
  8
_0-b_
  6
DASHED1
 62
    7
 10
661.5000000000009
 20
2086.5000000000004
 11
662.00000000000102
 21
2086.5000000000004
  0
LINE
  8
_0-b_
  6
DASHED1
 62
    7
 10
664.50000000000102
 20
2146.5000000000004
 11
681.5000000000009
 21
2146.5000000000004
  0
LINE
  8
_0-b_
  6
DASHED1
 62
    7
 10
665.0000000000009
 20
2111.5000000000004
 11
681.00000000000079
 21
2111.5000000000004
  0
LINE
  8
_0-b_
  6
DASHED1
 62
    7
 10
684.50000000000102
 20
2086.5000000000004
 11
684.0000000000009
 21
2086.5000000000004
  0
LINE
  8
_0-b_
  6
DASHED1
 62
    7
 10
690.50000000000068
 20
2113.5
 11
691.5000000000009
 21
2113.5
  0
LINE
  8
_0-b_
  6
DASHED1
 62
    7
 10
690.50000000000068
 20
2137.5000000000004
 11
690.50000000000068
 21
2113.5
  0
LINE
  8
_0-b_
  6
DASHED1
 62
    7
 10
655.50000000000068
 20
2113.5
 11
654.50000000000102
 21
2113.5
  0
LINE
  8
_0-b_
  6
DASHED1
 62
    7
 10
655.50000000000068
 20
2137.5000000000004
 11
655.50000000000068
 21
2113.5
  0
LINE
  8
_0-b_
  6
DASHED1
 62
    7
 10
654.11000000000058
 20
2116.5000000000004
 11
661.5000000000009
 21
2116.5000000000004
  0
LINE
  8
_0-b_
  6
DASHED1
 62
    7
 10
684.50000000000102
 20
2116.5000000000004
 11
692.60000000000081
 21
2116.5000000000004
  0
LINE
  8
_0-b_
  6
DASHED1
 62
    7
 10
663.00000000000068
 20
2111.5000000000004
 11
663.00000000000068
 21
2108.7000000000002
  0
LINE
  8
_0-b_
  6
DASHED1
 62
    7
 10
664.50000000000102
 20
2110.1000000000003
 11
663.50000000000079
 21
2110.1000000000003
  0
LINE
  8
_0-b_
  6
DASHED1
 62
    7
 10
681.5000000000009
 20
2110.1000000000003
 11
682.5000000000009
 21
2110.1000000000003
  0
LINE
  8
_0-b_
  6
DASHED1
 62
    7
 10
683.00000000000068
 20
2111.5000000000004
 11
683.00000000000068
 21
2108.7000000000002
  0
LINE
  8
_0-b_
  6
DASHED1
 62
    7
 10
681.00000000000079
 20
2111.5000000000004
 11
681.00000000000079
 21
2089.5
  0
LINE
  8
_0-b_
  6
DASHED1
 62
    7
 10
665.0000000000009
 20
2111.5000000000004
 11
665.0000000000009
 21
2089.5
  0
LINE
  8
_0-b_
  6
DASHED1
 62
    7
 10
670.76395000000104
 20
2084.5000500000005
 11
675.23605000000088
 21
2084.5000500000005
  0
LINE
  8
_0-b_
  6
DASHED1
 62
    7
 10
676.5000000000009
 20
2082.5000500000001
 11
676.5000000000009
 21
2080.5000500000001
  0
LINE
  8
_0-b_
  6
DASHED1
 62
    7
 10
669.50000000000102
 20
2082.5000500000001
 11
669.50000000000102
 21
2080.5000500000001
  0
LINE
  8
_0-b_
  6
DASHED1
 62
    7
 10
669.50000000000102
 20
2080.5000500000001
 11
670.0000000000009
 21
2080.5000500000001
  0
LINE
  8
_0-b_
  6
DASHED1
 62
    7
 10
676.00000000000079
 20
2080.5000500000001
 11
676.5000000000009
 21
2080.5000500000001
  0
LINE
  8
_0-b_
  6
DASHED1
 62
    7
 10
676.5000000000009
 20
2075.5000500000001
 11
669.50000000000102
 21
2075.5000500000001
  0
LINE
  8
_0-b_
  6
DASHED1
 62
    7
 10
676.54595000000085
 20
2075.5460000000002
 11
676.5000000000009
 21
2075.5000500000001
  0
LINE
  8
_0-b_
  6
DASHED1
 62
    7
 10
669.45405000000107
 20
2075.5460000000002
 11
669.50000000000102
 21
2075.5000500000001
  0
LINE
  8
_0-b_
  6
DASHED1
 62
    7
 10
676.00000000000079
 20
2082.5000500000001
 11
676.00000000000079
 21
2076.5000500000001
  0
LINE
  8
_0-b_
  6
DASHED1
 62
    7
 10
670.0000000000009
 20
2082.5000500000001
 11
670.0000000000009
 21
2076.5000500000001
  0
LINE
  8
_0-b_
  6
DASHED1
 62
    7
 10
670.0000000000009
 20
2080.5000500000001
 11
676.00000000000079
 21
2080.5000500000001
  0
LINE
  8
_0-b_
  6
DASHED1
 62
    7
 10
668.42895000000089
 20
2076.5711000000001
 11
669.45405000000107
 21
2075.5460000000002
  0
LINE
  8
_0-b_
  6
DASHED1
 62
    7
 10
677.5710500000008
 20
2076.5711000000001
 11
676.54595000000085
 21
2075.5460000000002
  0
LINE
  8
_0-b_
  6
DASHED1
 62
    7
 10
680.50000000000068
 20
2083.6421500000001
 11
680.50000000000068
 21
2111.5000000000004
  0
LINE
  8
_0-b_
  6
DASHED1
 62
    7
 10
665.50000000000068
 20
2083.6421500000001
 11
665.50000000000068
 21
2111.5000000000004
  0
LINE
  8
_0-b_
  6
DASHED1
 62
    7
 10
659.82455000000072
 20
2103.2626
 11
659.61305000000095
 21
2103.5381000000002
  0
LINE
  8
_0-b_
  6
DASHED1
 62
    7
 10
659.82455000000072
 20
2103.2626
 11
660.50000000000068
 21
2104.0000000000004
  0
LINE
  8
_0-b_
  6
DASHED1
 62
    7
 10
659.61305000000095
 20
2103.5381000000002
 11
660.50000000000068
 21
2104.0000000000004
  0
LINE
  8
_0-b_
  6
DASHED1
 62
    7
 10
681.00000000000079
 20
2111.5000000000004
 11
690.20000000000072
 21
2111.5000000000004
  0
LINE
  8
_0-b_
  6
DASHED1
 62
    7
 10
665.0000000000009
 20
2111.5000000000004
 11
655.80000000000097
 21
2111.5000000000004
  0
LINE
  8
_0-b_
  6
DASHED1
 62
    7
 10
674.0000000000009
 20
2111.5000000000004
 11
674.0000000000009
 21
2102.0004000000003
  0
LINE
  8
_0-b_
  6
DASHED1
 62
    7
 10
672.00000000000102
 20
2111.5000000000004
 11
672.00000000000102
 21
2102.0004000000003
  0
LINE
  8
_0-b_
  6
DASHED1
 62
    7
 10
672.5000000000009
 20
2101.5004000000003
 11
673.50000000000079
 21
2101.5004000000003
  0
LINE
  8
_0-b_
  6
DASHED1
 62
    7
 10
672.00000000000102
 20
2105.7200000000002
 11
665.50000000000068
 21
2105.7200000000002
  0
LINE
  8
_0-b_
  6
DASHED1
 62
    7
 10
680.50000000000068
 20
2105.7200000000002
 11
674.0000000000009
 21
2105.7200000000002
  0
LINE
  8
_0-b_
  6
DASHED1
 62
    7
 10
672.00000000000102
 20
2106.0900000000001
 11
670.93925000000069
 21
2106.0900000000001
  0
LINE
  8
_0-b_
  6
DASHED1
 62
    7
 10
668.56075000000089
 20
2106.0900000000001
 11
665.50000000000068
 21
2106.0900000000001
  0
LINE
  8
_0-b_
  6
DASHED1
 62
    7
 10
680.50000000000068
 20
2106.0900000000001
 11
677.43925000000081
 21
2106.0900000000001
  0
LINE
  8
_0-b_
  6
DASHED1
 62
    7
 10
675.06075000000066
 20
2106.0900000000001
 11
674.0000000000009
 21
2106.0900000000001
  0
LINE
  8
_0-b_
  6
DASHED1
 62
    7
 10
692.5000000000009
 20
2101.5000000000004
 11
692.5000000000009
 21
2112.5000000000004
  0
LINE
  8
_0-b_
  6
DASHED1
 62
    7
 10
690.50000000000068
 20
2100.5000000000004
 11
691.5000000000009
 21
2100.5000000000004
  0
LINE
  8
_0-b_
  6
DASHED1
 62
    7
 10
690.50000000000068
 20
2111.2000000000002
 11
690.50000000000068
 21
2092.5000000000004
  0
LINE
  8
_0-b_
  6
DASHED1
 62
    7
 10
653.50000000000079
 20
2101.5000000000004
 11
653.50000000000079
 21
2112.5000000000004
  0
LINE
  8
_0-b_
  6
DASHED1
 62
    7
 10
655.50000000000068
 20
2100.5000000000004
 11
654.50000000000102
 21
2100.5000000000004
  0
LINE
  8
_0-b_
  6
DASHED1
 62
    7
 10
655.50000000000068
 20
2111.2000000000002
 11
655.50000000000068
 21
2092.5000000000004
  0
LINE
  8
_0-b_
  6
DASHED1
 62
    7
 10
673.00000000000068
 20
2148.2000000000002
 11
673.00000000000068
 21
2072.9
  0
LINE
  8
_0-b_
  6
DASHED1
 62
    7
 10
654.37000000000068
 20
2129.0000000000004
 11
693.40000000000088
 21
2129.0000000000004
  0
LINE
  8
_0-b_
  6
DASHED1
 62
    7
 10
660.50000000000068
 20
2108.15
 11
660.50000000000068
 21
2099.9000000000005
  0
LINE
  8
_0-b_
  6
DASHED1
 62
    7
 10
663.7500000000009
 20
2104.0000000000004
 11
657.20000000000084
 21
2104.0000000000004
  0
LINE
  8
_0-b_
  6
DASHED1
 62
    7
 10
685.50000000000068
 20
2107.8200000000006
 11
685.50000000000068
 21
2100.1000000000003
  0
LINE
  8
_0-b_
  6
DASHED1
 62
    7
 10
682.2300000000007
 20
2104.0000000000004
 11
689.24000000000091
 21
2104.0000000000004
  0
LINE
  8
_0-b_
  6
DASHED1
 62
    7
 10
676.56000000000062
 20
2078.0000500000001
 11
669.29000000000087
 21
2078.0000500000001
  0
ARC
  8
_0-b_
  6
DASHED1
 62
    7
 10
681.5000000000009
 20
2137.5000000000004
 40
9
 50
0.0000000000000254
 51
90.000000000000056
  0
ARC
  8
_0-b_
  6
DASHED1
 62
    7
 10
684.50000000000102
 20
2092.5000000000004
 40
6.0000000000000008
 50
270
 51
0
  0
ARC
  8
_0-b_
  6
DASHED1
 62
    7
 10
684.0000000000009
 20
2089.5
 40
3.0000000000000004
 50
180.00000000000005
 51
270.00000000000005
  0
ARC
  8
_0-b_
  6
DASHED1
 62
    7
 10
664.50000000000102
 20
2137.5000000000004
 40
9
 50
90.000000000000056
 51
180.00000000000011
  0
ARC
  8
_0-b_
  6
DASHED1
 62
    7
 10
661.5000000000009
 20
2092.5000000000004
 40
6.0000000000000008
 50
180.00000000000005
 51
270.00000000000005
  0
ARC
  8
_0-b_
  6
DASHED1
 62
    7
 10
662.00000000000102
 20
2089.5
 40
3.0000000000000004
 50
270
 51
0
  0
CIRCLE
  8
_0-b_
  6
DASHED1
 62
    7
 10
660.50000000000068
 20
2104.0000000000004
 40
1.8999999999999999
  0
CIRCLE
  8
_0-b_
  6
DASHED1
 62
    7
 10
685.50000000000068
 20
2104.0000000000004
 40
1.8999999999999999
  0
ARC
  8
_0-b_
  6
DASHED1
 62
    7
 10
691.5000000000009
 20
2112.5000000000004
 40
1
 50
0.0000000000000254
 51
90.000000000000056
  0
ARC
  8
_0-b_
  6
DASHED1
 62
    7
 10
654.50000000000102
 20
2112.5000000000004
 40
1
 50
90.000000000000056
 51
180.00000000000011
  0
ARC
  8
_0-b_
  6
DASHED1
 62
    7
 10
657.5000000000009
 20
2113.5
 40
2
 50
180.00000000000005
 51
270.00000000000005
  0
ARC
  8
_0-b_
  6
DASHED1
 62
    7
 10
664.50000000000102
 20
2110.6000000000003
 40
0.5
 50
270
 51
0
  0
ARC
  8
_0-b_
  6
DASHED1
 62
    7
 10
663.50000000000079
 20
2110.6000000000003
 40
0.5
 50
180.00000000000005
 51
270.00000000000005
  0
ARC
  8
_0-b_
  6
DASHED1
 62
    7
 10
681.5000000000009
 20
2110.6000000000003
 40
0.5
 50
180.00000000000005
 51
270.00000000000005
  0
ARC
  8
_0-b_
  6
DASHED1
 62
    7
 10
682.5000000000009
 20
2110.6000000000003
 40
0.5
 50
270
 51
0
  0
ARC
  8
_0-b_
  6
DASHED1
 62
    7
 10
688.50000000000079
 20
2113.5
 40
2
 50
270
 51
0
  0
ARC
  8
_0-b_
  6
DASHED1
 62
    7
 10
673.00000000000068
 20
2082.5000500000001
 40
3.5000000000000008
 50
90.000000000000056
 51
180.00000000000011
  0
ARC
  8
_0-b_
  6
DASHED1
 62
    7
 10
673.00000000000068
 20
2082.5000500000001
 40
3.5000000000000008
 50
0.0000000000000254
 51
90.000000000000056
  0
ARC
  8
_0-b_
  6
DASHED1
 62
    7
 10
673.00000000000068
 20
2082.5000500000001
 40
3.0000000000000004
 50
138.19000000000005
 51
180.00000000000011
  0
ARC
  8
_0-b_
  6
DASHED1
 62
    7
 10
673.00000000000068
 20
2082.5000500000001
 40
3.0000000000000004
 50
0.0000000000000254
 51
41.810000000000023
  0
ARC
  8
_0-b_
  6
DASHED1
 62
    7
 10
671.00000000000079
 20
2076.5000500000001
 40
1
 50
180.00000000000005
 51
270.00000000000005
  0
ARC
  8
_0-b_
  6
DASHED1
 62
    7
 10
675.0000000000009
 20
2076.5000500000001
 40
1
 50
270
 51
0
  0
ARC
  8
_0-b_
  6
DASHED1
 62
    7
 10
675.50000000000068
 20
2083.6421500000001
 40
10
 50
180.00000000000005
 51
225.00000000000005
  0
ARC
  8
_0-b_
  6
DASHED1
 62
    7
 10
670.50000000000068
 20
2083.6421500000001
 40
10
 50
315
 51
0
  0
ARC
  8
_0-b_
  6
DASHED1
 62
    7
 10
690.20000000000072
 20
2111.2000000000002
 40
0.2999999999999998
 50
0.0000000000000254
 51
90.000000000000056
  0
ARC
  8
_0-b_
  6
DASHED1
 62
    7
 10
655.80000000000097
 20
2111.2000000000002
 40
0.2999999999999998
 50
90.000000000000056
 51
180.00000000000011
  0
ARC
  8
_0-b_
  6
DASHED1
 62
    7
 10
673.50000000000079
 20
2102.0004000000003
 40
0.5
 50
270
 51
0
  0
ARC
  8
_0-b_
  6
DASHED1
 62
    7
 10
672.5000000000009
 20
2102.0004000000003
 40
0.5
 50
180.00000000000005
 51
270.00000000000005
  0
ARC
  8
_0-b_
  6
DASHED1
 62
    7
 10
691.5000000000009
 20
2101.5000000000004
 40
1
 50
270
 51
0
  0
ARC
  8
_0-b_
  6
DASHED1
 62
    7
 10
654.50000000000102
 20
2101.5000000000004
 40
1
 50
180.00000000000005
 51
270.00000000000005
  0
CIRCLE
  8
_0-b_
  6
DASHED1
 62
    7
 10
676.2500000000009
 20
2101.5000500000001
 40
2.3250000000000001
  0
CIRCLE
  8
_0-b_
  6
DASHED1
 62
    7
 10
669.75000000000079
 20
2101.5000500000001
 40
2.3250000000000001
  0
CIRCLE
  8
_0-b_
  6
DASHED1
 62
    7
 10
669.75000000000079
 20
2108.0000500000001
 40
2.3250000000000001
  0
CIRCLE
  8
_0-b_
  6
DASHED1
 62
    7
 10
676.2500000000009
 20
2108.0000500000001
 40
2.3250000000000001
  0
CIRCLE
  8
_0-b_
  6
DASHED1
 62
    7
 10
673.00000000000068
 20
2078.0000500000001
 40
1.25
  0
LINE
  8
_0-b_
  6
DASHED1
 62
    7
 10
785.50000000000068
 20
2086.5000000000004
 11
785.00000000000056
 21
2086.5000000000004
  0
LINE
  8
_0-b_
  6
DASHED1
 62
    7
 10
762.50000000000056
 20
2086.5000000000004
 11
763.00000000000068
 21
2086.5000000000004
  0
LINE
  8
_0-b_
  6
DASHED1
 62
    7
 10
765.50000000000068
 20
2146.5000000000004
 11
782.50000000000056
 21
2146.5000000000004
  0
LINE
  8
_0-b_
  6
DASHED1
 62
    7
 10
766.00000000000079
 20
2111.5000000000004
 11
782.00000000000045
 21
2111.5000000000004
  0
LINE
  8
_0-b_
  6
DASHED1
 62
    7
 10
785.50000000000068
 20
2086.5000000000004
 11
785.00000000000056
 21
2086.5000000000004
  0
LINE
  8
_0-b_
  6
DASHED1
 62
    7
 10
791.50000000000068
 20
2113.5
 11
792.50000000000056
 21
2113.5
  0
LINE
  8
_0-b_
  6
DASHED1
 62
    7
 10
791.50000000000068
 20
2137.5000000000004
 11
791.50000000000068
 21
2113.5
  0
LINE
  8
_0-b_
  6
DASHED1
 62
    7
 10
756.50000000000068
 20
2113.5
 11
755.50000000000068
 21
2113.5
  0
LINE
  8
_0-b_
  6
DASHED1
 62
    7
 10
756.50000000000068
 20
2137.5000000000004
 11
756.50000000000068
 21
2113.5
  0
LINE
  8
_0-b_
  6
DASHED1
 62
    7
 10
755.11000000000058
 20
2116.5000000000004
 11
762.50000000000056
 21
2116.5000000000004
  0
LINE
  8
_0-b_
  6
DASHED1
 62
    7
 10
785.50000000000068
 20
2116.5000000000004
 11
793.6000000000007
 21
2116.5000000000004
  0
LINE
  8
_0-b_
  6
DASHED1
 62
    7
 10
764.00000000000068
 20
2111.5000000000004
 11
764.00000000000068
 21
2108.7000000000002
  0
LINE
  8
_0-b_
  6
DASHED1
 62
    7
 10
765.50000000000068
 20
2110.1000000000003
 11
764.50000000000045
 21
2110.1000000000003
  0
LINE
  8
_0-b_
  6
DASHED1
 62
    7
 10
782.50000000000056
 20
2110.1000000000003
 11
783.50000000000079
 21
2110.1000000000003
  0
LINE
  8
_0-b_
  6
DASHED1
 62
    7
 10
784.00000000000068
 20
2111.5000000000004
 11
784.00000000000068
 21
2108.7000000000002
  0
LINE
  8
_0-b_
  6
DASHED1
 62
    7
 10
782.00000000000045
 20
2111.5000000000004
 11
782.00000000000045
 21
2089.5
  0
LINE
  8
_0-b_
  6
DASHED1
 62
    7
 10
766.00000000000079
 20
2111.5000000000004
 11
766.00000000000079
 21
2089.5
  0
LINE
  8
_0-b_
  6
DASHED1
 62
    7
 10
771.7639500000007
 20
2084.5000500000005
 11
776.23605000000054
 21
2084.5000500000005
  0
LINE
  8
_0-b_
  6
DASHED1
 62
    7
 10
777.50000000000056
 20
2082.5000500000001
 11
777.50000000000056
 21
2080.5000500000001
  0
LINE
  8
_0-b_
  6
DASHED1
 62
    7
 10
770.50000000000068
 20
2082.5000500000001
 11
770.50000000000068
 21
2080.5000500000001
  0
LINE
  8
_0-b_
  6
DASHED1
 62
    7
 10
770.50000000000068
 20
2080.5000500000001
 11
771.00000000000079
 21
2080.5000500000001
  0
LINE
  8
_0-b_
  6
DASHED1
 62
    7
 10
777.00000000000045
 20
2080.5000500000001
 11
777.50000000000056
 21
2080.5000500000001
  0
LINE
  8
_0-b_
  6
DASHED1
 62
    7
 10
777.50000000000056
 20
2075.5000500000001
 11
770.50000000000068
 21
2075.5000500000001
  0
LINE
  8
_0-b_
  6
DASHED1
 62
    7
 10
777.54595000000051
 20
2075.5460000000002
 11
777.50000000000056
 21
2075.5000500000001
  0
LINE
  8
_0-b_
  6
DASHED1
 62
    7
 10
770.45405000000073
 20
2075.5460000000002
 11
770.50000000000068
 21
2075.5000500000001
  0
LINE
  8
_0-b_
  6
DASHED1
 62
    7
 10
777.00000000000045
 20
2082.5000500000001
 11
777.00000000000045
 21
2076.5000500000001
  0
LINE
  8
_0-b_
  6
DASHED1
 62
    7
 10
771.00000000000079
 20
2082.5000500000001
 11
771.00000000000079
 21
2076.5000500000001
  0
LINE
  8
_0-b_
  6
DASHED1
 62
    7
 10
771.00000000000079
 20
2080.5000500000001
 11
777.00000000000045
 21
2080.5000500000001
  0
LINE
  8
_0-b_
  6
DASHED1
 62
    7
 10
769.42895000000078
 20
2076.5711000000001
 11
770.45405000000073
 21
2075.5460000000002
  0
LINE
  8
_0-b_
  6
DASHED1
 62
    7
 10
778.57105000000046
 20
2076.5711000000001
 11
777.54595000000051
 21
2075.5460000000002
  0
LINE
  8
_0-b_
  6
DASHED1
 62
    7
 10
781.50000000000068
 20
2083.6421500000001
 11
781.50000000000068
 21
2111.5000000000004
  0
LINE
  8
_0-b_
  6
DASHED1
 62
    7
 10
766.50000000000068
 20
2083.6421500000001
 11
766.50000000000068
 21
2111.5000000000004
  0
LINE
  8
_0-b_
  6
DASHED1
 62
    7
 10
760.82455000000072
 20
2103.2626
 11
760.61305000000061
 21
2103.5381000000002
  0
LINE
  8
_0-b_
  6
DASHED1
 62
    7
 10
760.82455000000072
 20
2103.2626
 11
761.50000000000068
 21
2104.0000000000004
  0
LINE
  8
_0-b_
  6
DASHED1
 62
    7
 10
760.61305000000061
 20
2103.5381000000002
 11
761.50000000000068
 21
2104.0000000000004
  0
LINE
  8
_0-b_
  6
DASHED1
 62
    7
 10
782.00000000000045
 20
2111.5000000000004
 11
791.20000000000061
 21
2111.5000000000004
  0
LINE
  8
_0-b_
  6
DASHED1
 62
    7
 10
766.00000000000079
 20
2111.5000000000004
 11
756.80000000000063
 21
2111.5000000000004
  0
LINE
  8
_0-b_
  6
DASHED1
 62
    7
 10
775.00000000000056
 20
2111.5000000000004
 11
775.00000000000056
 21
2102.0004000000003
  0
LINE
  8
_0-b_
  6
DASHED1
 62
    7
 10
773.00000000000068
 20
2111.5000000000004
 11
773.00000000000068
 21
2102.0004000000003
  0
LINE
  8
_0-b_
  6
DASHED1
 62
    7
 10
773.50000000000079
 20
2101.5004000000003
 11
774.50000000000045
 21
2101.5004000000003
  0
LINE
  8
_0-b_
  6
DASHED1
 62
    7
 10
773.00000000000068
 20
2105.7200000000002
 11
766.50000000000068
 21
2105.7200000000002
  0
LINE
  8
_0-b_
  6
DASHED1
 62
    7
 10
781.50000000000068
 20
2105.7200000000002
 11
775.00000000000056
 21
2105.7200000000002
  0
LINE
  8
_0-b_
  6
DASHED1
 62
    7
 10
773.00000000000068
 20
2106.0900000000001
 11
771.93925000000035
 21
2106.0900000000001
  0
LINE
  8
_0-b_
  6
DASHED1
 62
    7
 10
769.56075000000055
 20
2106.0900000000001
 11
766.50000000000068
 21
2106.0900000000001
  0
LINE
  8
_0-b_
  6
DASHED1
 62
    7
 10
781.50000000000068
 20
2106.0900000000001
 11
778.43925000000069
 21
2106.0900000000001
  0
LINE
  8
_0-b_
  6
DASHED1
 62
    7
 10
776.06075000000032
 20
2106.0900000000001
 11
775.00000000000056
 21
2106.0900000000001
  0
LINE
  8
_0-b_
  6
DASHED1
 62
    7
 10
793.50000000000079
 20
2101.5000000000004
 11
793.50000000000079
 21
2112.5000000000004
  0
LINE
  8
_0-b_
  6
DASHED1
 62
    7
 10
791.50000000000068
 20
2100.5000000000004
 11
792.50000000000056
 21
2100.5000000000004
  0
LINE
  8
_0-b_
  6
DASHED1
 62
    7
 10
791.50000000000068
 20
2111.2000000000002
 11
791.50000000000068
 21
2092.5000000000004
  0
LINE
  8
_0-b_
  6
DASHED1
 62
    7
 10
754.50000000000045
 20
2101.5000000000004
 11
754.50000000000045
 21
2112.5000000000004
  0
LINE
  8
_0-b_
  6
DASHED1
 62
    7
 10
756.50000000000068
 20
2100.5000000000004
 11
755.50000000000068
 21
2100.5000000000004
  0
LINE
  8
_0-b_
  6
DASHED1
 62
    7
 10
756.50000000000068
 20
2111.2000000000002
 11
756.50000000000068
 21
2092.5000000000004
  0
LINE
  8
_0-b_
  6
DASHED1
 62
    7
 10
774.00000000000068
 20
2148.2000000000002
 11
774.00000000000068
 21
2072.9
  0
LINE
  8
_0-b_
  6
DASHED1
 62
    7
 10
755.37000000000034
 20
2129.0000000000004
 11
794.40000000000054
 21
2129.0000000000004
  0
LINE
  8
_0-b_
  6
DASHED1
 62
    7
 10
761.50000000000068
 20
2108.15
 11
761.50000000000068
 21
2099.9000000000005
  0
LINE
  8
_0-b_
  6
DASHED1
 62
    7
 10
764.75000000000079
 20
2104.0000000000004
 11
758.2000000000005
 21
2104.0000000000004
  0
LINE
  8
_0-b_
  6
DASHED1
 62
    7
 10
786.50000000000068
 20
2107.8200000000006
 11
786.50000000000068
 21
2100.1000000000003
  0
LINE
  8
_0-b_
  6
DASHED1
 62
    7
 10
783.2300000000007
 20
2104.0000000000004
 11
790.24000000000057
 21
2104.0000000000004
  0
LINE
  8
_0-b_
  6
DASHED1
 62
    7
 10
777.56000000000062
 20
2078.0000500000001
 11
770.29000000000053
 21
2078.0000500000001
  0
ARC
  8
_0-b_
  6
DASHED1
 62
    7
 10
782.50000000000056
 20
2137.5000000000004
 40
9
 50
0.0000000000000254
 51
90.000000000000056
  0
ARC
  8
_0-b_
  6
DASHED1
 62
    7
 10
785.50000000000068
 20
2092.5000000000004
 40
6.0000000000000008
 50
270
 51
0
  0
ARC
  8
_0-b_
  6
DASHED1
 62
    7
 10
785.00000000000056
 20
2089.5
 40
3.0000000000000004
 50
180.00000000000005
 51
270.00000000000005
  0
ARC
  8
_0-b_
  6
DASHED1
 62
    7
 10
765.50000000000068
 20
2137.5000000000004
 40
9
 50
90.000000000000056
 51
180.00000000000011
  0
ARC
  8
_0-b_
  6
DASHED1
 62
    7
 10
762.50000000000056
 20
2092.5000000000004
 40
6.0000000000000008
 50
180.00000000000005
 51
270.00000000000005
  0
ARC
  8
_0-b_
  6
DASHED1
 62
    7
 10
763.00000000000068
 20
2089.5
 40
3.0000000000000004
 50
270
 51
0
  0
CIRCLE
  8
_0-b_
  6
DASHED1
 62
    7
 10
761.50000000000068
 20
2104.0000000000004
 40
1.8999999999999999
  0
CIRCLE
  8
_0-b_
  6
DASHED1
 62
    7
 10
786.50000000000068
 20
2104.0000000000004
 40
1.8999999999999999
  0
ARC
  8
_0-b_
  6
DASHED1
 62
    7
 10
792.50000000000056
 20
2112.5000000000004
 40
1
 50
0.0000000000000254
 51
90.000000000000056
  0
ARC
  8
_0-b_
  6
DASHED1
 62
    7
 10
755.50000000000068
 20
2112.5000000000004
 40
1
 50
90.000000000000056
 51
180.00000000000011
  0
ARC
  8
_0-b_
  6
DASHED1
 62
    7
 10
758.50000000000079
 20
2113.5
 40
2
 50
180.00000000000005
 51
270.00000000000005
  0
ARC
  8
_0-b_
  6
DASHED1
 62
    7
 10
765.50000000000068
 20
2110.6000000000003
 40
0.5
 50
270
 51
0
  0
ARC
  8
_0-b_
  6
DASHED1
 62
    7
 10
764.50000000000045
 20
2110.6000000000003
 40
0.5
 50
180.00000000000005
 51
270.00000000000005
  0
ARC
  8
_0-b_
  6
DASHED1
 62
    7
 10
782.50000000000056
 20
2110.6000000000003
 40
0.5
 50
180.00000000000005
 51
270.00000000000005
  0
ARC
  8
_0-b_
  6
DASHED1
 62
    7
 10
783.50000000000079
 20
2110.6000000000003
 40
0.5
 50
270
 51
0
  0
ARC
  8
_0-b_
  6
DASHED1
 62
    7
 10
789.50000000000045
 20
2113.5
 40
2
 50
270
 51
0
  0
ARC
  8
_0-b_
  6
DASHED1
 62
    7
 10
774.00000000000068
 20
2082.5000500000001
 40
3.5000000000000008
 50
90.000000000000056
 51
180.00000000000011
  0
ARC
  8
_0-b_
  6
DASHED1
 62
    7
 10
774.00000000000068
 20
2082.5000500000001
 40
3.5000000000000008
 50
0.0000000000000254
 51
90.000000000000056
  0
ARC
  8
_0-b_
  6
DASHED1
 62
    7
 10
774.00000000000068
 20
2082.5000500000001
 40
3.0000000000000004
 50
138.19000000000005
 51
180.00000000000011
  0
ARC
  8
_0-b_
  6
DASHED1
 62
    7
 10
774.00000000000068
 20
2082.5000500000001
 40
3.0000000000000004
 50
0.0000000000000254
 51
41.810000000000023
  0
ARC
  8
_0-b_
  6
DASHED1
 62
    7
 10
772.00000000000045
 20
2076.5000500000001
 40
1
 50
180.00000000000005
 51
270.00000000000005
  0
ARC
  8
_0-b_
  6
DASHED1
 62
    7
 10
776.00000000000079
 20
2076.5000500000001
 40
1
 50
270
 51
0
  0
ARC
  8
_0-b_
  6
DASHED1
 62
    7
 10
776.50000000000068
 20
2083.6421500000001
 40
10
 50
180.00000000000005
 51
225.00000000000005
  0
ARC
  8
_0-b_
  6
DASHED1
 62
    7
 10
771.50000000000068
 20
2083.6421500000001
 40
10
 50
315
 51
0
  0
ARC
  8
_0-b_
  6
DASHED1
 62
    7
 10
791.20000000000061
 20
2111.2000000000002
 40
0.2999999999999998
 50
0.0000000000000254
 51
90.000000000000056
  0
ARC
  8
_0-b_
  6
DASHED1
 62
    7
 10
756.80000000000063
 20
2111.2000000000002
 40
0.2999999999999998
 50
90.000000000000056
 51
180.00000000000011
  0
ARC
  8
_0-b_
  6
DASHED1
 62
    7
 10
774.50000000000045
 20
2102.0004000000003
 40
0.5
 50
270
 51
0
  0
ARC
  8
_0-b_
  6
DASHED1
 62
    7
 10
773.50000000000079
 20
2102.0004000000003
 40
0.5
 50
180.00000000000005
 51
270.00000000000005
  0
ARC
  8
_0-b_
  6
DASHED1
 62
    7
 10
792.50000000000056
 20
2101.5000000000004
 40
1
 50
270
 51
0
  0
ARC
  8
_0-b_
  6
DASHED1
 62
    7
 10
755.50000000000068
 20
2101.5000000000004
 40
1
 50
180.00000000000005
 51
270.00000000000005
  0
CIRCLE
  8
_0-b_
  6
DASHED1
 62
    7
 10
777.25000000000079
 20
2101.5000500000001
 40
2.3250000000000001
  0
CIRCLE
  8
_0-b_
  6
DASHED1
 62
    7
 10
770.75000000000045
 20
2101.5000500000001
 40
2.3250000000000001
  0
CIRCLE
  8
_0-b_
  6
DASHED1
 62
    7
 10
770.75000000000045
 20
2108.0000500000001
 40
2.3250000000000001
  0
CIRCLE
  8
_0-b_
  6
DASHED1
 62
    7
 10
777.25000000000079
 20
2108.0000500000001
 40
2.3250000000000001
  0
CIRCLE
  8
_0-b_
  6
DASHED1
 62
    7
 10
774.00000000000068
 20
2078.0000500000001
 40
1.25
  0
LINE
  8
_0-b_
  6
DASHED1
 62
    7
 10
1138.5
 20
2086.5000000000004
 11
1138
 21
2086.5000000000004
  0
LINE
  8
_0-b_
  6
DASHED1
 62
    7
 10
1115.5
 20
2086.5000000000004
 11
1116
 21
2086.5000000000004
  0
LINE
  8
_0-b_
  6
DASHED1
 62
    7
 10
1118.5
 20
2146.5000000000004
 11
1135.5
 21
2146.5000000000004
  0
LINE
  8
_0-b_
  6
DASHED1
 62
    7
 10
1119
 20
2111.5000000000004
 11
1135
 21
2111.5000000000004
  0
LINE
  8
_0-b_
  6
DASHED1
 62
    7
 10
1138.5
 20
2086.5000000000004
 11
1138
 21
2086.5000000000004
  0
LINE
  8
_0-b_
  6
DASHED1
 62
    7
 10
1144.5
 20
2113.5
 11
1145.5
 21
2113.5
  0
LINE
  8
_0-b_
  6
DASHED1
 62
    7
 10
1144.5
 20
2137.5000000000004
 11
1144.5
 21
2113.5
  0
LINE
  8
_0-b_
  6
DASHED1
 62
    7
 10
1109.5
 20
2113.5
 11
1108.5
 21
2113.5
  0
LINE
  8
_0-b_
  6
DASHED1
 62
    7
 10
1109.5
 20
2137.5000000000004
 11
1109.5
 21
2113.5
  0
LINE
  8
_0-b_
  6
DASHED1
 62
    7
 10
1108.1099999999998
 20
2116.5000000000004
 11
1115.5
 21
2116.5000000000004
  0
LINE
  8
_0-b_
  6
DASHED1
 62
    7
 10
1138.5
 20
2116.5000000000004
 11
1146.5999999999999
 21
2116.5000000000004
  0
LINE
  8
_0-b_
  6
DASHED1
 62
    7
 10
1117
 20
2111.5000000000004
 11
1117
 21
2108.7000000000002
  0
LINE
  8
_0-b_
  6
DASHED1
 62
    7
 10
1118.5
 20
2110.1000000000003
 11
1117.5
 21
2110.1000000000003
  0
LINE
  8
_0-b_
  6
DASHED1
 62
    7
 10
1135.5
 20
2110.1000000000003
 11
1136.5
 21
2110.1000000000003
  0
LINE
  8
_0-b_
  6
DASHED1
 62
    7
 10
1137
 20
2111.5000000000004
 11
1137
 21
2108.7000000000002
  0
LINE
  8
_0-b_
  6
DASHED1
 62
    7
 10
1135
 20
2111.5000000000004
 11
1135
 21
2089.5
  0
LINE
  8
_0-b_
  6
DASHED1
 62
    7
 10
1119
 20
2111.5000000000004
 11
1119
 21
2089.5
  0
LINE
  8
_0-b_
  6
DASHED1
 62
    7
 10
1124.76395
 20
2084.5000500000005
 11
1129.2360499999999
 21
2084.5000500000005
  0
LINE
  8
_0-b_
  6
DASHED1
 62
    7
 10
1130.5
 20
2082.5000500000001
 11
1130.5
 21
2080.5000500000001
  0
LINE
  8
_0-b_
  6
DASHED1
 62
    7
 10
1123.5
 20
2082.5000500000001
 11
1123.5
 21
2080.5000500000001
  0
LINE
  8
_0-b_
  6
DASHED1
 62
    7
 10
1123.5
 20
2080.5000500000001
 11
1124
 21
2080.5000500000001
  0
LINE
  8
_0-b_
  6
DASHED1
 62
    7
 10
1130
 20
2080.5000500000001
 11
1130.5
 21
2080.5000500000001
  0
LINE
  8
_0-b_
  6
DASHED1
 62
    7
 10
1130.5
 20
2075.5000500000001
 11
1123.5
 21
2075.5000500000001
  0
LINE
  8
_0-b_
  6
DASHED1
 62
    7
 10
1130.5459500000001
 20
2075.5460000000002
 11
1130.5
 21
2075.5000500000001
  0
LINE
  8
_0-b_
  6
DASHED1
 62
    7
 10
1123.45405
 20
2075.5460000000002
 11
1123.5
 21
2075.5000500000001
  0
LINE
  8
_0-b_
  6
DASHED1
 62
    7
 10
1130
 20
2082.5000500000001
 11
1130
 21
2076.5000500000001
  0
LINE
  8
_0-b_
  6
DASHED1
 62
    7
 10
1124
 20
2082.5000500000001
 11
1124
 21
2076.5000500000001
  0
LINE
  8
_0-b_
  6
DASHED1
 62
    7
 10
1124
 20
2080.5000500000001
 11
1130
 21
2080.5000500000001
  0
LINE
  8
_0-b_
  6
DASHED1
 62
    7
 10
1122.4289499999999
 20
2076.5711000000001
 11
1123.45405
 21
2075.5460000000002
  0
LINE
  8
_0-b_
  6
DASHED1
 62
    7
 10
1131.57105
 20
2076.5711000000001
 11
1130.5459500000001
 21
2075.5460000000002
  0
LINE
  8
_0-b_
  6
DASHED1
 62
    7
 10
1134.5
 20
2083.6421500000001
 11
1134.5
 21
2111.5000000000004
  0
LINE
  8
_0-b_
  6
DASHED1
 62
    7
 10
1119.5
 20
2083.6421500000001
 11
1119.5
 21
2111.5000000000004
  0
LINE
  8
_0-b_
  6
DASHED1
 62
    7
 10
1113.82455
 20
2103.2626
 11
1113.6130499999999
 21
2103.5381000000002
  0
LINE
  8
_0-b_
  6
DASHED1
 62
    7
 10
1113.82455
 20
2103.2626
 11
1114.5
 21
2104.0000000000004
  0
LINE
  8
_0-b_
  6
DASHED1
 62
    7
 10
1113.6130499999999
 20
2103.5381000000002
 11
1114.5
 21
2104.0000000000004
  0
LINE
  8
_0-b_
  6
DASHED1
 62
    7
 10
1135
 20
2111.5000000000004
 11
1144.1999999999998
 21
2111.5000000000004
  0
LINE
  8
_0-b_
  6
DASHED1
 62
    7
 10
1119
 20
2111.5000000000004
 11
1109.8000000000001
 21
2111.5000000000004
  0
LINE
  8
_0-b_
  6
DASHED1
 62
    7
 10
1128
 20
2111.5000000000004
 11
1128
 21
2102.0004000000003
  0
LINE
  8
_0-b_
  6
DASHED1
 62
    7
 10
1126
 20
2111.5000000000004
 11
1126
 21
2102.0004000000003
  0
LINE
  8
_0-b_
  6
DASHED1
 62
    7
 10
1126.5
 20
2101.5004000000003
 11
1127.5
 21
2101.5004000000003
  0
LINE
  8
_0-b_
  6
DASHED1
 62
    7
 10
1126
 20
2105.7200000000002
 11
1119.5
 21
2105.7200000000002
  0
LINE
  8
_0-b_
  6
DASHED1
 62
    7
 10
1134.5
 20
2105.7200000000002
 11
1128
 21
2105.7200000000002
  0
LINE
  8
_0-b_
  6
DASHED1
 62
    7
 10
1126
 20
2106.0900000000001
 11
1124.9392499999999
 21
2106.0900000000001
  0
LINE
  8
_0-b_
  6
DASHED1
 62
    7
 10
1122.56075
 20
2106.0900000000001
 11
1119.5
 21
2106.0900000000001
  0
LINE
  8
_0-b_
  6
DASHED1
 62
    7
 10
1134.5
 20
2106.0900000000001
 11
1131.4392499999999
 21
2106.0900000000001
  0
LINE
  8
_0-b_
  6
DASHED1
 62
    7
 10
1129.0607499999998
 20
2106.0900000000001
 11
1128
 21
2106.0900000000001
  0
LINE
  8
_0-b_
  6
DASHED1
 62
    7
 10
1146.5
 20
2101.5000000000004
 11
1146.5
 21
2112.5000000000004
  0
LINE
  8
_0-b_
  6
DASHED1
 62
    7
 10
1144.5
 20
2100.5000000000004
 11
1145.5
 21
2100.5000000000004
  0
LINE
  8
_0-b_
  6
DASHED1
 62
    7
 10
1144.5
 20
2111.2000000000002
 11
1144.5
 21
2092.5000000000004
  0
LINE
  8
_0-b_
  6
DASHED1
 62
    7
 10
1107.5
 20
2101.5000000000004
 11
1107.5
 21
2112.5000000000004
  0
LINE
  8
_0-b_
  6
DASHED1
 62
    7
 10
1109.5
 20
2100.5000000000004
 11
1108.5
 21
2100.5000000000004
  0
LINE
  8
_0-b_
  6
DASHED1
 62
    7
 10
1109.5
 20
2111.2000000000002
 11
1109.5
 21
2092.5000000000004
  0
LINE
  8
_0-b_
  6
DASHED1
 62
    7
 10
1127
 20
2148.2000000000002
 11
1127
 21
2072.9
  0
LINE
  8
_0-b_
  6
DASHED1
 62
    7
 10
1108.3699999999998
 20
2129.0000000000004
 11
1147.4
 21
2129.0000000000004
  0
LINE
  8
_0-b_
  6
DASHED1
 62
    7
 10
1114.5
 20
2108.15
 11
1114.5
 21
2099.9000000000005
  0
LINE
  8
_0-b_
  6
DASHED1
 62
    7
 10
1117.75
 20
2104.0000000000004
 11
1111.1999999999998
 21
2104.0000000000004
  0
LINE
  8
_0-b_
  6
DASHED1
 62
    7
 10
1139.5
 20
2107.8200000000006
 11
1139.5
 21
2100.1000000000003
  0
LINE
  8
_0-b_
  6
DASHED1
 62
    7
 10
1136.23
 20
2104.0000000000004
 11
1143.2400000000002
 21
2104.0000000000004
  0
LINE
  8
_0-b_
  6
DASHED1
 62
    7
 10
1130.5599999999999
 20
2078.0000500000001
 11
1123.2899999999999
 21
2078.0000500000001
  0
ARC
  8
_0-b_
  6
DASHED1
 62
    7
 10
1135.5
 20
2137.5000000000004
 40
9
 50
0.0000000000000254
 51
90.000000000000056
  0
ARC
  8
_0-b_
  6
DASHED1
 62
    7
 10
1138.5
 20
2092.5000000000004
 40
6.0000000000000008
 50
270
 51
0
  0
ARC
  8
_0-b_
  6
DASHED1
 62
    7
 10
1138
 20
2089.5
 40
3.0000000000000004
 50
180.00000000000005
 51
270.00000000000005
  0
ARC
  8
_0-b_
  6
DASHED1
 62
    7
 10
1118.5
 20
2137.5000000000004
 40
9
 50
90.000000000000056
 51
180.00000000000011
  0
ARC
  8
_0-b_
  6
DASHED1
 62
    7
 10
1115.5
 20
2092.5000000000004
 40
6.0000000000000008
 50
180.00000000000005
 51
270.00000000000005
  0
ARC
  8
_0-b_
  6
DASHED1
 62
    7
 10
1116
 20
2089.5
 40
3.0000000000000004
 50
270
 51
0
  0
CIRCLE
  8
_0-b_
  6
DASHED1
 62
    7
 10
1114.5
 20
2104.0000000000004
 40
1.8999999999999999
  0
CIRCLE
  8
_0-b_
  6
DASHED1
 62
    7
 10
1139.5
 20
2104.0000000000004
 40
1.8999999999999999
  0
ARC
  8
_0-b_
  6
DASHED1
 62
    7
 10
1145.5
 20
2112.5000000000004
 40
1
 50
0.0000000000000254
 51
90.000000000000056
  0
ARC
  8
_0-b_
  6
DASHED1
 62
    7
 10
1108.5
 20
2112.5000000000004
 40
1
 50
90.000000000000056
 51
180.00000000000011
  0
ARC
  8
_0-b_
  6
DASHED1
 62
    7
 10
1111.5
 20
2113.5
 40
2
 50
180.00000000000005
 51
270.00000000000005
  0
ARC
  8
_0-b_
  6
DASHED1
 62
    7
 10
1118.5
 20
2110.6000000000003
 40
0.5
 50
270
 51
0
  0
ARC
  8
_0-b_
  6
DASHED1
 62
    7
 10
1117.5
 20
2110.6000000000003
 40
0.5
 50
180.00000000000005
 51
270.00000000000005
  0
ARC
  8
_0-b_
  6
DASHED1
 62
    7
 10
1135.5
 20
2110.6000000000003
 40
0.5
 50
180.00000000000005
 51
270.00000000000005
  0
ARC
  8
_0-b_
  6
DASHED1
 62
    7
 10
1136.5
 20
2110.6000000000003
 40
0.5
 50
270
 51
0
  0
ARC
  8
_0-b_
  6
DASHED1
 62
    7
 10
1142.5
 20
2113.5
 40
2
 50
270
 51
0
  0
ARC
  8
_0-b_
  6
DASHED1
 62
    7
 10
1127
 20
2082.5000500000001
 40
3.5000000000000008
 50
90.000000000000056
 51
180.00000000000011
  0
ARC
  8
_0-b_
  6
DASHED1
 62
    7
 10
1127
 20
2082.5000500000001
 40
3.5000000000000008
 50
0.0000000000000254
 51
90.000000000000056
  0
ARC
  8
_0-b_
  6
DASHED1
 62
    7
 10
1127
 20
2082.5000500000001
 40
3.0000000000000004
 50
138.19000000000005
 51
180.00000000000011
  0
ARC
  8
_0-b_
  6
DASHED1
 62
    7
 10
1127
 20
2082.5000500000001
 40
3.0000000000000004
 50
0.0000000000000254
 51
41.810000000000023
  0
ARC
  8
_0-b_
  6
DASHED1
 62
    7
 10
1125
 20
2076.5000500000001
 40
1
 50
180.00000000000005
 51
270.00000000000005
  0
ARC
  8
_0-b_
  6
DASHED1
 62
    7
 10
1129
 20
2076.5000500000001
 40
1
 50
270
 51
0
  0
ARC
  8
_0-b_
  6
DASHED1
 62
    7
 10
1129.5
 20
2083.6421500000001
 40
10
 50
180.00000000000005
 51
225.00000000000005
  0
ARC
  8
_0-b_
  6
DASHED1
 62
    7
 10
1124.5
 20
2083.6421500000001
 40
10
 50
315
 51
0
  0
ARC
  8
_0-b_
  6
DASHED1
 62
    7
 10
1144.1999999999998
 20
2111.2000000000002
 40
0.2999999999999998
 50
0.0000000000000254
 51
90.000000000000056
  0
ARC
  8
_0-b_
  6
DASHED1
 62
    7
 10
1109.8000000000001
 20
2111.2000000000002
 40
0.2999999999999998
 50
90.000000000000056
 51
180.00000000000011
  0
ARC
  8
_0-b_
  6
DASHED1
 62
    7
 10
1127.5
 20
2102.0004000000003
 40
0.5
 50
270
 51
0
  0
ARC
  8
_0-b_
  6
DASHED1
 62
    7
 10
1126.5
 20
2102.0004000000003
 40
0.5
 50
180.00000000000005
 51
270.00000000000005
  0
ARC
  8
_0-b_
  6
DASHED1
 62
    7
 10
1145.5
 20
2101.5000000000004
 40
1
 50
270
 51
0
  0
ARC
  8
_0-b_
  6
DASHED1
 62
    7
 10
1108.5
 20
2101.5000000000004
 40
1
 50
180.00000000000005
 51
270.00000000000005
  0
CIRCLE
  8
_0-b_
  6
DASHED1
 62
    7
 10
1130.25
 20
2101.5000500000001
 40
2.3250000000000001
  0
CIRCLE
  8
_0-b_
  6
DASHED1
 62
    7
 10
1123.75
 20
2101.5000500000001
 40
2.3250000000000001
  0
CIRCLE
  8
_0-b_
  6
DASHED1
 62
    7
 10
1123.75
 20
2108.0000500000001
 40
2.3250000000000001
  0
CIRCLE
  8
_0-b_
  6
DASHED1
 62
    7
 10
1130.25
 20
2108.0000500000001
 40
2.3250000000000001
  0
CIRCLE
  8
_0-b_
  6
DASHED1
 62
    7
 10
1127
 20
2078.0000500000001
 40
1.25
  0
LINE
  8
_0-3_
  6
CONTINUOUS
 62
    2
 10
386.99999999999988
 20
2068
 11
1463
 21
2068
  0
TEXT
  8
_0-d_
 62
    7
 10
3859.8692808597488
 20
2080.4530697731929
 40
35
 41
0.8571428571428568
 50
0
  1
扉　色
  0
TEXT
  8
_0-d_
 62
    7
 10
3714.9604406654852
 20
2012.9530697731929
 40
35
 41
0.8571428571428568
 50
0
  1
ＳＷ
  0
TEXT
  8
_0-d_
 62
    7
 10
3829.4903410729093
 20
2012.9530697731929
 40
35
 41
0.8571428571428568
 50
0
  1
ホワイト
  0
TEXT
  8
_0-d_
 62
    7
 10
3719.9518960751729
 20
1953.5423965889731
 40
35
 41
0.8571428571428568
 50
0
  1
ＬＧ
  0
TEXT
  8
_0-d_
 62
    7
 10
3829.5893349779444
 20
1953.5423965889731
 40
35
 41
0.8571428571428568
 50
0
  1
木　　目
  0
TEXT
  8
_0-d_
 62
    7
 10
3714.9604406654852
 20
1887.9530697731922
 40
35
 41
0.8571428571428568
 50
0
  1
ＵＷ
  0
TEXT
  8
_0-d_
 62
    7
 10
3829.4903410729084
 20
1887.9530697731922
 40
35
 41
0.8571428571428568
 50
0
  1
ｳﾙﾄﾗﾎﾜｲﾄ（艶有）
  0
TEXT
  8
_0-d_
 62
    7
 10
3719.9518960751729
 20
1828.5423965889729
 40
35
 41
0.8571428571428568
 50
0
  1
ＷＮ
  0
TEXT
  8
_0-d_
 62
    7
 10
3829.4903410729093
 20
1827.9530697731922
 40
35
 41
0.8571428571428568
 50
0
  1
ｳｨﾝｻﾞｰﾅｯﾄ（艶有）
  0
LINE
  8
_0-d_
  6
CONTINUOUS
 62
    3
 10
4114.2482206465883
 20
2130.4530697731929
 11
4114.2482206465883
 21
1635.453069773192
  0
LINE
  8
_0-d_
  6
CONTINUOUS
 62
    7
 10
3799.4903410729093
 20
2060.4530697731929
 11
3799.4903410729093
 21
1940.4530697731922
  0
TEXT
  8
_0-d_
 62
    7
 10
3719.9518960751729
 20
1768.5423965889726
 40
35
 41
0.8571428571428568
 50
0
  1
ＢＳ
  0
TEXT
  8
_0-d_
 62
    7
 10
3829.5893349779444
 20
1768.5423965889726
 40
35
 41
0.8571428571428568
 50
0
  1
ブラックストーン
  0
LINE
  8
_0-d_
  6
CONTINUOUS
 62
    3
 10
3699.4903410729093
 20
2130.4530697731929
 11
3699.4903410729093
 21
1635.453069773192
  0
LINE
  8
_0-d_
  6
CONTINUOUS
 62
    7
 10
3799.4903410729093
 20
1935.4530697731922
 11
3799.4903410729093
 21
1635.453069773192
  0
TEXT
  8
_0-d_
 62
    7
 10
3719.9518960751729
 20
1708.5423965889726
 40
35
 41
0.8571428571428568
 50
0
  1
ＰＭ
  0
TEXT
  8
_0-d_
 62
    7
 10
3829.5893349779453
 20
1708.5423965889726
 40
35
 41
0.8571428571428568
 50
0
  1
ペールグレイン
  0
TEXT
  8
_0-d_
 62
    7
 10
3719.9518960751729
 20
1648.5423965889726
 40
35
 41
0.8571428571428568
 50
0
  1
ＭＤ
  0
TEXT
  8
_0-d_
 62
    7
 10
3829.5893349779453
 20
1648.5423965889726
 40
35
 41
0.8571428571428568
 50
0
  1
ダークグレイン
  0
LINE
  8
_0-d_
  6
CONTINUOUS
 62
    3
 10
4114.2482206465883
 20
2130.4530697731929
 11
3699.4903410729093
 21
2130.4530697731929
  0
LINE
  8
_0-d_
  6
CONTINUOUS
 62
    3
 10
4114.2482206465883
 20
1635.453069773192
 11
3699.4903410729093
 21
1635.453069773192
  0
LINE
  8
_0-d_
  6
CONTINUOUS
 62
    7
 10
3699.4903410729093
 20
2000.4530697731929
 11
4114.2482206465883
 21
2000.4530697731929
  0
LINE
  8
_0-d_
  6
CONTINUOUS
 62
    7
 10
4114.2482206465883
 20
2000.4530697731929
 11
3699.4903410729093
 21
2000.4530697731929
  0
LINE
  8
_0-d_
  6
CONTINUOUS
 62
    3
 10
4114.2482206465883
 20
2000.4530697731929
 11
3699.4903410729093
 21
2000.4530697731929
  0
LINE
  8
_0-d_
  6
CONTINUOUS
 62
    3
 10
4114.2482206465883
 20
1940.4530697731922
 11
3699.4903410729093
 21
1940.4530697731922
  0
LINE
  8
_0-d_
  6
CONTINUOUS
 62
    7
 10
4114.2482206465883
 20
1875.4530697731922
 11
3699.4903410729093
 21
1875.4530697731922
  0
LINE
  8
_0-d_
  6
CONTINUOUS
 62
    3
 10
4114.2482206465883
 20
1875.4530697731922
 11
3699.4903410729093
 21
1875.4530697731922
  0
LINE
  8
_0-d_
  6
CONTINUOUS
 62
    3
 10
4114.2482206465883
 20
1815.4530697731922
 11
3699.4903410729093
 21
1815.4530697731922
  0
LINE
  8
_0-d_
  6
CONTINUOUS
 62
    7
 10
3699.4903410729093
 20
1875.4530697731922
 11
4114.2482206465883
 21
1875.4530697731922
  0
LINE
  8
_0-d_
  6
CONTINUOUS
 62
    7
 10
4114.2482206465883
 20
1940.4530697731922
 11
3699.4903410729093
 21
1940.4530697731922
  0
LINE
  8
_0-d_
  6
CONTINUOUS
 62
    7
 10
4114.2482206465883
 20
1935.4530697731922
 11
3699.4903410729093
 21
1935.4530697731922
  0
LINE
  8
_0-d_
  6
CONTINUOUS
 62
    7
 10
4114.2482206465883
 20
1815.4530697731922
 11
3699.4903410729093
 21
1815.4530697731922
  0
LINE
  8
_0-d_
  6
CONTINUOUS
 62
    3
 10
4114.2482206465883
 20
1815.4530697731922
 11
3699.4903410729093
 21
1815.4530697731922
  0
LINE
  8
_0-d_
  6
CONTINUOUS
 62
    3
 10
4114.2482206465883
 20
1755.453069773192
 11
3699.4903410729093
 21
1755.453069773192
  0
LINE
  8
_0-d_
  6
CONTINUOUS
 62
    7
 10
3699.4903410729093
 20
1815.4530697731922
 11
4114.2482206465883
 21
1815.4530697731922
  0
LINE
  8
_0-d_
  6
CONTINUOUS
 62
    7
 10
4114.2482206465883
 20
1755.453069773192
 11
3699.4903410729093
 21
1755.453069773192
  0
LINE
  8
_0-d_
  6
CONTINUOUS
 62
    3
 10
4114.2482206465883
 20
1755.453069773192
 11
3699.4903410729093
 21
1755.453069773192
  0
LINE
  8
_0-d_
  6
CONTINUOUS
 62
    3
 10
4114.2482206465883
 20
1695.453069773192
 11
3699.4903410729093
 21
1695.453069773192
  0
LINE
  8
_0-d_
  6
CONTINUOUS
 62
    7
 10
3699.4903410729093
 20
1755.453069773192
 11
4114.2482206465883
 21
1755.453069773192
  0
LINE
  8
_0-d_
  6
CONTINUOUS
 62
    7
 10
4114.2482206465883
 20
1695.453069773192
 11
3699.4903410729093
 21
1695.453069773192
  0
LINE
  8
_0-d_
  6
CONTINUOUS
 62
    3
 10
4114.2482206465883
 20
1695.453069773192
 11
3699.4903410729093
 21
1695.453069773192
  0
LINE
  8
_0-d_
  6
CONTINUOUS
 62
    7
 10
3699.4903410729093
 20
1695.453069773192
 11
4114.2482206465883
 21
1695.453069773192
  0
LINE
  8
_0-d_
  6
CONTINUOUS
 62
    7
 10
4114.2482206465883
 20
2060.4530697731929
 11
3699.4903410729093
 21
2060.4530697731929
  0
LINE
  8
_0-d_
  6
CONTINUOUS
 62
    7
 10
4114.2482206465883
 20
2065.4530697731929
 11
3699.4903410729093
 21
2065.4530697731929
  0
LINE
  8
_0-9_
  6
CONTINUOUS
 62
    4
 10
1678.3796675245298
 20
757
 11
1505
 21
757
  0
POINT
  8
_0-9_
 62
    3
 10
1668.3796675245298
 20
757
  0
TEXT
  8
_0-8_
 62
    7
 10
879.90000000000009
 20
374.5
 40
35
 41
0.8571428571428568
 50
0
  1
立面図
  0
LINE
  8
_0-8_
  6
CONTINUOUS
 62
    4
 10
800
 20
427
 11
800
 21
357
  0
LINE
  8
_0-8_
  6
CONTINUOUS
 62
    4
 10
800
 20
357
 11
1050
 21
357
  0
LINE
  8
_0-8_
  6
CONTINUOUS
 62
    4
 10
1050
 20
427
 11
1050
 21
357
  0
LINE
  8
_0-8_
  6
CONTINUOUS
 62
    4
 10
800
 20
427
 11
1050
 21
427
  0
LINE
  8
_0-8_
  6
CONTINUOUS
 62
    4
 10
2084
 20
427
 11
2334
 21
427
  0
LINE
  8
_0-8_
  6
CONTINUOUS
 62
    4
 10
2334
 20
427
 11
2334
 21
357
  0
LINE
  8
_0-8_
  6
CONTINUOUS
 62
    4
 10
2084
 20
357
 11
2334
 21
357
  0
LINE
  8
_0-8_
  6
CONTINUOUS
 62
    4
 10
2084
 20
427
 11
2084
 21
357
  0
TEXT
  8
_0-8_
 62
    7
 10
2163.8999999999996
 20
374.5
 40
35
 41
0.8571428571428568
 50
0
  1
断面図
  0
LINE
  8
_0-9_
  6
CONTINUOUS
 62
    4
 10
2511.3796675245298
 20
757
 11
2361.3796675245298
 21
757
  0
POINT
  8
_0-9_
 62
    3
 10
2501.3796675245298
 20
757
  0
LINE
  8
_0-9_
  6
CONTINUOUS
 62
    4
 10
2867
 20
517
 11
2867
 21
727
  0
POINT
  8
_0-9_
 62
    3
 10
2867
 20
527
  0
LINE
  8
_0-9_
  6
CONTINUOUS
 62
    4
 10
3943
 20
517
 11
3943
 21
727
  0
POINT
  8
_0-9_
 62
    3
 10
3943
 20
527
  0
LINE
  8
_0-9_
  6
CONTINUOUS
 62
    4
 10
2867
 20
527
 11
3943
 21
527
  0
TEXT
  8
_0-9_
 62
    7
 10
3349.8000000000001
 20
527
 40
35
 41
0.6285714285714286
 50
0
  1
１，０７６
  0
LINE
  8
_0-8_
  6
CONTINUOUS
 62
    4
 10
3280
 20
427
 11
3530
 21
427
  0
LINE
  8
_0-8_
  6
CONTINUOUS
 62
    4
 10
3530
 20
427
 11
3530
 21
357
  0
LINE
  8
_0-8_
  6
CONTINUOUS
 62
    4
 10
3280
 20
357
 11
3530
 21
357
  0
LINE
  8
_0-8_
  6
CONTINUOUS
 62
    4
 10
3280
 20
427
 11
3280
 21
357
  0
TEXT
  8
_0-8_
 62
    7
 10
3359.8999999999978
 20
374.5
 40
35
 41
0.8571428571428568
 50
0
  1
背面図
  0
LINE
  8
_0-9_
  6
CONTINUOUS
 62
    4
 10
1678.3796675245298
 20
742.00000000000022
 11
1505
 21
742.00000000000022
  0
POINT
  8
_0-9_
 62
    3
 10
1668.3796675245298
 20
742.00000000000022
  0
LINE
  8
_0-9_
  6
CONTINUOUS
 62
    4
 10
1668.3796675245298
 20
742.00000000000022
 11
1668.3796675245298
 21
695.65019346039457
  0
POINT
  8
_0-9_
 62
    3
 10
1668.3796675245298
 20
757
  0
POINT
  8
_0-9_
 62
    3
 10
1668.3796675245298
 20
742.00000000000022
  0
LINE
  8
_0-9_
  6
CONTINUOUS
 62
    4
 10
1668.3796675245298
 20
757
 11
1668.3796675245298
 21
742.00000000000022
  0
TEXT
  8
_0-9_
 62
    7
 10
1668.3157117030962
 20
697.84979458938096
 40
35
 41
0.6285714285714286
 50
90
  1
１５
  0
LINE
  8
_0-4_
  6
DASHED1
 62
    9
 10
1985.3796675245303
 20
836.50000659839531
 11
1985.3796675245303
 21
787.49999340160445
  0
LINE
  8
_0-3_
  6
CONTINUOUS
 62
    2
 10
2867
 20
809
 11
3942.9999999999995
 21
809
  0
LINE
  8
_0-3_
  6
CONTINUOUS
 62
    4
 10
2867
 20
763.99999999999977
 11
3942.9999999999995
 21
763.99999999999977
  0
LINE
  8
_0-3_
  6
CONTINUOUS
 62
    5
 10
2855
 20
756.99999999999988
 11
3955
 21
756.99999999999988
  0
LINE
  8
_0-a_
  6
CONTINUOUS
 62
    4
 10
3917.8787847867997
 20
763.99999999999886
 11
3943.0000000000013
 21
789.12121521320045
  0
LINE
  8
_0-a_
  6
CONTINUOUS
 62
    4
 10
3889.5945135393358
 20
764.00000000000147
 11
3934.594513539334
 21
808.99999999999988
  0
LINE
  8
_0-a_
  6
CONTINUOUS
 62
    4
 10
3861.3102422918659
 20
763.99999999999863
 11
3906.3102422918645
 21
808.99999999999727
  0
LINE
  8
_0-a_
  6
CONTINUOUS
 62
    4
 10
3833.0259710444161
 20
763.99999999999727
 11
3878.0259710444197
 21
809.0000000000009
  0
LINE
  8
_0-a_
  6
CONTINUOUS
 62
    4
 10
3804.7416997969521
 20
763.99999999999977
 11
3849.7416997969503
 21
808.99999999999806
  0
LINE
  8
_0-a_
  6
CONTINUOUS
 62
    4
 10
3776.4574285494836
 20
763.99999999999772
 11
3821.4574285494813
 21
808.9999999999959
  0
LINE
  8
_0-a_
  6
CONTINUOUS
 62
    4
 10
3748.1731573020329
 20
763.99999999999545
 11
3793.173157302036
 21
808.99999999999909
  0
LINE
  8
_0-a_
  6
CONTINUOUS
 62
    4
 10
3719.8888860545685
 20
763.99999999999806
 11
3764.8888860545666
 21
808.99999999999624
  0
LINE
  8
_0-a_
  6
CONTINUOUS
 62
    4
 10
3691.604614807104
 20
764.00000000000034
 11
3736.6046148071022
 21
808.99999999999874
  0
LINE
  8
_0-a_
  6
CONTINUOUS
 62
    4
 10
3663.3203435596346
 20
763.99999999999749
 11
3708.3203435596328
 21
808.9999999999959
  0
LINE
  8
_0-a_
  6
CONTINUOUS
 62
    4
 10
3635.0360723121843
 20
763.99999999999613
 11
3680.0360723121884
 21
808.99999999999977
  0
LINE
  8
_0-a_
  6
CONTINUOUS
 62
    4
 10
3606.7518010647204
 20
763.99999999999863
 11
3651.751801064719
 21
808.99999999999693
  0
LINE
  8
_0-a_
  6
CONTINUOUS
 62
    4
 10
3578.467529817256
 20
764.0000000000009
 11
3623.4675298172542
 21
808.99999999999954
  0
LINE
  8
_0-a_
  6
CONTINUOUS
 62
    4
 10
3550.1832585697866
 20
763.99999999999818
 11
3595.1832585697848
 21
808.99999999999658
  0
LINE
  8
_0-a_
  6
CONTINUOUS
 62
    4
 10
3521.8989873223372
 20
763.99999999999693
 11
3566.8989873223404
 21
809.00000000000045
  0
LINE
  8
_0-a_
  6
CONTINUOUS
 62
    4
 10
3493.6147160748723
 20
763.9999999999992
 11
3538.614716074871
 21
808.99999999999772
  0
LINE
  8
_0-a_
  6
CONTINUOUS
 62
    4
 10
3465.3304448274084
 20
764.00000000000159
 11
3510.330444827407
 21
809
  0
LINE
  8
_0-a_
  6
CONTINUOUS
 62
    4
 10
3437.0461735799385
 20
763.99999999999874
 11
3482.0461735799372
 21
808.99999999999727
  0
LINE
  8
_0-a_
  6
CONTINUOUS
 62
    4
 10
3408.7619023324891
 20
763.99999999999749
 11
3453.7619023324923
 21
809.00000000000102
  0
LINE
  8
_0-a_
  6
CONTINUOUS
 62
    4
 10
3380.4776310850247
 20
763.99999999999988
 11
3425.4776310850229
 21
808.99999999999818
  0
LINE
  8
_0-a_
  6
CONTINUOUS
 62
    4
 10
3352.1933598375608
 20
764.00000000000227
 11
3397.193359837559
 21
809.0000000000009
  0
LINE
  8
_0-a_
  6
CONTINUOUS
 62
    4
 10
3323.9090885900905
 20
763.99999999999954
 11
3368.9090885900895
 21
808.99999999999795
  0
LINE
  8
_0-a_
  6
CONTINUOUS
 62
    4
 10
3295.6248173426411
 20
763.99999999999806
 11
3340.6248173426447
 21
809.00000000000181
  0
LINE
  8
_0-a_
  6
CONTINUOUS
 62
    4
 10
3267.3405460951767
 20
764.00000000000045
 11
3312.3405460951753
 21
808.99999999999886
  0
LINE
  8
_0-a_
  6
CONTINUOUS
 62
    4
 10
3239.0562748477123
 20
764.00000000000306
 11
3284.0562748477113
 21
809.00000000000147
  0
LINE
  8
_0-a_
  6
CONTINUOUS
 62
    4
 10
3210.7720036002478
 20
763.99999999999567
 11
3255.772003600251
 21
808.9999999999992
  0
LINE
  8
_0-a_
  6
CONTINUOUS
 62
    4
 10
3182.487732352793
 20
763.99999999999874
 11
3227.4877323527916
 21
808.99999999999727
  0
LINE
  8
_0-a_
  6
CONTINUOUS
 62
    4
 10
3154.2034611053295
 20
764.00000000000113
 11
3199.2034611053268
 21
808.99999999999965
  0
LINE
  8
_0-a_
  6
CONTINUOUS
 62
    4
 10
3125.9191898578592
 20
763.9999999999984
 11
3170.9191898578583
 21
808.99999999999658
  0
LINE
  8
_0-a_
  6
CONTINUOUS
 62
    4
 10
3097.6349186104098
 20
763.99999999999704
 11
3142.634918610413
 21
809.00000000000068
  0
LINE
  8
_0-a_
  6
CONTINUOUS
 62
    4
 10
3069.3506473629449
 20
763.99999999999954
 11
3114.350647362944
 21
808.99999999999772
  0
LINE
  8
_0-a_
  6
CONTINUOUS
 62
    4
 10
3041.066376115481
 20
764.00000000000193
 11
3086.0663761154796
 21
809.00000000000022
  0
LINE
  8
_0-a_
  6
CONTINUOUS
 62
    4
 10
3012.7821048680116
 20
763.99999999999909
 11
3057.7821048680102
 21
808.99999999999749
  0
LINE
  8
_0-a_
  6
CONTINUOUS
 62
    4
 10
2984.4978336205617
 20
763.99999999999772
 11
3029.4978336205658
 21
809.00000000000136
  0
LINE
  8
_0-a_
  6
CONTINUOUS
 62
    4
 10
2956.2135623730978
 20
764
 11
3001.2135623730955
 21
808.99999999999852
  0
LINE
  8
_0-a_
  6
CONTINUOUS
 62
    4
 10
2927.9292911256334
 20
764.00000000000261
 11
2972.9292911256316
 21
809.0000000000009
  0
LINE
  8
_0-a_
  6
CONTINUOUS
 62
    4
 10
2899.645019878164
 20
763.99999999999977
 11
2944.6450198781622
 21
808.99999999999806
  0
LINE
  8
_0-a_
  6
CONTINUOUS
 62
    4
 10
2871.3607486307137
 20
763.9999999999984
 11
2916.3607486307173
 21
809.00000000000204
  0
LINE
  8
_0-a_
  6
CONTINUOUS
 62
    4
 10
2867
 20
787.92352261675102
 11
2888.0764773832479
 21
808.9999999999992
  0
ARC
  8
_0-5_
  6
CONTINUOUS
 62
    4
 10
1984.9796675245297
 20
743.99999999999988
 40
1.9999999999999995
 50
269.99999999999994
 51
359.99999999999994
  0
ARC
  8
_0-5_
  6
CONTINUOUS
 62
    4
 10
1984.9796675245297
 20
743.99999999999988
 40
0.6999999999999997
 50
270
 51
0
  0
LINE
  8
_0-5_
  6
CONTINUOUS
 62
    4
 10
1986.9796675245302
 20
786.00000000000022
 11
1986.9796675245302
 21
743.99999999999988
  0
ARC
  8
_0-5_
  6
CONTINUOUS
 62
    4
 10
1986.4796675245302
 20
786.00000000000022
 40
0.4999999999999997
 50
0
 51
90
  0
ARC
  8
_0-5_
  6
CONTINUOUS
 62
    4
 10
1986.1796675245304
 20
785.69999999999993
 40
0.8000000000000001
 50
89.999999999999971
 51
231.31781254650667
  0
LINE
  8
_0-5_
  6
CONTINUOUS
 62
    4
 10
1986.4796675245302
 20
786.5
 11
1986.1796675245304
 21
786.5
  0
LINE
  8
_0-5_
  6
CONTINUOUS
 62
    4
 10
1985.6796675245309
 20
777.7244997998398
 11
1985.6796675245309
 21
785.07550020016026
  0
ARC
  8
_0-5_
  6
CONTINUOUS
 62
    4
 10
1986.1796675245304
 20
777.09999999999979
 40
0.8000000000000001
 50
128.68218745349335
 51
231.31781254650667
  0
LINE
  8
_0-5_
  6
CONTINUOUS
 62
    4
 10
1985.6796675245309
 20
772.29999999999995
 11
1985.6796675245309
 21
776.47550020016012
  0
ARC
  8
_0-5_
  6
CONTINUOUS
 62
    4
 10
1985.3796675245305
 20
772.29999999999995
 40
0.2999999999999998
 50
270
 51
0
  0
LINE
  8
_0-5_
  6
CONTINUOUS
 62
    4
 10
1985.6796675245309
 20
768.55038733822516
 11
1985.6796675245309
 21
743.99999999999988
  0
ARC
  8
_0-5_
  6
CONTINUOUS
 62
    4
 10
1984.67966752453
 20
768.55038733822516
 40
0.9999999999999995
 50
359.99999999999994
 51
87.03906386583624
  0
ARC
  8
_0-5_
  6
CONTINUOUS
 62
    4
 10
1971.8796675245303
 20
777.1999999999997
 40
0.8000000000000001
 50
0.0000000000000254
 51
179.99999999999997
  0
LINE
  8
_0-5_
  6
CONTINUOUS
 62
    4
 10
1974.2082389531024
 20
742
 11
1984.9796675245297
 21
742
  0
ARC
  8
_0-5_
  6
CONTINUOUS
 62
    4
 10
1974.2082389531024
 20
743.99999999999988
 40
1.9999999999999995
 50
198.92464441605042
 51
270
  0
ARC
  8
_0-5_
  6
CONTINUOUS
 62
    4
 10
1974.2082389531024
 20
743.99999999999988
 40
0.6999999999999997
 50
198.92464441604994
 51
270
  0
LINE
  8
_0-5_
  6
CONTINUOUS
 62
    4
 10
1984.9796675245297
 20
743.29999999999995
 11
1974.2082389531024
 21
743.29999999999995
  0
LINE
  8
_0-5_
  6
CONTINUOUS
 62
    4
 10
1973.5460767909389
 20
743.77297297297286
 11
1972.4172473768967
 21
747.06539209726417
  0
ARC
  8
_0-5_
  6
CONTINUOUS
 62
    4
 10
1972.6064365660854
 20
747.13025696212878
 40
0.2
 50
133.54896276822287
 51
198.92464441605298
  0
ARC
  8
_0-5_
  6
CONTINUOUS
 62
    4
 10
1971.7796675245303
 20
747.99999999999965
 40
0.9999999999999995
 50
313.54896276821995
 51
198.92464441604971
  0
LINE
  8
_0-5_
  6
CONTINUOUS
 62
    4
 10
1972.31634706121
 20
743.35135135135135
 11
1970.8337215785845
 21
747.6756756756755
  0
LINE
  8
_0-5_
  6
CONTINUOUS
 62
    4
 10
1972.6796675245295
 20
772.29999999999995
 11
1972.6796675245295
 21
777.1999999999997
  0
ARC
  8
_0-5_
  6
CONTINUOUS
 62
    4
 10
1972.9796675245304
 20
772.29999999999995
 40
0.2999999999999998
 50
179.99999999999997
 51
270
  0
LINE
  8
_0-5_
  6
CONTINUOUS
 62
    4
 10
1985.3796675245305
 20
771.99999999999988
 11
1972.9796675245304
 21
771.99999999999988
  0
LINE
  8
_0-5_
  6
CONTINUOUS
 62
    4
 10
1971.0796675245305
 20
771.34961266177447
 11
1971.0796675245305
 21
777.1999999999997
  0
ARC
  8
_0-5_
  6
CONTINUOUS
 62
    4
 10
1972.0796675245301
 20
771.34961266177447
 40
0.9999999999999995
 50
180
 51
267.03906386583628
  0
LINE
  8
_0-5_
  6
CONTINUOUS
 62
    4
 10
1984.7313226099581
 20
769.54905232316741
 11
1972.0280124391015
 21
770.35094767683233
  0
ARC
  8
_0-5_
  6
CONTINUOUS
 62
    4
 10
382.00000000000073
 20
746.00000000000011
 40
3.0000000000000004
 50
90
 51
180
  0
ARC
  8
_0-5_
  6
CONTINUOUS
 62
    4
 10
1468
 20
746.00000000000011
 40
3.0000000000000004
 50
0
 51
90
  0
ARC
  8
_0-5_
  6
CONTINUOUS
 62
    4
 10
1065.0000000000004
 20
746.00000000000011
 40
3.0000000000000004
 50
0
 51
90
  0
ARC
  8
_0-5_
  6
CONTINUOUS
 62
    4
 10
720.00000000000022
 20
746.00000000000011
 40
3.0000000000000004
 50
0
 51
90
  0
LINE
  8
_0-5_
  6
CONTINUOUS
 62
    4
 10
723.00000000000011
 20
741.99999999999988
 11
379.00000000000062
 21
741.99999999999988
  0
LINE
  8
_0-5_
  6
CONTINUOUS
 62
    4
 10
1068.0000000000004
 20
741.99999999999988
 11
724.00000000000034
 21
741.99999999999988
  0
ARC
  8
_0-5_
  6
CONTINUOUS
 62
    4
 10
727.00000000000022
 20
746.00000000000011
 40
3.0000000000000004
 50
90
 51
180
  0
LINE
  8
_0-5_
  6
CONTINUOUS
 62
    4
 10
382.00000000000073
 20
749
 11
720.00000000000022
 21
749
  0
LINE
  8
_0-5_
  6
CONTINUOUS
 62
    4
 10
727.00000000000022
 20
749
 11
1065.0000000000004
 21
749
  0
LINE
  8
_0-5_
  6
CONTINUOUS
 62
    4
 10
723.00000000000011
 20
777.99999999999977
 11
379.00000000000062
 21
777.99999999999977
  0
LINE
  8
_0-5_
  6
CONTINUOUS
 62
    4
 10
1068.0000000000004
 20
777.99999999999977
 11
724.00000000000034
 21
777.99999999999977
  0
LINE
  8
_0-5_
  6
CONTINUOUS
 62
    4
 10
723.00000000000068
 20
770.39999999999724
 11
379.00000000000062
 21
770.39999999999724
  0
LINE
  8
_0-5_
  6
CONTINUOUS
 62
    4
 10
1068.0000000000004
 20
770.39999999999724
 11
724.00000000000034
 21
770.39999999999724
  0
LINE
  8
_0-5_
  6
CONTINUOUS
 62
    4
 10
1471
 20
777.99999999999977
 11
1077
 21
777.99999999999977
  0
LINE
  8
_0-5_
  6
CONTINUOUS
 62
    4
 10
1471
 20
770.39999999999724
 11
1077
 21
770.39999999999724
  0
LINE
  8
_0-5_
  6
CONTINUOUS
 62
    4
 10
1471
 20
741.99999999999988
 11
1077
 21
741.99999999999988
  0
ARC
  8
_0-5_
  6
CONTINUOUS
 62
    4
 10
1080
 20
746.00000000000011
 40
3.0000000000000004
 50
90
 51
180
  0
LINE
  8
_0-5_
  6
CONTINUOUS
 62
    4
 10
1080
 20
749
 11
1468
 21
749
  0
POINT
  8
_0-9_
 62
    3
 10
2762.9999999999995
 20
809
  0
POINT
  8
_0-9_
 62
    3
 10
2762.9999999999995
 20
763.99999999999977
  0
LINE
  8
_0-9_
  6
CONTINUOUS
 62
    4
 10
2752.9999999999995
 20
809
 11
2825
 21
809
  0
LINE
  8
_0-9_
  6
CONTINUOUS
 62
    4
 10
2752.9999999999995
 20
763.99999999999977
 11
2825
 21
763.99999999999977
  0
LINE
  8
_0-9_
  6
CONTINUOUS
 62
    4
 10
2762.9999999999995
 20
809
 11
2762.9999999999995
 21
763.99999999999977
  0
TEXT
  8
_0-9_
 62
    7
 10
2757.9999999999995
 20
714.39014761452301
 40
35
 41
0.6285714285714286
 50
90
  1
４５
  0
LINE
  8
_0-9_
  6
CONTINUOUS
 62
    4
 10
2762.9999999999995
 20
763.99999999999977
 11
2762.9999999999995
 21
716.20481316574694
  0
POINT
  8
_0-9_
 62
    3
 10
1471
 20
527
  0
POINT
  8
_0-9_
 62
    3
 10
1077
 20
527
  0
LINE
  8
_0-9_
  6
CONTINUOUS
 62
    4
 10
1471
 20
517
 11
1471
 21
727
  0
LINE
  8
_0-9_
  6
CONTINUOUS
 62
    4
 10
1077
 20
517
 11
1077
 21
727
  0
LINE
  8
_0-9_
  6
CONTINUOUS
 62
    4
 10
1471
 20
527
 11
1077
 21
527
  0
TEXT
  8
_0-9_
 62
    7
 10
1240.9
 20
532
 40
35
 41
0.6285714285714286
 50
0
  1
３９４
  0
POINT
  8
_0-9_
 62
    3
 10
1068.0000000000004
 20
527
  0
POINT
  8
_0-9_
 62
    3
 10
724.00000000000068
 20
527
  0
LINE
  8
_0-9_
  6
CONTINUOUS
 62
    4
 10
1068.0000000000004
 20
517
 11
1068.0000000000004
 21
727
  0
LINE
  8
_0-9_
  6
CONTINUOUS
 62
    4
 10
724.00000000000068
 20
517
 11
724.00000000000068
 21
727
  0
LINE
  8
_0-9_
  6
CONTINUOUS
 62
    4
 10
1068.0000000000004
 20
527
 11
724.00000000000068
 21
527
  0
TEXT
  8
_0-9_
 62
    7
 10
862.90000000000054
 20
532
 40
35
 41
0.6285714285714286
 50
0
  1
３４４
  0
POINT
  8
_0-9_
 62
    3
 10
723.00000000000068
 20
527
  0
POINT
  8
_0-9_
 62
    3
 10
379.00000000000062
 20
527
  0
LINE
  8
_0-9_
  6
CONTINUOUS
 62
    4
 10
723.00000000000068
 20
517
 11
723.00000000000068
 21
727
  0
LINE
  8
_0-9_
  6
CONTINUOUS
 62
    4
 10
379.00000000000062
 20
517
 11
379.00000000000062
 21
727
  0
LINE
  8
_0-9_
  6
CONTINUOUS
 62
    4
 10
723.00000000000068
 20
527
 11
379.00000000000062
 21
527
  0
TEXT
  8
_0-9_
 62
    7
 10
517.90000000000077
 20
532
 40
35
 41
0.6285714285714286
 50
0
  1
３４４
  0
LINE
  8
_0-3_
  6
CONTINUOUS
 62
    5
 10
375
 20
757
 11
379.00000000000062
 21
757
  0
LINE
  8
_0-3_
  6
CONTINUOUS
 62
    5
 10
1471
 20
757
 11
1475
 21
757
  0
LINE
  8
_0-9_
  6
CONTINUOUS
 62
    4
 10
2331.3796675245298
 20
1587
 11
2331.3796675245298
 21
1387
  0
POINT
  8
_0-9_
 62
    3
 10
2331.3796675245298
 20
1587
  0
LINE
  8
_0-9_
  6
CONTINUOUS
 62
    4
 10
2511.3796675245298
 20
1357
 11
2361.3796675245298
 21
1357
  0
POINT
  8
_0-9_
 62
    3
 10
2501.3796675245298
 20
1357
  0
LINE
  8
_0-9_
  6
CONTINUOUS
 62
    4
 10
375
 20
1597
 11
375
 21
1387
  0
POINT
  8
_0-9_
 62
    3
 10
375
 20
1587
  0
POINT
  8
_0-9_
 62
    3
 10
2855
 20
1587
  0
LINE
  8
_0-9_
  6
CONTINUOUS
 62
    4
 10
2855
 20
1597
 11
2855
 21
1387
  0
LINE
  8
_0-9_
  6
CONTINUOUS
 62
    4
 10
1475
 20
1597
 11
1475
 21
1387
  0
POINT
  8
_0-9_
 62
    3
 10
1475
 20
1587
  0
POINT
  8
_0-9_
 62
    3
 10
1668.3796675245298
 20
1357
  0
LINE
  8
_0-9_
  6
CONTINUOUS
 62
    4
 10
1668.3796675245298
 20
1357
 11
1505
 21
1357
  0
LINE
  8
_0-9_
  6
CONTINUOUS
 62
    4
 10
375
 20
1587
 11
1475
 21
1587
  0
TEXT
  8
_0-9_
 62
    7
 10
869.80000000000018
 20
1587
 40
35
 41
0.6285714285714286
 50
0
  1
１，１００
  0
LINE
  8
_0-3_
  6
CONTINUOUS
 62
    5
 10
375
 20
1357
 11
1475
 21
1357
  0
POINT
  8
_0-9_
 62
    3
 10
3955
 20
1587
  0
LINE
  8
_0-9_
  6
CONTINUOUS
 62
    4
 10
3955
 20
1597
 11
3955
 21
1387
  0
LINE
  8
_0-9_
  6
CONTINUOUS
 62
    4
 10
2855
 20
1587
 11
3955
 21
1587
  0
TEXT
  8
_0-9_
 62
    7
 10
3349.8000000000001
 20
1587
 40
35
 41
0.6285714285714286
 50
0
  1
１，１００
  0
POINT
  8
_0-9_
 62
    3
 10
1973.3796675245298
 20
1587
  0
POINT
  8
_0-9_
 62
    3
 10
1973.3796675245298
 20
1587
  0
POINT
  8
_0-9_
 62
    3
 10
2331.3796675245298
 20
1587
  0
LINE
  8
_0-9_
  6
CONTINUOUS
 62
    4
 10
1973.3796675245298
 20
1587
 11
2331.3796675245298
 21
1587
  0
TEXT
  8
_0-9_
 62
    7
 10
2119.2796675245299
 20
1587
 40
35
 41
0.6285714285714286
 50
0
  1
３５８
  0
LINE
  8
_0-4_
  6
CONTINUOUS
 62
    3
 10
1973.3796675245298
 20
1352
 11
1985.3796675245303
 21
1352
  0
LINE
  8
_0-4_
  6
DASHED1
 62
    9
 10
1985.3796675245303
 20
1306.5000065983958
 11
1985.3796675245303
 21
1257.4999934016047
  0
LINE
  8
_0-3_
  6
CONTINUOUS
 62
    5
 10
2855
 20
1357
 11
3955
 21
1357
  0
LINE
  8
_0-3_
  6
CONTINUOUS
 62
    2
 10
2867
 20
1272
 11
3942.9999999999995
 21
1272
  0
LINE
  8
_0-a_
  6
CONTINUOUS
 62
    4
 10
3929.8989873223381
 20
1271.9999999999984
 11
3943.0000000000018
 21
1285.1010126776618
  0
LINE
  8
_0-a_
  6
CONTINUOUS
 62
    4
 10
3901.6147160748737
 20
1272.0000000000004
 11
3943
 21
1313.3852839251267
  0
LINE
  8
_0-a_
  6
CONTINUOUS
 62
    4
 10
3873.3304448274093
 20
1272.0000000000029
 11
3942.9999999999981
 21
1341.6695551725915
  0
LINE
  8
_0-a_
  6
CONTINUOUS
 62
    4
 10
3845.0461735799349
 20
1271.9999999999947
 11
3930.0461735799376
 21
1356.9999999999979
  0
LINE
  8
_0-a_
  6
CONTINUOUS
 62
    4
 10
3816.7619023324905
 20
1271.9999999999986
 11
3901.7619023324878
 21
1356.9999999999963
  0
LINE
  8
_0-a_
  6
CONTINUOUS
 62
    4
 10
3788.4776310850256
 20
1272.0000000000011
 11
3873.4776310850238
 21
1356.999999999999
  0
LINE
  8
_0-a_
  6
CONTINUOUS
 62
    4
 10
3760.1933598375617
 20
1272.0000000000036
 11
3845.1933598375599
 21
1357.0000000000015
  0
LINE
  8
_0-a_
  6
CONTINUOUS
 62
    4
 10
3731.9090885900868
 20
1271.9999999999954
 11
3816.9090885900905
 21
1356.9999999999986
  0
LINE
  8
_0-a_
  6
CONTINUOUS
 62
    4
 10
3703.6248173426424
 20
1271.9999999999995
 11
3788.6248173426406
 21
1356.9999999999972
  0
LINE
  8
_0-a_
  6
CONTINUOUS
 62
    4
 10
3675.3405460951785
 20
1272.000000000002
 11
3760.3405460951762
 21
1357
  0
LINE
  8
_0-a_
  6
CONTINUOUS
 62
    4
 10
3647.0562748477141
 20
1272.000000000004
 11
3732.0562748477118
 21
1357.0000000000022
  0
LINE
  8
_0-a_
  6
CONTINUOUS
 62
    4
 10
3618.7720036002492
 20
1271.9999999999968
 11
3703.7720036002519
 21
1357
  0
LINE
  8
_0-a_
  6
CONTINUOUS
 62
    4
 10
3590.4877323527944
 20
1272
 11
3675.4877323527921
 21
1356.9999999999979
  0
LINE
  8
_0-a_
  6
CONTINUOUS
 62
    4
 10
3562.20346110533
 20
1272.0000000000025
 11
3647.2034611053281
 21
1357.0000000000004
  0
LINE
  8
_0-a_
  6
CONTINUOUS
 62
    4
 10
3533.919189857861
 20
1271.9999999999995
 11
3618.9191898578587
 21
1356.9999999999977
  0
LINE
  8
_0-a_
  6
CONTINUOUS
 62
    4
 10
3505.6349186104107
 20
1271.9999999999981
 11
3590.6349186104134
 21
1357.0000000000013
  0
LINE
  8
_0-a_
  6
CONTINUOUS
 62
    4
 10
3477.3506473629468
 20
1272.0000000000006
 11
3562.3506473629449
 21
1356.9999999999986
  0
LINE
  8
_0-a_
  6
CONTINUOUS
 62
    4
 10
3449.0663761154828
 20
1272.0000000000031
 11
3534.0663761154801
 21
1357.0000000000009
  0
LINE
  8
_0-a_
  6
CONTINUOUS
 62
    4
 10
3420.7821048680079
 20
1271.9999999999949
 11
3505.7821048680107
 21
1356.9999999999981
  0
LINE
  8
_0-a_
  6
CONTINUOUS
 62
    4
 10
3392.4978336205631
 20
1271.999999999999
 11
3477.4978336205613
 21
1356.999999999997
  0
LINE
  8
_0-a_
  6
CONTINUOUS
 62
    4
 10
3364.2135623730982
 20
1272.0000000000013
 11
3449.2135623730969
 21
1356.9999999999993
  0
LINE
  8
_0-a_
  6
CONTINUOUS
 62
    4
 10
3335.9292911256347
 20
1272.0000000000038
 11
3420.9292911256325
 21
1357.0000000000015
  0
LINE
  8
_0-a_
  6
CONTINUOUS
 62
    4
 10
3307.6450198781594
 20
1271.9999999999956
 11
3392.6450198781631
 21
1356.9999999999986
  0
LINE
  8
_0-a_
  6
CONTINUOUS
 62
    4
 10
3279.3607486307155
 20
1271.9999999999995
 11
3364.3607486307132
 21
1356.9999999999977
  0
LINE
  8
_0-a_
  6
CONTINUOUS
 62
    4
 10
3251.0764773832511
 20
1272.0000000000022
 11
3336.0764773832488
 21
1357
  0
LINE
  8
_0-a_
  6
CONTINUOUS
 62
    4
 10
3222.7922061357867
 20
1272.0000000000045
 11
3307.7922061357844
 21
1357.0000000000025
  0
LINE
  8
_0-a_
  6
CONTINUOUS
 62
    4
 10
3194.5079348883118
 20
1271.9999999999963
 11
3279.507934888315
 21
1356.9999999999995
  0
LINE
  8
_0-a_
  6
CONTINUOUS
 62
    4
 10
3166.223663640867
 20
1272.0000000000002
 11
3251.2236636408651
 21
1356.9999999999981
  0
LINE
  8
_0-a_
  6
CONTINUOUS
 62
    4
 10
3137.939392393403
 20
1272.0000000000027
 11
3222.9393923934007
 21
1357.0000000000004
  0
LINE
  8
_0-a_
  6
CONTINUOUS
 62
    4
 10
3109.6551211459386
 20
1272.0000000000052
 11
3194.6551211459373
 21
1357.0000000000029
  0
LINE
  8
_0-a_
  6
CONTINUOUS
 62
    4
 10
3081.3708498984642
 20
1271.999999999997
 11
3166.3708498984669
 21
1357.0000000000002
  0
LINE
  8
_0-a_
  6
CONTINUOUS
 62
    4
 10
3053.0865786510194
 20
1272.0000000000009
 11
3138.0865786510175
 21
1356.9999999999986
  0
LINE
  8
_0-a_
  6
CONTINUOUS
 62
    4
 10
3024.8023074035554
 20
1272.0000000000031
 11
3109.8023074035527
 21
1357.0000000000013
  0
LINE
  8
_0-a_
  6
CONTINUOUS
 62
    4
 10
2996.5180361560855
 20
1272.0000000000004
 11
3081.5180361560842
 21
1356.9999999999984
  0
LINE
  8
_0-a_
  6
CONTINUOUS
 62
    4
 10
2968.2337649086357
 20
1271.999999999999
 11
3053.2337649086389
 21
1357.0000000000022
  0
LINE
  8
_0-a_
  6
CONTINUOUS
 62
    4
 10
2939.9494936611718
 20
1272.0000000000015
 11
3024.9494936611695
 21
1356.9999999999995
  0
LINE
  8
_0-a_
  6
CONTINUOUS
 62
    4
 10
2911.6652224137073
 20
1272.000000000004
 11
2996.6652224137055
 21
1357.0000000000018
  0
LINE
  8
_0-a_
  6
CONTINUOUS
 62
    4
 10
2883.3809511662325
 20
1271.9999999999959
 11
2968.3809511662357
 21
1356.999999999999
  0
LINE
  8
_0-a_
  6
CONTINUOUS
 62
    4
 10
2867.0000000000004
 20
1283.9033200812123
 11
2940.0966799187858
 21
1356.9999999999977
  0
LINE
  8
_0-a_
  6
CONTINUOUS
 62
    4
 10
2866.9999999999986
 20
1312.1875913286771
 11
2911.8124086713214
 21
1357.0000000000002
  0
LINE
  8
_0-a_
  6
CONTINUOUS
 62
    4
 10
2866.9999999999972
 20
1340.471862576142
 11
2883.528137423857
 21
1357.0000000000025
  0
LINE
  8
_0-4_
  6
CONTINUOUS
 62
    3
 10
1077
 20
1352
 11
1471
 21
1352
  0
LINE
  8
_0-4_
  6
CONTINUOUS
 62
    3
 10
723.00000000000068
 20
1352
 11
379.00000000000062
 21
1352
  0
LINE
  8
_0-4_
  6
CONTINUOUS
 62
    3
 10
724.00000000000034
 20
1352
 11
1068.0000000000004
 21
1352
  0
POINT
  8
_0-9_
 62
    3
 10
2762.9999999999995
 20
1357
  0
POINT
  8
_0-9_
 62
    3
 10
2762.9999999999995
 20
1272
  0
LINE
  8
_0-9_
  6
CONTINUOUS
 62
    4
 10
2752.9999999999995
 20
1357
 11
2825
 21
1357
  0
LINE
  8
_0-9_
  6
CONTINUOUS
 62
    4
 10
2752.9999999999995
 20
1272
 11
2825
 21
1272
  0
LINE
  8
_0-9_
  6
CONTINUOUS
 62
    4
 10
2762.9999999999995
 20
1357
 11
2762.9999999999995
 21
1272
  0
TEXT
  8
_0-9_
 62
    7
 10
2757.9999999999995
 20
1292.45
 40
35
 41
0.6285714285714286
 50
90
  1
８５
  0
LINE
  8
_0-9_
  6
CONTINUOUS
 62
    4
 10
1668.3796675245298
 20
757
 11
1668.3796675245298
 21
1357
  0
TEXT
  8
_0-9_
 62
    7
 10
1666.3796675245293
 20
1023.8999999999997
 40
35
 41
0.6285714285714286
 50
90
  1
６００
  0
LINE
  8
_0-3_
  6
CONTINUOUS
 62
    5
 10
1475
 20
1357
 11
1475
 21
757
  0
LINE
  8
_0-4_
  6
CONTINUOUS
 62
    3
 10
1471
 20
1352
 11
1471
 21
741.99999999999988
  0
LINE
  8
_0-4_
  6
CONTINUOUS
 62
    3
 10
1068.0000000000004
 20
1352
 11
1068.0000000000004
 21
741.99999999999988
  0
LINE
  8
_0-4_
  6
CONTINUOUS
 62
    3
 10
1077
 20
1352
 11
1077
 21
741.99999999999988
  0
LINE
  8
_0-4_
  6
CONTINUOUS
 62
    3
 10
724.00000000000034
 20
1352
 11
724.00000000000034
 21
741.99999999999988
  0
LINE
  8
_0-4_
  6
CONTINUOUS
 62
    3
 10
723.00000000000068
 20
1352
 11
723.00000000000068
 21
741.99999999999988
  0
LINE
  8
_0-4_
  6
CONTINUOUS
 62
    3
 10
379.00000000000062
 20
1352
 11
379.00000000000062
 21
741.99999999999988
  0
LINE
  8
_0-3_
  6
CONTINUOUS
 62
    5
 10
375
 20
1357
 11
375
 21
757
  0
LINE
  8
_0-4_
  6
CONTINUOUS
 62
    3
 10
1973.3796675245298
 20
1352
 11
1973.3796675245298
 21
772.00000000000022
  0
LINE
  8
_0-4_
  6
CONTINUOUS
 62
    3
 10
1985.3796675245303
 20
1352
 11
1985.3796675245303
 21
771.99999999999988
  0
LINE
  8
_0-9_
  6
CONTINUOUS
 62
    4
 10
2501.3796675245298
 20
757
 11
2501.3796675245298
 21
1357
  0
TEXT
  8
_0-9_
 62
    7
 10
2501.3796675245298
 20
1023.8999999999997
 40
35
 41
0.6285714285714286
 50
90
  1
６００
  0
LINE
  8
_0-3_
  6
CONTINUOUS
 62
    5
 10
2867
 20
1357
 11
2867
 21
756.99999999999988
  0
LINE
  8
_0-3_
  6
CONTINUOUS
 62
    5
 10
2855
 20
1357
 11
2855
 21
756.99999999999988
  0
LINE
  8
_0-3_
  6
CONTINUOUS
 62
    5
 10
3942.9999999999995
 20
1357
 11
3942.9999999999995
 21
756.99999999999988
  0
LINE
  8
_0-3_
  6
CONTINUOUS
 62
    5
 10
3955
 20
1357
 11
3955
 21
756.99999999999988
  0
LINE
  8
_0-4_
  6
CENTER1
 62
    4
 10
723.00000000000068
 20
1352
 11
379.00000000000062
 21
1047
  0
LINE
  8
_0-4_
  6
CENTER1
 62
    4
 10
379.00000000000062
 20
1047
 11
723.00000000000011
 21
741.99999999999988
  0
LINE
  8
_0-4_
  6
CENTER1
 62
    4
 10
724.00000000000034
 20
741.99999999999988
 11
1068.0000000000004
 21
1047
  0
LINE
  8
_0-4_
  6
CENTER1
 62
    4
 10
1068.0000000000004
 20
1047
 11
724.00000000000034
 21
1352
  0
LINE
  8
_0-4_
  6
CENTER1
 62
    4
 10
1077
 20
1352
 11
1471
 21
1047
  0
LINE
  8
_0-4_
  6
CENTER1
 62
    4
 10
1471
 20
1047
 11
1077
 21
741.99999999999988
  0
LINE
  8
_0-9_
  6
DASHED1
 62
    9
 10
2441.3796675245298
 20
757.00000000000034
 11
2441.3796675245298
 21
670.54245982006375
  0
POINT
  8
_0-9_
 62
    4
 10
2441.3796675245298
 20
937.00000000000034
  0
LINE
  8
_0-9_
  6
CONTINUOUS
 62
    4
 10
2451.3796675245298
 20
1177.0000000000004
 11
2361.3796675245298
 21
1177.0000000000004
  0
LINE
  8
_0-9_
  6
CONTINUOUS
 62
    4
 10
2451.3796675245298
 20
937.00000000000034
 11
2361.3796675245298
 21
937.00000000000034
  0
LINE
  8
_0-9_
  6
CONTINUOUS
 62
    4
 10
2451.3796675245298
 20
997.00000000000045
 11
2361.3796675245298
 21
997.00000000000045
  0
LINE
  8
_0-9_
  6
CONTINUOUS
 62
    4
 10
2451.3796675245298
 20
1057.0000000000004
 11
2361.3796675245298
 21
1057.0000000000004
  0
LINE
  8
_0-9_
  6
CONTINUOUS
 62
    4
 10
2451.3796675245298
 20
1117.0000000000004
 11
2361.3796675245298
 21
1117.0000000000004
  0
LINE
  8
_0-0_
  6
CONTINUOUS
 62
    4
 10
2441.3796675245298
 20
1117.0000000000004
 11
2441.3796675245298
 21
1177.0000000000004
  0
TEXT
  8
_0-9_
 62
    7
 10
2436.3796675245298
 20
1124.9500000000002
 40
35
 41
0.6285714285714286
 50
90
  1
６０
  0
LINE
  8
_0-0_
  6
CONTINUOUS
 62
    4
 10
2441.3796675245298
 20
1057.0000000000004
 11
2441.3796675245298
 21
1117.0000000000004
  0
TEXT
  8
_0-9_
 62
    7
 10
2436.3796675245298
 20
1064.9500000000002
 40
35
 41
0.6285714285714286
 50
90
  1
６０
  0
LINE
  8
_0-0_
  6
CONTINUOUS
 62
    4
 10
2441.3796675245298
 20
997.00000000000045
 11
2441.3796675245298
 21
1057.0000000000004
  0
TEXT
  8
_0-9_
 62
    7
 10
2436.3796675245298
 20
1004.9500000000005
 40
35
 41
0.6285714285714286
 50
90
  1
６０
  0
LINE
  8
_0-0_
  6
CONTINUOUS
 62
    4
 10
2441.3796675245298
 20
937.00000000000034
 11
2441.3796675245298
 21
997.00000000000045
  0
TEXT
  8
_0-9_
 62
    7
 10
2436.3796675245298
 20
944.95000000000027
 40
35
 41
0.6285714285714286
 50
90
  1
６０
  0
POINT
  8
_0-9_
 62
    3
 10
2441.3796675245298
 20
757.00000000000034
  0
POINT
  8
_0-9_
 62
    3
 10
2441.3796675245298
 20
937.00000000000034
  0
LINE
  8
_0-9_
  6
CONTINUOUS
 62
    4
 10
2451.3796675245298
 20
757.00000000000034
 11
2361.3796675245298
 21
757.00000000000034
  0
LINE
  8
_0-9_
  6
CONTINUOUS
 62
    4
 10
2451.3796675245298
 20
937.00000000000034
 11
2361.3796675245298
 21
937.00000000000034
  0
LINE
  8
_0-9_
  6
CONTINUOUS
 62
    4
 10
2441.3796675245298
 20
757.00000000000034
 11
2441.3796675245298
 21
937.00000000000034
  0
TEXT
  8
_0-9_
 62
    7
 10
2436.3796675245298
 20
813.90000000000031
 40
35
 41
0.6285714285714286
 50
90
  1
１８０
  0
CIRCLE
  8
_0-0_
  6
CONTINUOUS
 62
    7
 10
2038.3796675245309
 20
1056.9999999999968
 40
1.5000000000000002
  0
LINE
  8
_0-0_
  6
CONTINUOUS
 62
    7
 10
2043.3796675245309
 20
1058.0688749999969
 11
2043.3796675245309
 21
1058.9999999999968
  0
LINE
  8
_0-0_
  6
CONTINUOUS
 62
    7
 10
2043.3796675245309
 20
1058.9999999999968
 11
2044.3084425245308
 21
1059.0663249999968
  0
LINE
  8
_0-0_
  6
CONTINUOUS
 62
    7
 10
2033.3796675245309
 20
1056.9999999999968
 11
2033.3796675245309
 21
1057.9999999999968
  0
LINE
  8
_0-0_
  6
CONTINUOUS
 62
    7
 10
2032.3796675245307
 20
1058.9999999999968
 11
2019.8796675245307
 21
1058.9999999999968
  0
LINE
  8
_0-0_
  6
CONTINUOUS
 62
    7
 10
2043.3796675245309
 20
1056.9999999999968
 11
2043.3796675245309
 21
1058.0688749999969
  0
LINE
  8
_0-0_
  6
CONTINUOUS
 62
    7
 10
2044.3084425245308
 20
1059.0663249999968
 11
2056.4509175245307
 21
1059.9336499999967
  0
LINE
  8
_0-0_
  6
CONTINUOUS
 62
    7
 10
2057.3796675245307
 20
1060.9310999999968
 11
2057.3796675245307
 21
1060.9999999999968
  0
LINE
  8
_0-0_
  6
CONTINUOUS
 62
    7
 10
2025.0136425245307
 20
1078.9999999999968
 11
2023.1372675245306
 21
1082.2499999999968
  0
LINE
  8
_0-0_
  6
CONTINUOUS
 62
    7
 10
2056.3796675245307
 20
1061.9999999999968
 11
2020.8796675245309
 21
1061.9999999999968
  0
LINE
  8
_0-0_
  6
CONTINUOUS
 62
    7
 10
2024.1476175245306
 20
1077.4999999999968
 11
2020.8796675245309
 21
1077.4999999999968
  0
LINE
  8
_0-0_
  6
CONTINUOUS
 62
    7
 10
2019.8796675245307
 20
1076.4999999999968
 11
2019.8796675245307
 21
1062.9999999999968
  0
ARC
  8
_0-0_
  6
CONTINUOUS
 62
    7
 10
2019.8796675245307
 20
1062.7999999999969
 40
3.7999999999999998
 50
177.46800000000004
 51
270.00000000000005
  0
ARC
  8
_0-0_
  6
CONTINUOUS
 62
    7
 10
2038.3796675245309
 20
1056.9999999999968
 40
5
 50
180.00000000000005
 51
0.0000000000001017
  0
CIRCLE
  8
_0-0_
  6
PHANTOM2
 62
    7
 10
2038.3796675245309
 20
1056.9999999999968
 40
4.0999999999999996
  0
CIRCLE
  8
_0-0_
  6
PHANTOM2
 62
    7
 10
2038.3796675245309
 20
1056.9999999999968
 40
1.925
  0
ARC
  8
_0-0_
  6
CONTINUOUS
 62
    7
 10
2018.0364425245306
 20
1081.4999999999968
 40
1
 50
90.000000000000028
 51
177.46800000000004
  0
ARC
  8
_0-0_
  6
CONTINUOUS
 62
    7
 10
2022.7042425245308
 20
1081.9999999999968
 40
0.5
 50
30.000000000000003
 51
90.000000000000028
  0
ARC
  8
_0-0_
  6
CONTINUOUS
 62
    7
 10
2032.3796675245307
 20
1057.9999999999968
 40
1
 50
0
 51
90.000000000000028
  0
ARC
  8
_0-0_
  6
CONTINUOUS
 62
    7
 10
2044.3796675245307
 20
1058.0688749999969
 40
1
 50
94.086000000000041
 51
180.00000000000005
  0
ARC
  8
_0-0_
  6
CONTINUOUS
 62
    7
 10
2056.3796675245307
 20
1060.9310999999968
 40
1
 50
274.08600000000006
 51
0.0000000000000508
  0
ARC
  8
_0-0_
  6
CONTINUOUS
 62
    7
 10
2056.3796675245307
 20
1060.9999999999968
 40
1
 50
0
 51
90.000000000000028
  0
ARC
  8
_0-0_
  6
CONTINUOUS
 62
    7
 10
2024.1476175245306
 20
1078.4999999999968
 40
1
 50
270.00000000000005
 51
30.000000000000042
  0
ARC
  8
_0-0_
  6
CONTINUOUS
 62
    7
 10
2020.8796675245309
 20
1076.4999999999968
 40
1
 50
90.000000000000028
 51
180.00000000000005
  0
ARC
  8
_0-0_
  6
CONTINUOUS
 62
    7
 10
2020.8796675245309
 20
1062.9999999999968
 40
1
 50
180.00000000000005
 51
270.00000000000005
  0
LINE
  8
_0-0_
  6
CONTINUOUS
 62
    7
 10
2018.0364425245306
 20
1082.4999999999968
 11
2022.7042425245308
 21
1082.4999999999968
  0
LINE
  8
_0-0_
  6
CONTINUOUS
 62
    7
 10
2016.0833925245308
 20
1062.9678499999968
 11
2017.0381394737796
 21
1081.5582324553904
  0
LINE
  8
_0-0_
  6
CENTER1
 62
    7
 10
2038.3796675245309
 20
1056.9999999999968
 11
2038.3796675245309
 21
1050.8852721223386
  0
LINE
  8
_0-0_
  6
CENTER1
 62
    7
 10
2038.3796675245309
 20
1056.9999999999968
 11
2038.3796675245309
 21
1063.0974029520496
  0
LINE
  8
_0-0_
  6
CENTER1
 62
    7
 10
2038.4925295956504
 20
1056.9999999999968
 11
2035.8128911737187
 21
1056.9999999999968
  0
LINE
  8
_0-0_
  6
CENTER1
 62
    7
 10
2038.4925295956504
 20
1056.9999999999968
 11
2041.1578127002958
 21
1056.9999999999968
  0
ARC
  8
_0-0_
  6
CONTINUOUS
 62
    7
 10
2304.6117175245312
 20
1078.4999999999968
 40
1
 50
149.99999999999994
 51
269.99999999999994
  0
CIRCLE
  8
_0-0_
  6
CONTINUOUS
 62
    7
 10
2290.3796675245307
 20
1056.9999999999968
 40
1.5000000000000002
  0
LINE
  8
_0-0_
  6
CONTINUOUS
 62
    7
 10
2285.3796675245307
 20
1058.0688749999969
 11
2285.3796675245307
 21
1058.9999999999968
  0
LINE
  8
_0-0_
  6
CONTINUOUS
 62
    7
 10
2285.3796675245307
 20
1058.9999999999968
 11
2284.4508925245309
 21
1059.0663249999968
  0
LINE
  8
_0-0_
  6
CONTINUOUS
 62
    7
 10
2295.3796675245307
 20
1056.9999999999968
 11
2295.3796675245307
 21
1057.9999999999968
  0
LINE
  8
_0-0_
  6
CONTINUOUS
 62
    7
 10
2296.3796675245312
 20
1058.9999999999968
 11
2308.8796675245312
 21
1058.9999999999968
  0
LINE
  8
_0-0_
  6
CONTINUOUS
 62
    7
 10
2285.3796675245307
 20
1056.9999999999968
 11
2285.3796675245307
 21
1058.0688749999969
  0
LINE
  8
_0-0_
  6
CONTINUOUS
 62
    7
 10
2284.4508925245309
 20
1059.0663249999968
 11
2272.3084175245312
 21
1059.9336499999967
  0
LINE
  8
_0-0_
  6
CONTINUOUS
 62
    7
 10
2271.3796675245312
 20
1060.9310999999968
 11
2271.3796675245312
 21
1060.9999999999968
  0
LINE
  8
_0-0_
  6
CONTINUOUS
 62
    7
 10
2303.745692524531
 20
1078.9999999999968
 11
2305.6220675245313
 21
1082.2499999999968
  0
LINE
  8
_0-0_
  6
CONTINUOUS
 62
    7
 10
2272.3796675245312
 20
1061.9999999999968
 11
2307.8796675245307
 21
1061.9999999999968
  0
LINE
  8
_0-0_
  6
CONTINUOUS
 62
    7
 10
2304.6117175245312
 20
1077.4999999999968
 11
2307.8796675245307
 21
1077.4999999999968
  0
LINE
  8
_0-0_
  6
CONTINUOUS
 62
    7
 10
2308.8796675245312
 20
1076.4999999999968
 11
2308.8796675245312
 21
1062.9999999999968
  0
ARC
  8
_0-0_
  6
CONTINUOUS
 62
    7
 10
2308.8796675245312
 20
1062.7999999999969
 40
3.7999999999999998
 50
269.99999999999994
 51
2.5319999999999902
  0
ARC
  8
_0-0_
  6
CONTINUOUS
 62
    7
 10
2290.3796675245307
 20
1056.9999999999968
 40
5
 50
179.99999999999985
 51
359.99999999999988
  0
CIRCLE
  8
_0-0_
  6
PHANTOM2
 62
    7
 10
2290.3796675245307
 20
1056.9999999999968
 40
4.0999999999999996
  0
CIRCLE
  8
_0-0_
  6
PHANTOM2
 62
    7
 10
2290.3796675245307
 20
1056.9999999999968
 40
1.925
  0
ARC
  8
_0-0_
  6
CONTINUOUS
 62
    7
 10
2310.7228925245308
 20
1081.4999999999968
 40
1
 50
2.531999999999964
 51
89.999999999999943
  0
ARC
  8
_0-0_
  6
CONTINUOUS
 62
    7
 10
2306.0550925245306
 20
1081.9999999999968
 40
0.5
 50
89.999999999999985
 51
149.99999999999997
  0
ARC
  8
_0-0_
  6
CONTINUOUS
 62
    7
 10
2296.3796675245312
 20
1057.9999999999968
 40
1
 50
89.999999999999971
 51
180
  0
ARC
  8
_0-0_
  6
CONTINUOUS
 62
    7
 10
2284.3796675245307
 20
1058.0688749999969
 40
1
 50
359.99999999999994
 51
85.913999999999987
  0
ARC
  8
_0-0_
  6
CONTINUOUS
 62
    7
 10
2272.3796675245312
 20
1060.9310999999968
 40
1
 50
179.99999999999994
 51
265.91399999999993
  0
ARC
  8
_0-0_
  6
CONTINUOUS
 62
    7
 10
2272.3796675245312
 20
1060.9999999999968
 40
1
 50
89.999999999999971
 51
180
  0
ARC
  8
_0-0_
  6
CONTINUOUS
 62
    7
 10
2307.8796675245307
 20
1076.4999999999968
 40
1
 50
359.99999999999994
 51
89.999999999999943
  0
ARC
  8
_0-0_
  6
CONTINUOUS
 62
    7
 10
2307.8796675245307
 20
1062.9999999999968
 40
1
 50
269.99999999999988
 51
359.99999999999988
  0
LINE
  8
_0-0_
  6
CONTINUOUS
 62
    7
 10
2310.7228925245308
 20
1082.4999999999968
 11
2306.0550925245306
 21
1082.4999999999968
  0
LINE
  8
_0-0_
  6
CONTINUOUS
 62
    7
 10
2312.6759425245309
 20
1062.9678499999968
 11
2311.7211955752818
 21
1081.5582324553904
  0
LINE
  8
_0-0_
  6
CENTER1
 62
    7
 10
2290.3796675245307
 20
1056.9999999999968
 11
2290.3796675245307
 21
1050.8852721223386
  0
LINE
  8
_0-0_
  6
CENTER1
 62
    7
 10
2290.3796675245307
 20
1056.9999999999968
 11
2290.3796675245307
 21
1063.0974029520496
  0
LINE
  8
_0-0_
  6
CENTER1
 62
    7
 10
2290.2668054534115
 20
1056.9999999999968
 11
2292.9464438753429
 21
1056.9999999999968
  0
LINE
  8
_0-0_
  6
CENTER1
 62
    7
 10
2290.2668054534115
 20
1056.9999999999968
 11
2287.6015223487661
 21
1056.9999999999968
  0
ARC
  8
_0-0_
  6
CONTINUOUS
 62
    7
 10
2038.3796675245309
 20
1056.9999999999968
 40
7.0000000000000017
 50
45.585000000000007
 51
134.41500000000002
  0
ARC
  8
_0-0_
  6
CONTINUOUS
 62
    7
 10
2038.3796675245309
 20
1056.9999999999968
 40
11
 50
27.036000000000012
 51
152.96400000000005
  0
ARC
  8
_0-0_
  6
CONTINUOUS
 62
    7
 10
2290.3796675245307
 20
1056.9999999999968
 40
7.0000000000000017
 50
45.585000000000007
 51
134.41500000000002
  0
ARC
  8
_0-0_
  6
CONTINUOUS
 62
    7
 10
2290.3796675245307
 20
1056.9999999999968
 40
11
 50
27.036000000000012
 51
152.96400000000005
  0
LINE
  8
_0-0_
  6
DASHED1
 62
    7
 10
1472.9947000000001
 20
1056.9999999999995
 11
1450.7137750000001
 21
1056.9999999999995
  0
LINE
  8
_0-0_
  6
DASHED1
 62
    7
 10
1463
 20
1053.3999999999994
 11
1463
 21
1060.5999999999994
  0
LINE
  8
_0-0_
  6
DASHED1
 62
    7
 10
1462.2
 20
1059.4999999999995
 11
1462.2
 21
1054.4999999999995
  0
LINE
  8
_0-0_
  6
DASHED1
 62
    7
 10
1454.2000000000002
 20
1054.9999999999995
 11
1461.7000000000002
 21
1054.9999999999995
  0
LINE
  8
_0-0_
  6
DASHED1
 62
    7
 10
1462.2
 20
1054.4999999999995
 11
1462.2
 21
1053.3999999999994
  0
LINE
  8
_0-0_
  6
DASHED1
 62
    7
 10
1463.5
 20
1054.5999999999994
 11
1471.5
 21
1054.5999999999994
  0
LINE
  8
_0-0_
  6
DASHED1
 62
    7
 10
1472.0000000000002
 20
1055.0999999999994
 11
1472.0000000000002
 21
1058.8999999999994
  0
LINE
  8
_0-0_
  6
DASHED1
 62
    7
 10
1471.5
 20
1059.3999999999994
 11
1463.5
 21
1059.3999999999994
  0
LINE
  8
_0-0_
  6
DASHED1
 62
    7
 10
1462.2
 20
1060.5999999999994
 11
1462.2
 21
1059.4999999999995
  0
LINE
  8
_0-0_
  6
DASHED1
 62
    7
 10
1461.7000000000002
 20
1058.9999999999995
 11
1454.2000000000002
 21
1058.9999999999995
  0
LINE
  8
_0-0_
  6
DASHED1
 62
    7
 10
1454.2000000000002
 20
1058.9999999999995
 11
1454.2000000000002
 21
1054.9999999999995
  0
LINE
  8
_0-0_
  6
DASHED1
 62
    7
 10
1453.8000000000001
 20
1058.4999999999993
 11
1453.8000000000001
 21
1058.9999999999995
  0
LINE
  8
_0-0_
  6
DASHED1
 62
    7
 10
1453
 20
1061.0999999999994
 11
1453
 21
1052.4999999999995
  0
LINE
  8
_0-0_
  6
DASHED1
 62
    7
 10
1453.8000000000001
 20
1058.4999999999993
 11
1453
 21
1058.4999999999993
  0
LINE
  8
_0-0_
  6
DASHED1
 62
    7
 10
1453.8000000000001
 20
1055.4999999999993
 11
1453
 21
1055.4999999999993
  0
LINE
  8
_0-0_
  6
DASHED1
 62
    7
 10
1463
 20
1054.9999999999995
 11
1454.2000000000002
 21
1054.9999999999995
  0
LINE
  8
_0-0_
  6
DASHED1
 62
    7
 10
1463
 20
1052.4999999999995
 11
1463
 21
1054.9999999999995
  0
LINE
  8
_0-0_
  6
DASHED1
 62
    7
 10
1454.2000000000002
 20
1054.9999999999995
 11
1453.8000000000001
 21
1054.9999999999995
  0
LINE
  8
_0-0_
  6
DASHED1
 62
    7
 10
1463
 20
1058.9999999999995
 11
1453.8000000000001
 21
1058.9999999999995
  0
LINE
  8
_0-0_
  6
DASHED1
 62
    7
 10
1453.8000000000001
 20
1054.9999999999995
 11
1453.8000000000001
 21
1055.4999999999993
  0
LINE
  8
_0-0_
  6
DASHED1
 62
    7
 10
1463
 20
1059.9336499999994
 11
1453
 21
1059.9336499999994
  0
LINE
  8
_0-0_
  6
DASHED1
 62
    7
 10
1453.8000000000001
 20
1058.9999999999995
 11
1453
 21
1058.9999999999995
  0
LINE
  8
_0-0_
  6
DASHED1
 62
    7
 10
1453
 20
1061.9999999999995
 11
1453
 21
1061.0999999999994
  0
LINE
  8
_0-0_
  6
DASHED1
 62
    7
 10
1463
 20
1054.9999999999995
 11
1463
 21
1061.9999999999995
  0
LINE
  8
_0-0_
  6
DASHED1
 62
    7
 10
1462.5000000000002
 20
1082.4999999999995
 11
1453.5
 21
1082.4999999999995
  0
LINE
  8
_0-0_
  6
DASHED1
 62
    7
 10
1453.5
 20
1051.9999999999995
 11
1462.5000000000002
 21
1051.9999999999995
  0
LINE
  8
_0-0_
  6
DASHED1
 62
    7
 10
1464.4774000000002
 20
1056.9999999999995
 11
1451.4035750000002
 21
1056.9999999999995
  0
LINE
  8
_0-0_
  6
DASHED1
 62
    7
 10
1453
 20
1081.9999999999995
 11
1453
 21
1061.9999999999995
  0
ARC
  8
_0-0_
  6
DASHED1
 62
    7
 10
1463.5
 20
1059.8999999999994
 40
0.5
 50
179.99999999999991
 51
269.99999999999994
  0
ARC
  8
_0-0_
  6
DASHED1
 62
    7
 10
1463.5
 20
1054.0999999999994
 40
0.5
 50
89.999999999999971
 51
180
  0
ARC
  8
_0-0_
  6
DASHED1
 62
    7
 10
1461.7000000000002
 20
1054.4999999999995
 40
0.5
 50
359.99999999999994
 51
89.999999999999943
  0
ARC
  8
_0-0_
  6
DASHED1
 62
    7
 10
1461.7000000000002
 20
1059.4999999999995
 40
0.5
 50
269.99999999999988
 51
359.99999999999988
  0
ARC
  8
_0-0_
  6
DASHED1
 62
    7
 10
1471.5
 20
1058.8999999999994
 40
0.5
 50
359.99999999999994
 51
89.999999999999943
  0
ARC
  8
_0-0_
  6
DASHED1
 62
    7
 10
1471.5
 20
1055.0999999999994
 40
0.5
 50
269.99999999999988
 51
359.99999999999988
  0
ARC
  8
_0-0_
  6
DASHED1
 62
    7
 10
1462.6000000000001
 20
1053.3999999999994
 40
0.4
 50
179.99999999999991
 51
269.99999999999994
  0
ARC
  8
_0-0_
  6
DASHED1
 62
    7
 10
1462.6000000000001
 20
1053.3999999999994
 40
0.4
 50
269.99999999999988
 51
359.99999999999988
  0
ARC
  8
_0-0_
  6
DASHED1
 62
    7
 10
1462.6000000000001
 20
1060.5999999999994
 40
0.4
 50
359.99999999999994
 51
89.999999999999943
  0
ARC
  8
_0-0_
  6
DASHED1
 62
    7
 10
1462.6000000000001
 20
1060.5999999999994
 40
0.4
 50
89.999999999999971
 51
180
  0
ARC
  8
_0-0_
  6
DASHED1
 62
    7
 10
1462.5000000000002
 20
1081.9999999999995
 40
0.5
 50
359.99999999999994
 51
89.999999999999943
  0
ARC
  8
_0-0_
  6
DASHED1
 62
    7
 10
1453.5
 20
1081.9999999999995
 40
0.5
 50
89.999999999999971
 51
180
  0
ARC
  8
_0-0_
  6
DASHED1
 62
    7
 10
1453.5
 20
1052.4999999999995
 40
0.5
 50
179.99999999999991
 51
269.99999999999994
  0
ARC
  8
_0-0_
  6
DASHED1
 62
    7
 10
1462.5000000000002
 20
1052.4999999999995
 40
0.5
 50
269.99999999999988
 51
359.99999999999988
  0
LINE
  8
_0-0_
  6
DASHED1
 62
    7
 10
1463
 20
1061.9999999999995
 11
1463
 21
1081.9999999999995
  0
LINE
  8
_0-0_
  6
DASHED1
 62
    7
 10
1078.0052999999998
 20
1056.9999999999995
 11
1100.2862249999998
 21
1056.9999999999995
  0
LINE
  8
_0-0_
  6
DASHED1
 62
    7
 10
1088
 20
1053.3999999999994
 11
1088
 21
1060.5999999999994
  0
LINE
  8
_0-0_
  6
DASHED1
 62
    7
 10
1088.7999999999999
 20
1059.4999999999995
 11
1088.7999999999999
 21
1054.4999999999995
  0
LINE
  8
_0-0_
  6
DASHED1
 62
    7
 10
1096.7999999999999
 20
1054.9999999999995
 11
1089.2999999999999
 21
1054.9999999999995
  0
LINE
  8
_0-0_
  6
DASHED1
 62
    7
 10
1088.7999999999999
 20
1054.4999999999995
 11
1088.7999999999999
 21
1053.3999999999994
  0
LINE
  8
_0-0_
  6
DASHED1
 62
    7
 10
1087.5
 20
1054.5999999999994
 11
1079.5
 21
1054.5999999999994
  0
LINE
  8
_0-0_
  6
DASHED1
 62
    7
 10
1078.9999999999997
 20
1055.0999999999994
 11
1078.9999999999997
 21
1058.8999999999994
  0
LINE
  8
_0-0_
  6
DASHED1
 62
    7
 10
1079.5
 20
1059.3999999999994
 11
1087.5
 21
1059.3999999999994
  0
LINE
  8
_0-0_
  6
DASHED1
 62
    7
 10
1088.7999999999999
 20
1060.5999999999994
 11
1088.7999999999999
 21
1059.4999999999995
  0
LINE
  8
_0-0_
  6
DASHED1
 62
    7
 10
1089.2999999999999
 20
1058.9999999999995
 11
1096.7999999999999
 21
1058.9999999999995
  0
LINE
  8
_0-0_
  6
DASHED1
 62
    7
 10
1096.7999999999999
 20
1058.9999999999995
 11
1096.7999999999999
 21
1054.9999999999995
  0
LINE
  8
_0-0_
  6
DASHED1
 62
    7
 10
1097.1999999999998
 20
1058.4999999999993
 11
1097.1999999999998
 21
1058.9999999999995
  0
LINE
  8
_0-0_
  6
DASHED1
 62
    7
 10
1098
 20
1061.0999999999994
 11
1098
 21
1052.4999999999995
  0
LINE
  8
_0-0_
  6
DASHED1
 62
    7
 10
1097.1999999999998
 20
1058.4999999999993
 11
1098
 21
1058.4999999999993
  0
LINE
  8
_0-0_
  6
DASHED1
 62
    7
 10
1097.1999999999998
 20
1055.4999999999993
 11
1098
 21
1055.4999999999993
  0
LINE
  8
_0-0_
  6
DASHED1
 62
    7
 10
1088
 20
1054.9999999999995
 11
1096.7999999999999
 21
1054.9999999999995
  0
LINE
  8
_0-0_
  6
DASHED1
 62
    7
 10
1088
 20
1052.4999999999995
 11
1088
 21
1054.9999999999995
  0
LINE
  8
_0-0_
  6
DASHED1
 62
    7
 10
1096.7999999999999
 20
1054.9999999999995
 11
1097.1999999999998
 21
1054.9999999999995
  0
LINE
  8
_0-0_
  6
DASHED1
 62
    7
 10
1088
 20
1058.9999999999995
 11
1097.1999999999998
 21
1058.9999999999995
  0
LINE
  8
_0-0_
  6
DASHED1
 62
    7
 10
1097.1999999999998
 20
1054.9999999999995
 11
1097.1999999999998
 21
1055.4999999999993
  0
LINE
  8
_0-0_
  6
DASHED1
 62
    7
 10
1088
 20
1059.9336499999994
 11
1098
 21
1059.9336499999994
  0
LINE
  8
_0-0_
  6
DASHED1
 62
    7
 10
1097.1999999999998
 20
1058.9999999999995
 11
1098
 21
1058.9999999999995
  0
LINE
  8
_0-0_
  6
DASHED1
 62
    7
 10
1098
 20
1061.9999999999995
 11
1098
 21
1061.0999999999994
  0
LINE
  8
_0-0_
  6
DASHED1
 62
    7
 10
1088
 20
1054.9999999999995
 11
1088
 21
1061.9999999999995
  0
LINE
  8
_0-0_
  6
DASHED1
 62
    7
 10
1088.4999999999995
 20
1082.4999999999995
 11
1097.5
 21
1082.4999999999995
  0
LINE
  8
_0-0_
  6
DASHED1
 62
    7
 10
1097.5
 20
1051.9999999999995
 11
1088.4999999999995
 21
1051.9999999999995
  0
LINE
  8
_0-0_
  6
DASHED1
 62
    7
 10
1086.5226
 20
1056.9999999999995
 11
1099.5964249999997
 21
1056.9999999999995
  0
LINE
  8
_0-0_
  6
DASHED1
 62
    7
 10
1098
 20
1081.9999999999995
 11
1098
 21
1061.9999999999995
  0
ARC
  8
_0-0_
  6
DASHED1
 62
    7
 10
1087.5
 20
1059.8999999999994
 40
0.5
 50
270.00000000000005
 51
0.0000000000000508
  0
ARC
  8
_0-0_
  6
DASHED1
 62
    7
 10
1087.5
 20
1054.0999999999994
 40
0.5
 50
0
 51
90.000000000000028
  0
ARC
  8
_0-0_
  6
DASHED1
 62
    7
 10
1089.2999999999999
 20
1054.4999999999995
 40
0.5
 50
90.000000000000028
 51
180.00000000000005
  0
ARC
  8
_0-0_
  6
DASHED1
 62
    7
 10
1089.2999999999999
 20
1059.4999999999995
 40
0.5
 50
180.00000000000005
 51
270.00000000000005
  0
ARC
  8
_0-0_
  6
DASHED1
 62
    7
 10
1079.5
 20
1058.8999999999994
 40
0.5
 50
90.000000000000028
 51
180.00000000000005
  0
ARC
  8
_0-0_
  6
DASHED1
 62
    7
 10
1079.5
 20
1055.0999999999994
 40
0.5
 50
180.00000000000005
 51
270.00000000000005
  0
ARC
  8
_0-0_
  6
DASHED1
 62
    7
 10
1088.3999999999996
 20
1053.3999999999994
 40
0.4
 50
270.00000000000005
 51
0.0000000000000508
  0
ARC
  8
_0-0_
  6
DASHED1
 62
    7
 10
1088.3999999999996
 20
1053.3999999999994
 40
0.4
 50
180.00000000000005
 51
270.00000000000005
  0
ARC
  8
_0-0_
  6
DASHED1
 62
    7
 10
1088.3999999999996
 20
1060.5999999999994
 40
0.4
 50
90.000000000000028
 51
180.00000000000005
  0
ARC
  8
_0-0_
  6
DASHED1
 62
    7
 10
1088.3999999999996
 20
1060.5999999999994
 40
0.4
 50
0
 51
90.000000000000028
  0
ARC
  8
_0-0_
  6
DASHED1
 62
    7
 10
1088.4999999999995
 20
1081.9999999999995
 40
0.5
 50
90.000000000000028
 51
180.00000000000005
  0
ARC
  8
_0-0_
  6
DASHED1
 62
    7
 10
1097.5
 20
1081.9999999999995
 40
0.5
 50
0
 51
90.000000000000028
  0
ARC
  8
_0-0_
  6
DASHED1
 62
    7
 10
1097.5
 20
1052.4999999999995
 40
0.5
 50
270.00000000000005
 51
0.0000000000000508
  0
ARC
  8
_0-0_
  6
DASHED1
 62
    7
 10
1088.4999999999995
 20
1052.4999999999995
 40
0.5
 50
180.00000000000005
 51
270.00000000000005
  0
LINE
  8
_0-0_
  6
DASHED1
 62
    7
 10
1088
 20
1061.9999999999995
 11
1088
 21
1081.9999999999995
  0
LINE
  8
_0-0_
  6
DASHED1
 62
    7
 10
1072.9946999999997
 20
1056.9999999999995
 11
1050.7137749999997
 21
1056.9999999999995
  0
LINE
  8
_0-0_
  6
DASHED1
 62
    7
 10
1063
 20
1053.3999999999994
 11
1063
 21
1060.5999999999994
  0
LINE
  8
_0-0_
  6
DASHED1
 62
    7
 10
1062.1999999999998
 20
1059.4999999999995
 11
1062.1999999999998
 21
1054.4999999999995
  0
LINE
  8
_0-0_
  6
DASHED1
 62
    7
 10
1054.2
 20
1054.9999999999995
 11
1061.7
 21
1054.9999999999995
  0
LINE
  8
_0-0_
  6
DASHED1
 62
    7
 10
1062.1999999999998
 20
1054.4999999999995
 11
1062.1999999999998
 21
1053.3999999999994
  0
LINE
  8
_0-0_
  6
DASHED1
 62
    7
 10
1063.4999999999995
 20
1054.5999999999994
 11
1071.4999999999997
 21
1054.5999999999994
  0
LINE
  8
_0-0_
  6
DASHED1
 62
    7
 10
1072
 20
1055.0999999999994
 11
1072
 21
1058.8999999999994
  0
LINE
  8
_0-0_
  6
DASHED1
 62
    7
 10
1071.4999999999997
 20
1059.3999999999994
 11
1063.4999999999995
 21
1059.3999999999994
  0
LINE
  8
_0-0_
  6
DASHED1
 62
    7
 10
1062.1999999999998
 20
1060.5999999999994
 11
1062.1999999999998
 21
1059.4999999999995
  0
LINE
  8
_0-0_
  6
DASHED1
 62
    7
 10
1061.7
 20
1058.9999999999995
 11
1054.2
 21
1058.9999999999995
  0
LINE
  8
_0-0_
  6
DASHED1
 62
    7
 10
1054.2
 20
1058.9999999999995
 11
1054.2
 21
1054.9999999999995
  0
LINE
  8
_0-0_
  6
DASHED1
 62
    7
 10
1053.7999999999999
 20
1058.4999999999993
 11
1053.7999999999999
 21
1058.9999999999995
  0
LINE
  8
_0-0_
  6
DASHED1
 62
    7
 10
1053
 20
1061.0999999999994
 11
1053
 21
1052.4999999999995
  0
LINE
  8
_0-0_
  6
DASHED1
 62
    7
 10
1053.7999999999999
 20
1058.4999999999993
 11
1053
 21
1058.4999999999993
  0
LINE
  8
_0-0_
  6
DASHED1
 62
    7
 10
1053.7999999999999
 20
1055.4999999999993
 11
1053
 21
1055.4999999999993
  0
LINE
  8
_0-0_
  6
DASHED1
 62
    7
 10
1063
 20
1054.9999999999995
 11
1054.2
 21
1054.9999999999995
  0
LINE
  8
_0-0_
  6
DASHED1
 62
    7
 10
1063
 20
1052.4999999999995
 11
1063
 21
1054.9999999999995
  0
LINE
  8
_0-0_
  6
DASHED1
 62
    7
 10
1054.2
 20
1054.9999999999995
 11
1053.7999999999999
 21
1054.9999999999995
  0
LINE
  8
_0-0_
  6
DASHED1
 62
    7
 10
1063
 20
1058.9999999999995
 11
1053.7999999999999
 21
1058.9999999999995
  0
LINE
  8
_0-0_
  6
DASHED1
 62
    7
 10
1053.7999999999999
 20
1054.9999999999995
 11
1053.7999999999999
 21
1055.4999999999993
  0
LINE
  8
_0-0_
  6
DASHED1
 62
    7
 10
1063
 20
1059.9336499999994
 11
1053
 21
1059.9336499999994
  0
LINE
  8
_0-0_
  6
DASHED1
 62
    7
 10
1053.7999999999999
 20
1058.9999999999995
 11
1053
 21
1058.9999999999995
  0
LINE
  8
_0-0_
  6
DASHED1
 62
    7
 10
1053
 20
1061.9999999999995
 11
1053
 21
1061.0999999999994
  0
LINE
  8
_0-0_
  6
DASHED1
 62
    7
 10
1063
 20
1054.9999999999995
 11
1063
 21
1061.9999999999995
  0
LINE
  8
_0-0_
  6
DASHED1
 62
    7
 10
1062.5
 20
1082.4999999999995
 11
1053.4999999999995
 21
1082.4999999999995
  0
LINE
  8
_0-0_
  6
DASHED1
 62
    7
 10
1053.4999999999995
 20
1051.9999999999995
 11
1062.5
 21
1051.9999999999995
  0
LINE
  8
_0-0_
  6
DASHED1
 62
    7
 10
1064.4773999999999
 20
1056.9999999999995
 11
1051.4035749999998
 21
1056.9999999999995
  0
LINE
  8
_0-0_
  6
DASHED1
 62
    7
 10
1053
 20
1081.9999999999995
 11
1053
 21
1061.9999999999995
  0
ARC
  8
_0-0_
  6
DASHED1
 62
    7
 10
1063.4999999999995
 20
1059.8999999999994
 40
0.5
 50
179.99999999999991
 51
269.99999999999994
  0
ARC
  8
_0-0_
  6
DASHED1
 62
    7
 10
1063.4999999999995
 20
1054.0999999999994
 40
0.5
 50
89.999999999999971
 51
180
  0
ARC
  8
_0-0_
  6
DASHED1
 62
    7
 10
1061.7
 20
1054.4999999999995
 40
0.5
 50
359.99999999999994
 51
89.999999999999943
  0
ARC
  8
_0-0_
  6
DASHED1
 62
    7
 10
1061.7
 20
1059.4999999999995
 40
0.5
 50
269.99999999999988
 51
359.99999999999988
  0
ARC
  8
_0-0_
  6
DASHED1
 62
    7
 10
1071.4999999999997
 20
1058.8999999999994
 40
0.5
 50
359.99999999999994
 51
89.999999999999943
  0
ARC
  8
_0-0_
  6
DASHED1
 62
    7
 10
1071.4999999999997
 20
1055.0999999999994
 40
0.5
 50
269.99999999999988
 51
359.99999999999988
  0
ARC
  8
_0-0_
  6
DASHED1
 62
    7
 10
1062.5999999999999
 20
1053.3999999999994
 40
0.4
 50
179.99999999999991
 51
269.99999999999994
  0
ARC
  8
_0-0_
  6
DASHED1
 62
    7
 10
1062.5999999999999
 20
1053.3999999999994
 40
0.4
 50
269.99999999999988
 51
359.99999999999988
  0
ARC
  8
_0-0_
  6
DASHED1
 62
    7
 10
1062.5999999999999
 20
1060.5999999999994
 40
0.4
 50
359.99999999999994
 51
89.999999999999943
  0
ARC
  8
_0-0_
  6
DASHED1
 62
    7
 10
1062.5999999999999
 20
1060.5999999999994
 40
0.4
 50
89.999999999999971
 51
180
  0
ARC
  8
_0-0_
  6
DASHED1
 62
    7
 10
1062.5
 20
1081.9999999999995
 40
0.5
 50
359.99999999999994
 51
89.999999999999943
  0
ARC
  8
_0-0_
  6
DASHED1
 62
    7
 10
1053.4999999999995
 20
1081.9999999999995
 40
0.5
 50
89.999999999999971
 51
180
  0
ARC
  8
_0-0_
  6
DASHED1
 62
    7
 10
1053.4999999999995
 20
1052.4999999999995
 40
0.5
 50
179.99999999999991
 51
269.99999999999994
  0
ARC
  8
_0-0_
  6
DASHED1
 62
    7
 10
1062.5
 20
1052.4999999999995
 40
0.5
 50
269.99999999999988
 51
359.99999999999988
  0
LINE
  8
_0-0_
  6
DASHED1
 62
    7
 10
1063
 20
1061.9999999999995
 11
1063
 21
1081.9999999999995
  0
LINE
  8
_0-0_
  6
DASHED1
 62
    7
 10
377.00530000000014
 20
1056.9999999999995
 11
399.28622500000017
 21
1056.9999999999995
  0
LINE
  8
_0-0_
  6
DASHED1
 62
    7
 10
386.99999999999988
 20
1053.3999999999994
 11
386.99999999999988
 21
1060.5999999999994
  0
LINE
  8
_0-0_
  6
DASHED1
 62
    7
 10
387.80000000000029
 20
1059.4999999999995
 11
387.80000000000029
 21
1054.4999999999995
  0
LINE
  8
_0-0_
  6
DASHED1
 62
    7
 10
395.79999999999984
 20
1054.9999999999995
 11
388.29999999999984
 21
1054.9999999999995
  0
LINE
  8
_0-0_
  6
DASHED1
 62
    7
 10
387.80000000000029
 20
1054.4999999999995
 11
387.80000000000029
 21
1053.3999999999994
  0
LINE
  8
_0-0_
  6
DASHED1
 62
    7
 10
386.50000000000034
 20
1054.5999999999994
 11
378.50000000000051
 21
1054.5999999999994
  0
LINE
  8
_0-0_
  6
DASHED1
 62
    7
 10
378.00000000000011
 20
1055.0999999999994
 11
378.00000000000011
 21
1058.8999999999994
  0
LINE
  8
_0-0_
  6
DASHED1
 62
    7
 10
378.50000000000051
 20
1059.3999999999994
 11
386.50000000000034
 21
1059.3999999999994
  0
LINE
  8
_0-0_
  6
DASHED1
 62
    7
 10
387.80000000000029
 20
1060.5999999999994
 11
387.80000000000029
 21
1059.4999999999995
  0
LINE
  8
_0-0_
  6
DASHED1
 62
    7
 10
388.29999999999984
 20
1058.9999999999995
 11
395.79999999999984
 21
1058.9999999999995
  0
LINE
  8
_0-0_
  6
DASHED1
 62
    7
 10
395.79999999999984
 20
1058.9999999999995
 11
395.79999999999984
 21
1054.9999999999995
  0
LINE
  8
_0-0_
  6
DASHED1
 62
    7
 10
396.20000000000032
 20
1058.4999999999993
 11
396.20000000000032
 21
1058.9999999999995
  0
LINE
  8
_0-0_
  6
DASHED1
 62
    7
 10
396.99999999999988
 20
1061.0999999999994
 11
396.99999999999988
 21
1052.4999999999995
  0
LINE
  8
_0-0_
  6
DASHED1
 62
    7
 10
396.20000000000032
 20
1058.4999999999993
 11
396.99999999999988
 21
1058.4999999999993
  0
LINE
  8
_0-0_
  6
DASHED1
 62
    7
 10
396.20000000000032
 20
1055.4999999999993
 11
396.99999999999988
 21
1055.4999999999993
  0
LINE
  8
_0-0_
  6
DASHED1
 62
    7
 10
386.99999999999988
 20
1054.9999999999995
 11
395.79999999999984
 21
1054.9999999999995
  0
LINE
  8
_0-0_
  6
DASHED1
 62
    7
 10
386.99999999999988
 20
1052.4999999999995
 11
386.99999999999988
 21
1054.9999999999995
  0
LINE
  8
_0-0_
  6
DASHED1
 62
    7
 10
395.79999999999984
 20
1054.9999999999995
 11
396.20000000000032
 21
1054.9999999999995
  0
LINE
  8
_0-0_
  6
DASHED1
 62
    7
 10
386.99999999999988
 20
1058.9999999999995
 11
396.20000000000032
 21
1058.9999999999995
  0
LINE
  8
_0-0_
  6
DASHED1
 62
    7
 10
396.20000000000032
 20
1054.9999999999995
 11
396.20000000000032
 21
1055.4999999999993
  0
LINE
  8
_0-0_
  6
DASHED1
 62
    7
 10
386.99999999999988
 20
1059.9336499999994
 11
396.99999999999988
 21
1059.9336499999994
  0
LINE
  8
_0-0_
  6
DASHED1
 62
    7
 10
396.20000000000032
 20
1058.9999999999995
 11
396.99999999999988
 21
1058.9999999999995
  0
LINE
  8
_0-0_
  6
DASHED1
 62
    7
 10
396.99999999999988
 20
1061.9999999999995
 11
396.99999999999988
 21
1061.0999999999994
  0
LINE
  8
_0-0_
  6
DASHED1
 62
    7
 10
386.99999999999988
 20
1054.9999999999995
 11
386.99999999999988
 21
1061.9999999999995
  0
LINE
  8
_0-0_
  6
DASHED1
 62
    7
 10
387.50000000000028
 20
1082.4999999999995
 11
396.50000000000034
 21
1082.4999999999995
  0
LINE
  8
_0-0_
  6
DASHED1
 62
    7
 10
396.50000000000034
 20
1051.9999999999995
 11
387.50000000000028
 21
1051.9999999999995
  0
LINE
  8
_0-0_
  6
DASHED1
 62
    7
 10
385.52259999999989
 20
1056.9999999999995
 11
398.59642500000006
 21
1056.9999999999995
  0
LINE
  8
_0-0_
  6
DASHED1
 62
    7
 10
396.99999999999988
 20
1081.9999999999995
 11
396.99999999999988
 21
1061.9999999999995
  0
ARC
  8
_0-0_
  6
DASHED1
 62
    7
 10
386.50000000000034
 20
1059.8999999999994
 40
0.5
 50
270.00000000000005
 51
0.0000000000000508
  0
ARC
  8
_0-0_
  6
DASHED1
 62
    7
 10
386.50000000000034
 20
1054.0999999999994
 40
0.5
 50
0
 51
90.000000000000028
  0
ARC
  8
_0-0_
  6
DASHED1
 62
    7
 10
388.29999999999984
 20
1054.4999999999995
 40
0.5
 50
90.000000000000028
 51
180.00000000000005
  0
ARC
  8
_0-0_
  6
DASHED1
 62
    7
 10
388.29999999999984
 20
1059.4999999999995
 40
0.5
 50
180.00000000000005
 51
270.00000000000005
  0
ARC
  8
_0-0_
  6
DASHED1
 62
    7
 10
378.50000000000051
 20
1058.8999999999994
 40
0.5
 50
90.000000000000028
 51
180.00000000000005
  0
ARC
  8
_0-0_
  6
DASHED1
 62
    7
 10
378.50000000000051
 20
1055.0999999999994
 40
0.5
 50
180.00000000000005
 51
270.00000000000005
  0
ARC
  8
_0-0_
  6
DASHED1
 62
    7
 10
387.40000000000037
 20
1053.3999999999994
 40
0.4
 50
270.00000000000005
 51
0.0000000000000508
  0
ARC
  8
_0-0_
  6
DASHED1
 62
    7
 10
387.40000000000037
 20
1053.3999999999994
 40
0.4
 50
180.00000000000005
 51
270.00000000000005
  0
ARC
  8
_0-0_
  6
DASHED1
 62
    7
 10
387.40000000000037
 20
1060.5999999999994
 40
0.4
 50
90.000000000000028
 51
180.00000000000005
  0
ARC
  8
_0-0_
  6
DASHED1
 62
    7
 10
387.40000000000037
 20
1060.5999999999994
 40
0.4
 50
0
 51
90.000000000000028
  0
ARC
  8
_0-0_
  6
DASHED1
 62
    7
 10
387.50000000000028
 20
1081.9999999999995
 40
0.5
 50
90.000000000000028
 51
180.00000000000005
  0
ARC
  8
_0-0_
  6
DASHED1
 62
    7
 10
396.50000000000034
 20
1081.9999999999995
 40
0.5
 50
0
 51
90.000000000000028
  0
ARC
  8
_0-0_
  6
DASHED1
 62
    7
 10
396.50000000000034
 20
1052.4999999999995
 40
0.5
 50
270.00000000000005
 51
0.0000000000000508
  0
ARC
  8
_0-0_
  6
DASHED1
 62
    7
 10
387.50000000000028
 20
1052.4999999999995
 40
0.5
 50
180.00000000000005
 51
270.00000000000005
  0
LINE
  8
_0-0_
  6
DASHED1
 62
    7
 10
386.99999999999988
 20
1061.9999999999995
 11
386.99999999999988
 21
1081.9999999999995
  0
LINE
  8
_0-3_
  6
CENTER2
 62
    4
 10
2281.8198306035665
 20
936.99999999999988
 11
2304.3198306035669
 21
936.99999999999988
  0
LINE
  8
_0-3_
  6
CENTER2
 62
    4
 10
2291.8198306035669
 20
946.99999999999988
 11
2291.8198306035669
 21
926.99999999999988
  0
CIRCLE
  8
_0-3_
  6
CONTINUOUS
 62
    7
 10
2291.8198306035669
 20
936.99999999999988
 40
2.5
  0
CIRCLE
  8
_0-3_
  6
CONTINUOUS
 62
    4
 10
2291.8198306035669
 20
936.99999999999988
 40
2.5
  0
LINE
  8
_0-3_
  6
CENTER2
 62
    4
 10
2029.8198306035667
 20
936.99999999999988
 11
2052.3198306035665
 21
936.99999999999988
  0
LINE
  8
_0-3_
  6
CENTER2
 62
    4
 10
2039.8198306035667
 20
946.99999999999988
 11
2039.8198306035667
 21
926.99999999999988
  0
CIRCLE
  8
_0-3_
  6
CONTINUOUS
 62
    7
 10
2039.8198306035667
 20
936.99999999999988
 40
2.5
  0
CIRCLE
  8
_0-3_
  6
CONTINUOUS
 62
    4
 10
2039.8198306035667
 20
936.99999999999988
 40
2.5
  0
LINE
  8
_0-3_
  6
CENTER2
 62
    4
 10
2280.3796675245307
 20
996.99999999999988
 11
2302.8796675245307
 21
996.99999999999988
  0
LINE
  8
_0-3_
  6
CENTER2
 62
    4
 10
2290.3796675245307
 20
1007
 11
2290.3796675245307
 21
986.99999999999988
  0
CIRCLE
  8
_0-3_
  6
CONTINUOUS
 62
    7
 10
2290.3796675245307
 20
996.99999999999988
 40
2.5
  0
CIRCLE
  8
_0-3_
  6
CONTINUOUS
 62
    4
 10
2290.3796675245307
 20
996.99999999999988
 40
2.5
  0
LINE
  8
_0-3_
  6
CENTER2
 62
    4
 10
2028.3796675245309
 20
996.99999999999988
 11
2050.8796675245312
 21
996.99999999999988
  0
LINE
  8
_0-3_
  6
CENTER2
 62
    4
 10
2038.3796675245309
 20
1007
 11
2038.3796675245309
 21
986.99999999999988
  0
CIRCLE
  8
_0-3_
  6
CONTINUOUS
 62
    7
 10
2038.3796675245309
 20
996.99999999999988
 40
2.5
  0
CIRCLE
  8
_0-3_
  6
CONTINUOUS
 62
    4
 10
2038.3796675245309
 20
996.99999999999988
 40
2.5
  0
LINE
  8
_0-3_
  6
CENTER2
 62
    4
 10
2280.3796675245307
 20
1057
 11
2302.8796675245307
 21
1057
  0
LINE
  8
_0-3_
  6
CENTER2
 62
    4
 10
2290.3796675245307
 20
1067
 11
2290.3796675245307
 21
1047
  0
CIRCLE
  8
_0-3_
  6
CONTINUOUS
 62
    7
 10
2290.3796675245307
 20
1057
 40
2.5
  0
CIRCLE
  8
_0-3_
  6
CONTINUOUS
 62
    4
 10
2290.3796675245307
 20
1057
 40
2.5
  0
LINE
  8
_0-3_
  6
CENTER2
 62
    4
 10
2028.3796675245309
 20
1057
 11
2050.8796675245312
 21
1057
  0
LINE
  8
_0-3_
  6
CENTER2
 62
    4
 10
2038.3796675245309
 20
1067
 11
2038.3796675245309
 21
1047
  0
CIRCLE
  8
_0-3_
  6
CONTINUOUS
 62
    7
 10
2038.3796675245309
 20
1057
 40
2.5
  0
CIRCLE
  8
_0-3_
  6
CONTINUOUS
 62
    4
 10
2038.3796675245309
 20
1057
 40
2.5
  0
LINE
  8
_0-3_
  6
CENTER2
 62
    4
 10
2280.3796675245307
 20
1117
 11
2302.8796675245307
 21
1117
  0
LINE
  8
_0-3_
  6
CENTER2
 62
    4
 10
2290.3796675245307
 20
1127
 11
2290.3796675245307
 21
1107
  0
CIRCLE
  8
_0-3_
  6
CONTINUOUS
 62
    7
 10
2290.3796675245307
 20
1117
 40
2.5
  0
CIRCLE
  8
_0-3_
  6
CONTINUOUS
 62
    4
 10
2290.3796675245307
 20
1117
 40
2.5
  0
LINE
  8
_0-3_
  6
CENTER2
 62
    4
 10
2028.3796675245309
 20
1117
 11
2050.8796675245312
 21
1117
  0
LINE
  8
_0-3_
  6
CENTER2
 62
    4
 10
2038.3796675245309
 20
1127
 11
2038.3796675245309
 21
1107
  0
CIRCLE
  8
_0-3_
  6
CONTINUOUS
 62
    7
 10
2038.3796675245309
 20
1117
 40
2.5
  0
CIRCLE
  8
_0-3_
  6
CONTINUOUS
 62
    4
 10
2038.3796675245309
 20
1117
 40
2.5
  0
LINE
  8
_0-3_
  6
CENTER2
 62
    4
 10
2280.3796675245307
 20
1177
 11
2302.8796675245307
 21
1177
  0
LINE
  8
_0-3_
  6
CENTER2
 62
    4
 10
2290.3796675245307
 20
1187
 11
2290.3796675245307
 21
1167
  0
CIRCLE
  8
_0-3_
  6
CONTINUOUS
 62
    7
 10
2290.3796675245307
 20
1177
 40
2.5
  0
CIRCLE
  8
_0-3_
  6
CONTINUOUS
 62
    4
 10
2290.3796675245307
 20
1177
 40
2.5
  0
LINE
  8
_0-3_
  6
CENTER2
 62
    4
 10
2028.3796675245309
 20
1177
 11
2050.8796675245312
 21
1177
  0
LINE
  8
_0-3_
  6
CENTER2
 62
    4
 10
2038.3796675245309
 20
1187
 11
2038.3796675245309
 21
1167
  0
CIRCLE
  8
_0-3_
  6
CONTINUOUS
 62
    7
 10
2038.3796675245309
 20
1177
 40
2.5
  0
CIRCLE
  8
_0-3_
  6
CONTINUOUS
 62
    4
 10
2038.3796675245309
 20
1177
 40
2.5
  0
LINE
  8
_0-3_
  6
CONTINUOUS
 62
    7
 10
2315.8796675245298
 20
764
 11
2315.8796675245298
 21
1357.0000000000004
  0
LINE
  8
_0-3_
  6
CONTINUOUS
 62
    4
 10
1989.3796675245309
 20
1342.0000000000004
 11
2313.3796675245298
 21
1342.0000000000004
  0
LINE
  8
_0-3_
  6
CONTINUOUS
 62
    5
 10
2313.3796675245298
 20
764
 11
2331.3796675245298
 21
764
  0
LINE
  8
_0-3_
  6
CONTINUOUS
 62
    5
 10
1989.3796675245309
 20
772
 11
2313.3796675245298
 21
772
  0
LINE
  8
_0-3_
  6
CONTINUOUS
 62
    5
 10
2313.3796675245298
 20
772
 11
2313.3796675245298
 21
764
  0
LINE
  8
_0-3_
  6
CONTINUOUS
 62
    4
 10
2313.3796675245298
 20
764
 11
2313.3796675245298
 21
1357.0000000000004
  0
LINE
  8
_0-3_
  6
CONTINUOUS
 62
    4
 10
2331.3796675245298
 20
1339.0000000000006
 11
2331.3796675245298
 21
764
  0
LINE
  8
_0-3_
  6
CONTINUOUS
 62
    4
 10
2316.3796675245298
 20
764
 11
2316.3796675245298
 21
1357.0000000000004
  0
LINE
  8
_0-3_
  6
CONTINUOUS
 62
    4
 10
1989.3796675245309
 20
1357.0000000000004
 11
1989.3796675245309
 21
772
  0
LINE
  8
_0-3_
  6
CONTINUOUS
 62
    4
 10
2316.3796675245298
 20
809
 11
2331.3796675245298
 21
809
  0
LINE
  8
_0-3_
  6
CONTINUOUS
 62
    4
 10
2331.3796675245298
 20
809
 11
2316.3796675245298
 21
764
  0
LINE
  8
_0-3_
  6
CONTINUOUS
 62
    5
 10
1989.3796675245309
 20
772
 11
1989.3796675245309
 21
757
  0
LINE
  8
_0-3_
  6
CONTINUOUS
 62
    5
 10
1989.3796675245309
 20
757
 11
2331.3796675245298
 21
757
  0
LINE
  8
_0-3_
  6
CONTINUOUS
 62
    5
 10
2331.3796675245298
 20
764
 11
2331.3796675245298
 21
757
  0
LINE
  8
_0-3_
  6
CONTINUOUS
 62
    4
 10
2331.3796675245298
 20
1357.0000000000004
 11
2316.3796675245298
 21
1272.0000000000004
  0
LINE
  8
_0-3_
  6
CONTINUOUS
 62
    4
 10
2316.3796675245298
 20
1272.0000000000004
 11
2331.3796675245298
 21
1272.0000000000004
  0
LINE
  8
_0-3_
  6
CONTINUOUS
 62
    4
 10
2331.3796675245298
 20
1357.0000000000004
 11
2331.3796675245298
 21
1343.0000000000004
  0
LINE
  8
_0-3_
  6
CONTINUOUS
 62
    4
 10
2331.3796675245298
 20
1339.0000000000006
 11
2331.3796675245298
 21
1343.0000000000004
  0
LINE
  8
_0-3_
  6
CONTINUOUS
 62
    4
 10
1989.3796675245309
 20
1357.0000000000004
 11
2331.3796675245298
 21
1357.0000000000004
  0
LINE
  8
_0-6_
  6
CONTINUOUS
 62
    7
 10
2019.8796675245309
 20
1061.9999999999993
 11
2308.8796675245312
 21
1061.9999999999993
  0
LINE
  8
_0-6_
  6
CONTINUOUS
 62
    7
 10
2308.8796675245312
 20
1061.9999999999993
 11
2308.8796675245312
 21
1076.9999999999993
  0
LINE
  8
_0-6_
  6
CONTINUOUS
 62
    7
 10
2308.8796675245312
 20
1076.9999999999993
 11
2019.8796675245309
 21
1076.9999999999993
  0
LINE
  8
_0-6_
  6
CONTINUOUS
 62
    7
 10
2019.8796675245309
 20
1076.9999999999993
 11
2019.8796675245309
 21
1061.9999999999993
  0
LINE
  8
_0-6_
  6
DASHED1
 62
    7
 10
1461.0000000000009
 20
1061.9999999999997
 11
1461.0000000000009
 21
1076.9999999999997
  0
LINE
  8
_0-6_
  6
DASHED1
 62
    7
 10
1090
 20
1076.9999999999997
 11
1090
 21
1061.9999999999997
  0
LINE
  8
_0-6_
  6
DASHED1
 62
    7
 10
1061
 20
1061.9999999999997
 11
1061
 21
1076.9999999999997
  0
LINE
  8
_0-6_
  6
DASHED1
 62
    7
 10
1461.0000000000009
 20
1076.9999999999997
 11
1090
 21
1076.9999999999997
  0
LINE
  8
_0-6_
  6
DASHED1
 62
    7
 10
1461.0000000000009
 20
1061.9999999999997
 11
1090
 21
1061.9999999999997
  0
LINE
  8
_0-6_
  6
DASHED1
 62
    7
 10
388.99999999999977
 20
1076.9999999999997
 11
388.99999999999977
 21
1061.9999999999997
  0
LINE
  8
_0-6_
  6
DASHED1
 62
    7
 10
1061
 20
1076.9999999999997
 11
388.99999999999977
 21
1076.9999999999997
  0
LINE
  8
_0-6_
  6
DASHED1
 62
    7
 10
1061
 20
1061.9999999999997
 11
388.99999999999977
 21
1061.9999999999997
  0
LINE
  8
_0-b_
  6
DASHED1
 62
    7
 10
2067.8796675245307
 20
1339.4235500000002
 11
2066.7730175245305
 21
1340.0625000000002
  0
LINE
  8
_0-b_
  6
DASHED1
 62
    7
 10
2067.8796675245307
 20
1338.5575500000004
 11
2065.8796675245307
 21
1339.7122500000002
  0
LINE
  8
_0-b_
  6
DASHED1
 62
    7
 10
2067.8796675245307
 20
1337.6915000000003
 11
2065.8796675245307
 21
1338.8462000000004
  0
LINE
  8
_0-b_
  6
DASHED1
 62
    7
 10
2067.8796675245307
 20
1336.8255000000001
 11
2065.8796675245307
 21
1337.9802000000004
  0
LINE
  8
_0-b_
  6
DASHED1
 62
    7
 10
2067.8796675245307
 20
1335.9594500000002
 11
2065.8796675245307
 21
1337.1141500000003
  0
LINE
  8
_0-b_
  6
DASHED1
 62
    7
 10
2067.8796675245307
 20
1335.0934500000003
 11
2065.8796675245307
 21
1336.2481500000003
  0
LINE
  8
_0-b_
  6
DASHED1
 62
    7
 10
2067.8796675245307
 20
1334.2274000000002
 11
2065.8796675245307
 21
1335.3821000000002
  0
LINE
  8
_0-b_
  6
DASHED1
 62
    7
 10
2067.8796675245307
 20
1333.3614000000002
 11
2065.8796675245307
 21
1334.5161000000002
  0
LINE
  8
_0-b_
  6
DASHED1
 62
    7
 10
2067.8796675245307
 20
1332.4953500000003
 11
2065.8796675245307
 21
1333.6500500000001
  0
LINE
  8
_0-b_
  6
DASHED1
 62
    7
 10
2067.8796675245307
 20
1331.6293500000003
 11
2065.8796675245307
 21
1332.7840500000002
  0
LINE
  8
_0-b_
  6
DASHED1
 62
    7
 10
2067.8796675245307
 20
1330.7633000000005
 11
2065.8796675245307
 21
1331.9180000000003
  0
LINE
  8
_0-b_
  6
DASHED1
 62
    7
 10
2067.8796675245307
 20
1329.8973000000003
 11
2065.8796675245307
 21
1331.0520000000001
  0
LINE
  8
_0-b_
  6
DASHED1
 62
    7
 10
2067.8796675245307
 20
1329.0312500000004
 11
2065.8796675245307
 21
1330.1859500000002
  0
LINE
  8
_0-b_
  6
DASHED1
 62
    7
 10
2067.8796675245307
 20
1328.1652500000004
 11
2065.8796675245307
 21
1329.3199500000002
  0
LINE
  8
_0-b_
  6
DASHED1
 62
    7
 10
2067.8796675245307
 20
1327.2992000000001
 11
2065.8796675245307
 21
1328.4539000000004
  0
LINE
  8
_0-b_
  6
DASHED1
 62
    7
 10
2067.8796675245307
 20
1326.4332000000001
 11
2065.8796675245307
 21
1327.5879000000004
  0
LINE
  8
_0-b_
  6
DASHED1
 62
    7
 10
2067.8796675245307
 20
1325.5671500000003
 11
2065.8796675245307
 21
1326.7218500000003
  0
LINE
  8
_0-b_
  6
DASHED1
 62
    7
 10
2067.8796675245307
 20
1324.7011500000003
 11
2065.8796675245307
 21
1325.8558500000003
  0
LINE
  8
_0-b_
  6
DASHED1
 62
    7
 10
2067.8796675245307
 20
1323.8351000000002
 11
2065.8796675245307
 21
1324.9898000000002
  0
LINE
  8
_0-b_
  6
DASHED1
 62
    7
 10
2067.8796675245307
 20
1322.9691000000002
 11
2065.8796675245307
 21
1324.1238000000003
  0
LINE
  8
_0-b_
  6
DASHED1
 62
    7
 10
2067.8796675245307
 20
1322.1030500000003
 11
2065.8796675245307
 21
1323.2577500000002
  0
LINE
  8
_0-b_
  6
DASHED1
 62
    7
 10
2067.8796675245307
 20
1321.2370500000001
 11
2065.8796675245307
 21
1322.3917500000004
  0
LINE
  8
_0-b_
  6
DASHED1
 62
    7
 10
2067.8796675245307
 20
1320.3710000000003
 11
2065.8796675245307
 21
1321.5257000000001
  0
LINE
  8
_0-b_
  6
DASHED1
 62
    7
 10
2067.8796675245307
 20
1319.5050000000003
 11
2065.8796675245307
 21
1320.6597000000001
  0
LINE
  8
_0-b_
  6
DASHED1
 62
    7
 10
2067.8796675245307
 20
1318.6389500000004
 11
2065.8796675245307
 21
1319.7936500000002
  0
LINE
  8
_0-b_
  6
DASHED1
 62
    7
 10
2067.7696175245305
 20
1317.8365000000003
 11
2065.8796675245307
 21
1318.9276500000003
  0
LINE
  8
_0-b_
  6
DASHED1
 62
    7
 10
2067.6488675245304
 20
1317.0401500000002
 11
2065.8075675245304
 21
1318.1032500000003
  0
LINE
  8
_0-b_
  6
DASHED1
 62
    7
 10
2067.3761175245308
 20
1316.3316000000004
 11
2065.6195675245307
 21
1317.3457500000004
  0
LINE
  8
_0-b_
  6
DASHED1
 62
    7
 10
2067.0312675245304
 20
1315.6647000000002
 11
2065.3192675245304
 21
1316.6531000000004
  0
LINE
  8
_0-b_
  6
DASHED1
 62
    7
 10
2066.6864175245304
 20
1314.9977500000002
 11
2064.7712175245305
 21
1316.1035000000003
  0
LINE
  8
_0-b_
  6
DASHED1
 62
    7
 10
2066.1838675245307
 20
1314.4219000000002
 11
2064.2762175245306
 21
1315.5232500000001
  0
LINE
  8
_0-b_
  6
DASHED1
 62
    7
 10
2065.6062675245307
 20
1313.8893000000002
 11
2063.0546675245304
 21
1315.3625000000001
  0
LINE
  8
_0-b_
  6
DASHED1
 62
    7
 10
2064.9373175245304
 20
1313.4095000000002
 11
2061.5546675245304
 21
1315.3625000000001
  0
LINE
  8
_0-b_
  6
DASHED1
 62
    7
 10
2064.0489175245306
 20
1313.0564000000003
 11
2060.0546675245304
 21
1315.3625000000001
  0
LINE
  8
_0-b_
  6
DASHED1
 62
    7
 10
2063.1346175245307
 20
1312.7182500000003
 11
2058.5546675245304
 21
1315.3625000000001
  0
LINE
  8
_0-b_
  6
DASHED1
 62
    7
 10
2060.4044175245307
 20
1312.5625000000002
 11
2056.0896175245306
 21
1315.0536500000002
  0
LINE
  8
_0-b_
  6
DASHED1
 62
    7
 10
2061.8542675245307
 20
1312.5914500000003
 11
2057.1141675245307
 21
1315.3281500000002
  0
LINE
  8
_0-b_
  6
DASHED1
 62
    7
 10
2058.9044175245307
 20
1312.5625000000002
 11
2055.0651175245307
 21
1314.7791000000004
  0
LINE
  8
_0-b_
  6
DASHED1
 62
    7
 10
2055.9044175245303
 20
1312.5625000000002
 11
2053.0160675245306
 21
1314.2300500000005
  0
LINE
  8
_0-b_
  6
DASHED1
 62
    7
 10
2057.4044175245303
 20
1312.5625000000002
 11
2054.0406175245307
 21
1314.5046000000002
  0
LINE
  8
_0-b_
  6
DASHED1
 62
    7
 10
2054.4044175245307
 20
1312.5625000000002
 11
2051.6280675245307
 21
1314.1654000000003
  0
LINE
  8
_0-b_
  6
DASHED1
 62
    7
 10
2052.9044175245307
 20
1312.5625000000002
 11
2050.1842675245306
 21
1314.1330000000002
  0
LINE
  8
_0-b_
  6
DASHED1
 62
    7
 10
2051.4044175245307
 20
1312.5625000000002
 11
2048.3285675245306
 21
1314.3383000000003
  0
LINE
  8
_0-b_
  6
DASHED1
 62
    7
 10
2049.9044175245303
 20
1312.5625000000002
 11
2045.9545675245306
 21
1314.8429500000002
  0
LINE
  8
_0-b_
  6
DASHED1
 62
    7
 10
2048.4044175245303
 20
1312.5625000000002
 11
2043.5805675245305
 21
1315.3475500000001
  0
LINE
  8
_0-b_
  6
DASHED1
 62
    7
 10
2046.9044175245307
 20
1312.5625000000002
 11
2041.2065675245303
 21
1315.8521500000003
  0
LINE
  8
_0-b_
  6
DASHED1
 62
    7
 10
2045.4044175245305
 20
1312.5625000000002
 11
2038.8325175245304
 21
1316.3567500000001
  0
LINE
  8
_0-b_
  6
DASHED1
 62
    7
 10
2043.9044175245305
 20
1312.5625000000002
 11
2036.4585175245306
 21
1316.8614000000002
  0
LINE
  8
_0-b_
  6
DASHED1
 62
    7
 10
2042.4044175245305
 20
1312.5625000000002
 11
2024.5642675245308
 21
1322.8625000000001
  0
LINE
  8
_0-b_
  6
DASHED1
 62
    7
 10
2040.9044175245303
 20
1312.5625000000002
 11
2021.8796675245307
 21
1323.5464500000002
  0
LINE
  8
_0-b_
  6
DASHED1
 62
    7
 10
2039.4044175245307
 20
1312.5625000000002
 11
2021.8796675245307
 21
1322.6804000000004
  0
LINE
  8
_0-b_
  6
DASHED1
 62
    7
 10
2037.9044175245305
 20
1312.5625000000002
 11
2021.8796675245307
 21
1321.8144000000004
  0
LINE
  8
_0-b_
  6
DASHED1
 62
    7
 10
2034.8796675245305
 20
1328.1652500000004
 11
2032.8796675245305
 21
1329.3199500000002
  0
LINE
  8
_0-b_
  6
DASHED1
 62
    7
 10
2034.8796675245305
 20
1327.2992000000001
 11
2032.8796675245305
 21
1328.4539000000004
  0
LINE
  8
_0-b_
  6
DASHED1
 62
    7
 10
2034.8796675245305
 20
1326.4332000000001
 11
2032.8796675245305
 21
1327.5879000000004
  0
LINE
  8
_0-b_
  6
DASHED1
 62
    7
 10
2034.8796675245305
 20
1325.5671500000003
 11
2032.6088675245305
 21
1326.8782000000005
  0
LINE
  8
_0-b_
  6
DASHED1
 62
    7
 10
2034.8796675245305
 20
1324.7011500000003
 11
2031.5712675245304
 21
1326.6112500000003
  0
LINE
  8
_0-b_
  6
DASHED1
 62
    7
 10
2034.8796675245305
 20
1323.8351000000002
 11
2030.1556675245305
 21
1326.5625000000002
  0
LINE
  8
_0-b_
  6
DASHED1
 62
    7
 10
2034.8796675245305
 20
1322.9691000000002
 11
2028.6556675245305
 21
1326.5625000000002
  0
LINE
  8
_0-b_
  6
DASHED1
 62
    7
 10
2034.8796675245305
 20
1322.1030500000003
 11
2027.1556675245305
 21
1326.5625000000002
  0
LINE
  8
_0-b_
  6
DASHED1
 62
    7
 10
2034.8796675245305
 20
1321.2370500000001
 11
2032.0642675245308
 21
1322.8625000000001
  0
LINE
  8
_0-b_
  6
DASHED1
 62
    7
 10
2034.8796675245305
 20
1320.3710000000003
 11
2030.5642675245305
 21
1322.8625000000001
  0
LINE
  8
_0-b_
  6
DASHED1
 62
    7
 10
2034.8796675245305
 20
1319.5050000000003
 11
2029.0642675245305
 21
1322.8625000000001
  0
LINE
  8
_0-b_
  6
DASHED1
 62
    7
 10
2034.8830675245308
 20
1318.6370000000001
 11
2027.5642675245305
 21
1322.8625000000001
  0
LINE
  8
_0-b_
  6
DASHED1
 62
    7
 10
2035.0148175245305
 20
1317.6949000000001
 11
2026.0642675245303
 21
1322.8625000000001
  0
LINE
  8
_0-b_
  6
DASHED1
 62
    7
 10
2032.0642675245308
 20
1322.8625000000001
 11
2025.6556675245305
 21
1326.5625000000002
  0
LINE
  8
_0-b_
  6
DASHED1
 62
    7
 10
2030.5642675245305
 20
1322.8625000000001
 11
2024.1556675245305
 21
1326.5625000000002
  0
LINE
  8
_0-b_
  6
DASHED1
 62
    7
 10
2029.0642675245305
 20
1322.8625000000001
 11
2022.8796675245305
 21
1326.4332000000001
  0
LINE
  8
_0-b_
  6
DASHED1
 62
    7
 10
2027.5642675245305
 20
1322.8625000000001
 11
2021.8796675245307
 21
1326.1445000000003
  0
LINE
  8
_0-b_
  6
DASHED1
 62
    7
 10
2026.0642675245303
 20
1322.8625000000001
 11
2021.8796675245307
 21
1325.2785000000003
  0
LINE
  8
_0-b_
  6
DASHED1
 62
    7
 10
2024.5642675245308
 20
1322.8625000000001
 11
2021.8796675245307
 21
1324.4124500000002
  0
LINE
  8
_0-b_
  6
DASHED1
 62
    7
 10
2067.8796675245307
 20
1340.1735500000004
 11
2066.8796675245307
 21
1340.7509000000004
  0
LINE
  8
_0-b_
  6
DASHED1
 62
    7
 10
2067.8796675245307
 20
1340.1735500000004
 11
2066.7730175245305
 21
1340.8125000000004
  0
LINE
  8
_0-b_
  6
DASHED1
 62
    7
 10
2067.8796675245307
 20
1340.9235500000002
 11
2067.1194175245309
 21
1341.3625000000001
  0
LINE
  8
_0-b_
  6
DASHED1
 62
    7
 10
2032.8796675245305
 20
1331.0625000000004
 11
2032.8796675245305
 21
1333.0625000000004
  0
LINE
  8
_0-b_
  6
DASHED1
 62
    7
 10
2052.8796675245307
 20
1314.1935000000003
 11
2050.3796675245307
 21
1314.0625000000002
  0
LINE
  8
_0-b_
  6
DASHED1
 62
    7
 10
2057.2423675245308
 20
1315.3625000000001
 11
2052.8796675245307
 21
1314.1935000000003
  0
LINE
  8
_0-b_
  6
DASHED1
 62
    7
 10
2034.8796675245305
 20
1328.4078000000001
 11
2032.8796675245305
 21
1329.5625000000004
  0
LINE
  8
_0-b_
  6
DASHED1
 62
    7
 10
2034.8796675245305
 20
1318.6707000000003
 11
2034.8796675245305
 21
1328.4078000000001
  0
LINE
  8
_0-b_
  6
DASHED1
 62
    7
 10
2057.9296675245304
 20
1340.0625000000002
 11
2057.9296675245304
 21
1339.0625000000002
  0
LINE
  8
_0-b_
  6
DASHED1
 62
    7
 10
2031.1476175245306
 20
1333.5625000000004
 11
2032.8796675245305
 21
1330.5625000000004
  0
LINE
  8
_0-b_
  6
DASHED1
 62
    7
 10
2049.3796675245307
 20
1314.1149000000004
 11
2050.3796675245307
 21
1314.0625000000002
  0
LINE
  8
_0-b_
  6
DASHED1
 62
    7
 10
2035.1876675245305
 20
1317.1315000000004
 11
2049.3796675245307
 21
1314.1149000000004
  0
LINE
  8
_0-b_
  6
DASHED1
 62
    7
 10
2065.8796675245307
 20
1340.0625000000002
 11
2065.8796675245307
 21
1318.6602000000002
  0
LINE
  8
_0-b_
  6
DASHED1
 62
    7
 10
2057.2423675245308
 20
1315.3625000000001
 11
2064.1435675245302
 21
1315.3625000000001
  0
LINE
  8
_0-b_
  6
DASHED1
 62
    7
 10
2025.3796675245305
 20
1335.2625000000002
 11
2025.3796675245305
 21
1342.8625000000001
  0
LINE
  8
_0-b_
  6
DASHED1
 62
    7
 10
2040.1796675245304
 20
1339.0625000000002
 11
2057.9296675245304
 21
1339.0625000000002
  0
LINE
  8
_0-b_
  6
DASHED1
 62
    7
 10
2067.8796675245307
 20
1318.5625000000004
 11
2067.8796675245307
 21
1341.3625000000001
  0
LINE
  8
_0-b_
  6
DASHED1
 62
    7
 10
2066.8796675245307
 20
1340.0625000000002
 11
2066.8796675245307
 21
1341.3791500000002
  0
LINE
  8
_0-b_
  6
DASHED1
 62
    7
 10
2067.8796675245307
 20
1341.3625000000001
 11
2007.8796675245305
 21
1342.2625000000002
  0
LINE
  8
_0-b_
  6
DASHED1
 62
    7
 10
2008.8796675245305
 20
1342.2625000000002
 11
2008.8796675245305
 21
1340.9625000000003
  0
LINE
  8
_0-b_
  6
DASHED1
 62
    7
 10
2030.1392175245305
 20
1340.9625000000003
 11
2034.3796675245307
 21
1340.9625000000003
  0
LINE
  8
_0-b_
  6
DASHED1
 62
    7
 10
2018.0582175245306
 20
1340.9625000000003
 11
2008.9796675245304
 21
1340.9625000000003
  0
LINE
  8
_0-b_
  6
DASHED1
 62
    7
 10
2034.3796675245307
 20
1339.0625000000002
 11
2035.5796675245305
 21
1339.0625000000002
  0
LINE
  8
_0-b_
  6
DASHED1
 62
    7
 10
1998.8797175245304
 20
1331.0625000000004
 11
1996.8797175245304
 21
1333.0625000000004
  0
LINE
  8
_0-b_
  6
DASHED1
 62
    7
 10
1996.8797175245304
 20
1333.0625000000004
 11
1996.8797175245304
 21
1340.0625000000002
  0
LINE
  8
_0-b_
  6
DASHED1
 62
    7
 10
2001.8797175245304
 20
1337.0625000000004
 11
2001.8797175245304
 21
1335.7625000000002
  0
LINE
  8
_0-b_
  6
DASHED1
 62
    7
 10
2037.8796675245305
 20
1336.9625
 11
2037.8796675245305
 21
1325.7625000000002
  0
LINE
  8
_0-b_
  6
DASHED1
 62
    7
 10
1996.8797175245304
 20
1337.0625000000004
 11
2026.8080675245305
 21
1337.0625000000004
  0
LINE
  8
_0-b_
  6
DASHED1
 62
    7
 10
2028.2223175245305
 20
1336.4767000000003
 11
2035.7580675245303
 21
1328.9409000000002
  0
LINE
  8
_0-b_
  6
DASHED1
 62
    7
 10
2030.0507175245306
 20
1341.0625000000004
 11
1997.8797175245304
 21
1341.0625000000004
  0
LINE
  8
_0-b_
  6
DASHED1
 62
    7
 10
2033.5862675245307
 20
1339.59805
 11
2037.3644175245306
 21
1335.8198500000003
  0
LINE
  8
_0-b_
  6
DASHED1
 62
    7
 10
2032.6796675245304
 20
1331.0625000000004
 11
2041.9896675245306
 21
1331.0625000000004
  0
LINE
  8
_0-b_
  6
DASHED1
 62
    7
 10
2051.3796675245303
 20
1320.1325000000001
 11
2051.3796675245303
 21
1340.8525000000004
  0
LINE
  8
_0-b_
  6
DASHED1
 62
    7
 10
2007.3797175245306
 20
1337.0625000000004
 11
2007.3797175245306
 21
1341.0625000000004
  0
LINE
  8
_0-b_
  6
DASHED1
 62
    7
 10
2001.8797175245304
 20
1341.0625000000004
 11
2001.8797175245304
 21
1337.0625000000004
  0
LINE
  8
_0-b_
  6
DASHED1
 62
    7
 10
1998.8797175245304
 20
1331.0625000000004
 11
2005.8797175245306
 21
1331.0625000000004
  0
LINE
  8
_0-b_
  6
DASHED1
 62
    7
 10
2005.8797175245306
 20
1332.2225000000003
 11
2005.8797175245306
 21
1331.0625000000004
  0
LINE
  8
_0-b_
  6
DASHED1
 62
    7
 10
2005.8797175245306
 20
1332.2225000000003
 11
2001.8797175245304
 21
1335.7625000000002
  0
LINE
  8
_0-b_
  6
DASHED1
 62
    7
 10
2064.3087675245305
 20
1325.3406500000003
 11
2065.2690675245303
 21
1333.1619000000002
  0
LINE
  8
_0-b_
  6
DASHED1
 62
    7
 10
2065.2738175245308
 20
1333.1603500000003
 11
2059.5888175245308
 21
1335.0625000000002
  0
LINE
  8
_0-b_
  6
DASHED1
 62
    7
 10
2049.3796675245307
 20
1334.0625000000002
 11
2037.8796675245305
 21
1334.0625000000002
  0
LINE
  8
_0-b_
  6
DASHED1
 62
    7
 10
2049.3796675245307
 20
1334.0625000000002
 11
2049.3796675245307
 21
1335.0625000000002
  0
LINE
  8
_0-b_
  6
DASHED1
 62
    7
 10
2049.3796675245307
 20
1335.0625000000002
 11
2059.5888175245308
 21
1335.0625000000002
  0
LINE
  8
_0-b_
  6
DASHED1
 62
    7
 10
2046.2738175245306
 20
1328.1487000000004
 11
2046.2738175245306
 21
1327.4468500000002
  0
LINE
  8
_0-b_
  6
DASHED1
 62
    7
 10
2046.2738175245306
 20
1328.1487000000004
 11
2049.7738175245303
 21
1331.0261000000002
  0
LINE
  8
_0-b_
  6
DASHED1
 62
    7
 10
2056.7738175245308
 20
1330.1782000000002
 11
2056.7738175245308
 21
1326.5588500000003
  0
LINE
  8
_0-b_
  6
DASHED1
 62
    7
 10
2046.2738175245306
 20
1327.4468500000002
 11
2049.7738175245303
 21
1330.6079000000001
  0
LINE
  8
_0-b_
  6
DASHED1
 62
    7
 10
2056.7738175245308
 20
1326.5588500000003
 11
2056.7738175245308
 21
1327.0774000000003
  0
LINE
  8
_0-b_
  6
DASHED1
 62
    7
 10
2040.1796675245304
 20
1339.0625000000002
 11
2040.1796675245304
 21
1334.2347500000003
  0
LINE
  8
_0-b_
  6
DASHED1
 62
    7
 10
2035.5796675245305
 20
1339.0625000000002
 11
2035.5796675245305
 21
1337.6046000000001
  0
LINE
  8
_0-b_
  6
DASHED1
 62
    7
 10
2035.5796675245305
 20
1337.6046000000001
 11
2035.5796675245305
 21
1330.3999500000004
  0
LINE
  8
_0-b_
  6
DASHED1
 62
    7
 10
2040.1796675245304
 20
1334.2347500000003
 11
2040.1796675245304
 21
1331.0625000000004
  0
LINE
  8
_0-b_
  6
DASHED1
 62
    7
 10
2034.3796675245307
 20
1338.8046000000003
 11
2034.3796675245307
 21
1341.8650000000002
  0
LINE
  8
_0-b_
  6
DASHED1
 62
    7
 10
2034.3796675245307
 20
1328.6965000000004
 11
2034.3796675245307
 21
1330.3193500000002
  0
LINE
  8
_0-b_
  6
DASHED1
 62
    7
 10
2034.3796675245307
 20
1338.8046000000003
 11
2034.3796675245307
 21
1330.3193500000002
  0
LINE
  8
_0-b_
  6
DASHED1
 62
    7
 10
2030.8796675245307
 20
1335.0625000000002
 11
2030.8796675245307
 21
1334.5625000000004
  0
LINE
  8
_0-b_
  6
DASHED1
 62
    7
 10
2026.8080675245305
 20
1337.0625000000004
 11
2008.8796675245305
 21
1337.0625000000004
  0
LINE
  8
_0-b_
  6
DASHED1
 62
    7
 10
2028.8796675245305
 20
1337.0625000000004
 11
2027.2796675245306
 21
1337.0625000000004
  0
LINE
  8
_0-b_
  6
DASHED1
 62
    7
 10
2018.0582175245306
 20
1340.9625000000003
 11
2022.4796675245306
 21
1340.9625000000003
  0
LINE
  8
_0-b_
  6
DASHED1
 62
    7
 10
2022.4866675245307
 20
1342.0190500000003
 11
2022.4807675245303
 21
1340.9625000000003
  0
LINE
  8
_0-b_
  6
DASHED1
 62
    7
 10
2028.2731675245304
 20
1341.9226000000003
 11
2028.2785675245304
 21
1340.9625000000003
  0
LINE
  8
_0-b_
  6
DASHED1
 62
    7
 10
2028.2796675245303
 20
1340.9625000000003
 11
2030.1392175245305
 21
1340.9625000000003
  0
LINE
  8
_0-b_
  6
DASHED1
 62
    7
 10
2027.2796675245306
 20
1337.0625000000004
 11
2027.2796675245306
 21
1341.9715000000001
  0
LINE
  8
_0-b_
  6
DASHED1
 62
    7
 10
2023.4796675245306
 20
1337.0625000000004
 11
2023.4796675245306
 21
1342.0030500000004
  0
LINE
  8
_0-b_
  6
DASHED1
 62
    7
 10
2050.3796675245307
 20
1337.5625000000002
 11
2050.3796675245307
 21
1342.5625000000002
  0
LINE
  8
_0-b_
  6
DASHED1
 62
    7
 10
2040.1796675245304
 20
1339.0625000000002
 11
2040.1796675245304
 21
1334.2625000000002
  0
LINE
  8
_0-b_
  6
DASHED1
 62
    7
 10
2053.6796675245304
 20
1339.0625000000002
 11
2034.4796675245306
 21
1339.0625000000002
  0
LINE
  8
_0-b_
  6
DASHED1
 62
    7
 10
2036.4796675245304
 20
1339.0625000000002
 11
2036.4796675245304
 21
1334.0625000000002
  0
LINE
  8
_0-b_
  6
DASHED1
 62
    7
 10
2036.4796675245304
 20
1334.0625000000002
 11
2035.8796675245307
 21
1334.0625000000002
  0
LINE
  8
_0-b_
  6
DASHED1
 62
    7
 10
2053.6796675245304
 20
1339.0625000000002
 11
2055.8796675245307
 21
1340.0625000000002
  0
LINE
  8
_0-b_
  6
DASHED1
 62
    7
 10
2065.1796675245304
 20
1340.0625000000002
 11
2065.1796675245304
 21
1338.0625000000004
  0
LINE
  8
_0-b_
  6
DASHED1
 62
    7
 10
2066.8796675245307
 20
1340.0625000000002
 11
2055.8796675245307
 21
1340.0625000000002
  0
LINE
  8
_0-b_
  6
DASHED1
 62
    7
 10
2066.8796675245307
 20
1341.2625000000002
 11
2034.4796675245306
 21
1341.7625000000002
  0
LINE
  8
_0-b_
  6
DASHED1
 62
    7
 10
2066.8796675245307
 20
1341.2625000000002
 11
2066.8796675245307
 21
1340.0625000000002
  0
LINE
  8
_0-b_
  6
DASHED1
 62
    7
 10
2065.8796675245307
 20
1338.0625000000004
 11
2065.1796675245304
 21
1338.0625000000004
  0
LINE
  8
_0-b_
  6
DASHED1
 62
    7
 10
2034.4796675245306
 20
1334.0625000000002
 11
2035.8796675245307
 21
1334.0625000000002
  0
LINE
  8
_0-b_
  6
DASHED1
 62
    7
 10
2034.4796675245306
 20
1341.7625000000002
 11
2034.4796675245306
 21
1338.7046000000004
  0
LINE
  8
_0-b_
  6
DASHED1
 62
    7
 10
2035.8796675245307
 20
1339.0625000000002
 11
2035.8796675245307
 21
1337.3046000000001
  0
LINE
  8
_0-b_
  6
DASHED1
 62
    7
 10
2035.8796675245307
 20
1337.3046000000001
 11
2035.8796675245307
 21
1334.2625000000002
  0
LINE
  8
_0-b_
  6
DASHED1
 62
    7
 10
2034.4796675245306
 20
1338.7046000000004
 11
2034.4796675245306
 21
1334.0625000000002
  0
LINE
  8
_0-b_
  6
DASHED1
 62
    7
 10
2039.1796675245304
 20
1333.2625000000002
 11
2036.8796675245307
 21
1333.2625000000002
  0
LINE
  8
_0-b_
  6
DASHED1
 62
    7
 10
2065.8796675245307
 20
1340.9625000000003
 11
2035.4796675245304
 21
1340.9625000000003
  0
LINE
  8
_0-b_
  6
DASHED1
 62
    7
 10
2035.4796675245304
 20
1340.9625000000003
 11
2035.4796675245304
 21
1341.7440000000001
  0
LINE
  8
_0-b_
  6
DASHED1
 62
    7
 10
2057.9296675245304
 20
1340.0625000000002
 11
2066.8796675245307
 21
1340.0625000000002
  0
LINE
  8
_0-b_
  6
DASHED1
 62
    7
 10
2065.8796675245307
 20
1340.9625000000003
 11
2065.8796675245307
 21
1341.2779500000001
  0
LINE
  8
_0-b_
  6
DASHED1
 62
    7
 10
2034.5399175245304
 20
1341.7614000000003
 11
2034.4796675245306
 21
1341.7266000000004
  0
LINE
  8
_0-b_
  6
DASHED1
 62
    7
 10
2042.1562175245303
 20
1340.9625000000003
 11
2038.8653175245306
 21
1339.0625000000002
  0
LINE
  8
_0-b_
  6
DASHED1
 62
    7
 10
2040.6562175245308
 20
1340.9625000000003
 11
2037.3653175245306
 21
1339.0625000000002
  0
LINE
  8
_0-b_
  6
DASHED1
 62
    7
 10
2039.1562175245305
 20
1340.9625000000003
 11
2035.8653175245306
 21
1339.0625000000002
  0
LINE
  8
_0-b_
  6
DASHED1
 62
    7
 10
2037.6562175245305
 20
1340.9625000000003
 11
2034.4796675245306
 21
1339.1285000000002
  0
LINE
  8
_0-b_
  6
DASHED1
 62
    7
 10
2036.1562175245305
 20
1340.9625000000003
 11
2034.4796675245306
 21
1339.9945500000003
  0
LINE
  8
_0-b_
  6
DASHED1
 62
    7
 10
2035.4796675245304
 20
1341.4379000000003
 11
2034.4796675245306
 21
1340.8605500000003
  0
LINE
  8
_0-b_
  6
DASHED1
 62
    7
 10
2055.6562175245308
 20
1340.9625000000003
 11
2052.3653175245308
 21
1339.0625000000002
  0
LINE
  8
_0-b_
  6
DASHED1
 62
    7
 10
2054.1562175245308
 20
1340.9625000000003
 11
2050.8653175245303
 21
1339.0625000000002
  0
LINE
  8
_0-b_
  6
DASHED1
 62
    7
 10
2052.6562175245308
 20
1340.9625000000003
 11
2049.3653175245303
 21
1339.0625000000002
  0
LINE
  8
_0-b_
  6
DASHED1
 62
    7
 10
2051.1562175245303
 20
1340.9625000000003
 11
2047.8653175245308
 21
1339.0625000000002
  0
LINE
  8
_0-b_
  6
DASHED1
 62
    7
 10
2049.6562175245303
 20
1340.9625000000003
 11
2046.3653175245306
 21
1339.0625000000002
  0
LINE
  8
_0-b_
  6
DASHED1
 62
    7
 10
2048.1562175245308
 20
1340.9625000000003
 11
2044.8653175245306
 21
1339.0625000000002
  0
LINE
  8
_0-b_
  6
DASHED1
 62
    7
 10
2046.6562175245305
 20
1340.9625000000003
 11
2043.3653175245306
 21
1339.0625000000002
  0
LINE
  8
_0-b_
  6
DASHED1
 62
    7
 10
2045.1562175245305
 20
1340.9625000000003
 11
2041.8653175245303
 21
1339.0625000000002
  0
LINE
  8
_0-b_
  6
DASHED1
 62
    7
 10
2043.6562175245305
 20
1340.9625000000003
 11
2040.3653175245308
 21
1339.0625000000002
  0
LINE
  8
_0-b_
  6
DASHED1
 62
    7
 10
2057.1562175245303
 20
1340.9625000000003
 11
2054.5525175245306
 21
1339.4592500000003
  0
LINE
  8
_0-b_
  6
DASHED1
 62
    7
 10
2058.6562175245303
 20
1340.9625000000003
 11
2057.0973675245304
 21
1340.0625000000002
  0
LINE
  8
_0-b_
  6
DASHED1
 62
    7
 10
2060.1562175245308
 20
1340.9625000000003
 11
2058.5973675245304
 21
1340.0625000000002
  0
LINE
  8
_0-b_
  6
DASHED1
 62
    7
 10
2061.6562175245308
 20
1340.9625000000003
 11
2060.0973675245304
 21
1340.0625000000002
  0
LINE
  8
_0-b_
  6
DASHED1
 62
    7
 10
2063.1562175245308
 20
1340.9625000000003
 11
2061.5973675245304
 21
1340.0625000000002
  0
LINE
  8
_0-b_
  6
DASHED1
 62
    7
 10
2064.6562175245303
 20
1340.9625000000003
 11
2063.0973675245304
 21
1340.0625000000002
  0
LINE
  8
_0-b_
  6
DASHED1
 62
    7
 10
2066.6811175245306
 20
1341.2655500000003
 11
2064.5973675245304
 21
1340.0625000000002
  0
LINE
  8
_0-b_
  6
DASHED1
 62
    7
 10
2066.8796675245307
 20
1340.5141500000001
 11
2066.0973675245304
 21
1340.0625000000002
  0
LINE
  8
_0-b_
  6
DASHED1
 62
    7
 10
2007.8796675245305
 20
1342.2625000000002
 11
2007.8796675245305
 21
1341.0625000000004
  0
LINE
  8
_0-b_
  6
DASHED1
 62
    7
 10
2007.8796675245305
 20
1341.0625000000004
 11
2007.8796675245305
 21
1338.0625000000004
  0
LINE
  8
_0-b_
  6
DASHED1
 62
    7
 10
2036.4044175245305
 20
1312.5625000000002
 11
2021.8796675245307
 21
1320.9483500000005
  0
LINE
  8
_0-b_
  6
DASHED1
 62
    7
 10
2034.9044175245305
 20
1312.5625000000002
 11
2021.8796675245307
 21
1320.0823500000003
  0
LINE
  8
_0-b_
  6
DASHED1
 62
    7
 10
2033.4044175245303
 20
1312.5625000000002
 11
2021.8553175245303
 21
1319.2304000000003
  0
LINE
  8
_0-b_
  6
DASHED1
 62
    7
 10
2031.9044175245307
 20
1312.5625000000002
 11
2021.8796675245307
 21
1318.3503
  0
LINE
  8
_0-b_
  6
DASHED1
 62
    7
 10
2030.4044175245305
 20
1312.5625000000002
 11
2021.8796675245307
 21
1317.4842500000002
  0
LINE
  8
_0-b_
  6
DASHED1
 62
    7
 10
2028.9044175245305
 20
1312.5625000000002
 11
2021.8796675245307
 21
1316.6182500000002
  0
LINE
  8
_0-b_
  6
DASHED1
 62
    7
 10
2027.4044175245305
 20
1312.5625000000002
 11
2021.8796675245307
 21
1315.7522000000003
  0
LINE
  8
_0-b_
  6
DASHED1
 62
    7
 10
2025.9044175245303
 20
1312.5625000000002
 11
2021.8796675245307
 21
1314.8862000000003
  0
LINE
  8
_0-b_
  6
DASHED1
 62
    7
 10
2024.4044175245307
 20
1312.5625000000002
 11
2021.9700675245305
 21
1313.9679500000002
  0
LINE
  8
_0-b_
  6
DASHED1
 62
    7
 10
2032.8796675245305
 20
1331.0625000000004
 11
2032.8796675245305
 21
1327.5625000000002
  0
LINE
  8
_0-b_
  6
DASHED1
 62
    7
 10
2021.8796675245307
 20
1314.5625000000004
 11
2021.8796675245307
 21
1337.0625000000004
  0
LINE
  8
_0-b_
  6
DASHED1
 62
    7
 10
2023.8796675245305
 20
1312.5625000000002
 11
2061.8796675245307
 21
1312.5625000000002
  0
LINE
  8
_0-b_
  6
DASHED1
 62
    7
 10
2031.8796675245307
 20
1326.5625000000002
 11
2021.8796675245307
 21
1326.5625000000002
  0
LINE
  8
_0-b_
  6
DASHED1
 62
    7
 10
2062.0884675245306
 20
1314.6761500000002
 11
2052.8796675245307
 21
1314.1935000000003
  0
LINE
  8
_0-b_
  6
DASHED1
 62
    7
 10
2038.6703175245304
 20
1314.6761500000002
 11
2049.3796675245307
 21
1314.1149000000004
  0
LINE
  8
_0-b_
  6
DASHED1
 62
    7
 10
2049.7738175245303
 20
1331.0261000000002
 11
2049.7738175245303
 21
1330.6079000000001
  0
LINE
  8
_0-b_
  6
DASHED1
 62
    7
 10
2063.7413675245306
 20
1326.4254500000004
 11
2051.3796675245303
 21
1333.5625000000004
  0
LINE
  8
_0-b_
  6
DASHED1
 62
    7
 10
2064.7330675245307
 20
1328.7963000000002
 11
2053.8796675245303
 21
1335.0625000000002
  0
LINE
  8
_0-b_
  6
DASHED1
 62
    7
 10
2035.9720675245305
 20
1329.4340500000002
 11
2051.3796675245303
 21
1333.5625000000004
  0
LINE
  8
_0-b_
  6
DASHED1
 62
    7
 10
2032.8796675245305
 20
1322.8625000000001
 11
2023.8796675245305
 21
1322.8625000000001
  0
LINE
  8
_0-b_
  6
DASHED1
 62
    7
 10
2032.8796675245305
 20
1322.8625000000001
 11
2032.8796675245305
 21
1318.5625000000004
  0
LINE
  8
_0-b_
  6
DASHED1
 62
    7
 10
2032.8796675245305
 20
1322.8625000000001
 11
2032.8796675245305
 21
1327.5625000000002
  0
LINE
  8
_0-b_
  6
DASHED1
 62
    7
 10
2000.6297175245304
 20
1333.5625000000004
 11
1998.1297175245304
 21
1333.5625000000004
  0
LINE
  8
_0-b_
  6
DASHED1
 62
    7
 10
1998.1297175245304
 20
1341.0625000000004
 11
1998.1297175245304
 21
1333.5625000000004
  0
LINE
  8
_0-b_
  6
DASHED1
 62
    7
 10
2000.6297175245304
 20
1341.0625000000004
 11
2000.6297175245304
 21
1333.5625000000004
  0
LINE
  8
_0-b_
  6
DASHED1
 62
    7
 10
1999.3797175245304
 20
1331.9725000000003
 11
1999.3797175245304
 21
1343.0625000000004
  0
ARC
  8
_0-b_
  6
DASHED1
 62
    7
 10
2061.8796675245307
 20
1318.5625000000004
 40
6.0000000000000008
 50
269.99999999999988
 51
359.99999999999988
  0
ARC
  8
_0-b_
  6
DASHED1
 62
    7
 10
2038.8796675245305
 20
1318.6707000000003
 40
4
 50
179.99999999999991
 51
202.63099999999988
  0
ARC
  8
_0-b_
  6
DASHED1
 62
    7
 10
2061.8796675245307
 20
1318.6602000000002
 40
4
 50
304.46999999999991
 51
0.0000000000000318
  0
ARC
  8
_0-b_
  6
DASHED1
 62
    7
 10
2028.8796675245305
 20
1333.0625000000004
 40
4
 50
84.812999999999973
 51
89.999999999999971
  0
ARC
  8
_0-b_
  6
DASHED1
 62
    7
 10
2028.8796675245305
 20
1333.0625000000004
 40
4
 50
359.99999999999994
 51
84.813000000000002
  0
CIRCLE
  8
_0-b_
  6
DASHED1
 62
    7
 10
2037.8796675245305
 20
1331.0625000000004
 40
2.1
  0
CIRCLE
  8
_0-b_
  6
DASHED1
 62
    7
 10
2037.8796675245305
 20
1331.0625000000004
 40
3.0000000000000004
  0
ARC
  8
_0-b_
  6
DASHED1
 62
    7
 10
1997.8797175245304
 20
1340.0625000000002
 40
1
 50
89.999999999999971
 51
180
  0
ARC
  8
_0-b_
  6
DASHED1
 62
    7
 10
2040.0473175245306
 20
1333.1364500000004
 40
6.0000000000000008
 50
223.73399999999995
 51
281.21399999999994
  0
CIRCLE
  8
_0-b_
  6
DASHED1
 62
    7
 10
2037.8796675245305
 20
1331.0625000000004
 40
3.0000000000000004
  0
CIRCLE
  8
_0-b_
  6
DASHED1
 62
    7
 10
2037.8796675245305
 20
1331.0625000000004
 40
2.1
  0
ARC
  8
_0-b_
  6
DASHED1
 62
    7
 10
2026.8080675245305
 20
1335.0625000000002
 40
2
 50
44.999999999999964
 51
89.999999999999971
  0
ARC
  8
_0-b_
  6
DASHED1
 62
    7
 10
2030.0507175245306
 20
1336.0625000000004
 40
5
 50
44.999999999999964
 51
89.999999999999971
  0
ARC
  8
_0-b_
  6
DASHED1
 62
    7
 10
2041.6070675245305
 20
1340.0625000000002
 40
6.0000000000000008
 50
224.99999999999994
 51
269.99999999999994
  0
ARC
  8
_0-b_
  6
DASHED1
 62
    7
 10
2035.7132675245304
 20
1330.3999500000004
 40
1
 50
224.99999999999991
 51
284.99999999999994
  0
ARC
  8
_0-b_
  6
DASHED1
 62
    7
 10
2065.2456175245306
 20
1334.2532500000004
 40
10
 50
240.93599999999992
 51
257.62099999999992
  0
ARC
  8
_0-b_
  6
DASHED1
 62
    7
 10
2063.3162175245306
 20
1325.4625000000005
 40
1
 50
257.62099999999986
 51
352.99999999999994
  0
ARC
  8
_0-b_
  6
DASHED1
 62
    7
 10
2049.4796675245306
 20
1285.5625000000004
 40
42.00685
 50
86.96199999999996
 51
94.376999999999995
  0
ARC
  8
_0-b_
  6
DASHED1
 62
    7
 10
2050.6721175245306
 20
1308.0309000000002
 40
19.50685
 50
71.771999999999977
 51
86.961999999999974
  0
ARC
  8
_0-b_
  6
DASHED1
 62
    7
 10
2049.4796675245306
 20
1285.5625000000004
 40
42.706699999999997
 50
86.96199999999996
 51
94.304999999999992
  0
ARC
  8
_0-b_
  6
DASHED1
 62
    7
 10
2050.6721175245306
 20
1308.0309000000002
 40
20.206700000000004
 50
72.423999999999978
 51
86.961999999999974
  0
ARC
  8
_0-b_
  6
DASHED1
 62
    7
 10
2049.4796675245306
 20
1285.5625000000004
 40
42.5
 50
86.96199999999996
 51
101.21399999999999
  0
ARC
  8
_0-b_
  6
DASHED1
 62
    7
 10
2050.6721175245306
 20
1308.0309000000002
 40
20
 50
60.935999999999985
 51
87.972999999999984
  0
ARC
  8
_0-b_
  6
DASHED1
 62
    7
 10
2063.9913675245306
 20
1326.8585000000002
 40
0.5
 50
239.99999999999994
 51
352.99999999999994
  0
ARC
  8
_0-b_
  6
DASHED1
 62
    7
 10
2037.8796675245305
 20
1331.0625000000004
 40
2.2999999999999998
 50
179.99999999999985
 51
359.99999999999988
  0
ARC
  8
_0-b_
  6
DASHED1
 62
    7
 10
2028.8796675245305
 20
1335.0625000000002
 40
2
 50
359.99999999999994
 51
89.999999999999943
  0
ARC
  8
_0-b_
  6
DASHED1
 62
    7
 10
2032.8796675245305
 20
1334.5625000000004
 40
2
 50
179.99999999999985
 51
209.99999999999991
  0
ARC
  8
_0-b_
  6
DASHED1
 62
    7
 10
2036.8796675245307
 20
1334.2625000000002
 40
1
 50
179.99999999999991
 51
269.99999999999994
  0
ARC
  8
_0-b_
  6
DASHED1
 62
    7
 10
2039.1796675245304
 20
1334.2625000000002
 40
1
 50
269.99999999999988
 51
359.99999999999988
  0
ARC
  8
_0-b_
  6
DASHED1
 62
    7
 10
2008.8796675245305
 20
1338.0625000000004
 40
1
 50
179.99999999999991
 51
269.99999999999994
  0
ARC
  8
_0-b_
  6
DASHED1
 62
    7
 10
2050.9396675245307
 20
1322.8525000000001
 40
8.7300000000000004
 50
146.57599999999996
 51
22.665999999999996
  0
ARC
  8
_0-b_
  6
DASHED1
 62
    7
 10
2023.8796675245305
 20
1323.8625000000001
 40
1
 50
179.99999999999991
 51
269.99999999999994
  0
ARC
  8
_0-b_
  6
DASHED1
 62
    7
 10
2031.8796675245307
 20
1327.5625000000002
 40
1
 50
269.99999999999988
 51
359.99999999999988
  0
ARC
  8
_0-b_
  6
DASHED1
 62
    7
 10
2023.8796675245305
 20
1314.5625000000004
 40
2
 50
179.99999999999991
 51
269.99999999999994
  0
ARC
  8
_0-b_
  6
DASHED1
 62
    7
 10
2061.8796675245307
 20
1318.6602000000002
 40
4
 50
273
 51
304.46999999999991
  0
ARC
  8
_0-b_
  6
DASHED1
 62
    7
 10
2038.8796675245305
 20
1318.6707000000003
 40
4
 50
202.63099999999991
 51
266.99999999999994
  0
ARC
  8
_0-b_
  6
DASHED1
 62
    7
 10
2049.4796675245306
 20
1285.5625000000004
 40
45.472499999999996
 50
86.96199999999996
 51
89.629000000000004
  0
ARC
  8
_0-b_
  6
DASHED1
 62
    7
 10
2049.4796675245306
 20
1285.5625000000004
 40
45.046349999999996
 50
86.96199999999996
 51
89.625999999999976
  0
ARC
  8
_0-b_
  6
DASHED1
 62
    7
 10
2050.6721175245306
 20
1308.0309000000002
 40
22.54635
 50
74.297999999999973
 51
86.961999999999974
  0
ARC
  8
_0-b_
  6
DASHED1
 62
    7
 10
2050.6721175245306
 20
1308.0309000000002
 40
22.9725
 50
74.596999999999965
 51
86.96199999999996
  0
ARC
  8
_0-b_
  6
DASHED1
 62
    7
 10
2050.9396675245307
 20
1322.8525000000001
 40
8.7300000000000004
 50
22.665999999999975
 51
146.57599999999999
  0
ARC
  8
_0-b_
  6
DASHED1
 62
    7
 10
2038.8796675245305
 20
1318.5625000000004
 40
6.0000000000000008
 50
179.99999999999991
 51
269.99999999999994
  0
LINE
  8
_0-b_
  6
DASHED1
 62
    7
 10
2050.3796675245307
 20
1343.1625000000003
 11
2050.3796675245307
 21
1308.7625000000002
  0
ARC
  8
_0-b_
  6
DASHED1
 62
    7
 10
1986.5796675245301
 20
1327.0000000000004
 40
1.1999999999999999
 50
90.000000000000028
 51
180.00000000000005
  0
ARC
  8
_0-b_
  6
DASHED1
 62
    7
 10
1986.5796675245301
 20
1327.0000000000004
 40
1.1999999999999999
 50
90.000000000000028
 51
180.00000000000005
  0
LINE
  8
_0-b_
  6
DASHED1
 62
    7
 10
1985.37966752453
 20
1324.0000000000004
 11
1986.5796675245301
 21
1324.0000000000004
  0
LINE
  8
_0-b_
  6
DASHED1
 62
    7
 10
1986.5796675245301
 20
1327.0000000000004
 11
1986.5796675245301
 21
1307.0000000000004
  0
LINE
  8
_0-b_
  6
DASHED1
 62
    7
 10
1985.37966752453
 20
1307.0000000000004
 11
1986.5796675245301
 21
1307.0000000000004
  0
LINE
  8
_0-b_
  6
DASHED1
 62
    7
 10
1985.37966752453
 20
1327.0000000000004
 11
1985.37966752453
 21
1307.0000000000004
  0
LINE
  8
_0-b_
  6
DASHED1
 62
    7
 10
1986.5796675245301
 20
1326.5000000000004
 11
1986.5796675245301
 21
1311.3593000000003
  0
LINE
  8
_0-b_
  6
DASHED1
 62
    7
 10
1987.0796675245301
 20
1327.0000000000004
 11
2002.22036752453
 21
1327.0000000000004
  0
LINE
  8
_0-b_
  6
DASHED1
 62
    7
 10
2016.3796675245298
 20
1327.0000000000004
 11
2016.3796675245298
 21
1328.2000000000002
  0
LINE
  8
_0-b_
  6
DASHED1
 62
    7
 10
1986.5796675245301
 20
1328.2000000000002
 11
2022.3796675245303
 21
1328.2000000000002
  0
LINE
  8
_0-b_
  6
DASHED1
 62
    7
 10
1986.5796675245301
 20
1327.0000000000004
 11
2022.3796675245303
 21
1327.0000000000004
  0
LINE
  8
_0-b_
  6
DASHED1
 62
    7
 10
2022.3796675245303
 20
1328.2000000000002
 11
2022.3796675245303
 21
1327.0000000000004
  0
LINE
  8
_0-b_
  6
DASHED1
 62
    7
 10
685.50000000000011
 20
1343.9
 11
685.50000000000011
 21
1335.5
  0
LINE
  8
_0-b_
  6
DASHED1
 62
    7
 10
684.50000000000045
 20
1312.3000000000001
 11
661.50000000000034
 21
1312.3000000000001
  0
LINE
  8
_0-b_
  6
DASHED1
 62
    7
 10
673.00000000000011
 20
1329.3000000000004
 11
665.50000000000011
 21
1329.3000000000004
  0
LINE
  8
_0-b_
  6
DASHED1
 62
    7
 10
663.00000000000011
 20
1336.8000000000004
 11
663.00000000000011
 21
1331.2999999999999
  0
LINE
  8
_0-b_
  6
DASHED1
 62
    7
 10
664.50000000000045
 20
1330.8000000000001
 11
663.50000000000022
 21
1330.8000000000001
  0
LINE
  8
_0-b_
  6
DASHED1
 62
    7
 10
692.58000000000038
 20
1340.2500000000004
 11
692.60000000000013
 21
1340.2500000000004
  0
LINE
  8
_0-b_
  6
DASHED1
 62
    7
 10
655.50000000000011
 20
1322.6000000000001
 11
654.50000000000045
 21
1322.6000000000001
  0
LINE
  8
_0-b_
  6
DASHED1
 62
    7
 10
656.50000000000034
 20
1336.8000000000004
 11
664.00000000000034
 21
1336.8000000000004
  0
LINE
  8
_0-b_
  6
DASHED1
 62
    7
 10
655.50000000000011
 20
1335.8000000000001
 11
655.50000000000011
 21
1318.3000000000001
  0
LINE
  8
_0-b_
  6
DASHED1
 62
    7
 10
653.50000000000022
 20
1342.0000000000002
 11
653.50000000000022
 21
1323.6000000000001
  0
LINE
  8
_0-b_
  6
DASHED1
 62
    7
 10
665.00000000000022
 20
1342.0000000000002
 11
653.50000000000022
 21
1342.0000000000002
  0
LINE
  8
_0-b_
  6
DASHED1
 62
    7
 10
655.50000000000011
 20
1342.0000000000002
 11
655.50000000000011
 21
1337.8000000000001
  0
LINE
  8
_0-b_
  6
DASHED1
 62
    7
 10
665.00000000000022
 20
1342.0000000000002
 11
665.00000000000022
 21
1329.8000000000001
  0
LINE
  8
_0-b_
  6
DASHED1
 62
    7
 10
690.50000000000011
 20
1342.0000000000002
 11
690.50000000000011
 21
1318.3000000000001
  0
LINE
  8
_0-b_
  6
DASHED1
 62
    7
 10
681.00000000000022
 20
1342.0000000000002
 11
692.50000000000022
 21
1342.0000000000002
  0
LINE
  8
_0-b_
  6
DASHED1
 62
    7
 10
692.50000000000022
 20
1342.0000000000002
 11
692.50000000000022
 21
1323.6000000000001
  0
LINE
  8
_0-b_
  6
DASHED1
 62
    7
 10
690.50000000000011
 20
1322.6000000000001
 11
691.50000000000034
 21
1322.6000000000001
  0
LINE
  8
_0-b_
  6
DASHED1
 62
    7
 10
665.00000000000022
 20
1341.1000000000001
 11
681.00000000000022
 21
1341.1000000000001
  0
LINE
  8
_0-b_
  6
DASHED1
 62
    7
 10
681.00000000000022
 20
1342.0000000000002
 11
681.00000000000022
 21
1329.8000000000001
  0
LINE
  8
_0-b_
  6
DASHED1
 62
    7
 10
673.00000000000011
 20
1329.3000000000004
 11
680.50000000000011
 21
1329.3000000000004
  0
LINE
  8
_0-b_
  6
DASHED1
 62
    7
 10
689.50000000000045
 20
1336.8000000000004
 11
682.00000000000045
 21
1336.8000000000004
  0
LINE
  8
_0-b_
  6
DASHED1
 62
    7
 10
679.50000000000045
 20
1340.8000000000001
 11
666.50000000000034
 21
1340.8000000000001
  0
LINE
  8
_0-b_
  6
DASHED1
 62
    7
 10
670.00000000000022
 20
1336.8000000000004
 11
670.00000000000022
 21
1331.8000000000004
  0
LINE
  8
_0-b_
  6
DASHED1
 62
    7
 10
675.00000000000022
 20
1330.8000000000001
 11
671.00000000000022
 21
1330.8000000000001
  0
LINE
  8
_0-b_
  6
DASHED1
 62
    7
 10
676.00000000000022
 20
1336.8000000000004
 11
676.00000000000022
 21
1331.8000000000004
  0
LINE
  8
_0-b_
  6
DASHED1
 62
    7
 10
679.50000000000045
 20
1336.8000000000004
 11
676.00000000000022
 21
1336.8000000000004
  0
LINE
  8
_0-b_
  6
DASHED1
 62
    7
 10
670.00000000000022
 20
1336.8000000000004
 11
666.50000000000034
 21
1336.8000000000004
  0
LINE
  8
_0-b_
  6
DASHED1
 62
    7
 10
667.50000000000022
 20
1330.4038500000001
 11
667.30340000000012
 21
1330.8636000000001
  0
LINE
  8
_0-b_
  6
DASHED1
 62
    7
 10
678.50000000000022
 20
1330.4038500000001
 11
678.6966000000001
 21
1330.8636000000001
  0
LINE
  8
_0-b_
  6
DASHED1
 62
    7
 10
680.50000000000011
 20
1329.3000000000004
 11
680.50000000000011
 21
1339.8000000000001
  0
LINE
  8
_0-b_
  6
DASHED1
 62
    7
 10
665.50000000000011
 20
1329.3000000000004
 11
665.50000000000011
 21
1339.8000000000001
  0
LINE
  8
_0-b_
  6
DASHED1
 62
    7
 10
681.50000000000034
 20
1330.8000000000001
 11
682.50000000000022
 21
1330.8000000000001
  0
LINE
  8
_0-b_
  6
DASHED1
 62
    7
 10
683.00000000000011
 20
1336.8000000000004
 11
683.00000000000011
 21
1331.2999999999999
  0
LINE
  8
_0-b_
  6
DASHED1
 62
    7
 10
665.00000000000022
 20
1334.8000000000001
 11
665.50000000000011
 21
1334.8000000000001
  0
LINE
  8
_0-b_
  6
DASHED1
 62
    7
 10
665.00000000000022
 20
1333.8000000000001
 11
665.50000000000011
 21
1333.8000000000001
  0
LINE
  8
_0-b_
  6
DASHED1
 62
    7
 10
680.50000000000011
 20
1333.8000000000001
 11
681.00000000000022
 21
1333.8000000000001
  0
LINE
  8
_0-b_
  6
DASHED1
 62
    7
 10
680.50000000000011
 20
1334.8000000000001
 11
681.00000000000022
 21
1334.8000000000001
  0
LINE
  8
_0-b_
  6
DASHED1
 62
    7
 10
665.00000000000022
 20
1341.5000000000004
 11
681.00000000000022
 21
1341.5000000000004
  0
LINE
  8
_0-b_
  6
DASHED1
 62
    7
 10
673.00000000000011
 20
1312.3000000000001
 11
672.30000000000018
 21
1312.3000000000001
  0
LINE
  8
_0-b_
  6
DASHED1
 62
    7
 10
673.00000000000011
 20
1312.3000000000001
 11
673.70000000000027
 21
1312.3000000000001
  0
LINE
  8
_0-b_
  6
DASHED1
 62
    7
 10
672.50000000000022
 20
1326.2999999999999
 11
673.00000000000011
 21
1326.2999999999999
  0
LINE
  8
_0-b_
  6
DASHED1
 62
    7
 10
672.00000000000045
 20
1312.6000000000001
 11
672.00000000000045
 21
1325.8000000000001
  0
LINE
  8
_0-b_
  6
DASHED1
 62
    7
 10
674.00000000000034
 20
1312.6000000000001
 11
674.00000000000034
 21
1325.8000000000001
  0
LINE
  8
_0-b_
  6
DASHED1
 62
    7
 10
673.00000000000011
 20
1326.2999999999999
 11
673.50000000000022
 21
1326.2999999999999
  0
LINE
  8
_0-b_
  6
DASHED1
 62
    7
 10
673.00000000000011
 20
1342.6000000000001
 11
673.00000000000011
 21
1309.6000000000003
  0
ARC
  8
_0-b_
  6
DASHED1
 62
    7
 10
661.50000000000034
 20
1318.3000000000001
 40
6.0000000000000008
 50
180.00000000000005
 51
270.00000000000005
  0
ARC
  8
_0-b_
  6
DASHED1
 62
    7
 10
684.50000000000045
 20
1318.3000000000001
 40
6.0000000000000008
 50
270.00000000000005
 51
0.0000000000000508
  0
ARC
  8
_0-b_
  6
DASHED1
 62
    7
 10
664.00000000000034
 20
1337.8000000000001
 40
1
 50
270.00000000000005
 51
0.0000000000000508
  0
ARC
  8
_0-b_
  6
DASHED1
 62
    7
 10
656.50000000000034
 20
1337.8000000000001
 40
1
 50
180.00000000000005
 51
270.00000000000005
  0
ARC
  8
_0-b_
  6
DASHED1
 62
    7
 10
665.50000000000011
 20
1329.8000000000001
 40
0.5
 50
180.00000000000005
 51
270.00000000000005
  0
ARC
  8
_0-b_
  6
DASHED1
 62
    7
 10
664.50000000000045
 20
1331.2999999999999
 40
0.5
 50
270.00000000000005
 51
0.0000000000000508
  0
ARC
  8
_0-b_
  6
DASHED1
 62
    7
 10
663.50000000000022
 20
1331.2999999999999
 40
0.5
 50
180.00000000000005
 51
270.00000000000005
  0
ARC
  8
_0-b_
  6
DASHED1
 62
    7
 10
654.50000000000045
 20
1323.6000000000001
 40
1
 50
180.00000000000005
 51
270.00000000000005
  0
ARC
  8
_0-b_
  6
DASHED1
 62
    7
 10
656.50000000000034
 20
1335.8000000000001
 40
1
 50
90.000000000000028
 51
180.00000000000005
  0
ARC
  8
_0-b_
  6
DASHED1
 62
    7
 10
691.50000000000034
 20
1323.6000000000001
 40
1
 50
270.00000000000005
 51
0.0000000000000508
  0
ARC
  8
_0-b_
  6
DASHED1
 62
    7
 10
680.50000000000011
 20
1329.8000000000001
 40
0.5
 50
270.00000000000005
 51
0.0000000000000508
  0
ARC
  8
_0-b_
  6
DASHED1
 62
    7
 10
682.00000000000045
 20
1337.8000000000001
 40
1
 50
180.00000000000005
 51
270.00000000000005
  0
ARC
  8
_0-b_
  6
DASHED1
 62
    7
 10
689.50000000000045
 20
1337.8000000000001
 40
1
 50
270.00000000000005
 51
0.0000000000000508
  0
ARC
  8
_0-b_
  6
DASHED1
 62
    7
 10
666.50000000000034
 20
1339.8000000000001
 40
1
 50
90.000000000000028
 51
180.00000000000005
  0
ARC
  8
_0-b_
  6
DASHED1
 62
    7
 10
679.50000000000045
 20
1339.8000000000001
 40
1
 50
0
 51
90.000000000000028
  0
ARC
  8
_0-b_
  6
DASHED1
 62
    7
 10
666.50000000000034
 20
1337.8000000000001
 40
1
 50
180.00000000000005
 51
270.00000000000005
  0
ARC
  8
_0-b_
  6
DASHED1
 62
    7
 10
679.50000000000045
 20
1337.8000000000001
 40
1
 50
270.00000000000005
 51
0.0000000000000508
  0
ARC
  8
_0-b_
  6
DASHED1
 62
    7
 10
671.00000000000022
 20
1331.8000000000004
 40
1
 50
180.00000000000005
 51
270.00000000000005
  0
ARC
  8
_0-b_
  6
DASHED1
 62
    7
 10
675.00000000000022
 20
1331.8000000000004
 40
1
 50
270.00000000000005
 51
0.0000000000000508
  0
ARC
  8
_0-b_
  6
DASHED1
 62
    7
 10
681.50000000000034
 20
1331.2999999999999
 40
0.5
 50
180.00000000000005
 51
270.00000000000005
  0
ARC
  8
_0-b_
  6
DASHED1
 62
    7
 10
682.50000000000022
 20
1331.2999999999999
 40
0.5
 50
270.00000000000005
 51
0.0000000000000508
  0
ARC
  8
_0-b_
  6
DASHED1
 62
    7
 10
672.30000000000018
 20
1312.6000000000001
 40
0.2999999999999998
 50
180.00000000000005
 51
270.00000000000005
  0
ARC
  8
_0-b_
  6
DASHED1
 62
    7
 10
673.70000000000027
 20
1312.6000000000001
 40
0.2999999999999998
 50
270.00000000000005
 51
0.0000000000000508
  0
ARC
  8
_0-b_
  6
DASHED1
 62
    7
 10
672.50000000000022
 20
1325.8000000000001
 40
0.5
 50
90.000000000000028
 51
180.00000000000005
  0
ARC
  8
_0-b_
  6
DASHED1
 62
    7
 10
673.50000000000022
 20
1325.8000000000001
 40
0.5
 50
0
 51
90.000000000000028
  0
LINE
  8
_0-b_
  6
DASHED1
 62
    7
 10
660.50000000000011
 20
1343.9
 11
660.50000000000011
 21
1335.5
  0
LINE
  8
_0-b_
  6
DASHED1
 62
    7
 10
786.5
 20
1343.9
 11
786.5
 21
1335.5
  0
LINE
  8
_0-b_
  6
DASHED1
 62
    7
 10
785.50000000000011
 20
1312.3000000000001
 11
762.5
 21
1312.3000000000001
  0
LINE
  8
_0-b_
  6
DASHED1
 62
    7
 10
774
 20
1329.3000000000004
 11
766.5
 21
1329.3000000000004
  0
LINE
  8
_0-b_
  6
DASHED1
 62
    7
 10
764
 20
1336.8000000000004
 11
764
 21
1331.2999999999999
  0
LINE
  8
_0-b_
  6
DASHED1
 62
    7
 10
765.50000000000011
 20
1330.8000000000001
 11
764.49999999999988
 21
1330.8000000000001
  0
LINE
  8
_0-b_
  6
DASHED1
 62
    7
 10
793.58000000000004
 20
1340.2500000000004
 11
793.60000000000013
 21
1340.2500000000004
  0
LINE
  8
_0-b_
  6
DASHED1
 62
    7
 10
756.5
 20
1322.6000000000001
 11
755.50000000000011
 21
1322.6000000000001
  0
LINE
  8
_0-b_
  6
DASHED1
 62
    7
 10
757.5
 20
1336.8000000000004
 11
765
 21
1336.8000000000004
  0
LINE
  8
_0-b_
  6
DASHED1
 62
    7
 10
756.5
 20
1335.8000000000001
 11
756.5
 21
1318.3000000000001
  0
LINE
  8
_0-b_
  6
DASHED1
 62
    7
 10
754.49999999999988
 20
1342.0000000000002
 11
754.49999999999988
 21
1323.6000000000001
  0
LINE
  8
_0-b_
  6
DASHED1
 62
    7
 10
766.00000000000022
 20
1342.0000000000002
 11
754.49999999999988
 21
1342.0000000000002
  0
LINE
  8
_0-b_
  6
DASHED1
 62
    7
 10
756.5
 20
1342.0000000000002
 11
756.5
 21
1337.8000000000001
  0
LINE
  8
_0-b_
  6
DASHED1
 62
    7
 10
766.00000000000022
 20
1342.0000000000002
 11
766.00000000000022
 21
1329.8000000000001
  0
LINE
  8
_0-b_
  6
DASHED1
 62
    7
 10
791.5
 20
1342.0000000000002
 11
791.5
 21
1318.3000000000001
  0
LINE
  8
_0-b_
  6
DASHED1
 62
    7
 10
781.99999999999988
 20
1342.0000000000002
 11
793.50000000000022
 21
1342.0000000000002
  0
LINE
  8
_0-b_
  6
DASHED1
 62
    7
 10
793.50000000000022
 20
1342.0000000000002
 11
793.50000000000022
 21
1323.6000000000001
  0
LINE
  8
_0-b_
  6
DASHED1
 62
    7
 10
791.5
 20
1322.6000000000001
 11
792.5
 21
1322.6000000000001
  0
LINE
  8
_0-b_
  6
DASHED1
 62
    7
 10
766.00000000000022
 20
1341.1000000000001
 11
781.99999999999988
 21
1341.1000000000001
  0
LINE
  8
_0-b_
  6
DASHED1
 62
    7
 10
781.99999999999988
 20
1342.0000000000002
 11
781.99999999999988
 21
1329.8000000000001
  0
LINE
  8
_0-b_
  6
DASHED1
 62
    7
 10
774
 20
1329.3000000000004
 11
781.5
 21
1329.3000000000004
  0
LINE
  8
_0-b_
  6
DASHED1
 62
    7
 10
790.50000000000011
 20
1336.8000000000004
 11
783.00000000000011
 21
1336.8000000000004
  0
LINE
  8
_0-b_
  6
DASHED1
 62
    7
 10
780.50000000000011
 20
1340.8000000000001
 11
767.5
 21
1340.8000000000001
  0
LINE
  8
_0-b_
  6
DASHED1
 62
    7
 10
771.00000000000022
 20
1336.8000000000004
 11
771.00000000000022
 21
1331.8000000000004
  0
LINE
  8
_0-b_
  6
DASHED1
 62
    7
 10
776.00000000000022
 20
1330.8000000000001
 11
771.99999999999988
 21
1330.8000000000001
  0
LINE
  8
_0-b_
  6
DASHED1
 62
    7
 10
776.99999999999988
 20
1336.8000000000004
 11
776.99999999999988
 21
1331.8000000000004
  0
LINE
  8
_0-b_
  6
DASHED1
 62
    7
 10
780.50000000000011
 20
1336.8000000000004
 11
776.99999999999988
 21
1336.8000000000004
  0
LINE
  8
_0-b_
  6
DASHED1
 62
    7
 10
771.00000000000022
 20
1336.8000000000004
 11
767.5
 21
1336.8000000000004
  0
LINE
  8
_0-b_
  6
DASHED1
 62
    7
 10
768.50000000000022
 20
1330.4038500000001
 11
768.30340000000001
 21
1330.8636000000001
  0
LINE
  8
_0-b_
  6
DASHED1
 62
    7
 10
779.49999999999988
 20
1330.4038500000001
 11
779.69659999999998
 21
1330.8636000000001
  0
LINE
  8
_0-b_
  6
DASHED1
 62
    7
 10
781.5
 20
1329.3000000000004
 11
781.5
 21
1339.8000000000001
  0
LINE
  8
_0-b_
  6
DASHED1
 62
    7
 10
766.5
 20
1329.3000000000004
 11
766.5
 21
1339.8000000000001
  0
LINE
  8
_0-b_
  6
DASHED1
 62
    7
 10
782.5
 20
1330.8000000000001
 11
783.50000000000022
 21
1330.8000000000001
  0
LINE
  8
_0-b_
  6
DASHED1
 62
    7
 10
784
 20
1336.8000000000004
 11
784
 21
1331.2999999999999
  0
LINE
  8
_0-b_
  6
DASHED1
 62
    7
 10
766.00000000000022
 20
1334.8000000000001
 11
766.5
 21
1334.8000000000001
  0
LINE
  8
_0-b_
  6
DASHED1
 62
    7
 10
766.00000000000022
 20
1333.8000000000001
 11
766.5
 21
1333.8000000000001
  0
LINE
  8
_0-b_
  6
DASHED1
 62
    7
 10
781.5
 20
1333.8000000000001
 11
781.99999999999988
 21
1333.8000000000001
  0
LINE
  8
_0-b_
  6
DASHED1
 62
    7
 10
781.5
 20
1334.8000000000001
 11
781.99999999999988
 21
1334.8000000000001
  0
LINE
  8
_0-b_
  6
DASHED1
 62
    7
 10
766.00000000000022
 20
1341.5000000000004
 11
781.99999999999988
 21
1341.5000000000004
  0
LINE
  8
_0-b_
  6
DASHED1
 62
    7
 10
774
 20
1312.3000000000001
 11
773.29999999999984
 21
1312.3000000000001
  0
LINE
  8
_0-b_
  6
DASHED1
 62
    7
 10
774
 20
1312.3000000000001
 11
774.70000000000027
 21
1312.3000000000001
  0
LINE
  8
_0-b_
  6
DASHED1
 62
    7
 10
773.50000000000022
 20
1326.2999999999999
 11
774
 21
1326.2999999999999
  0
LINE
  8
_0-b_
  6
DASHED1
 62
    7
 10
773.00000000000011
 20
1312.6000000000001
 11
773.00000000000011
 21
1325.8000000000001
  0
LINE
  8
_0-b_
  6
DASHED1
 62
    7
 10
775
 20
1312.6000000000001
 11
775
 21
1325.8000000000001
  0
LINE
  8
_0-b_
  6
DASHED1
 62
    7
 10
774
 20
1326.2999999999999
 11
774.49999999999988
 21
1326.2999999999999
  0
LINE
  8
_0-b_
  6
DASHED1
 62
    7
 10
774
 20
1342.6000000000001
 11
774
 21
1309.6000000000003
  0
ARC
  8
_0-b_
  6
DASHED1
 62
    7
 10
762.5
 20
1318.3000000000001
 40
6.0000000000000008
 50
180.00000000000005
 51
270.00000000000005
  0
ARC
  8
_0-b_
  6
DASHED1
 62
    7
 10
785.50000000000011
 20
1318.3000000000001
 40
6.0000000000000008
 50
270.00000000000005
 51
0.0000000000000508
  0
ARC
  8
_0-b_
  6
DASHED1
 62
    7
 10
765
 20
1337.8000000000001
 40
1
 50
270.00000000000005
 51
0.0000000000000508
  0
ARC
  8
_0-b_
  6
DASHED1
 62
    7
 10
757.5
 20
1337.8000000000001
 40
1
 50
180.00000000000005
 51
270.00000000000005
  0
ARC
  8
_0-b_
  6
DASHED1
 62
    7
 10
766.5
 20
1329.8000000000001
 40
0.5
 50
180.00000000000005
 51
270.00000000000005
  0
ARC
  8
_0-b_
  6
DASHED1
 62
    7
 10
765.50000000000011
 20
1331.2999999999999
 40
0.5
 50
270.00000000000005
 51
0.0000000000000508
  0
ARC
  8
_0-b_
  6
DASHED1
 62
    7
 10
764.49999999999988
 20
1331.2999999999999
 40
0.5
 50
180.00000000000005
 51
270.00000000000005
  0
ARC
  8
_0-b_
  6
DASHED1
 62
    7
 10
755.50000000000011
 20
1323.6000000000001
 40
1
 50
180.00000000000005
 51
270.00000000000005
  0
ARC
  8
_0-b_
  6
DASHED1
 62
    7
 10
757.5
 20
1335.8000000000001
 40
1
 50
90.000000000000028
 51
180.00000000000005
  0
ARC
  8
_0-b_
  6
DASHED1
 62
    7
 10
792.5
 20
1323.6000000000001
 40
1
 50
270.00000000000005
 51
0.0000000000000508
  0
ARC
  8
_0-b_
  6
DASHED1
 62
    7
 10
781.5
 20
1329.8000000000001
 40
0.5
 50
270.00000000000005
 51
0.0000000000000508
  0
ARC
  8
_0-b_
  6
DASHED1
 62
    7
 10
783.00000000000011
 20
1337.8000000000001
 40
1
 50
180.00000000000005
 51
270.00000000000005
  0
ARC
  8
_0-b_
  6
DASHED1
 62
    7
 10
790.50000000000011
 20
1337.8000000000001
 40
1
 50
270.00000000000005
 51
0.0000000000000508
  0
ARC
  8
_0-b_
  6
DASHED1
 62
    7
 10
767.5
 20
1339.8000000000001
 40
1
 50
90.000000000000028
 51
180.00000000000005
  0
ARC
  8
_0-b_
  6
DASHED1
 62
    7
 10
780.50000000000011
 20
1339.8000000000001
 40
1
 50
0
 51
90.000000000000028
  0
ARC
  8
_0-b_
  6
DASHED1
 62
    7
 10
767.5
 20
1337.8000000000001
 40
1
 50
180.00000000000005
 51
270.00000000000005
  0
ARC
  8
_0-b_
  6
DASHED1
 62
    7
 10
780.50000000000011
 20
1337.8000000000001
 40
1
 50
270.00000000000005
 51
0.0000000000000508
  0
ARC
  8
_0-b_
  6
DASHED1
 62
    7
 10
771.99999999999988
 20
1331.8000000000004
 40
1
 50
180.00000000000005
 51
270.00000000000005
  0
ARC
  8
_0-b_
  6
DASHED1
 62
    7
 10
776.00000000000022
 20
1331.8000000000004
 40
1
 50
270.00000000000005
 51
0.0000000000000508
  0
ARC
  8
_0-b_
  6
DASHED1
 62
    7
 10
782.5
 20
1331.2999999999999
 40
0.5
 50
180.00000000000005
 51
270.00000000000005
  0
ARC
  8
_0-b_
  6
DASHED1
 62
    7
 10
783.50000000000022
 20
1331.2999999999999
 40
0.5
 50
270.00000000000005
 51
0.0000000000000508
  0
ARC
  8
_0-b_
  6
DASHED1
 62
    7
 10
773.29999999999984
 20
1312.6000000000001
 40
0.2999999999999998
 50
180.00000000000005
 51
270.00000000000005
  0
ARC
  8
_0-b_
  6
DASHED1
 62
    7
 10
774.70000000000027
 20
1312.6000000000001
 40
0.2999999999999998
 50
270.00000000000005
 51
0.0000000000000508
  0
ARC
  8
_0-b_
  6
DASHED1
 62
    7
 10
773.50000000000022
 20
1325.8000000000001
 40
0.5
 50
90.000000000000028
 51
180.00000000000005
  0
ARC
  8
_0-b_
  6
DASHED1
 62
    7
 10
774.49999999999988
 20
1325.8000000000001
 40
0.5
 50
0
 51
90.000000000000028
  0
LINE
  8
_0-b_
  6
DASHED1
 62
    7
 10
761.5
 20
1343.9
 11
761.5
 21
1335.5
  0
LINE
  8
_0-b_
  6
DASHED1
 62
    7
 10
1139.5000000000002
 20
1343.9
 11
1139.5000000000002
 21
1335.5
  0
LINE
  8
_0-b_
  6
DASHED1
 62
    7
 10
1138.5000000000002
 20
1312.3000000000001
 11
1115.5000000000002
 21
1312.3000000000001
  0
LINE
  8
_0-b_
  6
DASHED1
 62
    7
 10
1127.0000000000002
 20
1329.3000000000004
 11
1119.5000000000002
 21
1329.3000000000004
  0
LINE
  8
_0-b_
  6
DASHED1
 62
    7
 10
1117.0000000000002
 20
1336.8000000000004
 11
1117.0000000000002
 21
1331.2999999999999
  0
LINE
  8
_0-b_
  6
DASHED1
 62
    7
 10
1118.5000000000002
 20
1330.8000000000001
 11
1117.5000000000002
 21
1330.8000000000001
  0
LINE
  8
_0-b_
  6
DASHED1
 62
    7
 10
1146.5800000000001
 20
1340.2500000000004
 11
1146.6000000000001
 21
1340.2500000000004
  0
LINE
  8
_0-b_
  6
DASHED1
 62
    7
 10
1109.5000000000002
 20
1322.6000000000001
 11
1108.5000000000002
 21
1322.6000000000001
  0
LINE
  8
_0-b_
  6
DASHED1
 62
    7
 10
1110.5000000000002
 20
1336.8000000000004
 11
1118.0000000000002
 21
1336.8000000000004
  0
LINE
  8
_0-b_
  6
DASHED1
 62
    7
 10
1109.5000000000002
 20
1335.8000000000001
 11
1109.5000000000002
 21
1318.3000000000001
  0
LINE
  8
_0-b_
  6
DASHED1
 62
    7
 10
1107.5000000000002
 20
1342.0000000000002
 11
1107.5000000000002
 21
1323.6000000000001
  0
LINE
  8
_0-b_
  6
DASHED1
 62
    7
 10
1119.0000000000002
 20
1342.0000000000002
 11
1107.5000000000002
 21
1342.0000000000002
  0
LINE
  8
_0-b_
  6
DASHED1
 62
    7
 10
1109.5000000000002
 20
1342.0000000000002
 11
1109.5000000000002
 21
1337.8000000000001
  0
LINE
  8
_0-b_
  6
DASHED1
 62
    7
 10
1119.0000000000002
 20
1342.0000000000002
 11
1119.0000000000002
 21
1329.8000000000001
  0
LINE
  8
_0-b_
  6
DASHED1
 62
    7
 10
1144.5000000000002
 20
1342.0000000000002
 11
1144.5000000000002
 21
1318.3000000000001
  0
LINE
  8
_0-b_
  6
DASHED1
 62
    7
 10
1135.0000000000002
 20
1342.0000000000002
 11
1146.5000000000002
 21
1342.0000000000002
  0
LINE
  8
_0-b_
  6
DASHED1
 62
    7
 10
1146.5000000000002
 20
1342.0000000000002
 11
1146.5000000000002
 21
1323.6000000000001
  0
LINE
  8
_0-b_
  6
DASHED1
 62
    7
 10
1144.5000000000002
 20
1322.6000000000001
 11
1145.5000000000002
 21
1322.6000000000001
  0
LINE
  8
_0-b_
  6
DASHED1
 62
    7
 10
1119.0000000000002
 20
1341.1000000000001
 11
1135.0000000000002
 21
1341.1000000000001
  0
LINE
  8
_0-b_
  6
DASHED1
 62
    7
 10
1135.0000000000002
 20
1342.0000000000002
 11
1135.0000000000002
 21
1329.8000000000001
  0
LINE
  8
_0-b_
  6
DASHED1
 62
    7
 10
1127.0000000000002
 20
1329.3000000000004
 11
1134.5000000000002
 21
1329.3000000000004
  0
LINE
  8
_0-b_
  6
DASHED1
 62
    7
 10
1143.5000000000002
 20
1336.8000000000004
 11
1136.0000000000002
 21
1336.8000000000004
  0
LINE
  8
_0-b_
  6
DASHED1
 62
    7
 10
1133.5000000000002
 20
1340.8000000000001
 11
1120.5000000000002
 21
1340.8000000000001
  0
LINE
  8
_0-b_
  6
DASHED1
 62
    7
 10
1124.0000000000002
 20
1336.8000000000004
 11
1124.0000000000002
 21
1331.8000000000004
  0
LINE
  8
_0-b_
  6
DASHED1
 62
    7
 10
1129.0000000000002
 20
1330.8000000000001
 11
1125.0000000000002
 21
1330.8000000000001
  0
LINE
  8
_0-b_
  6
DASHED1
 62
    7
 10
1130.0000000000002
 20
1336.8000000000004
 11
1130.0000000000002
 21
1331.8000000000004
  0
LINE
  8
_0-b_
  6
DASHED1
 62
    7
 10
1133.5000000000002
 20
1336.8000000000004
 11
1130.0000000000002
 21
1336.8000000000004
  0
LINE
  8
_0-b_
  6
DASHED1
 62
    7
 10
1124.0000000000002
 20
1336.8000000000004
 11
1120.5000000000002
 21
1336.8000000000004
  0
LINE
  8
_0-b_
  6
DASHED1
 62
    7
 10
1121.5000000000002
 20
1330.4038500000001
 11
1121.3034000000002
 21
1330.8636000000001
  0
LINE
  8
_0-b_
  6
DASHED1
 62
    7
 10
1132.5000000000002
 20
1330.4038500000001
 11
1132.6966000000002
 21
1330.8636000000001
  0
LINE
  8
_0-b_
  6
DASHED1
 62
    7
 10
1134.5000000000002
 20
1329.3000000000004
 11
1134.5000000000002
 21
1339.8000000000001
  0
LINE
  8
_0-b_
  6
DASHED1
 62
    7
 10
1119.5000000000002
 20
1329.3000000000004
 11
1119.5000000000002
 21
1339.8000000000001
  0
LINE
  8
_0-b_
  6
DASHED1
 62
    7
 10
1135.5000000000002
 20
1330.8000000000001
 11
1136.5000000000002
 21
1330.8000000000001
  0
LINE
  8
_0-b_
  6
DASHED1
 62
    7
 10
1137.0000000000002
 20
1336.8000000000004
 11
1137.0000000000002
 21
1331.2999999999999
  0
LINE
  8
_0-b_
  6
DASHED1
 62
    7
 10
1119.0000000000002
 20
1334.8000000000001
 11
1119.5000000000002
 21
1334.8000000000001
  0
LINE
  8
_0-b_
  6
DASHED1
 62
    7
 10
1119.0000000000002
 20
1333.8000000000001
 11
1119.5000000000002
 21
1333.8000000000001
  0
LINE
  8
_0-b_
  6
DASHED1
 62
    7
 10
1134.5000000000002
 20
1333.8000000000001
 11
1135.0000000000002
 21
1333.8000000000001
  0
LINE
  8
_0-b_
  6
DASHED1
 62
    7
 10
1134.5000000000002
 20
1334.8000000000001
 11
1135.0000000000002
 21
1334.8000000000001
  0
LINE
  8
_0-b_
  6
DASHED1
 62
    7
 10
1119.0000000000002
 20
1341.5000000000004
 11
1135.0000000000002
 21
1341.5000000000004
  0
LINE
  8
_0-b_
  6
DASHED1
 62
    7
 10
1127.0000000000002
 20
1312.3000000000001
 11
1126.3000000000001
 21
1312.3000000000001
  0
LINE
  8
_0-b_
  6
DASHED1
 62
    7
 10
1127.0000000000002
 20
1312.3000000000001
 11
1127.7000000000002
 21
1312.3000000000001
  0
LINE
  8
_0-b_
  6
DASHED1
 62
    7
 10
1126.5000000000002
 20
1326.2999999999999
 11
1127.0000000000002
 21
1326.2999999999999
  0
LINE
  8
_0-b_
  6
DASHED1
 62
    7
 10
1126.0000000000002
 20
1312.6000000000001
 11
1126.0000000000002
 21
1325.8000000000001
  0
LINE
  8
_0-b_
  6
DASHED1
 62
    7
 10
1128.0000000000002
 20
1312.6000000000001
 11
1128.0000000000002
 21
1325.8000000000001
  0
LINE
  8
_0-b_
  6
DASHED1
 62
    7
 10
1127.0000000000002
 20
1326.2999999999999
 11
1127.5000000000002
 21
1326.2999999999999
  0
LINE
  8
_0-b_
  6
DASHED1
 62
    7
 10
1127.0000000000002
 20
1342.6000000000001
 11
1127.0000000000002
 21
1309.6000000000003
  0
ARC
  8
_0-b_
  6
DASHED1
 62
    7
 10
1115.5000000000002
 20
1318.3000000000001
 40
6.0000000000000008
 50
180.00000000000005
 51
270.00000000000005
  0
ARC
  8
_0-b_
  6
DASHED1
 62
    7
 10
1138.5000000000002
 20
1318.3000000000001
 40
6.0000000000000008
 50
270.00000000000005
 51
0.0000000000000508
  0
ARC
  8
_0-b_
  6
DASHED1
 62
    7
 10
1118.0000000000002
 20
1337.8000000000001
 40
1
 50
270.00000000000005
 51
0.0000000000000508
  0
ARC
  8
_0-b_
  6
DASHED1
 62
    7
 10
1110.5000000000002
 20
1337.8000000000001
 40
1
 50
180.00000000000005
 51
270.00000000000005
  0
ARC
  8
_0-b_
  6
DASHED1
 62
    7
 10
1119.5000000000002
 20
1329.8000000000001
 40
0.5
 50
180.00000000000005
 51
270.00000000000005
  0
ARC
  8
_0-b_
  6
DASHED1
 62
    7
 10
1118.5000000000002
 20
1331.2999999999999
 40
0.5
 50
270.00000000000005
 51
0.0000000000000508
  0
ARC
  8
_0-b_
  6
DASHED1
 62
    7
 10
1117.5000000000002
 20
1331.2999999999999
 40
0.5
 50
180.00000000000005
 51
270.00000000000005
  0
ARC
  8
_0-b_
  6
DASHED1
 62
    7
 10
1108.5000000000002
 20
1323.6000000000001
 40
1
 50
180.00000000000005
 51
270.00000000000005
  0
ARC
  8
_0-b_
  6
DASHED1
 62
    7
 10
1110.5000000000002
 20
1335.8000000000001
 40
1
 50
90.000000000000028
 51
180.00000000000005
  0
ARC
  8
_0-b_
  6
DASHED1
 62
    7
 10
1145.5000000000002
 20
1323.6000000000001
 40
1
 50
270.00000000000005
 51
0.0000000000000508
  0
ARC
  8
_0-b_
  6
DASHED1
 62
    7
 10
1134.5000000000002
 20
1329.8000000000001
 40
0.5
 50
270.00000000000005
 51
0.0000000000000508
  0
ARC
  8
_0-b_
  6
DASHED1
 62
    7
 10
1136.0000000000002
 20
1337.8000000000001
 40
1
 50
180.00000000000005
 51
270.00000000000005
  0
ARC
  8
_0-b_
  6
DASHED1
 62
    7
 10
1143.5000000000002
 20
1337.8000000000001
 40
1
 50
270.00000000000005
 51
0.0000000000000508
  0
ARC
  8
_0-b_
  6
DASHED1
 62
    7
 10
1120.5000000000002
 20
1339.8000000000001
 40
1
 50
90.000000000000028
 51
180.00000000000005
  0
ARC
  8
_0-b_
  6
DASHED1
 62
    7
 10
1133.5000000000002
 20
1339.8000000000001
 40
1
 50
0
 51
90.000000000000028
  0
ARC
  8
_0-b_
  6
DASHED1
 62
    7
 10
1120.5000000000002
 20
1337.8000000000001
 40
1
 50
180.00000000000005
 51
270.00000000000005
  0
ARC
  8
_0-b_
  6
DASHED1
 62
    7
 10
1133.5000000000002
 20
1337.8000000000001
 40
1
 50
270.00000000000005
 51
0.0000000000000508
  0
ARC
  8
_0-b_
  6
DASHED1
 62
    7
 10
1125.0000000000002
 20
1331.8000000000004
 40
1
 50
180.00000000000005
 51
270.00000000000005
  0
ARC
  8
_0-b_
  6
DASHED1
 62
    7
 10
1129.0000000000002
 20
1331.8000000000004
 40
1
 50
270.00000000000005
 51
0.0000000000000508
  0
ARC
  8
_0-b_
  6
DASHED1
 62
    7
 10
1135.5000000000002
 20
1331.2999999999999
 40
0.5
 50
180.00000000000005
 51
270.00000000000005
  0
ARC
  8
_0-b_
  6
DASHED1
 62
    7
 10
1136.5000000000002
 20
1331.2999999999999
 40
0.5
 50
270.00000000000005
 51
0.0000000000000508
  0
ARC
  8
_0-b_
  6
DASHED1
 62
    7
 10
1126.3000000000001
 20
1312.6000000000001
 40
0.2999999999999998
 50
180.00000000000005
 51
270.00000000000005
  0
ARC
  8
_0-b_
  6
DASHED1
 62
    7
 10
1127.7000000000002
 20
1312.6000000000001
 40
0.2999999999999998
 50
270.00000000000005
 51
0.0000000000000508
  0
ARC
  8
_0-b_
  6
DASHED1
 62
    7
 10
1126.5000000000002
 20
1325.8000000000001
 40
0.5
 50
90.000000000000028
 51
180.00000000000005
  0
ARC
  8
_0-b_
  6
DASHED1
 62
    7
 10
1127.5000000000002
 20
1325.8000000000001
 40
0.5
 50
0
 51
90.000000000000028
  0
LINE
  8
_0-b_
  6
DASHED1
 62
    7
 10
1114.5000000000002
 20
1343.9
 11
1114.5000000000002
 21
1335.5
  0
LINE
  8
_0-9_
  6
CONTINUOUS
 62
    4
 10
2331.3796675245298
 20
1557
 11
2331.3796675245298
 21
1386.9999999999995
  0
LINE
  8
_0-3_
  6
DASHED1
 62
    2
 10
386.99999999999988
 20
772
 11
1463
 21
772
  0
LINE
  8
_0-3_
  6
DASHED1
 62
    2
 10
1063
 20
772
 11
1063
 21
1342.0000000000002
  0
LINE
  8
_0-3_
  6
DASHED1
 62
    2
 10
1088
 20
772
 11
1088
 21
1342.0000000000002
  0
LINE
  8
_0-3_
  6
DASHED1
 62
    2
 10
386.99999999999988
 20
1357
 11
386.99999999999988
 21
757
  0
LINE
  8
_0-3_
  6
DASHED1
 62
    2
 10
1463
 20
1357
 11
1463
 21
757
  0
LINE
  8
_0-3_
  6
DASHED1
 62
    2
 10
386.99999999999988
 20
1342.0000000000002
 11
1463
 21
1342.0000000000002
  0
LINE
  8
_0-3_
  6
DASHED1
 62
    2
 10
379.00000000000062
 20
757
 11
1471
 21
757
  0
POINT
  8
_0-9_
 62
    3
 10
2441.3796675245298
 20
1177.0000000000004
  0
POINT
  8
_0-9_
 62
    3
 10
2441.3796675245298
 20
1117.0000000000004
  0
POINT
  8
_0-9_
 62
    3
 10
2441.3796675245298
 20
1057.0000000000004
  0
POINT
  8
_0-9_
 62
    3
 10
2441.3796675245298
 20
997.00000000000045
  0
LINE
  8
_0-9_
  6
CONTINUOUS
 62
    4
 10
2331.3796675245298
 20
1597
 11
2331.3796675245298
 21
1386.9999999999995
  0
LINE
  8
_0-9_
  6
CONTINUOUS
 62
    4
 10
1973.3796675245298
 20
1597
 11
1973.3796675245298
 21
1387
  0
POINT
  8
_0-9_
 62
    3
 10
1989.3796675245309
 20
1507
  0
POINT
  8
_0-9_
 62
    3
 10
2331.3796675245298
 20
1507
  0
LINE
  8
_0-9_
  6
CONTINUOUS
 62
    4
 10
1989.3796675245309
 20
1517
 11
1989.3796675245309
 21
1387
  0
LINE
  8
_0-9_
  6
CONTINUOUS
 62
    4
 10
2331.3796675245298
 20
1517
 11
2331.3796675245298
 21
1387
  0
LINE
  8
_0-9_
  6
CONTINUOUS
 62
    4
 10
1989.3796675245309
 20
1507
 11
2331.3796675245298
 21
1507
  0
TEXT
  8
_0-9_
 62
    7
 10
2127.2796675245303
 20
1512
 40
35
 41
0.6285714285714286
 50
0
  1
３４２
  0
LINE
  8
_0-0_
  6
CONTINUOUS
 62
    4
 10
2023.3390217531041
 20
1156.4639882299684
 11
2313.3390217531041
 21
1156.4639882299684
  0
TEXT
  8
_0-9_
 62
    7
 10
2135.2390217531042
 20
1161.4639882299684
 40
35
 41
0.6285714285714286
 50
0
  1
２９０
  0
POINT
  8
_0-9_
 62
    3
 10
2313.3390217531041
 20
1156.4639882299684
  0
POINT
  8
_0-9_
 62
    3
 10
2023.3390217531041
 20
1156.4639882299684
  0
LINE
  8
_0-9_
  6
CONTINUOUS
 62
    4
 10
2023.3390217531041
 20
1166.4639882299684
 11
2023.3390217531041
 21
1097.0714803078317
  0
LINE
  8
_e-0_
  6
CONTINUOUS
 62
    7
 10
2243.7859302690862
 20
199.51965480360598
 11
2272.9339284698526
 21
210.12865853712995
  0
LINE
  8
_e-0_
  6
CONTINUOUS
 62
    7
 10
2237.6336615052869
 20
191.95952323799758
 11
2287.5529504706664
 21
210.12865853712895
  0
LINE
  8
_e-0_
  6
CONTINUOUS
 62
    7
 10
2234.2067375789874
 20
185.39133607135255
 11
2263.8643430051365
 21
196.18582166608263
  0
LINE
  8
_e-0_
  6
CONTINUOUS
 62
    7
 10
2232.2119570371696
 20
179.34440646785787
 11
2253.9586582709303
 21
187.25955841042662
  0
LINE
  8
_e-0_
  6
CONTINUOUS
 62
    7
 10
2231.2024514117433
 20
173.65608760649877
 11
2249.4574587956462
 21
180.3003669205492
  0
LINE
  8
_e-0_
  6
CONTINUOUS
 62
    7
 10
2230.9649088875535
 20
168.248740335938
 11
2249.3748102388385
 21
174.94939644358311
  0
LINE
  8
_e-0_
  6
CONTINUOUS
 62
    7
 10
2231.3837497438626
 20
163.08029707814966
 11
2249.8286640768283
 21
169.79369686893903
  0
LINE
  8
_e-0_
  6
CONTINUOUS
 62
    7
 10
2232.3950068941753
 20
158.12747571767488
 11
2251.269568818267
 21
164.99725444285843
  0
LINE
  8
_e-0_
  6
CONTINUOUS
 62
    7
 10
2233.9675550564961
 20
153.37894757832998
 11
2253.6625167678698
 21
160.54732740628253
  0
LINE
  8
_e-0_
  6
CONTINUOUS
 62
    7
 10
2236.0955302019183
 20
148.83257832814223
 11
2257.099910488102
 21
156.47754754152117
  0
LINE
  8
_e-0_
  6
CONTINUOUS
 62
    7
 10
2238.7970089264299
 20
144.49494730998821
 11
2261.880116002736
 21
152.89651120014326
  0
LINE
  8
_e-0_
  6
CONTINUOUS
 62
    7
 10
2242.1181877425701
 20
140.38286867935909
 11
2268.9468388985251
 21
150.14769912563821
  0
LINE
  8
_e-0_
  6
CONTINUOUS
 62
    7
 10
2246.1455691824353
 20
136.52782678312661
 11
2284.5651405528205
 21
150.51140717521263
  0
LINE
  8
_e-0_
  6
CONTINUOUS
 62
    7
 10
2251.0351047702797
 20
132.98658333410969
 11
2279.1844822576495
 21
143.2321188526356
  0
LINE
  8
_e-0_
  6
CONTINUOUS
 62
    7
 10
2279.5849322183671
 20
201.90764820482513
 11
2302.1719724714803
 21
210.12865853713066
  0
LINE
  8
_e-0_
  6
CONTINUOUS
 62
    7
 10
2260.5624543087296
 20
189.663143601351
 11
2313.0511299164636
 21
208.76745915862059
  0
LINE
  8
_e-0_
  6
CONTINUOUS
 62
    7
 10
2273.0696188494734
 20
188.89449034687174
 11
2313.0511299164636
 21
203.44657029624102
  0
LINE
  8
_e-0_
  6
CONTINUOUS
 62
    7
 10
2287.6886408502887
 20
188.89449034687174
 11
2313.0511299164636
 21
198.12568143386158
  0
LINE
  8
_e-0_
  6
CONTINUOUS
 62
    7
 10
2291.8751463425487
 20
185.09736486926669
 11
2313.0511299164636
 21
192.80479257148215
  0
LINE
  8
_e-0_
  6
CONTINUOUS
 62
    7
 10
2291.8751463425487
 20
179.77647600688726
 11
2313.0511299164636
 21
187.48390370910215
  0
LINE
  8
_e-0_
  6
CONTINUOUS
 62
    7
 10
2291.8751463425487
 20
174.45558714450783
 11
2313.0511299164636
 21
182.16301484672271
  0
LINE
  8
_e-0_
  6
CONTINUOUS
 62
    7
 10
2291.8751463425487
 20
169.13469828212839
 11
2313.0511299164636
 21
176.84212598434328
  0
LINE
  8
_e-0_
  6
CONTINUOUS
 62
    7
 10
2291.8008475696451
 20
163.78676687796939
 11
2313.0511299164636
 21
171.52123712196384
  0
LINE
  8
_e-0_
  6
CONTINUOUS
 62
    7
 10
2290.6539909363364
 20
158.04845633809463
 11
2313.0511299164636
 21
166.20034825958413
  0
LINE
  8
_e-0_
  6
CONTINUOUS
 62
    7
 10
2288.3949962857823
 20
151.90536066354695
 11
2313.0511299164636
 21
160.87945939720469
  0
LINE
  8
_e-0_
  6
CONTINUOUS
 62
    7
 10
2284.4003861827632
 20
145.13055262616916
 11
2311.8608666367176
 21
155.12535013005759
  0
LINE
  8
_e-0_
  6
CONTINUOUS
 62
    7
 10
2275.7463468865153
 20
136.65985105378524
 11
2309.0387712913652
 21
148.77730256370853
  0
LINE
  8
_e-0_
  6
CONTINUOUS
 62
    7
 10
2266.9791201478205
 20
128.14795262145821
 11
2304.1703780821812
 21
141.68446348448242
  0
LINE
  8
_e-0_
  6
CONTINUOUS
 62
    7
 10
2282.1376414569663
 20
128.34431431109749
 11
2292.7244583873175
 21
132.19760054937069
  0
LINE
  8
_e-0_
  6
CONTINUOUS
 62
    3
 10
2266.4464672734898
 20
197.56612819678281
 11
2262.3244734593249
 21
194.75680664380121
  0
LINE
  8
_e-0_
  6
CONTINUOUS
 62
    3
 10
2282.3868421919432
 20
128.14795262145651
 11
2266.9204010401704
 21
128.14795262145651
  0
ARC
  8
_e-0_
  6
CONTINUOUS
 62
    3
 10
2282.3868421919432
 20
133.14795262145651
 40
5
 50
270
 51
286.20399351045659
  0
LINE
  8
_e-0_
  6
CONTINUOUS
 62
    3
 10
2313.2288608412613
 20
210.12865853712895
 11
2313.2288608412613
 21
159.77346730566921
  0
ARC
  8
_e-0_
  6
CONTINUOUS
 62
    3
 10
2271.9221657766447
 20
169.15823653484835
 40
42.5
 50
286.20399351045648
 51
345.50707147989851
  0
ARC
  8
_e-0_
  6
CONTINUOUS
 62
    3
 10
2308.2288608412613
 20
159.77346730566921
 40
5
 50
345.50707147989879
 51
0.0000000000000159
  0
ARC
  8
_e-0_
  6
CONTINUOUS
 62
    3
 10
2250.0927387377205
 20
170.4956084628958
 40
40
 50
279.71265316664215
 51
332.69093929010892
  0
ARC
  8
_e-0_
  6
CONTINUOUS
 62
    3
 10
2255.9974857549714
 20
135.99729020443191
 40
5
 50
241.9452628118
 51
279.71265316664221
  0
ARC
  8
_e-0_
  6
CONTINUOUS
 62
    3
 10
2263.2643122966178
 20
205.12865853712895
 40
5
 50
90
 51
106.05338143786268
  0
LINE
  8
_e-0_
  6
CONTINUOUS
 62
    3
 10
2288.4334989152221
 20
210.12865853712881
 11
2278.2181989551913
 21
205.24067691222057
  0
LINE
  8
_e-0_
  6
CONTINUOUS
 62
    3
 10
2278.2181989551913
 20
205.24067691222057
 11
2272.2994583375816
 21
201.4444897898403
  0
LINE
  8
_e-0_
  6
CONTINUOUS
 62
    3
 10
2266.4464672734898
 20
197.56612819678252
 11
2272.2994583375816
 21
201.4444897898403
  0
ARC
  8
_e-0_
  6
CONTINUOUS
 62
    3
 10
2263.2643122966178
 20
205.12865853712895
 40
5
 50
90
 51
106.05338143786268
  0
ARC
  8
_e-0_
  6
CONTINUOUS
 62
    3
 10
2263.2643122966178
 20
205.12865853712895
 40
5
 50
90
 51
106.05338143786268
  0
LINE
  8
_e-0_
  6
CONTINUOUS
 62
    3
 10
2288.4334989152221
 20
210.12865853712895
 11
2263.2643122966178
 21
210.12865853712895
  0
ARC
  8
_e-0_
  6
CONTINUOUS
 62
    3
 10
2273.6342932765642
 20
169.09099082020304
 40
42.5
 50
106.05338143786268
 51
241.94526281180051
  0
ARC
  8
_e-0_
  6
CONTINUOUS
 62
    3
 10
2263.2643122966178
 20
205.12865853712895
 40
5
 50
90
 51
106.05338143786268
  0
LINE
  8
_e-0_
  6
CONTINUOUS
 62
    3
 10
2299.1719829458552
 20
210.12865853712895
 11
2313.2288608412613
 21
210.12865853712895
  0
ARC
  8
_e-0_
  6
CONTINUOUS
 62
    3
 10
2299.1719829458552
 20
205.12865853712895
 40
5
 50
90
 51
112.84552721528325
  0
LINE
  8
_e-0_
  6
CONTINUOUS
 62
    3
 10
2292.0528772673465
 20
188.89449034687004
 11
2269.0173546029673
 21
188.89449034687004
  0
ARC
  8
_e-0_
  6
CONTINUOUS
 62
    3
 10
2269.0173546029673
 20
183.89449034687004
 40
5
 50
90
 51
110.93110431809542
  0
ARC
  8
_e-0_
  6
CONTINUOUS
 62
    3
 10
2254.2292662802574
 20
177.70386452217394
 40
0.5
 50
165.368776721252
 51
224.67319701305797
  0
LINE
  8
_e-0_
  6
CONTINUOUS
 62
    3
 10
2253.8737020580624
 20
177.3523334653737
 11
2253.6837582739271
 21
177.54445650133447
  0
ARC
  8
_e-0_
  6
CONTINUOUS
 62
    3
 10
2276.1622566207875
 20
165.2142768803236
 40
25
 50
110.93110431809527
 51
150.17701829297229
  0
ARC
  8
_e-0_
  6
CONTINUOUS
 62
    3
 10
2254.0393224961217
 20
177.89598755813472
 40
0.5
 50
224.67319701305652
 51
330.17701829297561
  0
LINE
  8
_e-0_
  6
CONTINUOUS
 62
    3
 10
2297.2307430642558
 20
209.73643324104926
 11
2283.5233941157548
 21
203.96157353985984
  0
LINE
  8
_e-0_
  6
CONTINUOUS
 62
    3
 10
2283.5233941157548
 20
203.96157353985984
 11
2277.114528385443
 21
200.4613679180602
  0
ARC
  8
_e-0_
  6
CONTINUOUS
 62
    3
 10
2277.9347719955744
 20
171.51524603489747
 40
25
 50
126.05682261028302
 51
165.36877672125814
  0
ARC
  8
_e-0_
  6
CONTINUOUS
 62
    3
 10
2322.0287923520791
 20
111.11536133502738
 40
100
 50
116.68868989749238
 51
126.03335467187628
  0
LINE
  8
_e-0_
  6
CONTINUOUS
 62
    3
 10
2262.3244734593245
 20
194.75680664380149
 11
2254.3560414411385
 21
187.50185893935451
  0
LINE
  8
_e-0_
  6
CONTINUOUS
 62
    3
 10
2254.3560414411385
 20
187.50185893935451
 11
2252.5108960046536
 21
185.36863764275494
  0
ARC
  8
_e-0_
  6
CONTINUOUS
 62
    3
 10
2274.5493829743445
 20
174.5520307550089
 40
25
 50
169.07329675873063
 51
296.32138326661799
  0
LINE
  8
_e-0_
  6
CONTINUOUS
 62
    3
 10
2252.5108960046541
 20
185.36863764275494
 11
2250.002621066113
 21
179.29085759512361
  0
LINE
  8
_e-0_
  6
CONTINUOUS
 62
    3
 10
2292.0528772673465
 20
188.89449034687004
 11
2292.0528772673465
 21
164.42425885831653
  0
ARC
  8
_e-0_
  6
CONTINUOUS
 62
    3
 10
2277.2840925230507
 20
144.13090983307199
 40
5
 50
311.4163090429962
 51
326.13300916724881
  0
ARC
  8
_e-0_
  6
CONTINUOUS
 62
    3
 10
2252.285941088533
 20
168.73596234419835
 40
40
 50
316.78132524618342
 51
353.81191653224226
  0
ARC
  8
_e-0_
  6
CONTINUOUS
 62
    3
 10
2240.9001979970053
 20
185.376663785662
 40
60
 50
294.69555798319504
 51
311.41630904299643
  0
ARC
  8
_e-0_
  6
CONTINUOUS
 62
    3
 10
2271.9268153318698
 20
202.98067150791609
 40
75
 50
264.68313230529076
 51
266.17253517307824
  0
ARC
  8
_e-0_
  6
CONTINUOUS
 62
    3
 10
2265.0233680716155
 20
128.80121063143832
 40
0.5
 50
174.02086603460466
 51
264.68313230528985
  0
ARC
  8
_e-0_
  6
CONTINUOUS
 62
    3
 10
2267.0124878650103
 20
128.59287809071872
 40
2.5
 50
114.69555798319522
 51
174.02086603461154
  0
LINE
  8
_e-0_
  6
CONTINUOUS
 62
    7
 10
2376.8899919095943
 20
169.43032024062034
 11
2388.2618909747961
 21
173.56935300743344
  0
LINE
  8
_e-0_
  6
CONTINUOUS
 62
    3
 10
2436.2585234464268
 20
162.63312492519389
 11
2436.2585234464268
 21
136.49018622829544
  0
CIRCLE
  8
_e-0_
  6
CONTINUOUS
 62
    3
 10
2365.5167430510387
 20
162.46293449130519
 40
13.33773795583065
  0
CIRCLE
  8
_e-0_
  6
CONTINUOUS
 62
    3
 10
2365.2330256036634
 20
162.17921704393006
 40
25.691707563897665
  0
LINE
  8
_e-0_
  6
CONTINUOUS
 62
    3
 10
2399.4939617252575
 20
188.26250382114977
 11
2399.4939617252575
 21
136.49018622829544
  0
LINE
  8
_e-0_
  6
CONTINUOUS
 62
    3
 10
2399.4939617252575
 20
136.49018622829544
 11
2414.856930753669
 21
136.49018622829544
  0
LINE
  8
_e-0_
  6
CONTINUOUS
 62
    3
 10
2414.856930753669
 20
136.49018622829544
 11
2414.856930753669
 21
172.63312492519389
  0
LINE
  8
_e-0_
  6
CONTINUOUS
 62
    3
 10
2451.1774760289304
 20
136.49018622829544
 11
2436.2585234464268
 21
136.49018622829544
  0
LINE
  8
_e-0_
  6
CONTINUOUS
 62
    3
 10
2426.2585234464268
 20
172.63312492519389
 11
2414.856930753669
 21
172.63312492519389
  0
ARC
  8
_e-0_
  6
CONTINUOUS
 62
    3
 10
2426.2585234464268
 20
162.63312492519389
 40
10
 50
0
 51
90
  0
LINE
  8
_e-0_
  6
CONTINUOUS
 62
    3
 10
2426.1774760289299
 20
188.26250382114977
 11
2399.4939617252575
 21
188.26250382114977
  0
LINE
  8
_e-0_
  6
CONTINUOUS
 62
    3
 10
2451.1774760289304
 20
163.26250382114977
 11
2451.1774760289304
 21
136.49018622829544
  0
ARC
  8
_e-0_
  6
CONTINUOUS
 62
    3
 10
2426.1774760289299
 20
163.26250382114977
 40
25
 50
0
 51
90
  0
ARC
  8
_e-0_
  6
CONTINUOUS
 62
    3
 10
2486.2452606175233
 20
162.17653762406428
 40
13.33773795583065
 50
23.422555400004949
 51
97.191484740792631
  0
LINE
  8
_e-0_
  6
CONTINUOUS
 62
    3
 10
2474.0065761310629
 20
167.47841048365671
 11
2498.4839451039833
 21
167.47841048365671
  0
ARC
  8
_e-0_
  6
CONTINUOUS
 62
    3
 10
2486.2452606175233
 20
162.17653762406428
 40
13.33773795583065
 50
92.530763017635237
 51
156.57744459999506
  0
ARC
  8
_e-0_
  6
CONTINUOUS
 62
    3
 10
2486.2452606175233
 20
162.17653762406428
 40
13.33773795583065
 50
204.21097500392608
 51
316.0067678116265
  0
LINE
  8
_e-0_
  6
CONTINUOUS
 62
    3
 10
2474.0806890359867
 20
156.70676139316753
 11
2511.5200753562385
 21
156.70676139316753
  0
LINE
  8
_e-0_
  6
CONTINUOUS
 62
    3
 10
2495.8407207162626
 20
152.91249966689292
 11
2508.7092412098891
 21
149.78943472664496
  0
ARC
  8
_e-0_
  6
CONTINUOUS
 62
    3
 10
2486.5655867677851
 20
162.8171899245882
 40
25.691707563897665
 50
346.24110979921471
 51
329.53046432565093
  0
ARC
  8
_e-0_
  6
CONTINUOUS
 62
    3
 10
2546.5135590423406
 20
162.14309845353909
 40
11.089756641867943
 50
94.502189492040685
 51
357.22978420280037
  0
LINE
  8
_e-0_
  6
CONTINUOUS
 62
    3
 10
2556.5903561511468
 20
173.19863581905565
 11
2545.6430442891501
 21
173.19863581905565
  0
LINE
  8
_e-0_
  6
CONTINUOUS
 62
    3
 10
2557.5903561511468
 20
172.19863581905599
 11
2557.5903561511468
 21
161.60712439988742
  0
ARC
  8
_e-0_
  6
CONTINUOUS
 62
    3
 10
2556.5903561511468
 20
172.19863581905599
 40
1
 50
0
 51
90
  0
LINE
  8
_e-0_
  6
CONTINUOUS
 62
    3
 10
2548.9703457355517
 20
188.29058742736094
 11
2557.3930775458175
 21
188.29058742736094
  0
ARC
  8
_e-0_
  6
CONTINUOUS
 62
    3
 10
2546.9662856612039
 20
162.67716163604518
 40
25.691707563897665
 50
85.526146014136969
 51
347.40557840019874
  0
LINE
  8
_e-0_
  6
CONTINUOUS
 62
    3
 10
2557.3930775458175
 20
209.12865853712901
 11
2557.3930775458175
 21
188.29058742736094
  0
ARC
  8
_e-0_
  6
CONTINUOUS
 62
    3
 10
2558.3930775458175
 20
209.12865853712901
 40
1
 50
90
 51
180
  0
LINE
  8
_e-0_
  6
CONTINUOUS
 62
    3
 10
2572.0397992563612
 20
209.12865853712901
 11
2572.0397992563612
 21
157.07513043814088
  0
LINE
  8
_e-0_
  6
CONTINUOUS
 62
    3
 10
2571.0397992563616
 20
210.12865853712895
 11
2558.3930775458175
 21
210.12865853712895
  0
ARC
  8
_e-0_
  6
CONTINUOUS
 62
    3
 10
2571.0397992563616
 20
209.12865853712901
 40
1
 50
0
 51
90
  0
CIRCLE
  8
_e-0_
  6
CONTINUOUS
 62
    3
 10
2607.4932845795829
 20
162.61858771142584
 40
13.33773795583065
  0
CIRCLE
  8
_e-0_
  6
CONTINUOUS
 62
    3
 10
2607.2095671322085
 20
162.334870264051
 40
25.691707563897665
  0
ARC
  8
_e-0_
  6
CONTINUOUS
 62
    3
 10
2361.3056445788688
 20
183.56108960512415
 40
5
 50
90
 51
106.05338143786268
  0
ARC
  8
_e-0_
  6
CONTINUOUS
 62
    3
 10
2361.3056445788688
 20
183.56108960512415
 40
5
 50
90
 51
106.05338143786268
  0
ARC
  8
_e-0_
  6
CONTINUOUS
 62
    3
 10
2361.3056445788688
 20
183.56108960512415
 40
5
 50
90
 51
106.05338143786268
  0
ARC
  8
_e-0_
  6
CONTINUOUS
 62
    3
 10
2361.3056445788688
 20
183.56108960512415
 40
5
 50
90
 51
106.05338143786268
  0
LINE
  8
_e-0_
  6
CONTINUOUS
 62
    7
 10
2346.3470804331013
 20
179.59716504486777
 11
2368.5044577934554
 21
187.66179087344028
  0
LINE
  8
_e-0_
  6
CONTINUOUS
 62
    7
 10
2361.2415063076145
 20
179.69740385729494
 11
2376.5205845613304
 21
185.25853354867166
  0
LINE
  8
_e-0_
  6
CONTINUOUS
 62
    7
 10
2341.7511550984831
 20
172.60349616177705
 11
2361.2415063076145
 21
179.69740385729494
  0
LINE
  8
_e-0_
  6
CONTINUOUS
 62
    7
 10
2339.9278406436087
 20
166.61897511011602
 11
2357.2356669233163
 21
172.91850869577984
  0
LINE
  8
_e-0_
  6
CONTINUOUS
 62
    7
 10
2339.5613566552269
 20
161.16469698463049
 11
2352.6357267551816
 21
165.92337853279389
  0
LINE
  8
_e-0_
  6
CONTINUOUS
 62
    7
 10
2340.2704529847874
 20
156.10189807943811
 11
2352.3257797311662
 21
160.489678179473
  0
LINE
  8
_e-0_
  6
CONTINUOUS
 62
    7
 10
2341.9204823498939
 20
151.38157079162255
 11
2353.9794571535694
 21
155.77067867592631
  0
LINE
  8
_e-0_
  6
CONTINUOUS
 62
    7
 10
2344.504128974107
 20
147.00105239631881
 11
2357.564943671171
 21
151.75480018131679
  0
LINE
  8
_e-0_
  6
CONTINUOUS
 62
    7
 10
2348.1361647674011
 20
143.00211645248765
 11
2364.9879954656798
 21
149.13568121955449
  0
LINE
  8
_e-0_
  6
CONTINUOUS
 62
    7
 10
2353.1501292054063
 20
139.50616140121155
 11
2375.2534753949121
 21
147.55112149187283
  0
LINE
  8
_e-0_
  6
CONTINUOUS
 62
    7
 10
2360.6217579801264
 20
136.90472301431668
 11
2375.3071030149835
 21
142.24975148693374
  0
LINE
  8
_e-0_
  6
CONTINUOUS
 62
    7
 10
2375.3071030149835
 20
142.24975148693374
 11
2385.0115931457403
 21
145.78189703325932
  0
LINE
  8
_e-0_
  6
CONTINUOUS
 62
    7
 10
2374.4001538198344
 20
147.24053783828736
 11
2389.063020487204
 21
152.57738485422379
  0
LINE
  8
_e-0_
  6
CONTINUOUS
 62
    7
 10
2374.4883804748506
 20
152.59353857696169
 11
2390.6567834919524
 21
158.47835601080646
  0
LINE
  8
_e-0_
  6
CONTINUOUS
 62
    7
 10
2378.4912308361026
 20
159.37134582305873
 11
2390.8686178519897
 21
163.87634627483464
  0
LINE
  8
_e-0_
  6
CONTINUOUS
 62
    7
 10
2378.6565159204478
 20
164.75239353630797
 11
2390.0320630429459
 21
168.89275408738967
  0
LINE
  8
_e-0_
  6
CONTINUOUS
 62
    7
 10
2365.1397018509305
 20
175.7953421400316
 11
2381.7641004494612
 21
181.84612839247364
  0
LINE
  8
_e-0_
  6
CONTINUOUS
 62
    7
 10
2373.159843452322
 20
173.39354609515908
 11
2385.5507858710998
 21
177.90348031010012
  0
LINE
  8
_e-0_
  6
CONTINUOUS
 62
    7
 10
2399.4939617252575
 20
182.97838129215278
 11
2414.0119690553087
 21
188.26250382114977
  0
LINE
  8
_e-0_
  6
CONTINUOUS
 62
    7
 10
2399.4939617252575
 20
177.65749242977335
 11
2428.3670442872125
 21
188.16643505383524
  0
LINE
  8
_e-0_
  6
CONTINUOUS
 62
    7
 10
2399.4939617252575
 20
172.33660356739392
 11
2436.7743097980664
 21
185.90554058897964
  0
LINE
  8
_e-0_
  6
CONTINUOUS
 62
    7
 10
2399.4939617252575
 20
167.01571470501448
 11
2442.1110032081055
 21
182.52704927725858
  0
LINE
  8
_e-0_
  6
CONTINUOUS
 62
    7
 10
2399.4939617252575
 20
161.69482584263505
 11
2414.856930753669
 21
167.28648927893004
  0
LINE
  8
_e-0_
  6
CONTINUOUS
 62
    7
 10
2428.7090082786239
 20
172.32823318076128
 11
2445.9244086202584
 21
178.5941264760919
  0
LINE
  8
_e-0_
  6
CONTINUOUS
 62
    7
 10
2399.4939617252575
 20
156.37393698025562
 11
2414.856930753669
 21
161.96560041655061
  0
LINE
  8
_e-0_
  6
CONTINUOUS
 62
    7
 10
2403.3398935234458
 20
136.49018622829544
 11
2414.856930753669
 21
140.68204496703231
  0
LINE
  8
_e-0_
  6
CONTINUOUS
 62
    7
 10
2399.4939617252575
 20
140.41127039311675
 11
2414.856930753669
 21
146.00293382941202
  0
LINE
  8
_e-0_
  6
CONTINUOUS
 62
    7
 10
2399.4939617252575
 20
145.73215925549646
 11
2414.856930753669
 21
151.32382269179146
  0
LINE
  8
_e-0_
  6
CONTINUOUS
 62
    7
 10
2399.4939617252575
 20
151.0530481178759
 11
2414.856930753669
 21
156.64471155417118
  0
LINE
  8
_e-0_
  6
CONTINUOUS
 62
    7
 10
2436.2585234464268
 20
159.113365397844
 11
2451.1774760289304
 21
164.5434200643038
  0
LINE
  8
_e-0_
  6
CONTINUOUS
 62
    7
 10
2436.2585234464268
 20
153.79247653546485
 11
2451.1774760289304
 21
159.22253120192465
  0
LINE
  8
_e-0_
  6
CONTINUOUS
 62
    7
 10
2436.105047565391
 20
164.37839360784892
 11
2450.3687179376247
 21
169.56994505472636
  0
LINE
  8
_e-0_
  6
CONTINUOUS
 62
    7
 10
2436.2585234464268
 20
148.47158767308542
 11
2451.1774760289304
 21
153.90164233954521
  0
LINE
  8
_e-0_
  6
CONTINUOUS
 62
    7
 10
2436.2585234464268
 20
143.1506988107057
 11
2451.1774760289304
 21
148.5807534771655
  0
LINE
  8
_e-0_
  6
CONTINUOUS
 62
    7
 10
2436.2585234464268
 20
137.82980994832598
 11
2451.1774760289304
 21
143.25986461478606
  0
LINE
  8
_e-0_
  6
CONTINUOUS
 62
    7
 10
2447.1969595258929
 20
136.49018622829544
 11
2451.1774760289304
 21
137.93897575240634
  0
LINE
  8
_e-0_
  6
CONTINUOUS
 62
    7
 10
2434.0189024056153
 20
168.93998772771169
 11
2448.6296862431445
 21
174.25787814386978
  0
LINE
  8
_e-0_
  6
CONTINUOUS
 62
    7
 10
2469.1883842563338
 20
181.74063227593791
 11
2487.7135419125711
 21
188.48323824789645
  0
LINE
  8
_e-0_
  6
CONTINUOUS
 62
    7
 10
2463.6316388937825
 20
174.39725350219305
 11
2496.6904887083792
 21
186.42969081378254
  0
LINE
  8
_e-0_
  6
CONTINUOUS
 62
    7
 10
2461.4628990865917
 20
168.28700790412767
 11
2502.2794299488264
 21
183.14301020398858
  0
LINE
  8
_e-0_
  6
CONTINUOUS
 62
    7
 10
2461.4992419870632
 20
162.97934677574687
 11
2473.9894671720021
 21
167.52541696234658
  0
LINE
  8
_e-0_
  6
CONTINUOUS
 62
    7
 10
2492.1508316310541
 20
174.13561303910114
 11
2506.2885679576884
 21
179.28132824190015
  0
LINE
  8
_e-0_
  6
CONTINUOUS
 62
    7
 10
2496.6927278595248
 20
170.46783921101109
 11
2509.1784918759253
 21
175.01228566505261
  0
LINE
  8
_e-0_
  6
CONTINUOUS
 62
    7
 10
2463.2093427036916
 20
158.28088367181749
 11
2488.4793399340492
 21
167.47841048365671
  0
LINE
  8
_e-0_
  6
CONTINUOUS
 62
    7
 10
2462.8888794596255
 20
152.84335572742151
 11
2511.1140538755621
 21
170.39588375711787
  0
LINE
  8
_e-0_
  6
CONTINUOUS
 62
    7
 10
2465.300291731432
 20
148.400149154524
 11
2476.9283430630944
 21
152.63241372176821
  0
LINE
  8
_e-0_
  6
CONTINUOUS
 62
    7
 10
2488.1225212892722
 20
156.70676139316753
 11
2512.1228430370119
 21
165.44216412215632
  0
LINE
  8
_e-0_
  6
CONTINUOUS
 62
    7
 10
2502.7415432900879
 20
156.70676139316753
 11
2512.1151621126959
 21
160.11847963195407
  0
LINE
  8
_e-0_
  6
CONTINUOUS
 62
    7
 10
2468.7281740890052
 20
144.32690743686691
 11
2482.5550140975401
 21
149.35946563393486
  0
LINE
  8
_e-0_
  6
CONTINUOUS
 62
    7
 10
2473.4508580764295
 20
140.72493497175571
 11
2502.4973614552445
 21
151.29699761115659
  0
LINE
  8
_e-0_
  6
CONTINUOUS
 62
    7
 10
2480.3069495598269
 20
137.89945933273884
 11
2507.3767895083869
 21
147.75207532036432
  0
LINE
  8
_e-0_
  6
CONTINUOUS
 62
    7
 10
2552.6231690921717
 20
137.61596638527407
 11
2558.7418873346696
 21
139.84299769740459
  0
LINE
  8
_e-0_
  6
CONTINUOUS
 62
    7
 10
2539.4012676014826
 20
138.12447666464265
 11
2568.5435873921023
 21
148.73141362589478
  0
LINE
  8
_e-0_
  6
CONTINUOUS
 62
    7
 10
2532.9976800904732
 20
141.11465028049622
 11
2571.5269734698549
 21
155.13816621790056
  0
LINE
  8
_e-0_
  6
CONTINUOUS
 62
    7
 10
2522.081864354775
 20
169.06695144424446
 11
2572.0397992563612
 21
187.25015271383
  0
LINE
  8
_e-0_
  6
CONTINUOUS
 62
    7
 10
2524.5896829795606
 20
175.30061163898437
 11
2572.0397992563612
 21
192.57104157620943
  0
LINE
  8
_e-0_
  6
CONTINUOUS
 62
    7
 10
2557.3930775458175
 20
208.52362629350906
 11
2561.8028673926596
 21
210.12865853712895
  0
LINE
  8
_e-0_
  6
CONTINUOUS
 62
    7
 10
2557.3930775458175
 20
203.20273743112977
 11
2572.0397992563612
 21
208.53370816334788
  0
LINE
  8
_e-0_
  6
CONTINUOUS
 62
    7
 10
2557.3930775458175
 20
197.88184856875005
 11
2572.0397992563612
 21
203.21281930096859
  0
LINE
  8
_e-0_
  6
CONTINUOUS
 62
    7
 10
2557.3930775458175
 20
192.56095970637034
 11
2572.0397992563612
 21
197.89193043858915
  0
LINE
  8
_e-0_
  6
CONTINUOUS
 62
    7
 10
2531.3600319802562
 20
183.08570601321093
 11
2545.8030101140193
 21
188.34252014805827
  0
LINE
  8
_e-0_
  6
CONTINUOUS
 62
    7
 10
2548.0525958796984
 20
173.19863581905565
 11
2572.0397992563612
 21
181.92926385145057
  0
LINE
  8
_e-0_
  6
CONTINUOUS
 62
    7
 10
2521.2864022906337
 20
163.45653806802943
 11
2538.3752084417083
 21
169.67635484616607
  0
LINE
  8
_e-0_
  6
CONTINUOUS
 62
    7
 10
2521.6554107736333
 20
158.26995730965364
 11
2535.4846691325356
 21
163.30339571427089
  0
LINE
  8
_e-0_
  6
CONTINUOUS
 62
    7
 10
2522.9940114609526
 20
153.43627925302655
 11
2536.1404517985765
 21
158.22119222247806
  0
LINE
  8
_e-0_
  6
CONTINUOUS
 62
    7
 10
2525.2563435788042
 20
148.93881194156961
 11
2539.0354883761397
 21
153.95401050144357
  0
LINE
  8
_e-0_
  6
CONTINUOUS
 62
    7
 10
2528.5117312327797
 20
144.80278728623488
 11
2545.7561370732087
 21
151.07923771975691
  0
LINE
  8
_e-0_
  6
CONTINUOUS
 62
    7
 10
2554.2054905278623
 20
154.15455087604527
 11
2572.0397992563612
 21
160.64570840193255
  0
LINE
  8
_e-0_
  6
CONTINUOUS
 62
    7
 10
2557.505937791675
 20
160.67670430221767
 11
2572.0397992563612
 21
165.96659726431198
  0
LINE
  8
_e-0_
  6
CONTINUOUS
 62
    7
 10
2557.5903561511468
 20
166.02831893467055
 11
2572.0397992563612
 21
171.28748612669141
  0
LINE
  8
_e-0_
  6
CONTINUOUS
 62
    7
 10
2557.5903561511468
 20
171.34920779704998
 11
2572.0397992563612
 21
176.60837498907085
  0
LINE
  8
_e-0_
  6
CONTINUOUS
 62
    7
 10
2595.1467628188602
 20
185.01862193009401
 11
2601.869376832742
 21
187.46545332760774
  0
LINE
  8
_e-0_
  6
CONTINUOUS
 62
    7
 10
2585.5936460434281
 20
176.22068291698809
 11
2614.8426950414304
 21
186.86646613285404
  0
LINE
  8
_e-0_
  6
CONTINUOUS
 62
    7
 10
2608.5181174973608
 20
136.67650840108905
 11
2622.7000364868072
 21
141.83830477802189
  0
LINE
  8
_e-0_
  6
CONTINUOUS
 62
    7
 10
2598.2444761483161
 20
138.25809761488983
 11
2629.5534764025951
 21
149.65364177207987
  0
LINE
  8
_e-0_
  6
CONTINUOUS
 62
    7
 10
2582.6330921261528
 20
169.82224055178022
 11
2621.2234503919626
 21
183.86798229020314
  0
LINE
  8
_e-0_
  6
CONTINUOUS
 62
    7
 10
2592.2968185805402
 20
141.41421615899105
 11
2632.0809325371146
 21
155.89444943583799
  0
LINE
  8
_e-0_
  6
CONTINUOUS
 62
    7
 10
2588.0695495912832
 20
145.19650493704432
 11
2602.246111940276
 21
150.35635165629656
  0
LINE
  8
_e-0_
  6
CONTINUOUS
 62
    7
 10
2585.0094293819529
 20
149.40360112995108
 11
2597.3909335115822
 21
153.91010008858017
  0
LINE
  8
_e-0_
  6
CONTINUOUS
 62
    7
 10
2582.919829983693
 20
153.96393800982366
 11
2594.8695180063709
 21
158.31326875884542
  0
LINE
  8
_e-0_
  6
CONTINUOUS
 62
    7
 10
2581.7538748691904
 20
158.86045391603374
 11
2594.1774270088017
 21
163.38225709870641
  0
LINE
  8
_e-0_
  6
CONTINUOUS
 62
    7
 10
2581.5798124660104
 20
164.11798924475078
 11
2595.9853391150813
 21
169.36117215394091
  0
LINE
  8
_e-0_
  6
CONTINUOUS
 62
    7
 10
2611.9748325174678
 20
175.18087181340547
 11
2625.6969314853622
 21
180.17530738937352
  0
LINE
  8
_e-0_
  6
CONTINUOUS
 62
    7
 10
2617.2029460570038
 20
171.76286066078091
 11
2628.9430705154381
 21
176.03591651023151
  0
LINE
  8
_e-0_
  6
CONTINUOUS
 62
    7
 10
2619.9310564926913
 20
167.43492279278257
 11
2631.1973168341919
 21
171.53550620858254
  0
LINE
  8
_e-0_
  6
CONTINUOUS
 62
    7
 10
2620.8298424207368
 20
162.44116525518904
 11
2632.5279188691888
 21
166.69891688059578
  0
LINE
  8
_e-0_
  6
CONTINUOUS
 62
    7
 10
2619.394865425299
 20
156.5979874796136
 11
2632.8880000931144
 21
161.50908686564349
  0
TEXT
  8
_e-0_
 62
    7
 10
2642.8586825750176
 20
180.56247057449553
 40
35
 41
0.5714285714285711
 50
0
  1
ワンド
  0
TEXT
  8
_e-0_
 62
    7
 10
2649.7045100149039
 20
147.0179161190498
 40
30
 41
0.6666666666666666
 50
0
  1
株式
  0
TEXT
  8
_e-0_
 62
    7
 10
2649.0199272709155
 20
118.95002361551377
 40
30
 41
0.6666666666666666
 50
0
  1
会社
  0
TEXT
  8
_f-8_
 62
    7
 10
1566.0319148936171
 20
135.36426640792853
 40
45
 41
0.6666666666666666
 50
0
  1
ＫＴＤ３－６０－１１０ＨＳ
  0
TEXT
  8
_f-8_
 62
    7
 10
3041.7294787536916
 20
142.70913710986349
 40
35
 41
0.5714285714285711
 50
0
  1
２０２３．０５．０１
  0
TEXT
  8
_f-8_
 62
    7
 10
3582
 20
145
 40
30
 41
0.733333333333333
 50
0
  1
Ｔ．Ｋ
  0
TEXT
  8
_f-8_
 62
    7
 10
701.33768798946562
 20
135.36426640792853
 40
45
 41
0.8
 50
0
  1
吊り戸棚　高さ６０ｃｍタイプ
  0
LINE
  8
_0-d_
  6
CONTINUOUS
 62
    7
 10
4115
 20
2284.9999999999995
 11
2834.7428029255934
 21
2284.9999999999995
  0
TEXT
  8
_0-d_
 62
    7
 10
3280.2433029255939
 20
2795
 40
35
 41
0.8571428571428568
 50
0
  1
仕　様
  0
LINE
  8
_0-d_
  6
CONTINUOUS
 62
    3
 10
4115
 20
2845
 11
2834.7428029255934
 21
2845
  0
TEXT
  8
_0-d_
 62
    7
 10
2914.5955739690975
 20
2724.6800031696598
 40
35
 41
0.8571428571428568
 50
0
  1
天　板
  0
TEXT
  8
_0-d_
 62
    7
 10
3174.7428029255934
 20
2722.4999999999995
 40
35
 41
0.8571428571428568
 50
0
  1
片面化粧パーティクルボード　１５ｔ
  0
LINE
  8
_0-d_
  6
CONTINUOUS
 62
    3
 10
2834.7428029255934
 20
2214.9999999999995
 11
4115
 21
2214.9999999999995
  0
LINE
  8
_0-d_
  6
CONTINUOUS
 62
    7
 10
4115
 20
2564.9999999999995
 11
2834.7428029255934
 21
2564.9999999999995
  0
LINE
  8
_0-d_
  6
CONTINUOUS
 62
    7
 10
4115
 20
2494.9999999999995
 11
2834.7428029255934
 21
2494.9999999999995
  0
LINE
  8
_0-d_
  6
CONTINUOUS
 62
    7
 10
4115
 20
2424.9999999999995
 11
2834.7428029255934
 21
2424.9999999999995
  0
LINE
  8
_0-d_
  6
CONTINUOUS
 62
    7
 10
4115
 20
2354.9999999999995
 11
2834.7428029255934
 21
2354.9999999999995
  0
LINE
  8
_0-d_
  6
CONTINUOUS
 62
    7
 10
4115
 20
2634.9999999999995
 11
2834.7428029255934
 21
2634.9999999999995
  0
LINE
  8
_0-d_
  6
CONTINUOUS
 62
    7
 10
4115
 20
2704.9999999999995
 11
2834.7428029255934
 21
2704.9999999999995
  0
LINE
  8
_0-d_
  6
CONTINUOUS
 62
    7
 10
4115
 20
2775
 11
2834.7428029255934
 21
2775
  0
LINE
  8
_0-d_
  6
CONTINUOUS
 62
    7
 10
4115
 20
2780
 11
2834.7428029255934
 21
2780
  0
TEXT
  8
_0-d_
 62
    7
 10
2914.7428029255925
 20
2652.4999999999995
 40
35
 41
0.8571428571428568
 50
0
  1
左　側　板
  0
TEXT
  8
_0-d_
 62
    7
 10
3174.7428029255934
 20
2652.4999999999995
 40
35
 41
0.8571428571428568
 50
0
  1
低圧メラミン化粧パーティクルボード　１２ｔ
  0
TEXT
  8
_0-d_
 62
    7
 10
3175.7226805597765
 20
2583.714337742108
 40
35
 41
0.8571428571428568
 50
0
  1
低圧メラミン化粧パーティクルボード　１２ｔ
  0
TEXT
  8
_0-d_
 62
    7
 10
2914.7428029255925
 20
2582.4999999999995
 40
35
 41
0.8571428571428568
 50
0
  1
右　側　板
  0
TEXT
  8
_0-d_
 62
    7
 10
2914.7428029255925
 20
2512.4999999999995
 40
35
 41
0.8571428571428568
 50
0
  1
見　上　板
  0
TEXT
  8
_0-d_
 62
    7
 10
3174.7428029255934
 20
2512.4999999999995
 40
35
 41
0.8571428571428568
 50
0
  1
低圧メラミン化粧パーティクルボード　１５ｔ
  0
TEXT
  8
_0-d_
 62
    7
 10
2914.7428029255925
 20
2442.4999999999995
 40
35
 41
0.8571428571428568
 50
0
  1
背　板
  0
LINE
  8
_0-d_
  6
CONTINUOUS
 62
    7
 10
4115
 20
2214.9999999999995
 11
2834.7428029255934
 21
2214.9999999999995
  0
LINE
  8
_0-d_
  6
CONTINUOUS
 62
    3
 10
2834.7428029255934
 20
2144.9999999999995
 11
4115
 21
2144.9999999999995
  0
LINE
  8
_0-d_
  6
CONTINUOUS
 62
    3
 10
2834.7428029255934
 20
2845
 11
2834.7428029255934
 21
2144.9999999999995
  0
LINE
  8
_0-d_
  6
CONTINUOUS
 62
    3
 10
4115
 20
2845
 11
4115
 21
2144.9999999999995
  0
LINE
  8
_0-d_
  6
CONTINUOUS
 62
    7
 10
3134.7428029255934
 20
2775
 11
3134.7428029255934
 21
2144.9999999999995
  0
TEXT
  8
_0-d_
 62
    7
 10
3174.7428029255934
 20
2442.4999999999995
 40
35
 41
0.8571428571428568
 50
0
  1
カラーＭＤＦ・落とし込み
  0
TEXT
  8
_0-d_
 62
    7
 10
2914.7428029255943
 20
2372.4999999999995
 40
35
 41
0.8571428571428568
 50
0
  1
　扉
  0
TEXT
  8
_0-d_
 62
    7
 10
3174.7428029255938
 20
2372.4999999999995
 40
35
 41
0.8571428571428568
 50
0
  1
両面化粧パ－ティクルボ－ド　１２ｔ　耐震ラッチ付
  0
TEXT
  8
_0-d_
 62
    7
 10
2914.7428029255925
 20
2302.4999999999995
 40
35
 41
0.8571428571428568
 50
0
  1
丁　番
  0
TEXT
  8
_0-d_
 62
    7
 10
3174.7428029255929
 20
2302.4999999999995
 40
35
 41
0.8571428571428568
 50
0
  1
ワンタッチスライド式丁番
  0
TEXT
  8
_0-d_
 62
    7
 10
2914.7428029255925
 20
2232.4999999999995
 40
35
 41
0.8571428571428568
 50
0
  1
棚　板
  0
TEXT
  8
_0-d_
 62
    7
 10
3174.7428029255934
 20
2232.4999999999995
 40
35
 41
0.8571428571428568
 50
0
  1
可動式　棚板　１５ｔ
  0
TEXT
  8
_0-d_
 62
    7
 10
2914.7428029255934
 20
2162.4999999999995
 40
35
 41
0.8571428571428568
 50
0
  1
把　手
  0
TEXT
  8
_0-d_
 62
    7
 10
3174.7428029255929
 20
2162.4999999999995
 40
35
 41
0.8571428571428568
 50
0
  1
アルミ一文字把手
  0
ENDSEC
  0
EOF
