  0
SECTION
  2
HEADER
  9
$ACADVER
  1
AC1009
  9
$INSBASE
 10
0
 20
0
 30
0
  9
$EXTMIN
 10
0
 20
0
  9
$EXTMAX
 10
4200
 20
2970
  9
$LIMMIN
 10
0
 20
0
  9
$LIMMAX
 10
4200
 20
2970
  9
$LTSCALE
 40
10
  0
ENDSEC
  0
SECTION
  2
TABLES
  0
TABLE
  2
LTYPE
 70
     9
  0
LTYPE
  2
CONTINUOUS
 70
    64
  3
実線
 72
    65
 73
     0
 40
0.0
  0
LTYPE
  2
DASHED1
 70
    64
  3
--  --  --  --  --  --  --  --  
 72
    65
 73
     2
 40
2.5
 49
1.25
 49
-1.25
  0
LTYPE
  2
DASHED2
 70
    64
  3
----    ----    ----    ----    
 72
    65
 73
     2
 40
5.0
 49
2.5
 49
-2.5
  0
LTYPE
  2
DASHED3
 70
    64
  3
------  ------  ------  ------  
 72
    65
 73
     2
 40
5.0
 49
3.75
 49
-1.25
  0
LTYPE
  2
CENTER1
 70
    64
  3
----- - ----- - ----- - ----- - 
 72
    65
 73
     4
 40
10.0
 49
6.25
 49
-1.25
 49
1.25
 49
-1.25
  0
LTYPE
  2
CENTER2
 70
    64
  3
----------  --  ----------  --  
 72
    65
 73
     4
 40
20.0
 49
12.5
 49
-2.5
 49
2.5
 49
-2.5
  0
LTYPE
  2
PHANTOM1
 70
    64
  3
--- - - --- - - --- - - --- - - 
 72
    65
 73
     6
 40
10.0
 49
3.25
 49
-1.25
 49
1.25
 49
-1.25
 49
1.25
 49
-1.25
  0
LTYPE
  2
PHANTOM2
 70
    64
  3
--------  -  -  --------  -  -  
 72
    65
 73
     6
 40
20.0
 49
10.0
 49
-2.5
 49
1.25
 49
-2.5
 49
1.25
 49
-2.5
  0
LTYPE
  2
DOT
 70
    64
  3
-   -   -   -   -   -   -   -   
 72
    65
 73
     2
 40
2.5
 49
0.625
 49
-1.875
  0
LTYPE
  2
DUMMY
 70
    64
  3
ダミー
 72
    65
 73
     0
 40
0.0
  0
LTYPE
  2
RAND1
 70
    64
  3
ランダム線1
 72
    65
 73
     4
 40
10.0
 49
1.0
 49
-2.0
 49
3.0
 49
-4.0
  0
LTYPE
  2
RAND2
 70
    64
  3
ランダム線2
 72
    65
 73
     4
 40
14.0
 49
2.0
 49
-3.0
 49
4.0
 49
-5.0
  0
LTYPE
  2
RAND3
 70
    64
  3
ランダム線3
 72
    65
 73
     4
 40
18.0
 49
3.0
 49
-4.0
 49
5.0
 49
-6.0
  0
LTYPE
  2
RAND4
 70
    64
  3
ランダム線4
 72
    65
 73
     4
 40
22.0
 49
4.0
 49
-5.0
 49
6.0
 49
-7.0
  0
LTYPE
  2
RAND5
 70
    64
  3
ランダム線5
 72
    65
 73
     4
 40
26.0
 49
5.0
 49
-6.0
 49
7.0
 49
-8.0
  0
LTYPE
  2
LONG1
 70
    64
  3
----------  --  ----------  --  
 72
    65
 73
     4
 40
40.0
 49
32.5
 49
-2.5
 49
2.5
 49
-2.5
  0
LTYPE
  2
LONG2
 70
    64
  3
--------  -  -  --------  -  -  
 72
    65
 73
     6
 40
40.0
 49
30.0
 49
-2.5
 49
1.25
 49
-2.5
 49
1.25
 49
-2.5
  0
LTYPE
  2
LONG3
 70
    64
  3
+++++++++++++++..+++++++++++++++
 72
    65
 73
     2
 40
40.0
 49
37.5
 49
-2.5
  0
LTYPE
  2
LONG4
 70
    64
  3
+++++++++++++++..+++++++++++++++
 72
    65
 73
     2
 40
80.0
 49
75.0
 49
-5.0
  0
LTYPE
  2
LONG5
 70
    64
  3
----------  --  ----------  --  
 72
    65
 73
     4
 40
60.0
 49
37.5
 49
-7.5
 49
7.5
 49
-7.5
  0
LTYPE
  2
dashed
 70
   64
  3
-------   -------------   ------
 72
   65
 73
    2
 40
7.5
 49
6
 49
-1.5
  0
LTYPE
  2
dashed_spaced
 70
   64
  3
----        --------        ----
 72
   65
 73
    2
 40
12
 49
6
 49
-6
  0
LTYPE
  2
long_dashed_dotted
 70
   64
  3
------------- --- --------------
 72
   65
 73
    4
 40
15.25
 49
12
 49
-1.5
 49
0.25
 49
-1.5
  0
LTYPE
  2
long_dashed_double-dotted
 70
   64
  3
----------- --- --- ------------
 72
   65
 73
    6
 40
17
 49
12
 49
-1.5
 49
0.25
 49
-1.5
 49
0.25
 49
-1.5
  0
LTYPE
  2
long_dashed_triplicate-dotted
 70
   64
  3
--------- --- --- --- ----------
 72
   65
 73
    8
 40
18.75
 49
12
 49
-1.5
 49
0.25
 49
-1.5
 49
0.25
 49
-1.5
 49
0.25
 49
-1.5
  0
LTYPE
  2
dotted
 70
   64
  3
   -       -       -       -    
 72
   65
 73
    2
 40
1.75
 49
0.25
 49
-1.5
  0
LTYPE
  2
chain
 70
   64
  3
-------------- -- --------------
 72
   65
 73
    4
 40
18.5
 49
12
 49
-1.5
 49
3.5
 49
-1.5
  0
LTYPE
  2
chain_double_dash
 70
   64
  3
------------ -- -- -------------
 72
   65
 73
    6
 40
23.5
 49
12
 49
-1.5
 49
3.5
 49
-1.5
 49
3.5
 49
-1.5
  0
LTYPE
  2
dashed_dotted
 70
   64
  3
-----------     -     ----------
 72
   65
 73
    4
 40
9.25
 49
6
 49
-1.5
 49
0.25
 49
-1.5
  0
LTYPE
  2
double-dashed_dotted
 70
   64
  3
------   -----------   -   -----
 72
   65
 73
    6
 40
16.75
 49
6
 49
-1.5
 49
6
 49
-1.5
 49
0.25
 49
-1.5
  0
LTYPE
  2
dashed_double-dotted
 70
   64
  3
---------    -    -    ---------
 72
   65
 73
    6
 40
11
 49
6
 49
-1.5
 49
0.25
 49
-1.5
 49
0.25
 49
-1.5
  0
LTYPE
  2
double-dashed_double-dotted
 70
   64
  3
-----   ---------   -   -   ----
 72
   65
 73
    8
 40
18.5
 49
6
 49
-1.5
 49
6
 49
-1.5
 49
0.25
 49
-1.5
 49
0.25
 49
-1.5
  0
LTYPE
  2
dashed_triplicate-dotted
 70
   64
  3
-------    -    -    -    ------
 72
   65
 73
    8
 40
12.75
 49
6
 49
-1.5
 49
0.25
 49
-1.5
 49
0.25
 49
-1.5
 49
0.25
 49
-1.5
  0
LTYPE
  2
double-dashed_triplicate-dotted
 70
   64
  3
-----  ---------  -  -  -  -----
 72
   65
 73
   10
 40
20.25
 49
6
 49
-1.5
 49
6
 49
-1.5
 49
0.25
 49
-1.5
 49
0.25
 49
-1.5
 49
0.25
 49
-1.5
  0
LTYPE
  2
undefined
 70
   64
  3
--------------------------------
 72
   65
 73
    0
 40
0
  0
LTYPE
  2
_
 70
   64
  3
                                
 72
   65
 73
    0
 40
0
  0
LTYPE
  2
__18
 70
   64
  3
                                
 72
   65
 73
    0
 40
0
  0
LTYPE
  2
__19
 70
   64
  3
                                
 72
   65
 73
    0
 40
0
  0
LTYPE
  2
__20
 70
   64
  3
                                
 72
   65
 73
    0
 40
0
  0
LTYPE
  2
__21
 70
   64
  3
                                
 72
   65
 73
    0
 40
0
  0
LTYPE
  2
__22
 70
   64
  3
                                
 72
   65
 73
    0
 40
0
  0
LTYPE
  2
__23
 70
   64
  3
                                
 72
   65
 73
    0
 40
0
  0
LTYPE
  2
__24
 70
   64
  3
                                
 72
   65
 73
    0
 40
0
  0
LTYPE
  2
__25
 70
   64
  3
                                
 72
   65
 73
    0
 40
0
  0
LTYPE
  2
__26
 70
   64
  3
                                
 72
   65
 73
    0
 40
0
  0
LTYPE
  2
__27
 70
   64
  3
                                
 72
   65
 73
    0
 40
0
  0
LTYPE
  2
__28
 70
   64
  3
                                
 72
   65
 73
    0
 40
0
  0
LTYPE
  2
__29
 70
   64
  3
                                
 72
   65
 73
    0
 40
0
  0
LTYPE
  2
__30
 70
   64
  3
                                
 72
   65
 73
    0
 40
0
  0
LTYPE
  2
__31
 70
   64
  3
                                
 72
   65
 73
    0
 40
0
  0
LTYPE
  2
__32
 70
   64
  3
                                
 72
   65
 73
    0
 40
0
  0
ENDTAB
  0
TABLE
  2
STYLE
  5
3
100
AcDbSymbolTable
 70
     1
  0
STYLE
  5
10
100
AcDbSymbolTableRecord
100
AcDbTextStyleTableRecord
  2
STANDARD
 70
     0
 40
0.0
 41
1.0
 50
0.0
 71
     0
 42
0.2
  3
txt
  4
bigfont.shx
  0
STYLE
  5
26
100
AcDbSymbolTableRecord
100
AcDbTextStyleTableRecord
  2
TATEGAKI
 70
    68
 40
0.0
 41
1.0
 50
0.0
 71
     0
 42
1.0
  3
txt
  4
bigfont.shx
  0
ENDTAB
  0
TABLE
  2
LAYER
 70
   16
  0
LAYER
  2
_0-0_立面本体
 70
   64
 62
    7
  6
CONTINUOUS
  0
LAYER
  2
_0-3_断面__扉
 70
   64
 62
    7
  6
CONTINUOUS
  0
LAYER
  2
_0-4_背面本体
 70
   64
 62
    7
  6
CONTINUOUS
  0
LAYER
  2
_0-5_平面本体
 70
   64
 62
    7
  6
CONTINUOUS
  0
LAYER
  2
_0-6_平面扉
 70
   64
 62
    7
  6
CONTINUOUS
  0
LAYER
  2
_0-8_ラッチ立面__受け
 70
   64
 62
    7
  6
CONTINUOUS
  0
LAYER
  2
_0-9_ラッチ断面__受け
 70
   64
 62
    7
  6
CONTINUOUS
  0
LAYER
  2
_0-a_ラッチ平面受け
 70
   64
 62
    7
  6
CONTINUOUS
  0
LAYER
  2
_0-b_ラッチ断面__扉側
 70
   64
 62
    7
  6
CONTINUOUS
  0
LAYER
  2
_0-d_ラッチ平面__扉側
 70
   64
 62
    7
  6
CONTINUOUS
  0
LAYER
  2
_e-0_
 70
   64
 62
    7
  6
CONTINUOUS
  0
LAYER
  2
_f-0_
 70
   64
 62
    7
  6
CONTINUOUS
  0
LAYER
  2
_f-2__0-1_立面__扉
 70
   64
 62
    7
  6
CONTINUOUS
  0
LAYER
  2
_f-3__0-7_寸法
 70
   64
 62
    7
  6
CONTINUOUS
  0
LAYER
  2
_f-5_ADD_LINE
 70
   64
 62
    7
  6
CONTINUOUS
  0
LAYER
  2
ADD_LINE
 70
   64
 62
    7
  6
CONTINUOUS
  0
ENDTAB
  0
ENDSEC
  0
SECTION
  2
BLOCKS
  0
ENDSEC
  0
SECTION
  2
ENTITIES
  0
TEXT
  8
_0-9_ラッチ断面__受け
 62
    7
 10
1507.7478497057493
 20
682.3334314169308
 40
35
 41
0.6285714285714286
 50
90
  1
１５
  0
LINE
  8
_0-3_断面__扉
  6
DASHED1
 62
    2
 10
584.82476271240238
 20
1345.2410513398297
 11
584.82476271240238
 21
745.24105133982948
  0
LINE
  8
_0-4_背面本体
  6
CONTINUOUS
 62
    3
 10
578.32476271240329
 20
2187.7744603287765
 11
972.32476271240329
 21
2187.7744603287765
  0
LINE
  8
ADD_LINE
  6
DOT
 62
  250
 10
4205.1456763581327
 20
20.517589292836078
 11
4205.1456763581327
 21
2880.5175892928359
  0
LINE
  8
_0-3_断面__扉
  6
CONTINUOUS
 62
    5
 10
2804.8913935730729
 20
1345.2410513398299
 11
2804.8913935730729
 21
745.2410513398297
  0
LINE
  8
_0-3_断面__扉
  6
CONTINUOUS
 62
    5
 10
2816.8913935730729
 20
1345.2410513398299
 11
2816.8913935730729
 21
745.2410513398297
  0
LINE
  8
_0-3_断面__扉
  6
CONTINUOUS
 62
    4
 10
1372.8247627124028
 20
2204.2744603287769
 11
1372.8247627124028
 21
2545.7744603287765
  0
LINE
  8
_0-3_断面__扉
  6
CONTINUOUS
 62
    4
 10
1360.8247627124028
 20
2204.2744603287769
 11
1360.8247627124028
 21
2545.7744603287765
  0
LINE
  8
_0-3_断面__扉
  6
CONTINUOUS
 62
    4
 10
1372.8247627124023
 20
745.24105133982948
 11
1372.8247627124023
 21
1345.2410513398297
  0
LINE
  8
_0-3_断面__扉
  6
DASHED1
 62
    2
 10
1360.8247627124026
 20
745.24105133982948
 11
1360.8247627124026
 21
1345.2410513398297
  0
LINE
  8
_0-3_断面__扉
  6
CONTINUOUS
 62
    4
 10
1367.8247627124023
 20
745.24105133982948
 11
1372.8247627124023
 21
745.24105133982948
  0
LINE
  8
_0-4_背面本体
  6
CONTINUOUS
 62
    3
 10
1941.8570920036445
 20
1340.2410513398299
 11
1929.8570920036443
 21
1340.2410513398299
  0
LINE
  8
_0-4_背面本体
  6
CONTINUOUS
 62
    3
 10
1929.8570920036443
 20
760.2410513398297
 11
1929.8570920036443
 21
1340.2410513398299
  0
LINE
  8
_0-4_背面本体
  6
CONTINUOUS
 62
    3
 10
1941.8570920036445
 20
760.2410513398297
 11
1941.8570920036445
 21
1340.2410513398299
  0
LINE
  8
_0-a_ラッチ平面受け
  6
CONTINUOUS
 62
    4
 10
3289.4546137129277
 20
1260.2410513398303
 11
3374.4546137129259
 21
1345.2410513398281
  0
LINE
  8
_0-a_ラッチ平面受け
  6
CONTINUOUS
 62
    4
 10
3261.1703424654579
 20
1260.2410513398274
 11
3346.1703424654615
 21
1345.2410513398306
  0
LINE
  8
_0-a_ラッチ平面受け
  6
CONTINUOUS
 62
    4
 10
3232.8860712179939
 20
1260.2410513398299
 11
3317.8860712179971
 21
1345.2410513398331
  0
LINE
  8
_0-a_ラッチ平面受け
  6
CONTINUOUS
 62
    4
 10
3204.6017999705441
 20
1260.2410513398285
 11
3289.6017999705418
 21
1345.2410513398262
  0
LINE
  8
_0-a_ラッチ平面受け
  6
CONTINUOUS
 62
    4
 10
3176.3175287230797
 20
1260.241051339831
 11
3261.3175287230774
 21
1345.2410513398288
  0
LINE
  8
_0-a_ラッチ平面受け
  6
CONTINUOUS
 62
    4
 10
3148.0332574756107
 20
1260.2410513398283
 11
3233.0332574756134
 21
1345.2410513398313
  0
LINE
  8
_0-a_ラッチ平面受け
  6
CONTINUOUS
 62
    4
 10
3119.7489862281463
 20
1260.2410513398306
 11
3204.748986228149
 21
1345.2410513398335
  0
LINE
  8
_0-a_ラッチ平面受け
  6
CONTINUOUS
 62
    4
 10
3091.4647149806969
 20
1260.2410513398292
 11
3176.4647149806942
 21
1345.2410513398272
  0
LINE
  8
_0-a_ラッチ平面受け
  6
CONTINUOUS
 62
    4
 10
3063.180443733232
 20
1260.2410513398317
 11
3148.1804437332302
 21
1345.2410513398294
  0
LINE
  8
_0-a_ラッチ平面受け
  6
CONTINUOUS
 62
    4
 10
3034.8961724857626
 20
1260.2410513398288
 11
3119.8961724857654
 21
1345.2410513398319
  0
LINE
  8
_0-a_ラッチ平面受け
  6
CONTINUOUS
 62
    4
 10
3006.6119012382982
 20
1260.2410513398313
 11
3091.6119012382969
 21
1345.241051339829
  0
LINE
  8
_0-a_ラッチ平面受け
  6
CONTINUOUS
 62
    4
 10
2978.3276299908488
 20
1260.2410513398299
 11
3063.3276299908466
 21
1345.2410513398276
  0
LINE
  8
_0-a_ラッチ平面受け
  6
CONTINUOUS
 62
    4
 10
2950.0433587433844
 20
1260.2410513398326
 11
3035.0433587433822
 21
1345.2410513398303
  0
LINE
  8
_0-a_ラッチ平面受け
  6
CONTINUOUS
 62
    4
 10
2921.759087495915
 20
1260.2410513398297
 11
3006.7590874959182
 21
1345.2410513398328
  0
LINE
  8
_0-a_ラッチ平面受け
  6
CONTINUOUS
 62
    4
 10
2893.4748162484652
 20
1260.2410513398283
 11
2978.4748162484629
 21
1345.2410513398262
  0
LINE
  8
_0-a_ラッチ平面受け
  6
CONTINUOUS
 62
    4
 10
2865.1905450010008
 20
1260.2410513398308
 11
2950.1905450009985
 21
1345.2410513398285
  0
LINE
  8
_0-a_ラッチ平面受け
  6
CONTINUOUS
 62
    4
 10
2836.9062737535314
 20
1260.2410513398281
 11
2921.9062737535341
 21
1345.241051339831
  0
LINE
  8
_0-a_ラッチ平面受け
  6
CONTINUOUS
 62
    4
 10
2816.8913935730715
 20
1268.5104424068351
 11
2893.6220025060702
 21
1345.2410513398335
  0
LINE
  8
_0-a_ラッチ平面受け
  6
CONTINUOUS
 62
    4
 10
2816.8913935730743
 20
1296.7947136542863
 11
2865.3377312586148
 21
1345.2410513398267
  0
LINE
  8
_0-a_ラッチ平面受け
  6
CONTINUOUS
 62
    4
 10
2816.8913935730729
 20
1325.0789849017514
 11
2837.0534600111514
 21
1345.2410513398294
  0
LINE
  8
_0-a_ラッチ平面受け
  6
CONTINUOUS
 62
    4
 10
3290.5714961672379
 20
752.24105133983152
 11
3335.571496167241
 21
797.24105133983493
  0
LINE
  8
_0-a_ラッチ平面受け
  6
CONTINUOUS
 62
    4
 10
3262.2872249197739
 20
752.24105133983402
 11
3307.2872249197725
 21
797.24105133983221
  0
LINE
  8
_0-a_ラッチ平面受け
  6
CONTINUOUS
 62
    4
 10
3234.0029536723241
 20
752.24105133983255
 11
3279.0029536723222
 21
797.24105133983084
  0
LINE
  8
_0-a_ラッチ平面受け
  6
CONTINUOUS
 62
    4
 10
3205.7186824248547
 20
752.2410513398297
 11
3250.7186824248583
 21
797.24105133983334
  0
LINE
  8
_0-a_ラッチ平面受け
  6
CONTINUOUS
 62
    4
 10
3177.4344111773907
 20
752.24105133983232
 11
3222.4344111773939
 21
797.24105133983573
  0
LINE
  8
_0-a_ラッチ平面受け
  6
CONTINUOUS
 62
    4
 10
3149.1501399299258
 20
752.24105133983471
 11
3194.1501399299245
 21
797.24105133983289
  0
LINE
  8
_0-a_ラッチ平面受け
  6
CONTINUOUS
 62
    4
 10
3120.8658686824765
 20
752.24105133983334
 11
3165.8658686824742
 21
797.24105133983152
  0
LINE
  8
_0-a_ラッチ平面受け
  6
CONTINUOUS
 62
    4
 10
3092.581597435007
 20
752.24105133983061
 11
3137.5815974350102
 21
797.24105133983402
  0
LINE
  8
_0-a_ラッチ平面受け
  6
CONTINUOUS
 62
    4
 10
3064.2973261875426
 20
752.241051339833
 11
3109.2973261875458
 21
797.24105133983641
  0
LINE
  8
_0-a_ラッチ平面受け
  6
CONTINUOUS
 62
    4
 10
3036.0130549400878
 20
752.24105133983607
 11
3081.0130549400864
 21
797.24105133983448
  0
LINE
  8
_0-a_ラッチ平面受け
  6
CONTINUOUS
 62
    4
 10
3007.7287836926284
 20
752.24105133983414
 11
3052.728783692627
 21
797.24105133983232
  0
LINE
  8
_0-a_ラッチ平面受け
  6
CONTINUOUS
 62
    4
 10
2979.444512445159
 20
752.2410513398313
 11
3024.4445124451622
 21
797.24105133983471
  0
LINE
  8
_0-a_ラッチ平面受け
  6
CONTINUOUS
 62
    4
 10
2951.1602411976946
 20
752.24105133983368
 11
2996.1602411976928
 21
797.24105133983186
  0
LINE
  8
_0-a_ラッチ平面受け
  6
CONTINUOUS
 62
    4
 10
2922.8759699502452
 20
752.24105133983243
 11
2967.8759699502434
 21
797.24105133983061
  0
LINE
  8
_0-a_ラッチ平面受け
  6
CONTINUOUS
 62
    4
 10
2894.5916987027803
 20
752.24105133983482
 11
2939.591698702779
 21
797.241051339833
  0
LINE
  8
_0-a_ラッチ平面受け
  6
CONTINUOUS
 62
    4
 10
2866.3074274553109
 20
752.24105133983198
 11
2911.307427455315
 21
797.24105133983562
  0
LINE
  8
_0-a_ラッチ平面受け
  6
CONTINUOUS
 62
    4
 10
2838.023156207847
 20
752.24105133983448
 11
2883.0231562078452
 21
797.24105133983266
  0
LINE
  8
_0-a_ラッチ平面受け
  6
CONTINUOUS
 62
    4
 10
2816.8913935730693
 20
759.39355995250548
 11
2854.7388849603953
 21
797.2410513398313
  0
LINE
  8
_0-a_ラッチ平面受け
  6
CONTINUOUS
 62
    4
 10
2816.8913935730683
 20
787.67783119997079
 11
2826.4546137129309
 21
797.24105133983368
  0
LINE
  8
_0-5_平面本体
  6
CONTINUOUS
 62
    4
 10
1943.4570920036437
 20
774.24105133982993
 11
1943.4570920036437
 21
732.2410513398297
  0
LINE
  8
_0-5_平面本体
  6
CONTINUOUS
 62
    4
 10
1942.9570920036437
 20
774.7410513398297
 11
1942.657092003644
 21
774.7410513398297
  0
LINE
  8
_0-5_平面本体
  6
CONTINUOUS
 62
    4
 10
1942.1570920036444
 20
765.96555113966951
 11
1942.1570920036444
 21
773.31655153999008
  0
LINE
  8
_0-5_平面本体
  6
CONTINUOUS
 62
    4
 10
1942.1570920036444
 20
760.54105133982966
 11
1942.1570920036444
 21
764.71655153998995
  0
LINE
  8
_0-5_平面本体
  6
CONTINUOUS
 62
    4
 10
1942.1570920036444
 20
756.79143867805487
 11
1942.1570920036444
 21
732.2410513398297
  0
LINE
  8
_0-5_平面本体
  6
CONTINUOUS
 62
    4
 10
1941.4570920036433
 20
731.54105133982966
 11
1930.6856634322159
 21
731.54105133982966
  0
LINE
  8
_0-5_平面本体
  6
CONTINUOUS
 62
    4
 10
1930.0235012700525
 20
732.01402431280257
 11
1928.8946718560102
 21
735.306443437094
  0
LINE
  8
_0-5_平面本体
  6
CONTINUOUS
 62
    4
 10
1928.7937715403236
 20
731.59240269118117
 11
1927.3111460576981
 21
735.91672701550533
  0
LINE
  8
_0-5_平面本体
  6
CONTINUOUS
 62
    4
 10
1929.1570920036431
 20
760.54105133982966
 11
1929.1570920036431
 21
765.44105133982952
  0
LINE
  8
_0-5_平面本体
  6
CONTINUOUS
 62
    4
 10
1941.857092003644
 20
760.2410513398297
 11
1929.4570920036439
 21
760.2410513398297
  0
LINE
  8
_0-5_平面本体
  6
CONTINUOUS
 62
    4
 10
1927.5570920036441
 20
759.59066400160418
 11
1927.5570920036441
 21
765.44105133982952
  0
LINE
  8
_0-5_平面本体
  6
CONTINUOUS
 62
    4
 10
1941.2087470890717
 20
757.79010366299712
 11
1928.505436918215
 21
758.59199901666215
  0
LINE
  8
_0-5_平面本体
  6
CONTINUOUS
 62
    4
 10
1930.6856634322159
 20
730.2410513398297
 11
1941.4570920036433
 21
730.2410513398297
  0
ARC
  8
_0-5_平面本体
  6
CONTINUOUS
 62
    4
 10
1941.4570920036433
 20
732.2410513398297
 40
0.6999999999999997
 50
270
 51
0
  0
ARC
  8
_0-5_平面本体
  6
CONTINUOUS
 62
    4
 10
1942.9570920036437
 20
774.24105133982993
 40
0.4999999999999997
 50
0
 51
90
  0
ARC
  8
_0-5_平面本体
  6
CONTINUOUS
 62
    4
 10
1942.657092003644
 20
773.94105133982975
 40
0.8000000000000001
 50
89.999999999999971
 51
231.31781254650667
  0
ARC
  8
_0-5_平面本体
  6
CONTINUOUS
 62
    4
 10
1942.657092003644
 20
765.34105133982961
 40
0.8000000000000001
 50
128.68218745349335
 51
231.31781254650667
  0
ARC
  8
_0-5_平面本体
  6
CONTINUOUS
 62
    4
 10
1941.857092003644
 20
760.54105133982966
 40
0.2999999999999998
 50
270
 51
0
  0
ARC
  8
_0-5_平面本体
  6
CONTINUOUS
 62
    4
 10
1941.1570920036435
 20
756.79143867805487
 40
0.9999999999999995
 50
359.99999999999994
 51
87.03906386583624
  0
ARC
  8
_0-5_平面本体
  6
CONTINUOUS
 62
    4
 10
1928.3570920036438
 20
765.44105133982952
 40
0.8000000000000001
 50
0.0000000000000254
 51
179.99999999999997
  0
ARC
  8
_0-5_平面本体
  6
CONTINUOUS
 62
    4
 10
1930.6856634322159
 20
732.2410513398297
 40
0.6999999999999997
 50
198.92464441604994
 51
270
  0
ARC
  8
_0-5_平面本体
  6
CONTINUOUS
 62
    4
 10
1929.083861045199
 20
735.3713083019586
 40
0.2
 50
133.54896276822287
 51
198.92464441605298
  0
ARC
  8
_0-5_平面本体
  6
CONTINUOUS
 62
    4
 10
1928.2570920036439
 20
736.24105133982948
 40
0.9999999999999995
 50
313.54896276821995
 51
198.92464441604971
  0
ARC
  8
_0-5_平面本体
  6
CONTINUOUS
 62
    4
 10
1929.4570920036439
 20
760.54105133982966
 40
0.2999999999999998
 50
179.99999999999997
 51
270
  0
ARC
  8
_0-5_平面本体
  6
CONTINUOUS
 62
    4
 10
1928.5570920036436
 20
759.59066400160418
 40
0.9999999999999995
 50
180
 51
267.03906386583628
  0
ARC
  8
_0-5_平面本体
  6
CONTINUOUS
 62
    4
 10
1941.4570920036433
 20
732.2410513398297
 40
1.9999999999999995
 50
269.99999999999994
 51
359.99999999999994
  0
ARC
  8
_0-5_平面本体
  6
CONTINUOUS
 62
    4
 10
1930.6856634322159
 20
732.2410513398297
 40
1.9999999999999995
 50
198.92464441605042
 51
270
  0
LINE
  8
_0-9_ラッチ断面__受け
  6
CONTINUOUS
 62
    4
 10
1979.8164462322188
 20
1128.0788812305547
 11
1979.8164462322188
 21
1088.0788812305547
  0
LINE
  8
_0-9_ラッチ断面__受け
  6
CONTINUOUS
 62
    4
 10
2269.8164462322188
 20
1128.0788812305547
 11
2269.8164462322188
 21
1088.0788812305547
  0
LINE
  8
_0-9_ラッチ断面__受け
  6
CONTINUOUS
 62
    4
 10
2487.8570920036445
 20
745.24105133982959
 11
2317.8570920036445
 21
745.24105133982959
  0
LINE
  8
_0-9_ラッチ断面__受け
  6
CONTINUOUS
 62
    4
 10
2487.8570920036445
 20
1345.2410513398299
 11
2317.8570920036445
 21
1345.2410513398299
  0
LINE
  8
_0-9_ラッチ断面__受け
  6
CONTINUOUS
 62
    4
 10
2287.8570920036445
 20
1545.2410513398299
 11
2287.8570920036445
 21
1375.2410513398297
  0
LINE
  8
_0-9_ラッチ断面__受け
  6
CONTINUOUS
 62
    4
 10
1572.8247627124028
 20
2187.7744603287765
 11
1402.8247627124028
 21
2187.7744603287765
  0
LINE
  8
_0-9_ラッチ断面__受け
  6
CONTINUOUS
 62
    4
 10
1572.8247627124028
 20
2545.7744603287765
 11
1402.8247627124028
 21
2545.7744603287765
  0
LINE
  8
_0-9_ラッチ断面__受け
  6
CONTINUOUS
 62
    4
 10
1572.8247627124028
 20
1345.2410513398297
 11
1402.8247627124028
 21
1345.2410513398297
  0
LINE
  8
_0-9_ラッチ断面__受け
  6
CONTINUOUS
 62
    4
 10
1512.8247627124028
 20
745.24105133982959
 11
1512.8247627124028
 21
730.24105133982982
  0
LINE
  8
_0-9_ラッチ断面__受け
  6
CONTINUOUS
 62
    4
 10
1572.8247627124028
 20
745.24105133982959
 11
1402.8247627124028
 21
745.24105133982959
  0
LINE
  8
_0-9_ラッチ断面__受け
  6
CONTINUOUS
 62
    4
 10
2804.8913935730729
 20
1545.2410513398297
 11
2804.8913935730729
 21
1375.2410513398297
  0
POINT
  8
_0-9_ラッチ断面__受け
 62
    4
 10
2804.8913935730729
 20
1535.2410513398297
  0
LINE
  8
_0-9_ラッチ断面__受け
  6
CONTINUOUS
 62
    4
 10
2804.8913935730729
 20
1545.2410513398297
 11
2804.8913935730729
 21
1375.2410513398297
  0
POINT
  8
_0-9_ラッチ断面__受け
 62
    4
 10
2804.8913935730729
 20
1535.2410513398297
  0
LINE
  8
_0-9_ラッチ断面__受け
  6
CONTINUOUS
 62
    4
 10
2804.8913935730729
 20
1545.2410513398297
 11
2804.8913935730729
 21
1375.2410513398297
  0
LINE
  8
_0-9_ラッチ断面__受け
  6
CONTINUOUS
 62
    4
 10
1373.3247627124023
 20
1545.2410513398297
 11
1373.3247627124023
 21
1375.2410513398297
  0
POINT
  8
_0-9_ラッチ断面__受け
 62
    4
 10
1373.3247627124023
 20
1535.2410513398297
  0
LINE
  8
_0-9_ラッチ断面__受け
  6
CONTINUOUS
 62
    4
 10
1373.3247627124023
 20
1545.2410513398297
 11
1373.3247627124023
 21
1375.2410513398297
  0
POINT
  8
_0-9_ラッチ断面__受け
 62
    4
 10
1373.3247627124023
 20
1535.2410513398297
  0
LINE
  8
_0-9_ラッチ断面__受け
  6
CONTINUOUS
 62
    4
 10
1373.3247627124023
 20
1545.2410513398297
 11
1373.3247627124023
 21
1375.2410513398297
  0
POINT
  8
_0-9_ラッチ断面__受け
 62
    4
 10
1373.3247627124023
 20
1535.2410513398297
  0
LINE
  8
_0-9_ラッチ断面__受け
  6
CONTINUOUS
 62
    4
 10
1373.3247627124023
 20
1545.2410513398297
 11
1373.3247627124023
 21
1375.2410513398297
  0
POINT
  8
_0-9_ラッチ断面__受け
 62
    4
 10
2804.8913935730729
 20
1535.2410513398297
  0
LINE
  8
_0-9_ラッチ断面__受け
  6
CONTINUOUS
 62
    4
 10
2804.8913935730729
 20
1545.2410513398297
 11
2804.8913935730729
 21
1375.2410513398297
  0
LINE
  8
_0-9_ラッチ断面__受け
  6
CONTINUOUS
 62
    4
 10
2816.8913935730729
 20
545.2410513398297
 11
2816.8913935730729
 21
715.2410513398297
  0
POINT
  8
_0-9_ラッチ断面__受け
 62
    4
 10
2816.8913935730729
 20
555.2410513398297
  0
LINE
  8
_0-9_ラッチ断面__受け
  6
CONTINUOUS
 62
    4
 10
2816.8913935730729
 20
545.2410513398297
 11
2816.8913935730729
 21
715.2410513398297
  0
POINT
  8
_0-9_ラッチ断面__受け
 62
    4
 10
2816.8913935730729
 20
555.2410513398297
  0
LINE
  8
_0-9_ラッチ断面__受け
  6
CONTINUOUS
 62
    4
 10
2816.8913935730729
 20
545.2410513398297
 11
2816.8913935730729
 21
715.2410513398297
  0
POINT
  8
_0-9_ラッチ断面__受け
 62
    4
 10
2816.8913935730729
 20
555.2410513398297
  0
LINE
  8
_0-9_ラッチ断面__受け
  6
CONTINUOUS
 62
    4
 10
2816.8913935730729
 20
545.2410513398297
 11
2816.8913935730729
 21
715.2410513398297
  0
POINT
  8
_0-9_ラッチ断面__受け
 62
    4
 10
1372.8247627124028
 20
2735.7744603287765
  0
POINT
  8
_0-9_ラッチ断面__受け
 62
    4
 10
1372.8247627124028
 20
2735.7744603287765
  0
POINT
  8
_0-9_ラッチ断面__受け
 62
    4
 10
1372.8247627124028
 20
2735.7744603287765
  0
LINE
  8
_0-9_ラッチ断面__受け
  6
CONTINUOUS
 62
    4
 10
1372.8247627124028
 20
2745.7744603287765
 11
1372.8247627124028
 21
2575.7744603287765
  0
LINE
  8
_0-9_ラッチ断面__受け
  6
CONTINUOUS
 62
    4
 10
1522.9822757182269
 20
730.24105133982982
 11
1402.8247627124028
 21
730.24105133982982
  0
LINE
  8
_f-2__0-1_立面__扉
  6
CONTINUOUS
 62
    4
 10
1562.8247627124028
 20
2545.7744603287765
 11
1562.8247627124028
 21
2187.7744603287765
  0
TEXT
  8
_0-9_ラッチ断面__受け
 62
    7
 10
1557.8247627124028
 20
2333.6744603287766
 40
35
 41
0.6285714285714286
 50
90
  1
３５８
  0
LINE
  8
_f-3__0-7_寸法
  6
CONTINUOUS
 62
    4
 10
1562.8247627124028
 20
1345.2410513398297
 11
1562.8247627124028
 21
745.24105133982959
  0
TEXT
  8
_0-9_ラッチ断面__受け
 62
    7
 10
1557.8247627124028
 20
1012.1410513398293
 40
35
 41
0.6285714285714286
 50
90
  1
６００
  0
LINE
  8
_f-3__0-7_寸法
  6
CONTINUOUS
 62
    4
 10
1979.8164462322188
 20
1118.0788812305547
 11
2269.8164462322188
 21
1118.0788812305547
  0
TEXT
  8
_0-9_ラッチ断面__受け
 62
    7
 10
2091.7164462322189
 20
1123.0788812305547
 40
35
 41
0.6285714285714286
 50
0
  1
２９０
  0
LINE
  8
_f-3__0-7_寸法
  6
CONTINUOUS
 62
    4
 10
2477.8570920036445
 20
1345.2410513398299
 11
2477.8570920036445
 21
745.24105133982959
  0
TEXT
  8
_0-9_ラッチ断面__受け
 62
    7
 10
2472.8570920036445
 20
1012.1410513398293
 40
35
 41
0.6285714285714286
 50
90
  1
６００
  0
POINT
  8
_0-9_ラッチ断面__受け
 62
    3
 10
2684.4728900719346
 20
1345.2410513398299
  0
POINT
  8
_0-9_ラッチ断面__受け
 62
    3
 10
2684.4728900719346
 20
1260.2410513398299
  0
LINE
  8
_0-9_ラッチ断面__受け
  6
CONTINUOUS
 62
    4
 10
2674.4728900719346
 20
1345.2410513398299
 11
2774.8913935730729
 21
1345.2410513398299
  0
LINE
  8
_0-9_ラッチ断面__受け
  6
CONTINUOUS
 62
    4
 10
2674.4728900719346
 20
1260.2410513398299
 11
2774.8913935730729
 21
1260.2410513398299
  0
LINE
  8
_0-9_ラッチ断面__受け
  6
CONTINUOUS
 62
    4
 10
2684.4728900719346
 20
1345.2410513398299
 11
2684.4728900719346
 21
1260.2410513398299
  0
TEXT
  8
_0-9_ラッチ断面__受け
 62
    7
 10
2679.4728900719346
 20
1280.6910513398297
 40
35
 41
0.6285714285714286
 50
90
  1
８５
  0
POINT
  8
_0-9_ラッチ断面__受け
 62
    3
 10
2684.4728900719346
 20
797.24105133982959
  0
POINT
  8
_0-9_ラッチ断面__受け
 62
    3
 10
2684.4728900719346
 20
752.24105133982959
  0
LINE
  8
_0-9_ラッチ断面__受け
  6
CONTINUOUS
 62
    4
 10
2674.4728900719346
 20
797.24105133982959
 11
2774.8913935730729
 21
797.24105133982959
  0
LINE
  8
_0-9_ラッチ断面__受け
  6
CONTINUOUS
 62
    4
 10
2674.4728900719346
 20
752.24105133982959
 11
2774.8913935730729
 21
752.24105133982959
  0
LINE
  8
_0-9_ラッチ断面__受け
  6
CONTINUOUS
 62
    4
 10
2684.4728900719346
 20
797.24105133982959
 11
2684.4728900719346
 21
752.24105133982959
  0
TEXT
  8
_0-9_ラッチ断面__受け
 62
    7
 10
2679.4728900719346
 20
706.49571130784829
 40
35
 41
0.6285714285714286
 50
90
  1
４５
  0
LINE
  8
_0-9_ラッチ断面__受け
  6
CONTINUOUS
 62
    4
 10
2684.4728900719346
 20
752.24105133982959
 11
2684.4728900719346
 21
709.64824629438317
  0
POINT
  8
_0-9_ラッチ断面__受け
 62
    3
 10
1367.8247627124023
 20
540.24105133982982
  0
LINE
  8
_0-9_ラッチ断面__受け
  6
CONTINUOUS
 62
    4
 10
1367.8247627124023
 20
530.24105133982982
 11
1367.8247627124023
 21
715.24105133982948
  0
POINT
  8
_0-9_ラッチ断面__受け
 62
    4
 10
2397.8570920036445
 20
925.24105133982959
  0
LINE
  8
_0-9_ラッチ断面__受け
  6
CONTINUOUS
 62
    4
 10
2407.8570920036445
 20
1165.2410513398297
 11
2317.8570920036445
 21
1165.2410513398297
  0
LINE
  8
_0-9_ラッチ断面__受け
  6
CONTINUOUS
 62
    4
 10
2407.8570920036445
 20
925.24105133982959
 11
2317.8570920036445
 21
925.24105133982959
  0
LINE
  8
_0-9_ラッチ断面__受け
  6
CONTINUOUS
 62
    4
 10
2407.8570920036445
 20
985.24105133982959
 11
2317.8570920036445
 21
985.24105133982959
  0
LINE
  8
_0-9_ラッチ断面__受け
  6
CONTINUOUS
 62
    4
 10
2407.8570920036445
 20
1045.2410513398297
 11
2317.8570920036445
 21
1045.2410513398297
  0
LINE
  8
_0-9_ラッチ断面__受け
  6
CONTINUOUS
 62
    4
 10
2407.8570920036445
 20
1105.2410513398297
 11
2317.8570920036445
 21
1105.2410513398297
  0
LINE
  8
_f-3__0-7_寸法
  6
CONTINUOUS
 62
    4
 10
2397.8570920036445
 20
1105.2410513398297
 11
2397.8570920036445
 21
1165.2410513398297
  0
TEXT
  8
_0-9_ラッチ断面__受け
 62
    7
 10
2392.8570920036445
 20
1113.1910513398295
 40
35
 41
0.6285714285714286
 50
90
  1
６０
  0
LINE
  8
_f-3__0-7_寸法
  6
CONTINUOUS
 62
    4
 10
2397.8570920036445
 20
1045.2410513398297
 11
2397.8570920036445
 21
1105.2410513398297
  0
TEXT
  8
_0-9_ラッチ断面__受け
 62
    7
 10
2392.8570920036445
 20
1053.1910513398295
 40
35
 41
0.6285714285714286
 50
90
  1
６０
  0
LINE
  8
_f-3__0-7_寸法
  6
CONTINUOUS
 62
    4
 10
2397.8570920036445
 20
985.24105133982959
 11
2397.8570920036445
 21
1045.2410513398297
  0
TEXT
  8
_0-9_ラッチ断面__受け
 62
    7
 10
2392.8570920036445
 20
993.19105133982952
 40
35
 41
0.6285714285714286
 50
90
  1
６０
  0
LINE
  8
_f-3__0-7_寸法
  6
CONTINUOUS
 62
    4
 10
2397.8570920036445
 20
925.24105133982959
 11
2397.8570920036445
 21
985.24105133982959
  0
TEXT
  8
_0-9_ラッチ断面__受け
 62
    7
 10
2392.8570920036445
 20
933.19105133982952
 40
35
 41
0.6285714285714286
 50
90
  1
６０
  0
POINT
  8
_0-9_ラッチ断面__受け
 62
    3
 10
2397.8570920036445
 20
745.24105133982959
  0
POINT
  8
_0-9_ラッチ断面__受け
 62
    3
 10
2397.8570920036445
 20
925.24105133982959
  0
LINE
  8
_0-9_ラッチ断面__受け
  6
CONTINUOUS
 62
    4
 10
2407.8570920036445
 20
745.24105133982959
 11
2317.8570920036445
 21
745.24105133982959
  0
LINE
  8
_0-9_ラッチ断面__受け
  6
CONTINUOUS
 62
    4
 10
2407.8570920036445
 20
925.24105133982959
 11
2317.8570920036445
 21
925.24105133982959
  0
LINE
  8
_0-9_ラッチ断面__受け
  6
CONTINUOUS
 62
    4
 10
2397.8570920036445
 20
745.24105133982959
 11
2397.8570920036445
 21
925.24105133982959
  0
TEXT
  8
_0-9_ラッチ断面__受け
 62
    7
 10
2392.8570920036445
 20
802.14105133982957
 40
35
 41
0.6285714285714286
 50
90
  1
１８０
  0
LINE
  8
_0-3_断面__扉
  6
DASHED1
 62
    4
 10
634.82476271240238
 20
2530.7744603287765
 11
1360.8247627124028
 21
2530.7744603287765
  0
LINE
  8
_0-9_ラッチ断面__受け
  6
CONTINUOUS
 62
    4
 10
2287.8570920036445
 20
1575.2410513398299
 11
2287.8570920036445
 21
1375.2410513398299
  0
POINT
  8
_0-9_ラッチ断面__受け
 62
    3
 10
2287.8570920036445
 20
1575.2410513398299
  0
LINE
  8
_0-9_ラッチ断面__受け
  6
CONTINUOUS
 62
    4
 10
1929.8570920036445
 20
1575.2410513398299
 11
1929.8570920036445
 21
1375.2410513398299
  0
POINT
  8
_0-9_ラッチ断面__受け
 62
    3
 10
1929.8570920036445
 20
1575.2410513398299
  0
POINT
  8
_0-9_ラッチ断面__受け
 62
    3
 10
1929.8570920036445
 20
1575.2410513398299
  0
POINT
  8
_0-9_ラッチ断面__受け
 62
    3
 10
2287.8570920036445
 20
1575.2410513398299
  0
LINE
  8
_0-9_ラッチ断面__受け
  6
CONTINUOUS
 62
    4
 10
1929.8570920036445
 20
1575.2410513398299
 11
2287.8570920036445
 21
1575.2410513398299
  0
TEXT
  8
_0-9_ラッチ断面__受け
 62
    7
 10
2075.7570920036441
 20
1575.2410513398299
 40
35
 41
0.6285714285714286
 50
0
  1
３５８
  0
POINT
  8
_0-9_ラッチ断面__受け
 62
    9
 10
2287.8570920036445
 20
1495.2410513398299
  0
POINT
  8
_0-9_ラッチ断面__受け
 62
    9
 10
1945.8570920036454
 20
1495.2410513398299
  0
POINT
  8
_0-9_ラッチ断面__受け
 62
    9
 10
1945.8570920036454
 20
1495.2410513398299
  0
LINE
  8
_0-9_ラッチ断面__受け
  6
CONTINUOUS
 62
    4
 10
1945.8570920036454
 20
1495.2410513398299
 11
1945.8570920036454
 21
1375.2410513398299
  0
POINT
  8
_0-9_ラッチ断面__受け
 62
    3
 10
1945.8570920036454
 20
1495.2410513398299
  0
POINT
  8
_0-9_ラッチ断面__受け
 62
    3
 10
2287.8570920036445
 20
1495.2410513398299
  0
LINE
  8
_0-9_ラッチ断面__受け
  6
CONTINUOUS
 62
    4
 10
1945.8570920036454
 20
1495.2410513398299
 11
2287.8570920036445
 21
1495.2410513398299
  0
TEXT
  8
_0-9_ラッチ断面__受け
 62
    7
 10
2083.757092003645
 20
1500.2410513398299
 40
35
 41
0.6285714285714286
 50
0
  1
３４２
  0
LINE
  8
_0-4_背面本体
  6
CONTINUOUS
 62
    3
 10
973.32476271240352
 20
2187.7744603287765
 11
973.32476271240352
 21
2199.7744603287765
  0
LINE
  8
_0-4_背面本体
  6
CONTINUOUS
 62
    3
 10
972.32476271240329
 20
2187.7744603287765
 11
972.32476271240329
 21
2199.7744603287765
  0
LINE
  8
_0-4_背面本体
  6
CONTINUOUS
 62
    3
 10
973.32476271240352
 20
2199.7744603287765
 11
1367.3247627124035
 21
2199.7744603287765
  0
LINE
  8
_0-4_背面本体
  6
CONTINUOUS
 62
    3
 10
1367.3247627124035
 20
2187.7744603287765
 11
1367.3247627124035
 21
2199.7744603287765
  0
LINE
  8
_0-4_背面本体
  6
CONTINUOUS
 62
    3
 10
973.32476271240352
 20
2187.7744603287765
 11
1367.3247627124035
 21
2187.7744603287765
  0
LINE
  8
_0-4_背面本体
  6
CONTINUOUS
 62
    3
 10
973.32476271240284
 20
1340.2410513398297
 11
1367.3247627124028
 21
1340.2410513398297
  0
ARC
  8
_0-5_平面本体
  6
CONTINUOUS
 62
    4
 10
969.32476271240329
 20
734.24105133982948
 40
3.0000000000000004
 50
0
 51
90
  0
ARC
  8
_0-5_平面本体
  6
CONTINUOUS
 62
    4
 10
1364.3247627124026
 20
734.24105133982948
 40
3.0000000000000004
 50
0
 51
90
  0
LINE
  8
_0-5_平面本体
  6
CONTINUOUS
 62
    4
 10
1367.3247627124028
 20
766.24105133982925
 11
973.32476271240284
 21
766.24105133982925
  0
LINE
  8
_0-5_平面本体
  6
CONTINUOUS
 62
    4
 10
1367.3247627124028
 20
758.64105133982661
 11
973.32476271240284
 21
758.64105133982661
  0
LINE
  8
_0-5_平面本体
  6
CONTINUOUS
 62
    4
 10
1367.3247627124028
 20
730.24105133982959
 11
973.32476271240284
 21
730.24105133982959
  0
ARC
  8
_0-5_平面本体
  6
CONTINUOUS
 62
    4
 10
976.32476271240284
 20
734.24105133982948
 40
3.0000000000000004
 50
90
 51
180
  0
LINE
  8
_0-5_平面本体
  6
CONTINUOUS
 62
    4
 10
976.32476271240284
 20
737.24105133982959
 11
1364.3247627124026
 21
737.24105133982959
  0
LINE
  8
_0-4_背面本体
  6
CONTINUOUS
 62
    3
 10
972.32476271240307
 20
1340.2410513398297
 11
972.32476271240307
 21
730.24105133982959
  0
LINE
  8
_0-4_背面本体
  6
CONTINUOUS
 62
    3
 10
973.32476271240284
 20
1340.2410513398297
 11
973.32476271240284
 21
730.24105133982959
  0
LINE
  8
_0-4_背面本体
  6
CONTINUOUS
 62
    3
 10
1367.3247627124028
 20
1340.2410513398297
 11
1367.3247627124028
 21
730.24105133982959
  0
LINE
  8
_0-9_ラッチ断面__受け
  6
CONTINUOUS
 62
    4
 10
973.82476271240284
 20
530.24105133982982
 11
973.82476271240284
 21
715.24105133982948
  0
POINT
  8
_0-9_ラッチ断面__受け
 62
    3
 10
973.82476271240284
 20
540.24105133982982
  0
LINE
  8
_0-9_ラッチ断面__受け
  6
CONTINUOUS
 62
    4
 10
972.82476271240375
 20
530.24105133982982
 11
972.82476271240375
 21
715.24105133982948
  0
POINT
  8
_0-9_ラッチ断面__受け
 62
    3
 10
972.82476271240375
 20
540.24105133982982
  0
LINE
  8
_0-9_ラッチ断面__受け
  6
CONTINUOUS
 62
    4
 10
973.82476271240284
 20
540.24105133982982
 11
1367.8247627124023
 21
540.24105133982982
  0
TEXT
  8
_0-9_ラッチ断面__受け
 62
    7
 10
1137.7247627124027
 20
545.24105133982982
 40
35
 41
0.6285714285714286
 50
0
  1
３９４
  0
LINE
  8
_0-3_断面__扉
  6
CONTINUOUS
 62
    4
 10
572.82476271240284
 20
2545.7744603287765
 11
572.82476271240284
 21
2204.2744603287769
  0
LINE
  8
_0-3_断面__扉
  6
CONTINUOUS
 62
    4
 10
584.82476271240238
 20
2545.7744603287765
 11
584.82476271240238
 21
2204.2744603287769
  0
LINE
  8
_0-3_断面__扉
  6
CONTINUOUS
 62
    4
 10
572.82476271240284
 20
1345.2410513398297
 11
572.82476271240284
 21
745.24105133982948
  0
LINE
  8
_0-9_ラッチ断面__受け
  6
CONTINUOUS
 62
    4
 10
573.32476271240238
 20
1545.2410513398297
 11
573.32476271240238
 21
1375.2410513398297
  0
POINT
  8
_0-9_ラッチ断面__受け
 62
    4
 10
573.32476271240238
 20
1535.2410513398297
  0
LINE
  8
_0-9_ラッチ断面__受け
  6
CONTINUOUS
 62
    4
 10
573.32476271240238
 20
1545.2410513398297
 11
573.32476271240238
 21
1375.2410513398297
  0
POINT
  8
_0-9_ラッチ断面__受け
 62
    4
 10
573.32476271240238
 20
1535.2410513398297
  0
LINE
  8
_0-9_ラッチ断面__受け
  6
CONTINUOUS
 62
    4
 10
573.32476271240238
 20
1545.2410513398297
 11
573.32476271240238
 21
1375.2410513398297
  0
POINT
  8
_0-9_ラッチ断面__受け
 62
    4
 10
573.32476271240238
 20
1535.2410513398297
  0
LINE
  8
_0-9_ラッチ断面__受け
  6
CONTINUOUS
 62
    4
 10
573.32476271240238
 20
1545.2410513398297
 11
573.32476271240238
 21
1375.2410513398297
  0
LINE
  8
_0-9_ラッチ断面__受け
  6
CONTINUOUS
 62
    4
 10
572.82476271240284
 20
2745.7744603287765
 11
572.82476271240284
 21
2575.7744603287765
  0
POINT
  8
_0-9_ラッチ断面__受け
 62
    3
 10
578.82476271240307
 20
540.24105133982982
  0
LINE
  8
_0-9_ラッチ断面__受け
  6
CONTINUOUS
 62
    4
 10
578.82476271240307
 20
530.24105133982982
 11
578.82476271240307
 21
715.24105133982948
  0
LINE
  8
_0-4_背面本体
  6
CONTINUOUS
 62
    3
 10
578.32476271240329
 20
2187.7744603287765
 11
578.32476271240329
 21
2199.7744603287765
  0
ARC
  8
_0-5_平面本体
  6
CONTINUOUS
 62
    4
 10
581.32476271240329
 20
734.24105133982948
 40
3.0000000000000004
 50
90
 51
180
  0
LINE
  8
_0-4_背面本体
  6
CONTINUOUS
 62
    3
 10
578.32476271240295
 20
1340.2410513398297
 11
578.32476271240295
 21
730.24105133982959
  0
LINE
  8
_f-3__0-7_寸法
  6
CONTINUOUS
 62
    4
 10
572.82476271240284
 20
2735.7744603287765
 11
1372.8247627124028
 21
2735.7744603287765
  0
TEXT
  8
_0-9_ラッチ断面__受け
 62
    7
 10
939.72476271240293
 20
2740.7744603287765
 40
35
 41
0.6285714285714286
 50
0
  1
８００
  0
LINE
  8
_0-4_背面本体
  6
CONTINUOUS
 62
    3
 10
578.32476271240329
 20
2199.7744603287765
 11
972.32476271240329
 21
2199.7744603287765
  0
LINE
  8
_0-3_断面__扉
  6
CONTINUOUS
 62
    4
 10
572.82476271240284
 20
2204.2744603287769
 11
1372.8247627124028
 21
2204.2744603287769
  0
LINE
  8
_0-3_断面__扉
  6
CONTINUOUS
 62
    4
 10
572.82476271240284
 20
2545.7744603287765
 11
1372.8247627124028
 21
2545.7744603287765
  0
LINE
  8
_0-3_断面__扉
  6
CONTINUOUS
 62
    4
 10
584.82476271240238
 20
2530.7744603287765
 11
1360.8247627124028
 21
2530.7744603287765
  0
LINE
  8
_f-3__0-7_寸法
  6
CONTINUOUS
 62
    4
 10
573.32476271240238
 20
1535.2410513398297
 11
1373.3247627124023
 21
1535.2410513398297
  0
TEXT
  8
_0-9_ラッチ断面__受け
 62
    7
 10
940.22476271240248
 20
1540.2410513398297
 40
35
 41
0.6285714285714286
 50
0
  1
８００
  0
LINE
  8
_0-3_断面__扉
  6
CONTINUOUS
 62
    4
 10
1372.8247627124023
 20
1345.2410513398297
 11
572.82476271240284
 21
1345.2410513398297
  0
LINE
  8
_0-3_断面__扉
  6
DASHED1
 62
    2
 10
1360.8247627124026
 20
1330.7410513398294
 11
584.82476271240238
 21
1330.7410513398294
  0
LINE
  8
_0-4_背面本体
  6
CONTINUOUS
 62
    3
 10
972.32476271240307
 20
1340.2410513398297
 11
578.32476271240295
 21
1340.2410513398297
  0
LINE
  8
_0-5_平面本体
  6
CONTINUOUS
 62
    4
 10
972.32476271240307
 20
730.24105133982959
 11
578.32476271240295
 21
730.24105133982959
  0
LINE
  8
_0-5_平面本体
  6
CONTINUOUS
 62
    4
 10
581.32476271240329
 20
737.24105133982959
 11
969.32476271240329
 21
737.24105133982959
  0
LINE
  8
_0-3_断面__扉
  6
DASHED1
 62
    2
 10
584.82476271240238
 20
760.24105133982948
 11
1360.8247627124026
 21
760.24105133982948
  0
LINE
  8
_0-3_断面__扉
  6
DASHED1
 62
    2
 10
578.32476271240295
 20
745.24105133982948
 11
1367.8247627124023
 21
745.24105133982948
  0
LINE
  8
_0-5_平面本体
  6
CONTINUOUS
 62
    4
 10
972.32476271240307
 20
758.64105133982661
 11
578.32476271240295
 21
758.64105133982661
  0
LINE
  8
_0-5_平面本体
  6
CONTINUOUS
 62
    4
 10
972.32476271240307
 20
766.24105133982925
 11
578.32476271240295
 21
766.24105133982925
  0
LINE
  8
_0-3_断面__扉
  6
CONTINUOUS
 62
    4
 10
572.82476271240284
 20
745.24105133982948
 11
584.82476271240238
 21
745.24105133982948
  0
LINE
  8
_0-9_ラッチ断面__受け
  6
CONTINUOUS
 62
    4
 10
578.82476271240307
 20
540.24105133982982
 11
972.82476271240375
 21
540.24105133982982
  0
TEXT
  8
_0-9_ラッチ断面__受け
 62
    7
 10
742.7247627124035
 20
545.24105133982982
 40
35
 41
0.6285714285714286
 50
0
  1
３９４
  0
LINE
  8
_0-4_背面本体
  6
CENTER1
 62
    4
 10
972.32476271240307
 20
1340.2410513398297
 11
578.32476271240295
 21
1035.2410513398294
  0
LINE
  8
_0-4_背面本体
  6
CENTER1
 62
    4
 10
578.32476271240295
 20
1035.2410513398294
 11
972.32476271240307
 21
730.24105133982959
  0
LINE
  8
_0-4_背面本体
  6
CENTER1
 62
    4
 10
973.32476271240284
 20
730.24105133982959
 11
1367.3247627124028
 21
1035.2410513398294
  0
LINE
  8
_0-4_背面本体
  6
CENTER1
 62
    4
 10
1367.3247627124028
 20
1035.2410513398294
 11
973.32476271240284
 21
1340.2410513398297
  0
LINE
  8
_0-3_断面__扉
  6
CONTINUOUS
 62
    5
 10
3592.8913935730729
 20
1345.2410513398299
 11
3592.8913935730729
 21
745.2410513398297
  0
LINE
  8
_0-3_断面__扉
  6
CONTINUOUS
 62
    5
 10
3604.8913935730729
 20
1345.2410513398299
 11
3604.8913935730729
 21
745.2410513398297
  0
LINE
  8
_0-a_ラッチ平面受け
  6
CONTINUOUS
 62
    4
 10
3565.7287836926234
 20
1260.2410513398288
 11
3592.8913935730747
 21
1287.4036612202803
  0
LINE
  8
_0-a_ラッチ平面受け
  6
CONTINUOUS
 62
    4
 10
3537.4445124451585
 20
1260.241051339831
 11
3592.8913935730729
 21
1315.6879324677452
  0
LINE
  8
_0-a_ラッチ平面受け
  6
CONTINUOUS
 62
    4
 10
3509.1602411976896
 20
1260.2410513398283
 11
3592.8913935730715
 21
1343.9722037152102
  0
LINE
  8
_0-a_ラッチ平面受け
  6
CONTINUOUS
 62
    4
 10
3480.8759699502397
 20
1260.2410513398269
 11
3565.8759699502379
 21
1345.2410513398249
  0
LINE
  8
_0-a_ラッチ平面受け
  6
CONTINUOUS
 62
    4
 10
3452.5916987027758
 20
1260.2410513398294
 11
3537.5916987027731
 21
1345.2410513398274
  0
LINE
  8
_0-a_ラッチ平面受け
  6
CONTINUOUS
 62
    4
 10
3424.3074274553059
 20
1260.2410513398267
 11
3509.3074274553091
 21
1345.2410513398297
  0
LINE
  8
_0-a_ラッチ平面受け
  6
CONTINUOUS
 62
    4
 10
3396.0231562078415
 20
1260.241051339829
 11
3481.0231562078452
 21
1345.2410513398326
  0
LINE
  8
_0-a_ラッチ平面受け
  6
CONTINUOUS
 62
    4
 10
3367.7388849603921
 20
1260.2410513398278
 11
3452.7388849603898
 21
1345.2410513398258
  0
LINE
  8
_0-a_ラッチ平面受け
  6
CONTINUOUS
 62
    4
 10
3566.8456661469335
 20
752.24105133983016
 11
3592.8913935730702
 21
778.2867787659668
  0
LINE
  8
_0-a_ラッチ平面受け
  6
CONTINUOUS
 62
    4
 10
3538.5613948994696
 20
752.24105133983243
 11
3583.5613948994678
 21
797.24105133983073
  0
LINE
  8
_0-a_ラッチ平面受け
  6
CONTINUOUS
 62
    4
 10
3510.2771236520197
 20
752.24105133983118
 11
3555.2771236520175
 21
797.24105133982925
  0
LINE
  8
_0-a_ラッチ平面受け
  6
CONTINUOUS
 62
    4
 10
3481.9928524045553
 20
752.24105133983357
 11
3526.9928524045535
 21
797.24105133983186
  0
LINE
  8
_0-a_ラッチ平面受け
  6
CONTINUOUS
 62
    4
 10
3453.7085811570859
 20
752.24105133983073
 11
3498.7085811570891
 21
797.24105133983425
  0
LINE
  8
_0-a_ラッチ平面受け
  6
CONTINUOUS
 62
    4
 10
3425.424309909622
 20
752.24105133983334
 11
3470.4243099096197
 21
797.24105133983141
  0
LINE
  8
_0-a_ラッチ平面受け
  6
CONTINUOUS
 62
    4
 10
3397.1400386621717
 20
752.24105133983186
 11
3442.1400386621698
 21
797.24105133983016
  0
LINE
  8
_0-a_ラッチ平面受け
  6
CONTINUOUS
 62
    4
 10
3368.8557674147077
 20
752.24105133983425
 11
3413.8557674147059
 21
797.24105133983255
  0
LINE
  8
_0-9_ラッチ断面__受け
  6
CONTINUOUS
 62
    4
 10
3604.8913935730729
 20
1545.2410513398297
 11
3604.8913935730729
 21
1375.2410513398297
  0
POINT
  8
_0-9_ラッチ断面__受け
 62
    4
 10
3604.8913935730729
 20
1535.2410513398297
  0
LINE
  8
_0-9_ラッチ断面__受け
  6
CONTINUOUS
 62
    4
 10
3604.8913935730729
 20
1545.2410513398297
 11
3604.8913935730729
 21
1375.2410513398297
  0
POINT
  8
_0-9_ラッチ断面__受け
 62
    4
 10
3604.8913935730729
 20
1535.2410513398297
  0
LINE
  8
_0-9_ラッチ断面__受け
  6
CONTINUOUS
 62
    4
 10
3604.8913935730729
 20
1545.2410513398297
 11
3604.8913935730729
 21
1375.2410513398297
  0
POINT
  8
_0-9_ラッチ断面__受け
 62
    4
 10
3604.8913935730729
 20
1535.2410513398297
  0
LINE
  8
_0-9_ラッチ断面__受け
  6
CONTINUOUS
 62
    4
 10
3604.8913935730729
 20
1545.2410513398297
 11
3604.8913935730729
 21
1375.2410513398297
  0
LINE
  8
_0-9_ラッチ断面__受け
  6
CONTINUOUS
 62
    4
 10
3592.8913935730729
 20
545.2410513398297
 11
3592.8913935730729
 21
715.2410513398297
  0
POINT
  8
_0-9_ラッチ断面__受け
 62
    4
 10
3592.8913935730729
 20
555.2410513398297
  0
LINE
  8
_0-9_ラッチ断面__受け
  6
CONTINUOUS
 62
    4
 10
3592.8913935730729
 20
545.2410513398297
 11
3592.8913935730729
 21
715.2410513398297
  0
POINT
  8
_0-9_ラッチ断面__受け
 62
    4
 10
3592.8913935730729
 20
555.2410513398297
  0
LINE
  8
_0-9_ラッチ断面__受け
  6
CONTINUOUS
 62
    4
 10
3592.8913935730729
 20
545.2410513398297
 11
3592.8913935730729
 21
715.2410513398297
  0
POINT
  8
_0-9_ラッチ断面__受け
 62
    4
 10
3592.8913935730729
 20
555.2410513398297
  0
LINE
  8
_0-9_ラッチ断面__受け
  6
CONTINUOUS
 62
    4
 10
3592.8913935730729
 20
545.2410513398297
 11
3592.8913935730729
 21
715.2410513398297
  0
LINE
  8
_f-3__0-7_寸法
  6
CONTINUOUS
 62
    4
 10
3604.8913935730729
 20
1535.2410513398297
 11
2804.8913935730729
 21
1535.2410513398297
  0
TEXT
  8
_0-9_ラッチ断面__受け
 62
    7
 10
3171.791393573073
 20
1540.2410513398297
 40
35
 41
0.6285714285714286
 50
0
  1
８００
  0
LINE
  8
_f-3__0-7_寸法
  6
CONTINUOUS
 62
    4
 10
2816.8913935730729
 20
555.2410513398297
 11
3592.8913935730729
 21
555.2410513398297
  0
TEXT
  8
_0-9_ラッチ断面__受け
 62
    7
 10
3171.791393573073
 20
560.2410513398297
 40
35
 41
0.6285714285714286
 50
0
  1
７７６
  0
LINE
  8
_0-3_断面__扉
  6
CONTINUOUS
 62
    2
 10
2816.8913935730729
 20
797.24105133982959
 11
3604.8913935730729
 21
797.24105133982959
  0
LINE
  8
_0-3_断面__扉
  6
CONTINUOUS
 62
    5
 10
2804.8913935730729
 20
745.2410513398297
 11
3604.8913935730729
 21
745.2410513398297
  0
LINE
  8
_0-3_断面__扉
  6
CONTINUOUS
 62
    4
 10
2816.8913935730729
 20
752.24105133982959
 11
3592.8913935730729
 21
752.24105133982959
  0
LINE
  8
_0-3_断面__扉
  6
CONTINUOUS
 62
    2
 10
2816.8913935730729
 20
1260.2410513398299
 11
3592.8913935730729
 21
1260.2410513398299
  0
LINE
  8
_0-3_断面__扉
  6
CONTINUOUS
 62
    5
 10
2804.8913935730729
 20
1345.2410513398299
 11
3604.8913935730729
 21
1345.2410513398299
  0
LINE
  8
_0-a_ラッチ平面受け
  6
CONTINUOUS
 62
    4
 10
3346.0231562078615
 20
1260.2410513398303
 11
3431.0231562078593
 21
1345.2410513398281
  0
LINE
  8
_0-a_ラッチ平面受け
  6
CONTINUOUS
 62
    4
 10
3317.7388849603912
 20
1260.2410513398274
 11
3402.7388849603948
 21
1345.2410513398306
  0
LINE
  8
_0-a_ラッチ平面受け
  6
CONTINUOUS
 62
    4
 10
3347.1400386621517
 20
752.24105133983152
 11
3392.1400386621553
 21
797.24105133983493
  0
LINE
  8
_0-a_ラッチ平面受け
  6
CONTINUOUS
 62
    4
 10
3318.8557674146877
 20
752.24105133983402
 11
3363.8557674146859
 21
797.24105133983221
  0
CIRCLE
  8
_0-0_立面本体
  6
CONTINUOUS
 62
    7
 10
1994.8570920036449
 20
1045.2410513398288
 40
1.5000000000000002
  0
LINE
  8
_0-0_立面本体
  6
CONTINUOUS
 62
    7
 10
1999.8570920036449
 20
1046.3099263398289
 11
1999.8570920036449
 21
1047.241051339829
  0
LINE
  8
_0-0_立面本体
  6
CONTINUOUS
 62
    7
 10
1999.8570920036449
 20
1047.241051339829
 11
2000.7858670036453
 21
1047.307376339829
  0
LINE
  8
_0-0_立面本体
  6
CONTINUOUS
 62
    7
 10
1989.8570920036449
 20
1045.2410513398288
 11
1989.8570920036449
 21
1046.241051339829
  0
LINE
  8
_0-0_立面本体
  6
CONTINUOUS
 62
    7
 10
1988.8570920036452
 20
1047.241051339829
 11
1976.3570920036452
 21
1047.241051339829
  0
LINE
  8
_0-0_立面本体
  6
CONTINUOUS
 62
    7
 10
1999.8570920036449
 20
1045.2410513398288
 11
1999.8570920036449
 21
1046.3099263398289
  0
LINE
  8
_0-0_立面本体
  6
CONTINUOUS
 62
    7
 10
2000.7858670036453
 20
1047.307376339829
 11
2012.9283420036451
 21
1048.1747013398287
  0
LINE
  8
_0-0_立面本体
  6
CONTINUOUS
 62
    7
 10
2013.8570920036452
 20
1049.1721513398288
 11
2013.8570920036452
 21
1049.241051339829
  0
LINE
  8
_0-0_立面本体
  6
CONTINUOUS
 62
    7
 10
1981.4910670036451
 20
1067.241051339829
 11
1979.6146920036451
 21
1070.491051339829
  0
LINE
  8
_0-0_立面本体
  6
CONTINUOUS
 62
    7
 10
2012.8570920036452
 20
1050.2410513398288
 11
1977.3570920036449
 21
1050.2410513398288
  0
LINE
  8
_0-0_立面本体
  6
CONTINUOUS
 62
    7
 10
1980.6250420036451
 20
1065.741051339829
 11
1977.3570920036449
 21
1065.741051339829
  0
LINE
  8
_0-0_立面本体
  6
CONTINUOUS
 62
    7
 10
1976.3570920036452
 20
1064.741051339829
 11
1976.3570920036452
 21
1051.241051339829
  0
ARC
  8
_0-0_立面本体
  6
CONTINUOUS
 62
    7
 10
1976.3570920036452
 20
1051.0410513398289
 40
3.7999999999999998
 50
177.46800000000004
 51
270.00000000000005
  0
ARC
  8
_0-0_立面本体
  6
CONTINUOUS
 62
    7
 10
1994.8570920036449
 20
1045.2410513398288
 40
5
 50
180.00000000000005
 51
0.0000000000001017
  0
CIRCLE
  8
_0-0_立面本体
  6
PHANTOM2
 62
    7
 10
1994.8570920036449
 20
1045.2410513398288
 40
4.0999999999999996
  0
CIRCLE
  8
_0-0_立面本体
  6
PHANTOM2
 62
    7
 10
1994.8570920036449
 20
1045.2410513398288
 40
1.925
  0
ARC
  8
_0-0_立面本体
  6
CONTINUOUS
 62
    7
 10
1974.5138670036451
 20
1069.741051339829
 40
1
 50
90.000000000000028
 51
177.46800000000004
  0
ARC
  8
_0-0_立面本体
  6
CONTINUOUS
 62
    7
 10
1979.181667003645
 20
1070.2410513398288
 40
0.5
 50
30.000000000000003
 51
90.000000000000028
  0
ARC
  8
_0-0_立面本体
  6
CONTINUOUS
 62
    7
 10
1988.8570920036452
 20
1046.241051339829
 40
1
 50
0
 51
90.000000000000028
  0
ARC
  8
_0-0_立面本体
  6
CONTINUOUS
 62
    7
 10
2000.8570920036449
 20
1046.3099263398289
 40
1
 50
94.086000000000041
 51
180.00000000000005
  0
ARC
  8
_0-0_立面本体
  6
CONTINUOUS
 62
    7
 10
2012.8570920036452
 20
1049.1721513398288
 40
1
 50
274.08600000000006
 51
0.0000000000000508
  0
ARC
  8
_0-0_立面本体
  6
CONTINUOUS
 62
    7
 10
2012.8570920036452
 20
1049.241051339829
 40
1
 50
0
 51
90.000000000000028
  0
ARC
  8
_0-0_立面本体
  6
CONTINUOUS
 62
    7
 10
1980.6250420036451
 20
1066.741051339829
 40
1
 50
270.00000000000005
 51
30.000000000000042
  0
ARC
  8
_0-0_立面本体
  6
CONTINUOUS
 62
    7
 10
1977.3570920036449
 20
1064.741051339829
 40
1
 50
90.000000000000028
 51
180.00000000000005
  0
ARC
  8
_0-0_立面本体
  6
CONTINUOUS
 62
    7
 10
1977.3570920036449
 20
1051.241051339829
 40
1
 50
180.00000000000005
 51
270.00000000000005
  0
LINE
  8
_0-0_立面本体
  6
CONTINUOUS
 62
    7
 10
1974.5138670036451
 20
1070.741051339829
 11
1979.181667003645
 21
1070.741051339829
  0
LINE
  8
_0-0_立面本体
  6
CONTINUOUS
 62
    7
 10
1972.5608170036452
 20
1051.208901339829
 11
1973.5155639528941
 21
1069.7992837952224
  0
LINE
  8
_0-0_立面本体
  6
CENTER1
 62
    7
 10
1994.8570920036449
 20
1045.2410513398288
 11
1994.8570920036449
 21
1039.1263234621706
  0
LINE
  8
_0-0_立面本体
  6
CENTER1
 62
    7
 10
1994.8570920036449
 20
1045.2410513398288
 11
1994.8570920036449
 21
1051.3384542918815
  0
LINE
  8
_0-0_立面本体
  6
CENTER1
 62
    7
 10
1994.9699540747647
 20
1045.2410513398288
 11
1992.2903156528332
 21
1045.2410513398288
  0
LINE
  8
_0-0_立面本体
  6
CENTER1
 62
    7
 10
1994.9699540747647
 20
1045.2410513398288
 11
1997.63523717941
 21
1045.2410513398288
  0
ARC
  8
_0-0_立面本体
  6
CONTINUOUS
 62
    7
 10
2261.0891420036455
 20
1066.741051339829
 40
1
 50
149.99999999999994
 51
269.99999999999994
  0
CIRCLE
  8
_0-0_立面本体
  6
CONTINUOUS
 62
    7
 10
2246.8570920036454
 20
1045.2410513398288
 40
1.5000000000000002
  0
LINE
  8
_0-0_立面本体
  6
CONTINUOUS
 62
    7
 10
2241.8570920036454
 20
1046.3099263398289
 11
2241.8570920036454
 21
1047.241051339829
  0
LINE
  8
_0-0_立面本体
  6
CONTINUOUS
 62
    7
 10
2241.8570920036454
 20
1047.241051339829
 11
2240.9283170036451
 21
1047.307376339829
  0
LINE
  8
_0-0_立面本体
  6
CONTINUOUS
 62
    7
 10
2251.8570920036454
 20
1045.2410513398288
 11
2251.8570920036454
 21
1046.241051339829
  0
LINE
  8
_0-0_立面本体
  6
CONTINUOUS
 62
    7
 10
2252.8570920036454
 20
1047.241051339829
 11
2265.3570920036454
 21
1047.241051339829
  0
LINE
  8
_0-0_立面本体
  6
CONTINUOUS
 62
    7
 10
2241.8570920036454
 20
1045.2410513398288
 11
2241.8570920036454
 21
1046.3099263398289
  0
LINE
  8
_0-0_立面本体
  6
CONTINUOUS
 62
    7
 10
2240.9283170036451
 20
1047.307376339829
 11
2228.785842003645
 21
1048.1747013398287
  0
LINE
  8
_0-0_立面本体
  6
CONTINUOUS
 62
    7
 10
2227.8570920036454
 20
1049.1721513398288
 11
2227.8570920036454
 21
1049.241051339829
  0
LINE
  8
_0-0_立面本体
  6
CONTINUOUS
 62
    7
 10
2260.2231170036457
 20
1067.241051339829
 11
2262.0994920036455
 21
1070.491051339829
  0
LINE
  8
_0-0_立面本体
  6
CONTINUOUS
 62
    7
 10
2228.8570920036454
 20
1050.2410513398288
 11
2264.3570920036454
 21
1050.2410513398288
  0
LINE
  8
_0-0_立面本体
  6
CONTINUOUS
 62
    7
 10
2261.0891420036455
 20
1065.741051339829
 11
2264.3570920036454
 21
1065.741051339829
  0
LINE
  8
_0-0_立面本体
  6
CONTINUOUS
 62
    7
 10
2265.3570920036454
 20
1064.741051339829
 11
2265.3570920036454
 21
1051.241051339829
  0
ARC
  8
_0-0_立面本体
  6
CONTINUOUS
 62
    7
 10
2265.3570920036454
 20
1051.0410513398289
 40
3.7999999999999998
 50
269.99999999999994
 51
2.5319999999999902
  0
ARC
  8
_0-0_立面本体
  6
CONTINUOUS
 62
    7
 10
2246.8570920036454
 20
1045.2410513398288
 40
5
 50
179.99999999999985
 51
359.99999999999988
  0
CIRCLE
  8
_0-0_立面本体
  6
PHANTOM2
 62
    7
 10
2246.8570920036454
 20
1045.2410513398288
 40
4.0999999999999996
  0
CIRCLE
  8
_0-0_立面本体
  6
PHANTOM2
 62
    7
 10
2246.8570920036454
 20
1045.2410513398288
 40
1.925
  0
ARC
  8
_0-0_立面本体
  6
CONTINUOUS
 62
    7
 10
2267.200317003645
 20
1069.741051339829
 40
1
 50
2.531999999999964
 51
89.999999999999943
  0
ARC
  8
_0-0_立面本体
  6
CONTINUOUS
 62
    7
 10
2262.5325170036453
 20
1070.2410513398288
 40
0.5
 50
89.999999999999985
 51
149.99999999999997
  0
ARC
  8
_0-0_立面本体
  6
CONTINUOUS
 62
    7
 10
2252.8570920036454
 20
1046.241051339829
 40
1
 50
89.999999999999971
 51
180
  0
ARC
  8
_0-0_立面本体
  6
CONTINUOUS
 62
    7
 10
2240.8570920036454
 20
1046.3099263398289
 40
1
 50
359.99999999999994
 51
85.913999999999987
  0
ARC
  8
_0-0_立面本体
  6
CONTINUOUS
 62
    7
 10
2228.8570920036454
 20
1049.1721513398288
 40
1
 50
179.99999999999994
 51
265.91399999999993
  0
ARC
  8
_0-0_立面本体
  6
CONTINUOUS
 62
    7
 10
2228.8570920036454
 20
1049.241051339829
 40
1
 50
89.999999999999971
 51
180
  0
ARC
  8
_0-0_立面本体
  6
CONTINUOUS
 62
    7
 10
2264.3570920036454
 20
1064.741051339829
 40
1
 50
359.99999999999994
 51
89.999999999999943
  0
ARC
  8
_0-0_立面本体
  6
CONTINUOUS
 62
    7
 10
2264.3570920036454
 20
1051.241051339829
 40
1
 50
269.99999999999988
 51
359.99999999999988
  0
LINE
  8
_0-0_立面本体
  6
CONTINUOUS
 62
    7
 10
2267.200317003645
 20
1070.741051339829
 11
2262.5325170036453
 21
1070.741051339829
  0
LINE
  8
_0-0_立面本体
  6
CONTINUOUS
 62
    7
 10
2269.1533670036455
 20
1051.208901339829
 11
2268.198620054396
 21
1069.7992837952224
  0
LINE
  8
_0-0_立面本体
  6
CENTER1
 62
    7
 10
2246.8570920036454
 20
1045.2410513398288
 11
2246.8570920036454
 21
1039.1263234621706
  0
LINE
  8
_0-0_立面本体
  6
CENTER1
 62
    7
 10
2246.8570920036454
 20
1045.2410513398288
 11
2246.8570920036454
 21
1051.3384542918815
  0
LINE
  8
_0-0_立面本体
  6
CENTER1
 62
    7
 10
2246.7442299325257
 20
1045.2410513398288
 11
2249.4238683544572
 21
1045.2410513398288
  0
LINE
  8
_0-0_立面本体
  6
CENTER1
 62
    7
 10
2246.7442299325257
 20
1045.2410513398288
 11
2244.0789468278803
 21
1045.2410513398288
  0
ARC
  8
_0-0_立面本体
  6
CONTINUOUS
 62
    7
 10
1994.8570920036449
 20
1045.2410513398288
 40
7.0000000000000017
 50
45.585000000000007
 51
134.41500000000002
  0
ARC
  8
_0-0_立面本体
  6
CONTINUOUS
 62
    7
 10
1994.8570920036449
 20
1045.2410513398288
 40
11
 50
27.036000000000012
 51
152.96400000000005
  0
ARC
  8
_0-0_立面本体
  6
CONTINUOUS
 62
    7
 10
2246.8570920036454
 20
1045.2410513398288
 40
7.0000000000000017
 50
45.585000000000007
 51
134.41500000000002
  0
ARC
  8
_0-0_立面本体
  6
CONTINUOUS
 62
    7
 10
2246.8570920036454
 20
1045.2410513398288
 40
11
 50
27.036000000000012
 51
152.96400000000005
  0
LINE
  8
_0-0_立面本体
  6
DASHED1
 62
    7
 10
1370.8194627124025
 20
1045.241051339829
 11
1348.5385377124025
 21
1045.241051339829
  0
LINE
  8
_0-0_立面本体
  6
DASHED1
 62
    7
 10
1360.8247627124023
 20
1041.6410513398291
 11
1360.8247627124023
 21
1048.8410513398291
  0
LINE
  8
_0-0_立面本体
  6
DASHED1
 62
    7
 10
1360.0247627124026
 20
1047.741051339829
 11
1360.0247627124026
 21
1042.741051339829
  0
LINE
  8
_0-0_立面本体
  6
DASHED1
 62
    7
 10
1352.0247627124024
 20
1043.241051339829
 11
1359.5247627124024
 21
1043.241051339829
  0
LINE
  8
_0-0_立面本体
  6
DASHED1
 62
    7
 10
1360.0247627124026
 20
1042.741051339829
 11
1360.0247627124026
 21
1041.6410513398291
  0
LINE
  8
_0-0_立面本体
  6
DASHED1
 62
    7
 10
1361.3247627124023
 20
1042.8410513398289
 11
1369.3247627124026
 21
1042.8410513398289
  0
LINE
  8
_0-0_立面本体
  6
DASHED1
 62
    7
 10
1369.8247627124028
 20
1043.3410513398291
 11
1369.8247627124028
 21
1047.1410513398291
  0
LINE
  8
_0-0_立面本体
  6
DASHED1
 62
    7
 10
1369.3247627124026
 20
1047.6410513398291
 11
1361.3247627124023
 21
1047.6410513398291
  0
LINE
  8
_0-0_立面本体
  6
DASHED1
 62
    7
 10
1360.0247627124026
 20
1048.8410513398291
 11
1360.0247627124026
 21
1047.741051339829
  0
LINE
  8
_0-0_立面本体
  6
DASHED1
 62
    7
 10
1359.5247627124024
 20
1047.2410513398292
 11
1352.0247627124024
 21
1047.2410513398292
  0
LINE
  8
_0-0_立面本体
  6
DASHED1
 62
    7
 10
1352.0247627124024
 20
1047.2410513398292
 11
1352.0247627124024
 21
1043.241051339829
  0
LINE
  8
_0-0_立面本体
  6
DASHED1
 62
    7
 10
1351.6247627124027
 20
1046.741051339829
 11
1351.6247627124027
 21
1047.2410513398292
  0
LINE
  8
_0-0_立面本体
  6
DASHED1
 62
    7
 10
1350.8247627124023
 20
1049.3410513398291
 11
1350.8247627124023
 21
1040.741051339829
  0
LINE
  8
_0-0_立面本体
  6
DASHED1
 62
    7
 10
1351.6247627124027
 20
1046.741051339829
 11
1350.8247627124023
 21
1046.741051339829
  0
LINE
  8
_0-0_立面本体
  6
DASHED1
 62
    7
 10
1351.6247627124027
 20
1043.741051339829
 11
1350.8247627124023
 21
1043.741051339829
  0
LINE
  8
_0-0_立面本体
  6
DASHED1
 62
    7
 10
1360.8247627124023
 20
1043.241051339829
 11
1352.0247627124024
 21
1043.241051339829
  0
LINE
  8
_0-0_立面本体
  6
DASHED1
 62
    7
 10
1360.8247627124023
 20
1040.741051339829
 11
1360.8247627124023
 21
1043.241051339829
  0
LINE
  8
_0-0_立面本体
  6
DASHED1
 62
    7
 10
1352.0247627124024
 20
1043.241051339829
 11
1351.6247627124027
 21
1043.241051339829
  0
LINE
  8
_0-0_立面本体
  6
DASHED1
 62
    7
 10
1360.8247627124023
 20
1047.2410513398292
 11
1351.6247627124027
 21
1047.2410513398292
  0
LINE
  8
_0-0_立面本体
  6
DASHED1
 62
    7
 10
1351.6247627124027
 20
1043.241051339829
 11
1351.6247627124027
 21
1043.741051339829
  0
LINE
  8
_0-0_立面本体
  6
DASHED1
 62
    7
 10
1360.8247627124023
 20
1048.1747013398289
 11
1350.8247627124023
 21
1048.1747013398289
  0
LINE
  8
_0-0_立面本体
  6
DASHED1
 62
    7
 10
1351.6247627124027
 20
1047.2410513398292
 11
1350.8247627124023
 21
1047.2410513398292
  0
LINE
  8
_0-0_立面本体
  6
DASHED1
 62
    7
 10
1350.8247627124023
 20
1050.241051339829
 11
1350.8247627124023
 21
1049.3410513398291
  0
LINE
  8
_0-0_立面本体
  6
DASHED1
 62
    7
 10
1360.8247627124023
 20
1043.241051339829
 11
1360.8247627124023
 21
1050.241051339829
  0
LINE
  8
_0-0_立面本体
  6
DASHED1
 62
    7
 10
1360.3247627124028
 20
1070.741051339829
 11
1351.3247627124023
 21
1070.741051339829
  0
LINE
  8
_0-0_立面本体
  6
DASHED1
 62
    7
 10
1351.3247627124023
 20
1040.241051339829
 11
1360.3247627124028
 21
1040.241051339829
  0
LINE
  8
_0-0_立面本体
  6
DASHED1
 62
    7
 10
1362.3021627124023
 20
1045.241051339829
 11
1349.2283377124026
 21
1045.241051339829
  0
LINE
  8
_0-0_立面本体
  6
DASHED1
 62
    7
 10
1350.8247627124023
 20
1070.241051339829
 11
1350.8247627124023
 21
1050.241051339829
  0
ARC
  8
_0-0_立面本体
  6
DASHED1
 62
    7
 10
1361.3247627124023
 20
1048.1410513398291
 40
0.5
 50
179.99999999999991
 51
269.99999999999994
  0
ARC
  8
_0-0_立面本体
  6
DASHED1
 62
    7
 10
1361.3247627124023
 20
1042.3410513398291
 40
0.5
 50
89.999999999999971
 51
180
  0
ARC
  8
_0-0_立面本体
  6
DASHED1
 62
    7
 10
1359.5247627124024
 20
1042.741051339829
 40
0.5
 50
359.99999999999994
 51
89.999999999999943
  0
ARC
  8
_0-0_立面本体
  6
DASHED1
 62
    7
 10
1359.5247627124024
 20
1047.741051339829
 40
0.5
 50
269.99999999999988
 51
359.99999999999988
  0
ARC
  8
_0-0_立面本体
  6
DASHED1
 62
    7
 10
1369.3247627124026
 20
1047.1410513398291
 40
0.5
 50
359.99999999999994
 51
89.999999999999943
  0
ARC
  8
_0-0_立面本体
  6
DASHED1
 62
    7
 10
1369.3247627124026
 20
1043.3410513398291
 40
0.5
 50
269.99999999999988
 51
359.99999999999988
  0
ARC
  8
_0-0_立面本体
  6
DASHED1
 62
    7
 10
1360.4247627124027
 20
1041.6410513398291
 40
0.4
 50
179.99999999999991
 51
269.99999999999994
  0
ARC
  8
_0-0_立面本体
  6
DASHED1
 62
    7
 10
1360.4247627124027
 20
1041.6410513398291
 40
0.4
 50
269.99999999999988
 51
359.99999999999988
  0
ARC
  8
_0-0_立面本体
  6
DASHED1
 62
    7
 10
1360.4247627124027
 20
1048.8410513398291
 40
0.4
 50
359.99999999999994
 51
89.999999999999943
  0
ARC
  8
_0-0_立面本体
  6
DASHED1
 62
    7
 10
1360.4247627124027
 20
1048.8410513398291
 40
0.4
 50
89.999999999999971
 51
180
  0
ARC
  8
_0-0_立面本体
  6
DASHED1
 62
    7
 10
1360.3247627124028
 20
1070.241051339829
 40
0.5
 50
359.99999999999994
 51
89.999999999999943
  0
ARC
  8
_0-0_立面本体
  6
DASHED1
 62
    7
 10
1351.3247627124023
 20
1070.241051339829
 40
0.5
 50
89.999999999999971
 51
180
  0
ARC
  8
_0-0_立面本体
  6
DASHED1
 62
    7
 10
1351.3247627124023
 20
1040.741051339829
 40
0.5
 50
179.99999999999991
 51
269.99999999999994
  0
ARC
  8
_0-0_立面本体
  6
DASHED1
 62
    7
 10
1360.3247627124028
 20
1040.741051339829
 40
0.5
 50
269.99999999999988
 51
359.99999999999988
  0
LINE
  8
_0-0_立面本体
  6
DASHED1
 62
    7
 10
1360.8247627124023
 20
1050.241051339829
 11
1360.8247627124023
 21
1070.241051339829
  0
LINE
  8
_0-0_立面本体
  6
DASHED1
 62
    7
 10
574.83006271240219
 20
1045.241051339829
 11
597.11098771240222
 21
1045.241051339829
  0
LINE
  8
_0-0_立面本体
  6
DASHED1
 62
    7
 10
584.82476271240238
 20
1041.6410513398291
 11
584.82476271240238
 21
1048.8410513398291
  0
LINE
  8
_0-0_立面本体
  6
DASHED1
 62
    7
 10
585.62476271240234
 20
1047.741051339829
 11
585.62476271240234
 21
1042.741051339829
  0
LINE
  8
_0-0_立面本体
  6
DASHED1
 62
    7
 10
593.62476271240234
 20
1043.241051339829
 11
586.12476271240234
 21
1043.241051339829
  0
LINE
  8
_0-0_立面本体
  6
DASHED1
 62
    7
 10
585.62476271240234
 20
1042.741051339829
 11
585.62476271240234
 21
1041.6410513398291
  0
LINE
  8
_0-0_立面本体
  6
DASHED1
 62
    7
 10
584.32476271240238
 20
1042.8410513398289
 11
576.32476271240216
 21
1042.8410513398289
  0
LINE
  8
_0-0_立面本体
  6
DASHED1
 62
    7
 10
575.82476271240216
 20
1043.3410513398291
 11
575.82476271240216
 21
1047.1410513398291
  0
LINE
  8
_0-0_立面本体
  6
DASHED1
 62
    7
 10
576.32476271240216
 20
1047.6410513398291
 11
584.32476271240238
 21
1047.6410513398291
  0
LINE
  8
_0-0_立面本体
  6
DASHED1
 62
    7
 10
585.62476271240234
 20
1048.8410513398291
 11
585.62476271240234
 21
1047.741051339829
  0
LINE
  8
_0-0_立面本体
  6
DASHED1
 62
    7
 10
586.12476271240234
 20
1047.2410513398292
 11
593.62476271240234
 21
1047.2410513398292
  0
LINE
  8
_0-0_立面本体
  6
DASHED1
 62
    7
 10
593.62476271240234
 20
1047.2410513398292
 11
593.62476271240234
 21
1043.241051339829
  0
LINE
  8
_0-0_立面本体
  6
DASHED1
 62
    7
 10
594.02476271240198
 20
1046.741051339829
 11
594.02476271240198
 21
1047.2410513398292
  0
LINE
  8
_0-0_立面本体
  6
DASHED1
 62
    7
 10
594.82476271240238
 20
1049.3410513398291
 11
594.82476271240238
 21
1040.741051339829
  0
LINE
  8
_0-0_立面本体
  6
DASHED1
 62
    7
 10
594.02476271240198
 20
1046.741051339829
 11
594.82476271240238
 21
1046.741051339829
  0
LINE
  8
_0-0_立面本体
  6
DASHED1
 62
    7
 10
594.02476271240198
 20
1043.741051339829
 11
594.82476271240238
 21
1043.741051339829
  0
LINE
  8
_0-0_立面本体
  6
DASHED1
 62
    7
 10
584.82476271240238
 20
1043.241051339829
 11
593.62476271240234
 21
1043.241051339829
  0
LINE
  8
_0-0_立面本体
  6
DASHED1
 62
    7
 10
584.82476271240238
 20
1040.741051339829
 11
584.82476271240238
 21
1043.241051339829
  0
LINE
  8
_0-0_立面本体
  6
DASHED1
 62
    7
 10
593.62476271240234
 20
1043.241051339829
 11
594.02476271240198
 21
1043.241051339829
  0
LINE
  8
_0-0_立面本体
  6
DASHED1
 62
    7
 10
584.82476271240238
 20
1047.2410513398292
 11
594.02476271240198
 21
1047.2410513398292
  0
LINE
  8
_0-0_立面本体
  6
DASHED1
 62
    7
 10
594.02476271240198
 20
1043.241051339829
 11
594.02476271240198
 21
1043.741051339829
  0
LINE
  8
_0-0_立面本体
  6
DASHED1
 62
    7
 10
584.82476271240238
 20
1048.1747013398289
 11
594.82476271240238
 21
1048.1747013398289
  0
LINE
  8
_0-0_立面本体
  6
DASHED1
 62
    7
 10
594.02476271240198
 20
1047.2410513398292
 11
594.82476271240238
 21
1047.2410513398292
  0
LINE
  8
_0-0_立面本体
  6
DASHED1
 62
    7
 10
594.82476271240238
 20
1050.241051339829
 11
594.82476271240238
 21
1049.3410513398291
  0
LINE
  8
_0-0_立面本体
  6
DASHED1
 62
    7
 10
584.82476271240238
 20
1043.241051339829
 11
584.82476271240238
 21
1050.241051339829
  0
LINE
  8
_0-0_立面本体
  6
DASHED1
 62
    7
 10
585.32476271240193
 20
1070.741051339829
 11
594.32476271240238
 21
1070.741051339829
  0
LINE
  8
_0-0_立面本体
  6
DASHED1
 62
    7
 10
594.32476271240238
 20
1040.241051339829
 11
585.32476271240193
 21
1040.241051339829
  0
LINE
  8
_0-0_立面本体
  6
DASHED1
 62
    7
 10
583.3473627124024
 20
1045.241051339829
 11
596.42118771240211
 21
1045.241051339829
  0
LINE
  8
_0-0_立面本体
  6
DASHED1
 62
    7
 10
594.82476271240238
 20
1070.241051339829
 11
594.82476271240238
 21
1050.241051339829
  0
ARC
  8
_0-0_立面本体
  6
DASHED1
 62
    7
 10
584.32476271240238
 20
1048.1410513398291
 40
0.5
 50
270.00000000000005
 51
0.0000000000000508
  0
ARC
  8
_0-0_立面本体
  6
DASHED1
 62
    7
 10
584.32476271240238
 20
1042.3410513398291
 40
0.5
 50
0
 51
90.000000000000028
  0
ARC
  8
_0-0_立面本体
  6
DASHED1
 62
    7
 10
586.12476271240234
 20
1042.741051339829
 40
0.5
 50
90.000000000000028
 51
180.00000000000005
  0
ARC
  8
_0-0_立面本体
  6
DASHED1
 62
    7
 10
586.12476271240234
 20
1047.741051339829
 40
0.5
 50
180.00000000000005
 51
270.00000000000005
  0
ARC
  8
_0-0_立面本体
  6
DASHED1
 62
    7
 10
576.32476271240216
 20
1047.1410513398291
 40
0.5
 50
90.000000000000028
 51
180.00000000000005
  0
ARC
  8
_0-0_立面本体
  6
DASHED1
 62
    7
 10
576.32476271240216
 20
1043.3410513398291
 40
0.5
 50
180.00000000000005
 51
270.00000000000005
  0
ARC
  8
_0-0_立面本体
  6
DASHED1
 62
    7
 10
585.22476271240202
 20
1041.6410513398291
 40
0.4
 50
270.00000000000005
 51
0.0000000000000508
  0
ARC
  8
_0-0_立面本体
  6
DASHED1
 62
    7
 10
585.22476271240202
 20
1041.6410513398291
 40
0.4
 50
180.00000000000005
 51
270.00000000000005
  0
ARC
  8
_0-0_立面本体
  6
DASHED1
 62
    7
 10
585.22476271240202
 20
1048.8410513398291
 40
0.4
 50
90.000000000000028
 51
180.00000000000005
  0
ARC
  8
_0-0_立面本体
  6
DASHED1
 62
    7
 10
585.22476271240202
 20
1048.8410513398291
 40
0.4
 50
0
 51
90.000000000000028
  0
ARC
  8
_0-0_立面本体
  6
DASHED1
 62
    7
 10
585.32476271240193
 20
1070.241051339829
 40
0.5
 50
90.000000000000028
 51
180.00000000000005
  0
ARC
  8
_0-0_立面本体
  6
DASHED1
 62
    7
 10
594.32476271240238
 20
1070.241051339829
 40
0.5
 50
0
 51
90.000000000000028
  0
ARC
  8
_0-0_立面本体
  6
DASHED1
 62
    7
 10
594.32476271240238
 20
1040.741051339829
 40
0.5
 50
270.00000000000005
 51
0.0000000000000508
  0
ARC
  8
_0-0_立面本体
  6
DASHED1
 62
    7
 10
585.32476271240193
 20
1040.741051339829
 40
0.5
 50
180.00000000000005
 51
270.00000000000005
  0
LINE
  8
_0-0_立面本体
  6
DASHED1
 62
    7
 10
584.82476271240238
 20
1050.241051339829
 11
584.82476271240238
 21
1070.241051339829
  0
LINE
  8
_0-3_断面__扉
  6
DASHED1
 62
    4
 10
584.82476271240238
 20
2527.7744603287765
 11
1360.8247627124028
 21
2527.7744603287765
  0
LINE
  8
_0-3_断面__扉
  6
CONTINUOUS
 62
    4
 10
1945.8570920036454
 20
1345.2410513398299
 11
2287.8570920036445
 21
1345.2410513398299
  0
LINE
  8
_0-3_断面__扉
  6
CONTINUOUS
 62
    4
 10
2287.8570920036445
 20
1327.2410513398301
 11
2287.8570920036445
 21
1331.2410513398299
  0
LINE
  8
_0-3_断面__扉
  6
CONTINUOUS
 62
    4
 10
2287.8570920036445
 20
1345.2410513398299
 11
2287.8570920036445
 21
1331.2410513398299
  0
LINE
  8
_0-3_断面__扉
  6
CONTINUOUS
 62
    4
 10
2272.8570920036445
 20
1260.2410513398299
 11
2287.8570920036445
 21
1260.2410513398299
  0
LINE
  8
_0-3_断面__扉
  6
CONTINUOUS
 62
    4
 10
2287.8570920036445
 20
1345.2410513398299
 11
2272.8570920036445
 21
1260.2410513398299
  0
LINE
  8
_0-3_断面__扉
  6
CONTINUOUS
 62
    5
 10
2287.8570920036445
 20
752.2410513398297
 11
2287.8570920036445
 21
745.24105133982959
  0
LINE
  8
_0-3_断面__扉
  6
CONTINUOUS
 62
    5
 10
1945.8570920036454
 20
745.24105133982959
 11
2287.8570920036445
 21
745.24105133982959
  0
LINE
  8
_0-3_断面__扉
  6
CONTINUOUS
 62
    5
 10
1945.8570920036454
 20
760.24105133982959
 11
1945.8570920036454
 21
745.24105133982959
  0
LINE
  8
_0-3_断面__扉
  6
CONTINUOUS
 62
    4
 10
2287.8570920036445
 20
797.2410513398297
 11
2272.8570920036445
 21
752.2410513398297
  0
LINE
  8
_0-3_断面__扉
  6
CONTINUOUS
 62
    4
 10
2272.8570920036445
 20
797.2410513398297
 11
2287.8570920036445
 21
797.2410513398297
  0
LINE
  8
_0-3_断面__扉
  6
CONTINUOUS
 62
    4
 10
1945.8570920036454
 20
1345.2410513398299
 11
1945.8570920036454
 21
760.24105133982959
  0
LINE
  8
_0-3_断面__扉
  6
CONTINUOUS
 62
    4
 10
2272.8570920036445
 20
752.2410513398297
 11
2272.8570920036445
 21
1345.2410513398299
  0
LINE
  8
_0-3_断面__扉
  6
CONTINUOUS
 62
    4
 10
2287.8570920036445
 20
1327.2410513398301
 11
2287.8570920036445
 21
752.2410513398297
  0
LINE
  8
_0-3_断面__扉
  6
CONTINUOUS
 62
    4
 10
2269.8570920036445
 20
752.2410513398297
 11
2269.8570920036445
 21
1345.2410513398299
  0
LINE
  8
_0-3_断面__扉
  6
CONTINUOUS
 62
    5
 10
2269.8570920036445
 20
760.24105133982959
 11
2269.8570920036445
 21
752.2410513398297
  0
LINE
  8
_0-3_断面__扉
  6
CONTINUOUS
 62
    5
 10
1945.8570920036454
 20
760.24105133982959
 11
2269.8570920036445
 21
760.24105133982959
  0
LINE
  8
_0-3_断面__扉
  6
CONTINUOUS
 62
    5
 10
2269.8570920036445
 20
752.2410513398297
 11
2287.8570920036445
 21
752.2410513398297
  0
LINE
  8
_0-3_断面__扉
  6
CONTINUOUS
 62
    4
 10
1945.8570920036454
 20
1330.2410513398299
 11
2269.8570920036445
 21
1330.2410513398299
  0
LINE
  8
_0-3_断面__扉
  6
CONTINUOUS
 62
    7
 10
2272.3570920036445
 20
752.2410513398297
 11
2272.3570920036445
 21
1345.2410513398299
  0
CIRCLE
  8
_0-3_断面__扉
  6
CONTINUOUS
 62
    4
 10
1994.8570920036454
 20
1165.2410513398294
 40
2.5
  0
CIRCLE
  8
_0-3_断面__扉
  6
CONTINUOUS
 62
    7
 10
1994.8570920036454
 20
1165.2410513398294
 40
2.5
  0
LINE
  8
_0-3_断面__扉
  6
CENTER2
 62
    4
 10
1994.8570920036454
 20
1175.2410513398294
 11
1994.8570920036454
 21
1155.2410513398294
  0
LINE
  8
_0-3_断面__扉
  6
CENTER2
 62
    4
 10
1984.8570920036454
 20
1165.2410513398294
 11
2007.3570920036454
 21
1165.2410513398294
  0
CIRCLE
  8
_0-3_断面__扉
  6
CONTINUOUS
 62
    4
 10
2246.8570920036454
 20
1165.2410513398294
 40
2.5
  0
CIRCLE
  8
_0-3_断面__扉
  6
CONTINUOUS
 62
    7
 10
2246.8570920036454
 20
1165.2410513398294
 40
2.5
  0
LINE
  8
_0-3_断面__扉
  6
CENTER2
 62
    4
 10
2246.8570920036454
 20
1175.2410513398294
 11
2246.8570920036454
 21
1155.2410513398294
  0
LINE
  8
_0-3_断面__扉
  6
CENTER2
 62
    4
 10
2236.8570920036454
 20
1165.2410513398294
 11
2259.3570920036454
 21
1165.2410513398294
  0
CIRCLE
  8
_0-3_断面__扉
  6
CONTINUOUS
 62
    4
 10
1994.8570920036454
 20
1105.2410513398294
 40
2.5
  0
CIRCLE
  8
_0-3_断面__扉
  6
CONTINUOUS
 62
    7
 10
1994.8570920036454
 20
1105.2410513398294
 40
2.5
  0
LINE
  8
_0-3_断面__扉
  6
CENTER2
 62
    4
 10
1994.8570920036454
 20
1115.2410513398294
 11
1994.8570920036454
 21
1095.2410513398294
  0
LINE
  8
_0-3_断面__扉
  6
CENTER2
 62
    4
 10
1984.8570920036454
 20
1105.2410513398294
 11
2007.3570920036454
 21
1105.2410513398294
  0
CIRCLE
  8
_0-3_断面__扉
  6
CONTINUOUS
 62
    4
 10
2246.8570920036454
 20
1105.2410513398294
 40
2.5
  0
CIRCLE
  8
_0-3_断面__扉
  6
CONTINUOUS
 62
    7
 10
2246.8570920036454
 20
1105.2410513398294
 40
2.5
  0
LINE
  8
_0-3_断面__扉
  6
CENTER2
 62
    4
 10
2246.8570920036454
 20
1115.2410513398294
 11
2246.8570920036454
 21
1095.2410513398294
  0
LINE
  8
_0-3_断面__扉
  6
CENTER2
 62
    4
 10
2236.8570920036454
 20
1105.2410513398294
 11
2259.3570920036454
 21
1105.2410513398294
  0
CIRCLE
  8
_0-3_断面__扉
  6
CONTINUOUS
 62
    4
 10
1994.8570920036454
 20
1045.2410513398294
 40
2.5
  0
CIRCLE
  8
_0-3_断面__扉
  6
CONTINUOUS
 62
    7
 10
1994.8570920036454
 20
1045.2410513398294
 40
2.5
  0
LINE
  8
_0-3_断面__扉
  6
CENTER2
 62
    4
 10
1994.8570920036454
 20
1055.2410513398294
 11
1994.8570920036454
 21
1035.2410513398294
  0
LINE
  8
_0-3_断面__扉
  6
CENTER2
 62
    4
 10
1984.8570920036454
 20
1045.2410513398294
 11
2007.3570920036454
 21
1045.2410513398294
  0
CIRCLE
  8
_0-3_断面__扉
  6
CONTINUOUS
 62
    4
 10
2246.8570920036454
 20
1045.2410513398294
 40
2.5
  0
CIRCLE
  8
_0-3_断面__扉
  6
CONTINUOUS
 62
    7
 10
2246.8570920036454
 20
1045.2410513398294
 40
2.5
  0
LINE
  8
_0-3_断面__扉
  6
CENTER2
 62
    4
 10
2246.8570920036454
 20
1055.2410513398294
 11
2246.8570920036454
 21
1035.2410513398294
  0
LINE
  8
_0-3_断面__扉
  6
CENTER2
 62
    4
 10
2236.8570920036454
 20
1045.2410513398294
 11
2259.3570920036454
 21
1045.2410513398294
  0
CIRCLE
  8
_0-3_断面__扉
  6
CONTINUOUS
 62
    4
 10
1994.8570920036454
 20
985.24105133982948
 40
2.5
  0
CIRCLE
  8
_0-3_断面__扉
  6
CONTINUOUS
 62
    7
 10
1994.8570920036454
 20
985.24105133982948
 40
2.5
  0
LINE
  8
_0-3_断面__扉
  6
CENTER2
 62
    4
 10
1994.8570920036454
 20
995.24105133982948
 11
1994.8570920036454
 21
975.24105133982948
  0
LINE
  8
_0-3_断面__扉
  6
CENTER2
 62
    4
 10
1984.8570920036454
 20
985.24105133982948
 11
2007.3570920036454
 21
985.24105133982948
  0
CIRCLE
  8
_0-3_断面__扉
  6
CONTINUOUS
 62
    4
 10
2246.8570920036454
 20
985.24105133982948
 40
2.5
  0
CIRCLE
  8
_0-3_断面__扉
  6
CONTINUOUS
 62
    7
 10
2246.8570920036454
 20
985.24105133982948
 40
2.5
  0
LINE
  8
_0-3_断面__扉
  6
CENTER2
 62
    4
 10
2246.8570920036454
 20
995.24105133982948
 11
2246.8570920036454
 21
975.24105133982948
  0
LINE
  8
_0-3_断面__扉
  6
CENTER2
 62
    4
 10
2236.8570920036454
 20
985.24105133982948
 11
2259.3570920036454
 21
985.24105133982948
  0
CIRCLE
  8
_0-3_断面__扉
  6
CONTINUOUS
 62
    4
 10
1996.2972550826812
 20
925.24105133982948
 40
2.5
  0
CIRCLE
  8
_0-3_断面__扉
  6
CONTINUOUS
 62
    7
 10
1996.2972550826812
 20
925.24105133982948
 40
2.5
  0
LINE
  8
_0-3_断面__扉
  6
CENTER2
 62
    4
 10
1996.2972550826812
 20
935.24105133982948
 11
1996.2972550826812
 21
915.24105133982948
  0
LINE
  8
_0-3_断面__扉
  6
CENTER2
 62
    4
 10
1986.2972550826812
 20
925.24105133982948
 11
2008.7972550826812
 21
925.24105133982948
  0
CIRCLE
  8
_0-3_断面__扉
  6
CONTINUOUS
 62
    4
 10
2248.2972550826812
 20
925.24105133982948
 40
2.5
  0
CIRCLE
  8
_0-3_断面__扉
  6
CONTINUOUS
 62
    7
 10
2248.2972550826812
 20
925.24105133982948
 40
2.5
  0
LINE
  8
_0-3_断面__扉
  6
CENTER2
 62
    4
 10
2248.2972550826812
 20
935.24105133982948
 11
2248.2972550826812
 21
915.24105133982948
  0
LINE
  8
_0-3_断面__扉
  6
CENTER2
 62
    4
 10
2238.2972550826812
 20
925.24105133982948
 11
2260.7972550826812
 21
925.24105133982948
  0
LINE
  8
_0-6_平面扉
  6
CONTINUOUS
 62
    7
 10
1976.3570920036454
 20
1050.2410513398288
 11
2265.3570920036454
 21
1050.2410513398288
  0
LINE
  8
_0-6_平面扉
  6
CONTINUOUS
 62
    7
 10
2265.3570920036454
 20
1050.2410513398288
 11
2265.3570920036454
 21
1065.2410513398288
  0
LINE
  8
_0-6_平面扉
  6
CONTINUOUS
 62
    7
 10
2265.3570920036454
 20
1065.2410513398288
 11
1976.3570920036454
 21
1065.2410513398288
  0
LINE
  8
_0-6_平面扉
  6
CONTINUOUS
 62
    7
 10
1976.3570920036454
 20
1065.2410513398288
 11
1976.3570920036454
 21
1050.2410513398288
  0
LINE
  8
_0-6_平面扉
  6
DASHED1
 62
    7
 10
1358.824762712403
 20
1050.2410513398294
 11
1358.824762712403
 21
1065.2410513398294
  0
LINE
  8
_0-6_平面扉
  6
DASHED1
 62
    7
 10
1358.824762712403
 20
2234.7744603287769
 11
1358.824762712403
 21
2523.7744603287769
  0
LINE
  8
_0-6_平面扉
  6
DASHED1
 62
    7
 10
1358.824762712403
 20
2234.7744603287769
 11
1358.824762712403
 21
2523.7744603287769
  0
LINE
  8
_0-6_平面扉
  6
DASHED1
 62
    7
 10
586.82476271240238
 20
1065.2410513398294
 11
586.82476271240238
 21
1050.2410513398294
  0
LINE
  8
_0-6_平面扉
  6
DASHED1
 62
    7
 10
586.82476271240238
 20
2234.7744603287769
 11
586.82476271240238
 21
2523.7744603287769
  0
LINE
  8
_0-6_平面扉
  6
DASHED1
 62
    7
 10
586.82476271240238
 20
2234.7744603287769
 11
586.82476271240238
 21
2523.7744603287769
  0
LINE
  8
_0-6_平面扉
  6
DASHED1
 62
    7
 10
1358.824762712403
 20
1065.2410513398294
 11
586.82476271240238
 21
1065.2410513398294
  0
LINE
  8
_0-6_平面扉
  6
DASHED1
 62
    7
 10
1358.824762712403
 20
1050.2410513398294
 11
586.82476271240238
 21
1050.2410513398294
  0
LINE
  8
_0-6_平面扉
  6
DASHED1
 62
    7
 10
586.82476271240238
 20
2234.7744603287769
 11
1358.824762712403
 21
2234.7744603287769
  0
LINE
  8
_0-6_平面扉
  6
DASHED1
 62
    7
 10
586.82476271240238
 20
2523.7744603287769
 11
1358.824762712403
 21
2523.7744603287769
  0
LINE
  8
_0-b_ラッチ断面__扉側
  6
DASHED1
 62
    7
 10
2024.3570920036449
 20
1327.6646013398296
 11
2023.2504420036452
 21
1328.3035513398297
  0
LINE
  8
_0-b_ラッチ断面__扉側
  6
DASHED1
 62
    7
 10
2024.3570920036449
 20
1326.7986013398299
 11
2022.3570920036449
 21
1327.9533013398299
  0
LINE
  8
_0-b_ラッチ断面__扉側
  6
DASHED1
 62
    7
 10
2024.3570920036449
 20
1325.9325513398298
 11
2022.3570920036449
 21
1327.0872513398298
  0
LINE
  8
_0-b_ラッチ断面__扉側
  6
DASHED1
 62
    7
 10
2024.3570920036449
 20
1325.0665513398298
 11
2022.3570920036449
 21
1326.2212513398299
  0
LINE
  8
_0-b_ラッチ断面__扉側
  6
DASHED1
 62
    7
 10
2024.3570920036449
 20
1324.2005013398297
 11
2022.3570920036449
 21
1325.3552013398298
  0
LINE
  8
_0-b_ラッチ断面__扉側
  6
DASHED1
 62
    7
 10
2024.3570920036449
 20
1323.3345013398297
 11
2022.3570920036449
 21
1324.4892013398298
  0
LINE
  8
_0-b_ラッチ断面__扉側
  6
DASHED1
 62
    7
 10
2024.3570920036449
 20
1322.4684513398299
 11
2022.3570920036449
 21
1323.6231513398297
  0
LINE
  8
_0-b_ラッチ断面__扉側
  6
DASHED1
 62
    7
 10
2024.3570920036449
 20
1321.6024513398297
 11
2022.3570920036449
 21
1322.7571513398299
  0
LINE
  8
_0-b_ラッチ断面__扉側
  6
DASHED1
 62
    7
 10
2024.3570920036449
 20
1320.7364013398298
 11
2022.3570920036449
 21
1321.8911013398296
  0
LINE
  8
_0-b_ラッチ断面__扉側
  6
DASHED1
 62
    7
 10
2024.3570920036449
 20
1319.8704013398298
 11
2022.3570920036449
 21
1321.0251013398296
  0
LINE
  8
_0-b_ラッチ断面__扉側
  6
DASHED1
 62
    7
 10
2024.3570920036449
 20
1319.00435133983
 11
2022.3570920036449
 21
1320.1590513398298
  0
LINE
  8
_0-b_ラッチ断面__扉側
  6
DASHED1
 62
    7
 10
2024.3570920036449
 20
1318.13835133983
 11
2022.3570920036449
 21
1319.2930513398298
  0
LINE
  8
_0-b_ラッチ断面__扉側
  6
DASHED1
 62
    7
 10
2024.3570920036449
 20
1317.2723013398297
 11
2022.3570920036449
 21
1318.4270013398299
  0
LINE
  8
_0-b_ラッチ断面__扉側
  6
DASHED1
 62
    7
 10
2024.3570920036449
 20
1316.4063013398299
 11
2022.3570920036449
 21
1317.5610013398297
  0
LINE
  8
_0-b_ラッチ断面__扉側
  6
DASHED1
 62
    7
 10
2024.3570920036449
 20
1315.5402513398298
 11
2022.3570920036449
 21
1316.6949513398299
  0
LINE
  8
_0-b_ラッチ断面__扉側
  6
DASHED1
 62
    7
 10
2024.3570920036449
 20
1314.6742513398298
 11
2022.3570920036449
 21
1315.8289513398299
  0
LINE
  8
_0-b_ラッチ断面__扉側
  6
DASHED1
 62
    7
 10
2024.3570920036449
 20
1313.8082013398297
 11
2022.3570920036449
 21
1314.9629013398298
  0
LINE
  8
_0-b_ラッチ断面__扉側
  6
DASHED1
 62
    7
 10
2024.3570920036449
 20
1312.9422013398298
 11
2022.3570920036449
 21
1314.0969013398298
  0
LINE
  8
_0-b_ラッチ断面__扉側
  6
DASHED1
 62
    7
 10
2024.3570920036449
 20
1312.0761513398297
 11
2022.3570920036449
 21
1313.2308513398299
  0
LINE
  8
_0-b_ラッチ断面__扉側
  6
DASHED1
 62
    7
 10
2024.3570920036449
 20
1311.2101513398297
 11
2022.3570920036449
 21
1312.36485133983
  0
LINE
  8
_0-b_ラッチ断面__扉側
  6
DASHED1
 62
    7
 10
2024.3570920036449
 20
1310.3441013398298
 11
2022.3570920036449
 21
1311.4988013398296
  0
LINE
  8
_0-b_ラッチ断面__扉側
  6
DASHED1
 62
    7
 10
2024.3570920036449
 20
1309.4781013398298
 11
2022.3570920036449
 21
1310.6328013398297
  0
LINE
  8
_0-b_ラッチ断面__扉側
  6
DASHED1
 62
    7
 10
2024.3570920036449
 20
1308.61205133983
 11
2022.3570920036449
 21
1309.7667513398298
  0
LINE
  8
_0-b_ラッチ断面__扉側
  6
DASHED1
 62
    7
 10
2024.3570920036449
 20
1307.7460513398298
 11
2022.3570920036449
 21
1308.9007513398296
  0
LINE
  8
_0-b_ラッチ断面__扉側
  6
DASHED1
 62
    7
 10
2024.3570920036449
 20
1306.8800013398299
 11
2022.3570920036449
 21
1308.0347013398297
  0
LINE
  8
_0-b_ラッチ断面__扉側
  6
DASHED1
 62
    7
 10
2024.2470420036452
 20
1306.0775513398298
 11
2022.3570920036449
 21
1307.1687013398297
  0
LINE
  8
_0-b_ラッチ断面__扉側
  6
DASHED1
 62
    7
 10
2024.1262920036451
 20
1305.2812013398297
 11
2022.2849920036449
 21
1306.3443013398298
  0
LINE
  8
_0-b_ラッチ断面__扉側
  6
DASHED1
 62
    7
 10
2023.853542003645
 20
1304.5726513398299
 11
2022.096992003645
 21
1305.5868013398298
  0
LINE
  8
_0-b_ラッチ断面__扉側
  6
DASHED1
 62
    7
 10
2023.5086920036451
 20
1303.9057513398299
 11
2021.7966920036451
 21
1304.8941513398299
  0
LINE
  8
_0-b_ラッチ断面__扉側
  6
DASHED1
 62
    7
 10
2023.1638420036449
 20
1303.2388013398299
 11
2021.248642003645
 21
1304.3445513398298
  0
LINE
  8
_0-b_ラッチ断面__扉側
  6
DASHED1
 62
    7
 10
2022.661292003645
 20
1302.6629513398299
 11
2020.7536420036449
 21
1303.7643013398296
  0
LINE
  8
_0-b_ラッチ断面__扉側
  6
DASHED1
 62
    7
 10
2022.0836920036449
 20
1302.1303513398299
 11
2019.5320920036451
 21
1303.6035513398296
  0
LINE
  8
_0-b_ラッチ断面__扉側
  6
DASHED1
 62
    7
 10
2021.4147420036451
 20
1301.6505513398296
 11
2018.0320920036451
 21
1303.6035513398296
  0
LINE
  8
_0-b_ラッチ断面__扉側
  6
DASHED1
 62
    7
 10
2020.5263420036451
 20
1301.2974513398298
 11
2016.5320920036449
 21
1303.6035513398296
  0
LINE
  8
_0-b_ラッチ断面__扉側
  6
DASHED1
 62
    7
 10
2019.612042003645
 20
1300.9593013398298
 11
2015.0320920036449
 21
1303.6035513398296
  0
LINE
  8
_0-b_ラッチ断面__扉側
  6
DASHED1
 62
    7
 10
2016.881842003645
 20
1300.8035513398297
 11
2012.5670420036451
 21
1303.2947013398299
  0
LINE
  8
_0-b_ラッチ断面__扉側
  6
DASHED1
 62
    7
 10
2018.331692003645
 20
1300.8325013398298
 11
2013.591592003645
 21
1303.5692013398297
  0
LINE
  8
_0-b_ラッチ断面__扉側
  6
DASHED1
 62
    7
 10
2015.381842003645
 20
1300.8035513398297
 11
2011.5425420036449
 21
1303.0201513398299
  0
LINE
  8
_0-b_ラッチ断面__扉側
  6
DASHED1
 62
    7
 10
2012.381842003645
 20
1300.8035513398297
 11
2009.493492003645
 21
1302.4711013398296
  0
LINE
  8
_0-b_ラッチ断面__扉側
  6
DASHED1
 62
    7
 10
2013.881842003645
 20
1300.8035513398297
 11
2010.5180420036449
 21
1302.7456513398296
  0
LINE
  8
_0-b_ラッチ断面__扉側
  6
DASHED1
 62
    7
 10
2010.881842003645
 20
1300.8035513398297
 11
2008.1054920036449
 21
1302.4064513398298
  0
LINE
  8
_0-b_ラッチ断面__扉側
  6
DASHED1
 62
    7
 10
2009.381842003645
 20
1300.8035513398297
 11
2006.6616920036449
 21
1302.3740513398297
  0
LINE
  8
_0-b_ラッチ断面__扉側
  6
DASHED1
 62
    7
 10
2007.881842003645
 20
1300.8035513398297
 11
2004.805992003645
 21
1302.5793513398298
  0
LINE
  8
_0-b_ラッチ断面__扉側
  6
DASHED1
 62
    7
 10
2006.381842003645
 20
1300.8035513398297
 11
2002.431992003645
 21
1303.0840013398299
  0
LINE
  8
_0-b_ラッチ断面__扉側
  6
DASHED1
 62
    7
 10
2004.881842003645
 20
1300.8035513398297
 11
2000.0579920036448
 21
1303.5886013398298
  0
LINE
  8
_0-b_ラッチ断面__扉側
  6
DASHED1
 62
    7
 10
2003.381842003645
 20
1300.8035513398297
 11
1997.683992003645
 21
1304.0932013398298
  0
LINE
  8
_0-b_ラッチ断面__扉側
  6
DASHED1
 62
    7
 10
2001.881842003645
 20
1300.8035513398297
 11
1995.3099420036451
 21
1304.5978013398298
  0
LINE
  8
_0-b_ラッチ断面__扉側
  6
DASHED1
 62
    7
 10
2000.381842003645
 20
1300.8035513398297
 11
1992.935942003645
 21
1305.1024513398297
  0
LINE
  8
_0-b_ラッチ断面__扉側
  6
DASHED1
 62
    7
 10
1998.881842003645
 20
1300.8035513398297
 11
1981.041692003645
 21
1311.1035513398296
  0
LINE
  8
_0-b_ラッチ断面__扉側
  6
DASHED1
 62
    7
 10
1997.381842003645
 20
1300.8035513398297
 11
1978.3570920036449
 21
1311.7875013398297
  0
LINE
  8
_0-b_ラッチ断面__扉側
  6
DASHED1
 62
    7
 10
1995.881842003645
 20
1300.8035513398297
 11
1978.3570920036449
 21
1310.9214513398299
  0
LINE
  8
_0-b_ラッチ断面__扉側
  6
DASHED1
 62
    7
 10
1994.381842003645
 20
1300.8035513398297
 11
1978.3570920036449
 21
1310.0554513398299
  0
LINE
  8
_0-b_ラッチ断面__扉側
  6
DASHED1
 62
    7
 10
1991.3570920036452
 20
1316.4063013398299
 11
1989.3570920036449
 21
1317.5610013398297
  0
LINE
  8
_0-b_ラッチ断面__扉側
  6
DASHED1
 62
    7
 10
1991.3570920036452
 20
1315.5402513398298
 11
1989.3570920036449
 21
1316.6949513398299
  0
LINE
  8
_0-b_ラッチ断面__扉側
  6
DASHED1
 62
    7
 10
1991.3570920036452
 20
1314.6742513398298
 11
1989.3570920036449
 21
1315.8289513398299
  0
LINE
  8
_0-b_ラッチ断面__扉側
  6
DASHED1
 62
    7
 10
1991.3570920036452
 20
1313.8082013398297
 11
1989.0862920036452
 21
1315.1192513398295
  0
LINE
  8
_0-b_ラッチ断面__扉側
  6
DASHED1
 62
    7
 10
1991.3570920036452
 20
1312.9422013398298
 11
1988.0486920036448
 21
1314.8523013398298
  0
LINE
  8
_0-b_ラッチ断面__扉側
  6
DASHED1
 62
    7
 10
1991.3570920036452
 20
1312.0761513398297
 11
1986.6330920036448
 21
1314.8035513398299
  0
LINE
  8
_0-b_ラッチ断面__扉側
  6
DASHED1
 62
    7
 10
1991.3570920036452
 20
1311.2101513398297
 11
1985.1330920036452
 21
1314.8035513398299
  0
LINE
  8
_0-b_ラッチ断面__扉側
  6
DASHED1
 62
    7
 10
1991.3570920036452
 20
1310.3441013398298
 11
1983.633092003645
 21
1314.8035513398299
  0
LINE
  8
_0-b_ラッチ断面__扉側
  6
DASHED1
 62
    7
 10
1991.3570920036452
 20
1309.4781013398298
 11
1988.541692003645
 21
1311.1035513398296
  0
LINE
  8
_0-b_ラッチ断面__扉側
  6
DASHED1
 62
    7
 10
1991.3570920036452
 20
1308.61205133983
 11
1987.041692003645
 21
1311.1035513398296
  0
LINE
  8
_0-b_ラッチ断面__扉側
  6
DASHED1
 62
    7
 10
1991.3570920036452
 20
1307.7460513398298
 11
1985.541692003645
 21
1311.1035513398296
  0
LINE
  8
_0-b_ラッチ断面__扉側
  6
DASHED1
 62
    7
 10
1991.360492003645
 20
1306.8780513398296
 11
1984.041692003645
 21
1311.1035513398296
  0
LINE
  8
_0-b_ラッチ断面__扉側
  6
DASHED1
 62
    7
 10
1991.492242003645
 20
1305.9359513398298
 11
1982.541692003645
 21
1311.1035513398296
  0
LINE
  8
_0-b_ラッチ断面__扉側
  6
DASHED1
 62
    7
 10
1988.541692003645
 20
1311.1035513398296
 11
1982.133092003645
 21
1314.8035513398299
  0
LINE
  8
_0-b_ラッチ断面__扉側
  6
DASHED1
 62
    7
 10
1987.041692003645
 20
1311.1035513398296
 11
1980.633092003645
 21
1314.8035513398299
  0
LINE
  8
_0-b_ラッチ断面__扉側
  6
DASHED1
 62
    7
 10
1985.541692003645
 20
1311.1035513398296
 11
1979.3570920036449
 21
1314.6742513398298
  0
LINE
  8
_0-b_ラッチ断面__扉側
  6
DASHED1
 62
    7
 10
1984.041692003645
 20
1311.1035513398296
 11
1978.3570920036449
 21
1314.3855513398298
  0
LINE
  8
_0-b_ラッチ断面__扉側
  6
DASHED1
 62
    7
 10
1982.541692003645
 20
1311.1035513398296
 11
1978.3570920036449
 21
1313.5195513398298
  0
LINE
  8
_0-b_ラッチ断面__扉側
  6
DASHED1
 62
    7
 10
1981.041692003645
 20
1311.1035513398296
 11
1978.3570920036449
 21
1312.6535013398299
  0
LINE
  8
_0-b_ラッチ断面__扉側
  6
DASHED1
 62
    7
 10
2024.3570920036449
 20
1328.4146013398299
 11
2023.3570920036449
 21
1328.9919513398297
  0
LINE
  8
_0-b_ラッチ断面__扉側
  6
DASHED1
 62
    7
 10
2024.3570920036449
 20
1328.4146013398299
 11
2023.2504420036452
 21
1329.0535513398299
  0
LINE
  8
_0-b_ラッチ断面__扉側
  6
DASHED1
 62
    7
 10
2024.3570920036449
 20
1329.1646013398299
 11
2023.5968420036451
 21
1329.6035513398301
  0
LINE
  8
_0-b_ラッチ断面__扉側
  6
DASHED1
 62
    7
 10
1989.3570920036449
 20
1319.3035513398297
 11
1989.3570920036449
 21
1321.3035513398299
  0
LINE
  8
_0-b_ラッチ断面__扉側
  6
DASHED1
 62
    7
 10
2009.3570920036449
 20
1302.4345513398297
 11
2006.8570920036449
 21
1302.3035513398299
  0
LINE
  8
_0-b_ラッチ断面__扉側
  6
DASHED1
 62
    7
 10
2013.7197920036451
 20
1303.6035513398296
 11
2009.3570920036449
 21
1302.4345513398297
  0
LINE
  8
_0-b_ラッチ断面__扉側
  6
DASHED1
 62
    7
 10
1991.3570920036452
 20
1316.6488513398298
 11
1989.3570920036449
 21
1317.8035513398299
  0
LINE
  8
_0-b_ラッチ断面__扉側
  6
DASHED1
 62
    7
 10
1991.3570920036452
 20
1306.91175133983
 11
1991.3570920036452
 21
1316.6488513398298
  0
LINE
  8
_0-b_ラッチ断面__扉側
  6
DASHED1
 62
    7
 10
2014.4070920036449
 20
1328.3035513398297
 11
2014.4070920036449
 21
1327.3035513398299
  0
LINE
  8
_0-b_ラッチ断面__扉側
  6
DASHED1
 62
    7
 10
1987.6250420036449
 20
1321.8035513398297
 11
1989.3570920036449
 21
1318.8035513398299
  0
LINE
  8
_0-b_ラッチ断面__扉側
  6
DASHED1
 62
    7
 10
2005.8570920036449
 20
1302.3559513398299
 11
2006.8570920036449
 21
1302.3035513398299
  0
LINE
  8
_0-b_ラッチ断面__扉側
  6
DASHED1
 62
    7
 10
1991.6650920036452
 20
1305.3725513398298
 11
2005.8570920036449
 21
1302.3559513398299
  0
LINE
  8
_0-b_ラッチ断面__扉側
  6
DASHED1
 62
    7
 10
2022.3570920036449
 20
1328.3035513398297
 11
2022.3570920036449
 21
1306.9012513398297
  0
LINE
  8
_0-b_ラッチ断面__扉側
  6
DASHED1
 62
    7
 10
2013.7197920036451
 20
1303.6035513398296
 11
2020.6209920036451
 21
1303.6035513398296
  0
LINE
  8
_0-b_ラッチ断面__扉側
  6
DASHED1
 62
    7
 10
1981.8570920036449
 20
1323.5035513398297
 11
1981.8570920036449
 21
1331.1035513398296
  0
LINE
  8
_0-b_ラッチ断面__扉側
  6
DASHED1
 62
    7
 10
1996.6570920036451
 20
1327.3035513398299
 11
2014.4070920036449
 21
1327.3035513398299
  0
LINE
  8
_0-b_ラッチ断面__扉側
  6
DASHED1
 62
    7
 10
2024.3570920036449
 20
1306.8035513398297
 11
2024.3570920036449
 21
1329.6035513398301
  0
LINE
  8
_0-b_ラッチ断面__扉側
  6
DASHED1
 62
    7
 10
2023.3570920036449
 20
1328.3035513398297
 11
2023.3570920036449
 21
1329.6202013398296
  0
LINE
  8
_0-b_ラッチ断面__扉側
  6
DASHED1
 62
    7
 10
2024.3570920036449
 20
1329.6035513398301
 11
1964.3570920036449
 21
1330.5035513398297
  0
LINE
  8
_0-b_ラッチ断面__扉側
  6
DASHED1
 62
    7
 10
1965.3570920036449
 20
1330.5035513398297
 11
1965.3570920036449
 21
1329.2035513398298
  0
LINE
  8
_0-b_ラッチ断面__扉側
  6
DASHED1
 62
    7
 10
1986.6166420036449
 20
1329.2035513398298
 11
1990.8570920036449
 21
1329.2035513398298
  0
LINE
  8
_0-b_ラッチ断面__扉側
  6
DASHED1
 62
    7
 10
1974.535642003645
 20
1329.2035513398298
 11
1965.4570920036451
 21
1329.2035513398298
  0
LINE
  8
_0-b_ラッチ断面__扉側
  6
DASHED1
 62
    7
 10
1990.8570920036449
 20
1327.3035513398299
 11
1992.057092003645
 21
1327.3035513398299
  0
LINE
  8
_0-b_ラッチ断面__扉側
  6
DASHED1
 62
    7
 10
1955.357142003645
 20
1319.3035513398297
 11
1953.3571420036448
 21
1321.3035513398299
  0
LINE
  8
_0-b_ラッチ断面__扉側
  6
DASHED1
 62
    7
 10
1953.3571420036448
 20
1321.3035513398299
 11
1953.3571420036448
 21
1328.3035513398297
  0
LINE
  8
_0-b_ラッチ断面__扉側
  6
DASHED1
 62
    7
 10
1958.3571420036448
 20
1325.3035513398299
 11
1958.3571420036448
 21
1324.0035513398299
  0
LINE
  8
_0-b_ラッチ断面__扉側
  6
DASHED1
 62
    7
 10
1994.3570920036449
 20
1325.2035513398298
 11
1994.3570920036449
 21
1314.0035513398299
  0
LINE
  8
_0-b_ラッチ断面__扉側
  6
DASHED1
 62
    7
 10
1953.3571420036448
 20
1325.3035513398299
 11
1983.285492003645
 21
1325.3035513398299
  0
LINE
  8
_0-b_ラッチ断面__扉側
  6
DASHED1
 62
    7
 10
1984.699742003645
 20
1324.7177513398298
 11
1992.235492003645
 21
1317.1819513398299
  0
LINE
  8
_0-b_ラッチ断面__扉側
  6
DASHED1
 62
    7
 10
1986.5281420036449
 20
1329.3035513398297
 11
1954.3571420036448
 21
1329.3035513398297
  0
LINE
  8
_0-b_ラッチ断面__扉側
  6
DASHED1
 62
    7
 10
1990.0636920036449
 20
1327.8391013398299
 11
1993.841842003645
 21
1324.0609013398297
  0
LINE
  8
_0-b_ラッチ断面__扉側
  6
DASHED1
 62
    7
 10
1989.1570920036451
 20
1319.3035513398297
 11
1998.4670920036451
 21
1319.3035513398297
  0
LINE
  8
_0-b_ラッチ断面__扉側
  6
DASHED1
 62
    7
 10
2007.8570920036449
 20
1308.3735513398298
 11
2007.8570920036449
 21
1329.0935513398299
  0
LINE
  8
_0-b_ラッチ断面__扉側
  6
DASHED1
 62
    7
 10
1963.857142003645
 20
1325.3035513398299
 11
1963.857142003645
 21
1329.3035513398297
  0
LINE
  8
_0-b_ラッチ断面__扉側
  6
DASHED1
 62
    7
 10
1958.3571420036448
 20
1329.3035513398297
 11
1958.3571420036448
 21
1325.3035513398299
  0
LINE
  8
_0-b_ラッチ断面__扉側
  6
DASHED1
 62
    7
 10
1955.357142003645
 20
1319.3035513398297
 11
1962.357142003645
 21
1319.3035513398297
  0
LINE
  8
_0-b_ラッチ断面__扉側
  6
DASHED1
 62
    7
 10
1962.357142003645
 20
1320.4635513398297
 11
1962.357142003645
 21
1319.3035513398297
  0
LINE
  8
_0-b_ラッチ断面__扉側
  6
DASHED1
 62
    7
 10
1962.357142003645
 20
1320.4635513398297
 11
1958.3571420036448
 21
1324.0035513398299
  0
LINE
  8
_0-b_ラッチ断面__扉側
  6
DASHED1
 62
    7
 10
2020.786192003645
 20
1313.5817013398298
 11
2021.746492003645
 21
1321.4029513398299
  0
LINE
  8
_0-b_ラッチ断面__扉側
  6
DASHED1
 62
    7
 10
2021.751242003645
 20
1321.4014013398298
 11
2016.0662420036451
 21
1323.3035513398297
  0
LINE
  8
_0-b_ラッチ断面__扉側
  6
DASHED1
 62
    7
 10
2005.8570920036449
 20
1322.3035513398299
 11
1994.3570920036449
 21
1322.3035513398299
  0
LINE
  8
_0-b_ラッチ断面__扉側
  6
DASHED1
 62
    7
 10
2005.8570920036449
 20
1322.3035513398299
 11
2005.8570920036449
 21
1323.3035513398297
  0
LINE
  8
_0-b_ラッチ断面__扉側
  6
DASHED1
 62
    7
 10
2005.8570920036449
 20
1323.3035513398297
 11
2016.0662420036451
 21
1323.3035513398297
  0
LINE
  8
_0-b_ラッチ断面__扉側
  6
DASHED1
 62
    7
 10
2002.751242003645
 20
1316.3897513398298
 11
2002.751242003645
 21
1315.6879013398297
  0
LINE
  8
_0-b_ラッチ断面__扉側
  6
DASHED1
 62
    7
 10
2002.751242003645
 20
1316.3897513398298
 11
2006.251242003645
 21
1319.2671513398297
  0
LINE
  8
_0-b_ラッチ断面__扉側
  6
DASHED1
 62
    7
 10
2013.251242003645
 20
1318.4192513398297
 11
2013.251242003645
 21
1314.7999013398298
  0
LINE
  8
_0-b_ラッチ断面__扉側
  6
DASHED1
 62
    7
 10
2002.751242003645
 20
1315.6879013398297
 11
2006.251242003645
 21
1318.8489513398299
  0
LINE
  8
_0-b_ラッチ断面__扉側
  6
DASHED1
 62
    7
 10
2013.251242003645
 20
1314.7999013398298
 11
2013.251242003645
 21
1315.3184513398298
  0
LINE
  8
_0-b_ラッチ断面__扉側
  6
DASHED1
 62
    7
 10
1996.6570920036451
 20
1327.3035513398299
 11
1996.6570920036451
 21
1322.4758013398297
  0
LINE
  8
_0-b_ラッチ断面__扉側
  6
DASHED1
 62
    7
 10
1992.057092003645
 20
1327.3035513398299
 11
1992.057092003645
 21
1325.8456513398298
  0
LINE
  8
_0-b_ラッチ断面__扉側
  6
DASHED1
 62
    7
 10
1992.057092003645
 20
1325.8456513398298
 11
1992.057092003645
 21
1318.6410013398299
  0
LINE
  8
_0-b_ラッチ断面__扉側
  6
DASHED1
 62
    7
 10
1996.6570920036451
 20
1322.4758013398297
 11
1996.6570920036451
 21
1319.3035513398297
  0
LINE
  8
_0-b_ラッチ断面__扉側
  6
DASHED1
 62
    7
 10
1990.8570920036449
 20
1327.0456513398298
 11
1990.8570920036449
 21
1330.1060513398297
  0
LINE
  8
_0-b_ラッチ断面__扉側
  6
DASHED1
 62
    7
 10
1990.8570920036449
 20
1316.9375513398299
 11
1990.8570920036449
 21
1318.5604013398299
  0
LINE
  8
_0-b_ラッチ断面__扉側
  6
DASHED1
 62
    7
 10
1990.8570920036449
 20
1327.0456513398298
 11
1990.8570920036449
 21
1318.5604013398299
  0
LINE
  8
_0-b_ラッチ断面__扉側
  6
DASHED1
 62
    7
 10
1987.3570920036449
 20
1323.3035513398297
 11
1987.3570920036449
 21
1322.8035513398299
  0
LINE
  8
_0-b_ラッチ断面__扉側
  6
DASHED1
 62
    7
 10
1983.285492003645
 20
1325.3035513398299
 11
1965.3570920036449
 21
1325.3035513398299
  0
LINE
  8
_0-b_ラッチ断面__扉側
  6
DASHED1
 62
    7
 10
1985.3570920036449
 20
1325.3035513398299
 11
1983.757092003645
 21
1325.3035513398299
  0
LINE
  8
_0-b_ラッチ断面__扉側
  6
DASHED1
 62
    7
 10
1974.535642003645
 20
1329.2035513398298
 11
1978.9570920036451
 21
1329.2035513398298
  0
LINE
  8
_0-b_ラッチ断面__扉側
  6
DASHED1
 62
    7
 10
1978.9640920036449
 20
1330.2601013398298
 11
1978.958192003645
 21
1329.2035513398298
  0
LINE
  8
_0-b_ラッチ断面__扉側
  6
DASHED1
 62
    7
 10
1984.7505920036451
 20
1330.1636513398298
 11
1984.7559920036451
 21
1329.2035513398298
  0
LINE
  8
_0-b_ラッチ断面__扉側
  6
DASHED1
 62
    7
 10
1984.7570920036448
 20
1329.2035513398298
 11
1986.6166420036449
 21
1329.2035513398298
  0
LINE
  8
_0-b_ラッチ断面__扉側
  6
DASHED1
 62
    7
 10
1983.757092003645
 20
1325.3035513398299
 11
1983.757092003645
 21
1330.2125513398298
  0
LINE
  8
_0-b_ラッチ断面__扉側
  6
DASHED1
 62
    7
 10
1979.9570920036449
 20
1325.3035513398299
 11
1979.9570920036449
 21
1330.2441013398299
  0
LINE
  8
_0-b_ラッチ断面__扉側
  6
DASHED1
 62
    7
 10
2006.8570920036449
 20
1325.8035513398297
 11
2006.8570920036449
 21
1330.8035513398297
  0
LINE
  8
_0-b_ラッチ断面__扉側
  6
DASHED1
 62
    7
 10
1996.6570920036451
 20
1327.3035513398299
 11
1996.6570920036451
 21
1322.5035513398299
  0
LINE
  8
_0-b_ラッチ断面__扉側
  6
DASHED1
 62
    7
 10
2010.1570920036451
 20
1327.3035513398299
 11
1990.9570920036449
 21
1327.3035513398299
  0
LINE
  8
_0-b_ラッチ断面__扉側
  6
DASHED1
 62
    7
 10
1992.9570920036451
 20
1327.3035513398299
 11
1992.9570920036451
 21
1322.3035513398299
  0
LINE
  8
_0-b_ラッチ断面__扉側
  6
DASHED1
 62
    7
 10
1992.9570920036451
 20
1322.3035513398299
 11
1992.3570920036449
 21
1322.3035513398299
  0
LINE
  8
_0-b_ラッチ断面__扉側
  6
DASHED1
 62
    7
 10
2010.1570920036451
 20
1327.3035513398299
 11
2012.3570920036449
 21
1328.3035513398297
  0
LINE
  8
_0-b_ラッチ断面__扉側
  6
DASHED1
 62
    7
 10
2021.6570920036451
 20
1328.3035513398297
 11
2021.6570920036451
 21
1326.3035513398299
  0
LINE
  8
_0-b_ラッチ断面__扉側
  6
DASHED1
 62
    7
 10
2023.3570920036449
 20
1328.3035513398297
 11
2012.3570920036449
 21
1328.3035513398297
  0
LINE
  8
_0-b_ラッチ断面__扉側
  6
DASHED1
 62
    7
 10
2023.3570920036449
 20
1329.5035513398297
 11
1990.9570920036449
 21
1330.0035513398299
  0
LINE
  8
_0-b_ラッチ断面__扉側
  6
DASHED1
 62
    7
 10
2023.3570920036449
 20
1329.5035513398297
 11
2023.3570920036449
 21
1328.3035513398297
  0
LINE
  8
_0-b_ラッチ断面__扉側
  6
DASHED1
 62
    7
 10
2022.3570920036449
 20
1326.3035513398299
 11
2021.6570920036451
 21
1326.3035513398299
  0
LINE
  8
_0-b_ラッチ断面__扉側
  6
DASHED1
 62
    7
 10
1990.9570920036449
 20
1322.3035513398299
 11
1992.3570920036449
 21
1322.3035513398299
  0
LINE
  8
_0-b_ラッチ断面__扉側
  6
DASHED1
 62
    7
 10
1990.9570920036449
 20
1330.0035513398299
 11
1990.9570920036449
 21
1326.9456513398299
  0
LINE
  8
_0-b_ラッチ断面__扉側
  6
DASHED1
 62
    7
 10
1992.3570920036449
 20
1327.3035513398299
 11
1992.3570920036449
 21
1325.5456513398298
  0
LINE
  8
_0-b_ラッチ断面__扉側
  6
DASHED1
 62
    7
 10
1992.3570920036449
 20
1325.5456513398298
 11
1992.3570920036449
 21
1322.5035513398299
  0
LINE
  8
_0-b_ラッチ断面__扉側
  6
DASHED1
 62
    7
 10
1990.9570920036449
 20
1326.9456513398299
 11
1990.9570920036449
 21
1322.3035513398299
  0
LINE
  8
_0-b_ラッチ断面__扉側
  6
DASHED1
 62
    7
 10
1995.6570920036449
 20
1321.5035513398299
 11
1993.3570920036449
 21
1321.5035513398299
  0
LINE
  8
_0-b_ラッチ断面__扉側
  6
DASHED1
 62
    7
 10
2022.3570920036449
 20
1329.2035513398298
 11
1991.9570920036449
 21
1329.2035513398298
  0
LINE
  8
_0-b_ラッチ断面__扉側
  6
DASHED1
 62
    7
 10
1991.9570920036449
 20
1329.2035513398298
 11
1991.9570920036449
 21
1329.9850513398296
  0
LINE
  8
_0-b_ラッチ断面__扉側
  6
DASHED1
 62
    7
 10
2014.4070920036449
 20
1328.3035513398297
 11
2023.3570920036449
 21
1328.3035513398297
  0
LINE
  8
_0-b_ラッチ断面__扉側
  6
DASHED1
 62
    7
 10
2022.3570920036449
 20
1329.2035513398298
 11
2022.3570920036449
 21
1329.5190013398296
  0
LINE
  8
_0-b_ラッチ断面__扉側
  6
DASHED1
 62
    7
 10
1991.0173420036451
 20
1330.0024513398298
 11
1990.9570920036449
 21
1329.9676513398298
  0
LINE
  8
_0-b_ラッチ断面__扉側
  6
DASHED1
 62
    7
 10
1998.633642003645
 20
1329.2035513398298
 11
1995.342742003645
 21
1327.3035513398299
  0
LINE
  8
_0-b_ラッチ断面__扉側
  6
DASHED1
 62
    7
 10
1997.133642003645
 20
1329.2035513398298
 11
1993.842742003645
 21
1327.3035513398299
  0
LINE
  8
_0-b_ラッチ断面__扉側
  6
DASHED1
 62
    7
 10
1995.633642003645
 20
1329.2035513398298
 11
1992.342742003645
 21
1327.3035513398299
  0
LINE
  8
_0-b_ラッチ断面__扉側
  6
DASHED1
 62
    7
 10
1994.133642003645
 20
1329.2035513398298
 11
1990.9570920036449
 21
1327.3695513398297
  0
LINE
  8
_0-b_ラッチ断面__扉側
  6
DASHED1
 62
    7
 10
1992.633642003645
 20
1329.2035513398298
 11
1990.9570920036449
 21
1328.2356013398298
  0
LINE
  8
_0-b_ラッチ断面__扉側
  6
DASHED1
 62
    7
 10
1991.9570920036449
 20
1329.6789513398298
 11
1990.9570920036449
 21
1329.10160133983
  0
LINE
  8
_0-b_ラッチ断面__扉側
  6
DASHED1
 62
    7
 10
2012.133642003645
 20
1329.2035513398298
 11
2008.842742003645
 21
1327.3035513398299
  0
LINE
  8
_0-b_ラッチ断面__扉側
  6
DASHED1
 62
    7
 10
2010.633642003645
 20
1329.2035513398298
 11
2007.342742003645
 21
1327.3035513398299
  0
LINE
  8
_0-b_ラッチ断面__扉側
  6
DASHED1
 62
    7
 10
2009.133642003645
 20
1329.2035513398298
 11
2005.842742003645
 21
1327.3035513398299
  0
LINE
  8
_0-b_ラッチ断面__扉側
  6
DASHED1
 62
    7
 10
2007.633642003645
 20
1329.2035513398298
 11
2004.342742003645
 21
1327.3035513398299
  0
LINE
  8
_0-b_ラッチ断面__扉側
  6
DASHED1
 62
    7
 10
2006.133642003645
 20
1329.2035513398298
 11
2002.842742003645
 21
1327.3035513398299
  0
LINE
  8
_0-b_ラッチ断面__扉側
  6
DASHED1
 62
    7
 10
2004.633642003645
 20
1329.2035513398298
 11
2001.342742003645
 21
1327.3035513398299
  0
LINE
  8
_0-b_ラッチ断面__扉側
  6
DASHED1
 62
    7
 10
2003.133642003645
 20
1329.2035513398298
 11
1999.842742003645
 21
1327.3035513398299
  0
LINE
  8
_0-b_ラッチ断面__扉側
  6
DASHED1
 62
    7
 10
2001.633642003645
 20
1329.2035513398298
 11
1998.342742003645
 21
1327.3035513398299
  0
LINE
  8
_0-b_ラッチ断面__扉側
  6
DASHED1
 62
    7
 10
2000.133642003645
 20
1329.2035513398298
 11
1996.842742003645
 21
1327.3035513398299
  0
LINE
  8
_0-b_ラッチ断面__扉側
  6
DASHED1
 62
    7
 10
2013.633642003645
 20
1329.2035513398298
 11
2011.0299420036449
 21
1327.7003013398298
  0
LINE
  8
_0-b_ラッチ断面__扉側
  6
DASHED1
 62
    7
 10
2015.133642003645
 20
1329.2035513398298
 11
2013.5747920036451
 21
1328.3035513398297
  0
LINE
  8
_0-b_ラッチ断面__扉側
  6
DASHED1
 62
    7
 10
2016.633642003645
 20
1329.2035513398298
 11
2015.0747920036451
 21
1328.3035513398297
  0
LINE
  8
_0-b_ラッチ断面__扉側
  6
DASHED1
 62
    7
 10
2018.133642003645
 20
1329.2035513398298
 11
2016.5747920036449
 21
1328.3035513398297
  0
LINE
  8
_0-b_ラッチ断面__扉側
  6
DASHED1
 62
    7
 10
2019.633642003645
 20
1329.2035513398298
 11
2018.0747920036449
 21
1328.3035513398297
  0
LINE
  8
_0-b_ラッチ断面__扉側
  6
DASHED1
 62
    7
 10
2021.133642003645
 20
1329.2035513398298
 11
2019.5747920036451
 21
1328.3035513398297
  0
LINE
  8
_0-b_ラッチ断面__扉側
  6
DASHED1
 62
    7
 10
2023.1585420036449
 20
1329.5066013398297
 11
2021.0747920036451
 21
1328.3035513398297
  0
LINE
  8
_0-b_ラッチ断面__扉側
  6
DASHED1
 62
    7
 10
2023.3570920036449
 20
1328.7552013398296
 11
2022.5747920036451
 21
1328.3035513398297
  0
LINE
  8
_0-b_ラッチ断面__扉側
  6
DASHED1
 62
    7
 10
1964.3570920036449
 20
1330.5035513398297
 11
1964.3570920036449
 21
1329.3035513398297
  0
LINE
  8
_0-b_ラッチ断面__扉側
  6
DASHED1
 62
    7
 10
1964.3570920036449
 20
1329.3035513398297
 11
1964.3570920036449
 21
1326.3035513398299
  0
LINE
  8
_0-b_ラッチ断面__扉側
  6
DASHED1
 62
    7
 10
1992.881842003645
 20
1300.8035513398297
 11
1978.3570920036449
 21
1309.1894013398296
  0
LINE
  8
_0-b_ラッチ断面__扉側
  6
DASHED1
 62
    7
 10
1991.381842003645
 20
1300.8035513398297
 11
1978.3570920036449
 21
1308.32340133983
  0
LINE
  8
_0-b_ラッチ断面__扉側
  6
DASHED1
 62
    7
 10
1989.881842003645
 20
1300.8035513398297
 11
1978.332742003645
 21
1307.4714513398298
  0
LINE
  8
_0-b_ラッチ断面__扉側
  6
DASHED1
 62
    7
 10
1988.381842003645
 20
1300.8035513398297
 11
1978.3570920036449
 21
1306.5913513398299
  0
LINE
  8
_0-b_ラッチ断面__扉側
  6
DASHED1
 62
    7
 10
1986.881842003645
 20
1300.8035513398297
 11
1978.3570920036449
 21
1305.7253013398299
  0
LINE
  8
_0-b_ラッチ断面__扉側
  6
DASHED1
 62
    7
 10
1985.381842003645
 20
1300.8035513398297
 11
1978.3570920036449
 21
1304.8593013398296
  0
LINE
  8
_0-b_ラッチ断面__扉側
  6
DASHED1
 62
    7
 10
1983.881842003645
 20
1300.8035513398297
 11
1978.3570920036449
 21
1303.9932513398298
  0
LINE
  8
_0-b_ラッチ断面__扉側
  6
DASHED1
 62
    7
 10
1982.381842003645
 20
1300.8035513398297
 11
1978.3570920036449
 21
1303.1272513398298
  0
LINE
  8
_0-b_ラッチ断面__扉側
  6
DASHED1
 62
    7
 10
1980.881842003645
 20
1300.8035513398297
 11
1978.447492003645
 21
1302.2090013398296
  0
LINE
  8
_0-b_ラッチ断面__扉側
  6
DASHED1
 62
    7
 10
1989.3570920036449
 20
1319.3035513398297
 11
1989.3570920036449
 21
1315.8035513398297
  0
LINE
  8
_0-b_ラッチ断面__扉側
  6
DASHED1
 62
    7
 10
1978.3570920036449
 20
1302.8035513398299
 11
1978.3570920036449
 21
1325.3035513398299
  0
LINE
  8
_0-b_ラッチ断面__扉側
  6
DASHED1
 62
    7
 10
1980.3570920036449
 20
1300.8035513398297
 11
2018.3570920036449
 21
1300.8035513398297
  0
LINE
  8
_0-b_ラッチ断面__扉側
  6
DASHED1
 62
    7
 10
1988.3570920036449
 20
1314.8035513398299
 11
1978.3570920036449
 21
1314.8035513398299
  0
LINE
  8
_0-b_ラッチ断面__扉側
  6
DASHED1
 62
    7
 10
2018.5658920036451
 20
1302.9172013398297
 11
2009.3570920036449
 21
1302.4345513398297
  0
LINE
  8
_0-b_ラッチ断面__扉側
  6
DASHED1
 62
    7
 10
1995.1477420036451
 20
1302.9172013398297
 11
2005.8570920036449
 21
1302.3559513398299
  0
LINE
  8
_0-b_ラッチ断面__扉側
  6
DASHED1
 62
    7
 10
2006.251242003645
 20
1319.2671513398297
 11
2006.251242003645
 21
1318.8489513398299
  0
LINE
  8
_0-b_ラッチ断面__扉側
  6
DASHED1
 62
    7
 10
2020.2187920036451
 20
1314.6665013398298
 11
2007.8570920036449
 21
1321.8035513398297
  0
LINE
  8
_0-b_ラッチ断面__扉側
  6
DASHED1
 62
    7
 10
2021.2104920036449
 20
1317.0373513398296
 11
2010.3570920036449
 21
1323.3035513398297
  0
LINE
  8
_0-b_ラッチ断面__扉側
  6
DASHED1
 62
    7
 10
1992.4494920036452
 20
1317.67510133983
 11
2007.8570920036449
 21
1321.8035513398297
  0
LINE
  8
_0-b_ラッチ断面__扉側
  6
DASHED1
 62
    7
 10
1989.3570920036449
 20
1311.1035513398296
 11
1980.3570920036449
 21
1311.1035513398296
  0
LINE
  8
_0-b_ラッチ断面__扉側
  6
DASHED1
 62
    7
 10
1989.3570920036449
 20
1311.1035513398296
 11
1989.3570920036449
 21
1306.8035513398297
  0
LINE
  8
_0-b_ラッチ断面__扉側
  6
DASHED1
 62
    7
 10
1989.3570920036449
 20
1311.1035513398296
 11
1989.3570920036449
 21
1315.8035513398297
  0
LINE
  8
_0-b_ラッチ断面__扉側
  6
DASHED1
 62
    7
 10
1957.1071420036448
 20
1321.8035513398297
 11
1954.6071420036448
 21
1321.8035513398297
  0
LINE
  8
_0-b_ラッチ断面__扉側
  6
DASHED1
 62
    7
 10
1954.6071420036448
 20
1329.3035513398297
 11
1954.6071420036448
 21
1321.8035513398297
  0
LINE
  8
_0-b_ラッチ断面__扉側
  6
DASHED1
 62
    7
 10
1957.1071420036448
 20
1329.3035513398297
 11
1957.1071420036448
 21
1321.8035513398297
  0
LINE
  8
_0-b_ラッチ断面__扉側
  6
DASHED1
 62
    7
 10
1955.8571420036448
 20
1320.2135513398297
 11
1955.8571420036448
 21
1331.3035513398299
  0
ARC
  8
_0-b_ラッチ断面__扉側
  6
DASHED1
 62
    7
 10
2018.3570920036449
 20
1306.8035513398297
 40
6.0000000000000008
 50
269.99999999999988
 51
359.99999999999988
  0
ARC
  8
_0-b_ラッチ断面__扉側
  6
DASHED1
 62
    7
 10
1995.3570920036449
 20
1306.91175133983
 40
4
 50
179.99999999999991
 51
202.63099999999988
  0
ARC
  8
_0-b_ラッチ断面__扉側
  6
DASHED1
 62
    7
 10
2018.3570920036449
 20
1306.9012513398297
 40
4
 50
304.46999999999991
 51
0.0000000000000826
  0
ARC
  8
_0-b_ラッチ断面__扉側
  6
DASHED1
 62
    7
 10
1985.3570920036449
 20
1321.3035513398299
 40
4
 50
84.812999999999973
 51
89.999999999999971
  0
ARC
  8
_0-b_ラッチ断面__扉側
  6
DASHED1
 62
    7
 10
1985.3570920036449
 20
1321.3035513398299
 40
4
 50
359.99999999999994
 51
84.813000000000002
  0
CIRCLE
  8
_0-b_ラッチ断面__扉側
  6
DASHED1
 62
    7
 10
1994.3570920036449
 20
1319.3035513398297
 40
2.1
  0
CIRCLE
  8
_0-b_ラッチ断面__扉側
  6
DASHED1
 62
    7
 10
1994.3570920036449
 20
1319.3035513398297
 40
3.0000000000000004
  0
ARC
  8
_0-b_ラッチ断面__扉側
  6
DASHED1
 62
    7
 10
1954.3571420036448
 20
1328.3035513398297
 40
1
 50
89.999999999999971
 51
180
  0
ARC
  8
_0-b_ラッチ断面__扉側
  6
DASHED1
 62
    7
 10
1996.524742003645
 20
1321.3775013398299
 40
6.0000000000000008
 50
223.73399999999995
 51
281.21399999999994
  0
CIRCLE
  8
_0-b_ラッチ断面__扉側
  6
DASHED1
 62
    7
 10
1994.3570920036449
 20
1319.3035513398297
 40
3.0000000000000004
  0
CIRCLE
  8
_0-b_ラッチ断面__扉側
  6
DASHED1
 62
    7
 10
1994.3570920036449
 20
1319.3035513398297
 40
2.1
  0
ARC
  8
_0-b_ラッチ断面__扉側
  6
DASHED1
 62
    7
 10
1983.285492003645
 20
1323.3035513398297
 40
2
 50
44.999999999999964
 51
89.999999999999971
  0
ARC
  8
_0-b_ラッチ断面__扉側
  6
DASHED1
 62
    7
 10
1986.5281420036449
 20
1324.3035513398297
 40
5
 50
44.999999999999964
 51
89.999999999999971
  0
ARC
  8
_0-b_ラッチ断面__扉側
  6
DASHED1
 62
    7
 10
1998.0844920036452
 20
1328.3035513398297
 40
6.0000000000000008
 50
224.99999999999994
 51
269.99999999999994
  0
ARC
  8
_0-b_ラッチ断面__扉側
  6
DASHED1
 62
    7
 10
1992.1906920036451
 20
1318.6410013398299
 40
1
 50
224.99999999999991
 51
284.99999999999994
  0
ARC
  8
_0-b_ラッチ断面__扉側
  6
DASHED1
 62
    7
 10
2021.7230420036448
 20
1322.4943013398296
 40
10
 50
240.93599999999992
 51
257.62099999999992
  0
ARC
  8
_0-b_ラッチ断面__扉側
  6
DASHED1
 62
    7
 10
2019.7936420036448
 20
1313.70355133983
 40
1
 50
257.62099999999986
 51
352.99999999999994
  0
ARC
  8
_0-b_ラッチ断面__扉側
  6
DASHED1
 62
    7
 10
2005.9570920036449
 20
1273.8035513398299
 40
42.00685
 50
86.96199999999996
 51
94.376999999999995
  0
ARC
  8
_0-b_ラッチ断面__扉側
  6
DASHED1
 62
    7
 10
2007.1495420036449
 20
1296.2719513398296
 40
19.50685
 50
71.771999999999977
 51
86.961999999999974
  0
ARC
  8
_0-b_ラッチ断面__扉側
  6
DASHED1
 62
    7
 10
2005.9570920036449
 20
1273.8035513398299
 40
42.706699999999997
 50
86.96199999999996
 51
94.304999999999992
  0
ARC
  8
_0-b_ラッチ断面__扉側
  6
DASHED1
 62
    7
 10
2007.1495420036449
 20
1296.2719513398296
 40
20.206700000000004
 50
72.423999999999978
 51
86.961999999999974
  0
ARC
  8
_0-b_ラッチ断面__扉側
  6
DASHED1
 62
    7
 10
2005.9570920036449
 20
1273.8035513398299
 40
42.5
 50
86.96199999999996
 51
101.21399999999999
  0
ARC
  8
_0-b_ラッチ断面__扉側
  6
DASHED1
 62
    7
 10
2007.1495420036449
 20
1296.2719513398296
 40
20
 50
60.935999999999985
 51
87.972999999999984
  0
ARC
  8
_0-b_ラッチ断面__扉側
  6
DASHED1
 62
    7
 10
2020.4687920036451
 20
1315.0995513398299
 40
0.5
 50
239.99999999999994
 51
352.99999999999994
  0
ARC
  8
_0-b_ラッチ断面__扉側
  6
DASHED1
 62
    7
 10
1994.3570920036449
 20
1319.3035513398297
 40
2.2999999999999998
 50
179.99999999999985
 51
359.99999999999988
  0
ARC
  8
_0-b_ラッチ断面__扉側
  6
DASHED1
 62
    7
 10
1985.3570920036449
 20
1323.3035513398297
 40
2
 50
359.99999999999994
 51
89.999999999999943
  0
ARC
  8
_0-b_ラッチ断面__扉側
  6
DASHED1
 62
    7
 10
1989.3570920036449
 20
1322.8035513398299
 40
2
 50
179.99999999999985
 51
209.99999999999991
  0
ARC
  8
_0-b_ラッチ断面__扉側
  6
DASHED1
 62
    7
 10
1993.3570920036449
 20
1322.5035513398299
 40
1
 50
179.99999999999991
 51
269.99999999999994
  0
ARC
  8
_0-b_ラッチ断面__扉側
  6
DASHED1
 62
    7
 10
1995.6570920036449
 20
1322.5035513398299
 40
1
 50
269.99999999999988
 51
359.99999999999988
  0
ARC
  8
_0-b_ラッチ断面__扉側
  6
DASHED1
 62
    7
 10
1965.3570920036449
 20
1326.3035513398299
 40
1
 50
179.99999999999991
 51
269.99999999999994
  0
ARC
  8
_0-b_ラッチ断面__扉側
  6
DASHED1
 62
    7
 10
2007.4170920036451
 20
1311.0935513398299
 40
8.7300000000000004
 50
146.57599999999996
 51
22.665999999999996
  0
ARC
  8
_0-b_ラッチ断面__扉側
  6
DASHED1
 62
    7
 10
1980.3570920036449
 20
1312.1035513398301
 40
1
 50
179.99999999999991
 51
269.99999999999994
  0
ARC
  8
_0-b_ラッチ断面__扉側
  6
DASHED1
 62
    7
 10
1988.3570920036449
 20
1315.8035513398297
 40
1
 50
269.99999999999988
 51
359.99999999999988
  0
ARC
  8
_0-b_ラッチ断面__扉側
  6
DASHED1
 62
    7
 10
1980.3570920036449
 20
1302.8035513398299
 40
2
 50
179.99999999999991
 51
269.99999999999994
  0
ARC
  8
_0-b_ラッチ断面__扉側
  6
DASHED1
 62
    7
 10
2018.3570920036449
 20
1306.9012513398297
 40
4
 50
273
 51
304.46999999999985
  0
ARC
  8
_0-b_ラッチ断面__扉側
  6
DASHED1
 62
    7
 10
1995.3570920036449
 20
1306.91175133983
 40
4
 50
202.63099999999991
 51
266.99999999999994
  0
ARC
  8
_0-b_ラッチ断面__扉側
  6
DASHED1
 62
    7
 10
2005.9570920036449
 20
1273.8035513398299
 40
45.472499999999996
 50
86.96199999999996
 51
89.629000000000019
  0
ARC
  8
_0-b_ラッチ断面__扉側
  6
DASHED1
 62
    7
 10
2005.9570920036449
 20
1273.8035513398299
 40
45.046349999999996
 50
86.96199999999996
 51
89.625999999999976
  0
ARC
  8
_0-b_ラッチ断面__扉側
  6
DASHED1
 62
    7
 10
2007.1495420036449
 20
1296.2719513398296
 40
22.54635
 50
74.297999999999973
 51
86.961999999999974
  0
ARC
  8
_0-b_ラッチ断面__扉側
  6
DASHED1
 62
    7
 10
2007.1495420036449
 20
1296.2719513398296
 40
22.9725
 50
74.596999999999965
 51
86.96199999999996
  0
ARC
  8
_0-b_ラッチ断面__扉側
  6
DASHED1
 62
    7
 10
2007.4170920036451
 20
1311.0935513398299
 40
8.7300000000000004
 50
22.665999999999975
 51
146.57599999999999
  0
ARC
  8
_0-b_ラッチ断面__扉側
  6
DASHED1
 62
    7
 10
1995.3570920036449
 20
1306.8035513398297
 40
6.0000000000000008
 50
179.99999999999991
 51
269.99999999999994
  0
LINE
  8
_0-b_ラッチ断面__扉側
  6
DASHED1
 62
    7
 10
2006.8570920036449
 20
1331.4035513398298
 11
2006.8570920036449
 21
1297.0035513398297
  0
ARC
  8
_0-b_ラッチ断面__扉側
  6
DASHED1
 62
    7
 10
1943.0570920036443
 20
1315.2410513398297
 40
1.1999999999999999
 50
90.000000000000028
 51
180.00000000000005
  0
ARC
  8
_0-b_ラッチ断面__扉側
  6
DASHED1
 62
    7
 10
1943.0570920036443
 20
1315.2410513398297
 40
1.1999999999999999
 50
90.000000000000028
 51
180.00000000000005
  0
LINE
  8
_0-b_ラッチ断面__扉側
  6
DASHED1
 62
    7
 10
1941.8570920036445
 20
1312.2410513398299
 11
1943.0570920036443
 21
1312.2410513398299
  0
LINE
  8
_0-b_ラッチ断面__扉側
  6
DASHED1
 62
    7
 10
1943.0570920036443
 20
1315.2410513398297
 11
1943.0570920036443
 21
1295.2410513398297
  0
LINE
  8
_0-b_ラッチ断面__扉側
  6
DASHED1
 62
    7
 10
1941.8570920036445
 20
1295.2410513398297
 11
1943.0570920036443
 21
1295.2410513398297
  0
LINE
  8
_0-b_ラッチ断面__扉側
  6
DASHED1
 62
    7
 10
1941.8570920036445
 20
1315.2410513398297
 11
1941.8570920036445
 21
1295.2410513398297
  0
LINE
  8
_0-b_ラッチ断面__扉側
  6
DASHED1
 62
    7
 10
1943.0570920036443
 20
1314.7410513398299
 11
1943.0570920036443
 21
1299.6003513398297
  0
LINE
  8
_0-b_ラッチ断面__扉側
  6
DASHED1
 62
    7
 10
1943.5570920036445
 20
1315.2410513398297
 11
1958.6977920036447
 21
1315.2410513398297
  0
LINE
  8
_0-b_ラッチ断面__扉側
  6
DASHED1
 62
    7
 10
1972.8570920036445
 20
1315.2410513398297
 11
1972.8570920036445
 21
1316.4410513398297
  0
LINE
  8
_0-b_ラッチ断面__扉側
  6
DASHED1
 62
    7
 10
1943.0570920036443
 20
1316.4410513398297
 11
1978.8570920036445
 21
1316.4410513398297
  0
LINE
  8
_0-b_ラッチ断面__扉側
  6
DASHED1
 62
    7
 10
1943.0570920036443
 20
1315.2410513398297
 11
1978.8570920036445
 21
1315.2410513398297
  0
LINE
  8
_0-b_ラッチ断面__扉側
  6
DASHED1
 62
    7
 10
1978.8570920036445
 20
1316.4410513398297
 11
1978.8570920036445
 21
1315.2410513398297
  0
LINE
  8
_0-b_ラッチ断面__扉側
  6
DASHED1
 62
    7
 10
933.82476271240375
 20
2222.2744603287765
 11
933.32476271240375
 21
2222.2744603287765
  0
LINE
  8
_0-b_ラッチ断面__扉側
  6
DASHED1
 62
    7
 10
910.82476271240375
 20
2222.2744603287765
 11
911.32476271240375
 21
2222.2744603287765
  0
LINE
  8
_0-b_ラッチ断面__扉側
  6
DASHED1
 62
    7
 10
913.82476271240375
 20
2282.2744603287765
 11
930.82476271240375
 21
2282.2744603287765
  0
LINE
  8
_0-b_ラッチ断面__扉側
  6
DASHED1
 62
    7
 10
914.32476271240375
 20
2247.2744603287765
 11
930.32476271240375
 21
2247.2744603287765
  0
LINE
  8
_0-b_ラッチ断面__扉側
  6
DASHED1
 62
    7
 10
933.82476271240375
 20
2222.2744603287765
 11
933.32476271240375
 21
2222.2744603287765
  0
LINE
  8
_0-b_ラッチ断面__扉側
  6
DASHED1
 62
    7
 10
939.82476271240375
 20
2249.2744603287765
 11
940.82476271240375
 21
2249.2744603287765
  0
LINE
  8
_0-b_ラッチ断面__扉側
  6
DASHED1
 62
    7
 10
939.82476271240375
 20
2273.2744603287765
 11
939.82476271240375
 21
2249.2744603287765
  0
LINE
  8
_0-b_ラッチ断面__扉側
  6
DASHED1
 62
    7
 10
904.82476271240375
 20
2249.2744603287765
 11
903.82476271240375
 21
2249.2744603287765
  0
LINE
  8
_0-b_ラッチ断面__扉側
  6
DASHED1
 62
    7
 10
904.82476271240375
 20
2273.2744603287765
 11
904.82476271240375
 21
2249.2744603287765
  0
LINE
  8
_0-b_ラッチ断面__扉側
  6
DASHED1
 62
    7
 10
903.43476271240365
 20
2252.2744603287765
 11
910.82476271240375
 21
2252.2744603287765
  0
LINE
  8
_0-b_ラッチ断面__扉側
  6
DASHED1
 62
    7
 10
933.82476271240375
 20
2252.2744603287765
 11
941.92476271240366
 21
2252.2744603287765
  0
LINE
  8
_0-b_ラッチ断面__扉側
  6
DASHED1
 62
    7
 10
912.32476271240375
 20
2247.2744603287765
 11
912.32476271240375
 21
2244.4744603287767
  0
LINE
  8
_0-b_ラッチ断面__扉側
  6
DASHED1
 62
    7
 10
913.82476271240375
 20
2245.8744603287768
 11
912.82476271240375
 21
2245.8744603287768
  0
LINE
  8
_0-b_ラッチ断面__扉側
  6
DASHED1
 62
    7
 10
930.82476271240375
 20
2245.8744603287768
 11
931.82476271240375
 21
2245.8744603287768
  0
LINE
  8
_0-b_ラッチ断面__扉側
  6
DASHED1
 62
    7
 10
932.32476271240375
 20
2247.2744603287765
 11
932.32476271240375
 21
2244.4744603287767
  0
LINE
  8
_0-b_ラッチ断面__扉側
  6
DASHED1
 62
    7
 10
930.32476271240375
 20
2247.2744603287765
 11
930.32476271240375
 21
2225.2744603287765
  0
LINE
  8
_0-b_ラッチ断面__扉側
  6
DASHED1
 62
    7
 10
914.32476271240375
 20
2247.2744603287765
 11
914.32476271240375
 21
2225.2744603287765
  0
LINE
  8
_0-b_ラッチ断面__扉側
  6
DASHED1
 62
    7
 10
920.08871271240377
 20
2220.2745103287766
 11
924.56081271240373
 21
2220.2745103287766
  0
LINE
  8
_0-b_ラッチ断面__扉側
  6
DASHED1
 62
    7
 10
925.82476271240375
 20
2218.2745103287766
 11
925.82476271240375
 21
2216.2745103287766
  0
LINE
  8
_0-b_ラッチ断面__扉側
  6
DASHED1
 62
    7
 10
918.82476271240375
 20
2218.2745103287766
 11
918.82476271240375
 21
2216.2745103287766
  0
LINE
  8
_0-b_ラッチ断面__扉側
  6
DASHED1
 62
    7
 10
918.82476271240375
 20
2216.2745103287766
 11
919.32476271240375
 21
2216.2745103287766
  0
LINE
  8
_0-b_ラッチ断面__扉側
  6
DASHED1
 62
    7
 10
925.32476271240375
 20
2216.2745103287766
 11
925.82476271240375
 21
2216.2745103287766
  0
LINE
  8
_0-b_ラッチ断面__扉側
  6
DASHED1
 62
    7
 10
925.82476271240375
 20
2211.2745103287766
 11
918.82476271240375
 21
2211.2745103287766
  0
LINE
  8
_0-b_ラッチ断面__扉側
  6
DASHED1
 62
    7
 10
925.8707127124037
 20
2211.3204603287767
 11
925.82476271240375
 21
2211.2745103287766
  0
LINE
  8
_0-b_ラッチ断面__扉側
  6
DASHED1
 62
    7
 10
918.7788127124038
 20
2211.3204603287767
 11
918.82476271240375
 21
2211.2745103287766
  0
LINE
  8
_0-b_ラッチ断面__扉側
  6
DASHED1
 62
    7
 10
925.32476271240375
 20
2218.2745103287766
 11
925.32476271240375
 21
2212.2745103287761
  0
LINE
  8
_0-b_ラッチ断面__扉側
  6
DASHED1
 62
    7
 10
919.32476271240375
 20
2218.2745103287766
 11
919.32476271240375
 21
2212.2745103287761
  0
LINE
  8
_0-b_ラッチ断面__扉側
  6
DASHED1
 62
    7
 10
919.32476271240375
 20
2216.2745103287766
 11
925.32476271240375
 21
2216.2745103287766
  0
LINE
  8
_0-b_ラッチ断面__扉側
  6
DASHED1
 62
    7
 10
917.75371271240373
 20
2212.3455603287766
 11
918.7788127124038
 21
2211.3204603287767
  0
LINE
  8
_0-b_ラッチ断面__扉側
  6
DASHED1
 62
    7
 10
926.89581271240376
 20
2212.3455603287766
 11
925.8707127124037
 21
2211.3204603287767
  0
LINE
  8
_0-b_ラッチ断面__扉側
  6
DASHED1
 62
    7
 10
929.82476271240375
 20
2219.4166103287766
 11
929.82476271240375
 21
2247.2744603287765
  0
LINE
  8
_0-b_ラッチ断面__扉側
  6
DASHED1
 62
    7
 10
914.82476271240375
 20
2219.4166103287766
 11
914.82476271240375
 21
2247.2744603287765
  0
LINE
  8
_0-b_ラッチ断面__扉側
  6
DASHED1
 62
    7
 10
909.14931271240379
 20
2239.0370603287765
 11
908.93781271240368
 21
2239.3125603287767
  0
LINE
  8
_0-b_ラッチ断面__扉側
  6
DASHED1
 62
    7
 10
909.14931271240379
 20
2239.0370603287765
 11
909.82476271240375
 21
2239.7744603287765
  0
LINE
  8
_0-b_ラッチ断面__扉側
  6
DASHED1
 62
    7
 10
908.93781271240368
 20
2239.3125603287767
 11
909.82476271240375
 21
2239.7744603287765
  0
LINE
  8
_0-b_ラッチ断面__扉側
  6
DASHED1
 62
    7
 10
930.32476271240375
 20
2247.2744603287765
 11
939.52476271240357
 21
2247.2744603287765
  0
LINE
  8
_0-b_ラッチ断面__扉側
  6
DASHED1
 62
    7
 10
914.32476271240375
 20
2247.2744603287765
 11
905.12476271240393
 21
2247.2744603287765
  0
LINE
  8
_0-b_ラッチ断面__扉側
  6
DASHED1
 62
    7
 10
923.32476271240375
 20
2247.2744603287765
 11
923.32476271240375
 21
2237.7748603287768
  0
LINE
  8
_0-b_ラッチ断面__扉側
  6
DASHED1
 62
    7
 10
921.32476271240375
 20
2247.2744603287765
 11
921.32476271240375
 21
2237.7748603287768
  0
LINE
  8
_0-b_ラッチ断面__扉側
  6
DASHED1
 62
    7
 10
921.82476271240375
 20
2237.2748603287764
 11
922.82476271240375
 21
2237.2748603287764
  0
LINE
  8
_0-b_ラッチ断面__扉側
  6
DASHED1
 62
    7
 10
921.32476271240375
 20
2241.4944603287767
 11
914.82476271240375
 21
2241.4944603287767
  0
LINE
  8
_0-b_ラッチ断面__扉側
  6
DASHED1
 62
    7
 10
929.82476271240375
 20
2241.4944603287767
 11
923.32476271240375
 21
2241.4944603287767
  0
LINE
  8
_0-b_ラッチ断面__扉側
  6
DASHED1
 62
    7
 10
921.32476271240375
 20
2241.8644603287766
 11
920.26401271240365
 21
2241.8644603287766
  0
LINE
  8
_0-b_ラッチ断面__扉側
  6
DASHED1
 62
    7
 10
917.88551271240385
 20
2241.8644603287766
 11
914.82476271240375
 21
2241.8644603287766
  0
LINE
  8
_0-b_ラッチ断面__扉側
  6
DASHED1
 62
    7
 10
929.82476271240375
 20
2241.8644603287766
 11
926.76401271240365
 21
2241.8644603287766
  0
LINE
  8
_0-b_ラッチ断面__扉側
  6
DASHED1
 62
    7
 10
924.38551271240362
 20
2241.8644603287766
 11
923.32476271240375
 21
2241.8644603287766
  0
LINE
  8
_0-b_ラッチ断面__扉側
  6
DASHED1
 62
    7
 10
941.82476271240375
 20
2237.2744603287765
 11
941.82476271240375
 21
2248.2744603287765
  0
LINE
  8
_0-b_ラッチ断面__扉側
  6
DASHED1
 62
    7
 10
939.82476271240375
 20
2236.2744603287769
 11
940.82476271240375
 21
2236.2744603287769
  0
LINE
  8
_0-b_ラッチ断面__扉側
  6
DASHED1
 62
    7
 10
939.82476271240375
 20
2246.9744603287767
 11
939.82476271240375
 21
2228.2744603287765
  0
LINE
  8
_0-b_ラッチ断面__扉側
  6
DASHED1
 62
    7
 10
902.82476271240375
 20
2237.2744603287765
 11
902.82476271240375
 21
2248.2744603287765
  0
LINE
  8
_0-b_ラッチ断面__扉側
  6
DASHED1
 62
    7
 10
904.82476271240375
 20
2236.2744603287769
 11
903.82476271240375
 21
2236.2744603287769
  0
LINE
  8
_0-b_ラッチ断面__扉側
  6
DASHED1
 62
    7
 10
904.82476271240375
 20
2246.9744603287767
 11
904.82476271240375
 21
2228.2744603287765
  0
LINE
  8
_0-b_ラッチ断面__扉側
  6
DASHED1
 62
    7
 10
922.32476271240375
 20
2283.9744603287767
 11
922.32476271240375
 21
2208.6744603287761
  0
LINE
  8
_0-b_ラッチ断面__扉側
  6
DASHED1
 62
    7
 10
903.69476271240364
 20
2264.7744603287765
 11
942.72476271240384
 21
2264.7744603287765
  0
LINE
  8
_0-b_ラッチ断面__扉側
  6
DASHED1
 62
    7
 10
909.82476271240375
 20
2243.9244603287766
 11
909.82476271240375
 21
2235.674460328777
  0
LINE
  8
_0-b_ラッチ断面__扉側
  6
DASHED1
 62
    7
 10
913.07476271240375
 20
2239.7744603287765
 11
906.52476271240357
 21
2239.7744603287765
  0
LINE
  8
_0-b_ラッチ断面__扉側
  6
DASHED1
 62
    7
 10
934.82476271240375
 20
2243.5944603287766
 11
934.82476271240375
 21
2235.8744603287768
  0
LINE
  8
_0-b_ラッチ断面__扉側
  6
DASHED1
 62
    7
 10
931.55476271240377
 20
2239.7744603287765
 11
938.56476271240376
 21
2239.7744603287765
  0
LINE
  8
_0-b_ラッチ断面__扉側
  6
DASHED1
 62
    7
 10
925.88476271240369
 20
2213.7745103287766
 11
918.61476271240371
 21
2213.7745103287766
  0
ARC
  8
_0-b_ラッチ断面__扉側
  6
DASHED1
 62
    7
 10
930.82476271240375
 20
2273.2744603287765
 40
9
 50
0.0000000000000254
 51
90.000000000000056
  0
ARC
  8
_0-b_ラッチ断面__扉側
  6
DASHED1
 62
    7
 10
933.82476271240375
 20
2228.2744603287765
 40
6.0000000000000008
 50
270
 51
0
  0
ARC
  8
_0-b_ラッチ断面__扉側
  6
DASHED1
 62
    7
 10
933.32476271240375
 20
2225.2744603287765
 40
3.0000000000000004
 50
180.00000000000005
 51
270.00000000000005
  0
ARC
  8
_0-b_ラッチ断面__扉側
  6
DASHED1
 62
    7
 10
913.82476271240375
 20
2273.2744603287765
 40
9
 50
90.000000000000056
 51
180.00000000000011
  0
ARC
  8
_0-b_ラッチ断面__扉側
  6
DASHED1
 62
    7
 10
910.82476271240375
 20
2228.2744603287765
 40
6.0000000000000008
 50
180.00000000000005
 51
270.00000000000005
  0
ARC
  8
_0-b_ラッチ断面__扉側
  6
DASHED1
 62
    7
 10
911.32476271240375
 20
2225.2744603287765
 40
3.0000000000000004
 50
270
 51
0
  0
CIRCLE
  8
_0-b_ラッチ断面__扉側
  6
DASHED1
 62
    7
 10
909.82476271240375
 20
2239.7744603287765
 40
1.8999999999999999
  0
CIRCLE
  8
_0-b_ラッチ断面__扉側
  6
DASHED1
 62
    7
 10
934.82476271240375
 20
2239.7744603287765
 40
1.8999999999999999
  0
ARC
  8
_0-b_ラッチ断面__扉側
  6
DASHED1
 62
    7
 10
940.82476271240375
 20
2248.2744603287765
 40
1
 50
0.0000000000000254
 51
90.000000000000056
  0
ARC
  8
_0-b_ラッチ断面__扉側
  6
DASHED1
 62
    7
 10
903.82476271240375
 20
2248.2744603287765
 40
1
 50
90.000000000000056
 51
180.00000000000011
  0
ARC
  8
_0-b_ラッチ断面__扉側
  6
DASHED1
 62
    7
 10
906.82476271240375
 20
2249.2744603287765
 40
2
 50
180.00000000000005
 51
270.00000000000005
  0
ARC
  8
_0-b_ラッチ断面__扉側
  6
DASHED1
 62
    7
 10
913.82476271240375
 20
2246.3744603287768
 40
0.5
 50
270
 51
0
  0
ARC
  8
_0-b_ラッチ断面__扉側
  6
DASHED1
 62
    7
 10
912.82476271240375
 20
2246.3744603287768
 40
0.5
 50
180.00000000000005
 51
270.00000000000005
  0
ARC
  8
_0-b_ラッチ断面__扉側
  6
DASHED1
 62
    7
 10
930.82476271240375
 20
2246.3744603287768
 40
0.5
 50
180.00000000000005
 51
270.00000000000005
  0
ARC
  8
_0-b_ラッチ断面__扉側
  6
DASHED1
 62
    7
 10
931.82476271240375
 20
2246.3744603287768
 40
0.5
 50
270
 51
0
  0
ARC
  8
_0-b_ラッチ断面__扉側
  6
DASHED1
 62
    7
 10
937.82476271240375
 20
2249.2744603287765
 40
2
 50
270
 51
0
  0
ARC
  8
_0-b_ラッチ断面__扉側
  6
DASHED1
 62
    7
 10
922.32476271240375
 20
2218.2745103287766
 40
3.5000000000000008
 50
90.000000000000056
 51
180.00000000000011
  0
ARC
  8
_0-b_ラッチ断面__扉側
  6
DASHED1
 62
    7
 10
922.32476271240375
 20
2218.2745103287766
 40
3.5000000000000008
 50
0.0000000000000254
 51
90.000000000000056
  0
ARC
  8
_0-b_ラッチ断面__扉側
  6
DASHED1
 62
    7
 10
922.32476271240375
 20
2218.2745103287766
 40
3.0000000000000004
 50
138.19000000000005
 51
180.00000000000011
  0
ARC
  8
_0-b_ラッチ断面__扉側
  6
DASHED1
 62
    7
 10
922.32476271240375
 20
2218.2745103287766
 40
3.0000000000000004
 50
0.0000000000000254
 51
41.810000000000023
  0
ARC
  8
_0-b_ラッチ断面__扉側
  6
DASHED1
 62
    7
 10
920.32476271240375
 20
2212.2745103287761
 40
1
 50
180.00000000000005
 51
270.00000000000005
  0
ARC
  8
_0-b_ラッチ断面__扉側
  6
DASHED1
 62
    7
 10
924.32476271240375
 20
2212.2745103287761
 40
1
 50
270
 51
0
  0
ARC
  8
_0-b_ラッチ断面__扉側
  6
DASHED1
 62
    7
 10
924.82476271240375
 20
2219.4166103287766
 40
10
 50
180.00000000000005
 51
225.00000000000005
  0
ARC
  8
_0-b_ラッチ断面__扉側
  6
DASHED1
 62
    7
 10
919.82476271240375
 20
2219.4166103287766
 40
10
 50
315
 51
0
  0
ARC
  8
_0-b_ラッチ断面__扉側
  6
DASHED1
 62
    7
 10
939.52476271240357
 20
2246.9744603287767
 40
0.2999999999999998
 50
0.0000000000000254
 51
90.000000000000056
  0
ARC
  8
_0-b_ラッチ断面__扉側
  6
DASHED1
 62
    7
 10
905.12476271240393
 20
2246.9744603287767
 40
0.2999999999999998
 50
90.000000000000056
 51
180.00000000000011
  0
ARC
  8
_0-b_ラッチ断面__扉側
  6
DASHED1
 62
    7
 10
922.82476271240375
 20
2237.7748603287768
 40
0.5
 50
270
 51
0
  0
ARC
  8
_0-b_ラッチ断面__扉側
  6
DASHED1
 62
    7
 10
921.82476271240375
 20
2237.7748603287768
 40
0.5
 50
180.00000000000005
 51
270.00000000000005
  0
ARC
  8
_0-b_ラッチ断面__扉側
  6
DASHED1
 62
    7
 10
940.82476271240375
 20
2237.2744603287765
 40
1
 50
270
 51
0
  0
ARC
  8
_0-b_ラッチ断面__扉側
  6
DASHED1
 62
    7
 10
903.82476271240375
 20
2237.2744603287765
 40
1
 50
180.00000000000005
 51
270.00000000000005
  0
CIRCLE
  8
_0-b_ラッチ断面__扉側
  6
DASHED1
 62
    7
 10
925.57476271240375
 20
2237.2745103287761
 40
2.3250000000000001
  0
CIRCLE
  8
_0-b_ラッチ断面__扉側
  6
DASHED1
 62
    7
 10
919.07476271240375
 20
2237.2745103287761
 40
2.3250000000000001
  0
CIRCLE
  8
_0-b_ラッチ断面__扉側
  6
DASHED1
 62
    7
 10
919.07476271240375
 20
2243.7745103287766
 40
2.3250000000000001
  0
CIRCLE
  8
_0-b_ラッチ断面__扉側
  6
DASHED1
 62
    7
 10
925.57476271240375
 20
2243.7745103287766
 40
2.3250000000000001
  0
CIRCLE
  8
_0-b_ラッチ断面__扉側
  6
DASHED1
 62
    7
 10
922.32476271240375
 20
2213.7745103287766
 40
1.25
  0
LINE
  8
_0-b_ラッチ断面__扉側
  6
DASHED1
 62
    7
 10
1034.8247627124035
 20
2222.2744603287765
 11
1034.3247627124035
 21
2222.2744603287765
  0
LINE
  8
_0-b_ラッチ断面__扉側
  6
DASHED1
 62
    7
 10
1011.8247627124037
 20
2222.2744603287765
 11
1012.3247627124035
 21
2222.2744603287765
  0
LINE
  8
_0-b_ラッチ断面__扉側
  6
DASHED1
 62
    7
 10
1014.8247627124035
 20
2282.2744603287765
 11
1031.8247627124035
 21
2282.2744603287765
  0
LINE
  8
_0-b_ラッチ断面__扉側
  6
DASHED1
 62
    7
 10
1015.3247627124035
 20
2247.2744603287765
 11
1031.3247627124035
 21
2247.2744603287765
  0
LINE
  8
_0-b_ラッチ断面__扉側
  6
DASHED1
 62
    7
 10
1034.8247627124035
 20
2222.2744603287765
 11
1034.3247627124035
 21
2222.2744603287765
  0
LINE
  8
_0-b_ラッチ断面__扉側
  6
DASHED1
 62
    7
 10
1040.8247627124035
 20
2249.2744603287765
 11
1041.8247627124035
 21
2249.2744603287765
  0
LINE
  8
_0-b_ラッチ断面__扉側
  6
DASHED1
 62
    7
 10
1040.8247627124035
 20
2273.2744603287765
 11
1040.8247627124035
 21
2249.2744603287765
  0
LINE
  8
_0-b_ラッチ断面__扉側
  6
DASHED1
 62
    7
 10
1005.8247627124035
 20
2249.2744603287765
 11
1004.8247627124035
 21
2249.2744603287765
  0
LINE
  8
_0-b_ラッチ断面__扉側
  6
DASHED1
 62
    7
 10
1005.8247627124035
 20
2273.2744603287765
 11
1005.8247627124035
 21
2249.2744603287765
  0
LINE
  8
_0-b_ラッチ断面__扉側
  6
DASHED1
 62
    7
 10
1004.4347627124034
 20
2252.2744603287765
 11
1011.8247627124037
 21
2252.2744603287765
  0
LINE
  8
_0-b_ラッチ断面__扉側
  6
DASHED1
 62
    7
 10
1034.8247627124035
 20
2252.2744603287765
 11
1042.9247627124034
 21
2252.2744603287765
  0
LINE
  8
_0-b_ラッチ断面__扉側
  6
DASHED1
 62
    7
 10
1013.3247627124035
 20
2247.2744603287765
 11
1013.3247627124035
 21
2244.4744603287767
  0
LINE
  8
_0-b_ラッチ断面__扉側
  6
DASHED1
 62
    7
 10
1014.8247627124035
 20
2245.8744603287768
 11
1013.8247627124035
 21
2245.8744603287768
  0
LINE
  8
_0-b_ラッチ断面__扉側
  6
DASHED1
 62
    7
 10
1031.8247627124035
 20
2245.8744603287768
 11
1032.8247627124035
 21
2245.8744603287768
  0
LINE
  8
_0-b_ラッチ断面__扉側
  6
DASHED1
 62
    7
 10
1033.3247627124035
 20
2247.2744603287765
 11
1033.3247627124035
 21
2244.4744603287767
  0
LINE
  8
_0-b_ラッチ断面__扉側
  6
DASHED1
 62
    7
 10
1031.3247627124035
 20
2247.2744603287765
 11
1031.3247627124035
 21
2225.2744603287765
  0
LINE
  8
_0-b_ラッチ断面__扉側
  6
DASHED1
 62
    7
 10
1015.3247627124035
 20
2247.2744603287765
 11
1015.3247627124035
 21
2225.2744603287765
  0
LINE
  8
_0-b_ラッチ断面__扉側
  6
DASHED1
 62
    7
 10
1021.0887127124035
 20
2220.2745103287766
 11
1025.5608127124035
 21
2220.2745103287766
  0
LINE
  8
_0-b_ラッチ断面__扉側
  6
DASHED1
 62
    7
 10
1026.8247627124035
 20
2218.2745103287766
 11
1026.8247627124035
 21
2216.2745103287766
  0
LINE
  8
_0-b_ラッチ断面__扉側
  6
DASHED1
 62
    7
 10
1019.8247627124035
 20
2218.2745103287766
 11
1019.8247627124035
 21
2216.2745103287766
  0
LINE
  8
_0-b_ラッチ断面__扉側
  6
DASHED1
 62
    7
 10
1019.8247627124035
 20
2216.2745103287766
 11
1020.3247627124035
 21
2216.2745103287766
  0
LINE
  8
_0-b_ラッチ断面__扉側
  6
DASHED1
 62
    7
 10
1026.3247627124035
 20
2216.2745103287766
 11
1026.8247627124035
 21
2216.2745103287766
  0
LINE
  8
_0-b_ラッチ断面__扉側
  6
DASHED1
 62
    7
 10
1026.8247627124035
 20
2211.2745103287766
 11
1019.8247627124035
 21
2211.2745103287766
  0
LINE
  8
_0-b_ラッチ断面__扉側
  6
DASHED1
 62
    7
 10
1026.8707127124034
 20
2211.3204603287767
 11
1026.8247627124035
 21
2211.2745103287766
  0
LINE
  8
_0-b_ラッチ断面__扉側
  6
DASHED1
 62
    7
 10
1019.7788127124035
 20
2211.3204603287767
 11
1019.8247627124035
 21
2211.2745103287766
  0
LINE
  8
_0-b_ラッチ断面__扉側
  6
DASHED1
 62
    7
 10
1026.3247627124035
 20
2218.2745103287766
 11
1026.3247627124035
 21
2212.2745103287761
  0
LINE
  8
_0-b_ラッチ断面__扉側
  6
DASHED1
 62
    7
 10
1020.3247627124035
 20
2218.2745103287766
 11
1020.3247627124035
 21
2212.2745103287761
  0
LINE
  8
_0-b_ラッチ断面__扉側
  6
DASHED1
 62
    7
 10
1020.3247627124035
 20
2216.2745103287766
 11
1026.3247627124035
 21
2216.2745103287766
  0
LINE
  8
_0-b_ラッチ断面__扉側
  6
DASHED1
 62
    7
 10
1018.7537127124035
 20
2212.3455603287766
 11
1019.7788127124035
 21
2211.3204603287767
  0
LINE
  8
_0-b_ラッチ断面__扉側
  6
DASHED1
 62
    7
 10
1027.8958127124035
 20
2212.3455603287766
 11
1026.8707127124034
 21
2211.3204603287767
  0
LINE
  8
_0-b_ラッチ断面__扉側
  6
DASHED1
 62
    7
 10
1030.8247627124035
 20
2219.4166103287766
 11
1030.8247627124035
 21
2247.2744603287765
  0
LINE
  8
_0-b_ラッチ断面__扉側
  6
DASHED1
 62
    7
 10
1015.8247627124035
 20
2219.4166103287766
 11
1015.8247627124035
 21
2247.2744603287765
  0
LINE
  8
_0-b_ラッチ断面__扉側
  6
DASHED1
 62
    7
 10
1010.1493127124035
 20
2239.0370603287765
 11
1009.9378127124034
 21
2239.3125603287767
  0
LINE
  8
_0-b_ラッチ断面__扉側
  6
DASHED1
 62
    7
 10
1010.1493127124035
 20
2239.0370603287765
 11
1010.8247627124035
 21
2239.7744603287765
  0
LINE
  8
_0-b_ラッチ断面__扉側
  6
DASHED1
 62
    7
 10
1009.9378127124034
 20
2239.3125603287767
 11
1010.8247627124035
 21
2239.7744603287765
  0
LINE
  8
_0-b_ラッチ断面__扉側
  6
DASHED1
 62
    7
 10
1031.3247627124035
 20
2247.2744603287765
 11
1040.5247627124033
 21
2247.2744603287765
  0
LINE
  8
_0-b_ラッチ断面__扉側
  6
DASHED1
 62
    7
 10
1015.3247627124035
 20
2247.2744603287765
 11
1006.1247627124037
 21
2247.2744603287765
  0
LINE
  8
_0-b_ラッチ断面__扉側
  6
DASHED1
 62
    7
 10
1024.3247627124035
 20
2247.2744603287765
 11
1024.3247627124035
 21
2237.7748603287768
  0
LINE
  8
_0-b_ラッチ断面__扉側
  6
DASHED1
 62
    7
 10
1022.3247627124035
 20
2247.2744603287765
 11
1022.3247627124035
 21
2237.7748603287768
  0
LINE
  8
_0-b_ラッチ断面__扉側
  6
DASHED1
 62
    7
 10
1022.8247627124035
 20
2237.2748603287764
 11
1023.8247627124035
 21
2237.2748603287764
  0
LINE
  8
_0-b_ラッチ断面__扉側
  6
DASHED1
 62
    7
 10
1022.3247627124035
 20
2241.4944603287767
 11
1015.8247627124035
 21
2241.4944603287767
  0
LINE
  8
_0-b_ラッチ断面__扉側
  6
DASHED1
 62
    7
 10
1030.8247627124035
 20
2241.4944603287767
 11
1024.3247627124035
 21
2241.4944603287767
  0
LINE
  8
_0-b_ラッチ断面__扉側
  6
DASHED1
 62
    7
 10
1022.3247627124035
 20
2241.8644603287766
 11
1021.2640127124034
 21
2241.8644603287766
  0
LINE
  8
_0-b_ラッチ断面__扉側
  6
DASHED1
 62
    7
 10
1018.8855127124036
 20
2241.8644603287766
 11
1015.8247627124035
 21
2241.8644603287766
  0
LINE
  8
_0-b_ラッチ断面__扉側
  6
DASHED1
 62
    7
 10
1030.8247627124035
 20
2241.8644603287766
 11
1027.7640127124034
 21
2241.8644603287766
  0
LINE
  8
_0-b_ラッチ断面__扉側
  6
DASHED1
 62
    7
 10
1025.3855127124033
 20
2241.8644603287766
 11
1024.3247627124035
 21
2241.8644603287766
  0
LINE
  8
_0-b_ラッチ断面__扉側
  6
DASHED1
 62
    7
 10
1042.8247627124035
 20
2237.2744603287765
 11
1042.8247627124035
 21
2248.2744603287765
  0
LINE
  8
_0-b_ラッチ断面__扉側
  6
DASHED1
 62
    7
 10
1040.8247627124035
 20
2236.2744603287769
 11
1041.8247627124035
 21
2236.2744603287769
  0
LINE
  8
_0-b_ラッチ断面__扉側
  6
DASHED1
 62
    7
 10
1040.8247627124035
 20
2246.9744603287767
 11
1040.8247627124035
 21
2228.2744603287765
  0
LINE
  8
_0-b_ラッチ断面__扉側
  6
DASHED1
 62
    7
 10
1003.8247627124035
 20
2237.2744603287765
 11
1003.8247627124035
 21
2248.2744603287765
  0
LINE
  8
_0-b_ラッチ断面__扉側
  6
DASHED1
 62
    7
 10
1005.8247627124035
 20
2236.2744603287769
 11
1004.8247627124035
 21
2236.2744603287769
  0
LINE
  8
_0-b_ラッチ断面__扉側
  6
DASHED1
 62
    7
 10
1005.8247627124035
 20
2246.9744603287767
 11
1005.8247627124035
 21
2228.2744603287765
  0
LINE
  8
_0-b_ラッチ断面__扉側
  6
DASHED1
 62
    7
 10
1023.3247627124035
 20
2283.9744603287767
 11
1023.3247627124035
 21
2208.6744603287761
  0
LINE
  8
_0-b_ラッチ断面__扉側
  6
DASHED1
 62
    7
 10
1004.6947627124034
 20
2264.7744603287765
 11
1043.7247627124036
 21
2264.7744603287765
  0
LINE
  8
_0-b_ラッチ断面__扉側
  6
DASHED1
 62
    7
 10
1010.8247627124035
 20
2243.9244603287766
 11
1010.8247627124035
 21
2235.674460328777
  0
LINE
  8
_0-b_ラッチ断面__扉側
  6
DASHED1
 62
    7
 10
1014.0747627124035
 20
2239.7744603287765
 11
1007.5247627124033
 21
2239.7744603287765
  0
LINE
  8
_0-b_ラッチ断面__扉側
  6
DASHED1
 62
    7
 10
1035.8247627124035
 20
2243.5944603287766
 11
1035.8247627124035
 21
2235.8744603287768
  0
LINE
  8
_0-b_ラッチ断面__扉側
  6
DASHED1
 62
    7
 10
1032.5547627124035
 20
2239.7744603287765
 11
1039.5647627124035
 21
2239.7744603287765
  0
LINE
  8
_0-b_ラッチ断面__扉側
  6
DASHED1
 62
    7
 10
1026.8847627124034
 20
2213.7745103287766
 11
1019.6147627124037
 21
2213.7745103287766
  0
ARC
  8
_0-b_ラッチ断面__扉側
  6
DASHED1
 62
    7
 10
1031.8247627124035
 20
2273.2744603287765
 40
9
 50
0.0000000000000254
 51
90.000000000000056
  0
ARC
  8
_0-b_ラッチ断面__扉側
  6
DASHED1
 62
    7
 10
1034.8247627124035
 20
2228.2744603287765
 40
6.0000000000000008
 50
270
 51
0
  0
ARC
  8
_0-b_ラッチ断面__扉側
  6
DASHED1
 62
    7
 10
1034.3247627124035
 20
2225.2744603287765
 40
3.0000000000000004
 50
180.00000000000005
 51
270.00000000000005
  0
ARC
  8
_0-b_ラッチ断面__扉側
  6
DASHED1
 62
    7
 10
1014.8247627124035
 20
2273.2744603287765
 40
9
 50
90.000000000000056
 51
180.00000000000011
  0
ARC
  8
_0-b_ラッチ断面__扉側
  6
DASHED1
 62
    7
 10
1011.8247627124037
 20
2228.2744603287765
 40
6.0000000000000008
 50
180.00000000000005
 51
270.00000000000005
  0
ARC
  8
_0-b_ラッチ断面__扉側
  6
DASHED1
 62
    7
 10
1012.3247627124035
 20
2225.2744603287765
 40
3.0000000000000004
 50
270
 51
0
  0
CIRCLE
  8
_0-b_ラッチ断面__扉側
  6
DASHED1
 62
    7
 10
1010.8247627124035
 20
2239.7744603287765
 40
1.8999999999999999
  0
CIRCLE
  8
_0-b_ラッチ断面__扉側
  6
DASHED1
 62
    7
 10
1035.8247627124035
 20
2239.7744603287765
 40
1.8999999999999999
  0
ARC
  8
_0-b_ラッチ断面__扉側
  6
DASHED1
 62
    7
 10
1041.8247627124035
 20
2248.2744603287765
 40
1
 50
0.0000000000000254
 51
90.000000000000056
  0
ARC
  8
_0-b_ラッチ断面__扉側
  6
DASHED1
 62
    7
 10
1004.8247627124035
 20
2248.2744603287765
 40
1
 50
90.000000000000056
 51
180.00000000000011
  0
ARC
  8
_0-b_ラッチ断面__扉側
  6
DASHED1
 62
    7
 10
1007.8247627124035
 20
2249.2744603287765
 40
2
 50
180.00000000000005
 51
270.00000000000005
  0
ARC
  8
_0-b_ラッチ断面__扉側
  6
DASHED1
 62
    7
 10
1014.8247627124035
 20
2246.3744603287768
 40
0.5
 50
270
 51
0
  0
ARC
  8
_0-b_ラッチ断面__扉側
  6
DASHED1
 62
    7
 10
1013.8247627124035
 20
2246.3744603287768
 40
0.5
 50
180.00000000000005
 51
270.00000000000005
  0
ARC
  8
_0-b_ラッチ断面__扉側
  6
DASHED1
 62
    7
 10
1031.8247627124035
 20
2246.3744603287768
 40
0.5
 50
180.00000000000005
 51
270.00000000000005
  0
ARC
  8
_0-b_ラッチ断面__扉側
  6
DASHED1
 62
    7
 10
1032.8247627124035
 20
2246.3744603287768
 40
0.5
 50
270
 51
0
  0
ARC
  8
_0-b_ラッチ断面__扉側
  6
DASHED1
 62
    7
 10
1038.8247627124035
 20
2249.2744603287765
 40
2
 50
270
 51
0
  0
ARC
  8
_0-b_ラッチ断面__扉側
  6
DASHED1
 62
    7
 10
1023.3247627124035
 20
2218.2745103287766
 40
3.5000000000000008
 50
90.000000000000056
 51
180.00000000000011
  0
ARC
  8
_0-b_ラッチ断面__扉側
  6
DASHED1
 62
    7
 10
1023.3247627124035
 20
2218.2745103287766
 40
3.5000000000000008
 50
0.0000000000000254
 51
90.000000000000056
  0
ARC
  8
_0-b_ラッチ断面__扉側
  6
DASHED1
 62
    7
 10
1023.3247627124035
 20
2218.2745103287766
 40
3.0000000000000004
 50
138.19000000000005
 51
180.00000000000011
  0
ARC
  8
_0-b_ラッチ断面__扉側
  6
DASHED1
 62
    7
 10
1023.3247627124035
 20
2218.2745103287766
 40
3.0000000000000004
 50
0.0000000000000254
 51
41.810000000000023
  0
ARC
  8
_0-b_ラッチ断面__扉側
  6
DASHED1
 62
    7
 10
1021.3247627124035
 20
2212.2745103287761
 40
1
 50
180.00000000000005
 51
270.00000000000005
  0
ARC
  8
_0-b_ラッチ断面__扉側
  6
DASHED1
 62
    7
 10
1025.3247627124035
 20
2212.2745103287761
 40
1
 50
270
 51
0
  0
ARC
  8
_0-b_ラッチ断面__扉側
  6
DASHED1
 62
    7
 10
1025.8247627124035
 20
2219.4166103287766
 40
10
 50
180.00000000000005
 51
225.00000000000005
  0
ARC
  8
_0-b_ラッチ断面__扉側
  6
DASHED1
 62
    7
 10
1020.8247627124035
 20
2219.4166103287766
 40
10
 50
315
 51
0
  0
ARC
  8
_0-b_ラッチ断面__扉側
  6
DASHED1
 62
    7
 10
1040.5247627124033
 20
2246.9744603287767
 40
0.2999999999999998
 50
0.0000000000000254
 51
90.000000000000056
  0
ARC
  8
_0-b_ラッチ断面__扉側
  6
DASHED1
 62
    7
 10
1006.1247627124037
 20
2246.9744603287767
 40
0.2999999999999998
 50
90.000000000000056
 51
180.00000000000011
  0
ARC
  8
_0-b_ラッチ断面__扉側
  6
DASHED1
 62
    7
 10
1023.8247627124035
 20
2237.7748603287768
 40
0.5
 50
270
 51
0
  0
ARC
  8
_0-b_ラッチ断面__扉側
  6
DASHED1
 62
    7
 10
1022.8247627124035
 20
2237.7748603287768
 40
0.5
 50
180.00000000000005
 51
270.00000000000005
  0
ARC
  8
_0-b_ラッチ断面__扉側
  6
DASHED1
 62
    7
 10
1041.8247627124035
 20
2237.2744603287765
 40
1
 50
270
 51
0
  0
ARC
  8
_0-b_ラッチ断面__扉側
  6
DASHED1
 62
    7
 10
1004.8247627124035
 20
2237.2744603287765
 40
1
 50
180.00000000000005
 51
270.00000000000005
  0
CIRCLE
  8
_0-b_ラッチ断面__扉側
  6
DASHED1
 62
    7
 10
1026.5747627124035
 20
2237.2745103287761
 40
2.3250000000000001
  0
CIRCLE
  8
_0-b_ラッチ断面__扉側
  6
DASHED1
 62
    7
 10
1020.0747627124035
 20
2237.2745103287761
 40
2.3250000000000001
  0
CIRCLE
  8
_0-b_ラッチ断面__扉側
  6
DASHED1
 62
    7
 10
1020.0747627124035
 20
2243.7745103287766
 40
2.3250000000000001
  0
CIRCLE
  8
_0-b_ラッチ断面__扉側
  6
DASHED1
 62
    7
 10
1026.5747627124035
 20
2243.7745103287766
 40
2.3250000000000001
  0
CIRCLE
  8
_0-b_ラッチ断面__扉側
  6
DASHED1
 62
    7
 10
1023.3247627124035
 20
2213.7745103287766
 40
1.25
  0
LINE
  8
_0-b_ラッチ断面__扉側
  6
DASHED1
 62
    7
 10
934.82476271240261
 20
1332.6410513398295
 11
934.82476271240261
 21
1324.2410513398294
  0
LINE
  8
_0-b_ラッチ断面__扉側
  6
DASHED1
 62
    7
 10
933.82476271240261
 20
1301.0410513398296
 11
910.82476271240261
 21
1301.0410513398296
  0
LINE
  8
_0-b_ラッチ断面__扉側
  6
DASHED1
 62
    7
 10
922.32476271240261
 20
1318.0410513398296
 11
914.82476271240261
 21
1318.0410513398296
  0
LINE
  8
_0-b_ラッチ断面__扉側
  6
DASHED1
 62
    7
 10
912.32476271240261
 20
1325.5410513398296
 11
912.32476271240261
 21
1320.0410513398292
  0
LINE
  8
_0-b_ラッチ断面__扉側
  6
DASHED1
 62
    7
 10
913.82476271240261
 20
1319.5410513398294
 11
912.82476271240261
 21
1319.5410513398294
  0
LINE
  8
_0-b_ラッチ断面__扉側
  6
DASHED1
 62
    7
 10
941.90476271240254
 20
1328.9910513398297
 11
941.92476271240252
 21
1328.9910513398297
  0
LINE
  8
_0-b_ラッチ断面__扉側
  6
DASHED1
 62
    7
 10
904.82476271240261
 20
1311.3410513398296
 11
903.82476271240261
 21
1311.3410513398296
  0
LINE
  8
_0-b_ラッチ断面__扉側
  6
DASHED1
 62
    7
 10
905.82476271240261
 20
1325.5410513398296
 11
913.32476271240261
 21
1325.5410513398296
  0
LINE
  8
_0-b_ラッチ断面__扉側
  6
DASHED1
 62
    7
 10
904.82476271240261
 20
1324.5410513398294
 11
904.82476271240261
 21
1307.0410513398294
  0
LINE
  8
_0-b_ラッチ断面__扉側
  6
DASHED1
 62
    7
 10
902.82476271240261
 20
1330.7410513398294
 11
902.82476271240261
 21
1312.3410513398293
  0
LINE
  8
_0-b_ラッチ断面__扉側
  6
DASHED1
 62
    7
 10
914.32476271240261
 20
1330.7410513398294
 11
902.82476271240261
 21
1330.7410513398294
  0
LINE
  8
_0-b_ラッチ断面__扉側
  6
DASHED1
 62
    7
 10
904.82476271240261
 20
1330.7410513398294
 11
904.82476271240261
 21
1326.5410513398296
  0
LINE
  8
_0-b_ラッチ断面__扉側
  6
DASHED1
 62
    7
 10
914.32476271240261
 20
1330.7410513398294
 11
914.32476271240261
 21
1318.5410513398296
  0
LINE
  8
_0-b_ラッチ断面__扉側
  6
DASHED1
 62
    7
 10
939.82476271240261
 20
1330.7410513398294
 11
939.82476271240261
 21
1307.0410513398294
  0
LINE
  8
_0-b_ラッチ断面__扉側
  6
DASHED1
 62
    7
 10
930.32476271240261
 20
1330.7410513398294
 11
941.82476271240261
 21
1330.7410513398294
  0
LINE
  8
_0-b_ラッチ断面__扉側
  6
DASHED1
 62
    7
 10
941.82476271240261
 20
1330.7410513398294
 11
941.82476271240261
 21
1312.3410513398293
  0
LINE
  8
_0-b_ラッチ断面__扉側
  6
DASHED1
 62
    7
 10
939.82476271240261
 20
1311.3410513398296
 11
940.82476271240261
 21
1311.3410513398296
  0
LINE
  8
_0-b_ラッチ断面__扉側
  6
DASHED1
 62
    7
 10
914.32476271240261
 20
1329.8410513398293
 11
930.32476271240261
 21
1329.8410513398293
  0
LINE
  8
_0-b_ラッチ断面__扉側
  6
DASHED1
 62
    7
 10
930.32476271240261
 20
1330.7410513398294
 11
930.32476271240261
 21
1318.5410513398296
  0
LINE
  8
_0-b_ラッチ断面__扉側
  6
DASHED1
 62
    7
 10
922.32476271240261
 20
1318.0410513398296
 11
929.82476271240261
 21
1318.0410513398296
  0
LINE
  8
_0-b_ラッチ断面__扉側
  6
DASHED1
 62
    7
 10
938.82476271240261
 20
1325.5410513398296
 11
931.32476271240261
 21
1325.5410513398296
  0
LINE
  8
_0-b_ラッチ断面__扉側
  6
DASHED1
 62
    7
 10
928.82476271240261
 20
1329.5410513398294
 11
915.82476271240261
 21
1329.5410513398294
  0
LINE
  8
_0-b_ラッチ断面__扉側
  6
DASHED1
 62
    7
 10
919.32476271240261
 20
1325.5410513398296
 11
919.32476271240261
 21
1320.5410513398296
  0
LINE
  8
_0-b_ラッチ断面__扉側
  6
DASHED1
 62
    7
 10
924.32476271240261
 20
1319.5410513398294
 11
920.32476271240261
 21
1319.5410513398294
  0
LINE
  8
_0-b_ラッチ断面__扉側
  6
DASHED1
 62
    7
 10
925.32476271240261
 20
1325.5410513398296
 11
925.32476271240261
 21
1320.5410513398296
  0
LINE
  8
_0-b_ラッチ断面__扉側
  6
DASHED1
 62
    7
 10
928.82476271240261
 20
1325.5410513398296
 11
925.32476271240261
 21
1325.5410513398296
  0
LINE
  8
_0-b_ラッチ断面__扉側
  6
DASHED1
 62
    7
 10
919.32476271240261
 20
1325.5410513398296
 11
915.82476271240261
 21
1325.5410513398296
  0
LINE
  8
_0-b_ラッチ断面__扉側
  6
DASHED1
 62
    7
 10
916.82476271240261
 20
1319.1449013398296
 11
916.62816271240262
 21
1319.6046513398296
  0
LINE
  8
_0-b_ラッチ断面__扉側
  6
DASHED1
 62
    7
 10
927.82476271240261
 20
1319.1449013398296
 11
928.0213627124026
 21
1319.6046513398296
  0
LINE
  8
_0-b_ラッチ断面__扉側
  6
DASHED1
 62
    7
 10
929.82476271240261
 20
1318.0410513398296
 11
929.82476271240261
 21
1328.5410513398296
  0
LINE
  8
_0-b_ラッチ断面__扉側
  6
DASHED1
 62
    7
 10
914.82476271240261
 20
1318.0410513398296
 11
914.82476271240261
 21
1328.5410513398296
  0
LINE
  8
_0-b_ラッチ断面__扉側
  6
DASHED1
 62
    7
 10
930.82476271240261
 20
1319.5410513398294
 11
931.82476271240261
 21
1319.5410513398294
  0
LINE
  8
_0-b_ラッチ断面__扉側
  6
DASHED1
 62
    7
 10
932.32476271240261
 20
1325.5410513398296
 11
932.32476271240261
 21
1320.0410513398292
  0
LINE
  8
_0-b_ラッチ断面__扉側
  6
DASHED1
 62
    7
 10
914.32476271240261
 20
1323.5410513398296
 11
914.82476271240261
 21
1323.5410513398296
  0
LINE
  8
_0-b_ラッチ断面__扉側
  6
DASHED1
 62
    7
 10
914.32476271240261
 20
1322.5410513398296
 11
914.82476271240261
 21
1322.5410513398296
  0
LINE
  8
_0-b_ラッチ断面__扉側
  6
DASHED1
 62
    7
 10
929.82476271240261
 20
1322.5410513398296
 11
930.32476271240261
 21
1322.5410513398296
  0
LINE
  8
_0-b_ラッチ断面__扉側
  6
DASHED1
 62
    7
 10
929.82476271240261
 20
1323.5410513398296
 11
930.32476271240261
 21
1323.5410513398296
  0
LINE
  8
_0-b_ラッチ断面__扉側
  6
DASHED1
 62
    7
 10
914.32476271240261
 20
1330.2410513398297
 11
930.32476271240261
 21
1330.2410513398297
  0
LINE
  8
_0-b_ラッチ断面__扉側
  6
DASHED1
 62
    7
 10
922.32476271240261
 20
1301.0410513398296
 11
921.62476271240257
 21
1301.0410513398296
  0
LINE
  8
_0-b_ラッチ断面__扉側
  6
DASHED1
 62
    7
 10
922.32476271240261
 20
1301.0410513398296
 11
923.02476271240266
 21
1301.0410513398296
  0
LINE
  8
_0-b_ラッチ断面__扉側
  6
DASHED1
 62
    7
 10
921.82476271240261
 20
1315.0410513398292
 11
922.32476271240261
 21
1315.0410513398292
  0
LINE
  8
_0-b_ラッチ断面__扉側
  6
DASHED1
 62
    7
 10
921.32476271240261
 20
1301.3410513398296
 11
921.32476271240261
 21
1314.5410513398294
  0
LINE
  8
_0-b_ラッチ断面__扉側
  6
DASHED1
 62
    7
 10
923.32476271240261
 20
1301.3410513398296
 11
923.32476271240261
 21
1314.5410513398294
  0
LINE
  8
_0-b_ラッチ断面__扉側
  6
DASHED1
 62
    7
 10
922.32476271240261
 20
1315.0410513398292
 11
922.82476271240261
 21
1315.0410513398292
  0
LINE
  8
_0-b_ラッチ断面__扉側
  6
DASHED1
 62
    7
 10
922.32476271240261
 20
1331.3410513398296
 11
922.32476271240261
 21
1298.3410513398298
  0
ARC
  8
_0-b_ラッチ断面__扉側
  6
DASHED1
 62
    7
 10
910.82476271240261
 20
1307.0410513398294
 40
6.0000000000000008
 50
180.00000000000005
 51
270.00000000000005
  0
ARC
  8
_0-b_ラッチ断面__扉側
  6
DASHED1
 62
    7
 10
933.82476271240261
 20
1307.0410513398294
 40
6.0000000000000008
 50
270.00000000000005
 51
0.0000000000000508
  0
ARC
  8
_0-b_ラッチ断面__扉側
  6
DASHED1
 62
    7
 10
913.32476271240261
 20
1326.5410513398296
 40
1
 50
270.00000000000005
 51
0.0000000000000508
  0
ARC
  8
_0-b_ラッチ断面__扉側
  6
DASHED1
 62
    7
 10
905.82476271240261
 20
1326.5410513398296
 40
1
 50
180.00000000000005
 51
270.00000000000005
  0
ARC
  8
_0-b_ラッチ断面__扉側
  6
DASHED1
 62
    7
 10
914.82476271240261
 20
1318.5410513398296
 40
0.5
 50
180.00000000000005
 51
270.00000000000005
  0
ARC
  8
_0-b_ラッチ断面__扉側
  6
DASHED1
 62
    7
 10
913.82476271240261
 20
1320.0410513398292
 40
0.5
 50
270.00000000000005
 51
0.0000000000000508
  0
ARC
  8
_0-b_ラッチ断面__扉側
  6
DASHED1
 62
    7
 10
912.82476271240261
 20
1320.0410513398292
 40
0.5
 50
180.00000000000005
 51
270.00000000000005
  0
ARC
  8
_0-b_ラッチ断面__扉側
  6
DASHED1
 62
    7
 10
903.82476271240261
 20
1312.3410513398293
 40
1
 50
180.00000000000005
 51
270.00000000000005
  0
ARC
  8
_0-b_ラッチ断面__扉側
  6
DASHED1
 62
    7
 10
905.82476271240261
 20
1324.5410513398294
 40
1
 50
90.000000000000028
 51
180.00000000000005
  0
ARC
  8
_0-b_ラッチ断面__扉側
  6
DASHED1
 62
    7
 10
940.82476271240261
 20
1312.3410513398293
 40
1
 50
270.00000000000005
 51
0.0000000000000508
  0
ARC
  8
_0-b_ラッチ断面__扉側
  6
DASHED1
 62
    7
 10
929.82476271240261
 20
1318.5410513398296
 40
0.5
 50
270.00000000000005
 51
0.0000000000000508
  0
ARC
  8
_0-b_ラッチ断面__扉側
  6
DASHED1
 62
    7
 10
931.32476271240261
 20
1326.5410513398296
 40
1
 50
180.00000000000005
 51
270.00000000000005
  0
ARC
  8
_0-b_ラッチ断面__扉側
  6
DASHED1
 62
    7
 10
938.82476271240261
 20
1326.5410513398296
 40
1
 50
270.00000000000005
 51
0.0000000000000508
  0
ARC
  8
_0-b_ラッチ断面__扉側
  6
DASHED1
 62
    7
 10
915.82476271240261
 20
1328.5410513398296
 40
1
 50
90.000000000000028
 51
180.00000000000005
  0
ARC
  8
_0-b_ラッチ断面__扉側
  6
DASHED1
 62
    7
 10
928.82476271240261
 20
1328.5410513398296
 40
1
 50
0
 51
90.000000000000028
  0
ARC
  8
_0-b_ラッチ断面__扉側
  6
DASHED1
 62
    7
 10
915.82476271240261
 20
1326.5410513398296
 40
1
 50
180.00000000000005
 51
270.00000000000005
  0
ARC
  8
_0-b_ラッチ断面__扉側
  6
DASHED1
 62
    7
 10
928.82476271240261
 20
1326.5410513398296
 40
1
 50
270.00000000000005
 51
0.0000000000000508
  0
ARC
  8
_0-b_ラッチ断面__扉側
  6
DASHED1
 62
    7
 10
920.32476271240261
 20
1320.5410513398296
 40
1
 50
180.00000000000005
 51
270.00000000000005
  0
ARC
  8
_0-b_ラッチ断面__扉側
  6
DASHED1
 62
    7
 10
924.32476271240261
 20
1320.5410513398296
 40
1
 50
270.00000000000005
 51
0.0000000000000508
  0
ARC
  8
_0-b_ラッチ断面__扉側
  6
DASHED1
 62
    7
 10
930.82476271240261
 20
1320.0410513398292
 40
0.5
 50
180.00000000000005
 51
270.00000000000005
  0
ARC
  8
_0-b_ラッチ断面__扉側
  6
DASHED1
 62
    7
 10
931.82476271240261
 20
1320.0410513398292
 40
0.5
 50
270.00000000000005
 51
0.0000000000000508
  0
ARC
  8
_0-b_ラッチ断面__扉側
  6
DASHED1
 62
    7
 10
921.62476271240257
 20
1301.3410513398296
 40
0.2999999999999998
 50
180.00000000000005
 51
270.00000000000005
  0
ARC
  8
_0-b_ラッチ断面__扉側
  6
DASHED1
 62
    7
 10
923.02476271240266
 20
1301.3410513398296
 40
0.2999999999999998
 50
270.00000000000005
 51
0.0000000000000508
  0
ARC
  8
_0-b_ラッチ断面__扉側
  6
DASHED1
 62
    7
 10
921.82476271240261
 20
1314.5410513398294
 40
0.5
 50
90.000000000000028
 51
180.00000000000005
  0
ARC
  8
_0-b_ラッチ断面__扉側
  6
DASHED1
 62
    7
 10
922.82476271240261
 20
1314.5410513398294
 40
0.5
 50
0
 51
90.000000000000028
  0
LINE
  8
_0-b_ラッチ断面__扉側
  6
DASHED1
 62
    7
 10
909.82476271240261
 20
1332.6410513398295
 11
909.82476271240261
 21
1324.2410513398294
  0
LINE
  8
_0-b_ラッチ断面__扉側
  6
DASHED1
 62
    7
 10
1035.8247627124023
 20
1332.6410513398295
 11
1035.8247627124023
 21
1324.2410513398294
  0
LINE
  8
_0-b_ラッチ断面__扉側
  6
DASHED1
 62
    7
 10
1034.8247627124023
 20
1301.0410513398296
 11
1011.8247627124023
 21
1301.0410513398296
  0
LINE
  8
_0-b_ラッチ断面__扉側
  6
DASHED1
 62
    7
 10
1023.3247627124023
 20
1318.0410513398296
 11
1015.8247627124023
 21
1318.0410513398296
  0
LINE
  8
_0-b_ラッチ断面__扉側
  6
DASHED1
 62
    7
 10
1013.3247627124023
 20
1325.5410513398296
 11
1013.3247627124023
 21
1320.0410513398292
  0
LINE
  8
_0-b_ラッチ断面__扉側
  6
DASHED1
 62
    7
 10
1014.8247627124023
 20
1319.5410513398294
 11
1013.8247627124023
 21
1319.5410513398294
  0
LINE
  8
_0-b_ラッチ断面__扉側
  6
DASHED1
 62
    7
 10
1042.9047627124023
 20
1328.9910513398297
 11
1042.9247627124022
 21
1328.9910513398297
  0
LINE
  8
_0-b_ラッチ断面__扉側
  6
DASHED1
 62
    7
 10
1005.8247627124023
 20
1311.3410513398296
 11
1004.8247627124023
 21
1311.3410513398296
  0
LINE
  8
_0-b_ラッチ断面__扉側
  6
DASHED1
 62
    7
 10
1006.8247627124023
 20
1325.5410513398296
 11
1014.3247627124023
 21
1325.5410513398296
  0
LINE
  8
_0-b_ラッチ断面__扉側
  6
DASHED1
 62
    7
 10
1005.8247627124023
 20
1324.5410513398294
 11
1005.8247627124023
 21
1307.0410513398294
  0
LINE
  8
_0-b_ラッチ断面__扉側
  6
DASHED1
 62
    7
 10
1003.8247627124023
 20
1330.7410513398294
 11
1003.8247627124023
 21
1312.3410513398293
  0
LINE
  8
_0-b_ラッチ断面__扉側
  6
DASHED1
 62
    7
 10
1015.3247627124023
 20
1330.7410513398294
 11
1003.8247627124023
 21
1330.7410513398294
  0
LINE
  8
_0-b_ラッチ断面__扉側
  6
DASHED1
 62
    7
 10
1005.8247627124023
 20
1330.7410513398294
 11
1005.8247627124023
 21
1326.5410513398296
  0
LINE
  8
_0-b_ラッチ断面__扉側
  6
DASHED1
 62
    7
 10
1015.3247627124023
 20
1330.7410513398294
 11
1015.3247627124023
 21
1318.5410513398296
  0
LINE
  8
_0-b_ラッチ断面__扉側
  6
DASHED1
 62
    7
 10
1040.8247627124023
 20
1330.7410513398294
 11
1040.8247627124023
 21
1307.0410513398294
  0
LINE
  8
_0-b_ラッチ断面__扉側
  6
DASHED1
 62
    7
 10
1031.3247627124023
 20
1330.7410513398294
 11
1042.8247627124023
 21
1330.7410513398294
  0
LINE
  8
_0-b_ラッチ断面__扉側
  6
DASHED1
 62
    7
 10
1042.8247627124023
 20
1330.7410513398294
 11
1042.8247627124023
 21
1312.3410513398293
  0
LINE
  8
_0-b_ラッチ断面__扉側
  6
DASHED1
 62
    7
 10
1040.8247627124023
 20
1311.3410513398296
 11
1041.8247627124023
 21
1311.3410513398296
  0
LINE
  8
_0-b_ラッチ断面__扉側
  6
DASHED1
 62
    7
 10
1015.3247627124023
 20
1329.8410513398293
 11
1031.3247627124023
 21
1329.8410513398293
  0
LINE
  8
_0-b_ラッチ断面__扉側
  6
DASHED1
 62
    7
 10
1031.3247627124023
 20
1330.7410513398294
 11
1031.3247627124023
 21
1318.5410513398296
  0
LINE
  8
_0-b_ラッチ断面__扉側
  6
DASHED1
 62
    7
 10
1023.3247627124023
 20
1318.0410513398296
 11
1030.8247627124023
 21
1318.0410513398296
  0
LINE
  8
_0-b_ラッチ断面__扉側
  6
DASHED1
 62
    7
 10
1039.8247627124023
 20
1325.5410513398296
 11
1032.3247627124023
 21
1325.5410513398296
  0
LINE
  8
_0-b_ラッチ断面__扉側
  6
DASHED1
 62
    7
 10
1029.8247627124023
 20
1329.5410513398294
 11
1016.8247627124023
 21
1329.5410513398294
  0
LINE
  8
_0-b_ラッチ断面__扉側
  6
DASHED1
 62
    7
 10
1020.3247627124023
 20
1325.5410513398296
 11
1020.3247627124023
 21
1320.5410513398296
  0
LINE
  8
_0-b_ラッチ断面__扉側
  6
DASHED1
 62
    7
 10
1025.3247627124023
 20
1319.5410513398294
 11
1021.3247627124023
 21
1319.5410513398294
  0
LINE
  8
_0-b_ラッチ断面__扉側
  6
DASHED1
 62
    7
 10
1026.3247627124023
 20
1325.5410513398296
 11
1026.3247627124023
 21
1320.5410513398296
  0
LINE
  8
_0-b_ラッチ断面__扉側
  6
DASHED1
 62
    7
 10
1029.8247627124023
 20
1325.5410513398296
 11
1026.3247627124023
 21
1325.5410513398296
  0
LINE
  8
_0-b_ラッチ断面__扉側
  6
DASHED1
 62
    7
 10
1020.3247627124023
 20
1325.5410513398296
 11
1016.8247627124023
 21
1325.5410513398296
  0
LINE
  8
_0-b_ラッチ断面__扉側
  6
DASHED1
 62
    7
 10
1017.8247627124023
 20
1319.1449013398296
 11
1017.6281627124021
 21
1319.6046513398296
  0
LINE
  8
_0-b_ラッチ断面__扉側
  6
DASHED1
 62
    7
 10
1028.8247627124023
 20
1319.1449013398296
 11
1029.0213627124023
 21
1319.6046513398296
  0
LINE
  8
_0-b_ラッチ断面__扉側
  6
DASHED1
 62
    7
 10
1030.8247627124023
 20
1318.0410513398296
 11
1030.8247627124023
 21
1328.5410513398296
  0
LINE
  8
_0-b_ラッチ断面__扉側
  6
DASHED1
 62
    7
 10
1015.8247627124023
 20
1318.0410513398296
 11
1015.8247627124023
 21
1328.5410513398296
  0
LINE
  8
_0-b_ラッチ断面__扉側
  6
DASHED1
 62
    7
 10
1031.8247627124023
 20
1319.5410513398294
 11
1032.8247627124023
 21
1319.5410513398294
  0
LINE
  8
_0-b_ラッチ断面__扉側
  6
DASHED1
 62
    7
 10
1033.3247627124023
 20
1325.5410513398296
 11
1033.3247627124023
 21
1320.0410513398292
  0
LINE
  8
_0-b_ラッチ断面__扉側
  6
DASHED1
 62
    7
 10
1015.3247627124023
 20
1323.5410513398296
 11
1015.8247627124023
 21
1323.5410513398296
  0
LINE
  8
_0-b_ラッチ断面__扉側
  6
DASHED1
 62
    7
 10
1015.3247627124023
 20
1322.5410513398296
 11
1015.8247627124023
 21
1322.5410513398296
  0
LINE
  8
_0-b_ラッチ断面__扉側
  6
DASHED1
 62
    7
 10
1030.8247627124023
 20
1322.5410513398296
 11
1031.3247627124023
 21
1322.5410513398296
  0
LINE
  8
_0-b_ラッチ断面__扉側
  6
DASHED1
 62
    7
 10
1030.8247627124023
 20
1323.5410513398296
 11
1031.3247627124023
 21
1323.5410513398296
  0
LINE
  8
_0-b_ラッチ断面__扉側
  6
DASHED1
 62
    7
 10
1015.3247627124023
 20
1330.2410513398297
 11
1031.3247627124023
 21
1330.2410513398297
  0
LINE
  8
_0-b_ラッチ断面__扉側
  6
DASHED1
 62
    7
 10
1023.3247627124023
 20
1301.0410513398296
 11
1022.6247627124023
 21
1301.0410513398296
  0
LINE
  8
_0-b_ラッチ断面__扉側
  6
DASHED1
 62
    7
 10
1023.3247627124023
 20
1301.0410513398296
 11
1024.0247627124024
 21
1301.0410513398296
  0
LINE
  8
_0-b_ラッチ断面__扉側
  6
DASHED1
 62
    7
 10
1022.8247627124023
 20
1315.0410513398292
 11
1023.3247627124023
 21
1315.0410513398292
  0
LINE
  8
_0-b_ラッチ断面__扉側
  6
DASHED1
 62
    7
 10
1022.3247627124023
 20
1301.3410513398296
 11
1022.3247627124023
 21
1314.5410513398294
  0
LINE
  8
_0-b_ラッチ断面__扉側
  6
DASHED1
 62
    7
 10
1024.3247627124023
 20
1301.3410513398296
 11
1024.3247627124023
 21
1314.5410513398294
  0
LINE
  8
_0-b_ラッチ断面__扉側
  6
DASHED1
 62
    7
 10
1023.3247627124023
 20
1315.0410513398292
 11
1023.8247627124023
 21
1315.0410513398292
  0
LINE
  8
_0-b_ラッチ断面__扉側
  6
DASHED1
 62
    7
 10
1023.3247627124023
 20
1331.3410513398296
 11
1023.3247627124023
 21
1298.3410513398298
  0
ARC
  8
_0-b_ラッチ断面__扉側
  6
DASHED1
 62
    7
 10
1011.8247627124023
 20
1307.0410513398294
 40
6.0000000000000008
 50
180.00000000000005
 51
270.00000000000005
  0
ARC
  8
_0-b_ラッチ断面__扉側
  6
DASHED1
 62
    7
 10
1034.8247627124023
 20
1307.0410513398294
 40
6.0000000000000008
 50
270.00000000000005
 51
0.0000000000000508
  0
ARC
  8
_0-b_ラッチ断面__扉側
  6
DASHED1
 62
    7
 10
1014.3247627124023
 20
1326.5410513398296
 40
1
 50
270.00000000000005
 51
0.0000000000000508
  0
ARC
  8
_0-b_ラッチ断面__扉側
  6
DASHED1
 62
    7
 10
1006.8247627124023
 20
1326.5410513398296
 40
1
 50
180.00000000000005
 51
270.00000000000005
  0
ARC
  8
_0-b_ラッチ断面__扉側
  6
DASHED1
 62
    7
 10
1015.8247627124023
 20
1318.5410513398296
 40
0.5
 50
180.00000000000005
 51
270.00000000000005
  0
ARC
  8
_0-b_ラッチ断面__扉側
  6
DASHED1
 62
    7
 10
1014.8247627124023
 20
1320.0410513398292
 40
0.5
 50
270.00000000000005
 51
0.0000000000000508
  0
ARC
  8
_0-b_ラッチ断面__扉側
  6
DASHED1
 62
    7
 10
1013.8247627124023
 20
1320.0410513398292
 40
0.5
 50
180.00000000000005
 51
270.00000000000005
  0
ARC
  8
_0-b_ラッチ断面__扉側
  6
DASHED1
 62
    7
 10
1004.8247627124023
 20
1312.3410513398293
 40
1
 50
180.00000000000005
 51
270.00000000000005
  0
ARC
  8
_0-b_ラッチ断面__扉側
  6
DASHED1
 62
    7
 10
1006.8247627124023
 20
1324.5410513398294
 40
1
 50
90.000000000000028
 51
180.00000000000005
  0
ARC
  8
_0-b_ラッチ断面__扉側
  6
DASHED1
 62
    7
 10
1041.8247627124023
 20
1312.3410513398293
 40
1
 50
270.00000000000005
 51
0.0000000000000508
  0
ARC
  8
_0-b_ラッチ断面__扉側
  6
DASHED1
 62
    7
 10
1030.8247627124023
 20
1318.5410513398296
 40
0.5
 50
270.00000000000005
 51
0.0000000000000508
  0
ARC
  8
_0-b_ラッチ断面__扉側
  6
DASHED1
 62
    7
 10
1032.3247627124023
 20
1326.5410513398296
 40
1
 50
180.00000000000005
 51
270.00000000000005
  0
ARC
  8
_0-b_ラッチ断面__扉側
  6
DASHED1
 62
    7
 10
1039.8247627124023
 20
1326.5410513398296
 40
1
 50
270.00000000000005
 51
0.0000000000000508
  0
ARC
  8
_0-b_ラッチ断面__扉側
  6
DASHED1
 62
    7
 10
1016.8247627124023
 20
1328.5410513398296
 40
1
 50
90.000000000000028
 51
180.00000000000005
  0
ARC
  8
_0-b_ラッチ断面__扉側
  6
DASHED1
 62
    7
 10
1029.8247627124023
 20
1328.5410513398296
 40
1
 50
0
 51
90.000000000000028
  0
ARC
  8
_0-b_ラッチ断面__扉側
  6
DASHED1
 62
    7
 10
1016.8247627124023
 20
1326.5410513398296
 40
1
 50
180.00000000000005
 51
270.00000000000005
  0
ARC
  8
_0-b_ラッチ断面__扉側
  6
DASHED1
 62
    7
 10
1029.8247627124023
 20
1326.5410513398296
 40
1
 50
270.00000000000005
 51
0.0000000000000508
  0
ARC
  8
_0-b_ラッチ断面__扉側
  6
DASHED1
 62
    7
 10
1021.3247627124023
 20
1320.5410513398296
 40
1
 50
180.00000000000005
 51
270.00000000000005
  0
ARC
  8
_0-b_ラッチ断面__扉側
  6
DASHED1
 62
    7
 10
1025.3247627124023
 20
1320.5410513398296
 40
1
 50
270.00000000000005
 51
0.0000000000000508
  0
ARC
  8
_0-b_ラッチ断面__扉側
  6
DASHED1
 62
    7
 10
1031.8247627124023
 20
1320.0410513398292
 40
0.5
 50
180.00000000000005
 51
270.00000000000005
  0
ARC
  8
_0-b_ラッチ断面__扉側
  6
DASHED1
 62
    7
 10
1032.8247627124023
 20
1320.0410513398292
 40
0.5
 50
270.00000000000005
 51
0.0000000000000508
  0
ARC
  8
_0-b_ラッチ断面__扉側
  6
DASHED1
 62
    7
 10
1022.6247627124023
 20
1301.3410513398296
 40
0.2999999999999998
 50
180.00000000000005
 51
270.00000000000005
  0
ARC
  8
_0-b_ラッチ断面__扉側
  6
DASHED1
 62
    7
 10
1024.0247627124024
 20
1301.3410513398296
 40
0.2999999999999998
 50
270.00000000000005
 51
0.0000000000000508
  0
ARC
  8
_0-b_ラッチ断面__扉側
  6
DASHED1
 62
    7
 10
1022.8247627124023
 20
1314.5410513398294
 40
0.5
 50
90.000000000000028
 51
180.00000000000005
  0
ARC
  8
_0-b_ラッチ断面__扉側
  6
DASHED1
 62
    7
 10
1023.8247627124023
 20
1314.5410513398294
 40
0.5
 50
0
 51
90.000000000000028
  0
LINE
  8
_0-b_ラッチ断面__扉側
  6
DASHED1
 62
    7
 10
1010.8247627124023
 20
1332.6410513398295
 11
1010.8247627124023
 21
1324.2410513398294
  0
LINE
  8
_0-d_ラッチ平面__扉側
  6
CONTINUOUS
 62
    7
 10
4112.7167019027483
 20
2293.7632135306548
 11
2832.4595048283417
 21
2293.7632135306548
  0
TEXT
  8
_0-d_ラッチ平面__扉側
 62
    7
 10
2912.3122758718463
 20
2733.4432167003151
 40
35
 41
0.8571428571428568
 50
0
  1
天　板
  0
LINE
  8
_0-d_ラッチ平面__扉側
  6
CONTINUOUS
 62
    3
 10
4112.7167019027483
 20
2853.7632135306557
 11
2832.4595048283417
 21
2853.7632135306557
  0
TEXT
  8
_0-d_ラッチ平面__扉側
 62
    7
 10
3277.9600048283427
 20
2803.7632135306557
 40
35
 41
0.8571428571428568
 50
0
  1
仕　様
  0
TEXT
  8
_0-d_ラッチ平面__扉側
 62
    7
 10
3172.4595048283417
 20
2731.2632135306548
 40
35
 41
0.8571428571428568
 50
0
  1
片面化粧パーティクルボード　１５ｔ
  0
LINE
  8
_0-d_ラッチ平面__扉側
  6
CONTINUOUS
 62
    3
 10
2832.4595048283417
 20
2223.7632135306548
 11
4112.7167019027483
 21
2223.7632135306548
  0
LINE
  8
_0-d_ラッチ平面__扉側
  6
CONTINUOUS
 62
    7
 10
4112.7167019027483
 20
2573.7632135306548
 11
2832.4595048283417
 21
2573.7632135306548
  0
LINE
  8
_0-d_ラッチ平面__扉側
  6
CONTINUOUS
 62
    7
 10
4112.7167019027483
 20
2503.7632135306548
 11
2832.4595048283417
 21
2503.7632135306548
  0
LINE
  8
_0-d_ラッチ平面__扉側
  6
CONTINUOUS
 62
    7
 10
4112.7167019027483
 20
2433.7632135306548
 11
2832.4595048283417
 21
2433.7632135306548
  0
LINE
  8
_0-d_ラッチ平面__扉側
  6
CONTINUOUS
 62
    7
 10
4112.7167019027483
 20
2363.7632135306548
 11
2832.4595048283417
 21
2363.7632135306548
  0
LINE
  8
_0-d_ラッチ平面__扉側
  6
CONTINUOUS
 62
    7
 10
4112.7167019027483
 20
2643.7632135306548
 11
2832.4595048283417
 21
2643.7632135306548
  0
LINE
  8
_0-d_ラッチ平面__扉側
  6
CONTINUOUS
 62
    7
 10
4112.7167019027483
 20
2713.7632135306548
 11
2832.4595048283417
 21
2713.7632135306548
  0
LINE
  8
_0-d_ラッチ平面__扉側
  6
CONTINUOUS
 62
    7
 10
4112.7167019027483
 20
2783.7632135306557
 11
2832.4595048283417
 21
2783.7632135306557
  0
LINE
  8
_0-d_ラッチ平面__扉側
  6
CONTINUOUS
 62
    7
 10
4112.7167019027483
 20
2788.7632135306557
 11
2832.4595048283417
 21
2788.7632135306557
  0
TEXT
  8
_0-d_ラッチ平面__扉側
 62
    7
 10
2912.4595048283413
 20
2241.2632135306548
 40
35
 41
0.8571428571428568
 50
0
  1
棚　板
  0
TEXT
  8
_0-d_ラッチ平面__扉側
 62
    7
 10
2912.4595048283413
 20
2311.2632135306548
 40
35
 41
0.8571428571428568
 50
0
  1
丁　番
  0
TEXT
  8
_0-d_ラッチ平面__扉側
 62
    7
 10
2912.4595048283426
 20
2381.2632135306548
 40
35
 41
0.8571428571428568
 50
0
  1
　扉
  0
TEXT
  8
_0-d_ラッチ平面__扉側
 62
    7
 10
2912.4595048283413
 20
2451.2632135306548
 40
35
 41
0.8571428571428568
 50
0
  1
背　板
  0
TEXT
  8
_0-d_ラッチ平面__扉側
 62
    7
 10
2912.4595048283408
 20
2521.2632135306548
 40
35
 41
0.8571428571428568
 50
0
  1
見　上　板
  0
TEXT
  8
_0-d_ラッチ平面__扉側
 62
    7
 10
2912.4595048283408
 20
2661.2632135306548
 40
35
 41
0.8571428571428568
 50
0
  1
左　側　板
  0
TEXT
  8
_0-d_ラッチ平面__扉側
 62
    7
 10
2912.4595048283408
 20
2591.2632135306548
 40
35
 41
0.8571428571428568
 50
0
  1
右　側　板
  0
LINE
  8
_0-d_ラッチ平面__扉側
  6
CONTINUOUS
 62
    7
 10
4112.7167019027483
 20
2223.7632135306548
 11
2832.4595048283417
 21
2223.7632135306548
  0
LINE
  8
_0-d_ラッチ平面__扉側
  6
CONTINUOUS
 62
    3
 10
2832.4595048283417
 20
2153.7632135306548
 11
4112.7167019027483
 21
2153.7632135306548
  0
LINE
  8
_0-d_ラッチ平面__扉側
  6
CONTINUOUS
 62
    3
 10
2832.4595048283417
 20
2853.7632135306557
 11
2832.4595048283417
 21
2153.7632135306548
  0
LINE
  8
_0-d_ラッチ平面__扉側
  6
CONTINUOUS
 62
    3
 10
4112.7167019027483
 20
2853.7632135306557
 11
4112.7167019027483
 21
2153.7632135306548
  0
LINE
  8
_0-d_ラッチ平面__扉側
  6
CONTINUOUS
 62
    7
 10
3132.4595048283417
 20
2783.7632135306557
 11
3132.4595048283417
 21
2153.7632135306548
  0
TEXT
  8
_0-d_ラッチ平面__扉側
 62
    7
 10
3172.4595048283413
 20
2171.2632135306548
 40
35
 41
0.8571428571428568
 50
0
  1
アルミ一文字把手
  0
TEXT
  8
_0-d_ラッチ平面__扉側
 62
    7
 10
3173.4393824625249
 20
2592.4775512727633
 40
35
 41
0.8571428571428568
 50
0
  1
低圧メラミン化粧パーティクルボード　１２ｔ
  0
TEXT
  8
_0-d_ラッチ平面__扉側
 62
    7
 10
3172.4595048283417
 20
2661.2632135306548
 40
35
 41
0.8571428571428568
 50
0
  1
低圧メラミン化粧パーティクルボード　１２ｔ
  0
TEXT
  8
_0-d_ラッチ平面__扉側
 62
    7
 10
3172.4595048283417
 20
2521.2632135306548
 40
35
 41
0.8571428571428568
 50
0
  1
低圧メラミン化粧パーティクルボード　１５ｔ
  0
TEXT
  8
_0-d_ラッチ平面__扉側
 62
    7
 10
3172.4595048283426
 20
2451.2632135306548
 40
35
 41
0.8571428571428568
 50
0
  1
カラーＭＤＦ・落とし込み
  0
TEXT
  8
_0-d_ラッチ平面__扉側
 62
    7
 10
2912.4595048283426
 20
2171.2632135306548
 40
35
 41
0.8571428571428568
 50
0
  1
把　手
  0
TEXT
  8
_0-d_ラッチ平面__扉側
 62
    7
 10
3172.4595048283413
 20
2241.2632135306548
 40
35
 41
0.8571428571428568
 50
0
  1
可動式　棚板　１５ｔ
  0
TEXT
  8
_0-d_ラッチ平面__扉側
 62
    7
 10
3172.4595048283413
 20
2311.2632135306548
 40
35
 41
0.8571428571428568
 50
0
  1
ワンタッチスライド式丁番
  0
TEXT
  8
_0-d_ラッチ平面__扉側
 62
    7
 10
3172.4595048283426
 20
2381.2632135306548
 40
35
 41
0.8571428571428568
 50
0
  1
両面化粧パ－ティクルボ－ド　１２ｔ　耐震ラッチ付
  0
TEXT
  8
_0-d_ラッチ平面__扉側
 62
    7
 10
3858.3377621159092
 20
2088.7632135306548
 40
35
 41
0.8571428571428568
 50
0
  1
扉　色
  0
TEXT
  8
_0-d_ラッチ平面__扉側
 62
    7
 10
3713.4289219216452
 20
2021.2632135306546
 40
35
 41
0.8571428571428568
 50
0
  1
ＳＷ
  0
TEXT
  8
_0-d_ラッチ平面__扉側
 62
    7
 10
3827.9588223290693
 20
2021.2632135306546
 40
35
 41
0.8571428571428568
 50
0
  1
ホワイト
  0
TEXT
  8
_0-d_ラッチ平面__扉側
 62
    7
 10
3718.4203773313333
 20
1961.852540346435
 40
35
 41
0.8571428571428568
 50
0
  1
ＬＧ
  0
TEXT
  8
_0-d_ラッチ平面__扉側
 62
    7
 10
3828.0578162341043
 20
1961.852540346435
 40
35
 41
0.8571428571428568
 50
0
  1
木　　目
  0
TEXT
  8
_0-d_ラッチ平面__扉側
 62
    7
 10
3713.4289219216452
 20
1896.2632135306546
 40
35
 41
0.8571428571428568
 50
0
  1
ＵＷ
  0
TEXT
  8
_0-d_ラッチ平面__扉側
 62
    7
 10
3827.9588223290688
 20
1896.2632135306546
 40
35
 41
0.8571428571428568
 50
0
  1
ｳﾙﾄﾗﾎﾜｲﾄ（艶有）
  0
TEXT
  8
_0-d_ラッチ平面__扉側
 62
    7
 10
3718.4203773313333
 20
1836.852540346435
 40
35
 41
0.8571428571428568
 50
0
  1
ＷＮ
  0
TEXT
  8
_0-d_ラッチ平面__扉側
 62
    7
 10
3827.9588223290693
 20
1836.2632135306544
 40
35
 41
0.8571428571428568
 50
0
  1
ｳｨﾝｻﾞｰﾅｯﾄ（艶有）
  0
LINE
  8
_0-d_ラッチ平面__扉側
  6
CONTINUOUS
 62
    3
 10
4112.7167019027483
 20
2138.7632135306548
 11
4112.7167019027483
 21
1643.7632135306539
  0
LINE
  8
_0-d_ラッチ平面__扉側
  6
CONTINUOUS
 62
    7
 10
3797.9588223290693
 20
2068.7632135306548
 11
3797.9588223290693
 21
1948.7632135306546
  0
TEXT
  8
_0-d_ラッチ平面__扉側
 62
    7
 10
3718.4203773313333
 20
1776.8525403464345
 40
35
 41
0.8571428571428568
 50
0
  1
ＢＳ
  0
TEXT
  8
_0-d_ラッチ平面__扉側
 62
    7
 10
3828.0578162341043
 20
1776.8525403464345
 40
35
 41
0.8571428571428568
 50
0
  1
ブラックストーン
  0
LINE
  8
_0-d_ラッチ平面__扉側
  6
CONTINUOUS
 62
    3
 10
3697.9588223290693
 20
2138.7632135306548
 11
3697.9588223290693
 21
1643.7632135306539
  0
LINE
  8
_0-d_ラッチ平面__扉側
  6
CONTINUOUS
 62
    7
 10
3797.9588223290693
 20
1943.7632135306546
 11
3797.9588223290693
 21
1643.7632135306539
  0
TEXT
  8
_0-d_ラッチ平面__扉側
 62
    7
 10
3718.4203773313333
 20
1716.8525403464343
 40
35
 41
0.8571428571428568
 50
0
  1
ＰＭ
  0
TEXT
  8
_0-d_ラッチ平面__扉側
 62
    7
 10
3828.0578162341053
 20
1716.8525403464343
 40
35
 41
0.8571428571428568
 50
0
  1
ペールグレイン
  0
TEXT
  8
_0-d_ラッチ平面__扉側
 62
    7
 10
3718.4203773313333
 20
1656.8525403464343
 40
35
 41
0.8571428571428568
 50
0
  1
ＭＤ
  0
TEXT
  8
_0-d_ラッチ平面__扉側
 62
    7
 10
3828.0578162341053
 20
1656.8525403464343
 40
35
 41
0.8571428571428568
 50
0
  1
ダークグレイン
  0
LINE
  8
_0-d_ラッチ平面__扉側
  6
CONTINUOUS
 62
    3
 10
4112.7167019027483
 20
2138.7632135306548
 11
3697.9588223290693
 21
2138.7632135306548
  0
LINE
  8
_0-d_ラッチ平面__扉側
  6
CONTINUOUS
 62
    3
 10
4112.7167019027483
 20
1643.7632135306539
 11
3697.9588223290693
 21
1643.7632135306539
  0
LINE
  8
_0-d_ラッチ平面__扉側
  6
CONTINUOUS
 62
    7
 10
3697.9588223290693
 20
2008.7632135306546
 11
4112.7167019027483
 21
2008.7632135306546
  0
LINE
  8
_0-d_ラッチ平面__扉側
  6
CONTINUOUS
 62
    7
 10
4112.7167019027483
 20
2008.7632135306546
 11
3697.9588223290693
 21
2008.7632135306546
  0
LINE
  8
_0-d_ラッチ平面__扉側
  6
CONTINUOUS
 62
    3
 10
4112.7167019027483
 20
2008.7632135306546
 11
3697.9588223290693
 21
2008.7632135306546
  0
LINE
  8
_0-d_ラッチ平面__扉側
  6
CONTINUOUS
 62
    3
 10
4112.7167019027483
 20
1948.7632135306546
 11
3697.9588223290693
 21
1948.7632135306546
  0
LINE
  8
_0-d_ラッチ平面__扉側
  6
CONTINUOUS
 62
    7
 10
4112.7167019027483
 20
1883.7632135306546
 11
3697.9588223290693
 21
1883.7632135306546
  0
LINE
  8
_0-d_ラッチ平面__扉側
  6
CONTINUOUS
 62
    3
 10
4112.7167019027483
 20
1883.7632135306546
 11
3697.9588223290693
 21
1883.7632135306546
  0
LINE
  8
_0-d_ラッチ平面__扉側
  6
CONTINUOUS
 62
    3
 10
4112.7167019027483
 20
1823.7632135306546
 11
3697.9588223290693
 21
1823.7632135306546
  0
LINE
  8
_0-d_ラッチ平面__扉側
  6
CONTINUOUS
 62
    7
 10
3697.9588223290693
 20
1883.7632135306546
 11
4112.7167019027483
 21
1883.7632135306546
  0
LINE
  8
_0-d_ラッチ平面__扉側
  6
CONTINUOUS
 62
    7
 10
4112.7167019027483
 20
1948.7632135306546
 11
3697.9588223290693
 21
1948.7632135306546
  0
LINE
  8
_0-d_ラッチ平面__扉側
  6
CONTINUOUS
 62
    7
 10
4112.7167019027483
 20
1943.7632135306546
 11
3697.9588223290693
 21
1943.7632135306546
  0
LINE
  8
_0-d_ラッチ平面__扉側
  6
CONTINUOUS
 62
    7
 10
4112.7167019027483
 20
1823.7632135306546
 11
3697.9588223290693
 21
1823.7632135306546
  0
LINE
  8
_0-d_ラッチ平面__扉側
  6
CONTINUOUS
 62
    3
 10
4112.7167019027483
 20
1823.7632135306546
 11
3697.9588223290693
 21
1823.7632135306546
  0
LINE
  8
_0-d_ラッチ平面__扉側
  6
CONTINUOUS
 62
    3
 10
4112.7167019027483
 20
1763.7632135306539
 11
3697.9588223290693
 21
1763.7632135306539
  0
LINE
  8
_0-d_ラッチ平面__扉側
  6
CONTINUOUS
 62
    7
 10
3697.9588223290693
 20
1823.7632135306546
 11
4112.7167019027483
 21
1823.7632135306546
  0
LINE
  8
_0-d_ラッチ平面__扉側
  6
CONTINUOUS
 62
    7
 10
4112.7167019027483
 20
1763.7632135306539
 11
3697.9588223290693
 21
1763.7632135306539
  0
LINE
  8
_0-d_ラッチ平面__扉側
  6
CONTINUOUS
 62
    3
 10
4112.7167019027483
 20
1763.7632135306539
 11
3697.9588223290693
 21
1763.7632135306539
  0
LINE
  8
_0-d_ラッチ平面__扉側
  6
CONTINUOUS
 62
    3
 10
4112.7167019027483
 20
1703.7632135306539
 11
3697.9588223290693
 21
1703.7632135306539
  0
LINE
  8
_0-d_ラッチ平面__扉側
  6
CONTINUOUS
 62
    7
 10
3697.9588223290693
 20
1763.7632135306539
 11
4112.7167019027483
 21
1763.7632135306539
  0
LINE
  8
_0-d_ラッチ平面__扉側
  6
CONTINUOUS
 62
    7
 10
4112.7167019027483
 20
1703.7632135306539
 11
3697.9588223290693
 21
1703.7632135306539
  0
LINE
  8
_0-d_ラッチ平面__扉側
  6
CONTINUOUS
 62
    3
 10
4112.7167019027483
 20
1703.7632135306539
 11
3697.9588223290693
 21
1703.7632135306539
  0
LINE
  8
_0-d_ラッチ平面__扉側
  6
CONTINUOUS
 62
    7
 10
3697.9588223290693
 20
1703.7632135306539
 11
4112.7167019027483
 21
1703.7632135306539
  0
LINE
  8
_0-d_ラッチ平面__扉側
  6
CONTINUOUS
 62
    7
 10
4112.7167019027483
 20
2068.7632135306548
 11
3697.9588223290693
 21
2068.7632135306548
  0
LINE
  8
_0-d_ラッチ平面__扉側
  6
CONTINUOUS
 62
    7
 10
4112.7167019027483
 20
2073.7632135306548
 11
3697.9588223290693
 21
2073.7632135306548
  0
POINT
  8
_0-9_ラッチ断面__受け
 62
    3
 10
572.82476271240284
 20
2735.7744603287765
  0
POINT
  8
_0-9_ラッチ断面__受け
 62
    3
 10
572.82476271240284
 20
2735.7744603287765
  0
POINT
  8
_0-9_ラッチ断面__受け
 62
    3
 10
572.82476271240284
 20
2735.7744603287765
  0
POINT
  8
_0-9_ラッチ断面__受け
 62
    3
 10
572.82476271240284
 20
2735.7744603287765
  0
POINT
  8
_0-9_ラッチ断面__受け
 62
    3
 10
1372.8247627124028
 20
2735.7744603287765
  0
POINT
  8
_0-9_ラッチ断面__受け
 62
    3
 10
1373.3247627124023
 20
1535.2410513398297
  0
POINT
  8
_0-9_ラッチ断面__受け
 62
    3
 10
573.32476271240238
 20
1535.2410513398297
  0
POINT
  8
_0-9_ラッチ断面__受け
 62
    3
 10
2477.8570920036445
 20
1345.2410513398299
  0
POINT
  8
_0-9_ラッチ断面__受け
 62
    3
 10
2397.8570920036445
 20
1165.2410513398297
  0
POINT
  8
_0-9_ラッチ断面__受け
 62
    3
 10
2397.8570920036445
 20
1105.2410513398297
  0
POINT
  8
_0-9_ラッチ断面__受け
 62
    3
 10
2397.8570920036445
 20
1045.2410513398297
  0
POINT
  8
_0-9_ラッチ断面__受け
 62
    3
 10
2397.8570920036445
 20
985.24105133982959
  0
POINT
  8
_0-9_ラッチ断面__受け
 62
    3
 10
2269.8164462322188
 20
1118.0788812305547
  0
POINT
  8
_0-9_ラッチ断面__受け
 62
    3
 10
1979.8164462322188
 20
1118.0788812305547
  0
POINT
  8
_0-9_ラッチ断面__受け
 62
    3
 10
2804.8913935730729
 20
1535.2410513398297
  0
POINT
  8
_0-9_ラッチ断面__受け
 62
    3
 10
3604.8913935730729
 20
1535.2410513398297
  0
POINT
  8
_0-9_ラッチ断面__受け
 62
    3
 10
3592.8913935730729
 20
555.2410513398297
  0
POINT
  8
_0-9_ラッチ断面__受け
 62
    3
 10
2816.8913935730729
 20
555.2410513398297
  0
POINT
  8
_0-9_ラッチ断面__受け
 62
    3
 10
1562.8247627124028
 20
745.24105133982959
  0
POINT
  8
_0-9_ラッチ断面__受け
 62
    3
 10
1562.8247627124028
 20
1345.2410513398297
  0
POINT
  8
_0-9_ラッチ断面__受け
 62
    3
 10
1512.8247627124028
 20
745.24105133982959
  0
POINT
  8
_0-9_ラッチ断面__受け
 62
    3
 10
1512.8247627124028
 20
730.24105133982982
  0
POINT
  8
_0-9_ラッチ断面__受け
 62
    3
 10
1562.8247627124028
 20
2545.7744603287765
  0
POINT
  8
_0-9_ラッチ断面__受け
 62
    3
 10
1562.8247627124028
 20
2187.7744603287765
  0
LINE
  8
_f-0_
  6
CONTINUOUS
 62
    7
 10
87.716701902748468
 20
2868.7632135306557
 11
4127.7167019027483
 21
2868.7632135306557
  0
LINE
  8
_f-0_
  6
CONTINUOUS
 62
    7
 10
4127.7167019027483
 20
2868.7632135306557
 11
4127.7167019027483
 21
48.763213530655491
  0
LINE
  8
_f-0_
  6
CONTINUOUS
 62
    7
 10
4127.7167019027483
 20
48.763213530655491
 11
87.716701902748468
 21
48.763213530655491
  0
LINE
  8
_f-0_
  6
CONTINUOUS
 62
    7
 10
87.716701902748468
 20
48.763213530655491
 11
87.716701902748468
 21
2868.7632135306557
  0
LINE
  8
_0-8_ラッチ立面__受け
  6
CONTINUOUS
 62
    4
 10
847.66514634671807
 20
1918.7336152219872
 11
1097.665146346718
 21
1918.7336152219872
  0
LINE
  8
_0-8_ラッチ立面__受け
  6
CONTINUOUS
 62
    4
 10
847.66514634671807
 20
1988.7336152219872
 11
847.66514634671807
 21
1918.7336152219872
  0
LINE
  8
_0-8_ラッチ立面__受け
  6
CONTINUOUS
 62
    4
 10
1097.665146346718
 20
1988.7336152219872
 11
847.66514634671807
 21
1988.7336152219872
  0
LINE
  8
_0-8_ラッチ立面__受け
  6
CONTINUOUS
 62
    4
 10
1097.665146346718
 20
1918.7336152219872
 11
1097.665146346718
 21
1988.7336152219872
  0
TEXT
  8
_0-8_ラッチ立面__受け
 62
    7
 10
922.82476271240284
 20
1938.7336152219872
 40
30
 41
1
 50
0
  1
平面図
  0
LINE
  8
_0-8_ラッチ立面__受け
  6
CONTINUOUS
 62
    4
 10
847.98437907808738
 20
411.67369927125179
 11
847.98437907808738
 21
341.67369927125179
  0
LINE
  8
_0-8_ラッチ立面__受け
  6
CONTINUOUS
 62
    4
 10
847.98437907808738
 20
411.67369927125179
 11
1097.9843790780873
 21
411.67369927125179
  0
LINE
  8
_0-8_ラッチ立面__受け
  6
CONTINUOUS
 62
    4
 10
1097.9843790780873
 20
411.67369927125179
 11
1097.9843790780873
 21
341.67369927125179
  0
LINE
  8
_0-8_ラッチ立面__受け
  6
CONTINUOUS
 62
    4
 10
1097.9843790780873
 20
341.67369927125179
 11
847.98437907808738
 21
341.67369927125179
  0
TEXT
  8
_0-8_ラッチ立面__受け
 62
    7
 10
922.98437907808738
 20
361.67369927125179
 40
30
 41
1
 50
0
  1
立面図
  0
LINE
  8
_0-8_ラッチ立面__受け
  6
CONTINUOUS
 62
    4
 10
1983.8570920036443
 20
411.58423435877193
 11
1983.8570920036443
 21
341.58423435877193
  0
LINE
  8
_0-8_ラッチ立面__受け
  6
CONTINUOUS
 62
    4
 10
1983.8570920036443
 20
341.58423435877193
 11
2233.8570920036445
 21
341.58423435877193
  0
LINE
  8
_0-8_ラッチ立面__受け
  6
CONTINUOUS
 62
    4
 10
2233.8570920036445
 20
341.58423435877193
 11
2233.8570920036445
 21
411.58423435877193
  0
LINE
  8
_0-8_ラッチ立面__受け
  6
CONTINUOUS
 62
    4
 10
2233.8570920036445
 20
411.58423435877193
 11
1983.8570920036443
 21
411.58423435877193
  0
TEXT
  8
_0-8_ラッチ立面__受け
 62
    7
 10
2058.8570920036436
 20
361.58423435877193
 40
30
 41
1
 50
0
  1
断面図
  0
LINE
  8
_0-8_ラッチ立面__受け
  6
CONTINUOUS
 62
    4
 10
3079.8913935730729
 20
411.51252889017041
 11
3079.8913935730729
 21
341.51252889017001
  0
LINE
  8
_0-8_ラッチ立面__受け
  6
CONTINUOUS
 62
    4
 10
3079.8913935730729
 20
341.51252889017001
 11
3329.8913935730729
 21
341.51252889017001
  0
LINE
  8
_0-8_ラッチ立面__受け
  6
CONTINUOUS
 62
    4
 10
3329.8913935730729
 20
341.51252889017001
 11
3329.8913935730729
 21
411.51252889017041
  0
LINE
  8
_0-8_ラッチ立面__受け
  6
CONTINUOUS
 62
    4
 10
3329.8913935730729
 20
411.51252889017041
 11
3079.8913935730729
 21
411.51252889017041
  0
TEXT
  8
_0-8_ラッチ立面__受け
 62
    7
 10
3154.8913935730729
 20
361.51252889017001
 40
30
 41
1
 50
0
  1
背面図
  0
LINE
  8
_f-0_
  6
CONTINUOUS
 62
    7
 10
622.05073382680154
 20
104.42521185597115
 11
622.05073382680154
 21
204.42521185597115
  0
LINE
  8
_f-0_
  6
CONTINUOUS
 62
    7
 10
162.05073382680211
 20
104.42521185597115
 11
602.05073382680154
 21
104.42521185597115
  0
LINE
  8
_f-0_
  6
CONTINUOUS
 62
    7
 10
162.05073382680211
 20
204.42521185597115
 11
602.05073382680154
 21
204.42521185597115
  0
LINE
  8
_f-0_
  6
CONTINUOUS
 62
    7
 10
1412.0507338268016
 20
104.42521185597115
 11
1412.0507338268016
 21
204.42521185597115
  0
LINE
  8
_f-0_
  6
CONTINUOUS
 62
    7
 10
2202.0507338268016
 20
104.42521185597115
 11
2202.0507338268016
 21
204.42521185597115
  0
LINE
  8
_f-0_
  6
CONTINUOUS
 62
    7
 10
2212.0507338268016
 20
104.42521185597115
 11
2212.0507338268016
 21
204.42521185597115
  0
LINE
  8
_f-0_
  6
CONTINUOUS
 62
    7
 10
622.05073382680154
 20
104.42521185597115
 11
2202.0507338268016
 21
104.42521185597115
  0
LINE
  8
_f-0_
  6
CONTINUOUS
 62
    7
 10
622.05073382680154
 20
204.42521185597115
 11
2202.0507338268016
 21
204.42521185597115
  0
LINE
  8
_f-0_
  6
CONTINUOUS
 62
    7
 10
2702.0507338268021
 20
104.42521185597115
 11
2702.0507338268021
 21
204.42521185597115
  0
LINE
  8
_f-0_
  6
CONTINUOUS
 62
    7
 10
2712.0507338268021
 20
104.42521185597115
 11
2712.0507338268021
 21
204.42521185597115
  0
LINE
  8
_f-0_
  6
CONTINUOUS
 62
    7
 10
2212.0507338268016
 20
104.42521185597115
 11
2702.0507338268021
 21
104.42521185597115
  0
LINE
  8
_f-0_
  6
CONTINUOUS
 62
    7
 10
2212.0507338268016
 20
204.42521185597115
 11
2702.0507338268021
 21
204.42521185597115
  0
LINE
  8
_f-0_
  6
CONTINUOUS
 62
    7
 10
3012.0507338268021
 20
104.42521185597115
 11
3012.0507338268021
 21
204.42521185597115
  0
LINE
  8
_f-0_
  6
CONTINUOUS
 62
    7
 10
3312.0507338268021
 20
104.42521185597115
 11
3312.0507338268021
 21
204.42521185597115
  0
LINE
  8
_f-0_
  6
CONTINUOUS
 62
    7
 10
3692.0507338268021
 20
104.42521185597115
 11
3692.0507338268021
 21
204.42521185597115
  0
LINE
  8
_f-0_
  6
CONTINUOUS
 62
    7
 10
2712.0507338268021
 20
104.42521185597115
 11
4102.0507338268025
 21
104.42521185597115
  0
LINE
  8
_f-0_
  6
CONTINUOUS
 62
    7
 10
4102.0507338268025
 20
104.42521185597115
 11
4102.0507338268025
 21
204.42521185597115
  0
LINE
  8
_f-0_
  6
CONTINUOUS
 62
    7
 10
2712.0507338268021
 20
204.42521185597115
 11
4102.0507338268025
 21
204.42521185597115
  0
LINE
  8
_f-0_
  6
CONTINUOUS
 62
    7
 10
162.05073382680211
 20
154.42521185597115
 11
602.05073382680154
 21
154.42521185597115
  0
TEXT
  8
_f-0_
 62
    7
 10
647.05073382680041
 20
171.92521185597115
 40
25
 41
0.8
 50
0
  1
名　称
  0
TEXT
  8
_f-0_
 62
    7
 10
1437.0507338268025
 20
171.92521185597115
 40
25
 41
0.8
 50
0
  1
図面名称
  0
TEXT
  8
_f-0_
 62
    7
 10
2737.0507338268016
 20
171.92521185597115
 40
25
 41
0.64
 50
0
  1
ＳＣＡＬＥ
  0
TEXT
  8
_f-0_
 62
    7
 10
3037.0507338268021
 20
171.92521185597115
 40
25
 41
0.64
 50
0
  1
ＤＡＴＡ
  0
TEXT
  8
_f-0_
 62
    7
 10
3717.0507338268021
 20
171.92521185597115
 40
25
 41
0.64
 50
0
  1
ＳＨＥＥＴ　ＮＯ．
  0
TEXT
  8
_f-0_
 62
    7
 10
2824.007169387964
 20
125.15256180468327
 40
35
 41
0.5714285714285711
 50
0
  1
１／１０
  0
TEXT
  8
_f-0_
 62
    7
 10
3554.0507338268025
 20
171.92521185597115
 40
25
 41
0.64
 50
0
  1
ＤＲＡＷＩＮＧ
  0
TEXT
  8
_f-0_
 62
    7
 10
3337.0507338268021
 20
171.92521185597115
 40
25
 41
0.64
 50
0
  1
ＣＨＥＣＫＥＤ
  0
POINT
  8
_0-9_ラッチ断面__受け
 62
    3
 10
2477.8570920036445
 20
745.24105133982959
  0
LINE
  8
_0-9_ラッチ断面__受け
  6
CONTINUOUS
 62
    4
 10
1512.8247627124028
 20
730.24105133982982
 11
1512.8247627124028
 21
686.03100950656414
  0
LINE
  8
_e-0_
  6
CONTINUOUS
 62
    7
 10
2235.8366640958874
 20
183.94486665957714
 11
2264.9846622966542
 21
194.55387039310096
  0
LINE
  8
_e-0_
  6
CONTINUOUS
 62
    7
 10
2229.6843953320881
 20
176.38473509396874
 11
2279.6036842974681
 21
194.55387039310011
  0
LINE
  8
_e-0_
  6
CONTINUOUS
 62
    7
 10
2226.2574714057886
 20
169.81654792732371
 11
2255.9150768319382
 21
180.61103352205378
  0
LINE
  8
_e-0_
  6
CONTINUOUS
 62
    7
 10
2224.2626908639713
 20
163.76961832382903
 11
2246.0093920977315
 21
171.68477026639777
  0
LINE
  8
_e-0_
  6
CONTINUOUS
 62
    7
 10
2223.253185238545
 20
158.08129946246992
 11
2241.5081926224479
 21
164.72557877652036
  0
LINE
  8
_e-0_
  6
CONTINUOUS
 62
    7
 10
2223.0156427143547
 20
152.67395219190916
 11
2241.4255440656402
 21
159.37460829955426
  0
LINE
  8
_e-0_
  6
CONTINUOUS
 62
    7
 10
2223.4344835706642
 20
147.50550893412082
 11
2241.8793979036299
 21
154.21890872491019
  0
LINE
  8
_e-0_
  6
CONTINUOUS
 62
    7
 10
2224.445740720977
 20
142.55268757364603
 11
2243.3203026450687
 21
149.42246629882959
  0
LINE
  8
_e-0_
  6
CONTINUOUS
 62
    7
 10
2226.0182888832978
 20
137.80415943430114
 11
2245.7132505946715
 21
144.97253926225369
  0
LINE
  8
_e-0_
  6
CONTINUOUS
 62
    7
 10
2228.1462640287199
 20
133.25779018411338
 11
2249.1506443149037
 21
140.90275939749233
  0
LINE
  8
_e-0_
  6
CONTINUOUS
 62
    7
 10
2230.8477427532311
 20
128.92015916595937
 11
2253.9308498295376
 21
137.32172305611442
  0
LINE
  8
_e-0_
  6
CONTINUOUS
 62
    7
 10
2234.1689215693718
 20
124.80808053533024
 11
2260.9975727253267
 21
134.57291098160936
  0
LINE
  8
_e-0_
  6
CONTINUOUS
 62
    7
 10
2238.1963030092369
 20
120.95303863909776
 11
2276.6158743796218
 21
134.93661903118379
  0
LINE
  8
_e-0_
  6
CONTINUOUS
 62
    7
 10
2243.0858385970809
 20
117.41179519008085
 11
2271.2352160844507
 21
127.65733070860676
  0
LINE
  8
_e-0_
  6
CONTINUOUS
 62
    7
 10
2271.6356660451688
 20
186.33286006079629
 11
2294.2227062982819
 21
194.55387039310181
  0
LINE
  8
_e-0_
  6
CONTINUOUS
 62
    7
 10
2252.6131881355313
 20
174.08835545732216
 11
2305.1018637432653
 21
193.19267101459161
  0
LINE
  8
_e-0_
  6
CONTINUOUS
 62
    7
 10
2265.1203526762751
 20
173.3197022028429
 11
2305.1018637432653
 21
187.87178215221217
  0
LINE
  8
_e-0_
  6
CONTINUOUS
 62
    7
 10
2279.7393746770903
 20
173.3197022028429
 11
2305.1018637432653
 21
182.55089328983274
  0
LINE
  8
_e-0_
  6
CONTINUOUS
 62
    7
 10
2283.9258801693499
 20
169.52257672523785
 11
2305.1018637432653
 21
177.2300044274533
  0
LINE
  8
_e-0_
  6
CONTINUOUS
 62
    7
 10
2283.9258801693499
 20
164.20168786285842
 11
2305.1018637432653
 21
171.9091155650733
  0
LINE
  8
_e-0_
  6
CONTINUOUS
 62
    7
 10
2283.9258801693499
 20
158.88079900047898
 11
2305.1018637432653
 21
166.58822670269387
  0
LINE
  8
_e-0_
  6
CONTINUOUS
 62
    7
 10
2283.9258801693499
 20
153.55991013809955
 11
2305.1018637432653
 21
161.26733784031443
  0
LINE
  8
_e-0_
  6
CONTINUOUS
 62
    7
 10
2283.8515813964468
 20
148.21197873394055
 11
2305.1018637432653
 21
155.946448977935
  0
LINE
  8
_e-0_
  6
CONTINUOUS
 62
    7
 10
2282.704724763138
 20
142.47366819406579
 11
2305.1018637432653
 21
150.62556011555528
  0
LINE
  8
_e-0_
  6
CONTINUOUS
 62
    7
 10
2280.4457301125835
 20
136.33057251951811
 11
2305.1018637432653
 21
145.30467125317585
  0
LINE
  8
_e-0_
  6
CONTINUOUS
 62
    7
 10
2276.4511200095644
 20
129.55576448214031
 11
2303.9116004635193
 21
139.55056198602875
  0
LINE
  8
_e-0_
  6
CONTINUOUS
 62
    7
 10
2267.7970807133165
 20
121.0850629097564
 11
2301.0895051181664
 21
133.20251441967968
  0
LINE
  8
_e-0_
  6
CONTINUOUS
 62
    7
 10
2259.0298539746222
 20
112.57316447742937
 11
2296.2211119089829
 21
126.10967534045357
  0
LINE
  8
_e-0_
  6
CONTINUOUS
 62
    7
 10
2274.1883752837679
 20
112.76952616706864
 11
2284.7751922141192
 21
116.62281240534184
  0
LINE
  8
_e-0_
  6
CONTINUOUS
 62
    3
 10
2258.4972011002914
 20
181.99134005275396
 11
2254.3752072861266
 21
179.18201849977236
  0
LINE
  8
_e-0_
  6
CONTINUOUS
 62
    3
 10
2274.4375760187444
 20
112.57316447742766
 11
2258.9711348669716
 21
112.57316447742766
  0
ARC
  8
_e-0_
  6
CONTINUOUS
 62
    3
 10
2274.4375760187444
 20
117.57316447742766
 40
5
 50
270
 51
286.20399351045659
  0
LINE
  8
_e-0_
  6
CONTINUOUS
 62
    3
 10
2305.279594668063
 20
194.55387039310011
 11
2305.279594668063
 21
144.19867916164037
  0
ARC
  8
_e-0_
  6
CONTINUOUS
 62
    3
 10
2263.9728996034464
 20
153.58344839081951
 40
42.5
 50
286.20399351045648
 51
345.50707147989851
  0
ARC
  8
_e-0_
  6
CONTINUOUS
 62
    3
 10
2300.279594668063
 20
144.19867916164037
 40
5
 50
345.50707147989879
 51
0.0000000000000159
  0
ARC
  8
_e-0_
  6
CONTINUOUS
 62
    3
 10
2242.1434725645217
 20
154.92082031886695
 40
40
 50
279.71265316664215
 51
332.69093929010892
  0
ARC
  8
_e-0_
  6
CONTINUOUS
 62
    3
 10
2248.048219581773
 20
120.42250206040307
 40
5
 50
241.9452628118
 51
279.71265316664221
  0
ARC
  8
_e-0_
  6
CONTINUOUS
 62
    3
 10
2255.3150461234195
 20
189.55387039310011
 40
5
 50
90
 51
106.05338143786268
  0
LINE
  8
_e-0_
  6
CONTINUOUS
 62
    3
 10
2280.4842327420233
 20
194.55387039309982
 11
2270.2689327819925
 21
189.66588876819173
  0
LINE
  8
_e-0_
  6
CONTINUOUS
 62
    3
 10
2270.2689327819925
 20
189.66588876819173
 11
2264.3501921643828
 21
185.86970164581146
  0
LINE
  8
_e-0_
  6
CONTINUOUS
 62
    3
 10
2258.4972011002914
 20
181.99134005275368
 11
2264.3501921643833
 21
185.86970164581146
  0
ARC
  8
_e-0_
  6
CONTINUOUS
 62
    3
 10
2255.3150461234195
 20
189.55387039310011
 40
5
 50
90
 51
106.05338143786268
  0
ARC
  8
_e-0_
  6
CONTINUOUS
 62
    3
 10
2255.3150461234195
 20
189.55387039310011
 40
5
 50
90
 51
106.05338143786268
  0
LINE
  8
_e-0_
  6
CONTINUOUS
 62
    3
 10
2280.4842327420233
 20
194.55387039310011
 11
2255.3150461234195
 21
194.55387039310011
  0
ARC
  8
_e-0_
  6
CONTINUOUS
 62
    3
 10
2265.6850271033654
 20
153.5162026761742
 40
42.5
 50
106.05338143786271
 51
241.94526281180051
  0
ARC
  8
_e-0_
  6
CONTINUOUS
 62
    3
 10
2255.3150461234195
 20
189.55387039310011
 40
5
 50
90
 51
106.05338143786268
  0
LINE
  8
_e-0_
  6
CONTINUOUS
 62
    3
 10
2291.2227167726568
 20
194.55387039310011
 11
2305.279594668063
 21
194.55387039310011
  0
ARC
  8
_e-0_
  6
CONTINUOUS
 62
    3
 10
2291.2227167726568
 20
189.55387039310011
 40
5
 50
90
 51
112.84552721528325
  0
LINE
  8
_e-0_
  6
CONTINUOUS
 62
    3
 10
2284.1036110941477
 20
173.31970220284119
 11
2261.0680884297689
 21
173.31970220284119
  0
ARC
  8
_e-0_
  6
CONTINUOUS
 62
    3
 10
2261.0680884297689
 20
168.31970220284119
 40
5
 50
90
 51
110.93110431809542
  0
ARC
  8
_e-0_
  6
CONTINUOUS
 62
    3
 10
2246.2800001070586
 20
162.1290763781451
 40
0.5
 50
165.368776721252
 51
224.67319701305797
  0
LINE
  8
_e-0_
  6
CONTINUOUS
 62
    3
 10
2245.9244358848641
 20
161.77754532134485
 11
2245.7344921007284
 21
161.96966835730563
  0
ARC
  8
_e-0_
  6
CONTINUOUS
 62
    3
 10
2268.2129904475891
 20
149.63948873629476
 40
25
 50
110.93110431809527
 51
150.17701829297226
  0
ARC
  8
_e-0_
  6
CONTINUOUS
 62
    3
 10
2246.0900563229233
 20
162.32119941410587
 40
0.5
 50
224.67319701305652
 51
330.17701829297561
  0
LINE
  8
_e-0_
  6
CONTINUOUS
 62
    3
 10
2289.2814768910575
 20
194.16164509702042
 11
2275.5741279425565
 21
188.38678539583099
  0
LINE
  8
_e-0_
  6
CONTINUOUS
 62
    3
 10
2275.5741279425565
 20
188.38678539583099
 11
2269.1652622122446
 21
184.88657977403136
  0
ARC
  8
_e-0_
  6
CONTINUOUS
 62
    3
 10
2269.9855058223761
 20
155.94045789086862
 40
25
 50
126.05682261028302
 51
165.36877672125814
  0
ARC
  8
_e-0_
  6
CONTINUOUS
 62
    3
 10
2314.0795261788803
 20
95.540573190998543
 40
100
 50
116.68868989749238
 51
126.03335467187628
  0
LINE
  8
_e-0_
  6
CONTINUOUS
 62
    3
 10
2254.3752072861261
 20
179.18201849977265
 11
2246.4067752679402
 21
171.92707079532567
  0
LINE
  8
_e-0_
  6
CONTINUOUS
 62
    3
 10
2246.4067752679402
 20
171.92707079532567
 11
2244.5616298314553
 21
169.7938494987261
  0
ARC
  8
_e-0_
  6
CONTINUOUS
 62
    3
 10
2266.6001168011457
 20
158.97724261098005
 40
25
 50
169.07329675873063
 51
296.32138326661799
  0
LINE
  8
_e-0_
  6
CONTINUOUS
 62
    3
 10
2244.5616298314557
 20
169.7938494987261
 11
2242.0533548929147
 21
163.71606945109476
  0
LINE
  8
_e-0_
  6
CONTINUOUS
 62
    3
 10
2284.1036110941477
 20
173.31970220284119
 11
2284.1036110941477
 21
148.84947071428769
  0
ARC
  8
_e-0_
  6
CONTINUOUS
 62
    3
 10
2269.3348263498523
 20
128.55612168904315
 40
5
 50
311.4163090429962
 51
326.13300916724881
  0
ARC
  8
_e-0_
  6
CONTINUOUS
 62
    3
 10
2244.3366749153342
 20
153.16117420016951
 40
40
 50
316.78132524618342
 51
353.81191653224226
  0
ARC
  8
_e-0_
  6
CONTINUOUS
 62
    3
 10
2232.9509318238065
 20
169.80187564163315
 40
60
 50
294.69555798319504
 51
311.41630904299643
  0
ARC
  8
_e-0_
  6
CONTINUOUS
 62
    3
 10
2263.9775491586715
 20
187.40588336388725
 40
75
 50
264.68313230529076
 51
266.17253517307824
  0
ARC
  8
_e-0_
  6
CONTINUOUS
 62
    3
 10
2257.0741018984172
 20
113.22642248740947
 40
0.5
 50
174.02086603460466
 51
264.68313230528985
  0
ARC
  8
_e-0_
  6
CONTINUOUS
 62
    3
 10
2259.063221691812
 20
113.01808994668988
 40
2.5
 50
114.69555798319522
 51
174.02086603461154
  0
LINE
  8
_e-0_
  6
CONTINUOUS
 62
    7
 10
2368.9407257363959
 20
153.8555320965915
 11
2380.3126248015978
 21
157.9945648634046
  0
LINE
  8
_e-0_
  6
CONTINUOUS
 62
    3
 10
2428.3092572732284
 20
147.05833678116505
 11
2428.3092572732284
 21
120.91539808426659
  0
CIRCLE
  8
_e-0_
  6
CONTINUOUS
 62
    3
 10
2357.5674768778399
 20
146.88814634727634
 40
13.33773795583065
  0
CIRCLE
  8
_e-0_
  6
CONTINUOUS
 62
    3
 10
2357.2837594304651
 20
146.60442889990122
 40
25.691707563897665
  0
LINE
  8
_e-0_
  6
CONTINUOUS
 62
    3
 10
2391.5446955520592
 20
172.68771567712093
 11
2391.5446955520592
 21
120.91539808426659
  0
LINE
  8
_e-0_
  6
CONTINUOUS
 62
    3
 10
2391.5446955520592
 20
120.91539808426659
 11
2406.9076645804707
 21
120.91539808426659
  0
LINE
  8
_e-0_
  6
CONTINUOUS
 62
    3
 10
2406.9076645804707
 20
120.91539808426659
 11
2406.9076645804707
 21
157.05833678116505
  0
LINE
  8
_e-0_
  6
CONTINUOUS
 62
    3
 10
2443.228209855732
 20
120.91539808426659
 11
2428.3092572732284
 21
120.91539808426659
  0
LINE
  8
_e-0_
  6
CONTINUOUS
 62
    3
 10
2418.3092572732284
 20
157.05833678116505
 11
2406.9076645804707
 21
157.05833678116505
  0
ARC
  8
_e-0_
  6
CONTINUOUS
 62
    3
 10
2418.3092572732284
 20
147.05833678116505
 40
10
 50
0
 51
90
  0
LINE
  8
_e-0_
  6
CONTINUOUS
 62
    3
 10
2418.2282098557316
 20
172.68771567712093
 11
2391.5446955520592
 21
172.68771567712093
  0
LINE
  8
_e-0_
  6
CONTINUOUS
 62
    3
 10
2443.228209855732
 20
147.68771567712093
 11
2443.228209855732
 21
120.91539808426659
  0
ARC
  8
_e-0_
  6
CONTINUOUS
 62
    3
 10
2418.2282098557316
 20
147.68771567712093
 40
25
 50
0
 51
90
  0
ARC
  8
_e-0_
  6
CONTINUOUS
 62
    3
 10
2478.295994444325
 20
146.60174948003543
 40
13.33773795583065
 50
23.422555400004949
 51
97.191484740792631
  0
LINE
  8
_e-0_
  6
CONTINUOUS
 62
    3
 10
2466.0573099578646
 20
151.90362233962787
 11
2490.534678930785
 21
151.90362233962787
  0
ARC
  8
_e-0_
  6
CONTINUOUS
 62
    3
 10
2478.295994444325
 20
146.60174948003543
 40
13.33773795583065
 50
92.530763017635237
 51
156.57744459999506
  0
ARC
  8
_e-0_
  6
CONTINUOUS
 62
    3
 10
2478.295994444325
 20
146.60174948003543
 40
13.33773795583065
 50
204.21097500392608
 51
316.0067678116265
  0
LINE
  8
_e-0_
  6
CONTINUOUS
 62
    3
 10
2466.1314228627884
 20
141.13197324913869
 11
2503.5708091830401
 21
141.13197324913869
  0
LINE
  8
_e-0_
  6
CONTINUOUS
 62
    3
 10
2487.8914545430639
 20
137.33771152286408
 11
2500.7599750366903
 21
134.21464658261612
  0
ARC
  8
_e-0_
  6
CONTINUOUS
 62
    3
 10
2478.6163205945867
 20
147.24240178055936
 40
25.691707563897665
 50
346.24110979921471
 51
329.53046432565093
  0
ARC
  8
_e-0_
  6
CONTINUOUS
 62
    3
 10
2538.5642928691418
 20
146.56831030951025
 40
11.089756641867943
 50
94.502189492040685
 51
357.22978420280037
  0
LINE
  8
_e-0_
  6
CONTINUOUS
 62
    3
 10
2548.6410899779484
 20
157.6238476750268
 11
2537.6937781159517
 21
157.6238476750268
  0
LINE
  8
_e-0_
  6
CONTINUOUS
 62
    3
 10
2549.6410899779484
 20
156.62384767502715
 11
2549.6410899779484
 21
146.03233625585858
  0
ARC
  8
_e-0_
  6
CONTINUOUS
 62
    3
 10
2548.6410899779484
 20
156.62384767502715
 40
1
 50
0
 51
90
  0
LINE
  8
_e-0_
  6
CONTINUOUS
 62
    3
 10
2541.0210795623534
 20
172.7157992833321
 11
2549.4438113726191
 21
172.7157992833321
  0
ARC
  8
_e-0_
  6
CONTINUOUS
 62
    3
 10
2539.0170194880056
 20
147.10237349201634
 40
25.691707563897665
 50
85.526146014136969
 51
347.40557840019874
  0
LINE
  8
_e-0_
  6
CONTINUOUS
 62
    3
 10
2549.4438113726191
 20
193.55387039310016
 11
2549.4438113726191
 21
172.7157992833321
  0
ARC
  8
_e-0_
  6
CONTINUOUS
 62
    3
 10
2550.4438113726191
 20
193.55387039310016
 40
1
 50
90
 51
180
  0
LINE
  8
_e-0_
  6
CONTINUOUS
 62
    3
 10
2564.0905330831628
 20
193.55387039310016
 11
2564.0905330831628
 21
141.50034229411204
  0
LINE
  8
_e-0_
  6
CONTINUOUS
 62
    3
 10
2563.0905330831633
 20
194.55387039310011
 11
2550.4438113726191
 21
194.55387039310011
  0
ARC
  8
_e-0_
  6
CONTINUOUS
 62
    3
 10
2563.0905330831633
 20
193.55387039310016
 40
1
 50
0
 51
90
  0
CIRCLE
  8
_e-0_
  6
CONTINUOUS
 62
    3
 10
2599.5440184063854
 20
147.043799567397
 40
13.33773795583065
  0
CIRCLE
  8
_e-0_
  6
CONTINUOUS
 62
    3
 10
2599.2603009590102
 20
146.76008212002216
 40
25.691707563897665
  0
ARC
  8
_e-0_
  6
CONTINUOUS
 62
    3
 10
2353.35637840567
 20
167.9863014610953
 40
5
 50
90
 51
106.05338143786268
  0
ARC
  8
_e-0_
  6
CONTINUOUS
 62
    3
 10
2353.35637840567
 20
167.9863014610953
 40
5
 50
90
 51
106.05338143786268
  0
ARC
  8
_e-0_
  6
CONTINUOUS
 62
    3
 10
2353.35637840567
 20
167.9863014610953
 40
5
 50
90
 51
106.05338143786268
  0
ARC
  8
_e-0_
  6
CONTINUOUS
 62
    3
 10
2353.35637840567
 20
167.9863014610953
 40
5
 50
90
 51
106.05338143786268
  0
LINE
  8
_e-0_
  6
CONTINUOUS
 62
    7
 10
2338.397814259903
 20
164.02237690083893
 11
2360.5551916202566
 21
172.08700272941143
  0
LINE
  8
_e-0_
  6
CONTINUOUS
 62
    7
 10
2353.2922401344158
 20
164.1226157132661
 11
2368.5713183881316
 21
169.68374540464282
  0
LINE
  8
_e-0_
  6
CONTINUOUS
 62
    7
 10
2333.8018889252848
 20
157.02870801774821
 11
2353.2922401344158
 21
164.1226157132661
  0
LINE
  8
_e-0_
  6
CONTINUOUS
 62
    7
 10
2331.9785744704104
 20
151.04418696608718
 11
2349.2864007501179
 21
157.343720551751
  0
LINE
  8
_e-0_
  6
CONTINUOUS
 62
    7
 10
2331.6120904820286
 20
145.58990884060165
 11
2344.6864605819832
 21
150.34859038876504
  0
LINE
  8
_e-0_
  6
CONTINUOUS
 62
    7
 10
2332.321186811589
 20
140.52710993540927
 11
2344.3765135579674
 21
144.91489003544415
  0
LINE
  8
_e-0_
  6
CONTINUOUS
 62
    7
 10
2333.9712161766956
 20
135.8067826475937
 11
2346.0301909803711
 21
140.19589053189747
  0
LINE
  8
_e-0_
  6
CONTINUOUS
 62
    7
 10
2336.5548628009087
 20
131.42626425228996
 11
2349.6156774979726
 21
136.18001203728795
  0
LINE
  8
_e-0_
  6
CONTINUOUS
 62
    7
 10
2340.1868985942023
 20
127.42732830845881
 11
2357.0387292924815
 21
133.56089307552565
  0
LINE
  8
_e-0_
  6
CONTINUOUS
 62
    7
 10
2345.2008630322079
 20
123.93137325718271
 11
2367.3042092217137
 21
131.97633334784399
  0
LINE
  8
_e-0_
  6
CONTINUOUS
 62
    7
 10
2352.672491806928
 20
121.32993487028784
 11
2367.3578368417852
 21
126.6749633429049
  0
LINE
  8
_e-0_
  6
CONTINUOUS
 62
    7
 10
2367.3578368417852
 20
126.6749633429049
 11
2377.0623269725419
 21
130.20710888923048
  0
LINE
  8
_e-0_
  6
CONTINUOUS
 62
    7
 10
2366.4508876466361
 20
131.66574969425852
 11
2381.1137543140052
 21
137.00259671019495
  0
LINE
  8
_e-0_
  6
CONTINUOUS
 62
    7
 10
2366.5391143016522
 20
137.01875043293284
 11
2382.707517318754
 21
142.90356786677762
  0
LINE
  8
_e-0_
  6
CONTINUOUS
 62
    7
 10
2370.5419646629043
 20
143.79655767902988
 11
2382.9193516787913
 21
148.3015581308058
  0
LINE
  8
_e-0_
  6
CONTINUOUS
 62
    7
 10
2370.707249747249
 20
149.17760539227913
 11
2382.0827968697476
 21
153.31796594336083
  0
LINE
  8
_e-0_
  6
CONTINUOUS
 62
    7
 10
2357.1904356777322
 20
160.22055399600276
 11
2373.8148342762628
 21
166.2713402484448
  0
LINE
  8
_e-0_
  6
CONTINUOUS
 62
    7
 10
2365.2105772791237
 20
157.81875795113023
 11
2377.601519697901
 21
162.32869216607127
  0
LINE
  8
_e-0_
  6
CONTINUOUS
 62
    7
 10
2391.5446955520592
 20
167.40359314812394
 11
2406.0627028821099
 21
172.68771567712093
  0
LINE
  8
_e-0_
  6
CONTINUOUS
 62
    7
 10
2391.5446955520592
 20
162.08270428574451
 11
2420.4177781140142
 21
172.59164690980639
  0
LINE
  8
_e-0_
  6
CONTINUOUS
 62
    7
 10
2391.5446955520592
 20
156.76181542336507
 11
2428.8250436248681
 21
170.3307524449508
  0
LINE
  8
_e-0_
  6
CONTINUOUS
 62
    7
 10
2391.5446955520592
 20
151.44092656098564
 11
2434.1617370349067
 21
166.95226113322974
  0
LINE
  8
_e-0_
  6
CONTINUOUS
 62
    7
 10
2391.5446955520592
 20
146.12003769860621
 11
2406.9076645804707
 21
151.7117011349012
  0
LINE
  8
_e-0_
  6
CONTINUOUS
 62
    7
 10
2420.7597421054251
 20
156.75344503673244
 11
2437.97514244706
 21
163.01933833206305
  0
LINE
  8
_e-0_
  6
CONTINUOUS
 62
    7
 10
2391.5446955520592
 20
140.79914883622677
 11
2406.9076645804707
 21
146.39081227252177
  0
LINE
  8
_e-0_
  6
CONTINUOUS
 62
    7
 10
2395.3906273502475
 20
120.91539808426659
 11
2406.9076645804707
 21
125.10725682300346
  0
LINE
  8
_e-0_
  6
CONTINUOUS
 62
    7
 10
2391.5446955520592
 20
124.8364822490879
 11
2406.9076645804707
 21
130.42814568538318
  0
LINE
  8
_e-0_
  6
CONTINUOUS
 62
    7
 10
2391.5446955520592
 20
130.15737111146762
 11
2406.9076645804707
 21
135.74903454776261
  0
LINE
  8
_e-0_
  6
CONTINUOUS
 62
    7
 10
2391.5446955520592
 20
135.47825997384705
 11
2406.9076645804707
 21
141.06992341014233
  0
LINE
  8
_e-0_
  6
CONTINUOUS
 62
    7
 10
2428.3092572732284
 20
143.53857725381516
 11
2443.228209855732
 21
148.96863192027495
  0
LINE
  8
_e-0_
  6
CONTINUOUS
 62
    7
 10
2428.3092572732284
 20
138.21768839143601
 11
2443.228209855732
 21
143.6477430578958
  0
LINE
  8
_e-0_
  6
CONTINUOUS
 62
    7
 10
2428.1557813921926
 20
148.80360546382007
 11
2442.4194517644264
 21
153.99515691069751
  0
LINE
  8
_e-0_
  6
CONTINUOUS
 62
    7
 10
2428.3092572732284
 20
132.89679952905657
 11
2443.228209855732
 21
138.32685419551637
  0
LINE
  8
_e-0_
  6
CONTINUOUS
 62
    7
 10
2428.3092572732284
 20
127.57591066667686
 11
2443.228209855732
 21
133.00596533313665
  0
LINE
  8
_e-0_
  6
CONTINUOUS
 62
    7
 10
2428.3092572732284
 20
122.25502180429714
 11
2443.228209855732
 21
127.68507647075722
  0
LINE
  8
_e-0_
  6
CONTINUOUS
 62
    7
 10
2439.2476933526945
 20
120.91539808426659
 11
2443.228209855732
 21
122.3641876083775
  0
LINE
  8
_e-0_
  6
CONTINUOUS
 62
    7
 10
2426.0696362324169
 20
153.36519958368285
 11
2440.6804200699461
 21
158.68308999984094
  0
LINE
  8
_e-0_
  6
CONTINUOUS
 62
    7
 10
2461.2391180831355
 20
166.16584413190906
 11
2479.7642757393728
 21
172.9084501038676
  0
LINE
  8
_e-0_
  6
CONTINUOUS
 62
    7
 10
2455.6823727205842
 20
158.8224653581642
 11
2488.7412225351808
 21
170.85490266975369
  0
LINE
  8
_e-0_
  6
CONTINUOUS
 62
    7
 10
2453.5136329133933
 20
152.71221976009883
 11
2494.330163775628
 21
167.56822205995973
  0
LINE
  8
_e-0_
  6
CONTINUOUS
 62
    7
 10
2453.5499758138648
 20
147.40455863171803
 11
2466.0402009988038
 21
151.95062881831773
  0
LINE
  8
_e-0_
  6
CONTINUOUS
 62
    7
 10
2484.2015654578558
 20
158.5608248950723
 11
2498.3393017844896
 21
163.70654009787131
  0
LINE
  8
_e-0_
  6
CONTINUOUS
 62
    7
 10
2488.7434616863265
 20
154.89305106698225
 11
2501.229225702727
 21
159.43749752102377
  0
LINE
  8
_e-0_
  6
CONTINUOUS
 62
    7
 10
2455.2600765304932
 20
142.70609552778864
 11
2480.5300737608508
 21
151.90362233962787
  0
LINE
  8
_e-0_
  6
CONTINUOUS
 62
    7
 10
2454.9396132864271
 20
137.26856758339266
 11
2503.1647877023638
 21
154.82109561308902
  0
LINE
  8
_e-0_
  6
CONTINUOUS
 62
    7
 10
2457.3510255582336
 20
132.82536101049515
 11
2468.979076889896
 21
137.05762557773937
  0
LINE
  8
_e-0_
  6
CONTINUOUS
 62
    7
 10
2480.1732551160735
 20
141.13197324913869
 11
2504.1735768638136
 21
149.86737597812748
  0
LINE
  8
_e-0_
  6
CONTINUOUS
 62
    7
 10
2494.7922771168891
 20
141.13197324913869
 11
2504.1658959394972
 21
144.54369148792522
  0
LINE
  8
_e-0_
  6
CONTINUOUS
 62
    7
 10
2460.7789079158064
 20
128.75211929283807
 11
2474.6057479243418
 21
133.78467748990601
  0
LINE
  8
_e-0_
  6
CONTINUOUS
 62
    7
 10
2465.5015919032307
 20
125.15014682772687
 11
2494.5480952820462
 21
135.72220946712775
  0
LINE
  8
_e-0_
  6
CONTINUOUS
 62
    7
 10
2472.3576833866286
 20
122.32467118870999
 11
2499.4275233351886
 21
132.17728717633548
  0
LINE
  8
_e-0_
  6
CONTINUOUS
 62
    7
 10
2544.6739029189729
 20
122.04117824124523
 11
2550.7926211614712
 21
124.26820955337575
  0
LINE
  8
_e-0_
  6
CONTINUOUS
 62
    7
 10
2531.4520014282843
 20
122.54968852061381
 11
2560.594321218904
 21
133.15662548186594
  0
LINE
  8
_e-0_
  6
CONTINUOUS
 62
    7
 10
2525.0484139172745
 20
125.53986213646737
 11
2563.5777072966566
 21
139.56337807387171
  0
LINE
  8
_e-0_
  6
CONTINUOUS
 62
    7
 10
2514.1325981815766
 20
153.49216330021562
 11
2564.0905330831628
 21
171.67536456980116
  0
LINE
  8
_e-0_
  6
CONTINUOUS
 62
    7
 10
2516.6404168063622
 20
159.72582349495553
 11
2564.0905330831628
 21
176.99625343218059
  0
LINE
  8
_e-0_
  6
CONTINUOUS
 62
    7
 10
2549.4438113726191
 20
192.94883814948036
 11
2553.8536012194613
 21
194.55387039310011
  0
LINE
  8
_e-0_
  6
CONTINUOUS
 62
    7
 10
2549.4438113726191
 20
187.62794928710093
 11
2564.0905330831628
 21
192.95892001931918
  0
LINE
  8
_e-0_
  6
CONTINUOUS
 62
    7
 10
2549.4438113726191
 20
182.30706042472121
 11
2564.0905330831628
 21
187.63803115693974
  0
LINE
  8
_e-0_
  6
CONTINUOUS
 62
    7
 10
2549.4438113726191
 20
176.98617156234149
 11
2564.0905330831628
 21
182.31714229456031
  0
LINE
  8
_e-0_
  6
CONTINUOUS
 62
    7
 10
2523.4107658070579
 20
167.51091786918209
 11
2537.853743940821
 21
172.76773200402942
  0
LINE
  8
_e-0_
  6
CONTINUOUS
 62
    7
 10
2540.1033297065
 20
157.6238476750268
 11
2564.0905330831628
 21
166.35447570742172
  0
LINE
  8
_e-0_
  6
CONTINUOUS
 62
    7
 10
2513.3371361174349
 20
147.88174992400058
 11
2530.4259422685099
 21
154.10156670213723
  0
LINE
  8
_e-0_
  6
CONTINUOUS
 62
    7
 10
2513.7061446004345
 20
142.6951691656248
 11
2527.5354029593372
 21
147.72860757024204
  0
LINE
  8
_e-0_
  6
CONTINUOUS
 62
    7
 10
2515.0447452877542
 20
137.86149110899771
 11
2528.1911856253782
 21
142.64640407844922
  0
LINE
  8
_e-0_
  6
CONTINUOUS
 62
    7
 10
2517.3070774056059
 20
133.36402379754076
 11
2531.0862222029409
 21
138.37922235741473
  0
LINE
  8
_e-0_
  6
CONTINUOUS
 62
    7
 10
2520.5624650595814
 20
129.22799914220604
 11
2537.8068709000099
 21
135.50444957572807
  0
LINE
  8
_e-0_
  6
CONTINUOUS
 62
    7
 10
2546.256224354664
 20
138.57976273201643
 11
2564.0905330831628
 21
145.0709202579037
  0
LINE
  8
_e-0_
  6
CONTINUOUS
 62
    7
 10
2549.5566716184766
 20
145.10191615818882
 11
2564.0905330831628
 21
150.39180912028314
  0
LINE
  8
_e-0_
  6
CONTINUOUS
 62
    7
 10
2549.6410899779484
 20
150.4535307906417
 11
2564.0905330831628
 21
155.71269798266257
  0
LINE
  8
_e-0_
  6
CONTINUOUS
 62
    7
 10
2549.6410899779484
 20
155.77441965302114
 11
2564.0905330831628
 21
161.033586845042
  0
LINE
  8
_e-0_
  6
CONTINUOUS
 62
    7
 10
2587.1974966456618
 20
169.44383378606516
 11
2593.9201106595437
 21
171.8906651835789
  0
LINE
  8
_e-0_
  6
CONTINUOUS
 62
    7
 10
2577.6443798702298
 20
160.64589477295925
 11
2606.8934288682321
 21
171.29167798882519
  0
LINE
  8
_e-0_
  6
CONTINUOUS
 62
    7
 10
2600.5688513241625
 20
121.1017202570602
 11
2614.7507703136088
 21
126.26351663399304
  0
LINE
  8
_e-0_
  6
CONTINUOUS
 62
    7
 10
2590.2952099751178
 20
122.68330947086099
 11
2621.6042102293968
 21
134.07885362805103
  0
LINE
  8
_e-0_
  6
CONTINUOUS
 62
    7
 10
2574.6838259529545
 20
154.24745240775138
 11
2613.2741842187642
 21
168.2931941461743
  0
LINE
  8
_e-0_
  6
CONTINUOUS
 62
    7
 10
2584.3475524073419
 20
125.8394280149622
 11
2624.1316663639163
 21
140.31966129180915
  0
LINE
  8
_e-0_
  6
CONTINUOUS
 62
    7
 10
2580.1202834180849
 20
129.62171679301548
 11
2594.2968457670776
 21
134.78156351226772
  0
LINE
  8
_e-0_
  6
CONTINUOUS
 62
    7
 10
2577.0601632087546
 20
133.82881298592224
 11
2589.4416673383834
 21
138.33531194455133
  0
LINE
  8
_e-0_
  6
CONTINUOUS
 62
    7
 10
2574.9705638104942
 20
138.38914986579482
 11
2586.9202518331721
 21
142.73848061481658
  0
LINE
  8
_e-0_
  6
CONTINUOUS
 62
    7
 10
2573.8046086959916
 20
143.2856657720049
 11
2586.2281608356033
 21
147.80746895467757
  0
LINE
  8
_e-0_
  6
CONTINUOUS
 62
    7
 10
2573.6305462928116
 20
148.54320110072194
 11
2588.0360729418825
 21
153.78638400991206
  0
LINE
  8
_e-0_
  6
CONTINUOUS
 62
    7
 10
2604.0255663442694
 20
159.60608366937663
 11
2617.747665312163
 21
164.60051924534468
  0
LINE
  8
_e-0_
  6
CONTINUOUS
 62
    7
 10
2609.253679883805
 20
156.18807251675207
 11
2620.9938043422398
 21
160.46112836620267
  0
LINE
  8
_e-0_
  6
CONTINUOUS
 62
    7
 10
2611.9817903194925
 20
151.86013464875372
 11
2623.2480506609936
 21
155.9607180645537
  0
LINE
  8
_e-0_
  6
CONTINUOUS
 62
    7
 10
2612.8805762475385
 20
146.8663771111602
 11
2624.5786526959905
 21
151.12412873656694
  0
LINE
  8
_e-0_
  6
CONTINUOUS
 62
    7
 10
2611.4455992521006
 20
141.02319933558476
 11
2624.9387339199161
 21
145.93429872161465
  0
TEXT
  8
_e-0_
 62
    7
 10
2634.9094164018192
 20
164.98768243046669
 40
35
 41
0.5714285714285711
 50
0
  1
ワンド
  0
TEXT
  8
_e-0_
 62
    7
 10
2641.7552438417055
 20
131.44312797502095
 40
30
 41
0.6666666666666666
 50
0
  1
株式
  0
TEXT
  8
_e-0_
 62
    7
 10
2641.0706610977172
 20
103.37523547148492
 40
30
 41
0.6666666666666666
 50
0
  1
会社
  0
TEXT
  8
_f-0_
 62
    7
 10
686.78551472740366
 20
119.98203975201562
 40
45
 41
0.8
 50
0
  1
吊り戸棚　高さ６０ｃｍタイプ
  0
TEXT
  8
_f-0_
 62
    7
 10
1569.1914893617022
 20
119.98203975201562
 40
45
 41
0.6666666666666666
 50
0
  1
ＫＴＤ３－６０－８０ＨＳ
  0
TEXT
  8
_f-0_
 62
    7
 10
3037.0507338268021
 20
126.92521185597115
 40
35
 41
0.5714285714285711
 50
0
  1
２０２３．０５．０１
  0
TEXT
  8
_f-0_
 62
    7
 10
3580.460233309177
 20
129.42521185597115
 40
30
 41
0.7333333333333329
 50
0
  1
Ｔ．Ｋ
  0
ENDSEC
  0
EOF
