  0
SECTION
  2
HEADER
  9
$ACADVER
  1
AC1009
  9
$INSBASE
 10
0
 20
0
 30
0
  9
$EXTMIN
 10
0
 20
0
  9
$EXTMAX
 10
4200
 20
2970
  9
$LIMMIN
 10
0
 20
0
  9
$LIMMAX
 10
4200
 20
2970
  9
$LTSCALE
 40
10
  0
ENDSEC
  0
SECTION
  2
TABLES
  0
TABLE
  2
LTYPE
 70
     9
  0
LTYPE
  2
CONTINUOUS
 70
    64
  3
実線
 72
    65
 73
     0
 40
0.0
  0
LTYPE
  2
DASHED1
 70
    64
  3
--  --  --  --  --  --  --  --  
 72
    65
 73
     2
 40
2.5
 49
1.25
 49
-1.25
  0
LTYPE
  2
DASHED2
 70
    64
  3
----    ----    ----    ----    
 72
    65
 73
     2
 40
5.0
 49
2.5
 49
-2.5
  0
LTYPE
  2
DASHED3
 70
    64
  3
------  ------  ------  ------  
 72
    65
 73
     2
 40
5.0
 49
3.75
 49
-1.25
  0
LTYPE
  2
CENTER1
 70
    64
  3
----- - ----- - ----- - ----- - 
 72
    65
 73
     4
 40
10.0
 49
6.25
 49
-1.25
 49
1.25
 49
-1.25
  0
LTYPE
  2
CENTER2
 70
    64
  3
----------  --  ----------  --  
 72
    65
 73
     4
 40
20.0
 49
12.5
 49
-2.5
 49
2.5
 49
-2.5
  0
LTYPE
  2
PHANTOM1
 70
    64
  3
--- - - --- - - --- - - --- - - 
 72
    65
 73
     6
 40
10.0
 49
3.25
 49
-1.25
 49
1.25
 49
-1.25
 49
1.25
 49
-1.25
  0
LTYPE
  2
PHANTOM2
 70
    64
  3
--------  -  -  --------  -  -  
 72
    65
 73
     6
 40
20.0
 49
10.0
 49
-2.5
 49
1.25
 49
-2.5
 49
1.25
 49
-2.5
  0
LTYPE
  2
DOT
 70
    64
  3
-   -   -   -   -   -   -   -   
 72
    65
 73
     2
 40
2.5
 49
0.625
 49
-1.875
  0
LTYPE
  2
DUMMY
 70
    64
  3
ダミー
 72
    65
 73
     0
 40
0.0
  0
LTYPE
  2
RAND1
 70
    64
  3
ランダム線1
 72
    65
 73
     4
 40
10.0
 49
1.0
 49
-2.0
 49
3.0
 49
-4.0
  0
LTYPE
  2
RAND2
 70
    64
  3
ランダム線2
 72
    65
 73
     4
 40
14.0
 49
2.0
 49
-3.0
 49
4.0
 49
-5.0
  0
LTYPE
  2
RAND3
 70
    64
  3
ランダム線3
 72
    65
 73
     4
 40
18.0
 49
3.0
 49
-4.0
 49
5.0
 49
-6.0
  0
LTYPE
  2
RAND4
 70
    64
  3
ランダム線4
 72
    65
 73
     4
 40
22.0
 49
4.0
 49
-5.0
 49
6.0
 49
-7.0
  0
LTYPE
  2
RAND5
 70
    64
  3
ランダム線5
 72
    65
 73
     4
 40
26.0
 49
5.0
 49
-6.0
 49
7.0
 49
-8.0
  0
LTYPE
  2
LONG1
 70
    64
  3
----------  --  ----------  --  
 72
    65
 73
     4
 40
40.0
 49
32.5
 49
-2.5
 49
2.5
 49
-2.5
  0
LTYPE
  2
LONG2
 70
    64
  3
--------  -  -  --------  -  -  
 72
    65
 73
     6
 40
40.0
 49
30.0
 49
-2.5
 49
1.25
 49
-2.5
 49
1.25
 49
-2.5
  0
LTYPE
  2
LONG3
 70
    64
  3
+++++++++++++++..+++++++++++++++
 72
    65
 73
     2
 40
40.0
 49
37.5
 49
-2.5
  0
LTYPE
  2
LONG4
 70
    64
  3
+++++++++++++++..+++++++++++++++
 72
    65
 73
     2
 40
80.0
 49
75.0
 49
-5.0
  0
LTYPE
  2
LONG5
 70
    64
  3
----------  --  ----------  --  
 72
    65
 73
     4
 40
60.0
 49
37.5
 49
-7.5
 49
7.5
 49
-7.5
  0
LTYPE
  2
dashed
 70
   64
  3
-------   -------------   ------
 72
   65
 73
    2
 40
7.5
 49
6
 49
-1.5
  0
LTYPE
  2
dashed_spaced
 70
   64
  3
----        --------        ----
 72
   65
 73
    2
 40
12
 49
6
 49
-6
  0
LTYPE
  2
long_dashed_dotted
 70
   64
  3
------------- --- --------------
 72
   65
 73
    4
 40
15.25
 49
12
 49
-1.5
 49
0.25
 49
-1.5
  0
LTYPE
  2
long_dashed_double-dotted
 70
   64
  3
----------- --- --- ------------
 72
   65
 73
    6
 40
17
 49
12
 49
-1.5
 49
0.25
 49
-1.5
 49
0.25
 49
-1.5
  0
LTYPE
  2
long_dashed_triplicate-dotted
 70
   64
  3
--------- --- --- --- ----------
 72
   65
 73
    8
 40
18.75
 49
12
 49
-1.5
 49
0.25
 49
-1.5
 49
0.25
 49
-1.5
 49
0.25
 49
-1.5
  0
LTYPE
  2
dotted
 70
   64
  3
   -       -       -       -    
 72
   65
 73
    2
 40
1.75
 49
0.25
 49
-1.5
  0
LTYPE
  2
chain
 70
   64
  3
-------------- -- --------------
 72
   65
 73
    4
 40
18.5
 49
12
 49
-1.5
 49
3.5
 49
-1.5
  0
LTYPE
  2
chain_double_dash
 70
   64
  3
------------ -- -- -------------
 72
   65
 73
    6
 40
23.5
 49
12
 49
-1.5
 49
3.5
 49
-1.5
 49
3.5
 49
-1.5
  0
LTYPE
  2
dashed_dotted
 70
   64
  3
-----------     -     ----------
 72
   65
 73
    4
 40
9.25
 49
6
 49
-1.5
 49
0.25
 49
-1.5
  0
LTYPE
  2
double-dashed_dotted
 70
   64
  3
------   -----------   -   -----
 72
   65
 73
    6
 40
16.75
 49
6
 49
-1.5
 49
6
 49
-1.5
 49
0.25
 49
-1.5
  0
LTYPE
  2
dashed_double-dotted
 70
   64
  3
---------    -    -    ---------
 72
   65
 73
    6
 40
11
 49
6
 49
-1.5
 49
0.25
 49
-1.5
 49
0.25
 49
-1.5
  0
LTYPE
  2
double-dashed_double-dotted
 70
   64
  3
-----   ---------   -   -   ----
 72
   65
 73
    8
 40
18.5
 49
6
 49
-1.5
 49
6
 49
-1.5
 49
0.25
 49
-1.5
 49
0.25
 49
-1.5
  0
LTYPE
  2
dashed_triplicate-dotted
 70
   64
  3
-------    -    -    -    ------
 72
   65
 73
    8
 40
12.75
 49
6
 49
-1.5
 49
0.25
 49
-1.5
 49
0.25
 49
-1.5
 49
0.25
 49
-1.5
  0
LTYPE
  2
double-dashed_triplicate-dotted
 70
   64
  3
-----  ---------  -  -  -  -----
 72
   65
 73
   10
 40
20.25
 49
6
 49
-1.5
 49
6
 49
-1.5
 49
0.25
 49
-1.5
 49
0.25
 49
-1.5
 49
0.25
 49
-1.5
  0
LTYPE
  2
undefined
 70
   64
  3
--------------------------------
 72
   65
 73
    0
 40
0
  0
LTYPE
  2
_
 70
   64
  3
                                
 72
   65
 73
    0
 40
0
  0
LTYPE
  2
__18
 70
   64
  3
                                
 72
   65
 73
    0
 40
0
  0
LTYPE
  2
__19
 70
   64
  3
                                
 72
   65
 73
    0
 40
0
  0
LTYPE
  2
__20
 70
   64
  3
                                
 72
   65
 73
    0
 40
0
  0
LTYPE
  2
__21
 70
   64
  3
                                
 72
   65
 73
    0
 40
0
  0
LTYPE
  2
__22
 70
   64
  3
                                
 72
   65
 73
    0
 40
0
  0
LTYPE
  2
__23
 70
   64
  3
                                
 72
   65
 73
    0
 40
0
  0
LTYPE
  2
__24
 70
   64
  3
                                
 72
   65
 73
    0
 40
0
  0
LTYPE
  2
__25
 70
   64
  3
                                
 72
   65
 73
    0
 40
0
  0
LTYPE
  2
__26
 70
   64
  3
                                
 72
   65
 73
    0
 40
0
  0
LTYPE
  2
__27
 70
   64
  3
                                
 72
   65
 73
    0
 40
0
  0
LTYPE
  2
__28
 70
   64
  3
                                
 72
   65
 73
    0
 40
0
  0
LTYPE
  2
__29
 70
   64
  3
                                
 72
   65
 73
    0
 40
0
  0
LTYPE
  2
__30
 70
   64
  3
                                
 72
   65
 73
    0
 40
0
  0
LTYPE
  2
__31
 70
   64
  3
                                
 72
   65
 73
    0
 40
0
  0
LTYPE
  2
__32
 70
   64
  3
                                
 72
   65
 73
    0
 40
0
  0
ENDTAB
  0
TABLE
  2
STYLE
  5
3
100
AcDbSymbolTable
 70
     1
  0
STYLE
  5
10
100
AcDbSymbolTableRecord
100
AcDbTextStyleTableRecord
  2
STANDARD
 70
     0
 40
0.0
 41
1.0
 50
0.0
 71
     0
 42
0.2
  3
txt
  4
bigfont.shx
  0
STYLE
  5
26
100
AcDbSymbolTableRecord
100
AcDbTextStyleTableRecord
  2
TATEGAKI
 70
    68
 40
0.0
 41
1.0
 50
0.0
 71
     0
 42
1.0
  3
txt
  4
bigfont.shx
  0
ENDTAB
  0
TABLE
  2
LAYER
 70
   22
  0
LAYER
  2
_0-0_立面本体
 70
   64
 62
    7
  6
CONTINUOUS
  0
LAYER
  2
_0-1_立面__扉
 70
   64
 62
    7
  6
CONTINUOUS
  0
LAYER
  2
_0-3_断面__扉
 70
   64
 62
    7
  6
CONTINUOUS
  0
LAYER
  2
_0-4_背面本体
 70
   64
 62
    7
  6
CONTINUOUS
  0
LAYER
  2
_0-5_平面本体
 70
   64
 62
    7
  6
CONTINUOUS
  0
LAYER
  2
_0-6_平面扉
 70
   64
 62
    7
  6
CONTINUOUS
  0
LAYER
  2
_0-7_寸法
 70
   64
 62
    7
  6
CONTINUOUS
  0
LAYER
  2
_0-8_ラッチ立面__受け
 70
   64
 62
    7
  6
CONTINUOUS
  0
LAYER
  2
_0-9_ラッチ断面__受け
 70
   64
 62
    7
  6
CONTINUOUS
  0
LAYER
  2
_0-a_ラッチ平面受け
 70
   64
 62
    7
  6
CONTINUOUS
  0
LAYER
  2
_0-d_ラッチ平面__扉側
 70
   64
 62
    7
  6
CONTINUOUS
  0
LAYER
  2
_0-e_仕様欄
 70
   64
 62
    7
  6
CONTINUOUS
  0
LAYER
  2
_0-f_基準線
 70
   64
 62
    7
  6
CONTINUOUS
  0
LAYER
  2
_1-0_
 70
   64
 62
    7
  6
CONTINUOUS
  0
LAYER
  2
_1-1_
 70
   64
 62
    7
  6
CONTINUOUS
  0
LAYER
  2
_1-2_
 70
   64
 62
    7
  6
CONTINUOUS
  0
LAYER
  2
_1-3_
 70
   64
 62
    7
  6
CONTINUOUS
  0
LAYER
  2
_2-0_
 70
   64
 62
    7
  6
CONTINUOUS
  0
LAYER
  2
_e-0_
 70
   64
 62
    7
  6
CONTINUOUS
  0
LAYER
  2
_f-0_
 70
   64
 62
    7
  6
CONTINUOUS
  0
LAYER
  2
_f-3_ADD_LINE
 70
   64
 62
    7
  6
CONTINUOUS
  0
LAYER
  2
ADD_LINE
 70
   64
 62
    7
  6
CONTINUOUS
  0
ENDTAB
  0
ENDSEC
  0
SECTION
  2
BLOCKS
  0
ENDSEC
  0
SECTION
  2
ENTITIES
  0
TEXT
  8
_0-8_ラッチ立面__受け
 62
    7
 10
2560.0541420710555
 20
2690.9988467706666
 40
35
 41
0.8571428571428568
 50
0
  1
Ｃ
  0
LINE
  8
_0-d_ラッチ平面__扉側
  6
CONTINUOUS
 62
    3
 10
4116.0517240672306
 20
2857.1087789720368
 11
2835.7945269928245
 21
2857.1087789720368
  0
TEXT
  8
_0-d_ラッチ平面__扉側
 62
    7
 10
3281.2950269928251
 20
2807.1087789720368
 40
35
 41
0.8571428571428568
 50
0
  1
仕　様
  0
LINE
  8
_0-d_ラッチ平面__扉側
  6
CONTINUOUS
 62
    7
 10
4116.0517240672306
 20
2577.1087789720368
 11
2835.7945269928245
 21
2577.1087789720368
  0
LINE
  8
_0-d_ラッチ平面__扉側
  6
CONTINUOUS
 62
    7
 10
4116.0517240672306
 20
2507.1087789720363
 11
2835.7945269928245
 21
2507.1087789720363
  0
LINE
  8
_0-d_ラッチ平面__扉側
  6
CONTINUOUS
 62
    7
 10
4116.0517240672306
 20
2647.1087789720368
 11
2835.7945269928245
 21
2647.1087789720368
  0
LINE
  8
_0-d_ラッチ平面__扉側
  6
CONTINUOUS
 62
    7
 10
4116.0517240672306
 20
2717.1087789720368
 11
2835.7945269928245
 21
2717.1087789720368
  0
LINE
  8
_0-d_ラッチ平面__扉側
  6
CONTINUOUS
 62
    7
 10
4116.0517240672306
 20
2787.1087789720368
 11
2835.7945269928245
 21
2787.1087789720368
  0
LINE
  8
_0-d_ラッチ平面__扉側
  6
CONTINUOUS
 62
    7
 10
4116.0517240672306
 20
2792.1087789720368
 11
2835.7945269928245
 21
2792.1087789720368
  0
TEXT
  8
_0-d_ラッチ平面__扉側
 62
    7
 10
3176.7744046270076
 20
2595.8231167141448
 40
35
 41
0.8571428571428568
 50
0
  1
低圧メラミン化粧パーティクルボード　１２ｔ
  0
TEXT
  8
_0-d_ラッチ平面__扉側
 62
    7
 10
3175.7945269928245
 20
2664.6087789720368
 40
35
 41
0.8571428571428568
 50
0
  1
低圧メラミン化粧パーティクルボード　１２ｔ
  0
TEXT
  8
_0-d_ラッチ平面__扉側
 62
    7
 10
3175.7945269928245
 20
2454.6087789720363
 40
35
 41
0.8571428571428568
 50
0
  1
カラーＭＤＦ・落とし込み
  0
TEXT
  8
_0-d_ラッチ平面__扉側
 62
    7
 10
3175.7945269928245
 20
2524.6087789720363
 40
35
 41
0.8571428571428568
 50
0
  1
両面フラッシュ化粧ボード　１５ｔ
  0
TEXT
  8
_0-d_ラッチ平面__扉側
 62
    7
 10
3175.7945269928245
 20
2734.6087789720368
 40
35
 41
0.8571428571428568
 50
0
  1
両面フラッシュ化粧ボード　１５ｔ
  0
LINE
  8
_0-d_ラッチ平面__扉側
  6
CONTINUOUS
 62
    7
 10
4116.0517240672306
 20
2227.1087789720363
 11
2835.7945269928245
 21
2227.1087789720363
  0
LINE
  8
_0-d_ラッチ平面__扉側
  6
CONTINUOUS
 62
    3
 10
2835.7945269928245
 20
2157.1087789720363
 11
4116.0517240672306
 21
2157.1087789720363
  0
LINE
  8
_0-d_ラッチ平面__扉側
  6
CONTINUOUS
 62
    7
 10
4116.0517240672306
 20
2367.1087789720363
 11
2835.7945269928245
 21
2367.1087789720363
  0
LINE
  8
_0-d_ラッチ平面__扉側
  6
CONTINUOUS
 62
    7
 10
4116.0517240672306
 20
2297.1087789720363
 11
2835.7945269928245
 21
2297.1087789720363
  0
LINE
  8
_0-d_ラッチ平面__扉側
  6
CONTINUOUS
 62
    7
 10
4116.0517240672306
 20
2157.1087789720363
 11
2835.7945269928245
 21
2157.1087789720363
  0
LINE
  8
_0-d_ラッチ平面__扉側
  6
CONTINUOUS
 62
    3
 10
2835.7945269928245
 20
2087.1087789720363
 11
4116.0517240672306
 21
2087.1087789720363
  0
TEXT
  8
_0-d_ラッチ平面__扉側
 62
    7
 10
3175.7945269928241
 20
2104.6087789720363
 40
35
 41
0.8571428571428568
 50
0
  1
アルミ一文字把手
  0
TEXT
  8
_0-d_ラッチ平面__扉側
 62
    7
 10
3175.7945269928245
 20
2174.6087789720363
 40
35
 41
0.8571428571428568
 50
0
  1
可動式　棚板　１５ｔ
  0
LINE
  8
_0-d_ラッチ平面__扉側
  6
CONTINUOUS
 62
    3
 10
2835.7945269928245
 20
2857.1087789720368
 11
2835.7945269928245
 21
2087.1087789720363
  0
LINE
  8
_0-d_ラッチ平面__扉側
  6
CONTINUOUS
 62
    3
 10
4116.0517240672306
 20
2857.1087789720368
 11
4116.0517240672306
 21
2087.1087789720363
  0
LINE
  8
_0-d_ラッチ平面__扉側
  6
CONTINUOUS
 62
    7
 10
2837.0310494430436
 20
2437.1087789720363
 11
4116.0517240672306
 21
2437.1087789720363
  0
LINE
  8
_0-d_ラッチ平面__扉側
  6
CONTINUOUS
 62
    7
 10
3135.7945269928245
 20
2787.1087789720368
 11
3135.7945269928245
 21
2087.1087789720363
  0
TEXT
  8
_0-d_ラッチ平面__扉側
 62
    7
 10
2877.8085403744375
 20
2736.788782141697
 40
35
 41
0.8571428571428568
 50
0
  1
天　板
  0
TEXT
  8
_0-d_ラッチ平面__扉側
 62
    7
 10
2877.9557693309325
 20
2454.6087789720363
 40
35
 41
0.8571428571428568
 50
0
  1
背　板
  0
TEXT
  8
_0-d_ラッチ平面__扉側
 62
    7
 10
2877.9557693309311
 20
2524.6087789720363
 40
35
 41
0.8571428571428568
 50
0
  1
見　上　板
  0
TEXT
  8
_0-d_ラッチ平面__扉側
 62
    7
 10
2877.9557693309325
 20
2664.6087789720368
 40
35
 41
0.8571428571428568
 50
0
  1
左　側　板
  0
TEXT
  8
_0-d_ラッチ平面__扉側
 62
    7
 10
2877.9557693309311
 20
2594.6087789720368
 40
35
 41
0.8571428571428568
 50
0
  1
右　側　板
  0
TEXT
  8
_0-d_ラッチ平面__扉側
 62
    7
 10
2877.9557693309325
 20
2174.6087789720363
 40
35
 41
0.8571428571428568
 50
0
  1
棚　板
  0
TEXT
  8
_0-d_ラッチ平面__扉側
 62
    7
 10
2877.9557693309325
 20
2244.6087789720363
 40
35
 41
0.8571428571428568
 50
0
  1
丁　番
  0
TEXT
  8
_0-d_ラッチ平面__扉側
 62
    7
 10
2877.9557693309316
 20
2314.6087789720363
 40
35
 41
0.8571428571428568
 50
0
  1
　扉
  0
TEXT
  8
_0-d_ラッチ平面__扉側
 62
    7
 10
2877.9557693309325
 20
2104.6087789720363
 40
35
 41
0.8571428571428568
 50
0
  1
把　手
  0
TEXT
  8
_0-d_ラッチ平面__扉側
 62
    7
 10
2877.9557693309316
 20
2384.6087789720363
 40
35
 41
0.8571428571428568
 50
0
  1
ふ　さ　ぎ　板
  0
TEXT
  8
_0-d_ラッチ平面__扉側
 62
    7
 10
3176.7744046270076
 20
2384.6087789720363
 40
35
 41
0.8571428571428568
 50
0
  1
低圧メラミン化粧パーティクルボード　１５ｔ
  0
TEXT
  8
_0-d_ラッチ平面__扉側
 62
    7
 10
3175.7945269928245
 20
2244.6087789720363
 40
35
 41
0.8571428571428568
 50
0
  1
ワンタッチスライド式丁番
  0
POINT
  8
_0-9_ラッチ断面__受け
 62
    4
 10
2525.054142071056
 20
1416.3279193681364
  0
LINE
  8
_0-9_ラッチ断面__受け
  6
CONTINUOUS
 62
    4
 10
2525.054142071056
 20
1426.3279193681364
 11
2525.054142071056
 21
1256.3279193681364
  0
POINT
  8
_0-9_ラッチ断面__受け
 62
    3
 10
2525.054142071056
 20
1416.3279193681364
  0
POINT
  8
_0-9_ラッチ断面__受け
 62
    3
 10
2525.054142071056
 20
1416.3279193681364
  0
POINT
  8
_0-9_ラッチ断面__受け
 62
    3
 10
1983.5541420710558
 20
1416.3279193681364
  0
LINE
  8
_0-9_ラッチ断面__受け
  6
CONTINUOUS
 62
    4
 10
1983.5541420710558
 20
1426.3279193681364
 11
1983.5541420710558
 21
1256.3279193681366
  0
LINE
  8
_0-9_ラッチ断面__受け
  6
CONTINUOUS
 62
    4
 10
2525.054142071056
 20
1416.3279193681364
 11
1983.5541420710558
 21
1416.3279193681364
  0
TEXT
  8
_0-9_ラッチ断面__受け
 62
    7
 10
2221.2041420710561
 20
1421.3279193681364
 40
35
 41
0.6285714285714286
 50
0
  1
５４２
  0
LINE
  8
ADD_LINE
  6
DOT
 62
  250
 10
105.14567635813222
 20
20.517589292836078
 11
4205.1456763581327
 21
20.517589292836078
  0
LINE
  8
ADD_LINE
  6
DOT
 62
  250
 10
4205.1456763581327
 20
20.517589292836078
 11
4205.1456763581327
 21
2880.5175892928359
  0
LINE
  8
_0-7_寸法
  6
CONTINUOUS
 62
    4
 10
87.716701902748468
 20
48.763213530655491
 11
4127.7167019027483
 21
48.763213530655491
  0
LINE
  8
_0-7_寸法
  6
CONTINUOUS
 62
    4
 10
4127.7167019027483
 20
48.763213530655491
 11
4127.7167019027483
 21
2868.7632135306557
  0
LINE
  8
_0-7_寸法
  6
CONTINUOUS
 62
    4
 10
4127.7167019027483
 20
2868.7632135306557
 11
87.716701902748468
 21
2868.7632135306557
  0
LINE
  8
_0-7_寸法
  6
CONTINUOUS
 62
    4
 10
87.716701902748468
 20
2868.7632135306557
 11
87.716701902748468
 21
48.763213530655491
  0
LINE
  8
_0-f_基準線
  6
CONTINUOUS
 62
    4
 10
4127.7167019027483
 20
48.763213530655491
 11
87.716701902748468
 21
48.763213530655491
  0
LINE
  8
_0-f_基準線
  6
CONTINUOUS
 62
    4
 10
4127.7167019027483
 20
48.763213530655491
 11
4127.7167019027483
 21
2868.7632135306557
  0
LINE
  8
_0-f_基準線
  6
CONTINUOUS
 62
    4
 10
87.716701902748468
 20
2868.7632135306557
 11
4127.7167019027483
 21
2868.7632135306557
  0
LINE
  8
_0-f_基準線
  6
CONTINUOUS
 62
    4
 10
87.716701902748468
 20
2868.7632135306557
 11
87.716701902748468
 21
48.763213530655775
  0
LINE
  8
_1-0_
  6
CONTINUOUS
 62
    5
 10
265.64341164021016
 20
2545.7744603287765
 11
265.64341164021016
 21
1945.774460328776
  0
LINE
  8
_1-0_
  6
CONTINUOUS
 62
    5
 10
277.64341164021004
 20
2545.7744603287765
 11
277.64341164021004
 21
1945.774460328776
  0
LINE
  8
_1-0_
  6
CONTINUOUS
 62
    5
 10
1153.6434116402101
 20
2545.7744603287765
 11
1153.6434116402101
 21
1945.774460328776
  0
LINE
  8
_1-0_
  6
CONTINUOUS
 62
    5
 10
1165.6434116402101
 20
2545.7744603287765
 11
1165.6434116402101
 21
1945.774460328776
  0
LINE
  8
_1-0_
  6
CONTINUOUS
 62
    5
 10
265.64341164021016
 20
2545.7744603287765
 11
1165.6434116402101
 21
2545.7744603287765
  0
LINE
  8
_1-0_
  6
CONTINUOUS
 62
    2
 10
277.64341164021004
 20
2460.7744603287765
 11
1153.6434116402101
 21
2460.7744603287765
  0
LINE
  8
_1-0_
  6
CONTINUOUS
 62
    2
 10
277.64341164021004
 20
1997.774460328776
 11
1153.6434116402101
 21
1997.774460328776
  0
LINE
  8
_1-0_
  6
CONTINUOUS
 62
    4
 10
277.64341164021004
 20
1952.774460328776
 11
1153.6434116402101
 21
1952.774460328776
  0
LINE
  8
_1-0_
  6
CONTINUOUS
 62
    5
 10
265.64341164021016
 20
1945.774460328776
 11
1165.6434116402101
 21
1945.774460328776
  0
LINE
  8
_1-0_
  6
CONTINUOUS
 62
    4
 10
1146.1864292445216
 20
2460.7744603287728
 11
1153.6434116402142
 21
2468.231442724465
  0
LINE
  8
_1-0_
  6
CONTINUOUS
 62
    4
 10
1117.9021579970572
 20
2460.7744603287751
 11
1153.6434116402108
 21
2496.5157139719285
  0
LINE
  8
_1-0_
  6
CONTINUOUS
 62
    4
 10
1089.6178867496121
 20
2460.7744603287787
 11
1153.6434116402097
 21
2524.7999852193761
  0
LINE
  8
_1-0_
  6
CONTINUOUS
 62
    4
 10
1061.3336155021431
 20
2460.774460328776
 11
1146.3336155021409
 21
2545.7744603287737
  0
LINE
  8
_1-0_
  6
CONTINUOUS
 62
    4
 10
1033.0493442546735
 20
2460.7744603287733
 11
1118.0493442546764
 21
2545.774460328776
  0
LINE
  8
_1-0_
  6
CONTINUOUS
 62
    4
 10
1004.7650730072189
 20
2460.7744603287765
 11
1089.7650730072166
 21
2545.7744603287742
  0
LINE
  8
_1-0_
  6
CONTINUOUS
 62
    4
 10
976.48080175975974
 20
2460.7744603287746
 11
1061.4808017597567
 21
2545.7744603287719
  0
LINE
  8
_1-0_
  6
CONTINUOUS
 62
    4
 10
948.19653051229579
 20
2460.7744603287769
 11
1033.1965305122935
 21
2545.7744603287746
  0
LINE
  8
_1-0_
  6
CONTINUOUS
 62
    4
 10
919.9122592648257
 20
2460.7744603287742
 11
1004.9122592648291
 21
2545.7744603287774
  0
LINE
  8
_1-0_
  6
CONTINUOUS
 62
    4
 10
891.62798801737949
 20
2460.7744603287765
 11
976.62798801737835
 21
2545.7744603287751
  0
LINE
  8
_1-0_
  6
CONTINUOUS
 62
    4
 10
863.34371676991167
 20
2460.7744603287756
 11
948.3437167699094
 21
2545.7744603287733
  0
LINE
  8
_1-0_
  6
CONTINUOUS
 62
    4
 10
835.05944552244272
 20
2460.7744603287728
 11
920.05944552244545
 21
2545.7744603287756
  0
LINE
  8
_1-0_
  6
CONTINUOUS
 62
    4
 10
806.77517427497832
 20
2460.7744603287751
 11
891.77517427498173
 21
2545.7744603287783
  0
LINE
  8
_1-0_
  6
CONTINUOUS
 62
    4
 10
778.49090302753211
 20
2460.7744603287769
 11
863.49090302752983
 21
2545.7744603287751
  0
LINE
  8
_1-0_
  6
CONTINUOUS
 62
    4
 10
750.20663178006429
 20
2460.7744603287765
 11
835.20663178006202
 21
2545.7744603287742
  0
LINE
  8
_1-0_
  6
CONTINUOUS
 62
    4
 10
721.92236053259534
 20
2460.7744603287737
 11
806.92236053259762
 21
2545.7744603287765
  0
LINE
  8
_1-0_
  6
CONTINUOUS
 62
    4
 10
693.63808928513094
 20
2460.774460328776
 11
778.63808928513378
 21
2545.7744603287792
  0
LINE
  8
_1-0_
  6
CONTINUOUS
 62
    4
 10
665.35381803768359
 20
2460.7744603287774
 11
750.35381803768132
 21
2545.7744603287751
  0
LINE
  8
_1-0_
  6
CONTINUOUS
 62
    4
 10
637.06954679021691
 20
2460.7744603287774
 11
722.06954679021464
 21
2545.7744603287751
  0
LINE
  8
_1-0_
  6
CONTINUOUS
 62
    4
 10
608.78527554274739
 20
2460.7744603287746
 11
693.78527554275024
 21
2545.7744603287774
  0
LINE
  8
_1-0_
  6
CONTINUOUS
 62
    4
 10
580.50100429528356
 20
2460.7744603287769
 11
665.50100429528583
 21
2545.7744603287796
  0
LINE
  8
_1-0_
  6
CONTINUOUS
 62
    4
 10
552.21673304783507
 20
2460.7744603287774
 11
637.21673304783337
 21
2545.7744603287756
  0
LINE
  8
_1-0_
  6
CONTINUOUS
 62
    4
 10
523.93246180036953
 20
2460.7744603287783
 11
608.93246180036669
 21
2545.774460328776
  0
LINE
  8
_1-0_
  6
CONTINUOUS
 62
    4
 10
495.64819055289945
 20
2460.7744603287756
 11
580.64819055290286
 21
2545.7744603287783
  0
LINE
  8
_1-0_
  6
CONTINUOUS
 62
    4
 10
467.36391930543561
 20
2460.7744603287778
 11
552.36391930543334
 21
2545.7744603287756
  0
LINE
  8
_1-0_
  6
CONTINUOUS
 62
    4
 10
439.07964805798542
 20
2460.7744603287765
 11
524.07964805798314
 21
2545.7744603287746
  0
LINE
  8
_1-0_
  6
CONTINUOUS
 62
    4
 10
410.79537681052158
 20
2460.7744603287792
 11
495.79537681051931
 21
2545.7744603287765
  0
LINE
  8
_1-0_
  6
CONTINUOUS
 62
    4
 10
382.51110556305206
 20
2460.7744603287765
 11
467.51110556305491
 21
2545.7744603287792
  0
LINE
  8
_1-0_
  6
CONTINUOUS
 62
    4
 10
354.22683431560244
 20
2460.7744603287756
 11
439.2268343156013
 21
2545.7744603287737
  0
LINE
  8
_1-0_
  6
CONTINUOUS
 62
    4
 10
325.94256306813804
 20
2460.7744603287774
 11
410.94256306813576
 21
2545.7744603287751
  0
LINE
  8
_1-0_
  6
CONTINUOUS
 62
    4
 10
297.65829182066852
 20
2460.7744603287746
 11
382.65829182067136
 21
2545.7744603287774
  0
LINE
  8
_1-0_
  6
CONTINUOUS
 62
    4
 10
277.64341164020947
 20
2469.0438513957819
 11
354.37402057320753
 21
2545.7744603287801
  0
LINE
  8
_1-0_
  6
CONTINUOUS
 62
    4
 10
277.64341164021175
 20
2497.3281226432332
 11
326.08974932575279
 21
2545.7744603287737
  0
LINE
  8
_1-0_
  6
CONTINUOUS
 62
    4
 10
277.64341164021004
 20
2525.612393890698
 11
297.80547807828838
 21
2545.774460328776
  0
LINE
  8
_1-0_
  6
CONTINUOUS
 62
    4
 10
1147.3033116988369
 20
1952.7744603287792
 11
1153.6434116402074
 21
1959.1145602701496
  0
LINE
  8
_1-0_
  6
CONTINUOUS
 62
    4
 10
1119.0190404513816
 20
1952.7744603287726
 11
1153.6434116402153
 21
1987.3988315176056
  0
LINE
  8
_1-0_
  6
CONTINUOUS
 62
    4
 10
1090.7347692039172
 20
1952.7744603287749
 11
1135.7347692039161
 21
1997.7744603287733
  0
LINE
  8
_1-0_
  6
CONTINUOUS
 62
    4
 10
1062.4504979564483
 20
1952.7744603287719
 11
1107.4504979564517
 21
1997.7744603287756
  0
LINE
  8
_1-0_
  6
CONTINUOUS
 62
    4
 10
1034.1662267090077
 20
1952.7744603287806
 11
1079.1662267090066
 21
1997.7744603287792
  0
LINE
  8
_1-0_
  6
CONTINUOUS
 62
    4
 10
1005.8819554615392
 20
1952.7744603287785
 11
1050.8819554615377
 21
1997.7744603287765
  0
LINE
  8
_1-0_
  6
CONTINUOUS
 62
    4
 10
977.59768421406988
 20
1952.7744603287758
 11
1022.597684214073
 21
1997.7744603287792
  0
LINE
  8
_1-0_
  6
CONTINUOUS
 62
    4
 10
949.31341296660548
 20
1952.7744603287783
 11
994.31341296660434
 21
1997.7744603287765
  0
LINE
  8
_1-0_
  6
CONTINUOUS
 62
    4
 10
921.02914171915472
 20
1952.7744603287756
 11
966.0291417191529
 21
1997.774460328774
  0
LINE
  8
_1-0_
  6
CONTINUOUS
 62
    4
 10
892.7448704716869
 20
1952.7744603287742
 11
937.74487047168463
 21
1997.7744603287724
  0
LINE
  8
_1-0_
  6
CONTINUOUS
 62
    4
 10
864.46059922421682
 20
1952.7744603287715
 11
909.46059922422023
 21
1997.7744603287749
  0
LINE
  8
_1-0_
  6
CONTINUOUS
 62
    4
 10
836.17632797675287
 20
1952.7744603287737
 11
881.17632797675651
 21
1997.7744603287774
  0
LINE
  8
_1-0_
  6
CONTINUOUS
 62
    4
 10
807.89205672931188
 20
1952.774460328781
 11
852.89205672930961
 21
1997.7744603287794
  0
LINE
  8
_1-0_
  6
CONTINUOUS
 62
    4
 10
779.60778548184407
 20
1952.7744603287806
 11
824.60778548184225
 21
1997.7744603287783
  0
LINE
  8
_1-0_
  6
CONTINUOUS
 62
    4
 10
751.32351423437512
 20
1952.7744603287774
 11
796.32351423437853
 21
1997.774460328781
  0
LINE
  8
_1-0_
  6
CONTINUOUS
 62
    4
 10
723.03924298691072
 20
1952.7744603287801
 11
768.03924298690844
 21
1997.7744603287783
  0
LINE
  8
_1-0_
  6
CONTINUOUS
 62
    4
 10
694.75497173945768
 20
1952.774460328776
 11
739.75497173945655
 21
1997.7744603287742
  0
LINE
  8
_1-0_
  6
CONTINUOUS
 62
    4
 10
666.47070049199101
 20
1952.774460328776
 11
711.47070049198987
 21
1997.7744603287742
  0
LINE
  8
_1-0_
  6
CONTINUOUS
 62
    4
 10
638.18642924452205
 20
1952.7744603287733
 11
683.18642924452547
 21
1997.7744603287765
  0
LINE
  8
_1-0_
  6
CONTINUOUS
 62
    4
 10
609.90215799705765
 20
1952.7744603287758
 11
654.90215799705595
 21
1997.7744603287737
  0
LINE
  8
_1-0_
  6
CONTINUOUS
 62
    4
 10
581.61788674961485
 20
1952.7744603287815
 11
626.61788674961371
 21
1997.7744603287801
  0
LINE
  8
_1-0_
  6
CONTINUOUS
 62
    4
 10
553.33361550214362
 20
1952.7744603287769
 11
598.33361550214704
 21
1997.7744603287803
  0
LINE
  8
_1-0_
  6
CONTINUOUS
 62
    4
 10
525.04934425467922
 20
1952.7744603287794
 11
570.04934425468263
 21
1997.7744603287828
  0
LINE
  8
_1-0_
  6
CONTINUOUS
 62
    4
 10
496.76507300721993
 20
1952.7744603287774
 11
541.76507300721823
 21
1997.7744603287756
  0
LINE
  8
_1-0_
  6
CONTINUOUS
 62
    4
 10
468.48080175976065
 20
1952.7744603287756
 11
513.48080175975837
 21
1997.7744603287735
  0
LINE
  8
_1-0_
  6
CONTINUOUS
 62
    4
 10
440.19653051229624
 20
1952.7744603287778
 11
485.19653051229397
 21
1997.774460328776
  0
LINE
  8
_1-0_
  6
CONTINUOUS
 62
    4
 10
411.91225926482673
 20
1952.7744603287749
 11
456.91225926483014
 21
1997.7744603287783
  0
LINE
  8
_1-0_
  6
CONTINUOUS
 62
    4
 10
383.62798801738279
 20
1952.7744603287794
 11
428.62798801738108
 21
1997.7744603287781
  0
LINE
  8
_1-0_
  6
CONTINUOUS
 62
    4
 10
355.34371676991781
 20
1952.7744603287815
 11
400.34371676991611
 21
1997.7744603287794
  0
LINE
  8
_1-0_
  6
CONTINUOUS
 62
    4
 10
327.05944552244829
 20
1952.7744603287785
 11
372.05944552245171
 21
1997.7744603287819
  0
LINE
  8
_1-0_
  6
CONTINUOUS
 62
    4
 10
298.77517427498446
 20
1952.774460328781
 11
343.77517427498219
 21
1997.7744603287794
  0
LINE
  8
_1-0_
  6
CONTINUOUS
 62
    4
 10
277.64341164021232
 20
1959.9269689414575
 11
315.49090302752745
 21
1997.7744603287728
  0
LINE
  8
_1-0_
  6
CONTINUOUS
 62
    4
 10
277.64341164021061
 20
1988.2112401889228
 11
287.20663178006304
 21
1997.7744603287751
  0
LINE
  8
_1-0_
  6
CONTINUOUS
 62
    4
 10
2835.8603224007179
 20
1226.3279193681366
 11
2835.8603224007179
 21
626.32791936813623
  0
LINE
  8
_1-0_
  6
DASHED1
 62
    2
 10
2847.8603224007174
 20
1226.3279193681366
 11
2847.8603224007174
 21
626.32791936813623
  0
LINE
  8
_1-0_
  6
CONTINUOUS
 62
    4
 10
2835.8603224007179
 20
626.32791936813623
 11
2841.3603224007183
 21
626.32791936813623
  0
LINE
  8
_1-0_
  6
CONTINUOUS
 62
    3
 10
2841.3603224007183
 20
611.32791936813737
 11
2841.3603224007183
 21
1221.3279193681376
  0
ARC
  8
_1-0_
  6
CONTINUOUS
 62
    4
 10
2844.3603224007174
 20
615.32791936813714
 40
3.0000000000000004
 50
90
 51
180
  0
LINE
  8
_1-0_
  6
CONTINUOUS
 62
    3
 10
3351.3603224007183
 20
611.32791936813737
 11
3351.3603224007183
 21
1221.3279193681376
  0
LINE
  8
_1-0_
  6
CONTINUOUS
 62
    3
 10
3351.3603224007183
 20
1221.3279193681376
 11
2841.3603224007183
 21
1221.3279193681376
  0
ARC
  8
_1-0_
  6
CONTINUOUS
 62
    4
 10
3348.3603224007183
 20
615.32791936813714
 40
3.0000000000000004
 50
0.0000000000000127
 51
90.000000000000014
  0
LINE
  8
_1-0_
  6
CONTINUOUS
 62
    4
 10
3351.3603224007183
 20
611.32791936813737
 11
2841.3603224007183
 21
611.32791936813737
  0
LINE
  8
_1-0_
  6
CONTINUOUS
 62
    4
 10
2844.3603224007174
 20
618.32791936813714
 11
3348.3603224007183
 21
618.32791936813714
  0
LINE
  8
_1-0_
  6
CONTINUOUS
 62
    4
 10
3351.3603224007183
 20
647.32791936813691
 11
2841.3603224007183
 21
647.32791936813691
  0
LINE
  8
_1-0_
  6
CONTINUOUS
 62
    4
 10
3351.3603224007183
 20
639.72791936813428
 11
2841.3603224007183
 21
639.72791936813428
  0
LINE
  8
_1-0_
  6
CENTER2
 62
    4
 10
2841.3603224007183
 20
1221.3279193681376
 11
3351.3603224007183
 21
916.32791936813737
  0
LINE
  8
_1-0_
  6
CENTER2
 62
    4
 10
3351.3603224007183
 20
916.32791936813737
 11
2841.3603224007183
 21
611.32791936813737
  0
LINE
  8
_1-0_
  6
DASHED1
 62
    7
 10
3345.8603224007179
 20
1211.8279193681364
 11
3345.8603224007179
 21
641.32791936813623
  0
LINE
  8
_1-0_
  6
DASHED1
 62
    2
 10
2841.3603224007183
 20
626.32791936813623
 11
3351.3603224007183
 21
626.32791936813623
  0
LINE
  8
_1-0_
  6
DASHED1
 62
    2
 10
2847.8603224007174
 20
641.32791936813623
 11
3351.3603224007183
 21
641.32791936813623
  0
LINE
  8
_1-0_
  6
DASHED1
 62
    2
 10
3351.3603224007183
 20
1211.8279193681364
 11
2847.8603224007174
 21
1211.8279193681364
  0
LINE
  8
_0-3_断面__扉
  6
CONTINUOUS
 62
    4
 10
3393.8603224007192
 20
1226.3279193681369
 11
3735.8603224007174
 21
1226.3279193681369
  0
LINE
  8
_0-3_断面__扉
  6
CONTINUOUS
 62
    4
 10
3735.8603224007174
 20
1208.3279193681371
 11
3735.8603224007174
 21
1212.3279193681369
  0
LINE
  8
_0-3_断面__扉
  6
CONTINUOUS
 62
    4
 10
3735.8603224007174
 20
1226.3279193681369
 11
3735.8603224007174
 21
1212.3279193681369
  0
LINE
  8
_0-3_断面__扉
  6
CONTINUOUS
 62
    4
 10
3393.8603224007192
 20
1211.3279193681369
 11
3718.3603224007174
 21
1211.3279193681369
  0
LINE
  8
_0-3_断面__扉
  6
CONTINUOUS
 62
    4
 10
3720.8603224007174
 20
1141.3279193681369
 11
3735.8603224007174
 21
1141.3279193681369
  0
LINE
  8
_0-3_断面__扉
  6
CONTINUOUS
 62
    4
 10
3735.8603224007174
 20
1226.3279193681369
 11
3720.8603224007174
 21
1141.3279193681369
  0
LINE
  8
_0-3_断面__扉
  6
CONTINUOUS
 62
    5
 10
3735.8603224007174
 20
633.32791936813634
 11
3735.8603224007174
 21
626.32791936813646
  0
LINE
  8
_0-3_断面__扉
  6
CONTINUOUS
 62
    5
 10
3718.3603224007174
 20
633.32791936813634
 11
3735.8603224007174
 21
633.32791936813634
  0
LINE
  8
_0-3_断面__扉
  6
CONTINUOUS
 62
    5
 10
3393.8603224007192
 20
626.32791936813646
 11
3735.8603224007174
 21
626.32791936813646
  0
LINE
  8
_0-3_断面__扉
  6
CONTINUOUS
 62
    5
 10
3393.8603224007192
 20
641.32791936813646
 11
3718.3603224007174
 21
641.32791936813646
  0
LINE
  8
_0-3_断面__扉
  6
CONTINUOUS
 62
    5
 10
3393.8603224007192
 20
641.32791936813646
 11
3393.8603224007192
 21
626.32791936813646
  0
LINE
  8
_0-3_断面__扉
  6
CONTINUOUS
 62
    5
 10
3718.3603224007174
 20
641.32791936813646
 11
3718.3603224007174
 21
633.32791936813634
  0
LINE
  8
_0-3_断面__扉
  6
CONTINUOUS
 62
    4
 10
3735.8603224007174
 20
678.32791936813669
 11
3720.8603224007174
 21
633.32791936813634
  0
LINE
  8
_0-3_断面__扉
  6
CONTINUOUS
 62
    4
 10
3720.8603224007174
 20
678.32791936813669
 11
3735.8603224007174
 21
678.32791936813669
  0
LINE
  8
_0-3_断面__扉
  6
CONTINUOUS
 62
    4
 10
3393.8603224007192
 20
1226.3279193681369
 11
3393.8603224007192
 21
641.32791936813646
  0
LINE
  8
_0-3_断面__扉
  6
CONTINUOUS
 62
    4
 10
3718.3603224007174
 20
633.32791936813634
 11
3718.3603224007174
 21
1226.3279193681369
  0
LINE
  8
_0-3_断面__扉
  6
CONTINUOUS
 62
    4
 10
3720.8603224007174
 20
633.32791936813634
 11
3720.8603224007174
 21
1226.3279193681369
  0
LINE
  8
_0-3_断面__扉
  6
CONTINUOUS
 62
    4
 10
3735.8603224007174
 20
1208.3279193681371
 11
3735.8603224007174
 21
633.32791936813634
  0
LINE
  8
_0-4_背面本体
  6
CONTINUOUS
 62
    3
 10
3389.8603224007183
 20
1221.3279193681369
 11
3377.8603224007179
 21
1221.3279193681369
  0
LINE
  8
_0-4_背面本体
  6
CONTINUOUS
 62
    3
 10
3377.8603224007179
 20
641.32791936813703
 11
3377.8603224007179
 21
1221.3279193681369
  0
LINE
  8
_0-4_背面本体
  6
CONTINUOUS
 62
    3
 10
3389.8603224007183
 20
641.32791936813703
 11
3389.8603224007183
 21
1221.3279193681369
  0
LINE
  8
_0-5_平面本体
  6
CONTINUOUS
 62
    4
 10
3391.4603224007178
 20
655.32791936813714
 11
3391.4603224007178
 21
613.32791936813691
  0
LINE
  8
_0-5_平面本体
  6
CONTINUOUS
 62
    4
 10
3390.9603224007173
 20
655.82791936813691
 11
3390.6603224007176
 21
655.82791936813691
  0
LINE
  8
_0-5_平面本体
  6
CONTINUOUS
 62
    4
 10
3390.160322400718
 20
647.05241916797695
 11
3390.160322400718
 21
654.4034195682974
  0
LINE
  8
_0-5_平面本体
  6
CONTINUOUS
 62
    4
 10
3390.160322400718
 20
641.62791936813709
 11
3390.160322400718
 21
645.80341956829727
  0
LINE
  8
_0-5_平面本体
  6
CONTINUOUS
 62
    4
 10
3390.160322400718
 20
637.8783067063623
 11
3390.160322400718
 21
613.32791936813691
  0
LINE
  8
_0-5_平面本体
  6
CONTINUOUS
 62
    4
 10
3389.4603224007178
 20
612.62791936813698
 11
3378.6888938292895
 21
612.62791936813698
  0
LINE
  8
_0-5_平面本体
  6
CONTINUOUS
 62
    4
 10
3378.026731667127
 20
613.10089234110989
 11
3376.8979022530847
 21
616.39331146540121
  0
LINE
  8
_0-5_平面本体
  6
CONTINUOUS
 62
    4
 10
3376.7970019373979
 20
612.67927071948838
 11
3375.3143764547721
 21
617.00359504381253
  0
LINE
  8
_0-5_平面本体
  6
CONTINUOUS
 62
    4
 10
3377.1603224007176
 20
641.62791936813709
 11
3377.1603224007176
 21
646.52791936813684
  0
LINE
  8
_0-5_平面本体
  6
CONTINUOUS
 62
    4
 10
3389.8603224007183
 20
641.32791936813703
 11
3377.4603224007182
 21
641.32791936813703
  0
LINE
  8
_0-5_平面本体
  6
CONTINUOUS
 62
    4
 10
3375.5603224007177
 20
640.67753202991161
 11
3375.5603224007177
 21
646.52791936813684
  0
LINE
  8
_0-5_平面本体
  6
CONTINUOUS
 62
    4
 10
3389.2119774861453
 20
638.87697169130433
 11
3376.5086673152891
 21
639.67886704496947
  0
LINE
  8
_0-5_平面本体
  6
CONTINUOUS
 62
    4
 10
3378.6888938292895
 20
611.32791936813703
 11
3389.4603224007178
 21
611.32791936813703
  0
ARC
  8
_0-5_平面本体
  6
CONTINUOUS
 62
    4
 10
3389.4603224007178
 20
613.32791936813691
 40
0.6999999999999997
 50
270
 51
0
  0
ARC
  8
_0-5_平面本体
  6
CONTINUOUS
 62
    4
 10
3390.9603224007173
 20
655.32791936813714
 40
0.4999999999999997
 50
0
 51
90
  0
ARC
  8
_0-5_平面本体
  6
CONTINUOUS
 62
    4
 10
3390.6603224007176
 20
655.02791936813707
 40
0.8000000000000001
 50
89.999999999999971
 51
231.31781254650667
  0
ARC
  8
_0-5_平面本体
  6
CONTINUOUS
 62
    4
 10
3390.6603224007176
 20
646.42791936813694
 40
0.8000000000000001
 50
128.68218745349335
 51
231.31781254650667
  0
ARC
  8
_0-5_平面本体
  6
CONTINUOUS
 62
    4
 10
3389.8603224007183
 20
641.62791936813709
 40
0.2999999999999998
 50
270
 51
0
  0
ARC
  8
_0-5_平面本体
  6
CONTINUOUS
 62
    4
 10
3389.1603224007176
 20
637.8783067063623
 40
0.9999999999999995
 50
359.99999999999994
 51
87.03906386583624
  0
ARC
  8
_0-5_平面本体
  6
CONTINUOUS
 62
    4
 10
3376.3603224007183
 20
646.52791936813684
 40
0.8000000000000001
 50
0.0000000000000254
 51
179.99999999999997
  0
ARC
  8
_0-5_平面本体
  6
CONTINUOUS
 62
    4
 10
3378.6888938292895
 20
613.32791936813691
 40
0.6999999999999997
 50
198.92464441604994
 51
270
  0
ARC
  8
_0-5_平面本体
  6
CONTINUOUS
 62
    4
 10
3377.087091442273
 20
616.45817633026581
 40
0.2
 50
133.54896276822287
 51
198.92464441605298
  0
ARC
  8
_0-5_平面本体
  6
CONTINUOUS
 62
    4
 10
3376.2603224007179
 20
617.32791936813669
 40
0.9999999999999995
 50
313.54896276821995
 51
198.92464441604971
  0
ARC
  8
_0-5_平面本体
  6
CONTINUOUS
 62
    4
 10
3377.4603224007182
 20
641.62791936813709
 40
0.2999999999999998
 50
179.99999999999997
 51
270
  0
ARC
  8
_0-5_平面本体
  6
CONTINUOUS
 62
    4
 10
3376.5603224007181
 20
640.67753202991161
 40
0.9999999999999995
 50
180
 51
267.03906386583628
  0
ARC
  8
_0-5_平面本体
  6
CONTINUOUS
 62
    4
 10
3389.4603224007178
 20
613.32791936813691
 40
1.9999999999999995
 50
269.99999999999994
 51
359.99999999999994
  0
ARC
  8
_0-5_平面本体
  6
CONTINUOUS
 62
    4
 10
3378.6888938292895
 20
613.32791936813691
 40
1.9999999999999995
 50
198.92464441605042
 51
270
  0
LINE
  8
_0-9_ラッチ断面__受け
  6
CONTINUOUS
 62
    4
 10
3935.8603224007174
 20
626.32791936813646
 11
3765.8603224007174
 21
626.32791936813646
  0
LINE
  8
_0-9_ラッチ断面__受け
  6
CONTINUOUS
 62
    4
 10
3935.8603224007174
 20
1226.3279193681369
 11
3765.8603224007174
 21
1226.3279193681369
  0
POINT
  8
_0-9_ラッチ断面__受け
 62
    4
 10
3735.8603224007174
 20
1416.3279193681369
  0
LINE
  8
_0-9_ラッチ断面__受け
  6
CONTINUOUS
 62
    4
 10
3735.8603224007174
 20
1426.3279193681369
 11
3735.8603224007174
 21
1256.3279193681364
  0
LINE
  8
_0-9_ラッチ断面__受け
  6
CONTINUOUS
 62
    9
 10
3257.8603224007179
 20
1226.3279193681369
 11
3347.8603224007179
 21
1226.3279193681369
  0
LINE
  8
_0-9_ラッチ断面__受け
  6
CONTINUOUS
 62
    9
 10
3257.8603224007179
 20
611.32791936813669
 11
3347.8603224007179
 21
611.32791936813669
  0
LINE
  8
_0-9_ラッチ断面__受け
  6
CONTINUOUS
 62
    9
 10
3257.8603224007179
 20
1221.3279193681369
 11
3347.8603224007179
 21
1221.3279193681369
  0
LINE
  8
_0-7_寸法
  6
CONTINUOUS
 62
    4
 10
3925.8603224007174
 20
1226.3279193681369
 11
3925.8603224007174
 21
626.32791936813646
  0
TEXT
  8
_0-9_ラッチ断面__受け
 62
    7
 10
3920.8603224007174
 20
893.22791936813678
 40
35
 41
0.6285714285714286
 50
90
  1
６００
  0
POINT
  8
_0-9_ラッチ断面__受け
 62
    3
 10
3845.8603224007174
 20
626.32791936813646
  0
POINT
  8
_0-9_ラッチ断面__受け
 62
    4
 10
3845.8603224007174
 20
806.32791936813646
  0
LINE
  8
_0-7_寸法
  6
CONTINUOUS
 62
    4
 10
3845.8603224007174
 20
986.32791936813646
 11
3845.8603224007174
 21
1046.3279193681364
  0
TEXT
  8
_0-9_ラッチ断面__受け
 62
    7
 10
3840.8603224007174
 20
994.2779193681365
 40
35
 41
0.6285714285714286
 50
90
  1
６０
  0
LINE
  8
_0-7_寸法
  6
CONTINUOUS
 62
    4
 10
3845.8603224007174
 20
926.32791936813646
 11
3845.8603224007174
 21
986.32791936813646
  0
TEXT
  8
_0-9_ラッチ断面__受け
 62
    7
 10
3840.8603224007174
 20
934.2779193681365
 40
35
 41
0.6285714285714286
 50
90
  1
６０
  0
LINE
  8
_0-7_寸法
  6
CONTINUOUS
 62
    4
 10
3845.8603224007174
 20
866.32791936813646
 11
3845.8603224007174
 21
926.32791936813646
  0
TEXT
  8
_0-9_ラッチ断面__受け
 62
    7
 10
3840.8603224007174
 20
874.2779193681365
 40
35
 41
0.6285714285714286
 50
90
  1
６０
  0
LINE
  8
_0-7_寸法
  6
CONTINUOUS
 62
    4
 10
3845.8603224007174
 20
806.32791936813646
 11
3845.8603224007174
 21
866.32791936813646
  0
TEXT
  8
_0-9_ラッチ断面__受け
 62
    7
 10
3840.8603224007174
 20
814.27791936813662
 40
35
 41
0.6285714285714286
 50
90
  1
６０
  0
POINT
  8
_0-9_ラッチ断面__受け
 62
    3
 10
3845.8603224007174
 20
806.32791936813646
  0
LINE
  8
_0-9_ラッチ断面__受け
  6
CONTINUOUS
 62
    4
 10
3855.8603224007174
 20
1046.3279193681364
 11
3765.8603224007174
 21
1046.3279193681364
  0
LINE
  8
_0-9_ラッチ断面__受け
  6
CONTINUOUS
 62
    4
 10
3855.8603224007174
 20
806.32791936813646
 11
3765.8603224007174
 21
806.32791936813646
  0
LINE
  8
_0-9_ラッチ断面__受け
  6
CONTINUOUS
 62
    4
 10
3855.8603224007174
 20
866.32791936813646
 11
3765.8603224007174
 21
866.32791936813646
  0
LINE
  8
_0-9_ラッチ断面__受け
  6
CONTINUOUS
 62
    4
 10
3855.8603224007174
 20
926.32791936813646
 11
3765.8603224007174
 21
926.32791936813646
  0
LINE
  8
_0-9_ラッチ断面__受け
  6
CONTINUOUS
 62
    4
 10
3855.8603224007174
 20
986.32791936813646
 11
3765.8603224007174
 21
986.32791936813646
  0
LINE
  8
_0-9_ラッチ断面__受け
  6
CONTINUOUS
 62
    4
 10
3845.8603224007174
 20
626.32791936813646
 11
3845.8603224007174
 21
806.32791936813646
  0
TEXT
  8
_0-9_ラッチ断面__受け
 62
    7
 10
3840.8603224007174
 20
683.22791936813644
 40
35
 41
0.6285714285714286
 50
90
  1
１８０
  0
POINT
  8
_0-9_ラッチ断面__受け
 62
    4
 10
3489.3603224007174
 20
999.16574925886175
  0
LINE
  8
_0-9_ラッチ断面__受け
  6
CONTINUOUS
 62
    4
 10
3489.3603224007174
 20
1009.1657492588617
 11
3489.3603224007174
 21
969.16574925886175
  0
POINT
  8
_0-9_ラッチ断面__受け
 62
    3
 10
3489.3603224007174
 20
999.16574925886175
  0
POINT
  8
_0-9_ラッチ断面__受け
 62
    3
 10
3718.3603224007174
 20
999.16574925886175
  0
LINE
  8
_0-9_ラッチ断面__受け
  6
CONTINUOUS
 62
    4
 10
3489.3603224007174
 20
999.16574925886175
 11
3718.3603224007174
 21
999.16574925886175
  0
TEXT
  8
_0-9_ラッチ断面__受け
 62
    7
 10
3570.7603224007175
 20
1004.1657492588617
 40
35
 41
0.6285714285714286
 50
0
  1
２２９
  0
LINE
  8
_0-3_断面__扉
  6
CONTINUOUS
 62
    7
 10
3408.8603224007192
 20
1211.3279193681369
 11
3408.8603224007192
 21
641.32791936813646
  0
LINE
  8
_0-3_断面__扉
  6
CONTINUOUS
 62
    2
 10
3471.3603224007192
 20
1211.3279193681369
 11
3471.3603224007192
 21
641.32791936813646
  0
LINE
  8
_1-0_
  6
DASHED1
 62
    7
 10
3345.8603224007179
 20
943.32791936813669
 11
2847.8603224007174
 21
943.32791936813669
  0
LINE
  8
_1-0_
  6
DASHED1
 62
    7
 10
3345.8603224007179
 20
928.32791936813669
 11
2847.8603224007174
 21
928.32791936813669
  0
LINE
  8
_1-0_
  6
DASHED1
 62
    9
 10
3345.8603224007179
 20
928.32791936813669
 11
3723.8603224007183
 21
928.32791936813669
  0
LINE
  8
_1-0_
  6
DASHED1
 62
    9
 10
3345.8603224007179
 20
943.32791936813669
 11
3723.8603224007183
 21
943.32791936813669
  0
LINE
  8
_1-0_
  6
CONTINUOUS
 62
    2
 10
3390.160322400718
 20
626.32791936813623
 11
3351.3603224007183
 21
626.32791936813623
  0
LINE
  8
_1-0_
  6
CONTINUOUS
 62
    9
 10
3390.160322400718
 20
626.32791936813623
 11
3723.8603224007183
 21
626.32791936813623
  0
LINE
  8
_1-0_
  6
CONTINUOUS
 62
    9
 10
3735.8603224007174
 20
626.32791936813623
 11
3735.8603224007174
 21
1226.3279193681366
  0
LINE
  8
_1-0_
  6
CONTINUOUS
 62
    9
 10
3723.8603224007183
 20
626.32791936813623
 11
3723.8603224007183
 21
1226.3279193681366
  0
LINE
  8
_1-0_
  6
CONTINUOUS
 62
    9
 10
3723.8603224007183
 20
626.32791936813623
 11
3735.8603224007174
 21
626.32791936813623
  0
LINE
  8
_1-0_
  6
CONTINUOUS
 62
    9
 10
3351.3603224007183
 20
1211.8279193681364
 11
3723.8603224007183
 21
1211.8279193681364
  0
LINE
  8
_1-0_
  6
CONTINUOUS
 62
    9
 10
3735.8603224007174
 20
1226.3279193681366
 11
3393.8603224007192
 21
1226.3279193681366
  0
LINE
  8
_1-0_
  6
CONTINUOUS
 62
    4
 10
3393.8603224007192
 20
1226.3279193681366
 11
2835.8603224007179
 21
1226.3279193681366
  0
LINE
  8
_1-0_
  6
CONTINUOUS
 62
    7
 10
3351.3603224007183
 20
641.32791936813623
 11
3375.5603224007177
 21
641.32791936813623
  0
LINE
  8
_1-0_
  6
CONTINUOUS
 62
    9
 10
3375.5603224007177
 20
641.32791936813623
 11
3723.8603224007174
 21
641.32791936813623
  0
LINE
  8
_0-e_仕様欄
  6
CONTINUOUS
 62
    4
 10
3434.0580840030838
 20
353.67641101244174
 11
3434.0580840030838
 21
283.67641101244174
  0
LINE
  8
_0-e_仕様欄
  6
CONTINUOUS
 62
    4
 10
3434.0580840030838
 20
283.67641101244174
 11
3684.0580840030838
 21
283.67641101244174
  0
LINE
  8
_0-e_仕様欄
  6
CONTINUOUS
 62
    4
 10
3684.0580840030838
 20
283.67641101244174
 11
3684.0580840030838
 21
353.67641101244174
  0
LINE
  8
_0-e_仕様欄
  6
CONTINUOUS
 62
    4
 10
3684.0580840030838
 20
353.67641101244174
 11
3434.0580840030838
 21
353.67641101244174
  0
LINE
  8
_0-3_断面__扉
  6
CONTINUOUS
 62
    4
 10
2525.054142071056
 20
2204.2744603287765
 11
2525.054142071056
 21
2545.7744603287765
  0
LINE
  8
_0-3_断面__扉
  6
CONTINUOUS
 62
    4
 10
2513.0541420710555
 20
2204.2744603287765
 11
2513.0541420710555
 21
2545.7744603287765
  0
LINE
  8
_0-9_ラッチ断面__受け
  6
CONTINUOUS
 62
    4
 10
2724.554142071056
 20
2187.7744603287765
 11
2554.5541420710565
 21
2187.7744603287765
  0
LINE
  8
_0-9_ラッチ断面__受け
  6
CONTINUOUS
 62
    4
 10
2724.554142071056
 20
2545.7744603287765
 11
2554.5541420710565
 21
2545.7744603287765
  0
LINE
  8
_0-1_立面__扉
  6
CONTINUOUS
 62
    4
 10
2714.554142071056
 20
2545.7744603287765
 11
2714.554142071056
 21
2187.7744603287765
  0
TEXT
  8
_0-9_ラッチ断面__受け
 62
    7
 10
2709.554142071056
 20
2333.6744603287761
 40
35
 41
0.6285714285714286
 50
90
  1
３５８
  0
LINE
  8
_0-4_背面本体
  6
CONTINUOUS
 62
    3
 10
2522.054142071056
 20
2199.7744603287765
 11
2522.054142071056
 21
2187.7744603287765
  0
LINE
  8
_0-3_断面__扉
  6
CONTINUOUS
 62
    4
 10
1967.0541420710558
 20
2545.7744603287765
 11
1967.0541420710558
 21
2204.2744603287765
  0
LINE
  8
_0-3_断面__扉
  6
CONTINUOUS
 62
    4
 10
1979.0541420710555
 20
2545.7744603287765
 11
1979.0541420710555
 21
2204.2744603287765
  0
LINE
  8
_0-3_断面__扉
  6
CONTINUOUS
 62
    4
 10
1967.0541420710558
 20
2545.7744603287765
 11
2525.054142071056
 21
2545.7744603287765
  0
LINE
  8
_0-3_断面__扉
  6
CONTINUOUS
 62
    4
 10
1967.0541420710558
 20
2204.2744603287765
 11
2525.054142071056
 21
2204.2744603287765
  0
LINE
  8
_0-3_断面__扉
  6
CONTINUOUS
 62
    4
 10
1979.0541420710555
 20
2530.7744603287765
 11
2513.0541420710555
 21
2530.7744603287765
  0
LINE
  8
_0-3_断面__扉
  6
DASHED1
 62
    4
 10
1979.0541420710555
 20
2530.7744603287765
 11
2513.0541420710555
 21
2530.7744603287765
  0
LINE
  8
_0-3_断面__扉
  6
CONTINUOUS
 62
    2
 10
1991.0541420710555
 20
2219.2744603287765
 11
2016.0541420710555
 21
2219.2744603287765
  0
LINE
  8
_0-3_断面__扉
  6
CONTINUOUS
 62
    2
 10
2016.0541420710555
 20
2219.2744603287765
 11
2016.0541420710555
 21
2281.7744603287765
  0
LINE
  8
_0-3_断面__扉
  6
CONTINUOUS
 62
    2
 10
2016.0541420710555
 20
2281.7744603287765
 11
1991.0541420710555
 21
2281.7744603287765
  0
LINE
  8
_0-3_断面__扉
  6
CONTINUOUS
 62
    2
 10
1991.0541420710555
 20
2281.7744603287765
 11
1991.0541420710555
 21
2219.2744603287765
  0
LINE
  8
_0-3_断面__扉
  6
CONTINUOUS
 62
    7
 10
2016.0541420710555
 20
2219.2744603287765
 11
2016.0541420710555
 21
2204.2744603287765
  0
LINE
  8
_0-3_断面__扉
  6
CONTINUOUS
 62
    7
 10
1979.0541420710555
 20
2219.2744603287765
 11
2016.0541420710555
 21
2219.2744603287765
  0
LINE
  8
_0-4_背面本体
  6
CONTINUOUS
 62
    3
 10
2009.5541420710551
 20
2199.7744603287765
 11
2009.5541420710551
 21
2187.7744603287765
  0
LINE
  8
_0-4_背面本体
  6
CONTINUOUS
 62
    3
 10
2522.054142071056
 20
2199.7744603287765
 11
2009.5541420710551
 21
2199.7744603287765
  0
LINE
  8
_0-4_背面本体
  6
CONTINUOUS
 62
    3
 10
2522.054142071056
 20
2187.7744603287765
 11
2009.5541420710551
 21
2187.7744603287765
  0
LINE
  8
_1-0_
  6
CONTINUOUS
 62
    4
 10
1625.5541420710555
 20
1645.7744603287765
 11
1967.0541420710558
 21
1645.7744603287765
  0
LINE
  8
_1-0_
  6
CONTINUOUS
 62
    4
 10
1625.5541420710555
 20
1657.7744603287758
 11
1967.0541420710558
 21
1657.7744603287758
  0
LINE
  8
_1-0_
  6
CONTINUOUS
 62
    4
 10
1967.0541420710558
 20
2545.7744603287765
 11
1625.5541420710555
 21
2545.7744603287765
  0
LINE
  8
_1-0_
  6
CONTINUOUS
 62
    4
 10
1967.0541420710558
 20
2533.7744603287769
 11
1625.5541420710555
 21
2533.7744603287769
  0
LINE
  8
_1-0_
  6
CONTINUOUS
 62
    4
 10
1625.5541420710555
 20
1645.7744603287765
 11
1625.5541420710555
 21
2545.7744603287765
  0
LINE
  8
_1-0_
  6
CONTINUOUS
 62
    4
 10
1967.0541420710558
 20
1645.7744603287765
 11
1967.0541420710558
 21
2545.7744603287765
  0
LINE
  8
_1-0_
  6
CONTINUOUS
 62
    3
 10
1971.5541420710555
 20
1651.2744603287769
 11
1983.5541420710558
 21
1651.2744603287769
  0
LINE
  8
_1-0_
  6
DASHED1
 62
    4
 10
1640.5541420710555
 20
1657.7744603287758
 11
1640.5541420710555
 21
2533.7744603287769
  0
LINE
  8
_1-0_
  6
CONTINUOUS
 62
    4
 10
1640.5541420710555
 20
1657.7744603287758
 11
1640.5541420710555
 21
2533.7744603287769
  0
LINE
  8
_1-0_
  6
CONTINUOUS
 62
    3
 10
1983.5541420710558
 20
1651.2744603287769
 11
1983.5541420710558
 21
2161.2744603287769
  0
LINE
  8
_1-0_
  6
CONTINUOUS
 62
    3
 10
1971.5541420710555
 20
1651.2744603287769
 11
1971.5541420710555
 21
2161.2744603287769
  0
LINE
  8
_1-0_
  6
CONTINUOUS
 62
    3
 10
1971.5541420710555
 20
2161.2744603287769
 11
1983.5541420710558
 21
2161.2744603287769
  0
LINE
  8
_1-0_
  6
CONTINUOUS
 62
    7
 10
1952.0541420710558
 20
2155.7744603287765
 11
1952.0541420710558
 21
2533.7744603287769
  0
LINE
  8
_1-0_
  6
CONTINUOUS
 62
    7
 10
1967.0541420710558
 20
2155.7744603287765
 11
1952.0541420710558
 21
2155.7744603287765
  0
LINE
  8
_1-0_
  6
CONTINUOUS
 62
    2
 10
1889.5541420710558
 20
2155.2744603287765
 11
1889.5541420710558
 21
2180.2744603287765
  0
LINE
  8
_1-0_
  6
CONTINUOUS
 62
    2
 10
1952.0541420710558
 20
2180.2744603287765
 11
1889.5541420710558
 21
2180.2744603287765
  0
LINE
  8
_1-0_
  6
CONTINUOUS
 62
    2
 10
1952.0541420710558
 20
2155.2744603287765
 11
1889.5541420710558
 21
2155.2744603287765
  0
LINE
  8
_1-0_
  6
CONTINUOUS
 62
    2
 10
1952.0541420710558
 20
2155.2744603287765
 11
1952.0541420710558
 21
2155.7744603287765
  0
LINE
  8
_0-3_断面__扉
  6
CONTINUOUS
 62
    4
 10
2525.0541420710551
 20
626.32791936813623
 11
2525.0541420710551
 21
1226.3279193681366
  0
LINE
  8
_0-9_ラッチ断面__受け
  6
CONTINUOUS
 62
    4
 10
2664.554142071056
 20
626.32791936813646
 11
2664.554142071056
 21
611.32791936813669
  0
LINE
  8
_0-9_ラッチ断面__受け
  6
CONTINUOUS
 62
    4
 10
2724.554142071056
 20
626.32791936813646
 11
2554.5541420710565
 21
626.32791936813646
  0
LINE
  8
_0-7_寸法
  6
CONTINUOUS
 62
    4
 10
2714.554142071056
 20
1226.3279193681364
 11
2714.554142071056
 21
626.32791936813646
  0
TEXT
  8
_0-9_ラッチ断面__受け
 62
    7
 10
2709.554142071056
 20
893.22791936813644
 40
35
 41
0.6285714285714286
 50
90
  1
６００
  0
LINE
  8
_0-9_ラッチ断面__受け
  6
CONTINUOUS
 62
    4
 10
2674.1349882775793
 20
611.32791936813669
 11
2554.5541420710565
 21
611.32791936813669
  0
LINE
  8
_0-3_断面__扉
  6
CONTINUOUS
 62
    4
 10
2525.054142071056
 20
1226.3279193681366
 11
1967.0541420710558
 21
1226.3279193681366
  0
LINE
  8
_0-4_背面本体
  6
CONTINUOUS
 62
    3
 10
2519.5541420710551
 20
611.32791936813703
 11
2519.5541420710551
 21
1221.3279193681366
  0
ARC
  8
_0-5_平面本体
  6
CONTINUOUS
 62
    4
 10
2516.5541420710551
 20
615.3279193681368
 40
3.0000000000000004
 50
0
 51
90
  0
LINE
  8
_0-4_背面本体
  6
CONTINUOUS
 62
    3
 10
2009.5541420710551
 20
611.32791936813703
 11
2009.5541420710551
 21
1221.3279193681366
  0
ARC
  8
_0-5_平面本体
  6
CONTINUOUS
 62
    4
 10
2012.5541420710553
 20
615.3279193681368
 40
3.0000000000000004
 50
90
 51
180
  0
LINE
  8
_0-4_背面本体
  6
CONTINUOUS
 62
    3
 10
2519.5541420710551
 20
1221.3279193681366
 11
2009.5541420710551
 21
1221.3279193681366
  0
LINE
  8
_0-5_平面本体
  6
CONTINUOUS
 62
    4
 10
2519.5541420710551
 20
647.32791936813669
 11
2009.5541420710551
 21
647.32791936813669
  0
LINE
  8
_0-5_平面本体
  6
CONTINUOUS
 62
    4
 10
2519.5541420710551
 20
639.72791936813393
 11
2009.5541420710551
 21
639.72791936813393
  0
LINE
  8
_0-5_平面本体
  6
CONTINUOUS
 62
    4
 10
2012.5541420710553
 20
618.32791936813691
 11
2516.5541420710551
 21
618.32791936813691
  0
LINE
  8
_0-5_平面本体
  6
CONTINUOUS
 62
    4
 10
2519.5541420710551
 20
611.32791936813703
 11
2009.5541420710551
 21
611.32791936813703
  0
LINE
  8
_0-4_背面本体
  6
CENTER2
 62
    4
 10
2519.5541420710551
 20
1221.3279193681366
 11
2009.5541420710551
 21
916.32791936813646
  0
LINE
  8
_0-4_背面本体
  6
CENTER2
 62
    4
 10
2009.5541420710551
 20
916.32791936813646
 11
2519.5541420710551
 21
611.32791936813703
  0
LINE
  8
_0-6_平面扉
  6
DASHED1
 62
    7
 10
2513.0541420710555
 20
943.32791936813669
 11
1979.0541420710555
 21
943.32791936813669
  0
LINE
  8
_0-6_平面扉
  6
DASHED1
 62
    7
 10
2513.0541420710555
 20
931.32791936813657
 11
1979.0541420710555
 21
931.32791936813657
  0
POINT
  8
_0-9_ラッチ断面__受け
 62
    3
 10
2009.5541420710551
 20
436.32791936813646
  0
LINE
  8
_0-9_ラッチ断面__受け
  6
CONTINUOUS
 62
    4
 10
2009.5541420710551
 20
426.32791936813646
 11
2009.5541420710551
 21
596.32791936813646
  0
POINT
  8
_0-9_ラッチ断面__受け
 62
    3
 10
2519.5541420710551
 20
436.32791936813646
  0
LINE
  8
_0-9_ラッチ断面__受け
  6
CONTINUOUS
 62
    4
 10
2519.5541420710551
 20
426.32791936813646
 11
2519.5541420710551
 21
596.32791936813646
  0
POINT
  8
_0-9_ラッチ断面__受け
 62
    3
 10
2009.5541420710551
 20
436.32791936813646
  0
POINT
  8
_0-9_ラッチ断面__受け
 62
    3
 10
2519.5541420710551
 20
436.32791936813646
  0
LINE
  8
_0-9_ラッチ断面__受け
  6
CONTINUOUS
 62
    4
 10
2009.5541420710551
 20
436.32791936813646
 11
2519.5541420710551
 21
436.32791936813646
  0
TEXT
  8
_0-9_ラッチ断面__受け
 62
    7
 10
2231.4541420710552
 20
441.32791936813646
 40
35
 41
0.6285714285714286
 50
0
  1
５１０
  0
LINE
  8
_0-3_断面__扉
  6
DASHED1
 62
    7
 10
2016.0541420710555
 20
1211.8279193681366
 11
2016.0541420710555
 21
641.32791936813623
  0
LINE
  8
_0-3_断面__扉
  6
DASHED1
 62
    2
 10
2009.5541420710551
 20
641.32791936813623
 11
2513.0541420710555
 21
641.32791936813623
  0
LINE
  8
_1-0_
  6
CONTINUOUS
 62
    4
 10
1967.5541420710551
 20
1226.3279193681369
 11
1625.5541420710555
 21
1226.3279193681369
  0
LINE
  8
_1-0_
  6
CONTINUOUS
 62
    4
 10
1967.5541420710551
 20
1211.3279193681369
 11
1643.0541420710555
 21
1211.3279193681369
  0
LINE
  8
_1-0_
  6
CONTINUOUS
 62
    4
 10
1640.5541420710555
 20
1141.3279193681369
 11
1625.5541420710555
 21
1141.3279193681369
  0
LINE
  8
_1-0_
  6
CONTINUOUS
 62
    4
 10
1625.5541420710555
 20
1226.3279193681369
 11
1640.5541420710555
 21
1141.3279193681369
  0
LINE
  8
_1-0_
  6
CONTINUOUS
 62
    5
 10
1625.5541420710555
 20
633.32791936813634
 11
1625.5541420710555
 21
626.32791936813646
  0
LINE
  8
_1-0_
  6
CONTINUOUS
 62
    5
 10
1643.0541420710555
 20
633.32791936813634
 11
1625.5541420710555
 21
633.32791936813634
  0
LINE
  8
_1-0_
  6
CONTINUOUS
 62
    5
 10
1967.5541420710551
 20
626.32791936813646
 11
1625.5541420710555
 21
626.32791936813646
  0
LINE
  8
_1-0_
  6
CONTINUOUS
 62
    5
 10
1967.5541420710551
 20
641.32791936813646
 11
1643.0541420710555
 21
641.32791936813646
  0
LINE
  8
_1-0_
  6
CONTINUOUS
 62
    5
 10
1967.5541420710551
 20
641.32791936813646
 11
1967.5541420710551
 21
626.32791936813646
  0
LINE
  8
_1-0_
  6
CONTINUOUS
 62
    5
 10
1643.0541420710555
 20
641.32791936813646
 11
1643.0541420710555
 21
633.32791936813634
  0
LINE
  8
_1-0_
  6
CONTINUOUS
 62
    4
 10
1625.5541420710555
 20
678.32791936813634
 11
1640.5541420710555
 21
633.32791936813634
  0
LINE
  8
_1-0_
  6
CONTINUOUS
 62
    4
 10
1640.5541420710555
 20
678.32791936813634
 11
1625.5541420710555
 21
678.32791936813634
  0
LINE
  8
_1-0_
  6
CONTINUOUS
 62
    4
 10
1967.5541420710551
 20
1226.3279193681369
 11
1967.5541420710551
 21
641.32791936813646
  0
LINE
  8
_1-0_
  6
CONTINUOUS
 62
    4
 10
1643.0541420710555
 20
633.32791936813634
 11
1643.0541420710555
 21
1226.3279193681369
  0
LINE
  8
_1-0_
  6
CONTINUOUS
 62
    4
 10
1640.5541420710555
 20
633.32791936813634
 11
1640.5541420710555
 21
1226.3279193681369
  0
LINE
  8
_1-0_
  6
CONTINUOUS
 62
    4
 10
1625.5541420710555
 20
1226.3279193681369
 11
1625.5541420710555
 21
633.32791936813634
  0
LINE
  8
_1-0_
  6
CONTINUOUS
 62
    3
 10
1971.554142071056
 20
1221.3279193681373
 11
1983.5541420710558
 21
1221.3279193681373
  0
LINE
  8
_1-0_
  6
CONTINUOUS
 62
    3
 10
1983.5541420710558
 20
641.32791936813669
 11
1983.5541420710558
 21
1221.3279193681373
  0
LINE
  8
_1-0_
  6
CONTINUOUS
 62
    3
 10
1971.554142071056
 20
641.32791936813669
 11
1971.554142071056
 21
1221.3279193681373
  0
LINE
  8
_1-0_
  6
CONTINUOUS
 62
    4
 10
1969.9541420710561
 20
655.32791936813714
 11
1969.9541420710561
 21
613.32791936813691
  0
LINE
  8
_1-0_
  6
CONTINUOUS
 62
    4
 10
1970.4541420710563
 20
655.82791936813691
 11
1970.754142071056
 21
655.82791936813691
  0
LINE
  8
_1-0_
  6
CONTINUOUS
 62
    4
 10
1971.2541420710556
 20
647.0524191679766
 11
1971.2541420710556
 21
654.40341956829706
  0
LINE
  8
_1-0_
  6
CONTINUOUS
 62
    4
 10
1971.2541420710556
 20
641.62791936813675
 11
1971.2541420710556
 21
645.80341956829693
  0
LINE
  8
_1-0_
  6
CONTINUOUS
 62
    4
 10
1971.2541420710556
 20
637.87830670636196
 11
1971.2541420710556
 21
613.32791936813691
  0
LINE
  8
_1-0_
  6
CONTINUOUS
 62
    4
 10
1971.9541420710565
 20
612.62791936813664
 11
1982.7255706424841
 21
612.62791936813664
  0
LINE
  8
_1-0_
  6
CONTINUOUS
 62
    4
 10
1983.3877328046473
 20
613.10089234110955
 11
1984.5165622186896
 21
616.39331146540121
  0
LINE
  8
_1-0_
  6
CONTINUOUS
 62
    4
 10
1984.6174625343765
 20
612.67927071948838
 11
1986.1000880170017
 21
617.00359504381253
  0
LINE
  8
_1-0_
  6
CONTINUOUS
 62
    4
 10
1984.2541420710567
 20
641.62791936813675
 11
1984.2541420710567
 21
646.5279193681365
  0
LINE
  8
_1-0_
  6
CONTINUOUS
 62
    4
 10
1971.554142071056
 20
641.32791936813669
 11
1983.9541420710561
 21
641.32791936813669
  0
LINE
  8
_1-0_
  6
CONTINUOUS
 62
    4
 10
1985.854142071056
 20
640.67753202991127
 11
1985.854142071056
 21
646.5279193681365
  0
LINE
  8
_1-0_
  6
CONTINUOUS
 62
    4
 10
1972.2024869856284
 20
638.87697169130433
 11
1984.9057971564848
 21
639.67886704496913
  0
LINE
  8
_1-0_
  6
CONTINUOUS
 62
    4
 10
1982.7255706424841
 20
611.32791936813669
 11
1971.9541420710565
 21
611.32791936813669
  0
ARC
  8
_1-0_
  6
CONTINUOUS
 62
    4
 10
1971.9541420710565
 20
613.32791936813691
 40
0.6999999999999997
 50
180.00000000000005
 51
270
  0
ARC
  8
_1-0_
  6
CONTINUOUS
 62
    4
 10
1970.4541420710563
 20
655.32791936813714
 40
0.4999999999999997
 50
90
 51
180
  0
ARC
  8
_1-0_
  6
CONTINUOUS
 62
    4
 10
1970.754142071056
 20
655.02791936813673
 40
0.8000000000000001
 50
308.68218745349338
 51
89.999999999999971
  0
ARC
  8
_1-0_
  6
CONTINUOUS
 62
    4
 10
1970.754142071056
 20
646.42791936813659
 40
0.8000000000000001
 50
308.68218745349338
 51
51.317812546506594
  0
ARC
  8
_1-0_
  6
CONTINUOUS
 62
    4
 10
1971.554142071056
 20
641.62791936813675
 40
0.2999999999999998
 50
180.00000000000005
 51
270
  0
ARC
  8
_1-0_
  6
CONTINUOUS
 62
    4
 10
1972.2541420710563
 20
637.87830670636196
 40
0.9999999999999995
 50
92.960936134163787
 51
180.00000000000005
  0
ARC
  8
_1-0_
  6
CONTINUOUS
 62
    4
 10
1985.054142071056
 20
646.5279193681365
 40
0.8000000000000001
 50
0.0000000000000286
 51
179.99999999999997
  0
ARC
  8
_1-0_
  6
CONTINUOUS
 62
    4
 10
1982.7255706424841
 20
613.32791936813691
 40
0.6999999999999997
 50
270
 51
341.07535558395005
  0
ARC
  8
_1-0_
  6
CONTINUOUS
 62
    4
 10
1984.3273730295009
 20
616.45817633026581
 40
0.2
 50
341.07535558394704
 51
46.451037231777071
  0
ARC
  8
_1-0_
  6
CONTINUOUS
 62
    4
 10
1985.1541420710559
 20
617.32791936813669
 40
0.9999999999999995
 50
341.07535558395028
 51
226.4510372317801
  0
ARC
  8
_1-0_
  6
CONTINUOUS
 62
    4
 10
1983.9541420710561
 20
641.62791936813675
 40
0.2999999999999998
 50
270
 51
0
  0
ARC
  8
_1-0_
  6
CONTINUOUS
 62
    4
 10
1984.8541420710562
 20
640.67753202991127
 40
0.9999999999999995
 50
272.96093613416371
 51
359.99999999999988
  0
ARC
  8
_1-0_
  6
CONTINUOUS
 62
    4
 10
1971.9541420710565
 20
613.32791936813691
 40
1.9999999999999995
 50
180.00000000000005
 51
270.00000000000005
  0
ARC
  8
_1-0_
  6
CONTINUOUS
 62
    4
 10
1982.7255706424841
 20
613.32791936813691
 40
1.9999999999999995
 50
270
 51
341.07535558394954
  0
LINE
  8
_1-0_
  6
CONTINUOUS
 62
    7
 10
1952.5541420710551
 20
1211.3279193681369
 11
1952.5541420710551
 21
641.32791936813646
  0
LINE
  8
_1-0_
  6
CONTINUOUS
 62
    2
 10
1890.0541420710551
 20
1211.3279193681369
 11
1890.0541420710551
 21
641.32791936813646
  0
LINE
  8
_0-3_断面__扉
  6
CONTINUOUS
 62
    9
 10
1967.0541420710558
 20
1226.3279193681366
 11
1967.0541420710558
 21
626.32791936813623
  0
LINE
  8
_0-3_断面__扉
  6
CONTINUOUS
 62
    2
 10
2009.5541420710551
 20
641.32791936813623
 11
1985.854142071056
 21
641.32791936813623
  0
LINE
  8
_0-3_断面__扉
  6
CONTINUOUS
 62
    9
 10
1985.854142071056
 20
641.32791936813623
 11
1979.0541420710555
 21
641.32791936813623
  0
LINE
  8
_0-3_断面__扉
  6
CONTINUOUS
 62
    9
 10
1979.0541420710555
 20
1226.3279193681366
 11
1979.0541420710555
 21
639.30948182480676
  0
LINE
  8
_0-3_断面__扉
  6
CONTINUOUS
 62
    2
 10
1979.0541420710555
 20
639.30948182480676
 11
1979.0541420710555
 21
626.32791936813623
  0
LINE
  8
_0-3_断面__扉
  6
CONTINUOUS
 62
    2
 10
2009.5541420710551
 20
626.32791936813623
 11
1971.2541420710556
 21
626.32791936813623
  0
LINE
  8
_0-3_断面__扉
  6
CONTINUOUS
 62
    9
 10
1971.2541420710556
 20
626.32791936813623
 11
1967.0541420710558
 21
626.32791936813623
  0
LINE
  8
_0-3_断面__扉
  6
DASHED1
 62
    2
 10
2513.0541420710555
 20
1211.8279193681364
 11
2009.5541420710551
 21
1211.8279193681364
  0
LINE
  8
_0-3_断面__扉
  6
CONTINUOUS
 62
    2
 10
2009.5541420710551
 20
1211.8279193681364
 11
1983.5541420710558
 21
1211.8279193681364
  0
LINE
  8
_0-3_断面__扉
  6
DASHED1
 62
    2
 10
2513.0541420710555
 20
626.32791936813623
 11
2513.0541420710555
 21
1221.3279193681366
  0
LINE
  8
_0-3_断面__扉
  6
CONTINUOUS
 62
    2
 10
2513.0541420710555
 20
1221.3279193681366
 11
2513.0541420710555
 21
1226.3279193681366
  0
LINE
  8
_0-3_断面__扉
  6
DASHED1
 62
    2
 10
2009.5541420710551
 20
626.32791936813623
 11
2519.5541420710551
 21
626.32791936813623
  0
LINE
  8
_0-3_断面__扉
  6
CONTINUOUS
 62
    4
 10
2519.5541420710551
 20
626.32791936813623
 11
2525.0541420710551
 21
626.32791936813623
  0
LINE
  8
_0-e_仕様欄
  6
CONTINUOUS
 62
    4
 10
2181.1807472885711
 20
353.76587592492143
 11
2181.1807472885711
 21
283.76587592492143
  0
LINE
  8
_0-e_仕様欄
  6
CONTINUOUS
 62
    4
 10
2181.1807472885711
 20
353.76587592492143
 11
2431.1807472885711
 21
353.76587592492143
  0
LINE
  8
_0-e_仕様欄
  6
CONTINUOUS
 62
    4
 10
2431.1807472885711
 20
353.76587592492143
 11
2431.1807472885711
 21
283.76587592492143
  0
LINE
  8
_0-e_仕様欄
  6
CONTINUOUS
 62
    4
 10
2431.1807472885711
 20
283.76587592492143
 11
2181.1807472885711
 21
283.76587592492143
  0
LINE
  8
_0-8_ラッチ立面__受け
  6
PHANTOM2
 62
    4
 10
1575.5541420710555
 20
1871.2586875336055
 11
1575.5541420710555
 21
1971.2586875336055
  0
LINE
  8
_0-8_ラッチ立面__受け
  6
CONTINUOUS
 62
    4
 10
1575.5541420710555
 20
1971.2586875336055
 11
1567.78957071798
 21
1942.2809127449336
  0
LINE
  8
_0-8_ラッチ立面__受け
  6
CONTINUOUS
 62
    4
 10
1575.5541420710555
 20
1971.2586875336055
 11
1583.3187134241313
 21
1942.2809127449336
  0
LINE
  8
_0-8_ラッチ立面__受け
  6
PHANTOM2
 62
    4
 10
2575.0541420710555
 20
1871.2586875336055
 11
2575.0541420710555
 21
1971.2586875336055
  0
LINE
  8
_0-8_ラッチ立面__受け
  6
CONTINUOUS
 62
    4
 10
2575.0541420710555
 20
1971.2586875336055
 11
2567.2895707179804
 21
1942.2809127449336
  0
LINE
  8
_0-8_ラッチ立面__受け
  6
CONTINUOUS
 62
    4
 10
2575.0541420710555
 20
1971.2586875336055
 11
2582.8187134241316
 21
1942.2809127449336
  0
LINE
  8
_0-8_ラッチ立面__受け
  6
PHANTOM2
 62
    4
 10
1575.5541420710555
 20
1871.2586875336055
 11
2575.0541420710555
 21
1871.2586875336055
  0
LINE
  8
_0-8_ラッチ立面__受け
  6
PHANTOM2
 62
    4
 10
2285.8944184884644
 20
1596.2744603287762
 11
2185.8944184884644
 21
1596.2744603287762
  0
LINE
  8
_0-8_ラッチ立面__受け
  6
CONTINUOUS
 62
    4
 10
2185.8944184884644
 20
1596.2744603287762
 11
2214.8721932771368
 21
1588.5098889757005
  0
LINE
  8
_0-8_ラッチ立面__受け
  6
CONTINUOUS
 62
    4
 10
2185.8944184884644
 20
1596.2744603287762
 11
2214.8721932771368
 21
1604.039031681852
  0
LINE
  8
_0-8_ラッチ立面__受け
  6
PHANTOM2
 62
    4
 10
2285.8944184884649
 20
2595.7744603287765
 11
2185.8944184884649
 21
2595.7744603287765
  0
LINE
  8
_0-8_ラッチ立面__受け
  6
CONTINUOUS
 62
    4
 10
2185.8944184884649
 20
2595.7744603287765
 11
2214.8721932771368
 21
2588.0098889757005
  0
LINE
  8
_0-8_ラッチ立面__受け
  6
CONTINUOUS
 62
    4
 10
2185.8944184884649
 20
2595.7744603287765
 11
2214.8721932771368
 21
2603.539031681852
  0
LINE
  8
_0-8_ラッチ立面__受け
  6
PHANTOM2
 62
    4
 10
2285.8944184884644
 20
1596.2744603287762
 11
2285.8944184884644
 21
2595.7744603287765
  0
LINE
  8
_0-8_ラッチ立面__受け
  6
PHANTOM2
 62
    4
 10
2575.0541420710555
 20
2833.846575624289
 11
2575.0541420710555
 21
2733.846575624289
  0
LINE
  8
_0-8_ラッチ立面__受け
  6
CONTINUOUS
 62
    4
 10
2575.0541420710555
 20
2733.846575624289
 11
2567.2895707179804
 21
2762.8243504129613
  0
LINE
  8
_0-8_ラッチ立面__受け
  6
CONTINUOUS
 62
    4
 10
2575.0541420710555
 20
2733.846575624289
 11
2582.8187134241316
 21
2762.8243504129613
  0
TEXT
  8
_0-8_ラッチ立面__受け
 62
    7
 10
1560.5541420710555
 20
1985.2105263157895
 40
35
 41
0.8571428571428568
 50
0
  1
Ａ
  0
TEXT
  8
_0-8_ラッチ立面__受け
 62
    7
 10
2560.0541420710555
 20
1985.2105263157895
 40
35
 41
0.8571428571428568
 50
0
  1
Ａ
  0
TEXT
  8
_0-8_ラッチ立面__受け
 62
    7
 10
2152.6789143667147
 20
2578.274350031706
 40
35
 41
0.8571428571428568
 50
0
  1
Ｂ
  0
TEXT
  8
_0-8_ラッチ立面__受け
 62
    7
 10
2152.6789143667147
 20
1578.7744603287762
 40
35
 41
0.8571428571428568
 50
0
  1
Ｂ
  0
LINE
  8
_0-e_仕様欄
  6
CONTINUOUS
 62
    4
 10
2464.5541420710565
 20
1645.7744603287765
 11
2714.554142071056
 21
1645.7744603287765
  0
LINE
  8
_0-e_仕様欄
  6
CONTINUOUS
 62
    4
 10
2464.5541420710565
 20
1715.7744603287765
 11
2464.5541420710565
 21
1645.7744603287765
  0
LINE
  8
_0-e_仕様欄
  6
CONTINUOUS
 62
    4
 10
2714.554142071056
 20
1715.7744603287765
 11
2464.5541420710565
 21
1715.7744603287765
  0
LINE
  8
_0-e_仕様欄
  6
CONTINUOUS
 62
    4
 10
2714.554142071056
 20
1645.7744603287765
 11
2714.554142071056
 21
1715.7744603287765
  0
TEXT
  8
_0-e_仕様欄
 62
    7
 10
2539.713758436741
 20
1665.7744603287765
 40
30
 41
1
 50
0
  1
平面図
  0
POINT
  8
_0-9_ラッチ断面__受け
 62
    4
 10
2525.054142071056
 20
2655.7744603287765
  0
POINT
  8
_0-9_ラッチ断面__受け
 62
    4
 10
1967.0541420710558
 20
2655.7744603287765
  0
POINT
  8
_0-9_ラッチ断面__受け
 62
    3
 10
1967.0541420710558
 20
2655.7744603287765
  0
POINT
  8
_0-9_ラッチ断面__受け
 62
    3
 10
2525.054142071056
 20
2655.7744603287765
  0
LINE
  8
_0-9_ラッチ断面__受け
  6
CONTINUOUS
 62
    4
 10
1967.0541420710558
 20
2655.7744603287765
 11
2525.054142071056
 21
2655.7744603287765
  0
TEXT
  8
_0-9_ラッチ断面__受け
 62
    7
 10
2212.9541420710556
 20
2660.7744603287765
 40
35
 41
0.6285714285714286
 50
0
  1
５５８
  0
POINT
  8
_0-9_ラッチ断面__受け
 62
    3
 10
1967.0541420710558
 20
2655.7744603287765
  0
POINT
  8
_0-9_ラッチ断面__受け
 62
    3
 10
1625.5541420710555
 20
2655.7744603287765
  0
LINE
  8
_0-9_ラッチ断面__受け
  6
CONTINUOUS
 62
    4
 10
1967.0541420710558
 20
2655.7744603287765
 11
1625.5541420710555
 21
2655.7744603287765
  0
TEXT
  8
_0-9_ラッチ断面__受け
 62
    7
 10
1763.2041420710556
 20
2660.7744603287765
 40
35
 41
0.6285714285714286
 50
0
  1
３４２
  0
LINE
  8
_0-9_ラッチ断面__受け
  6
CONTINUOUS
 62
    4
 10
1625.5541420710555
 20
2665.7744603287765
 11
1625.5541420710555
 21
2575.7744603287765
  0
LINE
  8
_0-9_ラッチ断面__受け
  6
CONTINUOUS
 62
    4
 10
2525.054142071056
 20
2665.7744603287765
 11
2525.054142071056
 21
2575.7744603287765
  0
LINE
  8
_0-9_ラッチ断面__受け
  6
CONTINUOUS
 62
    4
 10
1967.0541420710558
 20
2665.7744603287765
 11
1967.0541420710558
 21
2575.7744603287765
  0
LINE
  8
_0-9_ラッチ断面__受け
  6
CONTINUOUS
 62
    4
 10
1967.0541420710558
 20
2665.7744603287765
 11
1967.0541420710558
 21
2575.7744603287765
  0
POINT
  8
_0-9_ラッチ断面__受け
 62
    3
 10
2525.054142071056
 20
2735.7744603287765
  0
POINT
  8
_0-9_ラッチ断面__受け
 62
    3
 10
1625.5541420710555
 20
2735.7744603287765
  0
LINE
  8
_0-9_ラッチ断面__受け
  6
CONTINUOUS
 62
    4
 10
2525.054142071056
 20
2745.7744603287765
 11
2525.054142071056
 21
2575.7744603287765
  0
LINE
  8
_0-9_ラッチ断面__受け
  6
CONTINUOUS
 62
    4
 10
1625.5541420710555
 20
2745.7744603287765
 11
1625.5541420710555
 21
2575.7744603287765
  0
LINE
  8
_0-9_ラッチ断面__受け
  6
CONTINUOUS
 62
    4
 10
2525.054142071056
 20
2735.7744603287765
 11
1625.5541420710555
 21
2735.7744603287765
  0
TEXT
  8
_0-9_ラッチ断面__受け
 62
    7
 10
2042.2041420710559
 20
2740.7744603287765
 40
35
 41
0.6285714285714286
 50
0
  1
９００
  0
POINT
  8
_0-9_ラッチ断面__受け
 62
    3
 10
1165.6434116402101
 20
2735.7744603287765
  0
POINT
  8
_0-9_ラッチ断面__受け
 62
    3
 10
265.64341164021016
 20
2735.7744603287765
  0
LINE
  8
_0-9_ラッチ断面__受け
  6
CONTINUOUS
 62
    4
 10
1165.6434116402101
 20
2745.7744603287765
 11
1165.6434116402101
 21
2575.7744603287765
  0
LINE
  8
_0-9_ラッチ断面__受け
  6
CONTINUOUS
 62
    4
 10
265.64341164021016
 20
2745.7744603287765
 11
265.64341164021016
 21
2575.7744603287765
  0
LINE
  8
_0-9_ラッチ断面__受け
  6
CONTINUOUS
 62
    4
 10
1165.6434116402101
 20
2735.7744603287765
 11
265.64341164021016
 21
2735.7744603287765
  0
TEXT
  8
_0-9_ラッチ断面__受け
 62
    7
 10
682.54341164021013
 20
2740.7744603287765
 40
35
 41
0.6285714285714286
 50
0
  1
９００
  0
LINE
  8
_0-3_断面__扉
  6
CONTINUOUS
 62
    5
 10
265.64341164021016
 20
1226.3279193681369
 11
265.64341164021016
 21
626.32791936813646
  0
LINE
  8
_0-3_断面__扉
  6
CONTINUOUS
 62
    5
 10
277.64341164021004
 20
1226.3279193681369
 11
277.64341164021004
 21
626.32791936813646
  0
POINT
  8
_0-9_ラッチ断面__受け
 62
    4
 10
265.64341164021016
 20
1416.3279193681366
  0
LINE
  8
_0-9_ラッチ断面__受け
  6
CONTINUOUS
 62
    4
 10
265.64341164021016
 20
1426.3279193681366
 11
265.64341164021016
 21
1256.3279193681364
  0
POINT
  8
_0-9_ラッチ断面__受け
 62
    3
 10
145.22490813907154
 20
1226.3279193681369
  0
POINT
  8
_0-9_ラッチ断面__受け
 62
    3
 10
145.22490813907154
 20
1141.3279193681369
  0
LINE
  8
_0-9_ラッチ断面__受け
  6
CONTINUOUS
 62
    4
 10
135.22490813907154
 20
1226.3279193681369
 11
235.64341164021016
 21
1226.3279193681369
  0
LINE
  8
_0-9_ラッチ断面__受け
  6
CONTINUOUS
 62
    4
 10
135.22490813907154
 20
1141.3279193681369
 11
235.64341164021016
 21
1141.3279193681369
  0
LINE
  8
_0-9_ラッチ断面__受け
  6
CONTINUOUS
 62
    4
 10
145.22490813907154
 20
1226.3279193681369
 11
145.22490813907154
 21
1141.3279193681369
  0
TEXT
  8
_0-9_ラッチ断面__受け
 62
    7
 10
140.22490813907154
 20
1161.7779193681369
 40
35
 41
0.6285714285714286
 50
90
  1
８５
  0
POINT
  8
_0-9_ラッチ断面__受け
 62
    3
 10
145.22490813907154
 20
678.32791936813669
  0
POINT
  8
_0-9_ラッチ断面__受け
 62
    3
 10
145.22490813907154
 20
633.32791936813634
  0
LINE
  8
_0-9_ラッチ断面__受け
  6
CONTINUOUS
 62
    4
 10
135.22490813907154
 20
678.32791936813669
 11
235.64341164021016
 21
678.32791936813669
  0
LINE
  8
_0-9_ラッチ断面__受け
  6
CONTINUOUS
 62
    4
 10
135.22490813907154
 20
633.32791936813634
 11
235.64341164021016
 21
633.32791936813634
  0
LINE
  8
_0-9_ラッチ断面__受け
  6
CONTINUOUS
 62
    4
 10
145.22490813907154
 20
678.32791936813669
 11
145.22490813907154
 21
633.32791936813634
  0
TEXT
  8
_0-9_ラッチ断面__受け
 62
    7
 10
140.22490813907154
 20
580.74824627947259
 40
35
 41
0.6285714285714286
 50
90
  1
４５
  0
LINE
  8
_0-9_ラッチ断面__受け
  6
CONTINUOUS
 62
    4
 10
145.22490813907154
 20
633.32791936813634
 11
145.22490813907154
 21
583.24314158491176
  0
POINT
  8
_0-9_ラッチ断面__受け
 62
    4
 10
277.64341164021004
 20
436.32791936813646
  0
LINE
  8
_0-9_ラッチ断面__受け
  6
CONTINUOUS
 62
    4
 10
277.64341164021004
 20
426.32791936813646
 11
277.64341164021004
 21
596.32791936813646
  0
POINT
  8
_0-9_ラッチ断面__受け
 62
    4
 10
823.6434116402097
 20
1416.3279193681366
  0
LINE
  8
_0-9_ラッチ断面__受け
  6
CONTINUOUS
 62
    4
 10
823.6434116402097
 20
1426.3279193681366
 11
823.6434116402097
 21
1256.3279193681364
  0
POINT
  8
_0-9_ラッチ断面__受け
 62
    4
 10
811.64341164021038
 20
436.32791936813646
  0
LINE
  8
_0-9_ラッチ断面__受け
  6
CONTINUOUS
 62
    4
 10
811.64341164021038
 20
426.32791936813646
 11
811.64341164021038
 21
596.32791936813646
  0
LINE
  8
_0-3_断面__扉
  6
CONTINUOUS
 62
    5
 10
811.64341164021038
 20
1226.3279193681369
 11
811.64341164021038
 21
626.32791936813646
  0
LINE
  8
_0-3_断面__扉
  6
CONTINUOUS
 62
    5
 10
823.6434116402097
 20
1226.3279193681369
 11
823.6434116402097
 21
626.32791936813646
  0
LINE
  8
_0-3_断面__扉
  6
CONTINUOUS
 62
    5
 10
265.64341164021016
 20
1226.3279193681369
 11
823.6434116402097
 21
1226.3279193681369
  0
LINE
  8
_0-3_断面__扉
  6
CONTINUOUS
 62
    2
 10
277.64341164021004
 20
1141.3279193681369
 11
811.64341164021038
 21
1141.3279193681369
  0
LINE
  8
_0-3_断面__扉
  6
CONTINUOUS
 62
    2
 10
277.64341164021004
 20
678.32791936813669
 11
811.64341164021038
 21
678.32791936813669
  0
LINE
  8
_0-3_断面__扉
  6
CONTINUOUS
 62
    4
 10
277.64341164021004
 20
633.32791936813634
 11
811.64341164021038
 21
633.32791936813634
  0
LINE
  8
_0-3_断面__扉
  6
CONTINUOUS
 62
    5
 10
265.64341164021016
 20
626.32791936813646
 11
823.6434116402097
 21
626.32791936813646
  0
LINE
  8
_0-a_ラッチ平面受け
  6
CONTINUOUS
 62
    4
 10
806.77517427497718
 20
1141.3279193681339
 11
811.64341164021266
 21
1146.1961567333698
  0
LINE
  8
_0-a_ラッチ平面受け
  6
CONTINUOUS
 62
    4
 10
778.49090302752756
 20
1141.3279193681328
 11
811.6434116402155
 21
1174.4804279808208
  0
LINE
  8
_0-a_ラッチ平面受け
  6
CONTINUOUS
 62
    4
 10
750.20663178006316
 20
1141.3279193681353
 11
811.64341164021379
 21
1202.7646992282857
  0
LINE
  8
_0-a_ラッチ平面受け
  6
CONTINUOUS
 62
    4
 10
721.92236053259364
 20
1141.3279193681328
 11
806.92236053259648
 21
1226.3279193681355
  0
LINE
  8
_0-a_ラッチ平面受け
  6
CONTINUOUS
 62
    4
 10
693.6380892851298
 20
1141.3279193681353
 11
778.63808928513208
 21
1226.3279193681378
  0
LINE
  8
_0-a_ラッチ平面受け
  6
CONTINUOUS
 62
    4
 10
665.35381803768018
 20
1141.3279193681339
 11
750.35381803767734
 21
1226.3279193681314
  0
LINE
  8
_0-a_ラッチ平面受け
  6
CONTINUOUS
 62
    4
 10
637.06954679021578
 20
1141.3279193681364
 11
722.0695467902135
 21
1226.3279193681339
  0
LINE
  8
_0-a_ラッチ平面受け
  6
CONTINUOUS
 62
    4
 10
608.78527554274626
 20
1141.3279193681339
 11
693.7852755427491
 21
1226.3279193681366
  0
LINE
  8
_0-a_ラッチ平面受け
  6
CONTINUOUS
 62
    4
 10
580.50100429528242
 20
1141.3279193681364
 11
665.50100429528527
 21
1226.3279193681391
  0
LINE
  8
_0-a_ラッチ平面受け
  6
CONTINUOUS
 62
    4
 10
552.2167330478328
 20
1141.327919368135
 11
637.21673304782996
 21
1226.3279193681323
  0
LINE
  8
_0-a_ラッチ平面受け
  6
CONTINUOUS
 62
    4
 10
523.9324618003684
 20
1141.3279193681378
 11
608.93246180036612
 21
1226.327919368135
  0
LINE
  8
_0-a_ラッチ平面受け
  6
CONTINUOUS
 62
    4
 10
495.64819055289888
 20
1141.327919368135
 11
580.64819055290172
 21
1226.3279193681378
  0
LINE
  8
_0-a_ラッチ平面受け
  6
CONTINUOUS
 62
    4
 10
467.36391930543504
 20
1141.3279193681376
 11
552.36391930543277
 21
1226.327919368135
  0
LINE
  8
_0-a_ラッチ平面受け
  6
CONTINUOUS
 62
    4
 10
439.07964805798542
 20
1141.3279193681362
 11
524.07964805798258
 21
1226.3279193681339
  0
LINE
  8
_0-a_ラッチ平面受け
  6
CONTINUOUS
 62
    4
 10
410.79537681052102
 20
1141.3279193681389
 11
495.79537681051874
 21
1226.3279193681364
  0
LINE
  8
_0-a_ラッチ平面受け
  6
CONTINUOUS
 62
    4
 10
382.5111055630515
 20
1141.3279193681362
 11
467.51110556305434
 21
1226.3279193681389
  0
LINE
  8
_0-a_ラッチ平面受け
  6
CONTINUOUS
 62
    4
 10
354.22683431560244
 20
1141.3279193681357
 11
439.2268343156013
 21
1226.3279193681339
  0
LINE
  8
_0-a_ラッチ平面受け
  6
CONTINUOUS
 62
    4
 10
325.94256306813804
 20
1141.3279193681373
 11
410.94256306813576
 21
1226.327919368135
  0
LINE
  8
_0-a_ラッチ平面受け
  6
CONTINUOUS
 62
    4
 10
297.65829182066852
 20
1141.3279193681346
 11
382.65829182067136
 21
1226.3279193681376
  0
LINE
  8
_0-a_ラッチ平面受け
  6
CONTINUOUS
 62
    4
 10
277.64341164020947
 20
1149.5973104351421
 11
354.37402057320696
 21
1226.3279193681401
  0
LINE
  8
_0-a_ラッチ平面受け
  6
CONTINUOUS
 62
    4
 10
277.64341164021175
 20
1177.8815816825933
 11
326.08974932575222
 21
1226.3279193681337
  0
LINE
  8
_0-a_ラッチ平面受け
  6
CONTINUOUS
 62
    4
 10
277.64341164021004
 20
1206.1658529300582
 11
297.80547807828838
 21
1226.3279193681362
  0
LINE
  8
_0-a_ラッチ平面受け
  6
CONTINUOUS
 62
    4
 10
807.89205672930734
 20
633.32791936813669
 11
811.64341164021038
 21
637.07927427903973
  0
LINE
  8
_0-a_ラッチ平面受け
  6
CONTINUOUS
 62
    4
 10
779.60778548184293
 20
633.32791936813919
 11
811.64341164020925
 21
665.36354552650527
  0
LINE
  8
_0-a_ラッチ平面受け
  6
CONTINUOUS
 62
    4
 10
751.32351423437341
 20
633.32791936813669
 11
796.32351423437683
 21
678.32791936813976
  0
LINE
  8
_0-a_ラッチ平面受け
  6
CONTINUOUS
 62
    4
 10
723.03924298690958
 20
633.32791936813919
 11
768.03924298690731
 21
678.32791936813714
  0
LINE
  8
_0-a_ラッチ平面受け
  6
CONTINUOUS
 62
    4
 10
694.75497173945996
 20
633.32791936813782
 11
739.75497173945768
 21
678.32791936813578
  0
LINE
  8
_0-a_ラッチ平面受け
  6
CONTINUOUS
 62
    4
 10
666.47070049199044
 20
633.32791936813521
 11
711.47070049199328
 21
678.32791936813828
  0
LINE
  8
_0-a_ラッチ平面受け
  6
CONTINUOUS
 62
    4
 10
638.18642924452603
 20
633.32791936813782
 11
683.18642924452944
 21
678.32791936814123
  0
LINE
  8
_0-a_ラッチ平面受け
  6
CONTINUOUS
 62
    4
 10
609.9021579970622
 20
633.32791936814032
 11
654.90215799705993
 21
678.32791936813828
  0
LINE
  8
_0-a_ラッチ平面受け
  6
CONTINUOUS
 62
    4
 10
581.61788674961258
 20
633.32791936813896
 11
626.6178867496103
 21
678.32791936813714
  0
LINE
  8
_0-a_ラッチ平面受け
  6
CONTINUOUS
 62
    4
 10
553.33361550214306
 20
633.32791936813634
 11
598.33361550214647
 21
678.32791936813976
  0
LINE
  8
_0-a_ラッチ平面受け
  6
CONTINUOUS
 62
    4
 10
525.04934425467922
 20
633.32791936813896
 11
570.04934425468206
 21
678.32791936814237
  0
LINE
  8
_0-a_ラッチ平面受け
  6
CONTINUOUS
 62
    4
 10
496.76507300722448
 20
633.32791936814203
 11
541.76507300722278
 21
678.32791936814032
  0
LINE
  8
_0-a_ラッチ平面受け
  6
CONTINUOUS
 62
    4
 10
468.48080175976519
 20
633.3279193681401
 11
513.48080175976292
 21
678.32791936813828
  0
LINE
  8
_0-a_ラッチ平面受け
  6
CONTINUOUS
 62
    4
 10
440.19653051229568
 20
633.32791936813748
 11
485.19653051229909
 21
678.32791936814089
  0
LINE
  8
_0-a_ラッチ平面受け
  6
CONTINUOUS
 62
    4
 10
411.91225926483184
 20
633.3279193681401
 11
456.91225926482957
 21
678.32791936813805
  0
LINE
  8
_0-a_ラッチ平面受け
  6
CONTINUOUS
 62
    4
 10
383.62798801738279
 20
633.32791936813976
 11
428.62798801738108
 21
678.32791936813828
  0
LINE
  8
_0-a_ラッチ平面受け
  6
CONTINUOUS
 62
    4
 10
355.34371676991781
 20
633.32791936814146
 11
400.34371676991554
 21
678.32791936813941
  0
LINE
  8
_0-a_ラッチ平面受け
  6
CONTINUOUS
 62
    4
 10
327.05944552244829
 20
633.32791936813862
 11
372.05944552245171
 21
678.32791936814203
  0
LINE
  8
_0-a_ラッチ平面受け
  6
CONTINUOUS
 62
    4
 10
298.77517427498446
 20
633.32791936814123
 11
343.77517427498219
 21
678.32791936813919
  0
LINE
  8
_0-a_ラッチ平面受け
  6
CONTINUOUS
 62
    4
 10
277.64341164020663
 20
640.48042798081246
 11
315.49090302753256
 21
678.32791936813805
  0
LINE
  8
_0-a_ラッチ平面受け
  6
CONTINUOUS
 62
    4
 10
277.64341164020549
 20
668.76469922827766
 11
287.20663178006816
 21
678.32791936814055
  0
POINT
  8
_0-9_ラッチ断面__受け
 62
    3
 10
265.64341164021016
 20
1416.3279193681366
  0
POINT
  8
_0-9_ラッチ断面__受け
 62
    3
 10
823.6434116402097
 20
1416.3279193681366
  0
LINE
  8
_0-9_ラッチ断面__受け
  6
CONTINUOUS
 62
    4
 10
265.64341164021016
 20
1416.3279193681366
 11
823.6434116402097
 21
1416.3279193681366
  0
TEXT
  8
_0-9_ラッチ断面__受け
 62
    7
 10
511.54341164020991
 20
1421.3279193681366
 40
35
 41
0.6285714285714286
 50
0
  1
５５８
  0
POINT
  8
_0-9_ラッチ断面__受け
 62
    3
 10
277.64341164021004
 20
436.32791936813646
  0
POINT
  8
_0-9_ラッチ断面__受け
 62
    3
 10
811.64341164021038
 20
436.32791936813646
  0
LINE
  8
_0-9_ラッチ断面__受け
  6
CONTINUOUS
 62
    4
 10
277.64341164021004
 20
436.32791936813646
 11
811.64341164021038
 21
436.32791936813646
  0
TEXT
  8
_0-9_ラッチ断面__受け
 62
    7
 10
511.54341164021019
 20
441.32791936813646
 40
35
 41
0.6285714285714286
 50
0
  1
５３４
  0
POINT
  8
_0-9_ラッチ断面__受け
 62
    3
 10
145.22490813907154
 20
2545.7744603287765
  0
POINT
  8
_0-9_ラッチ断面__受け
 62
    3
 10
145.22490813907154
 20
2460.7744603287765
  0
LINE
  8
_0-9_ラッチ断面__受け
  6
CONTINUOUS
 62
    4
 10
135.22490813907154
 20
2545.7744603287765
 11
235.64341164021016
 21
2545.7744603287765
  0
LINE
  8
_0-9_ラッチ断面__受け
  6
CONTINUOUS
 62
    4
 10
135.22490813907154
 20
2460.7744603287765
 11
235.64341164021016
 21
2460.7744603287765
  0
LINE
  8
_0-9_ラッチ断面__受け
  6
CONTINUOUS
 62
    4
 10
145.22490813907154
 20
2545.7744603287765
 11
145.22490813907154
 21
2460.7744603287765
  0
TEXT
  8
_0-9_ラッチ断面__受け
 62
    7
 10
140.22490813907154
 20
2481.2244603287763
 40
35
 41
0.6285714285714286
 50
90
  1
８５
  0
POINT
  8
_0-9_ラッチ断面__受け
 62
    3
 10
145.22490813907154
 20
1997.774460328776
  0
POINT
  8
_0-9_ラッチ断面__受け
 62
    3
 10
145.22490813907154
 20
1952.774460328776
  0
LINE
  8
_0-9_ラッチ断面__受け
  6
CONTINUOUS
 62
    4
 10
135.22490813907154
 20
1997.774460328776
 11
235.64341164021016
 21
1997.774460328776
  0
LINE
  8
_0-9_ラッチ断面__受け
  6
CONTINUOUS
 62
    4
 10
135.22490813907154
 20
1952.774460328776
 11
235.64341164021016
 21
1952.774460328776
  0
LINE
  8
_0-9_ラッチ断面__受け
  6
CONTINUOUS
 62
    4
 10
145.22490813907154
 20
1997.774460328776
 11
145.22490813907154
 21
1952.774460328776
  0
TEXT
  8
_0-9_ラッチ断面__受け
 62
    7
 10
140.22490813907154
 20
1901.5107476635514
 40
35
 41
0.6285714285714286
 50
90
  1
４５
  0
LINE
  8
_0-9_ラッチ断面__受け
  6
CONTINUOUS
 62
    4
 10
145.22490813907154
 20
1952.774460328776
 11
145.22490813907154
 21
1898.2507378258731
  0
POINT
  8
_0-9_ラッチ断面__受け
 62
    3
 10
1435.5541420710555
 20
2545.7744603287765
  0
POINT
  8
_0-9_ラッチ断面__受け
 62
    3
 10
1435.5541420710555
 20
1645.7744603287765
  0
LINE
  8
_0-9_ラッチ断面__受け
  6
CONTINUOUS
 62
    4
 10
1425.5541420710555
 20
2545.7744603287765
 11
1595.5541420710555
 21
2545.7744603287765
  0
LINE
  8
_0-9_ラッチ断面__受け
  6
CONTINUOUS
 62
    4
 10
1425.5541420710555
 20
1645.7744603287765
 11
1595.5541420710555
 21
1645.7744603287765
  0
LINE
  8
_0-9_ラッチ断面__受け
  6
CONTINUOUS
 62
    4
 10
1435.5541420710555
 20
2545.7744603287765
 11
1435.5541420710555
 21
1645.7744603287765
  0
TEXT
  8
_0-9_ラッチ断面__受け
 62
    7
 10
1430.5541420710555
 20
2062.6744603287766
 40
35
 41
0.6285714285714286
 50
90
  1
９００
  0
LINE
  8
_0-8_ラッチ立面__受け
  6
PHANTOM2
 62
    4
 10
1335.554142071056
 20
1596.2744603287762
 11
1435.554142071056
 21
1596.2744603287762
  0
LINE
  8
_0-8_ラッチ立面__受け
  6
CONTINUOUS
 62
    4
 10
1435.554142071056
 20
1596.2744603287762
 11
1406.5763672823841
 21
1588.5098889757005
  0
LINE
  8
_0-8_ラッチ立面__受け
  6
CONTINUOUS
 62
    4
 10
1435.554142071056
 20
1596.2744603287762
 11
1406.5763672823841
 21
1604.039031681852
  0
LINE
  8
_0-8_ラッチ立面__受け
  6
PHANTOM2
 62
    4
 10
1335.5541420710555
 20
2595.7744603287765
 11
1435.5541420710555
 21
2595.7744603287765
  0
LINE
  8
_0-8_ラッチ立面__受け
  6
CONTINUOUS
 62
    4
 10
1435.5541420710555
 20
2595.7744603287765
 11
1406.5763672823841
 21
2588.0098889757005
  0
LINE
  8
_0-8_ラッチ立面__受け
  6
CONTINUOUS
 62
    4
 10
1435.5541420710555
 20
2595.7744603287765
 11
1406.5763672823841
 21
2603.539031681852
  0
LINE
  8
_0-8_ラッチ立面__受け
  6
PHANTOM2
 62
    4
 10
1335.5541420710555
 20
1596.2744603287762
 11
1335.5541420710555
 21
2595.7744603287765
  0
TEXT
  8
_0-8_ラッチ立面__受け
 62
    7
 10
1440.174782375117
 20
2578.274350031706
 40
35
 41
0.8571428571428568
 50
0
  1
Ｄ
  0
TEXT
  8
_0-8_ラッチ立面__受け
 62
    7
 10
1440.174782375117
 20
1578.7744603287762
 40
35
 41
0.8571428571428568
 50
0
  1
Ｄ
  0
POINT
  8
_0-9_ラッチ断面__受け
 62
    3
 10
2841.3603224007183
 20
436.32791936813646
  0
POINT
  8
_0-9_ラッチ断面__受け
 62
    3
 10
3351.3603224007183
 20
436.32791936813646
  0
LINE
  8
_0-9_ラッチ断面__受け
  6
CONTINUOUS
 62
    4
 10
2841.3603224007183
 20
426.32791936813646
 11
2841.3603224007183
 21
596.32791936813646
  0
LINE
  8
_0-9_ラッチ断面__受け
  6
CONTINUOUS
 62
    4
 10
3351.3603224007183
 20
426.32791936813646
 11
3351.3603224007183
 21
596.32791936813646
  0
LINE
  8
_0-9_ラッチ断面__受け
  6
CONTINUOUS
 62
    4
 10
2841.3603224007183
 20
436.32791936813646
 11
3351.3603224007183
 21
436.32791936813646
  0
TEXT
  8
_0-9_ラッチ断面__受け
 62
    7
 10
3063.2603224007189
 20
441.32791936813646
 40
35
 41
0.6285714285714286
 50
0
  1
５１０
  0
POINT
  8
_0-9_ラッチ断面__受け
 62
    3
 10
1515.5541420710555
 20
626.32791936813657
  0
POINT
  8
_0-9_ラッチ断面__受け
 62
    3
 10
1515.5541420710555
 20
806.32791936813657
  0
LINE
  8
_0-9_ラッチ断面__受け
  6
CONTINUOUS
 62
    4
 10
1505.5541420710555
 20
626.32791936813657
 11
1595.5541420710555
 21
626.32791936813657
  0
LINE
  8
_0-9_ラッチ断面__受け
  6
CONTINUOUS
 62
    4
 10
1505.5541420710555
 20
806.32791936813657
 11
1595.5541420710555
 21
806.32791936813657
  0
LINE
  8
_0-9_ラッチ断面__受け
  6
CONTINUOUS
 62
    4
 10
1515.5541420710555
 20
626.32791936813657
 11
1515.5541420710555
 21
806.32791936813657
  0
TEXT
  8
_0-9_ラッチ断面__受け
 62
    7
 10
1510.5541420710555
 20
683.22791936813655
 40
35
 41
0.6285714285714286
 50
90
  1
１８０
  0
POINT
  8
_0-9_ラッチ断面__受け
 62
    3
 10
1515.5541420710555
 20
866.32791936813657
  0
LINE
  8
_0-9_ラッチ断面__受け
  6
CONTINUOUS
 62
    4
 10
1505.5541420710555
 20
866.32791936813657
 11
1595.5541420710555
 21
866.32791936813657
  0
LINE
  8
_0-9_ラッチ断面__受け
  6
CONTINUOUS
 62
    4
 10
1515.5541420710555
 20
806.32791936813657
 11
1515.5541420710555
 21
866.32791936813657
  0
TEXT
  8
_0-9_ラッチ断面__受け
 62
    7
 10
1510.5541420710555
 20
814.27791936813662
 40
35
 41
0.6285714285714286
 50
90
  1
６０
  0
POINT
  8
_0-9_ラッチ断面__受け
 62
    3
 10
1515.5541420710555
 20
926.32791936813657
  0
LINE
  8
_0-9_ラッチ断面__受け
  6
CONTINUOUS
 62
    4
 10
1505.5541420710555
 20
926.32791936813657
 11
1595.5541420710555
 21
926.32791936813657
  0
LINE
  8
_0-9_ラッチ断面__受け
  6
CONTINUOUS
 62
    4
 10
1515.5541420710555
 20
866.32791936813657
 11
1515.5541420710555
 21
926.32791936813657
  0
TEXT
  8
_0-9_ラッチ断面__受け
 62
    7
 10
1510.5541420710555
 20
874.27791936813662
 40
35
 41
0.6285714285714286
 50
90
  1
６０
  0
POINT
  8
_0-9_ラッチ断面__受け
 62
    3
 10
1515.5541420710555
 20
986.32791936813657
  0
LINE
  8
_0-9_ラッチ断面__受け
  6
CONTINUOUS
 62
    4
 10
1505.5541420710555
 20
986.32791936813657
 11
1595.5541420710555
 21
986.32791936813657
  0
LINE
  8
_0-9_ラッチ断面__受け
  6
CONTINUOUS
 62
    4
 10
1515.5541420710555
 20
926.32791936813657
 11
1515.5541420710555
 21
986.32791936813657
  0
TEXT
  8
_0-9_ラッチ断面__受け
 62
    7
 10
1510.5541420710555
 20
934.27791936813662
 40
35
 41
0.6285714285714286
 50
89.999999999999914
  1
６０
  0
POINT
  8
_0-9_ラッチ断面__受け
 62
    3
 10
1515.5541420710555
 20
1046.3279193681366
  0
LINE
  8
_0-9_ラッチ断面__受け
  6
CONTINUOUS
 62
    4
 10
1505.5541420710555
 20
1046.3279193681366
 11
1595.5541420710555
 21
1046.3279193681366
  0
LINE
  8
_0-9_ラッチ断面__受け
  6
CONTINUOUS
 62
    4
 10
1515.5541420710555
 20
986.32791936813657
 11
1515.5541420710555
 21
1046.3279193681366
  0
TEXT
  8
_0-9_ラッチ断面__受け
 62
    7
 10
1510.5541420710555
 20
994.27791936813662
 40
35
 41
0.6285714285714286
 50
90
  1
６０
  0
POINT
  8
_0-9_ラッチ断面__受け
 62
    3
 10
1435.5541420710555
 20
626.32791936813657
  0
POINT
  8
_0-9_ラッチ断面__受け
 62
    3
 10
1435.5541420710555
 20
1226.3279193681369
  0
LINE
  8
_0-9_ラッチ断面__受け
  6
CONTINUOUS
 62
    4
 10
1425.5541420710555
 20
626.32791936813657
 11
1595.5541420710555
 21
626.32791936813657
  0
LINE
  8
_0-9_ラッチ断面__受け
  6
CONTINUOUS
 62
    4
 10
1425.5541420710555
 20
1226.3279193681369
 11
1595.5541420710555
 21
1226.3279193681369
  0
LINE
  8
_0-9_ラッチ断面__受け
  6
CONTINUOUS
 62
    4
 10
1435.5541420710555
 20
626.32791936813657
 11
1435.5541420710555
 21
1226.3279193681369
  0
TEXT
  8
_0-9_ラッチ断面__受け
 62
    7
 10
1430.5541420710555
 20
893.22791936813678
 40
35
 41
0.6285714285714286
 50
90
  1
６００
  0
POINT
  8
_0-9_ラッチ断面__受け
 62
    3
 10
1871.554142071056
 20
999.16574925886175
  0
POINT
  8
_0-9_ラッチ断面__受け
 62
    3
 10
1643.0541420710555
 20
999.16574925886175
  0
LINE
  8
_0-9_ラッチ断面__受け
  6
CONTINUOUS
 62
    4
 10
1871.554142071056
 20
1009.1657492588617
 11
1871.554142071056
 21
969.16574925886175
  0
LINE
  8
_0-9_ラッチ断面__受け
  6
CONTINUOUS
 62
    4
 10
1643.0541420710555
 20
1009.1657492588617
 11
1643.0541420710555
 21
969.16574925886175
  0
LINE
  8
_0-9_ラッチ断面__受け
  6
CONTINUOUS
 62
    4
 10
1871.554142071056
 20
999.16574925886175
 11
1643.0541420710555
 21
999.16574925886175
  0
TEXT
  8
_0-9_ラッチ断面__受け
 62
    7
 10
1724.1968765371373
 20
1004.1657492588617
 40
35
 41
0.6285714285714286
 50
0
  1
２２９
  0
LINE
  8
_0-8_ラッチ立面__受け
  6
PHANTOM2
 62
    4
 10
1967.0541420710558
 20
2833.846575624289
 11
1967.0541420710558
 21
2733.846575624289
  0
LINE
  8
_0-8_ラッチ立面__受け
  6
CONTINUOUS
 62
    4
 10
1967.0541420710558
 20
2733.846575624289
 11
1959.28957071798
 21
2762.8243504129613
  0
LINE
  8
_0-8_ラッチ立面__受け
  6
CONTINUOUS
 62
    4
 10
1967.0541420710558
 20
2733.846575624289
 11
1974.8187134241313
 21
2762.8243504129613
  0
TEXT
  8
_0-8_ラッチ立面__受け
 62
    7
 10
1951.8720391328736
 20
2690.9988467706666
 40
35
 41
0.8571428571428568
 50
0
  1
Ｃ
  0
LINE
  8
_0-8_ラッチ立面__受け
  6
PHANTOM2
 62
    4
 10
1967.0541420710558
 20
2833.846575624289
 11
2575.0541420710555
 21
2833.846575624289
  0
TEXT
  8
_0-e_仕様欄
 62
    7
 10
2203.6807472885711
 20
303.76587592492143
 40
30
 41
1
 50
0
  1
Ａ－Ａ断面図
  0
TEXT
  8
_0-e_仕様欄
 62
    7
 10
3456.5580840030838
 20
303.67641101244174
 40
30
 41
1
 50
0
  1
Ｂ－Ｂ断面図
  0
LINE
  8
_0-e_仕様欄
  6
CONTINUOUS
 62
    4
 10
890.64341164021016
 20
1728.3857907033939
 11
890.64341164021016
 21
1658.3857907033939
  0
LINE
  8
_0-e_仕様欄
  6
CONTINUOUS
 62
    4
 10
540.64341164021016
 20
1728.3857907033939
 11
540.64341164021016
 21
1658.3857907033939
  0
LINE
  8
_0-e_仕様欄
  6
CONTINUOUS
 62
    4
 10
540.64341164021016
 20
1728.3857907033939
 11
890.64341164021016
 21
1728.3857907033939
  0
LINE
  8
_0-e_仕様欄
  6
CONTINUOUS
 62
    4
 10
540.64341164021016
 20
1658.3857907033939
 11
890.64341164021016
 21
1658.3857907033939
  0
TEXT
  8
_0-e_仕様欄
 62
    7
 10
565.19341164020943
 20
1675.8857907033939
 40
35
 41
0.8571428571428568
 50
0
  1
背面図（矢視Ｄ－Ｄ）
  0
LINE
  8
_0-e_仕様欄
  6
CONTINUOUS
 62
    4
 10
719.64341164020993
 20
373.57894736842126
 11
719.64341164020993
 21
303.57894736842126
  0
LINE
  8
_0-e_仕様欄
  6
CONTINUOUS
 62
    4
 10
369.64341164020993
 20
373.57894736842126
 11
369.64341164020993
 21
303.57894736842126
  0
LINE
  8
_0-e_仕様欄
  6
CONTINUOUS
 62
    4
 10
369.64341164020993
 20
373.57894736842126
 11
719.64341164020993
 21
373.57894736842126
  0
LINE
  8
_0-e_仕様欄
  6
CONTINUOUS
 62
    4
 10
369.64341164020993
 20
303.57894736842126
 11
719.64341164020993
 21
303.57894736842126
  0
TEXT
  8
_0-e_仕様欄
 62
    7
 10
394.1934116402092
 20
321.07894736842126
 40
35
 41
0.8571428571428568
 50
0
  1
背面図（矢視Ｃ－Ｃ）
  0
LINE
  8
_0-9_ラッチ断面__受け
  6
CONTINUOUS
 62
    4
 10
2525.054142071056
 20
1426.3279193681364
 11
2525.054142071056
 21
1256.3279193681366
  0
POINT
  8
_0-9_ラッチ断面__受け
 62
    3
 10
3377.8603224007179
 20
1416.3279193681369
  0
POINT
  8
_0-9_ラッチ断面__受け
 62
    3
 10
3735.8603224007174
 20
1416.3279193681369
  0
LINE
  8
_0-9_ラッチ断面__受け
  6
CONTINUOUS
 62
    4
 10
3377.8603224007179
 20
1426.3279193681369
 11
3377.8603224007179
 21
1256.3279193681369
  0
LINE
  8
_0-9_ラッチ断面__受け
  6
CONTINUOUS
 62
    4
 10
3735.8603224007174
 20
1426.3279193681369
 11
3735.8603224007174
 21
1256.3279193681369
  0
LINE
  8
_0-9_ラッチ断面__受け
  6
CONTINUOUS
 62
    4
 10
3377.8603224007179
 20
1416.3279193681369
 11
3735.8603224007174
 21
1416.3279193681369
  0
TEXT
  8
_0-9_ラッチ断面__受け
 62
    7
 10
3523.7603224007179
 20
1421.3279193681369
 40
35
 41
0.6285714285714286
 50
0
  1
３５８
  0
LINE
  8
_1-0_
  6
DASHED1
 62
    4
 10
1643.5541420710558
 20
1657.7744603287758
 11
1643.5541420710558
 21
2533.7744603287769
  0
LINE
  8
_0-3_断面__扉
  6
DASHED1
 62
    4
 10
1979.0541420710555
 20
2527.7744603287765
 11
2513.0541420710555
 21
2527.7744603287765
  0
CIRCLE
  8
_1-0_
  6
CONTINUOUS
 62
    4
 10
1666.0541420710558
 20
805.82791936813669
 40
2.5
  0
CIRCLE
  8
_1-0_
  6
CONTINUOUS
 62
    4
 10
1666.0541420710558
 20
865.82791936813669
 40
2.5
  0
CIRCLE
  8
_1-0_
  6
CONTINUOUS
 62
    4
 10
1666.0541420710558
 20
925.82791936813669
 40
2.5
  0
CIRCLE
  8
_1-0_
  6
CONTINUOUS
 62
    4
 10
1666.0541420710558
 20
985.82791936813669
 40
2.5
  0
CIRCLE
  8
_1-0_
  6
CONTINUOUS
 62
    4
 10
1666.0541420710558
 20
1045.8279193681366
 40
2.5
  0
CIRCLE
  8
_1-0_
  6
CONTINUOUS
 62
    4
 10
1858.0541420710555
 20
805.82791936813669
 40
2.5
  0
CIRCLE
  8
_1-0_
  6
CONTINUOUS
 62
    4
 10
1858.0541420710555
 20
865.82791936813669
 40
2.5
  0
CIRCLE
  8
_1-0_
  6
CONTINUOUS
 62
    4
 10
1858.0541420710555
 20
925.82791936813669
 40
2.5
  0
CIRCLE
  8
_1-0_
  6
CONTINUOUS
 62
    4
 10
1858.0541420710555
 20
985.82791936813669
 40
2.5
  0
CIRCLE
  8
_1-0_
  6
CONTINUOUS
 62
    4
 10
1858.0541420710555
 20
1045.8279193681366
 40
2.5
  0
CIRCLE
  8
_1-1_
  6
CONTINUOUS
 62
    4
 10
1666.0541420710558
 20
805.82791936813669
 40
2.5
  0
CIRCLE
  8
_1-1_
  6
CONTINUOUS
 62
    7
 10
1666.0541420710558
 20
805.82791936813669
 40
2.5
  0
LINE
  8
_1-1_
  6
CENTER2
 62
    4
 10
1666.0541420710558
 20
815.82791936813669
 11
1666.0541420710558
 21
795.82791936813669
  0
LINE
  8
_1-1_
  6
CENTER2
 62
    4
 10
1656.0541420710558
 20
805.82791936813669
 11
1678.5541420710558
 21
805.82791936813669
  0
CIRCLE
  8
_1-1_
  6
CONTINUOUS
 62
    4
 10
1666.0541420710558
 20
1045.8279193681366
 40
2.5
  0
CIRCLE
  8
_1-1_
  6
CONTINUOUS
 62
    7
 10
1666.0541420710558
 20
1045.8279193681366
 40
2.5
  0
LINE
  8
_1-1_
  6
CENTER2
 62
    4
 10
1666.0541420710558
 20
1055.8279193681366
 11
1666.0541420710558
 21
1035.8279193681366
  0
LINE
  8
_1-1_
  6
CENTER2
 62
    4
 10
1656.0541420710558
 20
1045.8279193681366
 11
1678.5541420710558
 21
1045.8279193681366
  0
CIRCLE
  8
_1-1_
  6
CONTINUOUS
 62
    4
 10
1666.0541420710558
 20
985.82791936813669
 40
2.5
  0
CIRCLE
  8
_1-1_
  6
CONTINUOUS
 62
    7
 10
1666.0541420710558
 20
985.82791936813669
 40
2.5
  0
LINE
  8
_1-1_
  6
CENTER2
 62
    4
 10
1666.0541420710558
 20
995.82791936813669
 11
1666.0541420710558
 21
975.82791936813669
  0
LINE
  8
_1-1_
  6
CENTER2
 62
    4
 10
1656.0541420710558
 20
985.82791936813669
 11
1678.5541420710558
 21
985.82791936813669
  0
CIRCLE
  8
_1-1_
  6
CONTINUOUS
 62
    4
 10
1666.0541420710558
 20
925.82791936813669
 40
2.5
  0
CIRCLE
  8
_1-1_
  6
CONTINUOUS
 62
    7
 10
1666.0541420710558
 20
925.82791936813669
 40
2.5
  0
LINE
  8
_1-1_
  6
CENTER2
 62
    4
 10
1666.0541420710558
 20
935.82791936813669
 11
1666.0541420710558
 21
915.82791936813669
  0
LINE
  8
_1-1_
  6
CENTER2
 62
    4
 10
1656.0541420710558
 20
925.82791936813669
 11
1678.5541420710558
 21
925.82791936813669
  0
CIRCLE
  8
_1-1_
  6
CONTINUOUS
 62
    4
 10
1666.0541420710558
 20
865.82791936813669
 40
2.5
  0
CIRCLE
  8
_1-1_
  6
CONTINUOUS
 62
    7
 10
1666.0541420710558
 20
865.82791936813669
 40
2.5
  0
LINE
  8
_1-1_
  6
CENTER2
 62
    4
 10
1666.0541420710558
 20
875.82791936813669
 11
1666.0541420710558
 21
855.82791936813669
  0
LINE
  8
_1-1_
  6
CENTER2
 62
    4
 10
1656.0541420710558
 20
865.82791936813669
 11
1678.5541420710558
 21
865.82791936813669
  0
CIRCLE
  8
_1-1_
  6
CONTINUOUS
 62
    4
 10
1858.0541420710555
 20
805.82791936813669
 40
2.5
  0
CIRCLE
  8
_1-1_
  6
CONTINUOUS
 62
    7
 10
1858.0541420710555
 20
805.82791936813669
 40
2.5
  0
LINE
  8
_1-1_
  6
CENTER2
 62
    4
 10
1858.0541420710555
 20
815.82791936813669
 11
1858.0541420710555
 21
795.82791936813669
  0
LINE
  8
_1-1_
  6
CENTER2
 62
    4
 10
1848.0541420710555
 20
805.82791936813669
 11
1870.5541420710555
 21
805.82791936813669
  0
CIRCLE
  8
_1-1_
  6
CONTINUOUS
 62
    4
 10
1858.0541420710555
 20
1045.8279193681366
 40
2.5
  0
CIRCLE
  8
_1-1_
  6
CONTINUOUS
 62
    7
 10
1858.0541420710555
 20
1045.8279193681366
 40
2.5
  0
LINE
  8
_1-1_
  6
CENTER2
 62
    4
 10
1858.0541420710555
 20
1055.8279193681366
 11
1858.0541420710555
 21
1035.8279193681366
  0
LINE
  8
_1-1_
  6
CENTER2
 62
    4
 10
1848.0541420710555
 20
1045.8279193681366
 11
1870.5541420710555
 21
1045.8279193681366
  0
CIRCLE
  8
_1-1_
  6
CONTINUOUS
 62
    4
 10
1858.0541420710555
 20
985.82791936813669
 40
2.5
  0
CIRCLE
  8
_1-1_
  6
CONTINUOUS
 62
    7
 10
1858.0541420710555
 20
985.82791936813669
 40
2.5
  0
LINE
  8
_1-1_
  6
CENTER2
 62
    4
 10
1858.0541420710555
 20
995.82791936813669
 11
1858.0541420710555
 21
975.82791936813669
  0
LINE
  8
_1-1_
  6
CENTER2
 62
    4
 10
1848.0541420710555
 20
985.82791936813669
 11
1870.5541420710555
 21
985.82791936813669
  0
CIRCLE
  8
_1-1_
  6
CONTINUOUS
 62
    4
 10
1858.0541420710555
 20
925.82791936813669
 40
2.5
  0
CIRCLE
  8
_1-1_
  6
CONTINUOUS
 62
    7
 10
1858.0541420710555
 20
925.82791936813669
 40
2.5
  0
LINE
  8
_1-1_
  6
CENTER2
 62
    4
 10
1858.0541420710555
 20
935.82791936813669
 11
1858.0541420710555
 21
915.82791936813669
  0
LINE
  8
_1-1_
  6
CENTER2
 62
    4
 10
1848.0541420710555
 20
925.82791936813669
 11
1870.5541420710555
 21
925.82791936813669
  0
CIRCLE
  8
_1-1_
  6
CONTINUOUS
 62
    4
 10
1858.0541420710555
 20
865.82791936813669
 40
2.5
  0
CIRCLE
  8
_1-1_
  6
CONTINUOUS
 62
    7
 10
1858.0541420710555
 20
865.82791936813669
 40
2.5
  0
LINE
  8
_1-1_
  6
CENTER2
 62
    4
 10
1858.0541420710555
 20
875.82791936813669
 11
1858.0541420710555
 21
855.82791936813669
  0
LINE
  8
_1-1_
  6
CENTER2
 62
    4
 10
1848.0541420710555
 20
865.82791936813669
 11
1870.5541420710555
 21
865.82791936813669
  0
ARC
  8
_1-2_
  6
CONTINUOUS
 62
    7
 10
1872.2861920710558
 20
947.32791936813669
 40
1
 50
149.99999999999994
 51
269.99999999999994
  0
CIRCLE
  8
_1-2_
  6
CONTINUOUS
 62
    7
 10
1858.0541420710555
 20
925.82791936813669
 40
1.5000000000000002
  0
LINE
  8
_1-2_
  6
CONTINUOUS
 62
    7
 10
1853.0541420710555
 20
926.89679436813662
 11
1853.0541420710555
 21
927.8279193681368
  0
LINE
  8
_1-2_
  6
CONTINUOUS
 62
    7
 10
1853.0541420710555
 20
927.8279193681368
 11
1852.1253670710557
 21
927.89424436813669
  0
LINE
  8
_1-2_
  6
CONTINUOUS
 62
    7
 10
1863.0541420710555
 20
925.82791936813669
 11
1863.0541420710555
 21
926.82791936813657
  0
LINE
  8
_1-2_
  6
CONTINUOUS
 62
    7
 10
1864.054142071056
 20
927.8279193681368
 11
1876.554142071056
 21
927.8279193681368
  0
LINE
  8
_1-2_
  6
CONTINUOUS
 62
    7
 10
1853.0541420710555
 20
925.82791936813669
 11
1853.0541420710555
 21
926.89679436813662
  0
LINE
  8
_1-2_
  6
CONTINUOUS
 62
    7
 10
1852.1253670710557
 20
927.89424436813669
 11
1839.9828920710558
 21
928.76156936813663
  0
LINE
  8
_1-2_
  6
CONTINUOUS
 62
    7
 10
1839.054142071056
 20
929.7590193681367
 11
1839.054142071056
 21
929.82791936813669
  0
LINE
  8
_1-2_
  6
CONTINUOUS
 62
    7
 10
1871.4201670710558
 20
947.8279193681368
 11
1873.2965420710559
 21
951.07791936813669
  0
LINE
  8
_1-2_
  6
CONTINUOUS
 62
    7
 10
1840.0541420710558
 20
930.82791936813669
 11
1875.5541420710555
 21
930.82791936813669
  0
LINE
  8
_1-2_
  6
CONTINUOUS
 62
    7
 10
1872.2861920710558
 20
946.32791936813669
 11
1875.5541420710555
 21
946.32791936813669
  0
LINE
  8
_1-2_
  6
CONTINUOUS
 62
    7
 10
1876.554142071056
 20
945.3279193681368
 11
1876.554142071056
 21
931.82791936813657
  0
ARC
  8
_1-2_
  6
CONTINUOUS
 62
    7
 10
1876.554142071056
 20
931.62791936813675
 40
3.7999999999999998
 50
269.99999999999994
 51
2.5319999999999902
  0
ARC
  8
_1-2_
  6
CONTINUOUS
 62
    7
 10
1858.0541420710555
 20
925.82791936813669
 40
5
 50
179.99999999999985
 51
359.99999999999988
  0
CIRCLE
  8
_1-2_
  6
PHANTOM2
 62
    7
 10
1858.0541420710555
 20
925.82791936813669
 40
4.0999999999999996
  0
CIRCLE
  8
_1-2_
  6
PHANTOM2
 62
    7
 10
1858.0541420710555
 20
925.82791936813669
 40
1.925
  0
ARC
  8
_1-2_
  6
CONTINUOUS
 62
    7
 10
1878.3973670710556
 20
950.3279193681368
 40
1
 50
2.531999999999964
 51
89.999999999999943
  0
ARC
  8
_1-2_
  6
CONTINUOUS
 62
    7
 10
1873.7295670710557
 20
950.82791936813669
 40
0.5
 50
89.999999999999985
 51
149.99999999999997
  0
ARC
  8
_1-2_
  6
CONTINUOUS
 62
    7
 10
1864.054142071056
 20
926.82791936813657
 40
1
 50
89.999999999999971
 51
180
  0
ARC
  8
_1-2_
  6
CONTINUOUS
 62
    7
 10
1852.0541420710558
 20
926.89679436813662
 40
1
 50
359.99999999999994
 51
85.913999999999987
  0
ARC
  8
_1-2_
  6
CONTINUOUS
 62
    7
 10
1840.0541420710558
 20
929.7590193681367
 40
1
 50
179.99999999999994
 51
265.91399999999993
  0
ARC
  8
_1-2_
  6
CONTINUOUS
 62
    7
 10
1840.0541420710558
 20
929.82791936813669
 40
1
 50
89.999999999999971
 51
180
  0
ARC
  8
_1-2_
  6
CONTINUOUS
 62
    7
 10
1875.5541420710555
 20
945.3279193681368
 40
1
 50
359.99999999999994
 51
89.999999999999943
  0
ARC
  8
_1-2_
  6
CONTINUOUS
 62
    7
 10
1875.5541420710555
 20
931.82791936813657
 40
1
 50
269.99999999999988
 51
359.99999999999988
  0
LINE
  8
_1-2_
  6
CONTINUOUS
 62
    7
 10
1878.3973670710556
 20
951.32791936813669
 11
1873.7295670710557
 21
951.32791936813669
  0
LINE
  8
_1-2_
  6
CONTINUOUS
 62
    7
 10
1880.3504170710559
 20
931.79576936813668
 11
1879.3956701218066
 21
950.38615182353032
  0
LINE
  8
_1-2_
  6
CENTER1
 62
    7
 10
1858.0541420710555
 20
925.82791936813669
 11
1858.0541420710555
 21
919.71319149047849
  0
LINE
  8
_1-2_
  6
CENTER1
 62
    7
 10
1858.0541420710555
 20
925.82791936813669
 11
1858.0541420710555
 21
931.92532232018947
  0
LINE
  8
_1-2_
  6
CENTER1
 62
    7
 10
1857.9412799999363
 20
925.82791936813669
 11
1860.6209184218678
 21
925.82791936813669
  0
LINE
  8
_1-2_
  6
CENTER1
 62
    7
 10
1857.9412799999363
 20
925.82791936813669
 11
1855.2759968952909
 21
925.82791936813669
  0
ARC
  8
_1-2_
  6
CONTINUOUS
 62
    7
 10
1858.0541420710555
 20
925.82791936813669
 40
7.0000000000000017
 50
45.585000000000007
 51
134.41500000000002
  0
ARC
  8
_1-2_
  6
CONTINUOUS
 62
    7
 10
1858.0541420710555
 20
925.82791936813669
 40
11
 50
27.036000000000012
 51
152.96400000000005
  0
CIRCLE
  8
_1-2_
  6
CONTINUOUS
 62
    7
 10
1665.9412799999363
 20
925.82791936813669
 40
1.5000000000000002
  0
LINE
  8
_1-2_
  6
CONTINUOUS
 62
    7
 10
1670.9412799999363
 20
926.89679436813662
 11
1670.9412799999363
 21
927.8279193681368
  0
LINE
  8
_1-2_
  6
CONTINUOUS
 62
    7
 10
1670.9412799999363
 20
927.8279193681368
 11
1671.8700549999362
 21
927.89424436813669
  0
LINE
  8
_1-2_
  6
CONTINUOUS
 62
    7
 10
1660.9412799999363
 20
925.82791936813669
 11
1660.9412799999363
 21
926.82791936813657
  0
LINE
  8
_1-2_
  6
CONTINUOUS
 62
    7
 10
1659.9412799999363
 20
927.8279193681368
 11
1647.4412799999363
 21
927.8279193681368
  0
LINE
  8
_1-2_
  6
CONTINUOUS
 62
    7
 10
1670.9412799999363
 20
925.82791936813669
 11
1670.9412799999363
 21
926.89679436813662
  0
LINE
  8
_1-2_
  6
CONTINUOUS
 62
    7
 10
1671.8700549999362
 20
927.89424436813669
 11
1684.0125299999363
 21
928.76156936813663
  0
LINE
  8
_1-2_
  6
CONTINUOUS
 62
    7
 10
1684.9412799999363
 20
929.7590193681367
 11
1684.9412799999363
 21
929.82791936813669
  0
LINE
  8
_1-2_
  6
CONTINUOUS
 62
    7
 10
1652.575254999936
 20
947.8279193681368
 11
1650.6988799999362
 21
951.07791936813669
  0
LINE
  8
_1-2_
  6
CONTINUOUS
 62
    7
 10
1683.9412799999363
 20
930.82791936813669
 11
1648.4412799999363
 21
930.82791936813669
  0
LINE
  8
_1-2_
  6
CONTINUOUS
 62
    7
 10
1651.7092299999364
 20
946.32791936813669
 11
1648.4412799999363
 21
946.32791936813669
  0
LINE
  8
_1-2_
  6
CONTINUOUS
 62
    7
 10
1647.4412799999363
 20
945.3279193681368
 11
1647.4412799999363
 21
931.82791936813657
  0
ARC
  8
_1-2_
  6
CONTINUOUS
 62
    7
 10
1647.4412799999363
 20
931.62791936813675
 40
3.7999999999999998
 50
177.46800000000004
 51
270.00000000000005
  0
ARC
  8
_1-2_
  6
CONTINUOUS
 62
    7
 10
1665.9412799999363
 20
925.82791936813669
 40
5
 50
180.00000000000005
 51
0.0000000000001017
  0
CIRCLE
  8
_1-2_
  6
PHANTOM2
 62
    7
 10
1665.9412799999363
 20
925.82791936813669
 40
4.0999999999999996
  0
CIRCLE
  8
_1-2_
  6
PHANTOM2
 62
    7
 10
1665.9412799999363
 20
925.82791936813669
 40
1.925
  0
ARC
  8
_1-2_
  6
CONTINUOUS
 62
    7
 10
1645.5980549999362
 20
950.3279193681368
 40
1
 50
90.000000000000028
 51
177.46800000000004
  0
ARC
  8
_1-2_
  6
CONTINUOUS
 62
    7
 10
1650.2658549999364
 20
950.82791936813669
 40
0.5
 50
30.000000000000003
 51
90.000000000000028
  0
ARC
  8
_1-2_
  6
CONTINUOUS
 62
    7
 10
1659.9412799999363
 20
926.82791936813657
 40
1
 50
0
 51
90.000000000000028
  0
ARC
  8
_1-2_
  6
CONTINUOUS
 62
    7
 10
1671.9412799999361
 20
926.89679436813662
 40
1
 50
94.086000000000041
 51
180.00000000000005
  0
ARC
  8
_1-2_
  6
CONTINUOUS
 62
    7
 10
1683.9412799999363
 20
929.7590193681367
 40
1
 50
274.08600000000006
 51
0.0000000000000508
  0
ARC
  8
_1-2_
  6
CONTINUOUS
 62
    7
 10
1683.9412799999363
 20
929.82791936813669
 40
1
 50
0
 51
90.000000000000028
  0
ARC
  8
_1-2_
  6
CONTINUOUS
 62
    7
 10
1651.7092299999364
 20
947.32791936813669
 40
1
 50
270.00000000000005
 51
30.000000000000042
  0
ARC
  8
_1-2_
  6
CONTINUOUS
 62
    7
 10
1648.4412799999363
 20
945.3279193681368
 40
1
 50
90.000000000000028
 51
180.00000000000005
  0
ARC
  8
_1-2_
  6
CONTINUOUS
 62
    7
 10
1648.4412799999363
 20
931.82791936813657
 40
1
 50
180.00000000000005
 51
270.00000000000005
  0
LINE
  8
_1-2_
  6
CONTINUOUS
 62
    7
 10
1645.5980549999362
 20
951.32791936813669
 11
1650.2658549999364
 21
951.32791936813669
  0
LINE
  8
_1-2_
  6
CONTINUOUS
 62
    7
 10
1643.6450049999361
 20
931.79576936813668
 11
1644.5997519491852
 21
950.38615182353032
  0
LINE
  8
_1-2_
  6
CENTER1
 62
    7
 10
1665.9412799999363
 20
925.82791936813669
 11
1665.9412799999363
 21
919.71319149047849
  0
LINE
  8
_1-2_
  6
CENTER1
 62
    7
 10
1665.9412799999363
 20
925.82791936813669
 11
1665.9412799999363
 21
931.92532232018947
  0
LINE
  8
_1-2_
  6
CENTER1
 62
    7
 10
1666.0541420710558
 20
925.82791936813669
 11
1663.3745036491243
 21
925.82791936813669
  0
LINE
  8
_1-2_
  6
CENTER1
 62
    7
 10
1666.0541420710558
 20
925.82791936813669
 11
1668.7194251757011
 21
925.82791936813669
  0
ARC
  8
_1-2_
  6
CONTINUOUS
 62
    7
 10
1665.9412799999363
 20
925.82791936813669
 40
7.0000000000000017
 50
45.585000000000007
 51
134.41500000000002
  0
ARC
  8
_1-2_
  6
CONTINUOUS
 62
    7
 10
1665.9412799999363
 20
925.82791936813669
 40
11
 50
27.036000000000012
 51
152.96400000000005
  0
LINE
  8
_1-3_
  6
CONTINUOUS
 62
    7
 10
1647.491279999936
 20
945.82791936813714
 11
1647.491279999936
 21
930.82791936813714
  0
LINE
  8
_1-3_
  6
CONTINUOUS
 62
    7
 10
1876.5041420710558
 20
930.82791936813714
 11
1876.5041420710558
 21
945.82791936813714
  0
LINE
  8
_1-3_
  6
CONTINUOUS
 62
    7
 10
1647.491279999936
 20
930.82791936813714
 11
1876.5041420710558
 21
930.82791936813714
  0
LINE
  8
_1-3_
  6
CONTINUOUS
 62
    7
 10
1876.5041420710558
 20
945.82791936813714
 11
1647.491279999936
 21
945.82791936813714
  0
LINE
  8
_1-0_
  6
DASHED1
 62
    7
 10
1647.491279999936
 20
1657.7744603287758
 11
1647.491279999936
 21
2533.7744603287769
  0
LINE
  8
_1-0_
  6
DASHED1
 62
    7
 10
1876.5041420710558
 20
1657.7744603287758
 11
1876.5041420710558
 21
2533.7744603287769
  0
LINE
  8
_2-0_
  6
DASHED1
 62
    7
 10
1889.0541420710553
 20
1208.7514693681364
 11
1890.1607920710555
 21
1209.3904193681364
  0
LINE
  8
_2-0_
  6
DASHED1
 62
    7
 10
1889.0541420710553
 20
1207.8854693681364
 11
1891.0541420710551
 21
1209.0401693681365
  0
LINE
  8
_2-0_
  6
DASHED1
 62
    7
 10
1889.0541420710553
 20
1207.0194193681365
 11
1891.0541420710551
 21
1208.1741193681366
  0
LINE
  8
_2-0_
  6
DASHED1
 62
    7
 10
1889.0541420710553
 20
1206.1534193681363
 11
1891.0541420710551
 21
1207.3081193681364
  0
LINE
  8
_2-0_
  6
DASHED1
 62
    7
 10
1889.0541420710553
 20
1205.2873693681365
 11
1891.0541420710551
 21
1206.4420693681363
  0
LINE
  8
_2-0_
  6
DASHED1
 62
    7
 10
1889.0541420710553
 20
1204.4213693681365
 11
1891.0541420710551
 21
1205.5760693681365
  0
LINE
  8
_2-0_
  6
DASHED1
 62
    7
 10
1889.0541420710553
 20
1203.5553193681366
 11
1891.0541420710551
 21
1204.7100193681364
  0
LINE
  8
_2-0_
  6
DASHED1
 62
    7
 10
1889.0541420710553
 20
1202.6893193681366
 11
1891.0541420710551
 21
1203.8440193681365
  0
LINE
  8
_2-0_
  6
DASHED1
 62
    7
 10
1889.0541420710553
 20
1201.8232693681366
 11
1891.0541420710551
 21
1202.9779693681366
  0
LINE
  8
_2-0_
  6
DASHED1
 62
    7
 10
1889.0541420710553
 20
1200.9572693681366
 11
1891.0541420710551
 21
1202.1119693681364
  0
LINE
  8
_2-0_
  6
DASHED1
 62
    7
 10
1889.0541420710553
 20
1200.0912193681365
 11
1891.0541420710551
 21
1201.2459193681365
  0
LINE
  8
_2-0_
  6
DASHED1
 62
    7
 10
1889.0541420710553
 20
1199.2252193681365
 11
1891.0541420710551
 21
1200.3799193681365
  0
LINE
  8
_2-0_
  6
DASHED1
 62
    7
 10
1889.0541420710553
 20
1198.3591693681364
 11
1891.0541420710551
 21
1199.5138693681365
  0
LINE
  8
_2-0_
  6
DASHED1
 62
    7
 10
1889.0541420710553
 20
1197.4931693681364
 11
1891.0541420710551
 21
1198.6478693681365
  0
LINE
  8
_2-0_
  6
DASHED1
 62
    7
 10
1889.0541420710553
 20
1196.6271193681363
 11
1891.0541420710551
 21
1197.7818193681364
  0
LINE
  8
_2-0_
  6
DASHED1
 62
    7
 10
1889.0541420710553
 20
1195.7611193681364
 11
1891.0541420710551
 21
1196.9158193681366
  0
LINE
  8
_2-0_
  6
DASHED1
 62
    7
 10
1889.0541420710553
 20
1194.8950693681365
 11
1891.0541420710551
 21
1196.0497693681363
  0
LINE
  8
_2-0_
  6
DASHED1
 62
    7
 10
1889.0541420710553
 20
1194.0290693681365
 11
1891.0541420710551
 21
1195.1837693681366
  0
LINE
  8
_2-0_
  6
DASHED1
 62
    7
 10
1889.0541420710553
 20
1193.1630193681367
 11
1891.0541420710551
 21
1194.3177193681365
  0
LINE
  8
_2-0_
  6
DASHED1
 62
    7
 10
1889.0541420710553
 20
1192.2970193681364
 11
1891.0541420710551
 21
1193.4517193681363
  0
LINE
  8
_2-0_
  6
DASHED1
 62
    7
 10
1889.0541420710553
 20
1191.4309693681366
 11
1891.0541420710551
 21
1192.5856693681364
  0
LINE
  8
_2-0_
  6
DASHED1
 62
    7
 10
1889.0541420710553
 20
1190.5649693681366
 11
1891.0541420710551
 21
1191.7196693681364
  0
LINE
  8
_2-0_
  6
DASHED1
 62
    7
 10
1889.0541420710553
 20
1189.6989193681365
 11
1891.0541420710551
 21
1190.8536193681366
  0
LINE
  8
_2-0_
  6
DASHED1
 62
    7
 10
1889.0541420710553
 20
1188.8329193681365
 11
1891.0541420710551
 21
1189.9876193681366
  0
LINE
  8
_2-0_
  6
DASHED1
 62
    7
 10
1889.0541420710553
 20
1187.9668693681364
 11
1891.0541420710551
 21
1189.1215693681365
  0
LINE
  8
_2-0_
  6
DASHED1
 62
    7
 10
1889.1641920710553
 20
1187.1644193681365
 11
1891.0541420710551
 21
1188.2555693681365
  0
LINE
  8
_2-0_
  6
DASHED1
 62
    7
 10
1889.2849420710554
 20
1186.3680693681365
 11
1891.1262420710554
 21
1187.4311693681365
  0
LINE
  8
_2-0_
  6
DASHED1
 62
    7
 10
1889.5576920710552
 20
1185.6595193681366
 11
1891.3142420710553
 21
1186.6736693681364
  0
LINE
  8
_2-0_
  6
DASHED1
 62
    7
 10
1889.9025420710554
 20
1184.9926193681365
 11
1891.6145420710554
 21
1185.9810193681366
  0
LINE
  8
_2-0_
  6
DASHED1
 62
    7
 10
1890.2473920710554
 20
1184.3256693681364
 11
1892.1625920710553
 21
1185.4314193681366
  0
LINE
  8
_2-0_
  6
DASHED1
 62
    7
 10
1890.7499420710553
 20
1183.7498193681365
 11
1892.6575920710552
 21
1184.8511693681366
  0
LINE
  8
_2-0_
  6
DASHED1
 62
    7
 10
1891.3275420710554
 20
1183.2172193681365
 11
1893.8791420710554
 21
1184.6904193681366
  0
LINE
  8
_2-0_
  6
DASHED1
 62
    7
 10
1891.9964920710553
 20
1182.7374193681364
 11
1895.3791420710554
 21
1184.6904193681366
  0
LINE
  8
_2-0_
  6
DASHED1
 62
    7
 10
1892.8848920710552
 20
1182.3843193681366
 11
1896.8791420710554
 21
1184.6904193681366
  0
LINE
  8
_2-0_
  6
DASHED1
 62
    7
 10
1893.7991920710553
 20
1182.0461693681365
 11
1898.3791420710554
 21
1184.6904193681366
  0
LINE
  8
_2-0_
  6
DASHED1
 62
    7
 10
1896.5293920710553
 20
1181.8904193681364
 11
1900.8441920710552
 21
1184.3815693681365
  0
LINE
  8
_2-0_
  6
DASHED1
 62
    7
 10
1895.0795420710553
 20
1181.9193693681363
 11
1899.8196420710553
 21
1184.6560693681365
  0
LINE
  8
_2-0_
  6
DASHED1
 62
    7
 10
1898.0293920710553
 20
1181.8904193681364
 11
1901.8686920710551
 21
1184.1070193681364
  0
LINE
  8
_2-0_
  6
DASHED1
 62
    7
 10
1901.0293920710555
 20
1181.8904193681364
 11
1903.9177420710552
 21
1183.5579693681365
  0
LINE
  8
_2-0_
  6
DASHED1
 62
    7
 10
1899.5293920710555
 20
1181.8904193681364
 11
1902.8931920710554
 21
1183.8325193681364
  0
LINE
  8
_2-0_
  6
DASHED1
 62
    7
 10
1902.5293920710553
 20
1181.8904193681364
 11
1905.3057420710551
 21
1183.4933193681365
  0
LINE
  8
_2-0_
  6
DASHED1
 62
    7
 10
1904.0293920710553
 20
1181.8904193681364
 11
1906.7495420710554
 21
1183.4609193681365
  0
LINE
  8
_2-0_
  6
DASHED1
 62
    7
 10
1905.5293920710553
 20
1181.8904193681364
 11
1908.6052420710552
 21
1183.6662193681365
  0
LINE
  8
_2-0_
  6
DASHED1
 62
    7
 10
1907.0293920710555
 20
1181.8904193681364
 11
1910.9792420710552
 21
1184.1708693681366
  0
LINE
  8
_2-0_
  6
DASHED1
 62
    7
 10
1908.5293920710555
 20
1181.8904193681364
 11
1913.3532420710553
 21
1184.6754693681364
  0
LINE
  8
_2-0_
  6
DASHED1
 62
    7
 10
1910.0293920710553
 20
1181.8904193681364
 11
1915.7272420710551
 21
1185.1800693681366
  0
LINE
  8
_2-0_
  6
DASHED1
 62
    7
 10
1911.5293920710553
 20
1181.8904193681364
 11
1918.1012920710554
 21
1185.6846693681363
  0
LINE
  8
_2-0_
  6
DASHED1
 62
    7
 10
1913.0293920710553
 20
1181.8904193681364
 11
1920.4752920710552
 21
1186.1893193681364
  0
LINE
  8
_2-0_
  6
DASHED1
 62
    7
 10
1914.5293920710555
 20
1181.8904193681364
 11
1932.3695420710555
 21
1192.1904193681366
  0
LINE
  8
_2-0_
  6
DASHED1
 62
    7
 10
1916.0293920710555
 20
1181.8904193681364
 11
1935.0541420710553
 21
1192.8743693681367
  0
LINE
  8
_2-0_
  6
DASHED1
 62
    7
 10
1917.5293920710553
 20
1181.8904193681364
 11
1935.0541420710553
 21
1192.0083193681364
  0
LINE
  8
_2-0_
  6
DASHED1
 62
    7
 10
1919.0293920710553
 20
1181.8904193681364
 11
1935.0541420710553
 21
1191.1423193681364
  0
LINE
  8
_2-0_
  6
DASHED1
 62
    7
 10
1922.0541420710555
 20
1197.4931693681364
 11
1924.0541420710553
 21
1198.6478693681365
  0
LINE
  8
_2-0_
  6
DASHED1
 62
    7
 10
1922.0541420710555
 20
1196.6271193681363
 11
1924.0541420710553
 21
1197.7818193681364
  0
LINE
  8
_2-0_
  6
DASHED1
 62
    7
 10
1922.0541420710555
 20
1195.7611193681364
 11
1924.0541420710553
 21
1196.9158193681366
  0
LINE
  8
_2-0_
  6
DASHED1
 62
    7
 10
1922.0541420710555
 20
1194.8950693681365
 11
1924.3249420710553
 21
1196.2061193681365
  0
LINE
  8
_2-0_
  6
DASHED1
 62
    7
 10
1922.0541420710555
 20
1194.0290693681365
 11
1925.3625420710554
 21
1195.9391693681366
  0
LINE
  8
_2-0_
  6
DASHED1
 62
    7
 10
1922.0541420710555
 20
1193.1630193681367
 11
1926.7781420710552
 21
1195.8904193681364
  0
LINE
  8
_2-0_
  6
DASHED1
 62
    7
 10
1922.0541420710555
 20
1192.2970193681364
 11
1928.2781420710555
 21
1195.8904193681364
  0
LINE
  8
_2-0_
  6
DASHED1
 62
    7
 10
1922.0541420710555
 20
1191.4309693681366
 11
1929.7781420710555
 21
1195.8904193681364
  0
LINE
  8
_2-0_
  6
DASHED1
 62
    7
 10
1922.0541420710555
 20
1190.5649693681366
 11
1924.8695420710553
 21
1192.1904193681366
  0
LINE
  8
_2-0_
  6
DASHED1
 62
    7
 10
1922.0541420710555
 20
1189.6989193681365
 11
1926.3695420710553
 21
1192.1904193681366
  0
LINE
  8
_2-0_
  6
DASHED1
 62
    7
 10
1922.0541420710555
 20
1188.8329193681365
 11
1927.8695420710553
 21
1192.1904193681366
  0
LINE
  8
_2-0_
  6
DASHED1
 62
    7
 10
1922.0507420710553
 20
1187.9649193681366
 11
1929.3695420710555
 21
1192.1904193681366
  0
LINE
  8
_2-0_
  6
DASHED1
 62
    7
 10
1921.9189920710552
 20
1187.0228193681364
 11
1930.8695420710555
 21
1192.1904193681366
  0
LINE
  8
_2-0_
  6
DASHED1
 62
    7
 10
1924.8695420710553
 20
1192.1904193681366
 11
1931.2781420710552
 21
1195.8904193681364
  0
LINE
  8
_2-0_
  6
DASHED1
 62
    7
 10
1926.3695420710553
 20
1192.1904193681366
 11
1932.7781420710552
 21
1195.8904193681364
  0
LINE
  8
_2-0_
  6
DASHED1
 62
    7
 10
1927.8695420710553
 20
1192.1904193681366
 11
1934.0541420710553
 21
1195.7611193681364
  0
LINE
  8
_2-0_
  6
DASHED1
 62
    7
 10
1929.3695420710555
 20
1192.1904193681366
 11
1935.0541420710553
 21
1195.4724193681365
  0
LINE
  8
_2-0_
  6
DASHED1
 62
    7
 10
1930.8695420710555
 20
1192.1904193681366
 11
1935.0541420710553
 21
1194.6064193681365
  0
LINE
  8
_2-0_
  6
DASHED1
 62
    7
 10
1932.3695420710555
 20
1192.1904193681366
 11
1935.0541420710553
 21
1193.7403693681364
  0
LINE
  8
_2-0_
  6
DASHED1
 62
    7
 10
1889.0541420710553
 20
1209.5014693681364
 11
1890.0541420710553
 21
1210.0788193681364
  0
LINE
  8
_2-0_
  6
DASHED1
 62
    7
 10
1889.0541420710553
 20
1209.5014693681364
 11
1890.1607920710555
 21
1210.1404193681364
  0
LINE
  8
_2-0_
  6
DASHED1
 62
    7
 10
1889.0541420710553
 20
1210.2514693681364
 11
1889.8143920710554
 21
1210.6904193681364
  0
LINE
  8
_2-0_
  6
DASHED1
 62
    7
 10
1924.0541420710553
 20
1200.3904193681364
 11
1924.0541420710553
 21
1202.3904193681366
  0
LINE
  8
_2-0_
  6
DASHED1
 62
    7
 10
1904.0541420710553
 20
1183.5214193681365
 11
1906.5541420710553
 21
1183.3904193681364
  0
LINE
  8
_2-0_
  6
DASHED1
 62
    7
 10
1899.6914420710552
 20
1184.6904193681366
 11
1904.0541420710553
 21
1183.5214193681365
  0
LINE
  8
_2-0_
  6
DASHED1
 62
    7
 10
1922.0541420710555
 20
1197.7357193681364
 11
1924.0541420710553
 21
1198.8904193681364
  0
LINE
  8
_2-0_
  6
DASHED1
 62
    7
 10
1922.0541420710555
 20
1187.9986193681365
 11
1922.0541420710555
 21
1197.7357193681364
  0
LINE
  8
_2-0_
  6
DASHED1
 62
    7
 10
1899.0041420710554
 20
1209.3904193681364
 11
1899.0041420710554
 21
1208.3904193681364
  0
LINE
  8
_2-0_
  6
DASHED1
 62
    7
 10
1925.7861920710552
 20
1202.8904193681364
 11
1924.0541420710553
 21
1199.8904193681364
  0
LINE
  8
_2-0_
  6
DASHED1
 62
    7
 10
1907.5541420710553
 20
1183.4428193681364
 11
1906.5541420710553
 21
1183.3904193681364
  0
LINE
  8
_2-0_
  6
DASHED1
 62
    7
 10
1921.7461420710556
 20
1186.4594193681364
 11
1907.5541420710553
 21
1183.4428193681364
  0
LINE
  8
_2-0_
  6
DASHED1
 62
    7
 10
1891.0541420710551
 20
1209.3904193681364
 11
1891.0541420710551
 21
1187.9881193681364
  0
LINE
  8
_2-0_
  6
DASHED1
 62
    7
 10
1899.6914420710552
 20
1184.6904193681366
 11
1892.7902420710554
 21
1184.6904193681366
  0
LINE
  8
_2-0_
  6
DASHED1
 62
    7
 10
1931.5541420710553
 20
1204.5904193681367
 11
1931.5541420710553
 21
1212.1904193681366
  0
LINE
  8
_2-0_
  6
DASHED1
 62
    7
 10
1916.7541420710554
 20
1208.3904193681364
 11
1899.0041420710554
 21
1208.3904193681364
  0
LINE
  8
_2-0_
  6
DASHED1
 62
    7
 10
1889.0541420710553
 20
1187.8904193681364
 11
1889.0541420710553
 21
1210.6904193681364
  0
LINE
  8
_2-0_
  6
DASHED1
 62
    7
 10
1890.0541420710553
 20
1209.3904193681364
 11
1890.0541420710553
 21
1210.7070693681364
  0
LINE
  8
_2-0_
  6
DASHED1
 62
    7
 10
1889.0541420710553
 20
1210.6904193681364
 11
1949.0541420710553
 21
1211.5904193681365
  0
LINE
  8
_2-0_
  6
DASHED1
 62
    7
 10
1948.0541420710553
 20
1211.5904193681365
 11
1948.0541420710553
 21
1210.2904193681365
  0
LINE
  8
_2-0_
  6
DASHED1
 62
    7
 10
1926.7945920710553
 20
1210.2904193681365
 11
1922.5541420710553
 21
1210.2904193681365
  0
LINE
  8
_2-0_
  6
DASHED1
 62
    7
 10
1938.8755920710555
 20
1210.2904193681365
 11
1947.9541420710554
 21
1210.2904193681365
  0
LINE
  8
_2-0_
  6
DASHED1
 62
    7
 10
1922.5541420710553
 20
1208.3904193681364
 11
1921.3541420710553
 21
1208.3904193681364
  0
LINE
  8
_2-0_
  6
DASHED1
 62
    7
 10
1958.0540920710552
 20
1200.3904193681364
 11
1960.0540920710554
 21
1202.3904193681366
  0
LINE
  8
_2-0_
  6
DASHED1
 62
    7
 10
1960.0540920710554
 20
1202.3904193681366
 11
1960.0540920710554
 21
1209.3904193681364
  0
LINE
  8
_2-0_
  6
DASHED1
 62
    7
 10
1955.0540920710554
 20
1206.3904193681364
 11
1955.0540920710554
 21
1205.0904193681365
  0
LINE
  8
_2-0_
  6
DASHED1
 62
    7
 10
1919.0541420710553
 20
1206.2904193681365
 11
1919.0541420710553
 21
1195.0904193681365
  0
LINE
  8
_2-0_
  6
DASHED1
 62
    7
 10
1960.0540920710554
 20
1206.3904193681364
 11
1930.1257420710553
 21
1206.3904193681364
  0
LINE
  8
_2-0_
  6
DASHED1
 62
    7
 10
1928.7114920710553
 20
1205.8046193681366
 11
1921.1757420710555
 21
1198.2688193681365
  0
LINE
  8
_2-0_
  6
DASHED1
 62
    7
 10
1926.8830920710552
 20
1210.3904193681364
 11
1959.0540920710554
 21
1210.3904193681364
  0
LINE
  8
_2-0_
  6
DASHED1
 62
    7
 10
1923.3475420710553
 20
1208.9259693681365
 11
1919.5693920710552
 21
1205.1477693681365
  0
LINE
  8
_2-0_
  6
DASHED1
 62
    7
 10
1924.2541420710554
 20
1200.3904193681364
 11
1914.9441420710554
 21
1200.3904193681364
  0
LINE
  8
_2-0_
  6
DASHED1
 62
    7
 10
1905.5541420710553
 20
1189.4604193681366
 11
1905.5541420710553
 21
1210.1804193681366
  0
LINE
  8
_2-0_
  6
DASHED1
 62
    7
 10
1949.5540920710552
 20
1206.3904193681364
 11
1949.5540920710552
 21
1210.3904193681364
  0
LINE
  8
_2-0_
  6
DASHED1
 62
    7
 10
1955.0540920710554
 20
1210.3904193681364
 11
1955.0540920710554
 21
1206.3904193681364
  0
LINE
  8
_2-0_
  6
DASHED1
 62
    7
 10
1958.0540920710552
 20
1200.3904193681364
 11
1951.0540920710554
 21
1200.3904193681364
  0
LINE
  8
_2-0_
  6
DASHED1
 62
    7
 10
1951.0540920710554
 20
1201.5504193681365
 11
1951.0540920710554
 21
1200.3904193681364
  0
LINE
  8
_2-0_
  6
DASHED1
 62
    7
 10
1951.0540920710554
 20
1201.5504193681365
 11
1955.0540920710554
 21
1205.0904193681365
  0
LINE
  8
_2-0_
  6
DASHED1
 62
    7
 10
1892.6250420710553
 20
1194.6685693681365
 11
1891.6647420710555
 21
1202.4898193681365
  0
LINE
  8
_2-0_
  6
DASHED1
 62
    7
 10
1891.6599920710552
 20
1202.4882693681365
 11
1897.3449920710552
 21
1204.3904193681364
  0
LINE
  8
_2-0_
  6
DASHED1
 62
    7
 10
1907.5541420710553
 20
1203.3904193681364
 11
1919.0541420710553
 21
1203.3904193681364
  0
LINE
  8
_2-0_
  6
DASHED1
 62
    7
 10
1907.5541420710553
 20
1203.3904193681364
 11
1907.5541420710553
 21
1204.3904193681364
  0
LINE
  8
_2-0_
  6
DASHED1
 62
    7
 10
1907.5541420710553
 20
1204.3904193681364
 11
1897.3449920710552
 21
1204.3904193681364
  0
LINE
  8
_2-0_
  6
DASHED1
 62
    7
 10
1910.6599920710552
 20
1197.4766193681364
 11
1910.6599920710552
 21
1196.7747693681367
  0
LINE
  8
_2-0_
  6
DASHED1
 62
    7
 10
1910.6599920710552
 20
1197.4766193681364
 11
1907.1599920710555
 21
1200.3540193681365
  0
LINE
  8
_2-0_
  6
DASHED1
 62
    7
 10
1900.1599920710555
 20
1199.5061193681365
 11
1900.1599920710555
 21
1195.8867693681365
  0
LINE
  8
_2-0_
  6
DASHED1
 62
    7
 10
1910.6599920710552
 20
1196.7747693681367
 11
1907.1599920710555
 21
1199.9358193681364
  0
LINE
  8
_2-0_
  6
DASHED1
 62
    7
 10
1900.1599920710555
 20
1195.8867693681365
 11
1900.1599920710555
 21
1196.4053193681365
  0
LINE
  8
_2-0_
  6
DASHED1
 62
    7
 10
1916.7541420710554
 20
1208.3904193681364
 11
1916.7541420710554
 21
1203.5626693681365
  0
LINE
  8
_2-0_
  6
DASHED1
 62
    7
 10
1921.3541420710553
 20
1208.3904193681364
 11
1921.3541420710553
 21
1206.9325193681365
  0
LINE
  8
_2-0_
  6
DASHED1
 62
    7
 10
1921.3541420710553
 20
1206.9325193681365
 11
1921.3541420710553
 21
1199.7278693681366
  0
LINE
  8
_2-0_
  6
DASHED1
 62
    7
 10
1916.7541420710554
 20
1203.5626693681365
 11
1916.7541420710554
 21
1200.3904193681364
  0
LINE
  8
_2-0_
  6
DASHED1
 62
    7
 10
1922.5541420710553
 20
1208.1325193681366
 11
1922.5541420710553
 21
1211.1929193681364
  0
LINE
  8
_2-0_
  6
DASHED1
 62
    7
 10
1922.5541420710553
 20
1198.0244193681364
 11
1922.5541420710553
 21
1199.6472693681366
  0
LINE
  8
_2-0_
  6
DASHED1
 62
    7
 10
1922.5541420710553
 20
1208.1325193681366
 11
1922.5541420710553
 21
1199.6472693681366
  0
LINE
  8
_2-0_
  6
DASHED1
 62
    7
 10
1926.0541420710551
 20
1204.3904193681364
 11
1926.0541420710551
 21
1203.8904193681364
  0
LINE
  8
_2-0_
  6
DASHED1
 62
    7
 10
1930.1257420710553
 20
1206.3904193681364
 11
1948.0541420710553
 21
1206.3904193681364
  0
LINE
  8
_2-0_
  6
DASHED1
 62
    7
 10
1928.0541420710553
 20
1206.3904193681364
 11
1929.6541420710555
 21
1206.3904193681364
  0
LINE
  8
_2-0_
  6
DASHED1
 62
    7
 10
1938.8755920710555
 20
1210.2904193681365
 11
1934.4541420710552
 21
1210.2904193681365
  0
LINE
  8
_2-0_
  6
DASHED1
 62
    7
 10
1934.4471420710553
 20
1211.3469693681365
 11
1934.4530420710555
 21
1210.2904193681365
  0
LINE
  8
_2-0_
  6
DASHED1
 62
    7
 10
1928.6606420710552
 20
1211.2505193681365
 11
1928.6552420710552
 21
1210.2904193681365
  0
LINE
  8
_2-0_
  6
DASHED1
 62
    7
 10
1928.6541420710555
 20
1210.2904193681365
 11
1926.7945920710553
 21
1210.2904193681365
  0
LINE
  8
_2-0_
  6
DASHED1
 62
    7
 10
1929.6541420710555
 20
1206.3904193681364
 11
1929.6541420710555
 21
1211.2994193681365
  0
LINE
  8
_2-0_
  6
DASHED1
 62
    7
 10
1933.4541420710552
 20
1206.3904193681364
 11
1933.4541420710552
 21
1211.3309693681364
  0
LINE
  8
_2-0_
  6
DASHED1
 62
    7
 10
1906.5541420710553
 20
1206.8904193681364
 11
1906.5541420710553
 21
1211.8904193681364
  0
LINE
  8
_2-0_
  6
DASHED1
 62
    7
 10
1916.7541420710554
 20
1208.3904193681364
 11
1916.7541420710554
 21
1203.5904193681365
  0
LINE
  8
_2-0_
  6
DASHED1
 62
    7
 10
1903.2541420710554
 20
1208.3904193681364
 11
1922.4541420710554
 21
1208.3904193681364
  0
LINE
  8
_2-0_
  6
DASHED1
 62
    7
 10
1920.4541420710552
 20
1208.3904193681364
 11
1920.4541420710552
 21
1203.3904193681364
  0
LINE
  8
_2-0_
  6
DASHED1
 62
    7
 10
1920.4541420710552
 20
1203.3904193681364
 11
1921.0541420710551
 21
1203.3904193681364
  0
LINE
  8
_2-0_
  6
DASHED1
 62
    7
 10
1903.2541420710554
 20
1208.3904193681364
 11
1901.0541420710551
 21
1209.3904193681364
  0
LINE
  8
_2-0_
  6
DASHED1
 62
    7
 10
1891.7541420710554
 20
1209.3904193681364
 11
1891.7541420710554
 21
1207.3904193681364
  0
LINE
  8
_2-0_
  6
DASHED1
 62
    7
 10
1890.0541420710553
 20
1209.3904193681364
 11
1901.0541420710551
 21
1209.3904193681364
  0
LINE
  8
_2-0_
  6
DASHED1
 62
    7
 10
1890.0541420710553
 20
1210.5904193681365
 11
1922.4541420710554
 21
1211.0904193681365
  0
LINE
  8
_2-0_
  6
DASHED1
 62
    7
 10
1890.0541420710553
 20
1210.5904193681365
 11
1890.0541420710553
 21
1209.3904193681364
  0
LINE
  8
_2-0_
  6
DASHED1
 62
    7
 10
1891.0541420710551
 20
1207.3904193681364
 11
1891.7541420710554
 21
1207.3904193681364
  0
LINE
  8
_2-0_
  6
DASHED1
 62
    7
 10
1922.4541420710554
 20
1203.3904193681364
 11
1921.0541420710551
 21
1203.3904193681364
  0
LINE
  8
_2-0_
  6
DASHED1
 62
    7
 10
1922.4541420710554
 20
1211.0904193681365
 11
1922.4541420710554
 21
1208.0325193681364
  0
LINE
  8
_2-0_
  6
DASHED1
 62
    7
 10
1921.0541420710551
 20
1208.3904193681364
 11
1921.0541420710551
 21
1206.6325193681363
  0
LINE
  8
_2-0_
  6
DASHED1
 62
    7
 10
1921.0541420710551
 20
1206.6325193681363
 11
1921.0541420710551
 21
1203.5904193681365
  0
LINE
  8
_2-0_
  6
DASHED1
 62
    7
 10
1922.4541420710554
 20
1208.0325193681364
 11
1922.4541420710554
 21
1203.3904193681364
  0
LINE
  8
_2-0_
  6
DASHED1
 62
    7
 10
1917.7541420710554
 20
1202.5904193681365
 11
1920.0541420710553
 21
1202.5904193681365
  0
LINE
  8
_2-0_
  6
DASHED1
 62
    7
 10
1891.0541420710551
 20
1210.2904193681365
 11
1921.4541420710554
 21
1210.2904193681365
  0
LINE
  8
_2-0_
  6
DASHED1
 62
    7
 10
1921.4541420710554
 20
1210.2904193681365
 11
1921.4541420710554
 21
1211.0719193681366
  0
LINE
  8
_2-0_
  6
DASHED1
 62
    7
 10
1899.0041420710554
 20
1209.3904193681364
 11
1890.0541420710553
 21
1209.3904193681364
  0
LINE
  8
_2-0_
  6
DASHED1
 62
    7
 10
1891.0541420710551
 20
1210.2904193681365
 11
1891.0541420710551
 21
1210.6058693681366
  0
LINE
  8
_2-0_
  6
DASHED1
 62
    7
 10
1922.3938920710554
 20
1211.0893193681365
 11
1922.4541420710554
 21
1211.0545193681364
  0
LINE
  8
_2-0_
  6
DASHED1
 62
    7
 10
1914.7775920710555
 20
1210.2904193681365
 11
1918.0684920710552
 21
1208.3904193681364
  0
LINE
  8
_2-0_
  6
DASHED1
 62
    7
 10
1916.2775920710553
 20
1210.2904193681365
 11
1919.5684920710552
 21
1208.3904193681364
  0
LINE
  8
_2-0_
  6
DASHED1
 62
    7
 10
1917.7775920710553
 20
1210.2904193681365
 11
1921.0684920710555
 21
1208.3904193681364
  0
LINE
  8
_2-0_
  6
DASHED1
 62
    7
 10
1919.2775920710553
 20
1210.2904193681365
 11
1922.4541420710554
 21
1208.4564193681364
  0
LINE
  8
_2-0_
  6
DASHED1
 62
    7
 10
1920.7775920710555
 20
1210.2904193681365
 11
1922.4541420710554
 21
1209.3224693681365
  0
LINE
  8
_2-0_
  6
DASHED1
 62
    7
 10
1921.4541420710554
 20
1210.7658193681365
 11
1922.4541420710554
 21
1210.1884693681363
  0
LINE
  8
_2-0_
  6
DASHED1
 62
    7
 10
1901.2775920710553
 20
1210.2904193681365
 11
1904.5684920710552
 21
1208.3904193681364
  0
LINE
  8
_2-0_
  6
DASHED1
 62
    7
 10
1902.7775920710553
 20
1210.2904193681365
 11
1906.0684920710555
 21
1208.3904193681364
  0
LINE
  8
_2-0_
  6
DASHED1
 62
    7
 10
1904.2775920710553
 20
1210.2904193681365
 11
1907.5684920710555
 21
1208.3904193681364
  0
LINE
  8
_2-0_
  6
DASHED1
 62
    7
 10
1905.7775920710555
 20
1210.2904193681365
 11
1909.0684920710555
 21
1208.3904193681364
  0
LINE
  8
_2-0_
  6
DASHED1
 62
    7
 10
1907.2775920710555
 20
1210.2904193681365
 11
1910.5684920710552
 21
1208.3904193681364
  0
LINE
  8
_2-0_
  6
DASHED1
 62
    7
 10
1908.7775920710553
 20
1210.2904193681365
 11
1912.0684920710552
 21
1208.3904193681364
  0
LINE
  8
_2-0_
  6
DASHED1
 62
    7
 10
1910.2775920710553
 20
1210.2904193681365
 11
1913.5684920710555
 21
1208.3904193681364
  0
LINE
  8
_2-0_
  6
DASHED1
 62
    7
 10
1911.7775920710553
 20
1210.2904193681365
 11
1915.0684920710555
 21
1208.3904193681364
  0
LINE
  8
_2-0_
  6
DASHED1
 62
    7
 10
1913.2775920710555
 20
1210.2904193681365
 11
1916.5684920710555
 21
1208.3904193681364
  0
LINE
  8
_2-0_
  6
DASHED1
 62
    7
 10
1899.7775920710555
 20
1210.2904193681365
 11
1902.3812920710554
 21
1208.7871693681363
  0
LINE
  8
_2-0_
  6
DASHED1
 62
    7
 10
1898.2775920710555
 20
1210.2904193681365
 11
1899.8364420710552
 21
1209.3904193681364
  0
LINE
  8
_2-0_
  6
DASHED1
 62
    7
 10
1896.7775920710553
 20
1210.2904193681365
 11
1898.3364420710554
 21
1209.3904193681364
  0
LINE
  8
_2-0_
  6
DASHED1
 62
    7
 10
1895.2775920710553
 20
1210.2904193681365
 11
1896.8364420710554
 21
1209.3904193681364
  0
LINE
  8
_2-0_
  6
DASHED1
 62
    7
 10
1893.7775920710553
 20
1210.2904193681365
 11
1895.3364420710554
 21
1209.3904193681364
  0
LINE
  8
_2-0_
  6
DASHED1
 62
    7
 10
1892.2775920710555
 20
1210.2904193681365
 11
1893.8364420710554
 21
1209.3904193681364
  0
LINE
  8
_2-0_
  6
DASHED1
 62
    7
 10
1890.2526920710554
 20
1210.5934693681365
 11
1892.3364420710552
 21
1209.3904193681364
  0
LINE
  8
_2-0_
  6
DASHED1
 62
    7
 10
1890.0541420710553
 20
1209.8420693681364
 11
1890.8364420710554
 21
1209.3904193681364
  0
LINE
  8
_2-0_
  6
DASHED1
 62
    7
 10
1949.0541420710553
 20
1211.5904193681365
 11
1949.0541420710553
 21
1210.3904193681364
  0
LINE
  8
_2-0_
  6
DASHED1
 62
    7
 10
1949.0541420710553
 20
1210.3904193681364
 11
1949.0541420710553
 21
1207.3904193681364
  0
LINE
  8
_2-0_
  6
DASHED1
 62
    7
 10
1920.5293920710553
 20
1181.8904193681364
 11
1935.0541420710553
 21
1190.2762693681365
  0
LINE
  8
_2-0_
  6
DASHED1
 62
    7
 10
1922.0293920710555
 20
1181.8904193681364
 11
1935.0541420710553
 21
1189.4102693681363
  0
LINE
  8
_2-0_
  6
DASHED1
 62
    7
 10
1923.5293920710555
 20
1181.8904193681364
 11
1935.0784920710555
 21
1188.5583193681363
  0
LINE
  8
_2-0_
  6
DASHED1
 62
    7
 10
1925.0293920710553
 20
1181.8904193681364
 11
1935.0541420710553
 21
1187.6782193681365
  0
LINE
  8
_2-0_
  6
DASHED1
 62
    7
 10
1926.5293920710553
 20
1181.8904193681364
 11
1935.0541420710553
 21
1186.8121693681364
  0
LINE
  8
_2-0_
  6
DASHED1
 62
    7
 10
1928.0293920710553
 20
1181.8904193681364
 11
1935.0541420710553
 21
1185.9461693681364
  0
LINE
  8
_2-0_
  6
DASHED1
 62
    7
 10
1929.5293920710555
 20
1181.8904193681364
 11
1935.0541420710553
 21
1185.0801193681365
  0
LINE
  8
_2-0_
  6
DASHED1
 62
    7
 10
1931.0293920710555
 20
1181.8904193681364
 11
1935.0541420710553
 21
1184.2141193681366
  0
LINE
  8
_2-0_
  6
DASHED1
 62
    7
 10
1932.5293920710555
 20
1181.8904193681364
 11
1934.9637420710553
 21
1183.2958693681366
  0
LINE
  8
_2-0_
  6
DASHED1
 62
    7
 10
1924.0541420710553
 20
1200.3904193681364
 11
1924.0541420710553
 21
1196.8904193681364
  0
LINE
  8
_2-0_
  6
DASHED1
 62
    7
 10
1935.0541420710553
 20
1183.8904193681364
 11
1935.0541420710553
 21
1206.3904193681364
  0
LINE
  8
_2-0_
  6
DASHED1
 62
    7
 10
1933.0541420710553
 20
1181.8904193681364
 11
1895.0541420710553
 21
1181.8904193681364
  0
LINE
  8
_2-0_
  6
DASHED1
 62
    7
 10
1925.0541420710553
 20
1195.8904193681364
 11
1935.0541420710553
 21
1195.8904193681364
  0
LINE
  8
_2-0_
  6
DASHED1
 62
    7
 10
1894.8453420710552
 20
1184.0040693681364
 11
1904.0541420710553
 21
1183.5214193681365
  0
LINE
  8
_2-0_
  6
DASHED1
 62
    7
 10
1918.2634920710552
 20
1184.0040693681364
 11
1907.5541420710553
 21
1183.4428193681364
  0
LINE
  8
_2-0_
  6
DASHED1
 62
    7
 10
1907.1599920710555
 20
1200.3540193681365
 11
1907.1599920710555
 21
1199.9358193681364
  0
LINE
  8
_2-0_
  6
DASHED1
 62
    7
 10
1893.1924420710552
 20
1195.7533693681364
 11
1905.5541420710553
 21
1202.8904193681364
  0
LINE
  8
_2-0_
  6
DASHED1
 62
    7
 10
1892.2007420710554
 20
1198.1242193681364
 11
1903.0541420710553
 21
1204.3904193681364
  0
LINE
  8
_2-0_
  6
DASHED1
 62
    7
 10
1920.9617420710555
 20
1198.7619693681363
 11
1905.5541420710553
 21
1202.8904193681364
  0
LINE
  8
_2-0_
  6
DASHED1
 62
    7
 10
1924.0541420710553
 20
1192.1904193681366
 11
1933.0541420710553
 21
1192.1904193681366
  0
LINE
  8
_2-0_
  6
DASHED1
 62
    7
 10
1924.0541420710553
 20
1192.1904193681366
 11
1924.0541420710553
 21
1187.8904193681364
  0
LINE
  8
_2-0_
  6
DASHED1
 62
    7
 10
1924.0541420710553
 20
1192.1904193681366
 11
1924.0541420710553
 21
1196.8904193681364
  0
LINE
  8
_2-0_
  6
DASHED1
 62
    7
 10
1956.3040920710554
 20
1202.8904193681364
 11
1958.8040920710554
 21
1202.8904193681364
  0
LINE
  8
_2-0_
  6
DASHED1
 62
    7
 10
1958.8040920710554
 20
1210.3904193681364
 11
1958.8040920710554
 21
1202.8904193681364
  0
LINE
  8
_2-0_
  6
DASHED1
 62
    7
 10
1956.3040920710554
 20
1210.3904193681364
 11
1956.3040920710554
 21
1202.8904193681364
  0
LINE
  8
_2-0_
  6
DASHED1
 62
    7
 10
1957.5540920710554
 20
1201.3004193681365
 11
1957.5540920710554
 21
1212.3904193681364
  0
ARC
  8
_2-0_
  6
DASHED1
 62
    7
 10
1895.0541420710553
 20
1187.8904193681364
 40
6.0000000000000008
 50
180.00000000000005
 51
270.00000000000011
  0
ARC
  8
_2-0_
  6
DASHED1
 62
    7
 10
1918.0541420710553
 20
1187.9986193681365
 40
4
 50
337.36900000000008
 51
0.0000000000000731
  0
ARC
  8
_2-0_
  6
DASHED1
 62
    7
 10
1895.0541420710553
 20
1187.9881193681364
 40
4
 50
180.00000000000005
 51
235.53000000000005
  0
ARC
  8
_2-0_
  6
DASHED1
 62
    7
 10
1928.0541420710553
 20
1202.3904193681366
 40
4
 50
90.000000000000042
 51
95.18700000000004
  0
ARC
  8
_2-0_
  6
DASHED1
 62
    7
 10
1928.0541420710553
 20
1202.3904193681366
 40
4
 50
95.187000000000026
 51
180.00000000000005
  0
CIRCLE
  8
_2-0_
  6
DASHED1
 62
    7
 10
1919.0541420710553
 20
1200.3904193681364
 40
2.1
  0
CIRCLE
  8
_2-0_
  6
DASHED1
 62
    7
 10
1919.0541420710553
 20
1200.3904193681364
 40
3.0000000000000004
  0
ARC
  8
_2-0_
  6
DASHED1
 62
    7
 10
1959.0540920710554
 20
1209.3904193681364
 40
1
 50
0.0000000000000127
 51
90.000000000000042
  0
ARC
  8
_2-0_
  6
DASHED1
 62
    7
 10
1916.8864920710552
 20
1202.4643693681364
 40
6.0000000000000008
 50
258.78600000000011
 51
316.26600000000013
  0
CIRCLE
  8
_2-0_
  6
DASHED1
 62
    7
 10
1919.0541420710553
 20
1200.3904193681364
 40
3.0000000000000004
  0
CIRCLE
  8
_2-0_
  6
DASHED1
 62
    7
 10
1919.0541420710553
 20
1200.3904193681364
 40
2.1
  0
ARC
  8
_2-0_
  6
DASHED1
 62
    7
 10
1930.1257420710553
 20
1204.3904193681364
 40
2
 50
90.000000000000056
 51
135.00000000000005
  0
ARC
  8
_2-0_
  6
DASHED1
 62
    7
 10
1926.8830920710552
 20
1205.3904193681364
 40
5
 50
90.000000000000056
 51
135.00000000000005
  0
ARC
  8
_2-0_
  6
DASHED1
 62
    7
 10
1915.3267420710553
 20
1209.3904193681364
 40
6.0000000000000008
 50
270.00000000000005
 51
315.00000000000005
  0
ARC
  8
_2-0_
  6
DASHED1
 62
    7
 10
1921.2205420710554
 20
1199.7278693681366
 40
1
 50
255.00000000000005
 51
315.00000000000005
  0
ARC
  8
_2-0_
  6
DASHED1
 62
    7
 10
1891.6881920710554
 20
1203.5811693681364
 40
10
 50
282.37900000000007
 51
299.06400000000007
  0
ARC
  8
_2-0_
  6
DASHED1
 62
    7
 10
1893.6175920710552
 20
1194.7904193681365
 40
1
 50
187.00000000000011
 51
282.37900000000013
  0
ARC
  8
_2-0_
  6
DASHED1
 62
    7
 10
1907.4541420710554
 20
1154.8904193681364
 40
42.00685
 50
85.623000000000018
 51
93.038000000000025
  0
ARC
  8
_2-0_
  6
DASHED1
 62
    7
 10
1906.2616920710552
 20
1177.3588193681366
 40
19.50685
 50
93.038000000000025
 51
108.22800000000002
  0
ARC
  8
_2-0_
  6
DASHED1
 62
    7
 10
1907.4541420710554
 20
1154.8904193681364
 40
42.706699999999997
 50
85.695000000000021
 51
93.038000000000025
  0
ARC
  8
_2-0_
  6
DASHED1
 62
    7
 10
1906.2616920710552
 20
1177.3588193681366
 40
20.206700000000004
 50
93.038000000000025
 51
107.57599999999996
  0
ARC
  8
_2-0_
  6
DASHED1
 62
    7
 10
1907.4541420710554
 20
1154.8904193681364
 40
42.5
 50
78.786000000000015
 51
93.038000000000025
  0
ARC
  8
_2-0_
  6
DASHED1
 62
    7
 10
1906.2616920710552
 20
1177.3588193681366
 40
20
 50
92.027000000000029
 51
119.06400000000003
  0
ARC
  8
_2-0_
  6
DASHED1
 62
    7
 10
1892.9424420710554
 20
1196.1864193681365
 40
0.5
 50
187.00000000000011
 51
300.00000000000005
  0
ARC
  8
_2-0_
  6
DASHED1
 62
    7
 10
1919.0541420710553
 20
1200.3904193681364
 40
2.2999999999999998
 50
180.00000000000005
 51
0.0000000000001017
  0
ARC
  8
_2-0_
  6
DASHED1
 62
    7
 10
1928.0541420710553
 20
1204.3904193681364
 40
2
 50
90.000000000000028
 51
180.00000000000005
  0
ARC
  8
_2-0_
  6
DASHED1
 62
    7
 10
1924.0541420710553
 20
1203.8904193681364
 40
2
 50
330.00000000000011
 51
0
  0
ARC
  8
_2-0_
  6
DASHED1
 62
    7
 10
1920.0541420710553
 20
1203.5904193681365
 40
1
 50
270.00000000000005
 51
0.0000000000000508
  0
ARC
  8
_2-0_
  6
DASHED1
 62
    7
 10
1917.7541420710554
 20
1203.5904193681365
 40
1
 50
180.00000000000005
 51
270.00000000000011
  0
ARC
  8
_2-0_
  6
DASHED1
 62
    7
 10
1948.0541420710553
 20
1207.3904193681364
 40
1
 50
270.00000000000005
 51
0.0000000000000508
  0
ARC
  8
_2-0_
  6
DASHED1
 62
    7
 10
1905.9941420710556
 20
1192.1804193681364
 40
8.7300000000000004
 50
157.33400000000003
 51
33.423999999999978
  0
ARC
  8
_2-0_
  6
DASHED1
 62
    7
 10
1933.0541420710553
 20
1193.1904193681364
 40
1
 50
270.00000000000005
 51
0.0000000000000508
  0
ARC
  8
_2-0_
  6
DASHED1
 62
    7
 10
1925.0541420710553
 20
1196.8904193681364
 40
1
 50
180.00000000000005
 51
270.00000000000011
  0
ARC
  8
_2-0_
  6
DASHED1
 62
    7
 10
1933.0541420710553
 20
1183.8904193681364
 40
2
 50
270.00000000000005
 51
0.0000000000000508
  0
ARC
  8
_2-0_
  6
DASHED1
 62
    7
 10
1895.0541420710553
 20
1187.9881193681364
 40
4
 50
235.53000000000005
 51
267.00000000000005
  0
ARC
  8
_2-0_
  6
DASHED1
 62
    7
 10
1918.0541420710553
 20
1187.9986193681365
 40
4
 50
273.00000000000005
 51
337.36900000000014
  0
ARC
  8
_2-0_
  6
DASHED1
 62
    7
 10
1907.4541420710554
 20
1154.8904193681364
 40
45.472499999999996
 50
90.371000000000037
 51
93.038000000000039
  0
ARC
  8
_2-0_
  6
DASHED1
 62
    7
 10
1907.4541420710554
 20
1154.8904193681364
 40
45.046349999999996
 50
90.374000000000023
 51
93.038000000000025
  0
ARC
  8
_2-0_
  6
DASHED1
 62
    7
 10
1906.2616920710552
 20
1177.3588193681366
 40
22.54635
 50
93.038000000000025
 51
105.70200000000005
  0
ARC
  8
_2-0_
  6
DASHED1
 62
    7
 10
1906.2616920710552
 20
1177.3588193681366
 40
22.9725
 50
93.038000000000025
 51
105.40300000000002
  0
ARC
  8
_2-0_
  6
DASHED1
 62
    7
 10
1905.9941420710556
 20
1192.1804193681364
 40
8.7300000000000004
 50
33.424000000000006
 51
157.33400000000003
  0
ARC
  8
_2-0_
  6
DASHED1
 62
    7
 10
1918.0541420710553
 20
1187.8904193681364
 40
6.0000000000000008
 50
270.00000000000005
 51
0.0000000000000508
  0
LINE
  8
_2-0_
  6
DASHED1
 62
    7
 10
1906.5541420710553
 20
1212.4904193681365
 11
1906.5541420710553
 21
1178.0904193681365
  0
ARC
  8
_2-0_
  6
DASHED1
 62
    7
 10
1970.3541420710557
 20
1196.3279193681364
 40
1.1999999999999999
 50
359.99999999999994
 51
89.999999999999943
  0
ARC
  8
_2-0_
  6
DASHED1
 62
    7
 10
1970.3541420710557
 20
1196.3279193681364
 40
1.1999999999999999
 50
359.99999999999994
 51
89.999999999999943
  0
LINE
  8
_2-0_
  6
DASHED1
 62
    7
 10
1971.554142071056
 20
1193.3279193681364
 11
1970.3541420710557
 21
1193.3279193681364
  0
LINE
  8
_2-0_
  6
DASHED1
 62
    7
 10
1970.3541420710557
 20
1196.3279193681364
 11
1970.3541420710557
 21
1176.3279193681364
  0
LINE
  8
_2-0_
  6
DASHED1
 62
    7
 10
1971.554142071056
 20
1176.3279193681364
 11
1970.3541420710557
 21
1176.3279193681364
  0
LINE
  8
_2-0_
  6
DASHED1
 62
    7
 10
1971.554142071056
 20
1196.3279193681364
 11
1971.554142071056
 21
1176.3279193681364
  0
LINE
  8
_2-0_
  6
DASHED1
 62
    7
 10
1970.3541420710557
 20
1195.8279193681364
 11
1970.3541420710557
 21
1180.6872193681365
  0
LINE
  8
_2-0_
  6
DASHED1
 62
    7
 10
1969.8541420710557
 20
1196.3279193681364
 11
1954.713442071056
 21
1196.3279193681364
  0
LINE
  8
_2-0_
  6
DASHED1
 62
    7
 10
1940.554142071056
 20
1196.3279193681364
 11
1940.554142071056
 21
1197.5279193681365
  0
LINE
  8
_2-0_
  6
DASHED1
 62
    7
 10
1970.3541420710557
 20
1197.5279193681365
 11
1934.554142071056
 21
1197.5279193681365
  0
LINE
  8
_2-0_
  6
DASHED1
 62
    7
 10
1970.3541420710557
 20
1196.3279193681364
 11
1934.554142071056
 21
1196.3279193681364
  0
LINE
  8
_2-0_
  6
DASHED1
 62
    7
 10
1934.554142071056
 20
1197.5279193681365
 11
1934.554142071056
 21
1196.3279193681364
  0
LINE
  8
_2-0_
  6
DASHED1
 62
    7
 10
2482.0541420710546
 20
1213.7279193681356
 11
2482.0541420710546
 21
1205.3279193681355
  0
LINE
  8
_2-0_
  6
DASHED1
 62
    7
 10
2481.0541420710546
 20
1182.1279193681357
 11
2458.0541420710546
 21
1182.1279193681357
  0
LINE
  8
_2-0_
  6
DASHED1
 62
    7
 10
2469.5541420710546
 20
1199.1279193681357
 11
2462.0541420710546
 21
1199.1279193681357
  0
LINE
  8
_2-0_
  6
DASHED1
 62
    7
 10
2459.5541420710546
 20
1206.6279193681357
 11
2459.5541420710546
 21
1201.1279193681355
  0
LINE
  8
_2-0_
  6
DASHED1
 62
    7
 10
2461.0541420710546
 20
1200.6279193681357
 11
2460.0541420710542
 21
1200.6279193681357
  0
LINE
  8
_2-0_
  6
DASHED1
 62
    7
 10
2489.1341420710546
 20
1210.0779193681357
 11
2489.1541420710545
 21
1210.0779193681357
  0
LINE
  8
_2-0_
  6
DASHED1
 62
    7
 10
2452.0541420710546
 20
1192.4279193681356
 11
2451.0541420710546
 21
1192.4279193681356
  0
LINE
  8
_2-0_
  6
DASHED1
 62
    7
 10
2453.0541420710546
 20
1206.6279193681357
 11
2460.5541420710546
 21
1206.6279193681357
  0
LINE
  8
_2-0_
  6
DASHED1
 62
    7
 10
2452.0541420710546
 20
1205.6279193681357
 11
2452.0541420710546
 21
1188.1279193681357
  0
LINE
  8
_2-0_
  6
DASHED1
 62
    7
 10
2450.0541420710542
 20
1211.8279193681357
 11
2450.0541420710542
 21
1193.4279193681356
  0
LINE
  8
_2-0_
  6
DASHED1
 62
    7
 10
2461.5541420710546
 20
1211.8279193681357
 11
2450.0541420710542
 21
1211.8279193681357
  0
LINE
  8
_2-0_
  6
DASHED1
 62
    7
 10
2452.0541420710546
 20
1211.8279193681357
 11
2452.0541420710546
 21
1207.6279193681357
  0
LINE
  8
_2-0_
  6
DASHED1
 62
    7
 10
2461.5541420710546
 20
1211.8279193681357
 11
2461.5541420710546
 21
1199.6279193681357
  0
LINE
  8
_2-0_
  6
DASHED1
 62
    7
 10
2487.0541420710546
 20
1211.8279193681357
 11
2487.0541420710546
 21
1188.1279193681357
  0
LINE
  8
_2-0_
  6
DASHED1
 62
    7
 10
2477.5541420710542
 20
1211.8279193681357
 11
2489.0541420710546
 21
1211.8279193681357
  0
LINE
  8
_2-0_
  6
DASHED1
 62
    7
 10
2489.0541420710546
 20
1211.8279193681357
 11
2489.0541420710546
 21
1193.4279193681356
  0
LINE
  8
_2-0_
  6
DASHED1
 62
    7
 10
2487.0541420710546
 20
1192.4279193681356
 11
2488.0541420710546
 21
1192.4279193681356
  0
LINE
  8
_2-0_
  6
DASHED1
 62
    7
 10
2461.5541420710546
 20
1210.9279193681356
 11
2477.5541420710542
 21
1210.9279193681356
  0
LINE
  8
_2-0_
  6
DASHED1
 62
    7
 10
2477.5541420710542
 20
1211.8279193681357
 11
2477.5541420710542
 21
1199.6279193681357
  0
LINE
  8
_2-0_
  6
DASHED1
 62
    7
 10
2469.5541420710546
 20
1199.1279193681357
 11
2477.0541420710546
 21
1199.1279193681357
  0
LINE
  8
_2-0_
  6
DASHED1
 62
    7
 10
2486.0541420710546
 20
1206.6279193681357
 11
2478.5541420710546
 21
1206.6279193681357
  0
LINE
  8
_2-0_
  6
DASHED1
 62
    7
 10
2476.0541420710546
 20
1210.6279193681357
 11
2463.0541420710546
 21
1210.6279193681357
  0
LINE
  8
_2-0_
  6
DASHED1
 62
    7
 10
2466.5541420710546
 20
1206.6279193681357
 11
2466.5541420710546
 21
1201.6279193681357
  0
LINE
  8
_2-0_
  6
DASHED1
 62
    7
 10
2471.5541420710546
 20
1200.6279193681357
 11
2467.5541420710542
 21
1200.6279193681357
  0
LINE
  8
_2-0_
  6
DASHED1
 62
    7
 10
2472.5541420710542
 20
1206.6279193681357
 11
2472.5541420710542
 21
1201.6279193681357
  0
LINE
  8
_2-0_
  6
DASHED1
 62
    7
 10
2476.0541420710546
 20
1206.6279193681357
 11
2472.5541420710542
 21
1206.6279193681357
  0
LINE
  8
_2-0_
  6
DASHED1
 62
    7
 10
2466.5541420710546
 20
1206.6279193681357
 11
2463.0541420710546
 21
1206.6279193681357
  0
LINE
  8
_2-0_
  6
DASHED1
 62
    7
 10
2464.0541420710546
 20
1200.2317693681357
 11
2463.8575420710544
 21
1200.6915193681356
  0
LINE
  8
_2-0_
  6
DASHED1
 62
    7
 10
2475.0541420710542
 20
1200.2317693681357
 11
2475.2507420710544
 21
1200.6915193681356
  0
LINE
  8
_2-0_
  6
DASHED1
 62
    7
 10
2477.0541420710546
 20
1199.1279193681357
 11
2477.0541420710546
 21
1209.6279193681357
  0
LINE
  8
_2-0_
  6
DASHED1
 62
    7
 10
2462.0541420710546
 20
1199.1279193681357
 11
2462.0541420710546
 21
1209.6279193681357
  0
LINE
  8
_2-0_
  6
DASHED1
 62
    7
 10
2478.0541420710546
 20
1200.6279193681357
 11
2479.0541420710546
 21
1200.6279193681357
  0
LINE
  8
_2-0_
  6
DASHED1
 62
    7
 10
2479.5541420710546
 20
1206.6279193681357
 11
2479.5541420710546
 21
1201.1279193681355
  0
LINE
  8
_2-0_
  6
DASHED1
 62
    7
 10
2461.5541420710546
 20
1204.6279193681357
 11
2462.0541420710546
 21
1204.6279193681357
  0
LINE
  8
_2-0_
  6
DASHED1
 62
    7
 10
2461.5541420710546
 20
1203.6279193681357
 11
2462.0541420710546
 21
1203.6279193681357
  0
LINE
  8
_2-0_
  6
DASHED1
 62
    7
 10
2477.0541420710546
 20
1203.6279193681357
 11
2477.5541420710542
 21
1203.6279193681357
  0
LINE
  8
_2-0_
  6
DASHED1
 62
    7
 10
2477.0541420710546
 20
1204.6279193681357
 11
2477.5541420710542
 21
1204.6279193681357
  0
LINE
  8
_2-0_
  6
DASHED1
 62
    7
 10
2461.5541420710546
 20
1211.3279193681357
 11
2477.5541420710542
 21
1211.3279193681357
  0
LINE
  8
_2-0_
  6
DASHED1
 62
    7
 10
2469.5541420710546
 20
1182.1279193681357
 11
2468.8541420710544
 21
1182.1279193681357
  0
LINE
  8
_2-0_
  6
DASHED1
 62
    7
 10
2469.5541420710546
 20
1182.1279193681357
 11
2470.2541420710549
 21
1182.1279193681357
  0
LINE
  8
_2-0_
  6
DASHED1
 62
    7
 10
2469.0541420710546
 20
1196.1279193681355
 11
2469.5541420710546
 21
1196.1279193681355
  0
LINE
  8
_2-0_
  6
DASHED1
 62
    7
 10
2468.5541420710546
 20
1182.4279193681356
 11
2468.5541420710546
 21
1195.6279193681357
  0
LINE
  8
_2-0_
  6
DASHED1
 62
    7
 10
2470.5541420710546
 20
1182.4279193681356
 11
2470.5541420710546
 21
1195.6279193681357
  0
LINE
  8
_2-0_
  6
DASHED1
 62
    7
 10
2469.5541420710546
 20
1196.1279193681355
 11
2470.0541420710542
 21
1196.1279193681355
  0
LINE
  8
_2-0_
  6
DASHED1
 62
    7
 10
2469.5541420710546
 20
1212.4279193681356
 11
2469.5541420710546
 21
1179.4279193681356
  0
ARC
  8
_2-0_
  6
DASHED1
 62
    7
 10
2458.0541420710546
 20
1188.1279193681357
 40
6.0000000000000008
 50
180.00000000000005
 51
270.00000000000005
  0
ARC
  8
_2-0_
  6
DASHED1
 62
    7
 10
2481.0541420710546
 20
1188.1279193681357
 40
6.0000000000000008
 50
270.00000000000005
 51
0.0000000000000508
  0
ARC
  8
_2-0_
  6
DASHED1
 62
    7
 10
2460.5541420710546
 20
1207.6279193681357
 40
1
 50
270.00000000000005
 51
0.0000000000000508
  0
ARC
  8
_2-0_
  6
DASHED1
 62
    7
 10
2453.0541420710546
 20
1207.6279193681357
 40
1
 50
180.00000000000005
 51
270.00000000000005
  0
ARC
  8
_2-0_
  6
DASHED1
 62
    7
 10
2462.0541420710546
 20
1199.6279193681357
 40
0.5
 50
180.00000000000005
 51
270.00000000000005
  0
ARC
  8
_2-0_
  6
DASHED1
 62
    7
 10
2461.0541420710546
 20
1201.1279193681355
 40
0.5
 50
270.00000000000005
 51
0.0000000000000508
  0
ARC
  8
_2-0_
  6
DASHED1
 62
    7
 10
2460.0541420710542
 20
1201.1279193681355
 40
0.5
 50
180.00000000000005
 51
270.00000000000005
  0
ARC
  8
_2-0_
  6
DASHED1
 62
    7
 10
2451.0541420710546
 20
1193.4279193681356
 40
1
 50
180.00000000000005
 51
270.00000000000005
  0
ARC
  8
_2-0_
  6
DASHED1
 62
    7
 10
2453.0541420710546
 20
1205.6279193681357
 40
1
 50
90.000000000000028
 51
180.00000000000005
  0
ARC
  8
_2-0_
  6
DASHED1
 62
    7
 10
2488.0541420710546
 20
1193.4279193681356
 40
1
 50
270.00000000000005
 51
0.0000000000000508
  0
ARC
  8
_2-0_
  6
DASHED1
 62
    7
 10
2477.0541420710546
 20
1199.6279193681357
 40
0.5
 50
270.00000000000005
 51
0.0000000000000508
  0
ARC
  8
_2-0_
  6
DASHED1
 62
    7
 10
2478.5541420710546
 20
1207.6279193681357
 40
1
 50
180.00000000000005
 51
270.00000000000005
  0
ARC
  8
_2-0_
  6
DASHED1
 62
    7
 10
2486.0541420710546
 20
1207.6279193681357
 40
1
 50
270.00000000000005
 51
0.0000000000000508
  0
ARC
  8
_2-0_
  6
DASHED1
 62
    7
 10
2463.0541420710546
 20
1209.6279193681357
 40
1
 50
90.000000000000028
 51
180.00000000000005
  0
ARC
  8
_2-0_
  6
DASHED1
 62
    7
 10
2476.0541420710546
 20
1209.6279193681357
 40
1
 50
0
 51
90.000000000000028
  0
ARC
  8
_2-0_
  6
DASHED1
 62
    7
 10
2463.0541420710546
 20
1207.6279193681357
 40
1
 50
180.00000000000005
 51
270.00000000000005
  0
ARC
  8
_2-0_
  6
DASHED1
 62
    7
 10
2476.0541420710546
 20
1207.6279193681357
 40
1
 50
270.00000000000005
 51
0.0000000000000508
  0
ARC
  8
_2-0_
  6
DASHED1
 62
    7
 10
2467.5541420710542
 20
1201.6279193681357
 40
1
 50
180.00000000000005
 51
270.00000000000005
  0
ARC
  8
_2-0_
  6
DASHED1
 62
    7
 10
2471.5541420710546
 20
1201.6279193681357
 40
1
 50
270.00000000000005
 51
0.0000000000000508
  0
ARC
  8
_2-0_
  6
DASHED1
 62
    7
 10
2478.0541420710546
 20
1201.1279193681355
 40
0.5
 50
180.00000000000005
 51
270.00000000000005
  0
ARC
  8
_2-0_
  6
DASHED1
 62
    7
 10
2479.0541420710546
 20
1201.1279193681355
 40
0.5
 50
270.00000000000005
 51
0.0000000000000508
  0
ARC
  8
_2-0_
  6
DASHED1
 62
    7
 10
2468.8541420710544
 20
1182.4279193681356
 40
0.2999999999999998
 50
180.00000000000005
 51
270.00000000000005
  0
ARC
  8
_2-0_
  6
DASHED1
 62
    7
 10
2470.2541420710549
 20
1182.4279193681356
 40
0.2999999999999998
 50
270.00000000000005
 51
0.0000000000000508
  0
ARC
  8
_2-0_
  6
DASHED1
 62
    7
 10
2469.0541420710546
 20
1195.6279193681357
 40
0.5
 50
90.000000000000028
 51
180.00000000000005
  0
ARC
  8
_2-0_
  6
DASHED1
 62
    7
 10
2470.0541420710542
 20
1195.6279193681357
 40
0.5
 50
0
 51
90.000000000000028
  0
LINE
  8
_2-0_
  6
DASHED1
 62
    7
 10
2457.0541420710546
 20
1213.7279193681356
 11
2457.0541420710546
 21
1205.3279193681355
  0
LINE
  8
_2-0_
  6
DASHED1
 62
    7
 10
2903.8603224007183
 20
1213.7279193681367
 11
2903.8603224007183
 21
1205.3279193681366
  0
LINE
  8
_2-0_
  6
DASHED1
 62
    7
 10
2902.8603224007179
 20
1182.1279193681366
 11
2879.8603224007179
 21
1182.1279193681366
  0
LINE
  8
_2-0_
  6
DASHED1
 62
    7
 10
2891.3603224007183
 20
1199.1279193681366
 11
2883.8603224007183
 21
1199.1279193681366
  0
LINE
  8
_2-0_
  6
DASHED1
 62
    7
 10
2881.3603224007183
 20
1206.6279193681366
 11
2881.3603224007183
 21
1201.1279193681364
  0
LINE
  8
_2-0_
  6
DASHED1
 62
    7
 10
2882.8603224007179
 20
1200.6279193681366
 11
2881.8603224007174
 21
1200.6279193681366
  0
LINE
  8
_2-0_
  6
DASHED1
 62
    7
 10
2910.9403224007178
 20
1210.0779193681366
 11
2910.9603224007178
 21
1210.0779193681366
  0
LINE
  8
_2-0_
  6
DASHED1
 62
    7
 10
2873.8603224007183
 20
1192.4279193681368
 11
2872.8603224007179
 21
1192.4279193681368
  0
LINE
  8
_2-0_
  6
DASHED1
 62
    7
 10
2874.8603224007179
 20
1206.6279193681366
 11
2882.3603224007179
 21
1206.6279193681366
  0
LINE
  8
_2-0_
  6
DASHED1
 62
    7
 10
2873.8603224007183
 20
1205.6279193681366
 11
2873.8603224007183
 21
1188.1279193681366
  0
LINE
  8
_2-0_
  6
DASHED1
 62
    7
 10
2871.8603224007174
 20
1211.8279193681366
 11
2871.8603224007174
 21
1193.4279193681365
  0
LINE
  8
_2-0_
  6
DASHED1
 62
    7
 10
2883.3603224007179
 20
1211.8279193681366
 11
2871.8603224007174
 21
1211.8279193681366
  0
LINE
  8
_2-0_
  6
DASHED1
 62
    7
 10
2873.8603224007183
 20
1211.8279193681366
 11
2873.8603224007183
 21
1207.6279193681366
  0
LINE
  8
_2-0_
  6
DASHED1
 62
    7
 10
2883.3603224007179
 20
1211.8279193681366
 11
2883.3603224007179
 21
1199.6279193681366
  0
LINE
  8
_2-0_
  6
DASHED1
 62
    7
 10
2908.8603224007183
 20
1211.8279193681366
 11
2908.8603224007183
 21
1188.1279193681366
  0
LINE
  8
_2-0_
  6
DASHED1
 62
    7
 10
2899.3603224007174
 20
1211.8279193681366
 11
2910.8603224007179
 21
1211.8279193681366
  0
LINE
  8
_2-0_
  6
DASHED1
 62
    7
 10
2910.8603224007179
 20
1211.8279193681366
 11
2910.8603224007179
 21
1193.4279193681365
  0
LINE
  8
_2-0_
  6
DASHED1
 62
    7
 10
2908.8603224007183
 20
1192.4279193681368
 11
2909.8603224007179
 21
1192.4279193681368
  0
LINE
  8
_2-0_
  6
DASHED1
 62
    7
 10
2883.3603224007179
 20
1210.9279193681365
 11
2899.3603224007174
 21
1210.9279193681365
  0
LINE
  8
_2-0_
  6
DASHED1
 62
    7
 10
2899.3603224007174
 20
1211.8279193681366
 11
2899.3603224007174
 21
1199.6279193681366
  0
LINE
  8
_2-0_
  6
DASHED1
 62
    7
 10
2891.3603224007183
 20
1199.1279193681366
 11
2898.8603224007183
 21
1199.1279193681366
  0
LINE
  8
_2-0_
  6
DASHED1
 62
    7
 10
2907.8603224007179
 20
1206.6279193681366
 11
2900.3603224007179
 21
1206.6279193681366
  0
LINE
  8
_2-0_
  6
DASHED1
 62
    7
 10
2897.8603224007179
 20
1210.6279193681366
 11
2884.8603224007179
 21
1210.6279193681366
  0
LINE
  8
_2-0_
  6
DASHED1
 62
    7
 10
2888.3603224007179
 20
1206.6279193681366
 11
2888.3603224007179
 21
1201.6279193681366
  0
LINE
  8
_2-0_
  6
DASHED1
 62
    7
 10
2893.3603224007179
 20
1200.6279193681366
 11
2889.3603224007174
 21
1200.6279193681366
  0
LINE
  8
_2-0_
  6
DASHED1
 62
    7
 10
2894.3603224007174
 20
1206.6279193681366
 11
2894.3603224007174
 21
1201.6279193681366
  0
LINE
  8
_2-0_
  6
DASHED1
 62
    7
 10
2897.8603224007179
 20
1206.6279193681366
 11
2894.3603224007174
 21
1206.6279193681366
  0
LINE
  8
_2-0_
  6
DASHED1
 62
    7
 10
2888.3603224007179
 20
1206.6279193681366
 11
2884.8603224007179
 21
1206.6279193681366
  0
LINE
  8
_2-0_
  6
DASHED1
 62
    7
 10
2885.8603224007179
 20
1200.2317693681366
 11
2885.6637224007181
 21
1200.6915193681365
  0
LINE
  8
_2-0_
  6
DASHED1
 62
    7
 10
2896.8603224007174
 20
1200.2317693681366
 11
2897.0569224007181
 21
1200.6915193681365
  0
LINE
  8
_2-0_
  6
DASHED1
 62
    7
 10
2898.8603224007183
 20
1199.1279193681366
 11
2898.8603224007183
 21
1209.6279193681366
  0
LINE
  8
_2-0_
  6
DASHED1
 62
    7
 10
2883.8603224007183
 20
1199.1279193681366
 11
2883.8603224007183
 21
1209.6279193681366
  0
LINE
  8
_2-0_
  6
DASHED1
 62
    7
 10
2899.8603224007179
 20
1200.6279193681366
 11
2900.8603224007179
 21
1200.6279193681366
  0
LINE
  8
_2-0_
  6
DASHED1
 62
    7
 10
2901.3603224007183
 20
1206.6279193681366
 11
2901.3603224007183
 21
1201.1279193681364
  0
LINE
  8
_2-0_
  6
DASHED1
 62
    7
 10
2883.3603224007179
 20
1204.6279193681366
 11
2883.8603224007183
 21
1204.6279193681366
  0
LINE
  8
_2-0_
  6
DASHED1
 62
    7
 10
2883.3603224007179
 20
1203.6279193681368
 11
2883.8603224007183
 21
1203.6279193681368
  0
LINE
  8
_2-0_
  6
DASHED1
 62
    7
 10
2898.8603224007183
 20
1203.6279193681368
 11
2899.3603224007174
 21
1203.6279193681368
  0
LINE
  8
_2-0_
  6
DASHED1
 62
    7
 10
2898.8603224007183
 20
1204.6279193681366
 11
2899.3603224007174
 21
1204.6279193681366
  0
LINE
  8
_2-0_
  6
DASHED1
 62
    7
 10
2883.3603224007179
 20
1211.3279193681366
 11
2899.3603224007174
 21
1211.3279193681366
  0
LINE
  8
_2-0_
  6
DASHED1
 62
    7
 10
2891.3603224007183
 20
1182.1279193681366
 11
2890.6603224007176
 21
1182.1279193681366
  0
LINE
  8
_2-0_
  6
DASHED1
 62
    7
 10
2891.3603224007183
 20
1182.1279193681366
 11
2892.0603224007181
 21
1182.1279193681366
  0
LINE
  8
_2-0_
  6
DASHED1
 62
    7
 10
2890.8603224007179
 20
1196.1279193681364
 11
2891.3603224007183
 21
1196.1279193681364
  0
LINE
  8
_2-0_
  6
DASHED1
 62
    7
 10
2890.3603224007179
 20
1182.4279193681368
 11
2890.3603224007179
 21
1195.6279193681366
  0
LINE
  8
_2-0_
  6
DASHED1
 62
    7
 10
2892.3603224007179
 20
1182.4279193681368
 11
2892.3603224007179
 21
1195.6279193681366
  0
LINE
  8
_2-0_
  6
DASHED1
 62
    7
 10
2891.3603224007183
 20
1196.1279193681364
 11
2891.8603224007174
 21
1196.1279193681364
  0
LINE
  8
_2-0_
  6
DASHED1
 62
    7
 10
2891.3603224007183
 20
1212.4279193681368
 11
2891.3603224007183
 21
1179.4279193681368
  0
ARC
  8
_2-0_
  6
DASHED1
 62
    7
 10
2879.8603224007179
 20
1188.1279193681366
 40
6.0000000000000008
 50
180.00000000000005
 51
270.00000000000005
  0
ARC
  8
_2-0_
  6
DASHED1
 62
    7
 10
2902.8603224007179
 20
1188.1279193681366
 40
6.0000000000000008
 50
270.00000000000005
 51
0.0000000000000508
  0
ARC
  8
_2-0_
  6
DASHED1
 62
    7
 10
2882.3603224007179
 20
1207.6279193681366
 40
1
 50
270.00000000000005
 51
0.0000000000000508
  0
ARC
  8
_2-0_
  6
DASHED1
 62
    7
 10
2874.8603224007179
 20
1207.6279193681366
 40
1
 50
180.00000000000005
 51
270.00000000000005
  0
ARC
  8
_2-0_
  6
DASHED1
 62
    7
 10
2883.8603224007183
 20
1199.6279193681366
 40
0.5
 50
180.00000000000005
 51
270.00000000000005
  0
ARC
  8
_2-0_
  6
DASHED1
 62
    7
 10
2882.8603224007179
 20
1201.1279193681364
 40
0.5
 50
270.00000000000005
 51
0.0000000000000508
  0
ARC
  8
_2-0_
  6
DASHED1
 62
    7
 10
2881.8603224007174
 20
1201.1279193681364
 40
0.5
 50
180.00000000000005
 51
270.00000000000005
  0
ARC
  8
_2-0_
  6
DASHED1
 62
    7
 10
2872.8603224007179
 20
1193.4279193681365
 40
1
 50
180.00000000000005
 51
270.00000000000005
  0
ARC
  8
_2-0_
  6
DASHED1
 62
    7
 10
2874.8603224007179
 20
1205.6279193681366
 40
1
 50
90.000000000000028
 51
180.00000000000005
  0
ARC
  8
_2-0_
  6
DASHED1
 62
    7
 10
2909.8603224007179
 20
1193.4279193681365
 40
1
 50
270.00000000000005
 51
0.0000000000000508
  0
ARC
  8
_2-0_
  6
DASHED1
 62
    7
 10
2898.8603224007183
 20
1199.6279193681366
 40
0.5
 50
270.00000000000005
 51
0.0000000000000508
  0
ARC
  8
_2-0_
  6
DASHED1
 62
    7
 10
2900.3603224007179
 20
1207.6279193681366
 40
1
 50
180.00000000000005
 51
270.00000000000005
  0
ARC
  8
_2-0_
  6
DASHED1
 62
    7
 10
2907.8603224007179
 20
1207.6279193681366
 40
1
 50
270.00000000000005
 51
0.0000000000000508
  0
ARC
  8
_2-0_
  6
DASHED1
 62
    7
 10
2884.8603224007179
 20
1209.6279193681366
 40
1
 50
90.000000000000028
 51
180.00000000000005
  0
ARC
  8
_2-0_
  6
DASHED1
 62
    7
 10
2897.8603224007179
 20
1209.6279193681366
 40
1
 50
0
 51
90.000000000000028
  0
ARC
  8
_2-0_
  6
DASHED1
 62
    7
 10
2884.8603224007179
 20
1207.6279193681366
 40
1
 50
180.00000000000005
 51
270.00000000000005
  0
ARC
  8
_2-0_
  6
DASHED1
 62
    7
 10
2897.8603224007179
 20
1207.6279193681366
 40
1
 50
270.00000000000005
 51
0.0000000000000508
  0
ARC
  8
_2-0_
  6
DASHED1
 62
    7
 10
2889.3603224007174
 20
1201.6279193681366
 40
1
 50
180.00000000000005
 51
270.00000000000005
  0
ARC
  8
_2-0_
  6
DASHED1
 62
    7
 10
2893.3603224007179
 20
1201.6279193681366
 40
1
 50
270.00000000000005
 51
0.0000000000000508
  0
ARC
  8
_2-0_
  6
DASHED1
 62
    7
 10
2899.8603224007179
 20
1201.1279193681364
 40
0.5
 50
180.00000000000005
 51
270.00000000000005
  0
ARC
  8
_2-0_
  6
DASHED1
 62
    7
 10
2900.8603224007179
 20
1201.1279193681364
 40
0.5
 50
270.00000000000005
 51
0.0000000000000508
  0
ARC
  8
_2-0_
  6
DASHED1
 62
    7
 10
2890.6603224007176
 20
1182.4279193681368
 40
0.2999999999999998
 50
180.00000000000005
 51
270.00000000000005
  0
ARC
  8
_2-0_
  6
DASHED1
 62
    7
 10
2892.0603224007181
 20
1182.4279193681368
 40
0.2999999999999998
 50
270.00000000000005
 51
0.0000000000000508
  0
ARC
  8
_2-0_
  6
DASHED1
 62
    7
 10
2890.8603224007179
 20
1195.6279193681366
 40
0.5
 50
90.000000000000028
 51
180.00000000000005
  0
ARC
  8
_2-0_
  6
DASHED1
 62
    7
 10
2891.8603224007174
 20
1195.6279193681366
 40
0.5
 50
0
 51
90.000000000000028
  0
LINE
  8
_2-0_
  6
DASHED1
 62
    7
 10
2878.8603224007183
 20
1213.7279193681367
 11
2878.8603224007183
 21
1205.3279193681366
  0
LINE
  8
_2-0_
  6
DASHED1
 62
    7
 10
3472.3603224007183
 20
1208.7514693681368
 11
3471.2536724007186
 21
1209.3904193681369
  0
LINE
  8
_2-0_
  6
DASHED1
 62
    7
 10
3472.3603224007183
 20
1207.8854693681366
 11
3470.3603224007192
 21
1209.0401693681369
  0
LINE
  8
_2-0_
  6
DASHED1
 62
    7
 10
3472.3603224007183
 20
1207.0194193681368
 11
3470.3603224007192
 21
1208.1741193681368
  0
LINE
  8
_2-0_
  6
DASHED1
 62
    7
 10
3472.3603224007183
 20
1206.1534193681368
 11
3470.3603224007192
 21
1207.3081193681368
  0
LINE
  8
_2-0_
  6
DASHED1
 62
    7
 10
3472.3603224007183
 20
1205.2873693681367
 11
3470.3603224007192
 21
1206.4420693681367
  0
LINE
  8
_2-0_
  6
DASHED1
 62
    7
 10
3472.3603224007183
 20
1204.4213693681367
 11
3470.3603224007192
 21
1205.5760693681368
  0
LINE
  8
_2-0_
  6
DASHED1
 62
    7
 10
3472.3603224007183
 20
1203.5553193681369
 11
3470.3603224007192
 21
1204.7100193681367
  0
LINE
  8
_2-0_
  6
DASHED1
 62
    7
 10
3472.3603224007183
 20
1202.6893193681369
 11
3470.3603224007192
 21
1203.8440193681367
  0
LINE
  8
_2-0_
  6
DASHED1
 62
    7
 10
3472.3603224007183
 20
1201.8232693681368
 11
3470.3603224007192
 21
1202.9779693681368
  0
LINE
  8
_2-0_
  6
DASHED1
 62
    7
 10
3472.3603224007183
 20
1200.9572693681368
 11
3470.3603224007192
 21
1202.1119693681366
  0
LINE
  8
_2-0_
  6
DASHED1
 62
    7
 10
3472.3603224007183
 20
1200.0912193681367
 11
3470.3603224007192
 21
1201.2459193681368
  0
LINE
  8
_2-0_
  6
DASHED1
 62
    7
 10
3472.3603224007183
 20
1199.2252193681367
 11
3470.3603224007192
 21
1200.3799193681368
  0
LINE
  8
_2-0_
  6
DASHED1
 62
    7
 10
3472.3603224007183
 20
1198.3591693681366
 11
3470.3603224007192
 21
1199.5138693681369
  0
LINE
  8
_2-0_
  6
DASHED1
 62
    7
 10
3472.3603224007183
 20
1197.4931693681367
 11
3470.3603224007192
 21
1198.6478693681369
  0
LINE
  8
_2-0_
  6
DASHED1
 62
    7
 10
3472.3603224007183
 20
1196.6271193681368
 11
3470.3603224007192
 21
1197.7818193681368
  0
LINE
  8
_2-0_
  6
DASHED1
 62
    7
 10
3472.3603224007183
 20
1195.7611193681368
 11
3470.3603224007192
 21
1196.9158193681369
  0
LINE
  8
_2-0_
  6
DASHED1
 62
    7
 10
3472.3603224007183
 20
1194.8950693681367
 11
3470.3603224007192
 21
1196.0497693681368
  0
LINE
  8
_2-0_
  6
DASHED1
 62
    7
 10
3472.3603224007183
 20
1194.0290693681367
 11
3470.3603224007192
 21
1195.1837693681368
  0
LINE
  8
_2-0_
  6
DASHED1
 62
    7
 10
3472.3603224007183
 20
1193.1630193681369
 11
3470.3603224007192
 21
1194.3177193681367
  0
LINE
  8
_2-0_
  6
DASHED1
 62
    7
 10
3472.3603224007183
 20
1192.2970193681367
 11
3470.3603224007192
 21
1193.4517193681367
  0
LINE
  8
_2-0_
  6
DASHED1
 62
    7
 10
3472.3603224007183
 20
1191.4309693681368
 11
3470.3603224007192
 21
1192.5856693681366
  0
LINE
  8
_2-0_
  6
DASHED1
 62
    7
 10
3472.3603224007183
 20
1190.5649693681368
 11
3470.3603224007192
 21
1191.7196693681366
  0
LINE
  8
_2-0_
  6
DASHED1
 62
    7
 10
3472.3603224007183
 20
1189.6989193681367
 11
3470.3603224007192
 21
1190.8536193681368
  0
LINE
  8
_2-0_
  6
DASHED1
 62
    7
 10
3472.3603224007183
 20
1188.832919368137
 11
3470.3603224007192
 21
1189.9876193681368
  0
LINE
  8
_2-0_
  6
DASHED1
 62
    7
 10
3472.3603224007183
 20
1187.9668693681367
 11
3470.3603224007192
 21
1189.1215693681369
  0
LINE
  8
_2-0_
  6
DASHED1
 62
    7
 10
3472.250272400719
 20
1187.1644193681368
 11
3470.3603224007192
 21
1188.2555693681367
  0
LINE
  8
_2-0_
  6
DASHED1
 62
    7
 10
3472.1295224007189
 20
1186.3680693681367
 11
3470.2882224007184
 21
1187.4311693681368
  0
LINE
  8
_2-0_
  6
DASHED1
 62
    7
 10
3471.8567724007189
 20
1185.6595193681368
 11
3470.1002224007188
 21
1186.6736693681368
  0
LINE
  8
_2-0_
  6
DASHED1
 62
    7
 10
3471.5119224007185
 20
1184.9926193681367
 11
3469.7999224007185
 21
1185.9810193681369
  0
LINE
  8
_2-0_
  6
DASHED1
 62
    7
 10
3471.167072400718
 20
1184.3256693681369
 11
3469.2518724007186
 21
1185.4314193681368
  0
LINE
  8
_2-0_
  6
DASHED1
 62
    7
 10
3470.6645224007183
 20
1183.7498193681367
 11
3468.7568724007187
 21
1184.8511693681368
  0
LINE
  8
_2-0_
  6
DASHED1
 62
    7
 10
3470.0869224007187
 20
1183.2172193681367
 11
3467.5353224007185
 21
1184.6904193681368
  0
LINE
  8
_2-0_
  6
DASHED1
 62
    7
 10
3469.417972400719
 20
1182.7374193681366
 11
3466.0353224007189
 21
1184.6904193681368
  0
LINE
  8
_2-0_
  6
DASHED1
 62
    7
 10
3468.5295724007187
 20
1182.3843193681368
 11
3464.5353224007185
 21
1184.6904193681368
  0
LINE
  8
_2-0_
  6
DASHED1
 62
    7
 10
3467.6152724007188
 20
1182.0461693681368
 11
3463.0353224007185
 21
1184.6904193681368
  0
LINE
  8
_2-0_
  6
DASHED1
 62
    7
 10
3464.8850724007183
 20
1181.8904193681369
 11
3460.5702724007187
 21
1184.3815693681367
  0
LINE
  8
_2-0_
  6
DASHED1
 62
    7
 10
3466.3349224007188
 20
1181.9193693681368
 11
3461.5948224007183
 21
1184.6560693681367
  0
LINE
  8
_2-0_
  6
DASHED1
 62
    7
 10
3463.3850724007188
 20
1181.8904193681369
 11
3459.5457724007192
 21
1184.1070193681368
  0
LINE
  8
_2-0_
  6
DASHED1
 62
    7
 10
3460.3850724007183
 20
1181.8904193681369
 11
3457.4967224007186
 21
1183.5579693681368
  0
LINE
  8
_2-0_
  6
DASHED1
 62
    7
 10
3461.8850724007188
 20
1181.8904193681369
 11
3458.5212724007187
 21
1183.8325193681366
  0
LINE
  8
_2-0_
  6
DASHED1
 62
    7
 10
3458.8850724007188
 20
1181.8904193681369
 11
3456.1087224007187
 21
1183.4933193681367
  0
LINE
  8
_2-0_
  6
DASHED1
 62
    7
 10
3457.3850724007183
 20
1181.8904193681369
 11
3454.6649224007182
 21
1183.4609193681367
  0
LINE
  8
_2-0_
  6
DASHED1
 62
    7
 10
3455.8850724007188
 20
1181.8904193681369
 11
3452.8092224007186
 21
1183.6662193681368
  0
LINE
  8
_2-0_
  6
DASHED1
 62
    7
 10
3454.3850724007188
 20
1181.8904193681369
 11
3450.4352224007188
 21
1184.1708693681368
  0
LINE
  8
_2-0_
  6
DASHED1
 62
    7
 10
3452.8850724007183
 20
1181.8904193681369
 11
3448.061222400719
 21
1184.6754693681368
  0
LINE
  8
_2-0_
  6
DASHED1
 62
    7
 10
3451.3850724007188
 20
1181.8904193681369
 11
3445.6872224007183
 21
1185.1800693681368
  0
LINE
  8
_2-0_
  6
DASHED1
 62
    7
 10
3449.8850724007183
 20
1181.8904193681369
 11
3443.313172400718
 21
1185.6846693681368
  0
LINE
  8
_2-0_
  6
DASHED1
 62
    7
 10
3448.3850724007188
 20
1181.8904193681369
 11
3440.9391724007182
 21
1186.1893193681366
  0
LINE
  8
_2-0_
  6
DASHED1
 62
    7
 10
3446.8850724007188
 20
1181.8904193681369
 11
3429.0449224007188
 21
1192.1904193681368
  0
LINE
  8
_2-0_
  6
DASHED1
 62
    7
 10
3445.3850724007183
 20
1181.8904193681369
 11
3426.3603224007188
 21
1192.8743693681369
  0
LINE
  8
_2-0_
  6
DASHED1
 62
    7
 10
3443.8850724007188
 20
1181.8904193681369
 11
3426.3603224007188
 21
1192.0083193681366
  0
LINE
  8
_2-0_
  6
DASHED1
 62
    7
 10
3442.3850724007183
 20
1181.8904193681369
 11
3426.3603224007188
 21
1191.1423193681368
  0
LINE
  8
_2-0_
  6
DASHED1
 62
    7
 10
3439.3603224007188
 20
1197.4931693681367
 11
3437.3603224007183
 21
1198.6478693681369
  0
LINE
  8
_2-0_
  6
DASHED1
 62
    7
 10
3439.3603224007188
 20
1196.6271193681368
 11
3437.3603224007183
 21
1197.7818193681368
  0
LINE
  8
_2-0_
  6
DASHED1
 62
    7
 10
3439.3603224007188
 20
1195.7611193681368
 11
3437.3603224007183
 21
1196.9158193681369
  0
LINE
  8
_2-0_
  6
DASHED1
 62
    7
 10
3439.3603224007188
 20
1194.8950693681367
 11
3437.089522400719
 21
1196.2061193681367
  0
LINE
  8
_2-0_
  6
DASHED1
 62
    7
 10
3439.3603224007188
 20
1194.0290693681367
 11
3436.0519224007184
 21
1195.9391693681368
  0
LINE
  8
_2-0_
  6
DASHED1
 62
    7
 10
3439.3603224007188
 20
1193.1630193681369
 11
3434.6363224007191
 21
1195.8904193681369
  0
LINE
  8
_2-0_
  6
DASHED1
 62
    7
 10
3439.3603224007188
 20
1192.2970193681367
 11
3433.1363224007186
 21
1195.8904193681369
  0
LINE
  8
_2-0_
  6
DASHED1
 62
    7
 10
3439.3603224007188
 20
1191.4309693681368
 11
3431.6363224007186
 21
1195.8904193681369
  0
LINE
  8
_2-0_
  6
DASHED1
 62
    7
 10
3439.3603224007188
 20
1190.5649693681368
 11
3436.5449224007188
 21
1192.1904193681368
  0
LINE
  8
_2-0_
  6
DASHED1
 62
    7
 10
3439.3603224007188
 20
1189.6989193681367
 11
3435.0449224007184
 21
1192.1904193681368
  0
LINE
  8
_2-0_
  6
DASHED1
 62
    7
 10
3439.3603224007188
 20
1188.832919368137
 11
3433.5449224007188
 21
1192.1904193681368
  0
LINE
  8
_2-0_
  6
DASHED1
 62
    7
 10
3439.3637224007188
 20
1187.9649193681368
 11
3432.0449224007188
 21
1192.1904193681368
  0
LINE
  8
_2-0_
  6
DASHED1
 62
    7
 10
3439.4954724007184
 20
1187.0228193681368
 11
3430.5449224007184
 21
1192.1904193681368
  0
LINE
  8
_2-0_
  6
DASHED1
 62
    7
 10
3436.5449224007188
 20
1192.1904193681368
 11
3430.1363224007181
 21
1195.8904193681369
  0
LINE
  8
_2-0_
  6
DASHED1
 62
    7
 10
3435.0449224007184
 20
1192.1904193681368
 11
3428.6363224007186
 21
1195.8904193681369
  0
LINE
  8
_2-0_
  6
DASHED1
 62
    7
 10
3433.5449224007188
 20
1192.1904193681368
 11
3427.3603224007183
 21
1195.7611193681368
  0
LINE
  8
_2-0_
  6
DASHED1
 62
    7
 10
3432.0449224007188
 20
1192.1904193681368
 11
3426.3603224007188
 21
1195.4724193681367
  0
LINE
  8
_2-0_
  6
DASHED1
 62
    7
 10
3430.5449224007184
 20
1192.1904193681368
 11
3426.3603224007188
 21
1194.6064193681368
  0
LINE
  8
_2-0_
  6
DASHED1
 62
    7
 10
3429.0449224007188
 20
1192.1904193681368
 11
3426.3603224007188
 21
1193.7403693681367
  0
LINE
  8
_2-0_
  6
DASHED1
 62
    7
 10
3472.3603224007183
 20
1209.5014693681368
 11
3471.3603224007188
 21
1210.0788193681366
  0
LINE
  8
_2-0_
  6
DASHED1
 62
    7
 10
3472.3603224007183
 20
1209.5014693681368
 11
3471.2536724007186
 21
1210.1404193681369
  0
LINE
  8
_2-0_
  6
DASHED1
 62
    7
 10
3472.3603224007183
 20
1210.2514693681368
 11
3471.600072400719
 21
1210.6904193681366
  0
LINE
  8
_2-0_
  6
DASHED1
 62
    7
 10
3437.3603224007183
 20
1200.3904193681366
 11
3437.3603224007183
 21
1202.3904193681369
  0
LINE
  8
_2-0_
  6
DASHED1
 62
    7
 10
3457.3603224007183
 20
1183.5214193681367
 11
3454.8603224007183
 21
1183.3904193681369
  0
LINE
  8
_2-0_
  6
DASHED1
 62
    7
 10
3461.7230224007189
 20
1184.6904193681368
 11
3457.3603224007183
 21
1183.5214193681367
  0
LINE
  8
_2-0_
  6
DASHED1
 62
    7
 10
3439.3603224007188
 20
1197.7357193681368
 11
3437.3603224007183
 21
1198.8904193681369
  0
LINE
  8
_2-0_
  6
DASHED1
 62
    7
 10
3439.3603224007188
 20
1187.9986193681368
 11
3439.3603224007188
 21
1197.7357193681368
  0
LINE
  8
_2-0_
  6
DASHED1
 62
    7
 10
3462.4103224007185
 20
1209.3904193681369
 11
3462.4103224007185
 21
1208.3904193681369
  0
LINE
  8
_2-0_
  6
DASHED1
 62
    7
 10
3435.6282724007187
 20
1202.8904193681366
 11
3437.3603224007183
 21
1199.8904193681366
  0
LINE
  8
_2-0_
  6
DASHED1
 62
    7
 10
3453.8603224007188
 20
1183.4428193681367
 11
3454.8603224007183
 21
1183.3904193681369
  0
LINE
  8
_2-0_
  6
DASHED1
 62
    7
 10
3439.6683224007188
 20
1186.4594193681366
 11
3453.8603224007188
 21
1183.4428193681367
  0
LINE
  8
_2-0_
  6
DASHED1
 62
    7
 10
3470.3603224007192
 20
1209.3904193681369
 11
3470.3603224007192
 21
1187.9881193681367
  0
LINE
  8
_2-0_
  6
DASHED1
 62
    7
 10
3461.7230224007189
 20
1184.6904193681368
 11
3468.6242224007182
 21
1184.6904193681368
  0
LINE
  8
_2-0_
  6
DASHED1
 62
    7
 10
3429.8603224007183
 20
1204.5904193681369
 11
3429.8603224007183
 21
1212.1904193681368
  0
LINE
  8
_2-0_
  6
DASHED1
 62
    7
 10
3444.6603224007185
 20
1208.3904193681369
 11
3462.4103224007185
 21
1208.3904193681369
  0
LINE
  8
_2-0_
  6
DASHED1
 62
    7
 10
3472.3603224007183
 20
1187.8904193681366
 11
3472.3603224007183
 21
1210.6904193681366
  0
LINE
  8
_2-0_
  6
DASHED1
 62
    7
 10
3471.3603224007188
 20
1209.3904193681369
 11
3471.3603224007188
 21
1210.7070693681366
  0
LINE
  8
_2-0_
  6
DASHED1
 62
    7
 10
3472.3603224007183
 20
1210.6904193681366
 11
3412.3603224007183
 21
1211.5904193681367
  0
LINE
  8
_2-0_
  6
DASHED1
 62
    7
 10
3413.3603224007183
 20
1211.5904193681367
 11
3413.3603224007183
 21
1210.2904193681367
  0
LINE
  8
_2-0_
  6
DASHED1
 62
    7
 10
3434.6198724007181
 20
1210.2904193681367
 11
3438.8603224007188
 21
1210.2904193681367
  0
LINE
  8
_2-0_
  6
DASHED1
 62
    7
 10
3422.5388724007189
 20
1210.2904193681367
 11
3413.4603224007187
 21
1210.2904193681367
  0
LINE
  8
_2-0_
  6
DASHED1
 62
    7
 10
3438.8603224007188
 20
1208.3904193681369
 11
3440.0603224007186
 21
1208.3904193681369
  0
LINE
  8
_2-0_
  6
DASHED1
 62
    7
 10
3403.3603724007184
 20
1200.3904193681366
 11
3401.3603724007184
 21
1202.3904193681369
  0
LINE
  8
_2-0_
  6
DASHED1
 62
    7
 10
3401.3603724007184
 20
1202.3904193681369
 11
3401.3603724007184
 21
1209.3904193681369
  0
LINE
  8
_2-0_
  6
DASHED1
 62
    7
 10
3406.3603724007184
 20
1206.3904193681369
 11
3406.3603724007184
 21
1205.0904193681367
  0
LINE
  8
_2-0_
  6
DASHED1
 62
    7
 10
3442.3603224007183
 20
1206.2904193681367
 11
3442.3603224007183
 21
1195.0904193681367
  0
LINE
  8
_2-0_
  6
DASHED1
 62
    7
 10
3401.3603724007184
 20
1206.3904193681369
 11
3431.2887224007185
 21
1206.3904193681369
  0
LINE
  8
_2-0_
  6
DASHED1
 62
    7
 10
3432.7029724007184
 20
1205.8046193681368
 11
3440.2387224007184
 21
1198.2688193681367
  0
LINE
  8
_2-0_
  6
DASHED1
 62
    7
 10
3434.5313724007191
 20
1210.3904193681366
 11
3402.360372400718
 21
1210.3904193681366
  0
LINE
  8
_2-0_
  6
DASHED1
 62
    7
 10
3438.0669224007187
 20
1208.9259693681367
 11
3441.8450724007188
 21
1205.1477693681367
  0
LINE
  8
_2-0_
  6
DASHED1
 62
    7
 10
3437.1603224007185
 20
1200.3904193681366
 11
3446.4703224007189
 21
1200.3904193681366
  0
LINE
  8
_2-0_
  6
DASHED1
 62
    7
 10
3455.8603224007183
 20
1189.4604193681368
 11
3455.8603224007183
 21
1210.1804193681368
  0
LINE
  8
_2-0_
  6
DASHED1
 62
    7
 10
3411.8603724007189
 20
1206.3904193681369
 11
3411.8603724007189
 21
1210.3904193681366
  0
LINE
  8
_2-0_
  6
DASHED1
 62
    7
 10
3406.3603724007184
 20
1210.3904193681366
 11
3406.3603724007184
 21
1206.3904193681369
  0
LINE
  8
_2-0_
  6
DASHED1
 62
    7
 10
3403.3603724007184
 20
1200.3904193681366
 11
3410.3603724007189
 21
1200.3904193681366
  0
LINE
  8
_2-0_
  6
DASHED1
 62
    7
 10
3410.3603724007189
 20
1201.5504193681367
 11
3410.3603724007189
 21
1200.3904193681366
  0
LINE
  8
_2-0_
  6
DASHED1
 62
    7
 10
3410.3603724007189
 20
1201.5504193681367
 11
3406.3603724007184
 21
1205.0904193681367
  0
LINE
  8
_2-0_
  6
DASHED1
 62
    7
 10
3468.7894224007186
 20
1194.6685693681367
 11
3469.7497224007183
 21
1202.4898193681367
  0
LINE
  8
_2-0_
  6
DASHED1
 62
    7
 10
3469.7544724007184
 20
1202.4882693681367
 11
3464.0694724007189
 21
1204.3904193681369
  0
LINE
  8
_2-0_
  6
DASHED1
 62
    7
 10
3453.8603224007188
 20
1203.3904193681369
 11
3442.3603224007183
 21
1203.3904193681369
  0
LINE
  8
_2-0_
  6
DASHED1
 62
    7
 10
3453.8603224007188
 20
1203.3904193681369
 11
3453.8603224007188
 21
1204.3904193681369
  0
LINE
  8
_2-0_
  6
DASHED1
 62
    7
 10
3453.8603224007188
 20
1204.3904193681369
 11
3464.0694724007189
 21
1204.3904193681369
  0
LINE
  8
_2-0_
  6
DASHED1
 62
    7
 10
3450.7544724007184
 20
1197.4766193681366
 11
3450.7544724007184
 21
1196.7747693681369
  0
LINE
  8
_2-0_
  6
DASHED1
 62
    7
 10
3450.7544724007184
 20
1197.4766193681366
 11
3454.2544724007188
 21
1200.3540193681369
  0
LINE
  8
_2-0_
  6
DASHED1
 62
    7
 10
3461.2544724007188
 20
1199.5061193681367
 11
3461.2544724007188
 21
1195.8867693681368
  0
LINE
  8
_2-0_
  6
DASHED1
 62
    7
 10
3450.7544724007184
 20
1196.7747693681369
 11
3454.2544724007188
 21
1199.9358193681368
  0
LINE
  8
_2-0_
  6
DASHED1
 62
    7
 10
3461.2544724007188
 20
1195.8867693681368
 11
3461.2544724007188
 21
1196.4053193681368
  0
LINE
  8
_2-0_
  6
DASHED1
 62
    7
 10
3444.6603224007185
 20
1208.3904193681369
 11
3444.6603224007185
 21
1203.5626693681367
  0
LINE
  8
_2-0_
  6
DASHED1
 62
    7
 10
3440.0603224007186
 20
1208.3904193681369
 11
3440.0603224007186
 21
1206.9325193681368
  0
LINE
  8
_2-0_
  6
DASHED1
 62
    7
 10
3440.0603224007186
 20
1206.9325193681368
 11
3440.0603224007186
 21
1199.7278693681369
  0
LINE
  8
_2-0_
  6
DASHED1
 62
    7
 10
3444.6603224007185
 20
1203.5626693681367
 11
3444.6603224007185
 21
1200.3904193681366
  0
LINE
  8
_2-0_
  6
DASHED1
 62
    7
 10
3438.8603224007188
 20
1208.1325193681368
 11
3438.8603224007188
 21
1211.1929193681366
  0
LINE
  8
_2-0_
  6
DASHED1
 62
    7
 10
3438.8603224007188
 20
1198.0244193681367
 11
3438.8603224007188
 21
1199.6472693681369
  0
LINE
  8
_2-0_
  6
DASHED1
 62
    7
 10
3438.8603224007188
 20
1208.1325193681368
 11
3438.8603224007188
 21
1199.6472693681369
  0
LINE
  8
_2-0_
  6
DASHED1
 62
    7
 10
3435.3603224007192
 20
1204.3904193681369
 11
3435.3603224007192
 21
1203.8904193681369
  0
LINE
  8
_2-0_
  6
DASHED1
 62
    7
 10
3431.2887224007185
 20
1206.3904193681369
 11
3413.3603224007183
 21
1206.3904193681369
  0
LINE
  8
_2-0_
  6
DASHED1
 62
    7
 10
3433.3603224007183
 20
1206.3904193681369
 11
3431.7603224007189
 21
1206.3904193681369
  0
LINE
  8
_2-0_
  6
DASHED1
 62
    7
 10
3422.5388724007189
 20
1210.2904193681367
 11
3426.9603224007187
 21
1210.2904193681367
  0
LINE
  8
_2-0_
  6
DASHED1
 62
    7
 10
3426.9673224007187
 20
1211.3469693681367
 11
3426.9614224007182
 21
1210.2904193681367
  0
LINE
  8
_2-0_
  6
DASHED1
 62
    7
 10
3432.7538224007184
 20
1211.2505193681367
 11
3432.7592224007184
 21
1210.2904193681367
  0
LINE
  8
_2-0_
  6
DASHED1
 62
    7
 10
3432.7603224007184
 20
1210.2904193681367
 11
3434.6198724007181
 21
1210.2904193681367
  0
LINE
  8
_2-0_
  6
DASHED1
 62
    7
 10
3431.7603224007189
 20
1206.3904193681369
 11
3431.7603224007189
 21
1211.2994193681367
  0
LINE
  8
_2-0_
  6
DASHED1
 62
    7
 10
3427.9603224007187
 20
1206.3904193681369
 11
3427.9603224007187
 21
1211.3309693681367
  0
LINE
  8
_2-0_
  6
DASHED1
 62
    7
 10
3454.8603224007183
 20
1206.8904193681369
 11
3454.8603224007183
 21
1211.8904193681369
  0
LINE
  8
_2-0_
  6
DASHED1
 62
    7
 10
3444.6603224007185
 20
1208.3904193681369
 11
3444.6603224007185
 21
1203.5904193681367
  0
LINE
  8
_2-0_
  6
DASHED1
 62
    7
 10
3458.1603224007185
 20
1208.3904193681369
 11
3438.9603224007187
 21
1208.3904193681369
  0
LINE
  8
_2-0_
  6
DASHED1
 62
    7
 10
3440.9603224007187
 20
1208.3904193681369
 11
3440.9603224007187
 21
1203.3904193681369
  0
LINE
  8
_2-0_
  6
DASHED1
 62
    7
 10
3440.9603224007187
 20
1203.3904193681369
 11
3440.3603224007192
 21
1203.3904193681369
  0
LINE
  8
_2-0_
  6
DASHED1
 62
    7
 10
3458.1603224007185
 20
1208.3904193681369
 11
3460.3603224007192
 21
1209.3904193681369
  0
LINE
  8
_2-0_
  6
DASHED1
 62
    7
 10
3469.6603224007185
 20
1209.3904193681369
 11
3469.6603224007185
 21
1207.3904193681366
  0
LINE
  8
_2-0_
  6
DASHED1
 62
    7
 10
3471.3603224007188
 20
1209.3904193681369
 11
3460.3603224007192
 21
1209.3904193681369
  0
LINE
  8
_2-0_
  6
DASHED1
 62
    7
 10
3471.3603224007188
 20
1210.5904193681367
 11
3438.9603224007187
 21
1211.0904193681367
  0
LINE
  8
_2-0_
  6
DASHED1
 62
    7
 10
3471.3603224007188
 20
1210.5904193681367
 11
3471.3603224007188
 21
1209.3904193681369
  0
LINE
  8
_2-0_
  6
DASHED1
 62
    7
 10
3470.3603224007192
 20
1207.3904193681366
 11
3469.6603224007185
 21
1207.3904193681366
  0
LINE
  8
_2-0_
  6
DASHED1
 62
    7
 10
3438.9603224007187
 20
1203.3904193681369
 11
3440.3603224007192
 21
1203.3904193681369
  0
LINE
  8
_2-0_
  6
DASHED1
 62
    7
 10
3438.9603224007187
 20
1211.0904193681367
 11
3438.9603224007187
 21
1208.0325193681367
  0
LINE
  8
_2-0_
  6
DASHED1
 62
    7
 10
3440.3603224007192
 20
1208.3904193681369
 11
3440.3603224007192
 21
1206.6325193681368
  0
LINE
  8
_2-0_
  6
DASHED1
 62
    7
 10
3440.3603224007192
 20
1206.6325193681368
 11
3440.3603224007192
 21
1203.5904193681367
  0
LINE
  8
_2-0_
  6
DASHED1
 62
    7
 10
3438.9603224007187
 20
1208.0325193681367
 11
3438.9603224007187
 21
1203.3904193681369
  0
LINE
  8
_2-0_
  6
DASHED1
 62
    7
 10
3443.6603224007185
 20
1202.5904193681367
 11
3441.3603224007188
 21
1202.5904193681367
  0
LINE
  8
_2-0_
  6
DASHED1
 62
    7
 10
3470.3603224007192
 20
1210.2904193681367
 11
3439.9603224007182
 21
1210.2904193681367
  0
LINE
  8
_2-0_
  6
DASHED1
 62
    7
 10
3439.9603224007182
 20
1210.2904193681367
 11
3439.9603224007182
 21
1211.0719193681368
  0
LINE
  8
_2-0_
  6
DASHED1
 62
    7
 10
3462.4103224007185
 20
1209.3904193681369
 11
3471.3603224007188
 21
1209.3904193681369
  0
LINE
  8
_2-0_
  6
DASHED1
 62
    7
 10
3470.3603224007192
 20
1210.2904193681367
 11
3470.3603224007192
 21
1210.6058693681368
  0
LINE
  8
_2-0_
  6
DASHED1
 62
    7
 10
3439.0205724007182
 20
1211.0893193681367
 11
3438.9603224007187
 21
1211.0545193681368
  0
LINE
  8
_2-0_
  6
DASHED1
 62
    7
 10
3446.6368724007184
 20
1210.2904193681367
 11
3443.3459724007184
 21
1208.3904193681369
  0
LINE
  8
_2-0_
  6
DASHED1
 62
    7
 10
3445.1368724007188
 20
1210.2904193681367
 11
3441.8459724007188
 21
1208.3904193681369
  0
LINE
  8
_2-0_
  6
DASHED1
 62
    7
 10
3443.6368724007184
 20
1210.2904193681367
 11
3440.3459724007188
 21
1208.3904193681369
  0
LINE
  8
_2-0_
  6
DASHED1
 62
    7
 10
3442.1368724007188
 20
1210.2904193681367
 11
3438.9603224007187
 21
1208.4564193681367
  0
LINE
  8
_2-0_
  6
DASHED1
 62
    7
 10
3440.6368724007188
 20
1210.2904193681367
 11
3438.9603224007187
 21
1209.3224693681368
  0
LINE
  8
_2-0_
  6
DASHED1
 62
    7
 10
3439.9603224007182
 20
1210.7658193681368
 11
3438.9603224007187
 21
1210.1884693681367
  0
LINE
  8
_2-0_
  6
DASHED1
 62
    7
 10
3460.1368724007188
 20
1210.2904193681367
 11
3456.8459724007188
 21
1208.3904193681369
  0
LINE
  8
_2-0_
  6
DASHED1
 62
    7
 10
3458.6368724007184
 20
1210.2904193681367
 11
3455.3459724007188
 21
1208.3904193681369
  0
LINE
  8
_2-0_
  6
DASHED1
 62
    7
 10
3457.1368724007188
 20
1210.2904193681367
 11
3453.8459724007184
 21
1208.3904193681369
  0
LINE
  8
_2-0_
  6
DASHED1
 62
    7
 10
3455.6368724007188
 20
1210.2904193681367
 11
3452.3459724007188
 21
1208.3904193681369
  0
LINE
  8
_2-0_
  6
DASHED1
 62
    7
 10
3454.1368724007184
 20
1210.2904193681367
 11
3450.8459724007184
 21
1208.3904193681369
  0
LINE
  8
_2-0_
  6
DASHED1
 62
    7
 10
3452.6368724007188
 20
1210.2904193681367
 11
3449.3459724007188
 21
1208.3904193681369
  0
LINE
  8
_2-0_
  6
DASHED1
 62
    7
 10
3451.1368724007184
 20
1210.2904193681367
 11
3447.8459724007188
 21
1208.3904193681369
  0
LINE
  8
_2-0_
  6
DASHED1
 62
    7
 10
3449.6368724007188
 20
1210.2904193681367
 11
3446.3459724007184
 21
1208.3904193681369
  0
LINE
  8
_2-0_
  6
DASHED1
 62
    7
 10
3448.1368724007188
 20
1210.2904193681367
 11
3444.8459724007188
 21
1208.3904193681369
  0
LINE
  8
_2-0_
  6
DASHED1
 62
    7
 10
3461.6368724007184
 20
1210.2904193681367
 11
3459.0331724007182
 21
1208.7871693681368
  0
LINE
  8
_2-0_
  6
DASHED1
 62
    7
 10
3463.1368724007188
 20
1210.2904193681367
 11
3461.5780224007185
 21
1209.3904193681369
  0
LINE
  8
_2-0_
  6
DASHED1
 62
    7
 10
3464.6368724007188
 20
1210.2904193681367
 11
3463.0780224007185
 21
1209.3904193681369
  0
LINE
  8
_2-0_
  6
DASHED1
 62
    7
 10
3466.1368724007184
 20
1210.2904193681367
 11
3464.5780224007185
 21
1209.3904193681369
  0
LINE
  8
_2-0_
  6
DASHED1
 62
    7
 10
3467.6368724007188
 20
1210.2904193681367
 11
3466.0780224007185
 21
1209.3904193681369
  0
LINE
  8
_2-0_
  6
DASHED1
 62
    7
 10
3469.1368724007184
 20
1210.2904193681367
 11
3467.5780224007189
 21
1209.3904193681369
  0
LINE
  8
_2-0_
  6
DASHED1
 62
    7
 10
3471.1617724007187
 20
1210.5934693681367
 11
3469.0780224007185
 21
1209.3904193681369
  0
LINE
  8
_2-0_
  6
DASHED1
 62
    7
 10
3471.3603224007188
 20
1209.8420693681368
 11
3470.5780224007185
 21
1209.3904193681369
  0
LINE
  8
_2-0_
  6
DASHED1
 62
    7
 10
3412.3603224007183
 20
1211.5904193681367
 11
3412.3603224007183
 21
1210.3904193681366
  0
LINE
  8
_2-0_
  6
DASHED1
 62
    7
 10
3412.3603224007183
 20
1210.3904193681366
 11
3412.3603224007183
 21
1207.3904193681366
  0
LINE
  8
_2-0_
  6
DASHED1
 62
    7
 10
3440.8850724007188
 20
1181.8904193681369
 11
3426.3603224007188
 21
1190.2762693681368
  0
LINE
  8
_2-0_
  6
DASHED1
 62
    7
 10
3439.3850724007188
 20
1181.8904193681369
 11
3426.3603224007188
 21
1189.4102693681365
  0
LINE
  8
_2-0_
  6
DASHED1
 62
    7
 10
3437.8850724007183
 20
1181.8904193681369
 11
3426.3359724007182
 21
1188.5583193681368
  0
LINE
  8
_2-0_
  6
DASHED1
 62
    7
 10
3436.3850724007188
 20
1181.8904193681369
 11
3426.3603224007188
 21
1187.6782193681367
  0
LINE
  8
_2-0_
  6
DASHED1
 62
    7
 10
3434.8850724007183
 20
1181.8904193681369
 11
3426.3603224007188
 21
1186.8121693681368
  0
LINE
  8
_2-0_
  6
DASHED1
 62
    7
 10
3433.3850724007188
 20
1181.8904193681369
 11
3426.3603224007188
 21
1185.9461693681369
  0
LINE
  8
_2-0_
  6
DASHED1
 62
    7
 10
3431.8850724007188
 20
1181.8904193681369
 11
3426.3603224007188
 21
1185.0801193681368
  0
LINE
  8
_2-0_
  6
DASHED1
 62
    7
 10
3430.3850724007183
 20
1181.8904193681369
 11
3426.3603224007188
 21
1184.2141193681368
  0
LINE
  8
_2-0_
  6
DASHED1
 62
    7
 10
3428.8850724007188
 20
1181.8904193681369
 11
3426.4507224007184
 21
1183.2958693681368
  0
LINE
  8
_2-0_
  6
DASHED1
 62
    7
 10
3437.3603224007183
 20
1200.3904193681366
 11
3437.3603224007183
 21
1196.8904193681369
  0
LINE
  8
_2-0_
  6
DASHED1
 62
    7
 10
3426.3603224007188
 20
1183.8904193681369
 11
3426.3603224007188
 21
1206.3904193681369
  0
LINE
  8
_2-0_
  6
DASHED1
 62
    7
 10
3428.3603224007183
 20
1181.8904193681369
 11
3466.3603224007188
 21
1181.8904193681369
  0
LINE
  8
_2-0_
  6
DASHED1
 62
    7
 10
3436.3603224007188
 20
1195.8904193681369
 11
3426.3603224007188
 21
1195.8904193681369
  0
LINE
  8
_2-0_
  6
DASHED1
 62
    7
 10
3466.5691224007186
 20
1184.0040693681366
 11
3457.3603224007183
 21
1183.5214193681367
  0
LINE
  8
_2-0_
  6
DASHED1
 62
    7
 10
3443.1509724007182
 20
1184.0040693681366
 11
3453.8603224007188
 21
1183.4428193681367
  0
LINE
  8
_2-0_
  6
DASHED1
 62
    7
 10
3454.2544724007188
 20
1200.3540193681369
 11
3454.2544724007188
 21
1199.9358193681368
  0
LINE
  8
_2-0_
  6
DASHED1
 62
    7
 10
3468.2220224007187
 20
1195.7533693681366
 11
3455.8603224007183
 21
1202.8904193681366
  0
LINE
  8
_2-0_
  6
DASHED1
 62
    7
 10
3469.2137224007183
 20
1198.1242193681368
 11
3458.3603224007183
 21
1204.3904193681369
  0
LINE
  8
_2-0_
  6
DASHED1
 62
    7
 10
3440.4527224007188
 20
1198.7619693681367
 11
3455.8603224007183
 21
1202.8904193681366
  0
LINE
  8
_2-0_
  6
DASHED1
 62
    7
 10
3437.3603224007183
 20
1192.1904193681368
 11
3428.3603224007183
 21
1192.1904193681368
  0
LINE
  8
_2-0_
  6
DASHED1
 62
    7
 10
3437.3603224007183
 20
1192.1904193681368
 11
3437.3603224007183
 21
1187.8904193681366
  0
LINE
  8
_2-0_
  6
DASHED1
 62
    7
 10
3437.3603224007183
 20
1192.1904193681368
 11
3437.3603224007183
 21
1196.8904193681369
  0
LINE
  8
_2-0_
  6
DASHED1
 62
    7
 10
3405.1103724007184
 20
1202.8904193681366
 11
3402.6103724007184
 21
1202.8904193681366
  0
LINE
  8
_2-0_
  6
DASHED1
 62
    7
 10
3402.6103724007184
 20
1210.3904193681366
 11
3402.6103724007184
 21
1202.8904193681366
  0
LINE
  8
_2-0_
  6
DASHED1
 62
    7
 10
3405.1103724007184
 20
1210.3904193681366
 11
3405.1103724007184
 21
1202.8904193681366
  0
LINE
  8
_2-0_
  6
DASHED1
 62
    7
 10
3403.8603724007184
 20
1201.3004193681367
 11
3403.8603724007184
 21
1212.3904193681366
  0
ARC
  8
_2-0_
  6
DASHED1
 62
    7
 10
3466.3603224007188
 20
1187.8904193681366
 40
6.0000000000000008
 50
269.99999999999988
 51
359.99999999999988
  0
ARC
  8
_2-0_
  6
DASHED1
 62
    7
 10
3443.3603224007183
 20
1187.9986193681368
 40
4
 50
179.99999999999991
 51
202.63099999999988
  0
ARC
  8
_2-0_
  6
DASHED1
 62
    7
 10
3466.3603224007188
 20
1187.9881193681367
 40
4
 50
304.46999999999991
 51
0.0000000000000826
  0
ARC
  8
_2-0_
  6
DASHED1
 62
    7
 10
3433.3603224007183
 20
1202.3904193681369
 40
4
 50
84.812999999999973
 51
89.999999999999971
  0
ARC
  8
_2-0_
  6
DASHED1
 62
    7
 10
3433.3603224007183
 20
1202.3904193681369
 40
4
 50
359.99999999999994
 51
84.813000000000002
  0
CIRCLE
  8
_2-0_
  6
DASHED1
 62
    7
 10
3442.3603224007183
 20
1200.3904193681366
 40
2.1
  0
CIRCLE
  8
_2-0_
  6
DASHED1
 62
    7
 10
3442.3603224007183
 20
1200.3904193681366
 40
3.0000000000000004
  0
ARC
  8
_2-0_
  6
DASHED1
 62
    7
 10
3402.360372400718
 20
1209.3904193681369
 40
1
 50
89.999999999999971
 51
180
  0
ARC
  8
_2-0_
  6
DASHED1
 62
    7
 10
3444.5279724007186
 20
1202.4643693681368
 40
6.0000000000000008
 50
223.73399999999995
 51
281.21399999999994
  0
CIRCLE
  8
_2-0_
  6
DASHED1
 62
    7
 10
3442.3603224007183
 20
1200.3904193681366
 40
3.0000000000000004
  0
CIRCLE
  8
_2-0_
  6
DASHED1
 62
    7
 10
3442.3603224007183
 20
1200.3904193681366
 40
2.1
  0
ARC
  8
_2-0_
  6
DASHED1
 62
    7
 10
3431.2887224007185
 20
1204.3904193681369
 40
2
 50
44.999999999999964
 51
89.999999999999971
  0
ARC
  8
_2-0_
  6
DASHED1
 62
    7
 10
3434.5313724007191
 20
1205.3904193681366
 40
5
 50
44.999999999999964
 51
89.999999999999971
  0
ARC
  8
_2-0_
  6
DASHED1
 62
    7
 10
3446.0877224007185
 20
1209.3904193681369
 40
6.0000000000000008
 50
224.99999999999994
 51
269.99999999999994
  0
ARC
  8
_2-0_
  6
DASHED1
 62
    7
 10
3440.1939224007182
 20
1199.7278693681369
 40
1
 50
224.99999999999991
 51
284.99999999999994
  0
ARC
  8
_2-0_
  6
DASHED1
 62
    7
 10
3469.7262724007186
 20
1203.5811693681366
 40
10
 50
240.93599999999992
 51
257.62099999999992
  0
ARC
  8
_2-0_
  6
DASHED1
 62
    7
 10
3467.7968724007187
 20
1194.7904193681367
 40
1
 50
257.62099999999986
 51
352.99999999999994
  0
ARC
  8
_2-0_
  6
DASHED1
 62
    7
 10
3453.9603224007187
 20
1154.8904193681366
 40
42.00685
 50
86.96199999999996
 51
94.376999999999995
  0
ARC
  8
_2-0_
  6
DASHED1
 62
    7
 10
3455.1527724007191
 20
1177.3588193681368
 40
19.50685
 50
71.771999999999977
 51
86.961999999999974
  0
ARC
  8
_2-0_
  6
DASHED1
 62
    7
 10
3453.9603224007187
 20
1154.8904193681366
 40
42.706699999999997
 50
86.96199999999996
 51
94.304999999999992
  0
ARC
  8
_2-0_
  6
DASHED1
 62
    7
 10
3455.1527724007191
 20
1177.3588193681368
 40
20.206700000000004
 50
72.423999999999978
 51
86.961999999999974
  0
ARC
  8
_2-0_
  6
DASHED1
 62
    7
 10
3453.9603224007187
 20
1154.8904193681366
 40
42.5
 50
86.96199999999996
 51
101.21399999999999
  0
ARC
  8
_2-0_
  6
DASHED1
 62
    7
 10
3455.1527724007191
 20
1177.3588193681368
 40
20
 50
60.935999999999985
 51
87.972999999999984
  0
ARC
  8
_2-0_
  6
DASHED1
 62
    7
 10
3468.4720224007187
 20
1196.1864193681367
 40
0.5
 50
239.99999999999994
 51
352.99999999999994
  0
ARC
  8
_2-0_
  6
DASHED1
 62
    7
 10
3442.3603224007183
 20
1200.3904193681366
 40
2.2999999999999998
 50
179.99999999999985
 51
359.99999999999988
  0
ARC
  8
_2-0_
  6
DASHED1
 62
    7
 10
3433.3603224007183
 20
1204.3904193681369
 40
2
 50
359.99999999999994
 51
89.999999999999943
  0
ARC
  8
_2-0_
  6
DASHED1
 62
    7
 10
3437.3603224007183
 20
1203.8904193681369
 40
2
 50
179.99999999999985
 51
209.99999999999991
  0
ARC
  8
_2-0_
  6
DASHED1
 62
    7
 10
3441.3603224007188
 20
1203.5904193681367
 40
1
 50
179.99999999999991
 51
269.99999999999994
  0
ARC
  8
_2-0_
  6
DASHED1
 62
    7
 10
3443.6603224007185
 20
1203.5904193681367
 40
1
 50
269.99999999999988
 51
359.99999999999988
  0
ARC
  8
_2-0_
  6
DASHED1
 62
    7
 10
3413.3603224007183
 20
1207.3904193681366
 40
1
 50
179.99999999999991
 51
269.99999999999994
  0
ARC
  8
_2-0_
  6
DASHED1
 62
    7
 10
3455.4203224007187
 20
1192.1804193681368
 40
8.7300000000000004
 50
146.57599999999996
 51
22.665999999999996
  0
ARC
  8
_2-0_
  6
DASHED1
 62
    7
 10
3428.3603224007183
 20
1193.1904193681366
 40
1
 50
179.99999999999991
 51
269.99999999999994
  0
ARC
  8
_2-0_
  6
DASHED1
 62
    7
 10
3436.3603224007188
 20
1196.8904193681369
 40
1
 50
269.99999999999988
 51
359.99999999999988
  0
ARC
  8
_2-0_
  6
DASHED1
 62
    7
 10
3428.3603224007183
 20
1183.8904193681369
 40
2
 50
179.99999999999991
 51
269.99999999999994
  0
ARC
  8
_2-0_
  6
DASHED1
 62
    7
 10
3466.3603224007188
 20
1187.9881193681367
 40
4
 50
273
 51
304.46999999999985
  0
ARC
  8
_2-0_
  6
DASHED1
 62
    7
 10
3443.3603224007183
 20
1187.9986193681368
 40
4
 50
202.63099999999991
 51
266.99999999999994
  0
ARC
  8
_2-0_
  6
DASHED1
 62
    7
 10
3453.9603224007187
 20
1154.8904193681366
 40
45.472499999999996
 50
86.96199999999996
 51
89.629000000000019
  0
ARC
  8
_2-0_
  6
DASHED1
 62
    7
 10
3453.9603224007187
 20
1154.8904193681366
 40
45.046349999999996
 50
86.96199999999996
 51
89.625999999999976
  0
ARC
  8
_2-0_
  6
DASHED1
 62
    7
 10
3455.1527724007191
 20
1177.3588193681368
 40
22.54635
 50
74.297999999999973
 51
86.961999999999974
  0
ARC
  8
_2-0_
  6
DASHED1
 62
    7
 10
3455.1527724007191
 20
1177.3588193681368
 40
22.9725
 50
74.596999999999965
 51
86.96199999999996
  0
ARC
  8
_2-0_
  6
DASHED1
 62
    7
 10
3455.4203224007187
 20
1192.1804193681368
 40
8.7300000000000004
 50
22.665999999999975
 51
146.57599999999999
  0
ARC
  8
_2-0_
  6
DASHED1
 62
    7
 10
3443.3603224007183
 20
1187.8904193681366
 40
6.0000000000000008
 50
179.99999999999991
 51
269.99999999999994
  0
LINE
  8
_2-0_
  6
DASHED1
 62
    7
 10
3454.8603224007183
 20
1212.4904193681368
 11
3454.8603224007183
 21
1178.0904193681367
  0
ARC
  8
_2-0_
  6
DASHED1
 62
    7
 10
3391.0603224007181
 20
1196.3279193681366
 40
1.1999999999999999
 50
90.000000000000028
 51
180.00000000000005
  0
ARC
  8
_2-0_
  6
DASHED1
 62
    7
 10
3391.0603224007181
 20
1196.3279193681366
 40
1.1999999999999999
 50
90.000000000000028
 51
180.00000000000005
  0
LINE
  8
_2-0_
  6
DASHED1
 62
    7
 10
3389.8603224007183
 20
1193.3279193681366
 11
3391.0603224007181
 21
1193.3279193681366
  0
LINE
  8
_2-0_
  6
DASHED1
 62
    7
 10
3391.0603224007181
 20
1196.3279193681366
 11
3391.0603224007181
 21
1176.3279193681366
  0
LINE
  8
_2-0_
  6
DASHED1
 62
    7
 10
3389.8603224007183
 20
1176.3279193681366
 11
3391.0603224007181
 21
1176.3279193681366
  0
LINE
  8
_2-0_
  6
DASHED1
 62
    7
 10
3389.8603224007183
 20
1196.3279193681366
 11
3389.8603224007183
 21
1176.3279193681366
  0
LINE
  8
_2-0_
  6
DASHED1
 62
    7
 10
3391.0603224007181
 20
1195.8279193681366
 11
3391.0603224007181
 21
1180.6872193681369
  0
LINE
  8
_2-0_
  6
DASHED1
 62
    7
 10
3391.5603224007181
 20
1196.3279193681366
 11
3406.7010224007181
 21
1196.3279193681366
  0
LINE
  8
_2-0_
  6
DASHED1
 62
    7
 10
3420.8603224007179
 20
1196.3279193681366
 11
3420.8603224007179
 21
1197.5279193681367
  0
LINE
  8
_2-0_
  6
DASHED1
 62
    7
 10
3391.0603224007181
 20
1197.5279193681367
 11
3426.8603224007183
 21
1197.5279193681367
  0
LINE
  8
_2-0_
  6
DASHED1
 62
    7
 10
3391.0603224007181
 20
1196.3279193681366
 11
3426.8603224007183
 21
1196.3279193681366
  0
LINE
  8
_2-0_
  6
DASHED1
 62
    7
 10
3426.8603224007183
 20
1197.5279193681367
 11
3426.8603224007183
 21
1196.3279193681366
  0
CIRCLE
  8
_1-1_
  6
CONTINUOUS
 62
    4
 10
3695.3603224007179
 20
805.82791936813669
 40
2.5
  0
CIRCLE
  8
_1-1_
  6
CONTINUOUS
 62
    7
 10
3695.3603224007179
 20
805.82791936813669
 40
2.5
  0
LINE
  8
_1-1_
  6
CENTER2
 62
    4
 10
3695.3603224007179
 20
815.82791936813669
 11
3695.3603224007179
 21
795.82791936813669
  0
LINE
  8
_1-1_
  6
CENTER2
 62
    4
 10
3705.3603224007179
 20
805.82791936813669
 11
3682.8603224007179
 21
805.82791936813669
  0
CIRCLE
  8
_1-1_
  6
CONTINUOUS
 62
    4
 10
3695.3603224007179
 20
1045.8279193681366
 40
2.5
  0
CIRCLE
  8
_1-1_
  6
CONTINUOUS
 62
    7
 10
3695.3603224007179
 20
1045.8279193681366
 40
2.5
  0
LINE
  8
_1-1_
  6
CENTER2
 62
    4
 10
3695.3603224007179
 20
1055.8279193681366
 11
3695.3603224007179
 21
1035.8279193681366
  0
LINE
  8
_1-1_
  6
CENTER2
 62
    4
 10
3705.3603224007179
 20
1045.8279193681366
 11
3682.8603224007179
 21
1045.8279193681366
  0
CIRCLE
  8
_1-1_
  6
CONTINUOUS
 62
    4
 10
3695.3603224007179
 20
985.82791936813669
 40
2.5
  0
CIRCLE
  8
_1-1_
  6
CONTINUOUS
 62
    7
 10
3695.3603224007179
 20
985.82791936813669
 40
2.5
  0
LINE
  8
_1-1_
  6
CENTER2
 62
    4
 10
3695.3603224007179
 20
995.82791936813669
 11
3695.3603224007179
 21
975.82791936813669
  0
LINE
  8
_1-1_
  6
CENTER2
 62
    4
 10
3705.3603224007179
 20
985.82791936813669
 11
3682.8603224007179
 21
985.82791936813669
  0
CIRCLE
  8
_1-1_
  6
CONTINUOUS
 62
    4
 10
3695.3603224007179
 20
925.82791936813669
 40
2.5
  0
CIRCLE
  8
_1-1_
  6
CONTINUOUS
 62
    7
 10
3695.3603224007179
 20
925.82791936813669
 40
2.5
  0
LINE
  8
_1-1_
  6
CENTER2
 62
    4
 10
3695.3603224007179
 20
935.82791936813669
 11
3695.3603224007179
 21
915.82791936813669
  0
LINE
  8
_1-1_
  6
CENTER2
 62
    4
 10
3705.3603224007179
 20
925.82791936813669
 11
3682.8603224007179
 21
925.82791936813669
  0
CIRCLE
  8
_1-1_
  6
CONTINUOUS
 62
    4
 10
3695.3603224007179
 20
865.82791936813669
 40
2.5
  0
CIRCLE
  8
_1-1_
  6
CONTINUOUS
 62
    7
 10
3695.3603224007179
 20
865.82791936813669
 40
2.5
  0
LINE
  8
_1-1_
  6
CENTER2
 62
    4
 10
3695.3603224007179
 20
875.82791936813669
 11
3695.3603224007179
 21
855.82791936813669
  0
LINE
  8
_1-1_
  6
CENTER2
 62
    4
 10
3705.3603224007179
 20
865.82791936813669
 11
3682.8603224007179
 21
865.82791936813669
  0
CIRCLE
  8
_1-1_
  6
CONTINUOUS
 62
    4
 10
3503.3603224007174
 20
805.82791936813669
 40
2.5
  0
CIRCLE
  8
_1-1_
  6
CONTINUOUS
 62
    7
 10
3503.3603224007174
 20
805.82791936813669
 40
2.5
  0
LINE
  8
_1-1_
  6
CENTER2
 62
    4
 10
3503.3603224007174
 20
815.82791936813669
 11
3503.3603224007174
 21
795.82791936813669
  0
LINE
  8
_1-1_
  6
CENTER2
 62
    4
 10
3513.3603224007174
 20
805.82791936813669
 11
3490.8603224007174
 21
805.82791936813669
  0
CIRCLE
  8
_1-1_
  6
CONTINUOUS
 62
    4
 10
3503.3603224007174
 20
1045.8279193681366
 40
2.5
  0
CIRCLE
  8
_1-1_
  6
CONTINUOUS
 62
    7
 10
3503.3603224007174
 20
1045.8279193681366
 40
2.5
  0
LINE
  8
_1-1_
  6
CENTER2
 62
    4
 10
3503.3603224007174
 20
1055.8279193681366
 11
3503.3603224007174
 21
1035.8279193681366
  0
LINE
  8
_1-1_
  6
CENTER2
 62
    4
 10
3513.3603224007174
 20
1045.8279193681366
 11
3490.8603224007174
 21
1045.8279193681366
  0
CIRCLE
  8
_1-1_
  6
CONTINUOUS
 62
    4
 10
3503.3603224007174
 20
985.82791936813669
 40
2.5
  0
CIRCLE
  8
_1-1_
  6
CONTINUOUS
 62
    7
 10
3503.3603224007174
 20
985.82791936813669
 40
2.5
  0
LINE
  8
_1-1_
  6
CENTER2
 62
    4
 10
3503.3603224007174
 20
995.82791936813669
 11
3503.3603224007174
 21
975.82791936813669
  0
LINE
  8
_1-1_
  6
CENTER2
 62
    4
 10
3513.3603224007174
 20
985.82791936813669
 11
3490.8603224007174
 21
985.82791936813669
  0
CIRCLE
  8
_1-1_
  6
CONTINUOUS
 62
    4
 10
3503.3603224007174
 20
925.82791936813669
 40
2.5
  0
CIRCLE
  8
_1-1_
  6
CONTINUOUS
 62
    7
 10
3503.3603224007174
 20
925.82791936813669
 40
2.5
  0
LINE
  8
_1-1_
  6
CENTER2
 62
    4
 10
3503.3603224007174
 20
935.82791936813669
 11
3503.3603224007174
 21
915.82791936813669
  0
LINE
  8
_1-1_
  6
CENTER2
 62
    4
 10
3513.3603224007174
 20
925.82791936813669
 11
3490.8603224007174
 21
925.82791936813669
  0
CIRCLE
  8
_1-1_
  6
CONTINUOUS
 62
    4
 10
3503.3603224007174
 20
865.82791936813669
 40
2.5
  0
CIRCLE
  8
_1-1_
  6
CONTINUOUS
 62
    7
 10
3503.3603224007174
 20
865.82791936813669
 40
2.5
  0
LINE
  8
_1-1_
  6
CENTER2
 62
    4
 10
3503.3603224007174
 20
875.82791936813669
 11
3503.3603224007174
 21
855.82791936813669
  0
LINE
  8
_1-1_
  6
CENTER2
 62
    4
 10
3513.3603224007174
 20
865.82791936813669
 11
3490.8603224007174
 21
865.82791936813669
  0
CIRCLE
  8
_0-3_断面__扉
  6
CONTINUOUS
 62
    4
 10
3695.3603224007179
 20
805.82791936813669
 40
2.5
  0
CIRCLE
  8
_0-3_断面__扉
  6
CONTINUOUS
 62
    4
 10
3695.3603224007179
 20
865.82791936813669
 40
2.5
  0
CIRCLE
  8
_0-3_断面__扉
  6
CONTINUOUS
 62
    4
 10
3695.3603224007179
 20
925.82791936813669
 40
2.5
  0
CIRCLE
  8
_0-3_断面__扉
  6
CONTINUOUS
 62
    4
 10
3695.3603224007179
 20
985.82791936813669
 40
2.5
  0
CIRCLE
  8
_0-3_断面__扉
  6
CONTINUOUS
 62
    4
 10
3695.3603224007179
 20
1045.8279193681366
 40
2.5
  0
CIRCLE
  8
_0-3_断面__扉
  6
CONTINUOUS
 62
    4
 10
3503.3603224007174
 20
805.82791936813669
 40
2.5
  0
CIRCLE
  8
_0-3_断面__扉
  6
CONTINUOUS
 62
    4
 10
3503.3603224007174
 20
865.82791936813669
 40
2.5
  0
CIRCLE
  8
_0-3_断面__扉
  6
CONTINUOUS
 62
    4
 10
3503.3603224007174
 20
925.82791936813669
 40
2.5
  0
CIRCLE
  8
_0-3_断面__扉
  6
CONTINUOUS
 62
    4
 10
3503.3603224007174
 20
985.82791936813669
 40
2.5
  0
CIRCLE
  8
_0-3_断面__扉
  6
CONTINUOUS
 62
    4
 10
3503.3603224007174
 20
1045.8279193681366
 40
2.5
  0
ARC
  8
_0-1_立面__扉
  6
CONTINUOUS
 62
    7
 10
3709.5923724007179
 20
947.32791936813669
 40
1
 50
149.99999999999994
 51
269.99999999999994
  0
CIRCLE
  8
_0-1_立面__扉
  6
CONTINUOUS
 62
    7
 10
3695.3603224007179
 20
925.82791936813669
 40
1.5000000000000002
  0
LINE
  8
_0-1_立面__扉
  6
CONTINUOUS
 62
    7
 10
3690.3603224007179
 20
926.89679436813662
 11
3690.3603224007179
 21
927.8279193681368
  0
LINE
  8
_0-1_立面__扉
  6
CONTINUOUS
 62
    7
 10
3690.3603224007179
 20
927.8279193681368
 11
3689.4315474007175
 21
927.89424436813669
  0
LINE
  8
_0-1_立面__扉
  6
CONTINUOUS
 62
    7
 10
3700.3603224007179
 20
925.82791936813669
 11
3700.3603224007179
 21
926.82791936813657
  0
LINE
  8
_0-1_立面__扉
  6
CONTINUOUS
 62
    7
 10
3701.3603224007174
 20
927.8279193681368
 11
3713.8603224007183
 21
927.8279193681368
  0
LINE
  8
_0-1_立面__扉
  6
CONTINUOUS
 62
    7
 10
3690.3603224007179
 20
925.82791936813669
 11
3690.3603224007179
 21
926.89679436813662
  0
LINE
  8
_0-1_立面__扉
  6
CONTINUOUS
 62
    7
 10
3689.4315474007175
 20
927.89424436813669
 11
3677.2890724007174
 21
928.76156936813663
  0
LINE
  8
_0-1_立面__扉
  6
CONTINUOUS
 62
    7
 10
3676.3603224007174
 20
929.7590193681367
 11
3676.3603224007174
 21
929.82791936813669
  0
LINE
  8
_0-1_立面__扉
  6
CONTINUOUS
 62
    7
 10
3708.7263474007181
 20
947.8279193681368
 11
3710.6027224007175
 21
951.07791936813669
  0
LINE
  8
_0-1_立面__扉
  6
CONTINUOUS
 62
    7
 10
3677.3603224007179
 20
930.82791936813669
 11
3712.8603224007179
 21
930.82791936813669
  0
LINE
  8
_0-1_立面__扉
  6
CONTINUOUS
 62
    7
 10
3709.5923724007179
 20
946.32791936813669
 11
3712.8603224007179
 21
946.32791936813669
  0
LINE
  8
_0-1_立面__扉
  6
CONTINUOUS
 62
    7
 10
3713.8603224007183
 20
945.3279193681368
 11
3713.8603224007183
 21
931.82791936813657
  0
ARC
  8
_0-1_立面__扉
  6
CONTINUOUS
 62
    7
 10
3713.8603224007183
 20
931.62791936813675
 40
3.7999999999999998
 50
269.99999999999994
 51
2.5319999999999902
  0
ARC
  8
_0-1_立面__扉
  6
CONTINUOUS
 62
    7
 10
3695.3603224007179
 20
925.82791936813669
 40
5
 50
179.99999999999985
 51
359.99999999999988
  0
CIRCLE
  8
_0-1_立面__扉
  6
PHANTOM2
 62
    7
 10
3695.3603224007179
 20
925.82791936813669
 40
4.0999999999999996
  0
CIRCLE
  8
_0-1_立面__扉
  6
PHANTOM2
 62
    7
 10
3695.3603224007179
 20
925.82791936813669
 40
1.925
  0
ARC
  8
_0-1_立面__扉
  6
CONTINUOUS
 62
    7
 10
3715.7035474007175
 20
950.3279193681368
 40
1
 50
2.531999999999964
 51
89.999999999999943
  0
ARC
  8
_0-1_立面__扉
  6
CONTINUOUS
 62
    7
 10
3711.0357474007173
 20
950.82791936813669
 40
0.5
 50
89.999999999999985
 51
149.99999999999997
  0
ARC
  8
_0-1_立面__扉
  6
CONTINUOUS
 62
    7
 10
3701.3603224007174
 20
926.82791936813657
 40
1
 50
89.999999999999971
 51
180
  0
ARC
  8
_0-1_立面__扉
  6
CONTINUOUS
 62
    7
 10
3689.3603224007174
 20
926.89679436813662
 40
1
 50
359.99999999999994
 51
85.913999999999987
  0
ARC
  8
_0-1_立面__扉
  6
CONTINUOUS
 62
    7
 10
3677.3603224007179
 20
929.7590193681367
 40
1
 50
179.99999999999994
 51
265.91399999999993
  0
ARC
  8
_0-1_立面__扉
  6
CONTINUOUS
 62
    7
 10
3677.3603224007179
 20
929.82791936813669
 40
1
 50
89.999999999999971
 51
180
  0
ARC
  8
_0-1_立面__扉
  6
CONTINUOUS
 62
    7
 10
3712.8603224007179
 20
945.3279193681368
 40
1
 50
359.99999999999994
 51
89.999999999999943
  0
ARC
  8
_0-1_立面__扉
  6
CONTINUOUS
 62
    7
 10
3712.8603224007179
 20
931.82791936813657
 40
1
 50
269.99999999999988
 51
359.99999999999988
  0
LINE
  8
_0-1_立面__扉
  6
CONTINUOUS
 62
    7
 10
3715.7035474007175
 20
951.32791936813669
 11
3711.0357474007173
 21
951.32791936813669
  0
LINE
  8
_0-1_立面__扉
  6
CONTINUOUS
 62
    7
 10
3717.656597400718
 20
931.79576936813668
 11
3716.7018504514685
 21
950.38615182353032
  0
LINE
  8
_0-1_立面__扉
  6
CENTER1
 62
    7
 10
3695.3603224007179
 20
925.82791936813669
 11
3695.3603224007179
 21
919.71319149047849
  0
LINE
  8
_0-1_立面__扉
  6
CENTER1
 62
    7
 10
3695.3603224007179
 20
925.82791936813669
 11
3695.3603224007179
 21
931.92532232018947
  0
LINE
  8
_0-1_立面__扉
  6
CENTER1
 62
    7
 10
3695.2474603295977
 20
925.82791936813669
 11
3697.9270987515296
 21
925.82791936813669
  0
LINE
  8
_0-1_立面__扉
  6
CENTER1
 62
    7
 10
3695.2474603295977
 20
925.82791936813669
 11
3692.5821772249528
 21
925.82791936813669
  0
ARC
  8
_0-1_立面__扉
  6
CONTINUOUS
 62
    7
 10
3695.3603224007179
 20
925.82791936813669
 40
7.0000000000000017
 50
45.585000000000007
 51
134.41500000000002
  0
ARC
  8
_0-1_立面__扉
  6
CONTINUOUS
 62
    7
 10
3695.3603224007179
 20
925.82791936813669
 40
11
 50
27.036000000000012
 51
152.96400000000005
  0
CIRCLE
  8
_0-1_立面__扉
  6
CONTINUOUS
 62
    7
 10
3503.3603224007174
 20
925.82791936813669
 40
1.5000000000000002
  0
LINE
  8
_0-1_立面__扉
  6
CONTINUOUS
 62
    7
 10
3508.3603224007174
 20
926.89679436813662
 11
3508.3603224007174
 21
927.8279193681368
  0
LINE
  8
_0-1_立面__扉
  6
CONTINUOUS
 62
    7
 10
3508.3603224007174
 20
927.8279193681368
 11
3509.2890974007177
 21
927.89424436813669
  0
LINE
  8
_0-1_立面__扉
  6
CONTINUOUS
 62
    7
 10
3498.3603224007174
 20
925.82791936813669
 11
3498.3603224007174
 21
926.82791936813657
  0
LINE
  8
_0-1_立面__扉
  6
CONTINUOUS
 62
    7
 10
3497.3603224007179
 20
927.8279193681368
 11
3484.8603224007179
 21
927.8279193681368
  0
LINE
  8
_0-1_立面__扉
  6
CONTINUOUS
 62
    7
 10
3508.3603224007174
 20
925.82791936813669
 11
3508.3603224007174
 21
926.89679436813662
  0
LINE
  8
_0-1_立面__扉
  6
CONTINUOUS
 62
    7
 10
3509.2890974007177
 20
927.89424436813669
 11
3521.4315724007178
 21
928.76156936813663
  0
LINE
  8
_0-1_立面__扉
  6
CONTINUOUS
 62
    7
 10
3522.3603224007179
 20
929.7590193681367
 11
3522.3603224007179
 21
929.82791936813669
  0
LINE
  8
_0-1_立面__扉
  6
CONTINUOUS
 62
    7
 10
3489.9942974007176
 20
947.8279193681368
 11
3488.1179224007178
 21
951.07791936813669
  0
LINE
  8
_0-1_立面__扉
  6
CONTINUOUS
 62
    7
 10
3521.3603224007183
 20
930.82791936813669
 11
3485.8603224007174
 21
930.82791936813669
  0
LINE
  8
_0-1_立面__扉
  6
CONTINUOUS
 62
    7
 10
3489.1282724007178
 20
946.32791936813669
 11
3485.8603224007174
 21
946.32791936813669
  0
LINE
  8
_0-1_立面__扉
  6
CONTINUOUS
 62
    7
 10
3484.8603224007179
 20
945.3279193681368
 11
3484.8603224007179
 21
931.82791936813657
  0
ARC
  8
_0-1_立面__扉
  6
CONTINUOUS
 62
    7
 10
3484.8603224007179
 20
931.62791936813675
 40
3.7999999999999998
 50
177.46800000000004
 51
270.00000000000005
  0
ARC
  8
_0-1_立面__扉
  6
CONTINUOUS
 62
    7
 10
3503.3603224007174
 20
925.82791936813669
 40
5
 50
180.00000000000005
 51
0.0000000000001017
  0
CIRCLE
  8
_0-1_立面__扉
  6
PHANTOM2
 62
    7
 10
3503.3603224007174
 20
925.82791936813669
 40
4.0999999999999996
  0
CIRCLE
  8
_0-1_立面__扉
  6
PHANTOM2
 62
    7
 10
3503.3603224007174
 20
925.82791936813669
 40
1.925
  0
ARC
  8
_0-1_立面__扉
  6
CONTINUOUS
 62
    7
 10
3483.0170974007178
 20
950.3279193681368
 40
1
 50
90.000000000000028
 51
177.46800000000004
  0
ARC
  8
_0-1_立面__扉
  6
CONTINUOUS
 62
    7
 10
3487.684897400718
 20
950.82791936813669
 40
0.5
 50
30.000000000000003
 51
90.000000000000028
  0
ARC
  8
_0-1_立面__扉
  6
CONTINUOUS
 62
    7
 10
3497.3603224007179
 20
926.82791936813657
 40
1
 50
0
 51
90.000000000000028
  0
ARC
  8
_0-1_立面__扉
  6
CONTINUOUS
 62
    7
 10
3509.3603224007174
 20
926.89679436813662
 40
1
 50
94.086000000000041
 51
180.00000000000005
  0
ARC
  8
_0-1_立面__扉
  6
CONTINUOUS
 62
    7
 10
3521.3603224007183
 20
929.7590193681367
 40
1
 50
274.08600000000006
 51
0.0000000000000508
  0
ARC
  8
_0-1_立面__扉
  6
CONTINUOUS
 62
    7
 10
3521.3603224007183
 20
929.82791936813669
 40
1
 50
0
 51
90.000000000000028
  0
ARC
  8
_0-1_立面__扉
  6
CONTINUOUS
 62
    7
 10
3489.1282724007178
 20
947.32791936813669
 40
1
 50
270.00000000000005
 51
30.000000000000042
  0
ARC
  8
_0-1_立面__扉
  6
CONTINUOUS
 62
    7
 10
3485.8603224007174
 20
945.3279193681368
 40
1
 50
90.000000000000028
 51
180.00000000000005
  0
ARC
  8
_0-1_立面__扉
  6
CONTINUOUS
 62
    7
 10
3485.8603224007174
 20
931.82791936813657
 40
1
 50
180.00000000000005
 51
270.00000000000005
  0
LINE
  8
_0-1_立面__扉
  6
CONTINUOUS
 62
    7
 10
3483.0170974007178
 20
951.32791936813669
 11
3487.684897400718
 21
951.32791936813669
  0
LINE
  8
_0-1_立面__扉
  6
CONTINUOUS
 62
    7
 10
3481.0640474007177
 20
931.79576936813668
 11
3482.0187943499668
 21
950.38615182353032
  0
LINE
  8
_0-1_立面__扉
  6
CENTER1
 62
    7
 10
3503.3603224007174
 20
925.82791936813669
 11
3503.3603224007174
 21
919.71319149047849
  0
LINE
  8
_0-1_立面__扉
  6
CENTER1
 62
    7
 10
3503.3603224007174
 20
925.82791936813669
 11
3503.3603224007174
 21
931.92532232018947
  0
LINE
  8
_0-1_立面__扉
  6
CENTER1
 62
    7
 10
3503.4731844718371
 20
925.82791936813669
 11
3500.7935460499061
 21
925.82791936813669
  0
LINE
  8
_0-1_立面__扉
  6
CENTER1
 62
    7
 10
3503.4731844718371
 20
925.82791936813669
 11
3506.1384675764829
 21
925.82791936813669
  0
ARC
  8
_0-1_立面__扉
  6
CONTINUOUS
 62
    7
 10
3503.3603224007174
 20
925.82791936813669
 40
7.0000000000000017
 50
45.585000000000007
 51
134.41500000000002
  0
ARC
  8
_0-1_立面__扉
  6
CONTINUOUS
 62
    7
 10
3503.3603224007174
 20
925.82791936813669
 40
11
 50
27.036000000000012
 51
152.96400000000005
  0
LINE
  8
_0-0_立面本体
  6
CONTINUOUS
 62
    7
 10
3484.7974603295983
 20
945.82791936813714
 11
3484.7974603295983
 21
930.82791936813714
  0
LINE
  8
_0-0_立面本体
  6
CONTINUOUS
 62
    7
 10
3713.8103224007177
 20
930.82791936813714
 11
3713.8103224007177
 21
945.82791936813714
  0
LINE
  8
_0-0_立面本体
  6
CONTINUOUS
 62
    7
 10
3484.7974603295983
 20
930.82791936813714
 11
3713.8103224007177
 21
930.82791936813714
  0
LINE
  8
_0-0_立面本体
  6
CONTINUOUS
 62
    7
 10
3713.8103224007177
 20
945.82791936813714
 11
3484.7974603295983
 21
945.82791936813714
  0
LINE
  8
_0-5_平面本体
  6
DASHED1
 62
    4
 10
1979.0541420710555
 20
2523.7744603287765
 11
2513.0541420710555
 21
2523.7744603287765
  0
LINE
  8
_0-5_平面本体
  6
DASHED1
 62
    4
 10
1979.0541420710555
 20
2294.7744603287765
 11
2513.0541420710555
 21
2294.7744603287765
  0
LINE
  8
_1-2_
  6
DASHED1
 62
    7
 10
1969.0594420710556
 20
925.82791936813669
 11
1991.3403670710556
 21
925.82791936813669
  0
LINE
  8
_1-2_
  6
DASHED1
 62
    7
 10
1979.0541420710555
 20
922.22791936813678
 11
1979.0541420710555
 21
929.42791936813682
  0
LINE
  8
_1-2_
  6
DASHED1
 62
    7
 10
1979.8541420710557
 20
928.32791936813669
 11
1979.8541420710557
 21
923.32791936813669
  0
LINE
  8
_1-2_
  6
DASHED1
 62
    7
 10
1987.8541420710555
 20
923.82791936813669
 11
1980.3541420710555
 21
923.82791936813669
  0
LINE
  8
_1-2_
  6
DASHED1
 62
    7
 10
1979.8541420710557
 20
923.32791936813669
 11
1979.8541420710557
 21
922.22791936813678
  0
LINE
  8
_1-2_
  6
DASHED1
 62
    7
 10
1978.5541420710558
 20
923.42791936813659
 11
1970.5541420710555
 21
923.42791936813659
  0
LINE
  8
_1-2_
  6
DASHED1
 62
    7
 10
1970.0541420710555
 20
923.92791936813659
 11
1970.0541420710555
 21
927.72791936813655
  0
LINE
  8
_1-2_
  6
DASHED1
 62
    7
 10
1970.5541420710555
 20
928.22791936813678
 11
1978.5541420710558
 21
928.22791936813678
  0
LINE
  8
_1-2_
  6
DASHED1
 62
    7
 10
1979.8541420710557
 20
929.42791936813682
 11
1979.8541420710557
 21
928.32791936813669
  0
LINE
  8
_1-2_
  6
DASHED1
 62
    7
 10
1980.3541420710555
 20
927.8279193681368
 11
1987.8541420710555
 21
927.8279193681368
  0
LINE
  8
_1-2_
  6
DASHED1
 62
    7
 10
1987.8541420710555
 20
927.8279193681368
 11
1987.8541420710555
 21
923.82791936813669
  0
LINE
  8
_1-2_
  6
DASHED1
 62
    7
 10
1988.2541420710554
 20
927.32791936813669
 11
1988.2541420710554
 21
927.8279193681368
  0
LINE
  8
_1-2_
  6
DASHED1
 62
    7
 10
1989.0541420710555
 20
929.92791936813659
 11
1989.0541420710555
 21
921.32791936813669
  0
LINE
  8
_1-2_
  6
DASHED1
 62
    7
 10
1988.2541420710554
 20
927.32791936813669
 11
1989.0541420710555
 21
927.32791936813669
  0
LINE
  8
_1-2_
  6
DASHED1
 62
    7
 10
1988.2541420710554
 20
924.32791936813657
 11
1989.0541420710555
 21
924.32791936813657
  0
LINE
  8
_1-2_
  6
DASHED1
 62
    7
 10
1979.0541420710555
 20
923.82791936813669
 11
1987.8541420710555
 21
923.82791936813669
  0
LINE
  8
_1-2_
  6
DASHED1
 62
    7
 10
1979.0541420710555
 20
921.32791936813669
 11
1979.0541420710555
 21
923.82791936813669
  0
LINE
  8
_1-2_
  6
DASHED1
 62
    7
 10
1987.8541420710555
 20
923.82791936813669
 11
1988.2541420710554
 21
923.82791936813669
  0
LINE
  8
_1-2_
  6
DASHED1
 62
    7
 10
1979.0541420710555
 20
927.8279193681368
 11
1988.2541420710554
 21
927.8279193681368
  0
LINE
  8
_1-2_
  6
DASHED1
 62
    7
 10
1988.2541420710554
 20
923.82791936813669
 11
1988.2541420710554
 21
924.32791936813657
  0
LINE
  8
_1-2_
  6
DASHED1
 62
    7
 10
1979.0541420710555
 20
928.76156936813663
 11
1989.0541420710555
 21
928.76156936813663
  0
LINE
  8
_1-2_
  6
DASHED1
 62
    7
 10
1988.2541420710554
 20
927.8279193681368
 11
1989.0541420710555
 21
927.8279193681368
  0
LINE
  8
_1-2_
  6
DASHED1
 62
    7
 10
1989.0541420710555
 20
930.82791936813669
 11
1989.0541420710555
 21
929.92791936813659
  0
LINE
  8
_1-2_
  6
DASHED1
 62
    7
 10
1979.0541420710555
 20
923.82791936813669
 11
1979.0541420710555
 21
930.82791936813669
  0
LINE
  8
_1-2_
  6
DASHED1
 62
    7
 10
1979.5541420710555
 20
951.32791936813669
 11
1988.5541420710558
 21
951.32791936813669
  0
LINE
  8
_1-2_
  6
DASHED1
 62
    7
 10
1988.5541420710558
 20
920.82791936813669
 11
1979.5541420710555
 21
920.82791936813669
  0
LINE
  8
_1-2_
  6
DASHED1
 62
    7
 10
1977.5767420710556
 20
925.82791936813669
 11
1990.6505670710555
 21
925.82791936813669
  0
LINE
  8
_1-2_
  6
DASHED1
 62
    7
 10
1989.0541420710555
 20
950.82791936813669
 11
1989.0541420710555
 21
930.82791936813669
  0
ARC
  8
_1-2_
  6
DASHED1
 62
    7
 10
1978.5541420710558
 20
928.72791936813655
 40
0.5
 50
270.00000000000005
 51
0.0000000000000508
  0
ARC
  8
_1-2_
  6
DASHED1
 62
    7
 10
1978.5541420710558
 20
922.92791936813671
 40
0.5
 50
0
 51
90.000000000000028
  0
ARC
  8
_1-2_
  6
DASHED1
 62
    7
 10
1980.3541420710555
 20
923.32791936813669
 40
0.5
 50
90.000000000000028
 51
180.00000000000005
  0
ARC
  8
_1-2_
  6
DASHED1
 62
    7
 10
1980.3541420710555
 20
928.32791936813669
 40
0.5
 50
180.00000000000005
 51
270.00000000000005
  0
ARC
  8
_1-2_
  6
DASHED1
 62
    7
 10
1970.5541420710555
 20
927.72791936813655
 40
0.5
 50
90.000000000000028
 51
180.00000000000005
  0
ARC
  8
_1-2_
  6
DASHED1
 62
    7
 10
1970.5541420710555
 20
923.92791936813659
 40
0.5
 50
180.00000000000005
 51
270.00000000000005
  0
ARC
  8
_1-2_
  6
DASHED1
 62
    7
 10
1979.4541420710556
 20
922.22791936813678
 40
0.4
 50
270.00000000000005
 51
0.0000000000000508
  0
ARC
  8
_1-2_
  6
DASHED1
 62
    7
 10
1979.4541420710556
 20
922.22791936813678
 40
0.4
 50
180.00000000000005
 51
270.00000000000005
  0
ARC
  8
_1-2_
  6
DASHED1
 62
    7
 10
1979.4541420710556
 20
929.42791936813682
 40
0.4
 50
90.000000000000028
 51
180.00000000000005
  0
ARC
  8
_1-2_
  6
DASHED1
 62
    7
 10
1979.4541420710556
 20
929.42791936813682
 40
0.4
 50
0
 51
90.000000000000028
  0
ARC
  8
_1-2_
  6
DASHED1
 62
    7
 10
1979.5541420710555
 20
950.82791936813669
 40
0.5
 50
90.000000000000028
 51
180.00000000000005
  0
ARC
  8
_1-2_
  6
DASHED1
 62
    7
 10
1988.5541420710558
 20
950.82791936813669
 40
0.5
 50
0
 51
90.000000000000028
  0
ARC
  8
_1-2_
  6
DASHED1
 62
    7
 10
1988.5541420710558
 20
921.32791936813669
 40
0.5
 50
270.00000000000005
 51
0.0000000000000508
  0
ARC
  8
_1-2_
  6
DASHED1
 62
    7
 10
1979.5541420710555
 20
921.32791936813669
 40
0.5
 50
180.00000000000005
 51
270.00000000000005
  0
LINE
  8
_1-2_
  6
DASHED1
 62
    7
 10
1979.0541420710555
 20
930.82791936813669
 11
1979.0541420710555
 21
950.82791936813669
  0
LINE
  8
_1-2_
  6
DASHED1
 62
    7
 10
2837.8656224007172
 20
925.82791936813669
 11
2860.1465474007172
 21
925.82791936813669
  0
LINE
  8
_1-2_
  6
DASHED1
 62
    7
 10
2847.8603224007174
 20
922.22791936813678
 11
2847.8603224007174
 21
929.42791936813682
  0
LINE
  8
_1-2_
  6
DASHED1
 62
    7
 10
2848.6603224007171
 20
928.32791936813669
 11
2848.6603224007171
 21
923.32791936813669
  0
LINE
  8
_1-2_
  6
DASHED1
 62
    7
 10
2856.6603224007171
 20
923.82791936813669
 11
2849.1603224007171
 21
923.82791936813669
  0
LINE
  8
_1-2_
  6
DASHED1
 62
    7
 10
2848.6603224007171
 20
923.32791936813669
 11
2848.6603224007171
 21
922.22791936813678
  0
LINE
  8
_1-2_
  6
DASHED1
 62
    7
 10
2847.3603224007174
 20
923.42791936813659
 11
2839.3603224007174
 21
923.42791936813659
  0
LINE
  8
_1-2_
  6
DASHED1
 62
    7
 10
2838.8603224007169
 20
923.92791936813659
 11
2838.8603224007169
 21
927.72791936813655
  0
LINE
  8
_1-2_
  6
DASHED1
 62
    7
 10
2839.3603224007174
 20
928.22791936813678
 11
2847.3603224007174
 21
928.22791936813678
  0
LINE
  8
_1-2_
  6
DASHED1
 62
    7
 10
2848.6603224007171
 20
929.42791936813682
 11
2848.6603224007171
 21
928.32791936813669
  0
LINE
  8
_1-2_
  6
DASHED1
 62
    7
 10
2849.1603224007171
 20
927.8279193681368
 11
2856.6603224007171
 21
927.8279193681368
  0
LINE
  8
_1-2_
  6
DASHED1
 62
    7
 10
2856.6603224007171
 20
927.8279193681368
 11
2856.6603224007171
 21
923.82791936813669
  0
LINE
  8
_1-2_
  6
DASHED1
 62
    7
 10
2857.0603224007172
 20
927.32791936813669
 11
2857.0603224007172
 21
927.8279193681368
  0
LINE
  8
_1-2_
  6
DASHED1
 62
    7
 10
2857.8603224007174
 20
929.92791936813659
 11
2857.8603224007174
 21
921.32791936813669
  0
LINE
  8
_1-2_
  6
DASHED1
 62
    7
 10
2857.0603224007172
 20
927.32791936813669
 11
2857.8603224007174
 21
927.32791936813669
  0
LINE
  8
_1-2_
  6
DASHED1
 62
    7
 10
2857.0603224007172
 20
924.32791936813657
 11
2857.8603224007174
 21
924.32791936813657
  0
LINE
  8
_1-2_
  6
DASHED1
 62
    7
 10
2847.8603224007174
 20
923.82791936813669
 11
2856.6603224007171
 21
923.82791936813669
  0
LINE
  8
_1-2_
  6
DASHED1
 62
    7
 10
2847.8603224007174
 20
921.32791936813669
 11
2847.8603224007174
 21
923.82791936813669
  0
LINE
  8
_1-2_
  6
DASHED1
 62
    7
 10
2856.6603224007171
 20
923.82791936813669
 11
2857.0603224007172
 21
923.82791936813669
  0
LINE
  8
_1-2_
  6
DASHED1
 62
    7
 10
2847.8603224007174
 20
927.8279193681368
 11
2857.0603224007172
 21
927.8279193681368
  0
LINE
  8
_1-2_
  6
DASHED1
 62
    7
 10
2857.0603224007172
 20
923.82791936813669
 11
2857.0603224007172
 21
924.32791936813657
  0
LINE
  8
_1-2_
  6
DASHED1
 62
    7
 10
2847.8603224007174
 20
928.76156936813663
 11
2857.8603224007174
 21
928.76156936813663
  0
LINE
  8
_1-2_
  6
DASHED1
 62
    7
 10
2857.0603224007172
 20
927.8279193681368
 11
2857.8603224007174
 21
927.8279193681368
  0
LINE
  8
_1-2_
  6
DASHED1
 62
    7
 10
2857.8603224007174
 20
930.82791936813669
 11
2857.8603224007174
 21
929.92791936813659
  0
LINE
  8
_1-2_
  6
DASHED1
 62
    7
 10
2847.8603224007174
 20
923.82791936813669
 11
2847.8603224007174
 21
930.82791936813669
  0
LINE
  8
_1-2_
  6
DASHED1
 62
    7
 10
2848.3603224007174
 20
951.32791936813669
 11
2857.3603224007174
 21
951.32791936813669
  0
LINE
  8
_1-2_
  6
DASHED1
 62
    7
 10
2857.3603224007174
 20
920.82791936813669
 11
2848.3603224007174
 21
920.82791936813669
  0
LINE
  8
_1-2_
  6
DASHED1
 62
    7
 10
2846.3829224007172
 20
925.82791936813669
 11
2859.4567474007171
 21
925.82791936813669
  0
LINE
  8
_1-2_
  6
DASHED1
 62
    7
 10
2857.8603224007174
 20
950.82791936813669
 11
2857.8603224007174
 21
930.82791936813669
  0
ARC
  8
_1-2_
  6
DASHED1
 62
    7
 10
2847.3603224007174
 20
928.72791936813655
 40
0.5
 50
270.00000000000005
 51
0.0000000000000508
  0
ARC
  8
_1-2_
  6
DASHED1
 62
    7
 10
2847.3603224007174
 20
922.92791936813671
 40
0.5
 50
0
 51
90.000000000000028
  0
ARC
  8
_1-2_
  6
DASHED1
 62
    7
 10
2849.1603224007171
 20
923.32791936813669
 40
0.5
 50
90.000000000000028
 51
180.00000000000005
  0
ARC
  8
_1-2_
  6
DASHED1
 62
    7
 10
2849.1603224007171
 20
928.32791936813669
 40
0.5
 50
180.00000000000005
 51
270.00000000000005
  0
ARC
  8
_1-2_
  6
DASHED1
 62
    7
 10
2839.3603224007174
 20
927.72791936813655
 40
0.5
 50
90.000000000000028
 51
180.00000000000005
  0
ARC
  8
_1-2_
  6
DASHED1
 62
    7
 10
2839.3603224007174
 20
923.92791936813659
 40
0.5
 50
180.00000000000005
 51
270.00000000000005
  0
ARC
  8
_1-2_
  6
DASHED1
 62
    7
 10
2848.2603224007175
 20
922.22791936813678
 40
0.4
 50
270.00000000000005
 51
0.0000000000000508
  0
ARC
  8
_1-2_
  6
DASHED1
 62
    7
 10
2848.2603224007175
 20
922.22791936813678
 40
0.4
 50
180.00000000000005
 51
270.00000000000005
  0
ARC
  8
_1-2_
  6
DASHED1
 62
    7
 10
2848.2603224007175
 20
929.42791936813682
 40
0.4
 50
90.000000000000028
 51
180.00000000000005
  0
ARC
  8
_1-2_
  6
DASHED1
 62
    7
 10
2848.2603224007175
 20
929.42791936813682
 40
0.4
 50
0
 51
90.000000000000028
  0
ARC
  8
_1-2_
  6
DASHED1
 62
    7
 10
2848.3603224007174
 20
950.82791936813669
 40
0.5
 50
90.000000000000028
 51
180.00000000000005
  0
ARC
  8
_1-2_
  6
DASHED1
 62
    7
 10
2857.3603224007174
 20
950.82791936813669
 40
0.5
 50
0
 51
90.000000000000028
  0
ARC
  8
_1-2_
  6
DASHED1
 62
    7
 10
2857.3603224007174
 20
921.32791936813669
 40
0.5
 50
270.00000000000005
 51
0.0000000000000508
  0
ARC
  8
_1-2_
  6
DASHED1
 62
    7
 10
2848.3603224007174
 20
921.32791936813669
 40
0.5
 50
180.00000000000005
 51
270.00000000000005
  0
LINE
  8
_1-2_
  6
DASHED1
 62
    7
 10
2847.8603224007174
 20
930.82791936813669
 11
2847.8603224007174
 21
950.82791936813669
  0
LINE
  8
_1-2_
  6
DASHED1
 62
    7
 10
2523.0488420710553
 20
925.82791936813669
 11
2500.7679170710553
 21
925.82791936813669
  0
LINE
  8
_1-2_
  6
DASHED1
 62
    7
 10
2513.0541420710555
 20
922.22791936813678
 11
2513.0541420710555
 21
929.42791936813682
  0
LINE
  8
_1-2_
  6
DASHED1
 62
    7
 10
2512.2541420710554
 20
928.32791936813669
 11
2512.2541420710554
 21
923.32791936813669
  0
LINE
  8
_1-2_
  6
DASHED1
 62
    7
 10
2504.2541420710554
 20
923.82791936813669
 11
2511.7541420710554
 21
923.82791936813669
  0
LINE
  8
_1-2_
  6
DASHED1
 62
    7
 10
2512.2541420710554
 20
923.32791936813669
 11
2512.2541420710554
 21
922.22791936813678
  0
LINE
  8
_1-2_
  6
DASHED1
 62
    7
 10
2513.5541420710551
 20
923.42791936813659
 11
2521.5541420710551
 21
923.42791936813659
  0
LINE
  8
_1-2_
  6
DASHED1
 62
    7
 10
2522.0541420710555
 20
923.92791936813659
 11
2522.0541420710555
 21
927.72791936813655
  0
LINE
  8
_1-2_
  6
DASHED1
 62
    7
 10
2521.5541420710551
 20
928.22791936813678
 11
2513.5541420710551
 21
928.22791936813678
  0
LINE
  8
_1-2_
  6
DASHED1
 62
    7
 10
2512.2541420710554
 20
929.42791936813682
 11
2512.2541420710554
 21
928.32791936813669
  0
LINE
  8
_1-2_
  6
DASHED1
 62
    7
 10
2511.7541420710554
 20
927.8279193681368
 11
2504.2541420710554
 21
927.8279193681368
  0
LINE
  8
_1-2_
  6
DASHED1
 62
    7
 10
2504.2541420710554
 20
927.8279193681368
 11
2504.2541420710554
 21
923.82791936813669
  0
LINE
  8
_1-2_
  6
DASHED1
 62
    7
 10
2503.8541420710553
 20
927.32791936813669
 11
2503.8541420710553
 21
927.8279193681368
  0
LINE
  8
_1-2_
  6
DASHED1
 62
    7
 10
2503.0541420710555
 20
929.92791936813659
 11
2503.0541420710555
 21
921.32791936813669
  0
LINE
  8
_1-2_
  6
DASHED1
 62
    7
 10
2503.8541420710553
 20
927.32791936813669
 11
2503.0541420710555
 21
927.32791936813669
  0
LINE
  8
_1-2_
  6
DASHED1
 62
    7
 10
2503.8541420710553
 20
924.32791936813657
 11
2503.0541420710555
 21
924.32791936813657
  0
LINE
  8
_1-2_
  6
DASHED1
 62
    7
 10
2513.0541420710555
 20
923.82791936813669
 11
2504.2541420710554
 21
923.82791936813669
  0
LINE
  8
_1-2_
  6
DASHED1
 62
    7
 10
2513.0541420710555
 20
921.32791936813669
 11
2513.0541420710555
 21
923.82791936813669
  0
LINE
  8
_1-2_
  6
DASHED1
 62
    7
 10
2504.2541420710554
 20
923.82791936813669
 11
2503.8541420710553
 21
923.82791936813669
  0
LINE
  8
_1-2_
  6
DASHED1
 62
    7
 10
2513.0541420710555
 20
927.8279193681368
 11
2503.8541420710553
 21
927.8279193681368
  0
LINE
  8
_1-2_
  6
DASHED1
 62
    7
 10
2503.8541420710553
 20
923.82791936813669
 11
2503.8541420710553
 21
924.32791936813657
  0
LINE
  8
_1-2_
  6
DASHED1
 62
    7
 10
2513.0541420710555
 20
928.76156936813663
 11
2503.0541420710555
 21
928.76156936813663
  0
LINE
  8
_1-2_
  6
DASHED1
 62
    7
 10
2503.8541420710553
 20
927.8279193681368
 11
2503.0541420710555
 21
927.8279193681368
  0
LINE
  8
_1-2_
  6
DASHED1
 62
    7
 10
2503.0541420710555
 20
930.82791936813669
 11
2503.0541420710555
 21
929.92791936813659
  0
LINE
  8
_1-2_
  6
DASHED1
 62
    7
 10
2513.0541420710555
 20
923.82791936813669
 11
2513.0541420710555
 21
930.82791936813669
  0
LINE
  8
_1-2_
  6
DASHED1
 62
    7
 10
2512.5541420710555
 20
951.32791936813669
 11
2503.5541420710551
 21
951.32791936813669
  0
LINE
  8
_1-2_
  6
DASHED1
 62
    7
 10
2503.5541420710551
 20
920.82791936813669
 11
2512.5541420710555
 21
920.82791936813669
  0
LINE
  8
_1-2_
  6
DASHED1
 62
    7
 10
2514.5315420710553
 20
925.82791936813669
 11
2501.4577170710554
 21
925.82791936813669
  0
LINE
  8
_1-2_
  6
DASHED1
 62
    7
 10
2503.0541420710555
 20
950.82791936813669
 11
2503.0541420710555
 21
930.82791936813669
  0
ARC
  8
_1-2_
  6
DASHED1
 62
    7
 10
2513.5541420710551
 20
928.72791936813655
 40
0.5
 50
179.99999999999991
 51
269.99999999999994
  0
ARC
  8
_1-2_
  6
DASHED1
 62
    7
 10
2513.5541420710551
 20
922.92791936813671
 40
0.5
 50
89.999999999999971
 51
180
  0
ARC
  8
_1-2_
  6
DASHED1
 62
    7
 10
2511.7541420710554
 20
923.32791936813669
 40
0.5
 50
359.99999999999994
 51
89.999999999999943
  0
ARC
  8
_1-2_
  6
DASHED1
 62
    7
 10
2511.7541420710554
 20
928.32791936813669
 40
0.5
 50
269.99999999999988
 51
359.99999999999988
  0
ARC
  8
_1-2_
  6
DASHED1
 62
    7
 10
2521.5541420710551
 20
927.72791936813655
 40
0.5
 50
359.99999999999994
 51
89.999999999999943
  0
ARC
  8
_1-2_
  6
DASHED1
 62
    7
 10
2521.5541420710551
 20
923.92791936813659
 40
0.5
 50
269.99999999999988
 51
359.99999999999988
  0
ARC
  8
_1-2_
  6
DASHED1
 62
    7
 10
2512.6541420710555
 20
922.22791936813678
 40
0.4
 50
179.99999999999991
 51
269.99999999999994
  0
ARC
  8
_1-2_
  6
DASHED1
 62
    7
 10
2512.6541420710555
 20
922.22791936813678
 40
0.4
 50
269.99999999999988
 51
359.99999999999988
  0
ARC
  8
_1-2_
  6
DASHED1
 62
    7
 10
2512.6541420710555
 20
929.42791936813682
 40
0.4
 50
359.99999999999994
 51
89.999999999999943
  0
ARC
  8
_1-2_
  6
DASHED1
 62
    7
 10
2512.6541420710555
 20
929.42791936813682
 40
0.4
 50
89.999999999999971
 51
180
  0
ARC
  8
_1-2_
  6
DASHED1
 62
    7
 10
2512.5541420710555
 20
950.82791936813669
 40
0.5
 50
359.99999999999994
 51
89.999999999999943
  0
ARC
  8
_1-2_
  6
DASHED1
 62
    7
 10
2503.5541420710551
 20
950.82791936813669
 40
0.5
 50
89.999999999999971
 51
180
  0
ARC
  8
_1-2_
  6
DASHED1
 62
    7
 10
2503.5541420710551
 20
921.32791936813669
 40
0.5
 50
179.99999999999991
 51
269.99999999999994
  0
ARC
  8
_1-2_
  6
DASHED1
 62
    7
 10
2512.5541420710555
 20
921.32791936813669
 40
0.5
 50
269.99999999999988
 51
359.99999999999988
  0
LINE
  8
_1-2_
  6
DASHED1
 62
    7
 10
2513.0541420710555
 20
930.82791936813669
 11
2513.0541420710555
 21
950.82791936813669
  0
LINE
  8
_1-2_
  6
DASHED1
 62
    7
 10
3355.8550224007185
 20
925.82791936813669
 11
3333.5740974007185
 21
925.82791936813669
  0
LINE
  8
_1-2_
  6
DASHED1
 62
    7
 10
3345.8603224007179
 20
922.22791936813678
 11
3345.8603224007179
 21
929.42791936813682
  0
LINE
  8
_1-2_
  6
DASHED1
 62
    7
 10
3345.0603224007181
 20
928.32791936813669
 11
3345.0603224007181
 21
923.32791936813669
  0
LINE
  8
_1-2_
  6
DASHED1
 62
    7
 10
3337.0603224007181
 20
923.82791936813669
 11
3344.5603224007181
 21
923.82791936813669
  0
LINE
  8
_1-2_
  6
DASHED1
 62
    7
 10
3345.0603224007181
 20
923.32791936813669
 11
3345.0603224007181
 21
922.22791936813678
  0
LINE
  8
_1-2_
  6
DASHED1
 62
    7
 10
3346.3603224007183
 20
923.42791936813659
 11
3354.3603224007174
 21
923.42791936813659
  0
LINE
  8
_1-2_
  6
DASHED1
 62
    7
 10
3354.8603224007183
 20
923.92791936813659
 11
3354.8603224007183
 21
927.72791936813655
  0
LINE
  8
_1-2_
  6
DASHED1
 62
    7
 10
3354.3603224007174
 20
928.22791936813678
 11
3346.3603224007183
 21
928.22791936813678
  0
LINE
  8
_1-2_
  6
DASHED1
 62
    7
 10
3345.0603224007181
 20
929.42791936813682
 11
3345.0603224007181
 21
928.32791936813669
  0
LINE
  8
_1-2_
  6
DASHED1
 62
    7
 10
3344.5603224007181
 20
927.8279193681368
 11
3337.0603224007181
 21
927.8279193681368
  0
LINE
  8
_1-2_
  6
DASHED1
 62
    7
 10
3337.0603224007181
 20
927.8279193681368
 11
3337.0603224007181
 21
923.82791936813669
  0
LINE
  8
_1-2_
  6
DASHED1
 62
    7
 10
3336.6603224007176
 20
927.32791936813669
 11
3336.6603224007176
 21
927.8279193681368
  0
LINE
  8
_1-2_
  6
DASHED1
 62
    7
 10
3335.8603224007179
 20
929.92791936813659
 11
3335.8603224007179
 21
921.32791936813669
  0
LINE
  8
_1-2_
  6
DASHED1
 62
    7
 10
3336.6603224007176
 20
927.32791936813669
 11
3335.8603224007179
 21
927.32791936813669
  0
LINE
  8
_1-2_
  6
DASHED1
 62
    7
 10
3336.6603224007176
 20
924.32791936813657
 11
3335.8603224007179
 21
924.32791936813657
  0
LINE
  8
_1-2_
  6
DASHED1
 62
    7
 10
3345.8603224007179
 20
923.82791936813669
 11
3337.0603224007181
 21
923.82791936813669
  0
LINE
  8
_1-2_
  6
DASHED1
 62
    7
 10
3345.8603224007179
 20
921.32791936813669
 11
3345.8603224007179
 21
923.82791936813669
  0
LINE
  8
_1-2_
  6
DASHED1
 62
    7
 10
3337.0603224007181
 20
923.82791936813669
 11
3336.6603224007176
 21
923.82791936813669
  0
LINE
  8
_1-2_
  6
DASHED1
 62
    7
 10
3345.8603224007179
 20
927.8279193681368
 11
3336.6603224007176
 21
927.8279193681368
  0
LINE
  8
_1-2_
  6
DASHED1
 62
    7
 10
3336.6603224007176
 20
923.82791936813669
 11
3336.6603224007176
 21
924.32791936813657
  0
LINE
  8
_1-2_
  6
DASHED1
 62
    7
 10
3345.8603224007179
 20
928.76156936813663
 11
3335.8603224007179
 21
928.76156936813663
  0
LINE
  8
_1-2_
  6
DASHED1
 62
    7
 10
3336.6603224007176
 20
927.8279193681368
 11
3335.8603224007179
 21
927.8279193681368
  0
LINE
  8
_1-2_
  6
DASHED1
 62
    7
 10
3335.8603224007179
 20
930.82791936813669
 11
3335.8603224007179
 21
929.92791936813659
  0
LINE
  8
_1-2_
  6
DASHED1
 62
    7
 10
3345.8603224007179
 20
923.82791936813669
 11
3345.8603224007179
 21
930.82791936813669
  0
LINE
  8
_1-2_
  6
DASHED1
 62
    7
 10
3345.3603224007179
 20
951.32791936813669
 11
3336.3603224007183
 21
951.32791936813669
  0
LINE
  8
_1-2_
  6
DASHED1
 62
    7
 10
3336.3603224007183
 20
920.82791936813669
 11
3345.3603224007179
 21
920.82791936813669
  0
LINE
  8
_1-2_
  6
DASHED1
 62
    7
 10
3347.3377224007181
 20
925.82791936813669
 11
3334.2638974007186
 21
925.82791936813669
  0
LINE
  8
_1-2_
  6
DASHED1
 62
    7
 10
3335.8603224007179
 20
950.82791936813669
 11
3335.8603224007179
 21
930.82791936813669
  0
ARC
  8
_1-2_
  6
DASHED1
 62
    7
 10
3346.3603224007183
 20
928.72791936813655
 40
0.5
 50
179.99999999999991
 51
269.99999999999994
  0
ARC
  8
_1-2_
  6
DASHED1
 62
    7
 10
3346.3603224007183
 20
922.92791936813671
 40
0.5
 50
89.999999999999971
 51
180
  0
ARC
  8
_1-2_
  6
DASHED1
 62
    7
 10
3344.5603224007181
 20
923.32791936813669
 40
0.5
 50
359.99999999999994
 51
89.999999999999943
  0
ARC
  8
_1-2_
  6
DASHED1
 62
    7
 10
3344.5603224007181
 20
928.32791936813669
 40
0.5
 50
269.99999999999988
 51
359.99999999999988
  0
ARC
  8
_1-2_
  6
DASHED1
 62
    7
 10
3354.3603224007174
 20
927.72791936813655
 40
0.5
 50
359.99999999999994
 51
89.999999999999943
  0
ARC
  8
_1-2_
  6
DASHED1
 62
    7
 10
3354.3603224007174
 20
923.92791936813659
 40
0.5
 50
269.99999999999988
 51
359.99999999999988
  0
ARC
  8
_1-2_
  6
DASHED1
 62
    7
 10
3345.4603224007178
 20
922.22791936813678
 40
0.4
 50
179.99999999999991
 51
269.99999999999994
  0
ARC
  8
_1-2_
  6
DASHED1
 62
    7
 10
3345.4603224007178
 20
922.22791936813678
 40
0.4
 50
269.99999999999988
 51
359.99999999999988
  0
ARC
  8
_1-2_
  6
DASHED1
 62
    7
 10
3345.4603224007178
 20
929.42791936813682
 40
0.4
 50
359.99999999999994
 51
89.999999999999943
  0
ARC
  8
_1-2_
  6
DASHED1
 62
    7
 10
3345.4603224007178
 20
929.42791936813682
 40
0.4
 50
89.999999999999971
 51
180
  0
ARC
  8
_1-2_
  6
DASHED1
 62
    7
 10
3345.3603224007179
 20
950.82791936813669
 40
0.5
 50
359.99999999999994
 51
89.999999999999943
  0
ARC
  8
_1-2_
  6
DASHED1
 62
    7
 10
3336.3603224007183
 20
950.82791936813669
 40
0.5
 50
89.999999999999971
 51
180
  0
ARC
  8
_1-2_
  6
DASHED1
 62
    7
 10
3336.3603224007183
 20
921.32791936813669
 40
0.5
 50
179.99999999999991
 51
269.99999999999994
  0
ARC
  8
_1-2_
  6
DASHED1
 62
    7
 10
3345.3603224007179
 20
921.32791936813669
 40
0.5
 50
269.99999999999988
 51
359.99999999999988
  0
LINE
  8
_1-2_
  6
DASHED1
 62
    7
 10
3345.8603224007179
 20
930.82791936813669
 11
3345.8603224007179
 21
950.82791936813669
  0
TEXT
  8
_0-d_ラッチ平面__扉側
 62
    7
 10
3175.7945269928245
 20
2314.6087789720363
 40
35
 41
0.8571428571428568
 50
0
  1
両面化粧パ－ティクルボ－ド　１２ｔ　耐震ラッチ付
  0
TEXT
  8
_0-d_ラッチ平面__扉側
 62
    7
 10
3861.672784280392
 20
2022.1087789720363
 40
35
 41
0.8571428571428568
 50
0
  1
扉　色
  0
TEXT
  8
_0-d_ラッチ平面__扉側
 62
    7
 10
3716.763944086128
 20
1954.6087789720363
 40
35
 41
0.8571428571428568
 50
0
  1
ＳＷ
  0
TEXT
  8
_0-d_ラッチ平面__扉側
 62
    7
 10
3831.2938444935521
 20
1954.6087789720363
 40
35
 41
0.8571428571428568
 50
0
  1
ホワイト
  0
TEXT
  8
_0-d_ラッチ平面__扉側
 62
    7
 10
3721.7553994958152
 20
1895.1981057878165
 40
35
 41
0.8571428571428568
 50
0
  1
ＬＧ
  0
TEXT
  8
_0-d_ラッチ平面__扉側
 62
    7
 10
3831.3928383985876
 20
1895.1981057878165
 40
35
 41
0.8571428571428568
 50
0
  1
木　　目
  0
TEXT
  8
_0-d_ラッチ平面__扉側
 62
    7
 10
3716.763944086128
 20
1829.6087789720359
 40
35
 41
0.8571428571428568
 50
0
  1
ＵＷ
  0
TEXT
  8
_0-d_ラッチ平面__扉側
 62
    7
 10
3831.2938444935516
 20
1829.6087789720359
 40
35
 41
0.8571428571428568
 50
0
  1
ｳﾙﾄﾗﾎﾜｲﾄ（艶有）
  0
TEXT
  8
_0-d_ラッチ平面__扉側
 62
    7
 10
3721.7553994958152
 20
1770.1981057878163
 40
35
 41
0.8571428571428568
 50
0
  1
ＷＮ
  0
TEXT
  8
_0-d_ラッチ平面__扉側
 62
    7
 10
3831.2938444935521
 20
1769.6087789720359
 40
35
 41
0.8571428571428568
 50
0
  1
ｳｨﾝｻﾞｰﾅｯﾄ（艶有）
  0
LINE
  8
_0-d_ラッチ平面__扉側
  6
CONTINUOUS
 62
    3
 10
4116.0517240672306
 20
2072.1087789720363
 11
4116.0517240672306
 21
1577.1087789720354
  0
LINE
  8
_0-d_ラッチ平面__扉側
  6
CONTINUOUS
 62
    7
 10
3801.2938444935525
 20
2002.1087789720363
 11
3801.2938444935525
 21
1882.1087789720359
  0
TEXT
  8
_0-d_ラッチ平面__扉側
 62
    7
 10
3721.7553994958152
 20
1710.1981057878163
 40
35
 41
0.8571428571428568
 50
0
  1
ＢＳ
  0
TEXT
  8
_0-d_ラッチ平面__扉側
 62
    7
 10
3831.3928383985871
 20
1710.1981057878163
 40
35
 41
0.8571428571428568
 50
0
  1
ブラックストーン
  0
LINE
  8
_0-d_ラッチ平面__扉側
  6
CONTINUOUS
 62
    3
 10
3701.2938444935525
 20
2072.1087789720363
 11
3701.2938444935525
 21
1577.1087789720354
  0
LINE
  8
_0-d_ラッチ平面__扉側
  6
CONTINUOUS
 62
    7
 10
3801.2938444935525
 20
1877.1087789720359
 11
3801.2938444935525
 21
1577.1087789720354
  0
TEXT
  8
_0-d_ラッチ平面__扉側
 62
    7
 10
3721.7553994958152
 20
1650.198105787816
 40
35
 41
0.8571428571428568
 50
0
  1
ＰＭ
  0
TEXT
  8
_0-d_ラッチ平面__扉側
 62
    7
 10
3831.392838398588
 20
1650.198105787816
 40
35
 41
0.8571428571428568
 50
0
  1
ペールグレイン
  0
TEXT
  8
_0-d_ラッチ平面__扉側
 62
    7
 10
3721.7553994958152
 20
1590.198105787816
 40
35
 41
0.8571428571428568
 50
0
  1
ＭＤ
  0
TEXT
  8
_0-d_ラッチ平面__扉側
 62
    7
 10
3831.392838398588
 20
1590.198105787816
 40
35
 41
0.8571428571428568
 50
0
  1
ダークグレイン
  0
LINE
  8
_0-d_ラッチ平面__扉側
  6
CONTINUOUS
 62
    3
 10
4116.0517240672306
 20
2072.1087789720363
 11
3701.2938444935525
 21
2072.1087789720363
  0
LINE
  8
_0-d_ラッチ平面__扉側
  6
CONTINUOUS
 62
    3
 10
4116.0517240672306
 20
1577.1087789720354
 11
3701.2938444935525
 21
1577.1087789720354
  0
LINE
  8
_0-d_ラッチ平面__扉側
  6
CONTINUOUS
 62
    7
 10
3701.2938444935525
 20
1942.1087789720363
 11
4116.0517240672306
 21
1942.1087789720363
  0
LINE
  8
_0-d_ラッチ平面__扉側
  6
CONTINUOUS
 62
    7
 10
4116.0517240672306
 20
1942.1087789720363
 11
3701.2938444935525
 21
1942.1087789720363
  0
LINE
  8
_0-d_ラッチ平面__扉側
  6
CONTINUOUS
 62
    3
 10
4116.0517240672306
 20
1942.1087789720363
 11
3701.2938444935525
 21
1942.1087789720363
  0
LINE
  8
_0-d_ラッチ平面__扉側
  6
CONTINUOUS
 62
    3
 10
4116.0517240672306
 20
1882.1087789720359
 11
3701.2938444935525
 21
1882.1087789720359
  0
LINE
  8
_0-d_ラッチ平面__扉側
  6
CONTINUOUS
 62
    7
 10
4116.0517240672306
 20
1817.1087789720359
 11
3701.2938444935525
 21
1817.1087789720359
  0
LINE
  8
_0-d_ラッチ平面__扉側
  6
CONTINUOUS
 62
    3
 10
4116.0517240672306
 20
1817.1087789720359
 11
3701.2938444935525
 21
1817.1087789720359
  0
LINE
  8
_0-d_ラッチ平面__扉側
  6
CONTINUOUS
 62
    3
 10
4116.0517240672306
 20
1757.1087789720359
 11
3701.2938444935525
 21
1757.1087789720359
  0
LINE
  8
_0-d_ラッチ平面__扉側
  6
CONTINUOUS
 62
    7
 10
3701.2938444935525
 20
1817.1087789720359
 11
4116.0517240672306
 21
1817.1087789720359
  0
LINE
  8
_0-d_ラッチ平面__扉側
  6
CONTINUOUS
 62
    7
 10
4116.0517240672306
 20
1882.1087789720359
 11
3701.2938444935525
 21
1882.1087789720359
  0
LINE
  8
_0-d_ラッチ平面__扉側
  6
CONTINUOUS
 62
    7
 10
4116.0517240672306
 20
1877.1087789720359
 11
3701.2938444935525
 21
1877.1087789720359
  0
LINE
  8
_0-d_ラッチ平面__扉側
  6
CONTINUOUS
 62
    7
 10
4116.0517240672306
 20
1757.1087789720359
 11
3701.2938444935525
 21
1757.1087789720359
  0
LINE
  8
_0-d_ラッチ平面__扉側
  6
CONTINUOUS
 62
    3
 10
4116.0517240672306
 20
1757.1087789720359
 11
3701.2938444935525
 21
1757.1087789720359
  0
LINE
  8
_0-d_ラッチ平面__扉側
  6
CONTINUOUS
 62
    3
 10
4116.0517240672306
 20
1697.1087789720356
 11
3701.2938444935525
 21
1697.1087789720356
  0
LINE
  8
_0-d_ラッチ平面__扉側
  6
CONTINUOUS
 62
    7
 10
3701.2938444935525
 20
1757.1087789720359
 11
4116.0517240672306
 21
1757.1087789720359
  0
LINE
  8
_0-d_ラッチ平面__扉側
  6
CONTINUOUS
 62
    7
 10
4116.0517240672306
 20
1697.1087789720356
 11
3701.2938444935525
 21
1697.1087789720356
  0
LINE
  8
_0-d_ラッチ平面__扉側
  6
CONTINUOUS
 62
    3
 10
4116.0517240672306
 20
1697.1087789720356
 11
3701.2938444935525
 21
1697.1087789720356
  0
LINE
  8
_0-d_ラッチ平面__扉側
  6
CONTINUOUS
 62
    3
 10
4116.0517240672306
 20
1637.1087789720356
 11
3701.2938444935525
 21
1637.1087789720356
  0
LINE
  8
_0-d_ラッチ平面__扉側
  6
CONTINUOUS
 62
    7
 10
3701.2938444935525
 20
1697.1087789720356
 11
4116.0517240672306
 21
1697.1087789720356
  0
LINE
  8
_0-d_ラッチ平面__扉側
  6
CONTINUOUS
 62
    7
 10
4116.0517240672306
 20
1637.1087789720356
 11
3701.2938444935525
 21
1637.1087789720356
  0
LINE
  8
_0-d_ラッチ平面__扉側
  6
CONTINUOUS
 62
    3
 10
4116.0517240672306
 20
1637.1087789720356
 11
3701.2938444935525
 21
1637.1087789720356
  0
LINE
  8
_0-d_ラッチ平面__扉側
  6
CONTINUOUS
 62
    7
 10
3701.2938444935525
 20
1637.1087789720356
 11
4116.0517240672306
 21
1637.1087789720356
  0
LINE
  8
_0-d_ラッチ平面__扉側
  6
CONTINUOUS
 62
    7
 10
4116.0517240672306
 20
2002.1087789720363
 11
3701.2938444935525
 21
2002.1087789720363
  0
LINE
  8
_0-d_ラッチ平面__扉側
  6
CONTINUOUS
 62
    7
 10
4116.0517240672306
 20
2007.1087789720363
 11
3701.2938444935525
 21
2007.1087789720363
  0
LINE
  8
_e-0_
  6
CONTINUOUS
 62
    7
 10
2235.8366640958884
 20
183.94486665957714
 11
2264.9846622966547
 21
194.55387039310096
  0
LINE
  8
_e-0_
  6
CONTINUOUS
 62
    7
 10
2229.6843953320885
 20
176.38473509396874
 11
2279.6036842974681
 21
194.55387039310011
  0
LINE
  8
_e-0_
  6
CONTINUOUS
 62
    7
 10
2226.2574714057891
 20
169.81654792732371
 11
2255.9150768319382
 21
180.61103352205378
  0
LINE
  8
_e-0_
  6
CONTINUOUS
 62
    7
 10
2224.2626908639713
 20
163.76961832382903
 11
2246.0093920977324
 21
171.68477026639777
  0
LINE
  8
_e-0_
  6
CONTINUOUS
 62
    7
 10
2223.253185238545
 20
158.08129946246992
 11
2241.5081926224484
 21
164.72557877652036
  0
LINE
  8
_e-0_
  6
CONTINUOUS
 62
    7
 10
2223.0156427143556
 20
152.67395219190916
 11
2241.4255440656406
 21
159.37460829955426
  0
LINE
  8
_e-0_
  6
CONTINUOUS
 62
    7
 10
2223.4344835706642
 20
147.50550893412082
 11
2241.8793979036299
 21
154.21890872491019
  0
LINE
  8
_e-0_
  6
CONTINUOUS
 62
    7
 10
2224.4457407209774
 20
142.55268757364603
 11
2243.3203026450692
 21
149.42246629882959
  0
LINE
  8
_e-0_
  6
CONTINUOUS
 62
    7
 10
2226.0182888832982
 20
137.80415943430114
 11
2245.7132505946715
 21
144.97253926225369
  0
LINE
  8
_e-0_
  6
CONTINUOUS
 62
    7
 10
2228.1462640287199
 20
133.25779018411338
 11
2249.1506443149041
 21
140.90275939749233
  0
LINE
  8
_e-0_
  6
CONTINUOUS
 62
    7
 10
2230.8477427532316
 20
128.92015916595937
 11
2253.9308498295386
 21
137.32172305611442
  0
LINE
  8
_e-0_
  6
CONTINUOUS
 62
    7
 10
2234.1689215693718
 20
124.80808053533024
 11
2260.9975727253272
 21
134.57291098160936
  0
LINE
  8
_e-0_
  6
CONTINUOUS
 62
    7
 10
2238.1963030092374
 20
120.95303863909776
 11
2276.6158743796222
 21
134.93661903118379
  0
LINE
  8
_e-0_
  6
CONTINUOUS
 62
    7
 10
2243.0858385970814
 20
117.41179519008085
 11
2271.2352160844511
 21
127.65733070860676
  0
LINE
  8
_e-0_
  6
CONTINUOUS
 62
    7
 10
2271.6356660451692
 20
186.33286006079629
 11
2294.2227062982819
 21
194.55387039310181
  0
LINE
  8
_e-0_
  6
CONTINUOUS
 62
    7
 10
2252.6131881355313
 20
174.08835545732216
 11
2305.1018637432653
 21
193.19267101459161
  0
LINE
  8
_e-0_
  6
CONTINUOUS
 62
    7
 10
2265.1203526762756
 20
173.3197022028429
 11
2305.1018637432653
 21
187.87178215221217
  0
LINE
  8
_e-0_
  6
CONTINUOUS
 62
    7
 10
2279.7393746770908
 20
173.3197022028429
 11
2305.1018637432653
 21
182.55089328983274
  0
LINE
  8
_e-0_
  6
CONTINUOUS
 62
    7
 10
2283.9258801693504
 20
169.52257672523785
 11
2305.1018637432653
 21
177.2300044274533
  0
LINE
  8
_e-0_
  6
CONTINUOUS
 62
    7
 10
2283.9258801693504
 20
164.20168786285842
 11
2305.1018637432653
 21
171.9091155650733
  0
LINE
  8
_e-0_
  6
CONTINUOUS
 62
    7
 10
2283.9258801693504
 20
158.88079900047898
 11
2305.1018637432653
 21
166.58822670269387
  0
LINE
  8
_e-0_
  6
CONTINUOUS
 62
    7
 10
2283.9258801693504
 20
153.55991013809955
 11
2305.1018637432653
 21
161.26733784031443
  0
LINE
  8
_e-0_
  6
CONTINUOUS
 62
    7
 10
2283.8515813964468
 20
148.21197873394055
 11
2305.1018637432653
 21
155.946448977935
  0
LINE
  8
_e-0_
  6
CONTINUOUS
 62
    7
 10
2282.7047247631385
 20
142.47366819406579
 11
2305.1018637432653
 21
150.62556011555528
  0
LINE
  8
_e-0_
  6
CONTINUOUS
 62
    7
 10
2280.4457301125839
 20
136.33057251951811
 11
2305.1018637432653
 21
145.30467125317585
  0
LINE
  8
_e-0_
  6
CONTINUOUS
 62
    7
 10
2276.4511200095648
 20
129.55576448214031
 11
2303.9116004635197
 21
139.55056198602875
  0
LINE
  8
_e-0_
  6
CONTINUOUS
 62
    7
 10
2267.7970807133169
 20
121.0850629097564
 11
2301.0895051181669
 21
133.20251441967968
  0
LINE
  8
_e-0_
  6
CONTINUOUS
 62
    7
 10
2259.0298539746227
 20
112.57316447742937
 11
2296.2211119089834
 21
126.10967534045357
  0
LINE
  8
_e-0_
  6
CONTINUOUS
 62
    7
 10
2274.1883752837684
 20
112.76952616706864
 11
2284.7751922141192
 21
116.62281240534184
  0
LINE
  8
_e-0_
  6
CONTINUOUS
 62
    3
 10
2258.4972011002919
 20
181.99134005275396
 11
2254.375207286127
 21
179.18201849977236
  0
LINE
  8
_e-0_
  6
CONTINUOUS
 62
    3
 10
2274.4375760187454
 20
112.57316447742766
 11
2258.971134866972
 21
112.57316447742766
  0
ARC
  8
_e-0_
  6
CONTINUOUS
 62
    3
 10
2274.4375760187454
 20
117.57316447742766
 40
5
 50
270
 51
286.20399351045659
  0
LINE
  8
_e-0_
  6
CONTINUOUS
 62
    3
 10
2305.279594668063
 20
194.55387039310011
 11
2305.279594668063
 21
144.19867916164037
  0
ARC
  8
_e-0_
  6
CONTINUOUS
 62
    3
 10
2263.9728996034464
 20
153.58344839081951
 40
42.5
 50
286.20399351045648
 51
345.50707147989851
  0
ARC
  8
_e-0_
  6
CONTINUOUS
 62
    3
 10
2300.279594668063
 20
144.19867916164037
 40
5
 50
345.50707147989879
 51
0.0000000000000159
  0
ARC
  8
_e-0_
  6
CONTINUOUS
 62
    3
 10
2242.1434725645221
 20
154.92082031886695
 40
40
 50
279.71265316664215
 51
332.69093929010892
  0
ARC
  8
_e-0_
  6
CONTINUOUS
 62
    3
 10
2248.0482195817735
 20
120.42250206040307
 40
5
 50
241.9452628118
 51
279.71265316664221
  0
ARC
  8
_e-0_
  6
CONTINUOUS
 62
    3
 10
2255.3150461234199
 20
189.55387039310011
 40
5
 50
90
 51
106.05338143786268
  0
LINE
  8
_e-0_
  6
CONTINUOUS
 62
    3
 10
2280.4842327420237
 20
194.55387039309982
 11
2270.268932781993
 21
189.66588876819173
  0
LINE
  8
_e-0_
  6
CONTINUOUS
 62
    3
 10
2270.268932781993
 20
189.66588876819173
 11
2264.3501921643833
 21
185.86970164581146
  0
LINE
  8
_e-0_
  6
CONTINUOUS
 62
    3
 10
2258.4972011002919
 20
181.99134005275368
 11
2264.3501921643833
 21
185.86970164581146
  0
ARC
  8
_e-0_
  6
CONTINUOUS
 62
    3
 10
2255.3150461234199
 20
189.55387039310011
 40
5
 50
90
 51
106.05338143786268
  0
ARC
  8
_e-0_
  6
CONTINUOUS
 62
    3
 10
2255.3150461234199
 20
189.55387039310011
 40
5
 50
90
 51
106.05338143786268
  0
LINE
  8
_e-0_
  6
CONTINUOUS
 62
    3
 10
2280.4842327420237
 20
194.55387039310011
 11
2255.3150461234199
 21
194.55387039310011
  0
ARC
  8
_e-0_
  6
CONTINUOUS
 62
    3
 10
2265.6850271033658
 20
153.5162026761742
 40
42.5
 50
106.05338143786271
 51
241.94526281180051
  0
ARC
  8
_e-0_
  6
CONTINUOUS
 62
    3
 10
2255.3150461234199
 20
189.55387039310011
 40
5
 50
90
 51
106.05338143786268
  0
LINE
  8
_e-0_
  6
CONTINUOUS
 62
    3
 10
2291.2227167726573
 20
194.55387039310011
 11
2305.279594668063
 21
194.55387039310011
  0
ARC
  8
_e-0_
  6
CONTINUOUS
 62
    3
 10
2291.2227167726573
 20
189.55387039310011
 40
5
 50
90
 51
112.84552721528325
  0
LINE
  8
_e-0_
  6
CONTINUOUS
 62
    3
 10
2284.1036110941486
 20
173.31970220284119
 11
2261.0680884297689
 21
173.31970220284119
  0
ARC
  8
_e-0_
  6
CONTINUOUS
 62
    3
 10
2261.0680884297689
 20
168.31970220284119
 40
5
 50
90
 51
110.93110431809542
  0
ARC
  8
_e-0_
  6
CONTINUOUS
 62
    3
 10
2246.280000107059
 20
162.1290763781451
 40
0.5
 50
165.368776721252
 51
224.67319701305797
  0
LINE
  8
_e-0_
  6
CONTINUOUS
 62
    3
 10
2245.9244358848645
 20
161.77754532134485
 11
2245.7344921007288
 21
161.96966835730563
  0
ARC
  8
_e-0_
  6
CONTINUOUS
 62
    3
 10
2268.2129904475896
 20
149.63948873629476
 40
25
 50
110.93110431809527
 51
150.17701829297226
  0
ARC
  8
_e-0_
  6
CONTINUOUS
 62
    3
 10
2246.0900563229238
 20
162.32119941410587
 40
0.5
 50
224.67319701305652
 51
330.17701829297561
  0
LINE
  8
_e-0_
  6
CONTINUOUS
 62
    3
 10
2289.2814768910575
 20
194.16164509702042
 11
2275.5741279425565
 21
188.38678539583099
  0
LINE
  8
_e-0_
  6
CONTINUOUS
 62
    3
 10
2275.5741279425565
 20
188.38678539583099
 11
2269.1652622122451
 21
184.88657977403136
  0
ARC
  8
_e-0_
  6
CONTINUOUS
 62
    3
 10
2269.9855058223765
 20
155.94045789086862
 40
25
 50
126.05682261028302
 51
165.36877672125814
  0
ARC
  8
_e-0_
  6
CONTINUOUS
 62
    3
 10
2314.0795261788807
 20
95.540573190998543
 40
100
 50
116.68868989749238
 51
126.03335467187628
  0
LINE
  8
_e-0_
  6
CONTINUOUS
 62
    3
 10
2254.375207286127
 20
179.18201849977265
 11
2246.4067752679411
 21
171.92707079532567
  0
LINE
  8
_e-0_
  6
CONTINUOUS
 62
    3
 10
2246.4067752679411
 20
171.92707079532567
 11
2244.5616298314562
 21
169.7938494987261
  0
ARC
  8
_e-0_
  6
CONTINUOUS
 62
    3
 10
2266.6001168011466
 20
158.97724261098005
 40
25
 50
169.07329675873063
 51
296.32138326661799
  0
LINE
  8
_e-0_
  6
CONTINUOUS
 62
    3
 10
2244.5616298314557
 20
169.7938494987261
 11
2242.0533548929147
 21
163.71606945109476
  0
LINE
  8
_e-0_
  6
CONTINUOUS
 62
    3
 10
2284.1036110941486
 20
173.31970220284119
 11
2284.1036110941486
 21
148.84947071428769
  0
ARC
  8
_e-0_
  6
CONTINUOUS
 62
    3
 10
2269.3348263498528
 20
128.55612168904315
 40
5
 50
311.4163090429962
 51
326.13300916724881
  0
ARC
  8
_e-0_
  6
CONTINUOUS
 62
    3
 10
2244.3366749153346
 20
153.16117420016951
 40
40
 50
316.78132524618342
 51
353.81191653224226
  0
ARC
  8
_e-0_
  6
CONTINUOUS
 62
    3
 10
2232.9509318238069
 20
169.80187564163315
 40
60
 50
294.69555798319504
 51
311.41630904299643
  0
ARC
  8
_e-0_
  6
CONTINUOUS
 62
    3
 10
2263.9775491586719
 20
187.40588336388725
 40
75
 50
264.68313230529076
 51
266.17253517307824
  0
ARC
  8
_e-0_
  6
CONTINUOUS
 62
    3
 10
2257.0741018984176
 20
113.22642248740947
 40
0.5
 50
174.02086603460466
 51
264.68313230528985
  0
ARC
  8
_e-0_
  6
CONTINUOUS
 62
    3
 10
2259.0632216918124
 20
113.01808994668988
 40
2.5
 50
114.69555798319522
 51
174.02086603461154
  0
LINE
  8
_e-0_
  6
CONTINUOUS
 62
    7
 10
2368.9407257363964
 20
153.8555320965915
 11
2380.3126248015978
 21
157.9945648634046
  0
LINE
  8
_e-0_
  6
CONTINUOUS
 62
    3
 10
2428.3092572732289
 20
147.05833678116505
 11
2428.3092572732289
 21
120.91539808426659
  0
CIRCLE
  8
_e-0_
  6
CONTINUOUS
 62
    3
 10
2357.5674768778403
 20
146.88814634727634
 40
13.33773795583065
  0
CIRCLE
  8
_e-0_
  6
CONTINUOUS
 62
    3
 10
2357.2837594304651
 20
146.60442889990122
 40
25.691707563897665
  0
LINE
  8
_e-0_
  6
CONTINUOUS
 62
    3
 10
2391.5446955520596
 20
172.68771567712093
 11
2391.5446955520596
 21
120.91539808426659
  0
LINE
  8
_e-0_
  6
CONTINUOUS
 62
    3
 10
2391.5446955520596
 20
120.91539808426659
 11
2406.9076645804707
 21
120.91539808426659
  0
LINE
  8
_e-0_
  6
CONTINUOUS
 62
    3
 10
2406.9076645804707
 20
120.91539808426659
 11
2406.9076645804707
 21
157.05833678116505
  0
LINE
  8
_e-0_
  6
CONTINUOUS
 62
    3
 10
2443.2282098557325
 20
120.91539808426659
 11
2428.3092572732289
 21
120.91539808426659
  0
LINE
  8
_e-0_
  6
CONTINUOUS
 62
    3
 10
2418.3092572732289
 20
157.05833678116505
 11
2406.9076645804707
 21
157.05833678116505
  0
ARC
  8
_e-0_
  6
CONTINUOUS
 62
    3
 10
2418.3092572732289
 20
147.05833678116505
 40
10
 50
0
 51
90
  0
LINE
  8
_e-0_
  6
CONTINUOUS
 62
    3
 10
2418.2282098557325
 20
172.68771567712093
 11
2391.5446955520596
 21
172.68771567712093
  0
LINE
  8
_e-0_
  6
CONTINUOUS
 62
    3
 10
2443.2282098557325
 20
147.68771567712093
 11
2443.2282098557325
 21
120.91539808426659
  0
ARC
  8
_e-0_
  6
CONTINUOUS
 62
    3
 10
2418.2282098557325
 20
147.68771567712093
 40
25
 50
0
 51
90
  0
ARC
  8
_e-0_
  6
CONTINUOUS
 62
    3
 10
2478.295994444325
 20
146.60174948003543
 40
13.33773795583065
 50
23.422555400004949
 51
97.191484740792631
  0
LINE
  8
_e-0_
  6
CONTINUOUS
 62
    3
 10
2466.0573099578646
 20
151.90362233962787
 11
2490.5346789307855
 21
151.90362233962787
  0
ARC
  8
_e-0_
  6
CONTINUOUS
 62
    3
 10
2478.295994444325
 20
146.60174948003543
 40
13.33773795583065
 50
92.530763017635237
 51
156.57744459999506
  0
ARC
  8
_e-0_
  6
CONTINUOUS
 62
    3
 10
2478.295994444325
 20
146.60174948003543
 40
13.33773795583065
 50
204.21097500392608
 51
316.0067678116265
  0
LINE
  8
_e-0_
  6
CONTINUOUS
 62
    3
 10
2466.1314228627888
 20
141.13197324913869
 11
2503.5708091830401
 21
141.13197324913869
  0
LINE
  8
_e-0_
  6
CONTINUOUS
 62
    3
 10
2487.8914545430643
 20
137.33771152286408
 11
2500.7599750366907
 21
134.21464658261612
  0
ARC
  8
_e-0_
  6
CONTINUOUS
 62
    3
 10
2478.6163205945872
 20
147.24240178055936
 40
25.691707563897665
 50
346.24110979921471
 51
329.53046432565093
  0
ARC
  8
_e-0_
  6
CONTINUOUS
 62
    3
 10
2538.5642928691422
 20
146.56831030951025
 40
11.089756641867943
 50
94.502189492040685
 51
357.22978420280037
  0
LINE
  8
_e-0_
  6
CONTINUOUS
 62
    3
 10
2548.6410899779489
 20
157.6238476750268
 11
2537.6937781159522
 21
157.6238476750268
  0
LINE
  8
_e-0_
  6
CONTINUOUS
 62
    3
 10
2549.6410899779489
 20
156.62384767502715
 11
2549.6410899779489
 21
146.03233625585858
  0
ARC
  8
_e-0_
  6
CONTINUOUS
 62
    3
 10
2548.6410899779489
 20
156.62384767502715
 40
1
 50
0
 51
90
  0
LINE
  8
_e-0_
  6
CONTINUOUS
 62
    3
 10
2541.0210795623534
 20
172.7157992833321
 11
2549.4438113726191
 21
172.7157992833321
  0
ARC
  8
_e-0_
  6
CONTINUOUS
 62
    3
 10
2539.017019488006
 20
147.10237349201634
 40
25.691707563897665
 50
85.526146014136969
 51
347.40557840019874
  0
LINE
  8
_e-0_
  6
CONTINUOUS
 62
    3
 10
2549.4438113726191
 20
193.55387039310016
 11
2549.4438113726191
 21
172.7157992833321
  0
ARC
  8
_e-0_
  6
CONTINUOUS
 62
    3
 10
2550.4438113726191
 20
193.55387039310016
 40
1
 50
90
 51
180
  0
LINE
  8
_e-0_
  6
CONTINUOUS
 62
    3
 10
2564.0905330831633
 20
193.55387039310016
 11
2564.0905330831633
 21
141.50034229411204
  0
LINE
  8
_e-0_
  6
CONTINUOUS
 62
    3
 10
2563.0905330831637
 20
194.55387039310011
 11
2550.4438113726191
 21
194.55387039310011
  0
ARC
  8
_e-0_
  6
CONTINUOUS
 62
    3
 10
2563.0905330831637
 20
193.55387039310016
 40
1
 50
0
 51
90
  0
CIRCLE
  8
_e-0_
  6
CONTINUOUS
 62
    3
 10
2599.5440184063854
 20
147.043799567397
 40
13.33773795583065
  0
CIRCLE
  8
_e-0_
  6
CONTINUOUS
 62
    3
 10
2599.2603009590102
 20
146.76008212002216
 40
25.691707563897665
  0
ARC
  8
_e-0_
  6
CONTINUOUS
 62
    3
 10
2353.3563784056705
 20
167.9863014610953
 40
5
 50
90
 51
106.05338143786268
  0
ARC
  8
_e-0_
  6
CONTINUOUS
 62
    3
 10
2353.3563784056705
 20
167.9863014610953
 40
5
 50
90
 51
106.05338143786268
  0
ARC
  8
_e-0_
  6
CONTINUOUS
 62
    3
 10
2353.3563784056705
 20
167.9863014610953
 40
5
 50
90
 51
106.05338143786268
  0
ARC
  8
_e-0_
  6
CONTINUOUS
 62
    3
 10
2353.3563784056705
 20
167.9863014610953
 40
5
 50
90
 51
106.05338143786268
  0
LINE
  8
_e-0_
  6
CONTINUOUS
 62
    7
 10
2338.3978142599034
 20
164.02237690083893
 11
2360.5551916202571
 21
172.08700272941143
  0
LINE
  8
_e-0_
  6
CONTINUOUS
 62
    7
 10
2353.2922401344162
 20
164.1226157132661
 11
2368.5713183881321
 21
169.68374540464282
  0
LINE
  8
_e-0_
  6
CONTINUOUS
 62
    7
 10
2333.8018889252853
 20
157.02870801774821
 11
2353.2922401344162
 21
164.1226157132661
  0
LINE
  8
_e-0_
  6
CONTINUOUS
 62
    7
 10
2331.9785744704108
 20
151.04418696608718
 11
2349.2864007501184
 21
157.343720551751
  0
LINE
  8
_e-0_
  6
CONTINUOUS
 62
    7
 10
2331.612090482029
 20
145.58990884060165
 11
2344.6864605819832
 21
150.34859038876504
  0
LINE
  8
_e-0_
  6
CONTINUOUS
 62
    7
 10
2332.3211868115895
 20
140.52710993540927
 11
2344.3765135579678
 21
144.91489003544415
  0
LINE
  8
_e-0_
  6
CONTINUOUS
 62
    7
 10
2333.971216176696
 20
135.8067826475937
 11
2346.0301909803711
 21
140.19589053189747
  0
LINE
  8
_e-0_
  6
CONTINUOUS
 62
    7
 10
2336.5548628009087
 20
131.42626425228996
 11
2349.6156774979731
 21
136.18001203728795
  0
LINE
  8
_e-0_
  6
CONTINUOUS
 62
    7
 10
2340.1868985942028
 20
127.42732830845881
 11
2357.0387292924815
 21
133.56089307552565
  0
LINE
  8
_e-0_
  6
CONTINUOUS
 62
    7
 10
2345.2008630322079
 20
123.93137325718271
 11
2367.3042092217142
 21
131.97633334784399
  0
LINE
  8
_e-0_
  6
CONTINUOUS
 62
    7
 10
2352.6724918069285
 20
121.32993487028784
 11
2367.3578368417856
 21
126.6749633429049
  0
LINE
  8
_e-0_
  6
CONTINUOUS
 62
    7
 10
2367.3578368417856
 20
126.6749633429049
 11
2377.0623269725419
 21
130.20710888923048
  0
LINE
  8
_e-0_
  6
CONTINUOUS
 62
    7
 10
2366.4508876466361
 20
131.66574969425852
 11
2381.1137543140057
 21
137.00259671019495
  0
LINE
  8
_e-0_
  6
CONTINUOUS
 62
    7
 10
2366.5391143016527
 20
137.01875043293284
 11
2382.7075173187545
 21
142.90356786677762
  0
LINE
  8
_e-0_
  6
CONTINUOUS
 62
    7
 10
2370.5419646629043
 20
143.79655767902988
 11
2382.9193516787918
 21
148.3015581308058
  0
LINE
  8
_e-0_
  6
CONTINUOUS
 62
    7
 10
2370.7072497472495
 20
149.17760539227913
 11
2382.0827968697476
 21
153.31796594336083
  0
LINE
  8
_e-0_
  6
CONTINUOUS
 62
    7
 10
2357.1904356777322
 20
160.22055399600276
 11
2373.8148342762628
 21
166.2713402484448
  0
LINE
  8
_e-0_
  6
CONTINUOUS
 62
    7
 10
2365.2105772791237
 20
157.81875795113023
 11
2377.6015196979014
 21
162.32869216607127
  0
LINE
  8
_e-0_
  6
CONTINUOUS
 62
    7
 10
2391.5446955520596
 20
167.40359314812394
 11
2406.0627028821104
 21
172.68771567712093
  0
LINE
  8
_e-0_
  6
CONTINUOUS
 62
    7
 10
2391.5446955520596
 20
162.08270428574451
 11
2420.4177781140142
 21
172.59164690980639
  0
LINE
  8
_e-0_
  6
CONTINUOUS
 62
    7
 10
2391.5446955520596
 20
156.76181542336507
 11
2428.825043624869
 21
170.3307524449508
  0
LINE
  8
_e-0_
  6
CONTINUOUS
 62
    7
 10
2391.5446955520596
 20
151.44092656098564
 11
2434.1617370349076
 21
166.95226113322974
  0
LINE
  8
_e-0_
  6
CONTINUOUS
 62
    7
 10
2391.5446955520596
 20
146.12003769860621
 11
2406.9076645804707
 21
151.7117011349012
  0
LINE
  8
_e-0_
  6
CONTINUOUS
 62
    7
 10
2420.759742105426
 20
156.75344503673244
 11
2437.9751424470605
 21
163.01933833206305
  0
LINE
  8
_e-0_
  6
CONTINUOUS
 62
    7
 10
2391.5446955520596
 20
140.79914883622677
 11
2406.9076645804707
 21
146.39081227252177
  0
LINE
  8
_e-0_
  6
CONTINUOUS
 62
    7
 10
2395.3906273502475
 20
120.91539808426659
 11
2406.9076645804707
 21
125.10725682300346
  0
LINE
  8
_e-0_
  6
CONTINUOUS
 62
    7
 10
2391.5446955520596
 20
124.8364822490879
 11
2406.9076645804707
 21
130.42814568538318
  0
LINE
  8
_e-0_
  6
CONTINUOUS
 62
    7
 10
2391.5446955520596
 20
130.15737111146762
 11
2406.9076645804707
 21
135.74903454776261
  0
LINE
  8
_e-0_
  6
CONTINUOUS
 62
    7
 10
2391.5446955520596
 20
135.47825997384705
 11
2406.9076645804707
 21
141.06992341014233
  0
LINE
  8
_e-0_
  6
CONTINUOUS
 62
    7
 10
2428.3092572732289
 20
143.53857725381516
 11
2443.2282098557325
 21
148.96863192027495
  0
LINE
  8
_e-0_
  6
CONTINUOUS
 62
    7
 10
2428.3092572732289
 20
138.21768839143601
 11
2443.2282098557325
 21
143.6477430578958
  0
LINE
  8
_e-0_
  6
CONTINUOUS
 62
    7
 10
2428.1557813921931
 20
148.80360546382007
 11
2442.4194517644268
 21
153.99515691069751
  0
LINE
  8
_e-0_
  6
CONTINUOUS
 62
    7
 10
2428.3092572732289
 20
132.89679952905657
 11
2443.2282098557325
 21
138.32685419551637
  0
LINE
  8
_e-0_
  6
CONTINUOUS
 62
    7
 10
2428.3092572732289
 20
127.57591066667686
 11
2443.2282098557325
 21
133.00596533313665
  0
LINE
  8
_e-0_
  6
CONTINUOUS
 62
    7
 10
2428.3092572732289
 20
122.25502180429714
 11
2443.2282098557325
 21
127.68507647075722
  0
LINE
  8
_e-0_
  6
CONTINUOUS
 62
    7
 10
2439.247693352695
 20
120.91539808426659
 11
2443.2282098557325
 21
122.3641876083775
  0
LINE
  8
_e-0_
  6
CONTINUOUS
 62
    7
 10
2426.0696362324174
 20
153.36519958368285
 11
2440.6804200699466
 21
158.68308999984094
  0
LINE
  8
_e-0_
  6
CONTINUOUS
 62
    7
 10
2461.2391180831359
 20
166.16584413190906
 11
2479.7642757393732
 21
172.9084501038676
  0
LINE
  8
_e-0_
  6
CONTINUOUS
 62
    7
 10
2455.6823727205842
 20
158.8224653581642
 11
2488.7412225351813
 21
170.85490266975369
  0
LINE
  8
_e-0_
  6
CONTINUOUS
 62
    7
 10
2453.5136329133938
 20
152.71221976009883
 11
2494.3301637756285
 21
167.56822205995973
  0
LINE
  8
_e-0_
  6
CONTINUOUS
 62
    7
 10
2453.5499758138648
 20
147.40455863171803
 11
2466.0402009988042
 21
151.95062881831773
  0
LINE
  8
_e-0_
  6
CONTINUOUS
 62
    7
 10
2484.2015654578563
 20
158.5608248950723
 11
2498.33930178449
 21
163.70654009787131
  0
LINE
  8
_e-0_
  6
CONTINUOUS
 62
    7
 10
2488.743461686327
 20
154.89305106698225
 11
2501.229225702727
 21
159.43749752102377
  0
LINE
  8
_e-0_
  6
CONTINUOUS
 62
    7
 10
2455.2600765304937
 20
142.70609552778864
 11
2480.5300737608513
 21
151.90362233962787
  0
LINE
  8
_e-0_
  6
CONTINUOUS
 62
    7
 10
2454.9396132864276
 20
137.26856758339266
 11
2503.1647877023642
 21
154.82109561308902
  0
LINE
  8
_e-0_
  6
CONTINUOUS
 62
    7
 10
2457.3510255582341
 20
132.82536101049515
 11
2468.979076889896
 21
137.05762557773937
  0
LINE
  8
_e-0_
  6
CONTINUOUS
 62
    7
 10
2480.1732551160739
 20
141.13197324913869
 11
2504.1735768638141
 21
149.86737597812748
  0
LINE
  8
_e-0_
  6
CONTINUOUS
 62
    7
 10
2494.7922771168896
 20
141.13197324913869
 11
2504.1658959394976
 21
144.54369148792522
  0
LINE
  8
_e-0_
  6
CONTINUOUS
 62
    7
 10
2460.7789079158069
 20
128.75211929283807
 11
2474.6057479243422
 21
133.78467748990601
  0
LINE
  8
_e-0_
  6
CONTINUOUS
 62
    7
 10
2465.5015919032312
 20
125.15014682772687
 11
2494.5480952820462
 21
135.72220946712775
  0
LINE
  8
_e-0_
  6
CONTINUOUS
 62
    7
 10
2472.3576833866291
 20
122.32467118870999
 11
2499.4275233351891
 21
132.17728717633548
  0
LINE
  8
_e-0_
  6
CONTINUOUS
 62
    7
 10
2544.6739029189734
 20
122.04117824124523
 11
2550.7926211614717
 21
124.26820955337575
  0
LINE
  8
_e-0_
  6
CONTINUOUS
 62
    7
 10
2531.4520014282843
 20
122.54968852061381
 11
2560.5943212189044
 21
133.15662548186594
  0
LINE
  8
_e-0_
  6
CONTINUOUS
 62
    7
 10
2525.0484139172749
 20
125.53986213646737
 11
2563.5777072966575
 21
139.56337807387171
  0
LINE
  8
_e-0_
  6
CONTINUOUS
 62
    7
 10
2514.1325981815766
 20
153.49216330021562
 11
2564.0905330831633
 21
171.67536456980116
  0
LINE
  8
_e-0_
  6
CONTINUOUS
 62
    7
 10
2516.6404168063627
 20
159.72582349495553
 11
2564.0905330831633
 21
176.99625343218059
  0
LINE
  8
_e-0_
  6
CONTINUOUS
 62
    7
 10
2549.4438113726191
 20
192.94883814948036
 11
2553.8536012194617
 21
194.55387039310011
  0
LINE
  8
_e-0_
  6
CONTINUOUS
 62
    7
 10
2549.4438113726191
 20
187.62794928710093
 11
2564.0905330831633
 21
192.95892001931918
  0
LINE
  8
_e-0_
  6
CONTINUOUS
 62
    7
 10
2549.4438113726191
 20
182.30706042472121
 11
2564.0905330831633
 21
187.63803115693974
  0
LINE
  8
_e-0_
  6
CONTINUOUS
 62
    7
 10
2549.4438113726191
 20
176.98617156234149
 11
2564.0905330831633
 21
182.31714229456031
  0
LINE
  8
_e-0_
  6
CONTINUOUS
 62
    7
 10
2523.4107658070579
 20
167.51091786918209
 11
2537.8537439408219
 21
172.76773200402942
  0
LINE
  8
_e-0_
  6
CONTINUOUS
 62
    7
 10
2540.1033297065005
 20
157.6238476750268
 11
2564.0905330831633
 21
166.35447570742172
  0
LINE
  8
_e-0_
  6
CONTINUOUS
 62
    7
 10
2513.3371361174354
 20
147.88174992400058
 11
2530.4259422685104
 21
154.10156670213723
  0
LINE
  8
_e-0_
  6
CONTINUOUS
 62
    7
 10
2513.7061446004349
 20
142.6951691656248
 11
2527.5354029593377
 21
147.72860757024204
  0
LINE
  8
_e-0_
  6
CONTINUOUS
 62
    7
 10
2515.0447452877542
 20
137.86149110899771
 11
2528.1911856253786
 21
142.64640407844922
  0
LINE
  8
_e-0_
  6
CONTINUOUS
 62
    7
 10
2517.3070774056068
 20
133.36402379754076
 11
2531.0862222029413
 21
138.37922235741473
  0
LINE
  8
_e-0_
  6
CONTINUOUS
 62
    7
 10
2520.5624650595818
 20
129.22799914220604
 11
2537.8068709000103
 21
135.50444957572807
  0
LINE
  8
_e-0_
  6
CONTINUOUS
 62
    7
 10
2546.2562243546644
 20
138.57976273201643
 11
2564.0905330831633
 21
145.0709202579037
  0
LINE
  8
_e-0_
  6
CONTINUOUS
 62
    7
 10
2549.5566716184766
 20
145.10191615818882
 11
2564.0905330831633
 21
150.39180912028314
  0
LINE
  8
_e-0_
  6
CONTINUOUS
 62
    7
 10
2549.6410899779489
 20
150.4535307906417
 11
2564.0905330831633
 21
155.71269798266257
  0
LINE
  8
_e-0_
  6
CONTINUOUS
 62
    7
 10
2549.6410899779489
 20
155.77441965302114
 11
2564.0905330831633
 21
161.033586845042
  0
LINE
  8
_e-0_
  6
CONTINUOUS
 62
    7
 10
2587.1974966456623
 20
169.44383378606516
 11
2593.9201106595442
 21
171.8906651835789
  0
LINE
  8
_e-0_
  6
CONTINUOUS
 62
    7
 10
2577.6443798702302
 20
160.64589477295925
 11
2606.8934288682321
 21
171.29167798882519
  0
LINE
  8
_e-0_
  6
CONTINUOUS
 62
    7
 10
2600.5688513241625
 20
121.1017202570602
 11
2614.7507703136088
 21
126.26351663399304
  0
LINE
  8
_e-0_
  6
CONTINUOUS
 62
    7
 10
2590.2952099751182
 20
122.68330947086099
 11
2621.6042102293968
 21
134.07885362805103
  0
LINE
  8
_e-0_
  6
CONTINUOUS
 62
    7
 10
2574.6838259529545
 20
154.24745240775138
 11
2613.2741842187642
 21
168.2931941461743
  0
LINE
  8
_e-0_
  6
CONTINUOUS
 62
    7
 10
2584.3475524073419
 20
125.8394280149622
 11
2624.1316663639163
 21
140.31966129180915
  0
LINE
  8
_e-0_
  6
CONTINUOUS
 62
    7
 10
2580.1202834180858
 20
129.62171679301548
 11
2594.2968457670781
 21
134.78156351226772
  0
LINE
  8
_e-0_
  6
CONTINUOUS
 62
    7
 10
2577.060163208755
 20
133.82881298592224
 11
2589.4416673383839
 21
138.33531194455133
  0
LINE
  8
_e-0_
  6
CONTINUOUS
 62
    7
 10
2574.9705638104942
 20
138.38914986579482
 11
2586.9202518331721
 21
142.73848061481658
  0
LINE
  8
_e-0_
  6
CONTINUOUS
 62
    7
 10
2573.8046086959921
 20
143.2856657720049
 11
2586.2281608356038
 21
147.80746895467757
  0
LINE
  8
_e-0_
  6
CONTINUOUS
 62
    7
 10
2573.6305462928121
 20
148.54320110072194
 11
2588.0360729418825
 21
153.78638400991206
  0
LINE
  8
_e-0_
  6
CONTINUOUS
 62
    7
 10
2604.0255663442703
 20
159.60608366937663
 11
2617.7476653121634
 21
164.60051924534468
  0
LINE
  8
_e-0_
  6
CONTINUOUS
 62
    7
 10
2609.2536798838054
 20
156.18807251675207
 11
2620.9938043422398
 21
160.46112836620267
  0
LINE
  8
_e-0_
  6
CONTINUOUS
 62
    7
 10
2611.9817903194934
 20
151.86013464875372
 11
2623.2480506609945
 21
155.9607180645537
  0
LINE
  8
_e-0_
  6
CONTINUOUS
 62
    7
 10
2612.880576247539
 20
146.8663771111602
 11
2624.5786526959909
 21
151.12412873656694
  0
LINE
  8
_e-0_
  6
CONTINUOUS
 62
    7
 10
2611.4455992521011
 20
141.02319933558476
 11
2624.9387339199165
 21
145.93429872161465
  0
TEXT
  8
_e-0_
 62
    7
 10
2634.9094164018197
 20
164.98768243046669
 40
35
 41
0.5714285714285711
 50
0
  1
ワンド
  0
TEXT
  8
_e-0_
 62
    7
 10
2641.755243841706
 20
131.44312797502095
 40
30
 41
0.6666666666666666
 50
0
  1
株式
  0
TEXT
  8
_e-0_
 62
    7
 10
2641.0706610977176
 20
103.37523547148492
 40
30
 41
0.6666666666666666
 50
0
  1
会社
  0
POINT
  8
_0-9_ラッチ断面__受け
 62
    3
 10
3845.8603224007174
 20
1046.3279193681364
  0
POINT
  8
_0-9_ラッチ断面__受け
 62
    3
 10
3925.8603224007174
 20
1226.3279193681369
  0
POINT
  8
_0-9_ラッチ断面__受け
 62
    3
 10
3925.8603224007174
 20
626.32791936813646
  0
POINT
  8
_0-9_ラッチ断面__受け
 62
    3
 10
3845.8603224007174
 20
986.32791936813646
  0
POINT
  8
_0-9_ラッチ断面__受け
 62
    3
 10
3845.8603224007174
 20
926.32791936813646
  0
POINT
  8
_0-9_ラッチ断面__受け
 62
    3
 10
3845.8603224007174
 20
866.32791936813646
  0
POINT
  8
_0-9_ラッチ断面__受け
 62
    3
 10
2714.554142071056
 20
1226.3279193681364
  0
POINT
  8
_0-9_ラッチ断面__受け
 62
    3
 10
2714.554142071056
 20
626.32791936813646
  0
POINT
  8
_0-9_ラッチ断面__受け
 62
    3
 10
2664.554142071056
 20
626.32791936813646
  0
POINT
  8
_0-9_ラッチ断面__受け
 62
    3
 10
2664.554142071056
 20
611.32791936813669
  0
TEXT
  8
_0-9_ラッチ断面__受け
 62
    7
 10
2659.3488795835219
 20
561.57382299683126
 40
35
 41
0.6285714285714286
 50
90
  1
１５
  0
LINE
  8
_0-9_ラッチ断面__受け
  6
CONTINUOUS
 62
    4
 10
2664.554142071056
 20
611.32791936813669
 11
2664.554142071056
 21
564.6327636939792
  0
LINE
  8
_0-9_ラッチ断面__受け
  6
CONTINUOUS
 62
    4
 10
2724.554142071056
 20
1226.3279193681364
 11
2555.0541420710551
 21
1226.3279193681364
  0
POINT
  8
_0-9_ラッチ断面__受け
 62
    3
 10
2714.554142071056
 20
2545.7744603287765
  0
POINT
  8
_0-9_ラッチ断面__受け
 62
    3
 10
2714.554142071056
 20
2187.7744603287765
  0
LINE
  8
_f-0_
  6
CONTINUOUS
 62
    7
 10
622.05073382680154
 20
104.42521185597115
 11
622.05073382680154
 21
204.42521185597115
  0
LINE
  8
_f-0_
  6
CONTINUOUS
 62
    7
 10
162.05073382680211
 20
104.42521185597115
 11
602.05073382680154
 21
104.42521185597115
  0
LINE
  8
_f-0_
  6
CONTINUOUS
 62
    7
 10
162.05073382680211
 20
204.42521185597115
 11
602.05073382680154
 21
204.42521185597115
  0
LINE
  8
_f-0_
  6
CONTINUOUS
 62
    7
 10
1412.0507338268016
 20
104.42521185597115
 11
1412.0507338268016
 21
204.42521185597115
  0
LINE
  8
_f-0_
  6
CONTINUOUS
 62
    7
 10
2202.0507338268016
 20
104.42521185597115
 11
2202.0507338268016
 21
204.42521185597115
  0
LINE
  8
_f-0_
  6
CONTINUOUS
 62
    7
 10
2212.0507338268016
 20
104.42521185597115
 11
2212.0507338268016
 21
204.42521185597115
  0
LINE
  8
_f-0_
  6
CONTINUOUS
 62
    7
 10
622.05073382680154
 20
104.42521185597115
 11
2202.0507338268016
 21
104.42521185597115
  0
LINE
  8
_f-0_
  6
CONTINUOUS
 62
    7
 10
622.05073382680154
 20
204.42521185597115
 11
2202.0507338268016
 21
204.42521185597115
  0
LINE
  8
_f-0_
  6
CONTINUOUS
 62
    7
 10
2702.0507338268021
 20
104.42521185597115
 11
2702.0507338268021
 21
204.42521185597115
  0
LINE
  8
_f-0_
  6
CONTINUOUS
 62
    7
 10
2712.0507338268021
 20
104.42521185597115
 11
2712.0507338268021
 21
204.42521185597115
  0
LINE
  8
_f-0_
  6
CONTINUOUS
 62
    7
 10
2212.0507338268016
 20
104.42521185597115
 11
2702.0507338268021
 21
104.42521185597115
  0
LINE
  8
_f-0_
  6
CONTINUOUS
 62
    7
 10
2212.0507338268016
 20
204.42521185597115
 11
2702.0507338268021
 21
204.42521185597115
  0
LINE
  8
_f-0_
  6
CONTINUOUS
 62
    7
 10
3012.0507338268021
 20
104.42521185597115
 11
3012.0507338268021
 21
204.42521185597115
  0
LINE
  8
_f-0_
  6
CONTINUOUS
 62
    7
 10
3312.0507338268021
 20
104.42521185597115
 11
3312.0507338268021
 21
204.42521185597115
  0
LINE
  8
_f-0_
  6
CONTINUOUS
 62
    7
 10
3692.0507338268021
 20
104.42521185597115
 11
3692.0507338268021
 21
204.42521185597115
  0
LINE
  8
_f-0_
  6
CONTINUOUS
 62
    7
 10
2712.0507338268021
 20
104.42521185597115
 11
4102.0507338268025
 21
104.42521185597115
  0
LINE
  8
_f-0_
  6
CONTINUOUS
 62
    7
 10
4102.0507338268025
 20
104.42521185597115
 11
4102.0507338268025
 21
204.42521185597115
  0
LINE
  8
_f-0_
  6
CONTINUOUS
 62
    7
 10
2712.0507338268021
 20
204.42521185597115
 11
4102.0507338268025
 21
204.42521185597115
  0
LINE
  8
_f-0_
  6
CONTINUOUS
 62
    7
 10
162.05073382680211
 20
154.42521185597115
 11
602.05073382680154
 21
154.42521185597115
  0
TEXT
  8
_f-0_
 62
    7
 10
647.05073382680041
 20
171.92521185597115
 40
25
 41
0.8
 50
0
  1
名　称
  0
TEXT
  8
_f-0_
 62
    7
 10
1437.0507338268025
 20
171.92521185597115
 40
25
 41
0.8
 50
0
  1
図面名称
  0
TEXT
  8
_f-0_
 62
    7
 10
2737.0507338268016
 20
171.92521185597115
 40
25
 41
0.64
 50
0
  1
ＳＣＡＬＥ
  0
TEXT
  8
_f-0_
 62
    7
 10
3037.0507338268021
 20
171.92521185597115
 40
25
 41
0.64
 50
0
  1
ＤＡＴＡ
  0
TEXT
  8
_f-0_
 62
    7
 10
3717.0507338268021
 20
171.92521185597115
 40
25
 41
0.64
 50
0
  1
ＳＨＥＥＴ　ＮＯ．
  0
TEXT
  8
_f-0_
 62
    7
 10
3554.0507338268025
 20
171.92521185597115
 40
25
 41
0.64
 50
0
  1
ＤＲＡＷＩＮＧ
  0
TEXT
  8
_f-0_
 62
    7
 10
3337.0507338268021
 20
171.92521185597115
 40
25
 41
0.64
 50
0
  1
ＣＨＥＣＫＥＤ
  0
TEXT
  8
_f-0_
 62
    7
 10
2824.007169387964
 20
125.15256180468327
 40
35
 41
0.5714285714285711
 50
0
  1
１／１０
  0
TEXT
  8
_f-0_
 62
    7
 10
662.20548509828915
 20
118.49412814033001
 40
45
 41
0.8
 50
0
  1
隅吊り戸棚　高さ６０ｃｍタイプ
  0
TEXT
  8
_f-0_
 62
    7
 10
1581.8297872340426
 20
121.92521185597115
 40
45
 41
0.6666666666666666
 50
0
  1
ＫＴＤ３－６０－９０ＨＣ
  0
TEXT
  8
_f-0_
 62
    7
 10
3037.0507338268021
 20
126.92521185597115
 40
35
 41
0.5714285714285711
 50
0
  1
２０２３．０５．０１
  0
TEXT
  8
_f-0_
 62
    7
 10
3576.4219828465684
 20
129.42521185597115
 40
30
 41
0.7333333333333329
 50
0
  1
Ｔ．Ｋ
  0
ENDSEC
  0
EOF
