  0
SECTION
  2
HEADER
  9
$ACADVER
  1
AC1009
  9
$INSBASE
 10
0
 20
0
 30
0
  9
$EXTMIN
 10
0
 20
0
  9
$EXTMAX
 10
4200
 20
2970
  9
$LIMMIN
 10
0
 20
0
  9
$LIMMAX
 10
4200
 20
2970
  9
$LTSCALE
 40
10
  0
ENDSEC
  0
SECTION
  2
TABLES
  0
TABLE
  2
LTYPE
 70
     9
  0
LTYPE
  2
CONTINUOUS
 70
    64
  3
実線
 72
    65
 73
     0
 40
0.0
  0
LTYPE
  2
DASHED1
 70
    64
  3
--  --  --  --  --  --  --  --  
 72
    65
 73
     2
 40
2.5
 49
1.25
 49
-1.25
  0
LTYPE
  2
DASHED2
 70
    64
  3
----    ----    ----    ----    
 72
    65
 73
     2
 40
5.0
 49
2.5
 49
-2.5
  0
LTYPE
  2
DASHED3
 70
    64
  3
------  ------  ------  ------  
 72
    65
 73
     2
 40
5.0
 49
3.75
 49
-1.25
  0
LTYPE
  2
CENTER1
 70
    64
  3
----- - ----- - ----- - ----- - 
 72
    65
 73
     4
 40
10.0
 49
6.25
 49
-1.25
 49
1.25
 49
-1.25
  0
LTYPE
  2
CENTER2
 70
    64
  3
----------  --  ----------  --  
 72
    65
 73
     4
 40
20.0
 49
12.5
 49
-2.5
 49
2.5
 49
-2.5
  0
LTYPE
  2
PHANTOM1
 70
    64
  3
--- - - --- - - --- - - --- - - 
 72
    65
 73
     6
 40
10.0
 49
3.25
 49
-1.25
 49
1.25
 49
-1.25
 49
1.25
 49
-1.25
  0
LTYPE
  2
PHANTOM2
 70
    64
  3
--------  -  -  --------  -  -  
 72
    65
 73
     6
 40
20.0
 49
10.0
 49
-2.5
 49
1.25
 49
-2.5
 49
1.25
 49
-2.5
  0
LTYPE
  2
DOT
 70
    64
  3
-   -   -   -   -   -   -   -   
 72
    65
 73
     2
 40
2.5
 49
0.625
 49
-1.875
  0
LTYPE
  2
DUMMY
 70
    64
  3
ダミー
 72
    65
 73
     0
 40
0.0
  0
LTYPE
  2
RAND1
 70
    64
  3
ランダム線1
 72
    65
 73
     4
 40
10.0
 49
1.0
 49
-2.0
 49
3.0
 49
-4.0
  0
LTYPE
  2
RAND2
 70
    64
  3
ランダム線2
 72
    65
 73
     4
 40
14.0
 49
2.0
 49
-3.0
 49
4.0
 49
-5.0
  0
LTYPE
  2
RAND3
 70
    64
  3
ランダム線3
 72
    65
 73
     4
 40
18.0
 49
3.0
 49
-4.0
 49
5.0
 49
-6.0
  0
LTYPE
  2
RAND4
 70
    64
  3
ランダム線4
 72
    65
 73
     4
 40
22.0
 49
4.0
 49
-5.0
 49
6.0
 49
-7.0
  0
LTYPE
  2
RAND5
 70
    64
  3
ランダム線5
 72
    65
 73
     4
 40
26.0
 49
5.0
 49
-6.0
 49
7.0
 49
-8.0
  0
LTYPE
  2
LONG1
 70
    64
  3
----------  --  ----------  --  
 72
    65
 73
     4
 40
40.0
 49
32.5
 49
-2.5
 49
2.5
 49
-2.5
  0
LTYPE
  2
LONG2
 70
    64
  3
--------  -  -  --------  -  -  
 72
    65
 73
     6
 40
40.0
 49
30.0
 49
-2.5
 49
1.25
 49
-2.5
 49
1.25
 49
-2.5
  0
LTYPE
  2
LONG3
 70
    64
  3
+++++++++++++++..+++++++++++++++
 72
    65
 73
     2
 40
40.0
 49
37.5
 49
-2.5
  0
LTYPE
  2
LONG4
 70
    64
  3
+++++++++++++++..+++++++++++++++
 72
    65
 73
     2
 40
80.0
 49
75.0
 49
-5.0
  0
LTYPE
  2
LONG5
 70
    64
  3
----------  --  ----------  --  
 72
    65
 73
     4
 40
60.0
 49
37.5
 49
-7.5
 49
7.5
 49
-7.5
  0
LTYPE
  2
dashed
 70
   64
  3
-------   -------------   ------
 72
   65
 73
    2
 40
7.5
 49
6
 49
-1.5
  0
LTYPE
  2
dashed_spaced
 70
   64
  3
----        --------        ----
 72
   65
 73
    2
 40
12
 49
6
 49
-6
  0
LTYPE
  2
long_dashed_dotted
 70
   64
  3
------------- --- --------------
 72
   65
 73
    4
 40
15.25
 49
12
 49
-1.5
 49
0.25
 49
-1.5
  0
LTYPE
  2
long_dashed_double-dotted
 70
   64
  3
----------- --- --- ------------
 72
   65
 73
    6
 40
17
 49
12
 49
-1.5
 49
0.25
 49
-1.5
 49
0.25
 49
-1.5
  0
LTYPE
  2
long_dashed_triplicate-dotted
 70
   64
  3
--------- --- --- --- ----------
 72
   65
 73
    8
 40
18.75
 49
12
 49
-1.5
 49
0.25
 49
-1.5
 49
0.25
 49
-1.5
 49
0.25
 49
-1.5
  0
LTYPE
  2
dotted
 70
   64
  3
   -       -       -       -    
 72
   65
 73
    2
 40
1.75
 49
0.25
 49
-1.5
  0
LTYPE
  2
chain
 70
   64
  3
-------------- -- --------------
 72
   65
 73
    4
 40
18.5
 49
12
 49
-1.5
 49
3.5
 49
-1.5
  0
LTYPE
  2
chain_double_dash
 70
   64
  3
------------ -- -- -------------
 72
   65
 73
    6
 40
23.5
 49
12
 49
-1.5
 49
3.5
 49
-1.5
 49
3.5
 49
-1.5
  0
LTYPE
  2
dashed_dotted
 70
   64
  3
-----------     -     ----------
 72
   65
 73
    4
 40
9.25
 49
6
 49
-1.5
 49
0.25
 49
-1.5
  0
LTYPE
  2
double-dashed_dotted
 70
   64
  3
------   -----------   -   -----
 72
   65
 73
    6
 40
16.75
 49
6
 49
-1.5
 49
6
 49
-1.5
 49
0.25
 49
-1.5
  0
LTYPE
  2
dashed_double-dotted
 70
   64
  3
---------    -    -    ---------
 72
   65
 73
    6
 40
11
 49
6
 49
-1.5
 49
0.25
 49
-1.5
 49
0.25
 49
-1.5
  0
LTYPE
  2
double-dashed_double-dotted
 70
   64
  3
-----   ---------   -   -   ----
 72
   65
 73
    8
 40
18.5
 49
6
 49
-1.5
 49
6
 49
-1.5
 49
0.25
 49
-1.5
 49
0.25
 49
-1.5
  0
LTYPE
  2
dashed_triplicate-dotted
 70
   64
  3
-------    -    -    -    ------
 72
   65
 73
    8
 40
12.75
 49
6
 49
-1.5
 49
0.25
 49
-1.5
 49
0.25
 49
-1.5
 49
0.25
 49
-1.5
  0
LTYPE
  2
double-dashed_triplicate-dotted
 70
   64
  3
-----  ---------  -  -  -  -----
 72
   65
 73
   10
 40
20.25
 49
6
 49
-1.5
 49
6
 49
-1.5
 49
0.25
 49
-1.5
 49
0.25
 49
-1.5
 49
0.25
 49
-1.5
  0
LTYPE
  2
undefined
 70
   64
  3
--------------------------------
 72
   65
 73
    0
 40
0
  0
LTYPE
  2
_
 70
   64
  3
                                
 72
   65
 73
    0
 40
0
  0
LTYPE
  2
__18
 70
   64
  3
                                
 72
   65
 73
    0
 40
0
  0
LTYPE
  2
__19
 70
   64
  3
                                
 72
   65
 73
    0
 40
0
  0
LTYPE
  2
__20
 70
   64
  3
                                
 72
   65
 73
    0
 40
0
  0
LTYPE
  2
__21
 70
   64
  3
                                
 72
   65
 73
    0
 40
0
  0
LTYPE
  2
__22
 70
   64
  3
                                
 72
   65
 73
    0
 40
0
  0
LTYPE
  2
__23
 70
   64
  3
                                
 72
   65
 73
    0
 40
0
  0
LTYPE
  2
__24
 70
   64
  3
                                
 72
   65
 73
    0
 40
0
  0
LTYPE
  2
__25
 70
   64
  3
                                
 72
   65
 73
    0
 40
0
  0
LTYPE
  2
__26
 70
   64
  3
                                
 72
   65
 73
    0
 40
0
  0
LTYPE
  2
__27
 70
   64
  3
                                
 72
   65
 73
    0
 40
0
  0
LTYPE
  2
__28
 70
   64
  3
                                
 72
   65
 73
    0
 40
0
  0
LTYPE
  2
__29
 70
   64
  3
                                
 72
   65
 73
    0
 40
0
  0
LTYPE
  2
__30
 70
   64
  3
                                
 72
   65
 73
    0
 40
0
  0
LTYPE
  2
__31
 70
   64
  3
                                
 72
   65
 73
    0
 40
0
  0
LTYPE
  2
__32
 70
   64
  3
                                
 72
   65
 73
    0
 40
0
  0
ENDTAB
  0
TABLE
  2
STYLE
  5
3
100
AcDbSymbolTable
 70
     1
  0
STYLE
  5
10
100
AcDbSymbolTableRecord
100
AcDbTextStyleTableRecord
  2
STANDARD
 70
     0
 40
0.0
 41
1.0
 50
0.0
 71
     0
 42
0.2
  3
txt
  4
bigfont.shx
  0
STYLE
  5
26
100
AcDbSymbolTableRecord
100
AcDbTextStyleTableRecord
  2
TATEGAKI
 70
    68
 40
0.0
 41
1.0
 50
0.0
 71
     0
 42
1.0
  3
txt
  4
bigfont.shx
  0
ENDTAB
  0
TABLE
  2
LAYER
 70
   15
  0
LAYER
  2
_0-0_立面本体
 70
   64
 62
    7
  6
CONTINUOUS
  0
LAYER
  2
_0-3_断面__扉
 70
   64
 62
    7
  6
CONTINUOUS
  0
LAYER
  2
_0-4_背面本体
 70
   64
 62
    7
  6
CONTINUOUS
  0
LAYER
  2
_0-5_平面本体
 70
   64
 62
    7
  6
CONTINUOUS
  0
LAYER
  2
_0-6_平面扉
 70
   64
 62
    7
  6
CONTINUOUS
  0
LAYER
  2
_0-8_ラッチ立面__受け
 70
   64
 62
    7
  6
CONTINUOUS
  0
LAYER
  2
_0-9_ラッチ断面__受け
 70
   64
 62
    7
  6
CONTINUOUS
  0
LAYER
  2
_0-a_ラッチ平面受け
 70
   64
 62
    7
  6
CONTINUOUS
  0
LAYER
  2
_0-b_ラッチ断面__扉側
 70
   64
 62
    7
  6
CONTINUOUS
  0
LAYER
  2
_0-d_ラッチ平面__扉側
 70
   64
 62
    7
  6
CONTINUOUS
  0
LAYER
  2
_e-0_
 70
   64
 62
    7
  6
CONTINUOUS
  0
LAYER
  2
_f-8_
 70
   64
 62
    7
  6
CONTINUOUS
  0
LAYER
  2
_f-a__0-7_寸法
 70
   64
 62
    7
  6
CONTINUOUS
  0
LAYER
  2
_f-b__0-1_立面__扉
 70
   64
 62
    7
  6
CONTINUOUS
  0
LAYER
  2
ADD_LINE
 70
   64
 62
    7
  6
CONTINUOUS
  0
ENDTAB
  0
ENDSEC
  0
SECTION
  2
BLOCKS
  0
ENDSEC
  0
SECTION
  2
ENTITIES
  0
LINE
  8
_0-6_平面扉
  6
DASHED1
 62
    7
 10
486.82476271240204
 20
2234.7744603287769
 11
486.82476271240204
 21
2523.7744603287769
  0
LINE
  8
_0-9_ラッチ断面__受け
  6
CONTINUOUS
 62
    4
 10
1572.8247627124028
 20
2545.7744603287765
 11
1402.8247627124028
 21
2545.7744603287765
  0
LINE
  8
_0-3_断面__扉
  6
CONTINUOUS
 62
    4
 10
472.82476271240284
 20
2545.7744603287765
 11
472.82476271240284
 21
2204.2744603287765
  0
LINE
  8
_0-3_断面__扉
  6
CONTINUOUS
 62
    4
 10
484.82476271240244
 20
2545.7744603287765
 11
484.82476271240244
 21
2204.2744603287765
  0
LINE
  8
_0-3_断面__扉
  6
CONTINUOUS
 62
    4
 10
472.82476271240284
 20
1345.241051339829
 11
472.82476271240284
 21
745.2410513398288
  0
LINE
  8
_0-3_断面__扉
  6
DASHED1
 62
    2
 10
484.82476271240244
 20
1345.241051339829
 11
484.82476271240244
 21
745.2410513398288
  0
LINE
  8
_0-3_断面__扉
  6
CONTINUOUS
 62
    4
 10
472.82476271240284
 20
745.2410513398288
 11
478.32476271240295
 21
745.2410513398288
  0
LINE
  8
_0-3_断面__扉
  6
CONTINUOUS
 62
    5
 10
2804.8913935730729
 20
1345.2410513398294
 11
2804.8913935730729
 21
745.24105133982914
  0
LINE
  8
_0-3_断面__扉
  6
CONTINUOUS
 62
    5
 10
2816.8913935730729
 20
1345.2410513398294
 11
2816.8913935730729
 21
745.24105133982914
  0
LINE
  8
_0-3_断面__扉
  6
CONTINUOUS
 62
    4
 10
1372.8247627124028
 20
2204.2744603287765
 11
1372.8247627124028
 21
2545.7744603287765
  0
LINE
  8
_0-3_断面__扉
  6
CONTINUOUS
 62
    4
 10
1360.8247627124028
 20
2204.2744603287765
 11
1360.8247627124028
 21
2545.7744603287765
  0
LINE
  8
_0-3_断面__扉
  6
CONTINUOUS
 62
    4
 10
1372.8247627124026
 20
745.2410513398288
 11
1372.8247627124026
 21
1345.241051339829
  0
LINE
  8
_0-3_断面__扉
  6
DASHED1
 62
    2
 10
1360.8247627124028
 20
745.2410513398288
 11
1360.8247627124028
 21
1345.241051339829
  0
LINE
  8
_0-3_断面__扉
  6
CONTINUOUS
 62
    4
 10
1367.8247627124023
 20
745.2410513398288
 11
1372.8247627124026
 21
745.2410513398288
  0
LINE
  8
_0-3_断面__扉
  6
CONTINUOUS
 62
    4
 10
472.82476271240284
 20
2545.7744603287765
 11
1372.8247627124028
 21
2545.7744603287765
  0
LINE
  8
_0-3_断面__扉
  6
CONTINUOUS
 62
    4
 10
472.82476271240284
 20
2204.2744603287765
 11
1372.8247627124028
 21
2204.2744603287765
  0
LINE
  8
_0-3_断面__扉
  6
CONTINUOUS
 62
    4
 10
1372.8247627124026
 20
1345.241051339829
 11
472.82476271240284
 21
1345.241051339829
  0
LINE
  8
_0-3_断面__扉
  6
DASHED1
 62
    2
 10
1360.8247627124028
 20
1330.7410513398292
 11
484.82476271240244
 21
1330.7410513398292
  0
LINE
  8
_0-3_断面__扉
  6
DASHED1
 62
    2
 10
484.82476271240244
 20
760.2410513398288
 11
1360.8247627124028
 21
760.2410513398288
  0
LINE
  8
_0-3_断面__扉
  6
DASHED1
 62
    2
 10
478.32476271240295
 20
745.2410513398288
 11
1367.8247627124023
 21
745.2410513398288
  0
LINE
  8
_0-3_断面__扉
  6
CONTINUOUS
 62
    5
 10
3692.8913935730724
 20
1345.2410513398294
 11
3692.8913935730724
 21
745.24105133982914
  0
LINE
  8
_0-3_断面__扉
  6
CONTINUOUS
 62
    5
 10
3704.8913935730729
 20
1345.2410513398294
 11
3704.8913935730729
 21
745.24105133982914
  0
LINE
  8
_0-3_断面__扉
  6
CONTINUOUS
 62
    5
 10
2804.8913935730729
 20
1345.2410513398294
 11
3704.8913935730729
 21
1345.2410513398294
  0
LINE
  8
_0-3_断面__扉
  6
CONTINUOUS
 62
    2
 10
2816.8913935730729
 20
1260.2410513398294
 11
3692.8913935730724
 21
1260.2410513398294
  0
LINE
  8
_0-3_断面__扉
  6
CONTINUOUS
 62
    2
 10
2816.8913935730729
 20
797.24105133982902
 11
3692.8913935730724
 21
797.24105133982902
  0
LINE
  8
_0-3_断面__扉
  6
CONTINUOUS
 62
    4
 10
2816.8913935730729
 20
752.24105133982902
 11
3692.8913935730724
 21
752.24105133982902
  0
LINE
  8
_0-3_断面__扉
  6
CONTINUOUS
 62
    5
 10
2804.8913935730729
 20
745.24105133982914
 11
3704.8913935730729
 21
745.24105133982914
  0
LINE
  8
_0-a_ラッチ平面受け
  6
CONTINUOUS
 62
    4
 10
3685.4344111773839
 20
1260.2410513398256
 11
3692.8913935730765
 21
1267.698033735518
  0
LINE
  8
_0-a_ラッチ平面受け
  6
CONTINUOUS
 62
    4
 10
3657.1501399299199
 20
1260.2410513398281
 11
3692.8913935730729
 21
1295.9823049829813
  0
LINE
  8
_0-a_ラッチ平面受け
  6
CONTINUOUS
 62
    4
 10
3628.8658686824746
 20
1260.2410513398317
 11
3692.891393573072
 21
1324.2665762304291
  0
LINE
  8
_0-a_ラッチ平面受け
  6
CONTINUOUS
 62
    4
 10
3600.5815974350061
 20
1260.241051339829
 11
3685.581597435003
 21
1345.2410513398267
  0
LINE
  8
_0-a_ラッチ平面受け
  6
CONTINUOUS
 62
    4
 10
3572.2973261875358
 20
1260.2410513398262
 11
3657.2973261875395
 21
1345.241051339829
  0
LINE
  8
_0-a_ラッチ平面受け
  6
CONTINUOUS
 62
    4
 10
3544.0130549400819
 20
1260.2410513398297
 11
3629.0130549400792
 21
1345.2410513398272
  0
LINE
  8
_0-a_ラッチ平面受け
  6
CONTINUOUS
 62
    4
 10
3515.7287836926216
 20
1260.2410513398276
 11
3600.7287836926197
 21
1345.2410513398251
  0
LINE
  8
_0-a_ラッチ平面受け
  6
CONTINUOUS
 62
    4
 10
3487.4445124451581
 20
1260.2410513398299
 11
3572.4445124451558
 21
1345.2410513398276
  0
LINE
  8
_0-a_ラッチ平面受け
  6
CONTINUOUS
 62
    4
 10
3459.1602411976882
 20
1260.2410513398272
 11
3544.1602411976914
 21
1345.2410513398303
  0
LINE
  8
_0-a_ラッチ平面受け
  6
CONTINUOUS
 62
    4
 10
3430.8759699502425
 20
1260.2410513398297
 11
3515.8759699502406
 21
1345.2410513398281
  0
LINE
  8
_0-a_ラッチ平面受け
  6
CONTINUOUS
 62
    4
 10
3402.5916987027744
 20
1260.2410513398285
 11
3487.5916987027721
 21
1345.2410513398262
  0
LINE
  8
_0-a_ラッチ平面受け
  6
CONTINUOUS
 62
    4
 10
3374.307427455305
 20
1260.2410513398258
 11
3459.3074274553077
 21
1345.2410513398285
  0
LINE
  8
_0-a_ラッチ平面受け
  6
CONTINUOUS
 62
    4
 10
3346.0231562078411
 20
1260.2410513398283
 11
3431.0231562078438
 21
1345.241051339831
  0
LINE
  8
_0-a_ラッチ平面受け
  6
CONTINUOUS
 62
    4
 10
3317.7388849603944
 20
1260.2410513398299
 11
3402.7388849603926
 21
1345.2410513398281
  0
LINE
  8
_0-a_ラッチ平面受け
  6
CONTINUOUS
 62
    4
 10
3289.4546137129273
 20
1260.2410513398294
 11
3374.4546137129245
 21
1345.2410513398272
  0
LINE
  8
_0-a_ラッチ平面受け
  6
CONTINUOUS
 62
    4
 10
3261.1703424654574
 20
1260.2410513398267
 11
3346.1703424654606
 21
1345.2410513398294
  0
LINE
  8
_0-a_ラッチ平面受け
  6
CONTINUOUS
 62
    4
 10
3232.886071217993
 20
1260.241051339829
 11
3317.8860712179957
 21
1345.2410513398319
  0
LINE
  8
_0-a_ラッチ平面受け
  6
CONTINUOUS
 62
    4
 10
3204.6017999705459
 20
1260.2410513398301
 11
3289.6017999705441
 21
1345.2410513398283
  0
LINE
  8
_0-a_ラッチ平面受け
  6
CONTINUOUS
 62
    4
 10
3176.3175287230792
 20
1260.2410513398303
 11
3261.3175287230769
 21
1345.2410513398281
  0
LINE
  8
_0-a_ラッチ平面受け
  6
CONTINUOUS
 62
    4
 10
3148.0332574756093
 20
1260.2410513398276
 11
3233.033257475613
 21
1345.2410513398306
  0
LINE
  8
_0-a_ラッチ平面受け
  6
CONTINUOUS
 62
    4
 10
3119.7489862281458
 20
1260.2410513398299
 11
3204.7489862281486
 21
1345.2410513398328
  0
LINE
  8
_0-a_ラッチ平面受け
  6
CONTINUOUS
 62
    4
 10
3091.4647149806974
 20
1260.2410513398303
 11
3176.4647149806955
 21
1345.2410513398285
  0
LINE
  8
_0-a_ラッチ平面受け
  6
CONTINUOUS
 62
    4
 10
3063.1804437332316
 20
1260.2410513398313
 11
3148.1804437332289
 21
1345.2410513398288
  0
LINE
  8
_0-a_ラッチ平面受け
  6
CONTINUOUS
 62
    4
 10
3034.8961724857622
 20
1260.2410513398283
 11
3119.8961724857649
 21
1345.2410513398313
  0
LINE
  8
_0-a_ラッチ平面受け
  6
CONTINUOUS
 62
    4
 10
3006.6119012382978
 20
1260.2410513398308
 11
3091.6119012382955
 21
1345.2410513398285
  0
LINE
  8
_0-a_ラッチ平面受け
  6
CONTINUOUS
 62
    4
 10
2978.3276299908484
 20
1260.2410513398297
 11
3063.3276299908457
 21
1345.2410513398274
  0
LINE
  8
_0-a_ラッチ平面受け
  6
CONTINUOUS
 62
    4
 10
2950.0433587433835
 20
1260.2410513398322
 11
3035.0433587433817
 21
1345.2410513398297
  0
LINE
  8
_0-a_ラッチ平面受け
  6
CONTINUOUS
 62
    4
 10
2921.759087495915
 20
1260.2410513398294
 11
3006.7590874959169
 21
1345.2410513398322
  0
LINE
  8
_0-a_ラッチ平面受け
  6
CONTINUOUS
 62
    4
 10
2893.4748162484652
 20
1260.2410513398283
 11
2978.4748162484634
 21
1345.2410513398265
  0
LINE
  8
_0-a_ラッチ平面受け
  6
CONTINUOUS
 62
    4
 10
2865.1905450010008
 20
1260.2410513398306
 11
2950.1905450009985
 21
1345.2410513398281
  0
LINE
  8
_0-a_ラッチ平面受け
  6
CONTINUOUS
 62
    4
 10
2836.9062737535305
 20
1260.2410513398276
 11
2921.9062737535341
 21
1345.2410513398306
  0
LINE
  8
_0-a_ラッチ平面受け
  6
CONTINUOUS
 62
    4
 10
2816.8913935730715
 20
1268.5104424068349
 11
2893.6220025060697
 21
1345.2410513398331
  0
LINE
  8
_0-a_ラッチ平面受け
  6
CONTINUOUS
 62
    4
 10
2816.8913935730743
 20
1296.7947136542861
 11
2865.3377312586148
 21
1345.2410513398267
  0
LINE
  8
_0-a_ラッチ平面受け
  6
CONTINUOUS
 62
    4
 10
2816.8913935730724
 20
1325.078984901751
 11
2837.0534600111504
 21
1345.241051339829
  0
LINE
  8
_0-a_ラッチ平面受け
  6
CONTINUOUS
 62
    4
 10
3686.5512936316999
 20
752.24105133983221
 11
3692.8913935730702
 21
758.58115128120266
  0
LINE
  8
_0-a_ラッチ平面受け
  6
CONTINUOUS
 62
    4
 10
3658.2670223842442
 20
752.2410513398255
 11
3692.8913935730774
 21
786.86542252865876
  0
LINE
  8
_0-a_ラッチ平面受け
  6
CONTINUOUS
 62
    4
 10
3629.9827511367802
 20
752.24105133982789
 11
3674.9827511367784
 21
797.24105133982618
  0
LINE
  8
_0-a_ラッチ平面受け
  6
CONTINUOUS
 62
    4
 10
3601.6984798893104
 20
752.24105133982516
 11
3646.6984798893145
 21
797.24105133982857
  0
LINE
  8
_0-a_ラッチ平面受け
  6
CONTINUOUS
 62
    4
 10
3573.4142086418705
 20
752.24105133983357
 11
3618.4142086418696
 21
797.24105133983221
  0
LINE
  8
_0-a_ラッチ平面受け
  6
CONTINUOUS
 62
    4
 10
3545.1299373944016
 20
752.24105133983152
 11
3590.1299373943998
 21
797.24105133982959
  0
LINE
  8
_0-a_ラッチ平面受け
  6
CONTINUOUS
 62
    4
 10
3516.8456661469326
 20
752.2410513398288
 11
3561.8456661469363
 21
797.24105133983221
  0
LINE
  8
_0-a_ラッチ平面受け
  6
CONTINUOUS
 62
    4
 10
3488.5613948994682
 20
752.2410513398313
 11
3533.5613948994664
 21
797.24105133982959
  0
LINE
  8
_0-a_ラッチ平面受け
  6
CONTINUOUS
 62
    4
 10
3460.277123652017
 20
752.24105133982857
 11
3505.2771236520152
 21
797.24105133982698
  0
LINE
  8
_0-a_ラッチ平面受け
  6
CONTINUOUS
 62
    4
 10
3431.992852404549
 20
752.2410513398272
 11
3476.9928524045471
 21
797.24105133982538
  0
LINE
  8
_0-a_ラッチ平面受け
  6
CONTINUOUS
 62
    4
 10
3403.7085811570796
 20
752.24105133982448
 11
3448.7085811570832
 21
797.24105133982789
  0
LINE
  8
_0-a_ラッチ平面受け
  6
CONTINUOUS
 62
    4
 10
3375.4243099096152
 20
752.24105133982686
 11
3420.4243099096183
 21
797.24105133983039
  0
LINE
  8
_0-a_ラッチ平面受け
  6
CONTINUOUS
 62
    4
 10
3347.1400386621739
 20
752.24105133983402
 11
3392.1400386621726
 21
797.24105133983243
  0
LINE
  8
_0-a_ラッチ平面受け
  6
CONTINUOUS
 62
    4
 10
3318.8557674147068
 20
752.24105133983346
 11
3363.8557674147045
 21
797.24105133983141
  0
LINE
  8
_0-a_ラッチ平面受け
  6
CONTINUOUS
 62
    4
 10
3290.5714961672374
 20
752.24105133983039
 11
3335.5714961672406
 21
797.24105133983414
  0
LINE
  8
_0-a_ラッチ平面受け
  6
CONTINUOUS
 62
    4
 10
3262.287224919773
 20
752.24105133983312
 11
3307.2872249197712
 21
797.2410513398313
  0
LINE
  8
_0-a_ラッチ平面受け
  6
CONTINUOUS
 62
    4
 10
3234.0029536723204
 20
752.24105133982902
 11
3279.0029536723186
 21
797.24105133982743
  0
LINE
  8
_0-a_ラッチ平面受け
  6
CONTINUOUS
 62
    4
 10
3205.7186824248537
 20
752.24105133982902
 11
3250.7186824248519
 21
797.2410513398272
  0
LINE
  8
_0-a_ラッチ平面受け
  6
CONTINUOUS
 62
    4
 10
3177.4344111773843
 20
752.24105133982618
 11
3222.4344111773875
 21
797.24105133982959
  0
LINE
  8
_0-a_ラッチ平面受け
  6
CONTINUOUS
 62
    4
 10
3149.1501399299204
 20
752.2410513398288
 11
3194.1501399299181
 21
797.24105133982686
  0
LINE
  8
_0-a_ラッチ平面受け
  6
CONTINUOUS
 62
    4
 10
3120.8658686824774
 20
752.24105133983448
 11
3165.865868682476
 21
797.24105133983289
  0
LINE
  8
_0-a_ラッチ平面受け
  6
CONTINUOUS
 62
    4
 10
3092.5815974350061
 20
752.24105133982993
 11
3137.5815974350098
 21
797.24105133983334
  0
LINE
  8
_0-a_ラッチ平面受け
  6
CONTINUOUS
 62
    4
 10
3064.2973261875422
 20
752.24105133983243
 11
3109.2973261875454
 21
797.24105133983584
  0
LINE
  8
_0-a_ラッチ平面受け
  6
CONTINUOUS
 62
    4
 10
3036.0130549400819
 20
752.24105133983039
 11
3081.0130549400805
 21
797.24105133982845
  0
LINE
  8
_0-a_ラッチ平面受け
  6
CONTINUOUS
 62
    4
 10
3007.7287836926229
 20
752.24105133982834
 11
3052.7287836926211
 21
797.24105133982652
  0
LINE
  8
_0-a_ラッチ平面受け
  6
CONTINUOUS
 62
    4
 10
2979.4445124451585
 20
752.24105133983073
 11
3024.4445124451567
 21
797.24105133982891
  0
LINE
  8
_0-a_ラッチ平面受け
  6
CONTINUOUS
 62
    4
 10
2951.1602411976891
 20
752.241051339828
 11
2996.1602411976923
 21
797.24105133983141
  0
LINE
  8
_0-a_ラッチ平面受け
  6
CONTINUOUS
 62
    4
 10
2922.8759699502452
 20
752.24105133983255
 11
2967.8759699502438
 21
797.24105133983107
  0
LINE
  8
_0-a_ラッチ平面受け
  6
CONTINUOUS
 62
    4
 10
2894.5916987027803
 20
752.24105133983448
 11
2939.5916987027785
 21
797.24105133983255
  0
LINE
  8
_0-a_ラッチ平面受け
  6
CONTINUOUS
 62
    4
 10
2866.3074274553105
 20
752.24105133983152
 11
2911.3074274553137
 21
797.24105133983493
  0
LINE
  8
_0-a_ラッチ平面受け
  6
CONTINUOUS
 62
    4
 10
2838.0231562078465
 20
752.24105133983414
 11
2883.0231562078452
 21
797.24105133983232
  0
LINE
  8
_0-a_ラッチ平面受け
  6
CONTINUOUS
 62
    4
 10
2816.8913935730743
 20
759.39355995251048
 11
2854.7388849603903
 21
797.24105133982584
  0
LINE
  8
_0-a_ラッチ平面受け
  6
CONTINUOUS
 62
    4
 10
2816.8913935730734
 20
787.67783119997579
 11
2826.4546137129254
 21
797.24105133982811
  0
LINE
  8
_0-4_背面本体
  6
CONTINUOUS
 62
    3
 10
478.32476271240324
 20
2199.7744603287769
 11
478.32476271240324
 21
2187.7744603287765
  0
LINE
  8
_0-4_背面本体
  6
CONTINUOUS
 62
    3
 10
922.32476271240307
 20
2199.7744603287769
 11
922.32476271240307
 21
2187.7744603287765
  0
LINE
  8
_0-4_背面本体
  6
CONTINUOUS
 62
    3
 10
478.32476271240324
 20
2199.7744603287769
 11
922.32476271240307
 21
2199.7744603287769
  0
LINE
  8
_0-4_背面本体
  6
CONTINUOUS
 62
    3
 10
478.32476271240324
 20
2187.7744603287765
 11
922.32476271240307
 21
2187.7744603287765
  0
LINE
  8
_0-4_背面本体
  6
CONTINUOUS
 62
    3
 10
1367.3247627124028
 20
2199.7744603287769
 11
1367.3247627124028
 21
2187.7744603287765
  0
LINE
  8
_0-4_背面本体
  6
CONTINUOUS
 62
    3
 10
923.32476271240284
 20
2199.7744603287769
 11
923.32476271240284
 21
2187.7744603287765
  0
LINE
  8
_0-4_背面本体
  6
CONTINUOUS
 62
    3
 10
1367.3247627124028
 20
2199.7744603287769
 11
923.32476271240284
 21
2199.7744603287769
  0
LINE
  8
_0-4_背面本体
  6
CONTINUOUS
 62
    3
 10
1367.3247627124028
 20
2187.7744603287765
 11
923.32476271240284
 21
2187.7744603287765
  0
LINE
  8
_0-4_背面本体
  6
CONTINUOUS
 62
    3
 10
478.32476271240324
 20
730.24105133982982
 11
478.32476271240324
 21
1340.2410513398299
  0
LINE
  8
_0-4_背面本体
  6
CONTINUOUS
 62
    3
 10
922.32476271240307
 20
1340.2410513398299
 11
478.32476271240324
 21
1340.2410513398299
  0
LINE
  8
_0-4_背面本体
  6
CONTINUOUS
 62
    3
 10
922.32476271240307
 20
730.24105133982982
 11
922.32476271240307
 21
1340.2410513398299
  0
LINE
  8
_0-4_背面本体
  6
CENTER2
 62
    4
 10
922.32476271240307
 20
1340.2410513398299
 11
478.32476271240324
 21
1035.2410513398299
  0
LINE
  8
_0-4_背面本体
  6
CENTER2
 62
    4
 10
478.32476271240324
 20
1035.2410513398299
 11
922.32476271240307
 21
730.24105133982982
  0
LINE
  8
_0-4_背面本体
  6
CONTINUOUS
 62
    3
 10
1367.3247627124028
 20
730.24105133982982
 11
1367.3247627124028
 21
1340.2410513398299
  0
LINE
  8
_0-4_背面本体
  6
CONTINUOUS
 62
    3
 10
923.32476271240284
 20
1340.2410513398299
 11
1367.3247627124028
 21
1340.2410513398299
  0
LINE
  8
_0-4_背面本体
  6
CONTINUOUS
 62
    3
 10
923.32476271240284
 20
730.24105133982982
 11
923.32476271240284
 21
1340.2410513398299
  0
LINE
  8
_0-4_背面本体
  6
CENTER2
 62
    4
 10
923.32476271240284
 20
1340.2410513398299
 11
1367.3247627124028
 21
1035.2410513398299
  0
LINE
  8
_0-4_背面本体
  6
CENTER2
 62
    4
 10
1367.3247627124028
 20
1035.2410513398299
 11
923.32476271240284
 21
730.24105133982982
  0
LINE
  8
_0-4_背面本体
  6
CONTINUOUS
 62
    3
 10
1941.8570920036445
 20
1340.2410513398299
 11
1929.8570920036443
 21
1340.2410513398299
  0
LINE
  8
_0-4_背面本体
  6
CONTINUOUS
 62
    3
 10
1929.8570920036443
 20
760.24105133982959
 11
1929.8570920036443
 21
1340.2410513398299
  0
LINE
  8
_0-4_背面本体
  6
CONTINUOUS
 62
    3
 10
1941.8570920036445
 20
760.24105133982959
 11
1941.8570920036445
 21
1340.2410513398299
  0
ARC
  8
_0-5_平面本体
  6
CONTINUOUS
 62
    4
 10
481.32476271240278
 20
734.2410513398297
 40
3.0000000000000004
 50
90
 51
180
  0
ARC
  8
_0-5_平面本体
  6
CONTINUOUS
 62
    4
 10
919.32476271240193
 20
734.2410513398297
 40
3.0000000000000004
 50
0.0000000000000127
 51
90.000000000000014
  0
LINE
  8
_0-5_平面本体
  6
CONTINUOUS
 62
    4
 10
481.32476271240278
 20
737.24105133982993
 11
919.32476271240193
 21
737.24105133982993
  0
LINE
  8
_0-5_平面本体
  6
CONTINUOUS
 62
    4
 10
922.32476271240193
 20
730.24105133982982
 11
478.32476271240324
 21
730.24105133982982
  0
LINE
  8
_0-5_平面本体
  6
CONTINUOUS
 62
    4
 10
922.32476271240193
 20
766.2410513398297
 11
478.32476271240324
 21
766.2410513398297
  0
LINE
  8
_0-5_平面本体
  6
CONTINUOUS
 62
    4
 10
922.32476271240193
 20
758.64105133982684
 11
478.32476271240324
 21
758.64105133982684
  0
ARC
  8
_0-5_平面本体
  6
CONTINUOUS
 62
    4
 10
926.32476271240238
 20
734.2410513398297
 40
3.0000000000000004
 50
90
 51
180
  0
ARC
  8
_0-5_平面本体
  6
CONTINUOUS
 62
    4
 10
1364.3247627124014
 20
734.2410513398297
 40
3.0000000000000004
 50
0.0000000000000127
 51
90.000000000000014
  0
LINE
  8
_0-5_平面本体
  6
CONTINUOUS
 62
    4
 10
926.32476271240238
 20
737.24105133982993
 11
1364.3247627124014
 21
737.24105133982993
  0
LINE
  8
_0-5_平面本体
  6
CONTINUOUS
 62
    4
 10
1367.3247627124014
 20
730.24105133982982
 11
923.32476271240284
 21
730.24105133982982
  0
LINE
  8
_0-5_平面本体
  6
CONTINUOUS
 62
    4
 10
1367.3247627124014
 20
766.2410513398297
 11
923.32476271240284
 21
766.2410513398297
  0
LINE
  8
_0-5_平面本体
  6
CONTINUOUS
 62
    4
 10
1367.3247627124014
 20
758.64105133982684
 11
923.32476271240284
 21
758.64105133982684
  0
LINE
  8
_0-5_平面本体
  6
CONTINUOUS
 62
    4
 10
1943.4570920036439
 20
774.2410513398297
 11
1943.4570920036439
 21
732.24105133982959
  0
LINE
  8
_0-5_平面本体
  6
CONTINUOUS
 62
    4
 10
1942.9570920036439
 20
774.74105133982959
 11
1942.6570920036442
 21
774.74105133982959
  0
LINE
  8
_0-5_平面本体
  6
CONTINUOUS
 62
    4
 10
1942.1570920036447
 20
765.9655511396694
 11
1942.1570920036447
 21
773.31655153998997
  0
LINE
  8
_0-5_平面本体
  6
CONTINUOUS
 62
    4
 10
1942.1570920036447
 20
760.54105133982955
 11
1942.1570920036447
 21
764.71655153998983
  0
LINE
  8
_0-5_平面本体
  6
CONTINUOUS
 62
    4
 10
1942.1570920036447
 20
756.79143867805476
 11
1942.1570920036447
 21
732.24105133982959
  0
LINE
  8
_0-5_平面本体
  6
CONTINUOUS
 62
    4
 10
1941.4570920036435
 20
731.54105133982955
 11
1930.6856634322161
 21
731.54105133982955
  0
LINE
  8
_0-5_平面本体
  6
CONTINUOUS
 62
    4
 10
1930.0235012700527
 20
732.01402431280246
 11
1928.8946718560105
 21
735.30644343709377
  0
LINE
  8
_0-5_平面本体
  6
CONTINUOUS
 62
    4
 10
1928.793771540324
 20
731.59240269118095
 11
1927.3111460576983
 21
735.91672701550521
  0
LINE
  8
_0-5_平面本体
  6
CONTINUOUS
 62
    4
 10
1929.1570920036433
 20
760.54105133982955
 11
1929.1570920036433
 21
765.44105133982941
  0
LINE
  8
_0-5_平面本体
  6
CONTINUOUS
 62
    4
 10
1941.8570920036445
 20
760.24105133982959
 11
1929.4570920036444
 21
760.24105133982959
  0
LINE
  8
_0-5_平面本体
  6
CONTINUOUS
 62
    4
 10
1927.5570920036443
 20
759.59066400160406
 11
1927.5570920036443
 21
765.44105133982941
  0
LINE
  8
_0-5_平面本体
  6
CONTINUOUS
 62
    4
 10
1941.2087470890719
 20
757.79010366299701
 11
1928.5054369182153
 21
758.59199901666204
  0
LINE
  8
_0-5_平面本体
  6
CONTINUOUS
 62
    4
 10
1930.6856634322161
 20
730.24105133982959
 11
1941.4570920036435
 21
730.24105133982959
  0
ARC
  8
_0-5_平面本体
  6
CONTINUOUS
 62
    4
 10
1941.4570920036435
 20
732.24105133982959
 40
0.6999999999999997
 50
270
 51
0
  0
ARC
  8
_0-5_平面本体
  6
CONTINUOUS
 62
    4
 10
1942.9570920036439
 20
774.2410513398297
 40
0.4999999999999997
 50
0
 51
90
  0
ARC
  8
_0-5_平面本体
  6
CONTINUOUS
 62
    4
 10
1942.6570920036442
 20
773.94105133982964
 40
0.8000000000000001
 50
89.999999999999971
 51
231.31781254650667
  0
ARC
  8
_0-5_平面本体
  6
CONTINUOUS
 62
    4
 10
1942.6570920036442
 20
765.3410513398295
 40
0.8000000000000001
 50
128.68218745349335
 51
231.31781254650667
  0
ARC
  8
_0-5_平面本体
  6
CONTINUOUS
 62
    4
 10
1941.8570920036445
 20
760.54105133982955
 40
0.2999999999999998
 50
270
 51
0
  0
ARC
  8
_0-5_平面本体
  6
CONTINUOUS
 62
    4
 10
1941.1570920036438
 20
756.79143867805476
 40
0.9999999999999995
 50
359.99999999999994
 51
87.03906386583624
  0
ARC
  8
_0-5_平面本体
  6
CONTINUOUS
 62
    4
 10
1928.357092003644
 20
765.44105133982941
 40
0.8000000000000001
 50
0.0000000000000254
 51
179.99999999999997
  0
ARC
  8
_0-5_平面本体
  6
CONTINUOUS
 62
    4
 10
1930.6856634322161
 20
732.24105133982959
 40
0.6999999999999997
 50
198.92464441604994
 51
270
  0
ARC
  8
_0-5_平面本体
  6
CONTINUOUS
 62
    4
 10
1929.0838610451992
 20
735.37130830195849
 40
0.2
 50
133.54896276822287
 51
198.92464441605298
  0
ARC
  8
_0-5_平面本体
  6
CONTINUOUS
 62
    4
 10
1928.2570920036441
 20
736.24105133982936
 40
0.9999999999999995
 50
313.54896276821995
 51
198.92464441604971
  0
ARC
  8
_0-5_平面本体
  6
CONTINUOUS
 62
    4
 10
1929.4570920036444
 20
760.54105133982955
 40
0.2999999999999998
 50
179.99999999999997
 51
270
  0
ARC
  8
_0-5_平面本体
  6
CONTINUOUS
 62
    4
 10
1928.5570920036439
 20
759.59066400160406
 40
0.9999999999999995
 50
180
 51
267.03906386583628
  0
ARC
  8
_0-5_平面本体
  6
CONTINUOUS
 62
    4
 10
1941.4570920036435
 20
732.24105133982959
 40
1.9999999999999995
 50
269.99999999999994
 51
359.99999999999994
  0
ARC
  8
_0-5_平面本体
  6
CONTINUOUS
 62
    4
 10
1930.6856634322161
 20
732.24105133982959
 40
1.9999999999999995
 50
198.92464441605042
 51
270
  0
LINE
  8
_0-9_ラッチ断面__受け
  6
CONTINUOUS
 62
    4
 10
2487.857092003644
 20
745.2410513398297
 11
2317.857092003644
 21
745.2410513398297
  0
LINE
  8
_0-9_ラッチ断面__受け
  6
CONTINUOUS
 62
    4
 10
2487.857092003644
 20
1345.2410513398299
 11
2317.857092003644
 21
1345.2410513398299
  0
LINE
  8
_0-9_ラッチ断面__受け
  6
CONTINUOUS
 62
    4
 10
1572.8247627124028
 20
2187.7744603287769
 11
1402.8247627124028
 21
2187.7744603287769
  0
LINE
  8
_0-9_ラッチ断面__受け
  6
CONTINUOUS
 62
    4
 10
1572.8247627124028
 20
1345.2410513398297
 11
1402.8247627124028
 21
1345.2410513398297
  0
LINE
  8
_0-9_ラッチ断面__受け
  6
CONTINUOUS
 62
    4
 10
1372.8247627124028
 20
1545.2410513398297
 11
1372.8247627124028
 21
1375.2410513398297
  0
LINE
  8
_0-9_ラッチ断面__受け
  6
CONTINUOUS
 62
    4
 10
1512.8247627124028
 20
745.2410513398297
 11
1512.8247627124028
 21
730.24105133982993
  0
LINE
  8
_0-9_ラッチ断面__受け
  6
CONTINUOUS
 62
    4
 10
1572.8247627124028
 20
745.2410513398297
 11
1402.8247627124028
 21
745.2410513398297
  0
POINT
  8
_0-9_ラッチ断面__受け
 62
    4
 10
1372.8247627124028
 20
1535.2410513398297
  0
LINE
  8
_0-9_ラッチ断面__受け
  6
CONTINUOUS
 62
    4
 10
1372.8247627124028
 20
1545.2410513398297
 11
1372.8247627124028
 21
1375.2410513398297
  0
LINE
  8
_0-9_ラッチ断面__受け
  6
CONTINUOUS
 62
    4
 10
2804.8913935730729
 20
1545.2410513398297
 11
2804.8913935730729
 21
1375.2410513398297
  0
POINT
  8
_0-9_ラッチ断面__受け
 62
    4
 10
2804.8913935730729
 20
1535.2410513398297
  0
LINE
  8
_0-9_ラッチ断面__受け
  6
CONTINUOUS
 62
    4
 10
2804.8913935730729
 20
1545.2410513398297
 11
2804.8913935730729
 21
1375.2410513398297
  0
LINE
  8
_0-9_ラッチ断面__受け
  6
CONTINUOUS
 62
    4
 10
472.82476271240284
 20
1545.2410513398297
 11
472.82476271240284
 21
1375.2410513398297
  0
POINT
  8
_0-9_ラッチ断面__受け
 62
    4
 10
472.82476271240284
 20
1535.2410513398297
  0
LINE
  8
_0-9_ラッチ断面__受け
  6
CONTINUOUS
 62
    4
 10
472.82476271240284
 20
1545.2410513398297
 11
472.82476271240284
 21
1375.2410513398297
  0
POINT
  8
_0-9_ラッチ断面__受け
 62
    4
 10
472.82476271240284
 20
1535.2410513398297
  0
POINT
  8
_0-9_ラッチ断面__受け
 62
    4
 10
1372.8247627124028
 20
1535.2410513398297
  0
LINE
  8
_0-9_ラッチ断面__受け
  6
CONTINUOUS
 62
    4
 10
472.82476271240284
 20
1545.2410513398297
 11
472.82476271240284
 21
1375.2410513398297
  0
LINE
  8
_0-9_ラッチ断面__受け
  6
CONTINUOUS
 62
    4
 10
1372.8247627124028
 20
1545.2410513398297
 11
1372.8247627124028
 21
1375.2410513398297
  0
LINE
  8
_0-9_ラッチ断面__受け
  6
CONTINUOUS
 62
    4
 10
3704.8913935730729
 20
1545.2410513398297
 11
3704.8913935730729
 21
1375.2410513398297
  0
POINT
  8
_0-9_ラッチ断面__受け
 62
    4
 10
3704.8913935730729
 20
1535.2410513398297
  0
LINE
  8
_0-9_ラッチ断面__受け
  6
CONTINUOUS
 62
    4
 10
3704.8913935730729
 20
1545.2410513398297
 11
3704.8913935730729
 21
1375.2410513398297
  0
POINT
  8
_0-9_ラッチ断面__受け
 62
    4
 10
2804.8913935730729
 20
1535.2410513398297
  0
POINT
  8
_0-9_ラッチ断面__受け
 62
    4
 10
3704.8913935730729
 20
1535.2410513398297
  0
LINE
  8
_0-9_ラッチ断面__受け
  6
CONTINUOUS
 62
    4
 10
2804.8913935730729
 20
1545.2410513398297
 11
2804.8913935730729
 21
1375.2410513398297
  0
LINE
  8
_0-9_ラッチ断面__受け
  6
CONTINUOUS
 62
    4
 10
3704.8913935730729
 20
1545.2410513398297
 11
3704.8913935730729
 21
1375.2410513398297
  0
POINT
  8
_0-9_ラッチ断面__受け
 62
    4
 10
1372.8247627124028
 20
2735.7744603287765
  0
POINT
  8
_0-9_ラッチ断面__受け
 62
    4
 10
1372.8247627124028
 20
2735.7744603287765
  0
LINE
  8
_0-9_ラッチ断面__受け
  6
CONTINUOUS
 62
    4
 10
1372.8247627124028
 20
2745.7744603287765
 11
1372.8247627124028
 21
2575.7744603287765
  0
LINE
  8
_0-9_ラッチ断面__受け
  6
CONTINUOUS
 62
    4
 10
472.82476271240284
 20
2745.7744603287765
 11
472.82476271240284
 21
2575.7744603287765
  0
LINE
  8
_0-9_ラッチ断面__受け
  6
CONTINUOUS
 62
    4
 10
2816.8913935730729
 20
545.24105133982914
 11
2816.8913935730729
 21
715.24105133982914
  0
POINT
  8
_0-9_ラッチ断面__受け
 62
    4
 10
2816.8913935730729
 20
555.24105133982914
  0
LINE
  8
_0-9_ラッチ断面__受け
  6
CONTINUOUS
 62
    4
 10
2816.8913935730729
 20
545.24105133982914
 11
2816.8913935730729
 21
715.24105133982914
  0
LINE
  8
_0-9_ラッチ断面__受け
  6
CONTINUOUS
 62
    4
 10
3692.8913935730734
 20
545.24105133982914
 11
3692.8913935730734
 21
715.24105133982914
  0
POINT
  8
_0-9_ラッチ断面__受け
 62
    4
 10
3692.8913935730734
 20
555.24105133982914
  0
LINE
  8
_0-9_ラッチ断面__受け
  6
CONTINUOUS
 62
    4
 10
3692.8913935730734
 20
545.24105133982914
 11
3692.8913935730734
 21
715.24105133982914
  0
POINT
  8
_0-9_ラッチ断面__受け
 62
    4
 10
2816.8913935730729
 20
555.24105133982914
  0
POINT
  8
_0-9_ラッチ断面__受け
 62
    4
 10
3692.8913935730734
 20
555.24105133982914
  0
LINE
  8
_0-9_ラッチ断面__受け
  6
CONTINUOUS
 62
    4
 10
2816.8913935730729
 20
545.24105133982914
 11
2816.8913935730729
 21
715.24105133982914
  0
LINE
  8
_0-9_ラッチ断面__受け
  6
CONTINUOUS
 62
    4
 10
3692.8913935730734
 20
545.24105133982914
 11
3692.8913935730734
 21
715.24105133982914
  0
LINE
  8
_f-a__0-7_寸法
  6
CONTINUOUS
 62
    4
 10
472.82476271240284
 20
2735.7744603287765
 11
1372.8247627124028
 21
2735.7744603287765
  0
TEXT
  8
_0-9_ラッチ断面__受け
 62
    7
 10
889.72476271240293
 20
2740.7744603287765
 40
35
 41
0.6285714285714286
 50
0
  1
９００
  0
LINE
  8
_f-b__0-1_立面__扉
  6
CONTINUOUS
 62
    4
 10
1562.8247627124028
 20
2545.7744603287765
 11
1562.8247627124028
 21
2187.7744603287769
  0
TEXT
  8
_0-9_ラッチ断面__受け
 62
    7
 10
1557.8247627124028
 20
2333.6744603287766
 40
35
 41
0.6285714285714286
 50
90
  1
３５８
  0
LINE
  8
_f-a__0-7_寸法
  6
CONTINUOUS
 62
    4
 10
472.82476271240284
 20
1535.2410513398297
 11
1372.8247627124028
 21
1535.2410513398297
  0
TEXT
  8
_0-9_ラッチ断面__受け
 62
    7
 10
889.72476271240293
 20
1540.2410513398297
 40
35
 41
0.6285714285714286
 50
0
  1
９００
  0
LINE
  8
_f-a__0-7_寸法
  6
CONTINUOUS
 62
    4
 10
1562.8247627124028
 20
1345.2410513398297
 11
1562.8247627124028
 21
745.2410513398297
  0
TEXT
  8
_0-9_ラッチ断面__受け
 62
    7
 10
1557.8247627124032
 20
1012.1410513398293
 40
35
 41
0.6285714285714286
 50
90
  1
６００
  0
LINE
  8
_f-a__0-7_寸法
  6
CONTINUOUS
 62
    4
 10
2477.857092003644
 20
1345.2410513398299
 11
2477.857092003644
 21
745.2410513398297
  0
TEXT
  8
_0-9_ラッチ断面__受け
 62
    7
 10
2472.857092003644
 20
1012.14105133983
 40
35
 41
0.6285714285714286
 50
90
  1
６００
  0
LINE
  8
_f-a__0-7_寸法
  6
CONTINUOUS
 62
    4
 10
2804.8913935730729
 20
1535.2410513398297
 11
3704.8913935730729
 21
1535.2410513398297
  0
TEXT
  8
_0-9_ラッチ断面__受け
 62
    7
 10
3221.791393573073
 20
1540.2410513398297
 40
35
 41
0.6285714285714286
 50
0
  1
９００
  0
LINE
  8
_f-a__0-7_寸法
  6
CONTINUOUS
 62
    4
 10
2816.8913935730729
 20
555.24105133982914
 11
3692.8913935730734
 21
555.24105133982914
  0
TEXT
  8
_0-9_ラッチ断面__受け
 62
    7
 10
3221.791393573073
 20
560.24105133982914
 40
35
 41
0.6285714285714286
 50
0
  1
８７６
  0
LINE
  8
_0-9_ラッチ断面__受け
  6
CONTINUOUS
 62
    4
 10
1522.2805287877215
 20
730.24105133982993
 11
1402.8247627124028
 21
730.24105133982993
  0
POINT
  8
_0-9_ラッチ断面__受け
 62
    3
 10
1367.3247627124028
 20
555.24105133982914
  0
POINT
  8
_0-9_ラッチ断面__受け
 62
    3
 10
923.32476271240284
 20
555.24105133982914
  0
LINE
  8
_0-9_ラッチ断面__受け
  6
CONTINUOUS
 62
    4
 10
1367.3247627124028
 20
545.24105133982914
 11
1367.3247627124028
 21
715.2410513398288
  0
LINE
  8
_0-9_ラッチ断面__受け
  6
CONTINUOUS
 62
    4
 10
923.32476271240284
 20
545.24105133982914
 11
923.32476271240284
 21
715.2410513398288
  0
LINE
  8
_0-9_ラッチ断面__受け
  6
CONTINUOUS
 62
    4
 10
1367.3247627124028
 20
555.24105133982914
 11
923.32476271240284
 21
555.24105133982914
  0
TEXT
  8
_0-9_ラッチ断面__受け
 62
    7
 10
1112.2247627124027
 20
560.24105133982914
 40
35
 41
0.6285714285714286
 50
0
  1
４４４
  0
POINT
  8
_0-9_ラッチ断面__受け
 62
    3
 10
922.32476271240193
 20
555.24105133982914
  0
POINT
  8
_0-9_ラッチ断面__受け
 62
    3
 10
478.32476271240324
 20
555.24105133982914
  0
LINE
  8
_0-9_ラッチ断面__受け
  6
CONTINUOUS
 62
    4
 10
922.32476271240193
 20
545.24105133982914
 11
922.32476271240193
 21
715.2410513398288
  0
LINE
  8
_0-9_ラッチ断面__受け
  6
CONTINUOUS
 62
    4
 10
478.32476271240324
 20
545.24105133982914
 11
478.32476271240324
 21
715.2410513398288
  0
LINE
  8
_0-9_ラッチ断面__受け
  6
CONTINUOUS
 62
    4
 10
922.32476271240193
 20
555.24105133982914
 11
478.32476271240324
 21
555.24105133982914
  0
TEXT
  8
_0-9_ラッチ断面__受け
 62
    7
 10
667.22476271240248
 20
560.24105133982914
 40
35
 41
0.6285714285714286
 50
0
  1
４４４
  0
POINT
  8
_0-9_ラッチ断面__受け
 62
    3
 10
2684.4728900719342
 20
1345.2410513398294
  0
POINT
  8
_0-9_ラッチ断面__受け
 62
    3
 10
2684.4728900719342
 20
1260.2410513398294
  0
LINE
  8
_0-9_ラッチ断面__受け
  6
CONTINUOUS
 62
    4
 10
2674.4728900719342
 20
1345.2410513398294
 11
2774.8913935730729
 21
1345.2410513398294
  0
LINE
  8
_0-9_ラッチ断面__受け
  6
CONTINUOUS
 62
    4
 10
2674.4728900719342
 20
1260.2410513398294
 11
2774.8913935730729
 21
1260.2410513398294
  0
LINE
  8
_0-9_ラッチ断面__受け
  6
CONTINUOUS
 62
    4
 10
2684.4728900719342
 20
1345.2410513398294
 11
2684.4728900719342
 21
1260.2410513398294
  0
TEXT
  8
_0-9_ラッチ断面__受け
 62
    7
 10
2679.4728900719342
 20
1280.6910513398295
 40
35
 41
0.6285714285714286
 50
90
  1
８５
  0
POINT
  8
_0-9_ラッチ断面__受け
 62
    3
 10
2684.4728900719342
 20
797.24105133982902
  0
POINT
  8
_0-9_ラッチ断面__受け
 62
    3
 10
2684.4728900719342
 20
752.24105133982902
  0
LINE
  8
_0-9_ラッチ断面__受け
  6
CONTINUOUS
 62
    4
 10
2674.4728900719342
 20
797.24105133982902
 11
2774.8913935730729
 21
797.24105133982902
  0
LINE
  8
_0-9_ラッチ断面__受け
  6
CONTINUOUS
 62
    4
 10
2674.4728900719342
 20
752.24105133982902
 11
2774.8913935730729
 21
752.24105133982902
  0
LINE
  8
_0-9_ラッチ断面__受け
  6
CONTINUOUS
 62
    4
 10
2684.4728900719342
 20
797.24105133982902
 11
2684.4728900719342
 21
752.24105133982902
  0
TEXT
  8
_0-9_ラッチ断面__受け
 62
    7
 10
2679.4728900719342
 20
701.22642536236435
 40
35
 41
0.6285714285714286
 50
90
  1
４５
  0
LINE
  8
_0-9_ラッチ断面__受け
  6
CONTINUOUS
 62
    4
 10
2684.4728900719342
 20
752.24105133982902
 11
2684.4728900719342
 21
698.04382709858589
  0
POINT
  8
_0-9_ラッチ断面__受け
 62
    4
 10
2397.857092003644
 20
925.2410513398297
  0
LINE
  8
_f-a__0-7_寸法
  6
CONTINUOUS
 62
    4
 10
2397.857092003644
 20
1105.2410513398297
 11
2397.857092003644
 21
1165.2410513398297
  0
TEXT
  8
_0-9_ラッチ断面__受け
 62
    7
 10
2392.857092003644
 20
1113.1910513398297
 40
35
 41
0.6285714285714286
 50
90
  1
６０
  0
LINE
  8
_f-a__0-7_寸法
  6
CONTINUOUS
 62
    4
 10
2397.857092003644
 20
1045.2410513398297
 11
2397.857092003644
 21
1105.2410513398297
  0
TEXT
  8
_0-9_ラッチ断面__受け
 62
    7
 10
2392.857092003644
 20
1053.1910513398297
 40
35
 41
0.6285714285714286
 50
90
  1
６０
  0
LINE
  8
_f-a__0-7_寸法
  6
CONTINUOUS
 62
    4
 10
2397.857092003644
 20
985.2410513398297
 11
2397.857092003644
 21
1045.2410513398297
  0
TEXT
  8
_0-9_ラッチ断面__受け
 62
    7
 10
2392.857092003644
 20
993.19105133982975
 40
35
 41
0.6285714285714286
 50
90
  1
６０
  0
LINE
  8
_f-a__0-7_寸法
  6
CONTINUOUS
 62
    4
 10
2397.857092003644
 20
925.2410513398297
 11
2397.857092003644
 21
985.2410513398297
  0
TEXT
  8
_0-9_ラッチ断面__受け
 62
    7
 10
2392.857092003644
 20
933.19105133982975
 40
35
 41
0.6285714285714286
 50
90
  1
６０
  0
LINE
  8
_0-9_ラッチ断面__受け
  6
CONTINUOUS
 62
    4
 10
2407.857092003644
 20
1165.2410513398297
 11
2317.857092003644
 21
1165.2410513398297
  0
LINE
  8
_0-9_ラッチ断面__受け
  6
CONTINUOUS
 62
    4
 10
2407.857092003644
 20
925.2410513398297
 11
2317.857092003644
 21
925.2410513398297
  0
LINE
  8
_0-9_ラッチ断面__受け
  6
CONTINUOUS
 62
    4
 10
2407.857092003644
 20
985.2410513398297
 11
2317.857092003644
 21
985.2410513398297
  0
LINE
  8
_0-9_ラッチ断面__受け
  6
CONTINUOUS
 62
    4
 10
2407.857092003644
 20
1045.2410513398297
 11
2317.857092003644
 21
1045.2410513398297
  0
LINE
  8
_0-9_ラッチ断面__受け
  6
CONTINUOUS
 62
    4
 10
2407.857092003644
 20
1105.2410513398297
 11
2317.857092003644
 21
1105.2410513398297
  0
POINT
  8
_0-9_ラッチ断面__受け
 62
    3
 10
2397.857092003644
 20
745.2410513398297
  0
POINT
  8
_0-9_ラッチ断面__受け
 62
    3
 10
2397.857092003644
 20
925.2410513398297
  0
LINE
  8
_0-9_ラッチ断面__受け
  6
CONTINUOUS
 62
    4
 10
2407.857092003644
 20
745.2410513398297
 11
2317.8570920036445
 21
745.2410513398297
  0
LINE
  8
_0-9_ラッチ断面__受け
  6
CONTINUOUS
 62
    4
 10
2407.857092003644
 20
925.2410513398297
 11
2317.8570920036445
 21
925.2410513398297
  0
LINE
  8
_0-9_ラッチ断面__受け
  6
CONTINUOUS
 62
    4
 10
2397.857092003644
 20
745.2410513398297
 11
2397.857092003644
 21
925.2410513398297
  0
TEXT
  8
_0-9_ラッチ断面__受け
 62
    7
 10
2392.857092003644
 20
802.14105133982968
 40
35
 41
0.6285714285714286
 50
90
  1
１８０
  0
LINE
  8
_0-3_断面__扉
  6
DASHED1
 62
    4
 10
484.82476271240244
 20
2530.7744603287765
 11
1360.8247627124028
 21
2530.7744603287765
  0
LINE
  8
_0-3_断面__扉
  6
CONTINUOUS
 62
    4
 10
484.82476271240244
 20
2530.7744603287765
 11
1360.8247627124028
 21
2530.7744603287765
  0
CIRCLE
  8
_0-0_立面本体
  6
CONTINUOUS
 62
    7
 10
1994.8570920036449
 20
1045.2410513398283
 40
1.5000000000000002
  0
LINE
  8
_0-0_立面本体
  6
CONTINUOUS
 62
    7
 10
1999.8570920036449
 20
1046.3099263398285
 11
1999.8570920036449
 21
1047.2410513398285
  0
LINE
  8
_0-0_立面本体
  6
CONTINUOUS
 62
    7
 10
1999.8570920036449
 20
1047.2410513398285
 11
2000.7858670036453
 21
1047.3073763398285
  0
LINE
  8
_0-0_立面本体
  6
CONTINUOUS
 62
    7
 10
1989.8570920036449
 20
1045.2410513398283
 11
1989.8570920036449
 21
1046.2410513398285
  0
LINE
  8
_0-0_立面本体
  6
CONTINUOUS
 62
    7
 10
1988.8570920036452
 20
1047.2410513398285
 11
1976.3570920036452
 21
1047.2410513398285
  0
LINE
  8
_0-0_立面本体
  6
CONTINUOUS
 62
    7
 10
1999.8570920036449
 20
1045.2410513398283
 11
1999.8570920036449
 21
1046.3099263398285
  0
LINE
  8
_0-0_立面本体
  6
CONTINUOUS
 62
    7
 10
2000.7858670036453
 20
1047.3073763398285
 11
2012.9283420036451
 21
1048.1747013398282
  0
LINE
  8
_0-0_立面本体
  6
CONTINUOUS
 62
    7
 10
2013.8570920036452
 20
1049.1721513398285
 11
2013.8570920036452
 21
1049.2410513398285
  0
LINE
  8
_0-0_立面本体
  6
CONTINUOUS
 62
    7
 10
1981.4910670036451
 20
1067.2410513398285
 11
1979.6146920036451
 21
1070.4910513398285
  0
LINE
  8
_0-0_立面本体
  6
CONTINUOUS
 62
    7
 10
2012.8570920036452
 20
1050.2410513398283
 11
1977.3570920036449
 21
1050.2410513398283
  0
LINE
  8
_0-0_立面本体
  6
CONTINUOUS
 62
    7
 10
1980.6250420036451
 20
1065.7410513398285
 11
1977.3570920036449
 21
1065.7410513398285
  0
LINE
  8
_0-0_立面本体
  6
CONTINUOUS
 62
    7
 10
1976.3570920036452
 20
1064.7410513398285
 11
1976.3570920036452
 21
1051.2410513398285
  0
ARC
  8
_0-0_立面本体
  6
CONTINUOUS
 62
    7
 10
1976.3570920036452
 20
1051.0410513398285
 40
3.7999999999999998
 50
177.46800000000004
 51
270.00000000000005
  0
ARC
  8
_0-0_立面本体
  6
CONTINUOUS
 62
    7
 10
1994.8570920036449
 20
1045.2410513398283
 40
5
 50
180.00000000000005
 51
0.0000000000001017
  0
CIRCLE
  8
_0-0_立面本体
  6
PHANTOM2
 62
    7
 10
1994.8570920036449
 20
1045.2410513398283
 40
4.0999999999999996
  0
CIRCLE
  8
_0-0_立面本体
  6
PHANTOM2
 62
    7
 10
1994.8570920036449
 20
1045.2410513398283
 40
1.925
  0
ARC
  8
_0-0_立面本体
  6
CONTINUOUS
 62
    7
 10
1974.5138670036451
 20
1069.7410513398285
 40
1
 50
90.000000000000028
 51
177.46800000000004
  0
ARC
  8
_0-0_立面本体
  6
CONTINUOUS
 62
    7
 10
1979.181667003645
 20
1070.2410513398283
 40
0.5
 50
30.000000000000003
 51
90.000000000000028
  0
ARC
  8
_0-0_立面本体
  6
CONTINUOUS
 62
    7
 10
1988.8570920036452
 20
1046.2410513398285
 40
1
 50
0
 51
90.000000000000028
  0
ARC
  8
_0-0_立面本体
  6
CONTINUOUS
 62
    7
 10
2000.8570920036449
 20
1046.3099263398285
 40
1
 50
94.086000000000041
 51
180.00000000000005
  0
ARC
  8
_0-0_立面本体
  6
CONTINUOUS
 62
    7
 10
2012.8570920036452
 20
1049.1721513398285
 40
1
 50
274.08600000000006
 51
0.0000000000000508
  0
ARC
  8
_0-0_立面本体
  6
CONTINUOUS
 62
    7
 10
2012.8570920036452
 20
1049.2410513398285
 40
1
 50
0
 51
90.000000000000028
  0
ARC
  8
_0-0_立面本体
  6
CONTINUOUS
 62
    7
 10
1980.6250420036451
 20
1066.7410513398285
 40
1
 50
270.00000000000005
 51
30.000000000000042
  0
ARC
  8
_0-0_立面本体
  6
CONTINUOUS
 62
    7
 10
1977.3570920036449
 20
1064.7410513398285
 40
1
 50
90.000000000000028
 51
180.00000000000005
  0
ARC
  8
_0-0_立面本体
  6
CONTINUOUS
 62
    7
 10
1977.3570920036449
 20
1051.2410513398285
 40
1
 50
180.00000000000005
 51
270.00000000000005
  0
LINE
  8
_0-0_立面本体
  6
CONTINUOUS
 62
    7
 10
1974.5138670036451
 20
1070.7410513398285
 11
1979.181667003645
 21
1070.7410513398285
  0
LINE
  8
_0-0_立面本体
  6
CONTINUOUS
 62
    7
 10
1972.5608170036452
 20
1051.2089013398285
 11
1973.5155639528941
 21
1069.7992837952219
  0
LINE
  8
_0-0_立面本体
  6
CENTER1
 62
    7
 10
1994.8570920036449
 20
1045.2410513398283
 11
1994.8570920036449
 21
1039.1263234621701
  0
LINE
  8
_0-0_立面本体
  6
CENTER1
 62
    7
 10
1994.8570920036449
 20
1045.2410513398283
 11
1994.8570920036449
 21
1051.3384542918813
  0
LINE
  8
_0-0_立面本体
  6
CENTER1
 62
    7
 10
1994.9699540747647
 20
1045.2410513398283
 11
1992.2903156528332
 21
1045.2410513398283
  0
LINE
  8
_0-0_立面本体
  6
CENTER1
 62
    7
 10
1994.9699540747647
 20
1045.2410513398283
 11
1997.63523717941
 21
1045.2410513398283
  0
ARC
  8
_0-0_立面本体
  6
CONTINUOUS
 62
    7
 10
2261.0891420036455
 20
1066.7410513398285
 40
1
 50
149.99999999999994
 51
269.99999999999994
  0
CIRCLE
  8
_0-0_立面本体
  6
CONTINUOUS
 62
    7
 10
2246.8570920036454
 20
1045.2410513398283
 40
1.5000000000000002
  0
LINE
  8
_0-0_立面本体
  6
CONTINUOUS
 62
    7
 10
2241.8570920036454
 20
1046.3099263398285
 11
2241.8570920036454
 21
1047.2410513398285
  0
LINE
  8
_0-0_立面本体
  6
CONTINUOUS
 62
    7
 10
2241.8570920036454
 20
1047.2410513398285
 11
2240.9283170036451
 21
1047.3073763398285
  0
LINE
  8
_0-0_立面本体
  6
CONTINUOUS
 62
    7
 10
2251.8570920036454
 20
1045.2410513398283
 11
2251.8570920036454
 21
1046.2410513398285
  0
LINE
  8
_0-0_立面本体
  6
CONTINUOUS
 62
    7
 10
2252.8570920036454
 20
1047.2410513398285
 11
2265.3570920036454
 21
1047.2410513398285
  0
LINE
  8
_0-0_立面本体
  6
CONTINUOUS
 62
    7
 10
2241.8570920036454
 20
1045.2410513398283
 11
2241.8570920036454
 21
1046.3099263398285
  0
LINE
  8
_0-0_立面本体
  6
CONTINUOUS
 62
    7
 10
2240.9283170036451
 20
1047.3073763398285
 11
2228.785842003645
 21
1048.1747013398282
  0
LINE
  8
_0-0_立面本体
  6
CONTINUOUS
 62
    7
 10
2227.8570920036454
 20
1049.1721513398285
 11
2227.8570920036454
 21
1049.2410513398285
  0
LINE
  8
_0-0_立面本体
  6
CONTINUOUS
 62
    7
 10
2260.2231170036457
 20
1067.2410513398285
 11
2262.0994920036455
 21
1070.4910513398285
  0
LINE
  8
_0-0_立面本体
  6
CONTINUOUS
 62
    7
 10
2228.8570920036454
 20
1050.2410513398283
 11
2264.3570920036454
 21
1050.2410513398283
  0
LINE
  8
_0-0_立面本体
  6
CONTINUOUS
 62
    7
 10
2261.0891420036455
 20
1065.7410513398285
 11
2264.3570920036454
 21
1065.7410513398285
  0
LINE
  8
_0-0_立面本体
  6
CONTINUOUS
 62
    7
 10
2265.3570920036454
 20
1064.7410513398285
 11
2265.3570920036454
 21
1051.2410513398285
  0
ARC
  8
_0-0_立面本体
  6
CONTINUOUS
 62
    7
 10
2265.3570920036454
 20
1051.0410513398285
 40
3.7999999999999998
 50
269.99999999999994
 51
2.5319999999999902
  0
ARC
  8
_0-0_立面本体
  6
CONTINUOUS
 62
    7
 10
2246.8570920036454
 20
1045.2410513398283
 40
5
 50
179.99999999999985
 51
359.99999999999988
  0
CIRCLE
  8
_0-0_立面本体
  6
PHANTOM2
 62
    7
 10
2246.8570920036454
 20
1045.2410513398283
 40
4.0999999999999996
  0
CIRCLE
  8
_0-0_立面本体
  6
PHANTOM2
 62
    7
 10
2246.8570920036454
 20
1045.2410513398283
 40
1.925
  0
ARC
  8
_0-0_立面本体
  6
CONTINUOUS
 62
    7
 10
2267.200317003645
 20
1069.7410513398285
 40
1
 50
2.531999999999964
 51
89.999999999999943
  0
ARC
  8
_0-0_立面本体
  6
CONTINUOUS
 62
    7
 10
2262.5325170036453
 20
1070.2410513398283
 40
0.5
 50
89.999999999999985
 51
149.99999999999997
  0
ARC
  8
_0-0_立面本体
  6
CONTINUOUS
 62
    7
 10
2252.8570920036454
 20
1046.2410513398285
 40
1
 50
89.999999999999971
 51
180
  0
ARC
  8
_0-0_立面本体
  6
CONTINUOUS
 62
    7
 10
2240.8570920036454
 20
1046.3099263398285
 40
1
 50
359.99999999999994
 51
85.913999999999987
  0
ARC
  8
_0-0_立面本体
  6
CONTINUOUS
 62
    7
 10
2228.8570920036454
 20
1049.1721513398285
 40
1
 50
179.99999999999994
 51
265.91399999999993
  0
ARC
  8
_0-0_立面本体
  6
CONTINUOUS
 62
    7
 10
2228.8570920036454
 20
1049.2410513398285
 40
1
 50
89.999999999999971
 51
180
  0
ARC
  8
_0-0_立面本体
  6
CONTINUOUS
 62
    7
 10
2264.3570920036454
 20
1064.7410513398285
 40
1
 50
359.99999999999994
 51
89.999999999999943
  0
ARC
  8
_0-0_立面本体
  6
CONTINUOUS
 62
    7
 10
2264.3570920036454
 20
1051.2410513398285
 40
1
 50
269.99999999999988
 51
359.99999999999988
  0
LINE
  8
_0-0_立面本体
  6
CONTINUOUS
 62
    7
 10
2267.200317003645
 20
1070.7410513398285
 11
2262.5325170036453
 21
1070.7410513398285
  0
LINE
  8
_0-0_立面本体
  6
CONTINUOUS
 62
    7
 10
2269.1533670036455
 20
1051.2089013398285
 11
2268.198620054396
 21
1069.7992837952219
  0
LINE
  8
_0-0_立面本体
  6
CENTER1
 62
    7
 10
2246.8570920036454
 20
1045.2410513398283
 11
2246.8570920036454
 21
1039.1263234621701
  0
LINE
  8
_0-0_立面本体
  6
CENTER1
 62
    7
 10
2246.8570920036454
 20
1045.2410513398283
 11
2246.8570920036454
 21
1051.3384542918813
  0
LINE
  8
_0-0_立面本体
  6
CENTER1
 62
    7
 10
2246.7442299325257
 20
1045.2410513398283
 11
2249.4238683544572
 21
1045.2410513398283
  0
LINE
  8
_0-0_立面本体
  6
CENTER1
 62
    7
 10
2246.7442299325257
 20
1045.2410513398283
 11
2244.0789468278803
 21
1045.2410513398283
  0
ARC
  8
_0-0_立面本体
  6
CONTINUOUS
 62
    7
 10
1994.8570920036449
 20
1045.2410513398283
 40
7.0000000000000017
 50
45.585000000000007
 51
134.41500000000002
  0
ARC
  8
_0-0_立面本体
  6
CONTINUOUS
 62
    7
 10
1994.8570920036449
 20
1045.2410513398283
 40
11
 50
27.036000000000012
 51
152.96400000000005
  0
ARC
  8
_0-0_立面本体
  6
CONTINUOUS
 62
    7
 10
2246.8570920036454
 20
1045.2410513398283
 40
7.0000000000000017
 50
45.585000000000007
 51
134.41500000000002
  0
ARC
  8
_0-0_立面本体
  6
CONTINUOUS
 62
    7
 10
2246.8570920036454
 20
1045.2410513398283
 40
11
 50
27.036000000000012
 51
152.96400000000005
  0
LINE
  8
_0-0_立面本体
  6
DASHED1
 62
    7
 10
1370.8194627124025
 20
1045.2410513398285
 11
1348.5385377124025
 21
1045.2410513398285
  0
LINE
  8
_0-0_立面本体
  6
DASHED1
 62
    7
 10
1360.8247627124026
 20
1041.6410513398286
 11
1360.8247627124026
 21
1048.8410513398287
  0
LINE
  8
_0-0_立面本体
  6
DASHED1
 62
    7
 10
1360.0247627124026
 20
1047.7410513398285
 11
1360.0247627124026
 21
1042.7410513398285
  0
LINE
  8
_0-0_立面本体
  6
DASHED1
 62
    7
 10
1352.0247627124026
 20
1043.2410513398285
 11
1359.5247627124026
 21
1043.2410513398285
  0
LINE
  8
_0-0_立面本体
  6
DASHED1
 62
    7
 10
1360.0247627124026
 20
1042.7410513398285
 11
1360.0247627124026
 21
1041.6410513398286
  0
LINE
  8
_0-0_立面本体
  6
DASHED1
 62
    7
 10
1361.3247627124023
 20
1042.8410513398284
 11
1369.3247627124026
 21
1042.8410513398284
  0
LINE
  8
_0-0_立面本体
  6
DASHED1
 62
    7
 10
1369.8247627124028
 20
1043.3410513398284
 11
1369.8247627124028
 21
1047.1410513398286
  0
LINE
  8
_0-0_立面本体
  6
DASHED1
 62
    7
 10
1369.3247627124026
 20
1047.6410513398286
 11
1361.3247627124023
 21
1047.6410513398286
  0
LINE
  8
_0-0_立面本体
  6
DASHED1
 62
    7
 10
1360.0247627124026
 20
1048.8410513398287
 11
1360.0247627124026
 21
1047.7410513398285
  0
LINE
  8
_0-0_立面本体
  6
DASHED1
 62
    7
 10
1359.5247627124026
 20
1047.2410513398288
 11
1352.0247627124026
 21
1047.2410513398288
  0
LINE
  8
_0-0_立面本体
  6
DASHED1
 62
    7
 10
1352.0247627124026
 20
1047.2410513398288
 11
1352.0247627124026
 21
1043.2410513398285
  0
LINE
  8
_0-0_立面本体
  6
DASHED1
 62
    7
 10
1351.6247627124027
 20
1046.7410513398285
 11
1351.6247627124027
 21
1047.2410513398288
  0
LINE
  8
_0-0_立面本体
  6
DASHED1
 62
    7
 10
1350.8247627124026
 20
1049.3410513398284
 11
1350.8247627124026
 21
1040.7410513398285
  0
LINE
  8
_0-0_立面本体
  6
DASHED1
 62
    7
 10
1351.6247627124027
 20
1046.7410513398285
 11
1350.8247627124026
 21
1046.7410513398285
  0
LINE
  8
_0-0_立面本体
  6
DASHED1
 62
    7
 10
1351.6247627124027
 20
1043.7410513398285
 11
1350.8247627124026
 21
1043.7410513398285
  0
LINE
  8
_0-0_立面本体
  6
DASHED1
 62
    7
 10
1360.8247627124026
 20
1043.2410513398285
 11
1352.0247627124026
 21
1043.2410513398285
  0
LINE
  8
_0-0_立面本体
  6
DASHED1
 62
    7
 10
1360.8247627124026
 20
1040.7410513398285
 11
1360.8247627124026
 21
1043.2410513398285
  0
LINE
  8
_0-0_立面本体
  6
DASHED1
 62
    7
 10
1352.0247627124026
 20
1043.2410513398285
 11
1351.6247627124027
 21
1043.2410513398285
  0
LINE
  8
_0-0_立面本体
  6
DASHED1
 62
    7
 10
1360.8247627124026
 20
1047.2410513398288
 11
1351.6247627124027
 21
1047.2410513398288
  0
LINE
  8
_0-0_立面本体
  6
DASHED1
 62
    7
 10
1351.6247627124027
 20
1043.2410513398285
 11
1351.6247627124027
 21
1043.7410513398285
  0
LINE
  8
_0-0_立面本体
  6
DASHED1
 62
    7
 10
1360.8247627124026
 20
1048.1747013398285
 11
1350.8247627124026
 21
1048.1747013398285
  0
LINE
  8
_0-0_立面本体
  6
DASHED1
 62
    7
 10
1351.6247627124027
 20
1047.2410513398288
 11
1350.8247627124026
 21
1047.2410513398288
  0
LINE
  8
_0-0_立面本体
  6
DASHED1
 62
    7
 10
1350.8247627124026
 20
1050.2410513398285
 11
1350.8247627124026
 21
1049.3410513398284
  0
LINE
  8
_0-0_立面本体
  6
DASHED1
 62
    7
 10
1360.8247627124026
 20
1043.2410513398285
 11
1360.8247627124026
 21
1050.2410513398285
  0
LINE
  8
_0-0_立面本体
  6
DASHED1
 62
    7
 10
1360.3247627124028
 20
1070.7410513398285
 11
1351.3247627124023
 21
1070.7410513398285
  0
LINE
  8
_0-0_立面本体
  6
DASHED1
 62
    7
 10
1351.3247627124023
 20
1040.2410513398285
 11
1360.3247627124028
 21
1040.2410513398285
  0
LINE
  8
_0-0_立面本体
  6
DASHED1
 62
    7
 10
1362.3021627124026
 20
1045.2410513398285
 11
1349.2283377124026
 21
1045.2410513398285
  0
LINE
  8
_0-0_立面本体
  6
DASHED1
 62
    7
 10
1350.8247627124026
 20
1070.2410513398285
 11
1350.8247627124026
 21
1050.2410513398285
  0
ARC
  8
_0-0_立面本体
  6
DASHED1
 62
    7
 10
1361.3247627124023
 20
1048.1410513398284
 40
0.5
 50
179.99999999999991
 51
269.99999999999994
  0
ARC
  8
_0-0_立面本体
  6
DASHED1
 62
    7
 10
1361.3247627124023
 20
1042.3410513398287
 40
0.5
 50
89.999999999999971
 51
180
  0
ARC
  8
_0-0_立面本体
  6
DASHED1
 62
    7
 10
1359.5247627124026
 20
1042.7410513398285
 40
0.5
 50
359.99999999999994
 51
89.999999999999943
  0
ARC
  8
_0-0_立面本体
  6
DASHED1
 62
    7
 10
1359.5247627124026
 20
1047.7410513398285
 40
0.5
 50
269.99999999999988
 51
359.99999999999988
  0
ARC
  8
_0-0_立面本体
  6
DASHED1
 62
    7
 10
1369.3247627124026
 20
1047.1410513398286
 40
0.5
 50
359.99999999999994
 51
89.999999999999943
  0
ARC
  8
_0-0_立面本体
  6
DASHED1
 62
    7
 10
1369.3247627124026
 20
1043.3410513398284
 40
0.5
 50
269.99999999999988
 51
359.99999999999988
  0
ARC
  8
_0-0_立面本体
  6
DASHED1
 62
    7
 10
1360.4247627124027
 20
1041.6410513398286
 40
0.4
 50
179.99999999999991
 51
269.99999999999994
  0
ARC
  8
_0-0_立面本体
  6
DASHED1
 62
    7
 10
1360.4247627124027
 20
1041.6410513398286
 40
0.4
 50
269.99999999999988
 51
359.99999999999988
  0
ARC
  8
_0-0_立面本体
  6
DASHED1
 62
    7
 10
1360.4247627124027
 20
1048.8410513398287
 40
0.4
 50
359.99999999999994
 51
89.999999999999943
  0
ARC
  8
_0-0_立面本体
  6
DASHED1
 62
    7
 10
1360.4247627124027
 20
1048.8410513398287
 40
0.4
 50
89.999999999999971
 51
180
  0
ARC
  8
_0-0_立面本体
  6
DASHED1
 62
    7
 10
1360.3247627124028
 20
1070.2410513398285
 40
0.5
 50
359.99999999999994
 51
89.999999999999943
  0
ARC
  8
_0-0_立面本体
  6
DASHED1
 62
    7
 10
1351.3247627124023
 20
1070.2410513398285
 40
0.5
 50
89.999999999999971
 51
180
  0
ARC
  8
_0-0_立面本体
  6
DASHED1
 62
    7
 10
1351.3247627124023
 20
1040.7410513398285
 40
0.5
 50
179.99999999999991
 51
269.99999999999994
  0
ARC
  8
_0-0_立面本体
  6
DASHED1
 62
    7
 10
1360.3247627124028
 20
1040.7410513398285
 40
0.5
 50
269.99999999999988
 51
359.99999999999988
  0
LINE
  8
_0-0_立面本体
  6
DASHED1
 62
    7
 10
1360.8247627124026
 20
1050.2410513398285
 11
1360.8247627124026
 21
1070.2410513398285
  0
LINE
  8
_0-0_立面本体
  6
DASHED1
 62
    7
 10
474.83006271240242
 20
1045.2410513398285
 11
497.11098771240244
 21
1045.2410513398285
  0
LINE
  8
_0-0_立面本体
  6
DASHED1
 62
    7
 10
484.82476271240244
 20
1041.6410513398286
 11
484.82476271240244
 21
1048.8410513398287
  0
LINE
  8
_0-0_立面本体
  6
DASHED1
 62
    7
 10
485.62476271240257
 20
1047.7410513398285
 11
485.62476271240257
 21
1042.7410513398285
  0
LINE
  8
_0-0_立面本体
  6
DASHED1
 62
    7
 10
493.6247627124024
 20
1043.2410513398285
 11
486.1247627124024
 21
1043.2410513398285
  0
LINE
  8
_0-0_立面本体
  6
DASHED1
 62
    7
 10
485.62476271240257
 20
1042.7410513398285
 11
485.62476271240257
 21
1041.6410513398286
  0
LINE
  8
_0-0_立面本体
  6
DASHED1
 62
    7
 10
484.32476271240261
 20
1042.8410513398284
 11
476.3247627124025
 21
1042.8410513398284
  0
LINE
  8
_0-0_立面本体
  6
DASHED1
 62
    7
 10
475.82476271240238
 20
1043.3410513398284
 11
475.82476271240238
 21
1047.1410513398286
  0
LINE
  8
_0-0_立面本体
  6
DASHED1
 62
    7
 10
476.3247627124025
 20
1047.6410513398286
 11
484.32476271240261
 21
1047.6410513398286
  0
LINE
  8
_0-0_立面本体
  6
DASHED1
 62
    7
 10
485.62476271240257
 20
1048.8410513398287
 11
485.62476271240257
 21
1047.7410513398285
  0
LINE
  8
_0-0_立面本体
  6
DASHED1
 62
    7
 10
486.1247627124024
 20
1047.2410513398288
 11
493.6247627124024
 21
1047.2410513398288
  0
LINE
  8
_0-0_立面本体
  6
DASHED1
 62
    7
 10
493.6247627124024
 20
1047.2410513398288
 11
493.6247627124024
 21
1043.2410513398285
  0
LINE
  8
_0-0_立面本体
  6
DASHED1
 62
    7
 10
494.02476271240232
 20
1046.7410513398285
 11
494.02476271240232
 21
1047.2410513398288
  0
LINE
  8
_0-0_立面本体
  6
DASHED1
 62
    7
 10
494.82476271240244
 20
1049.3410513398284
 11
494.82476271240244
 21
1040.7410513398285
  0
LINE
  8
_0-0_立面本体
  6
DASHED1
 62
    7
 10
494.02476271240232
 20
1046.7410513398285
 11
494.82476271240244
 21
1046.7410513398285
  0
LINE
  8
_0-0_立面本体
  6
DASHED1
 62
    7
 10
494.02476271240232
 20
1043.7410513398285
 11
494.82476271240244
 21
1043.7410513398285
  0
LINE
  8
_0-0_立面本体
  6
DASHED1
 62
    7
 10
484.82476271240244
 20
1043.2410513398285
 11
493.6247627124024
 21
1043.2410513398285
  0
LINE
  8
_0-0_立面本体
  6
DASHED1
 62
    7
 10
484.82476271240244
 20
1040.7410513398285
 11
484.82476271240244
 21
1043.2410513398285
  0
LINE
  8
_0-0_立面本体
  6
DASHED1
 62
    7
 10
493.6247627124024
 20
1043.2410513398285
 11
494.02476271240232
 21
1043.2410513398285
  0
LINE
  8
_0-0_立面本体
  6
DASHED1
 62
    7
 10
484.82476271240244
 20
1047.2410513398288
 11
494.02476271240232
 21
1047.2410513398288
  0
LINE
  8
_0-0_立面本体
  6
DASHED1
 62
    7
 10
494.02476271240232
 20
1043.2410513398285
 11
494.02476271240232
 21
1043.7410513398285
  0
LINE
  8
_0-0_立面本体
  6
DASHED1
 62
    7
 10
484.82476271240244
 20
1048.1747013398285
 11
494.82476271240244
 21
1048.1747013398285
  0
LINE
  8
_0-0_立面本体
  6
DASHED1
 62
    7
 10
494.02476271240232
 20
1047.2410513398288
 11
494.82476271240244
 21
1047.2410513398288
  0
LINE
  8
_0-0_立面本体
  6
DASHED1
 62
    7
 10
494.82476271240244
 20
1050.2410513398285
 11
494.82476271240244
 21
1049.3410513398284
  0
LINE
  8
_0-0_立面本体
  6
DASHED1
 62
    7
 10
484.82476271240244
 20
1043.2410513398285
 11
484.82476271240244
 21
1050.2410513398285
  0
LINE
  8
_0-0_立面本体
  6
DASHED1
 62
    7
 10
485.32476271240227
 20
1070.7410513398285
 11
494.32476271240261
 21
1070.7410513398285
  0
LINE
  8
_0-0_立面本体
  6
DASHED1
 62
    7
 10
494.32476271240261
 20
1040.2410513398285
 11
485.32476271240227
 21
1040.2410513398285
  0
LINE
  8
_0-0_立面本体
  6
DASHED1
 62
    7
 10
483.34736271240245
 20
1045.2410513398285
 11
496.42118771240234
 21
1045.2410513398285
  0
LINE
  8
_0-0_立面本体
  6
DASHED1
 62
    7
 10
494.82476271240244
 20
1070.2410513398285
 11
494.82476271240244
 21
1050.2410513398285
  0
ARC
  8
_0-0_立面本体
  6
DASHED1
 62
    7
 10
484.32476271240261
 20
1048.1410513398284
 40
0.5
 50
270.00000000000005
 51
0.0000000000000508
  0
ARC
  8
_0-0_立面本体
  6
DASHED1
 62
    7
 10
484.32476271240261
 20
1042.3410513398287
 40
0.5
 50
0
 51
90.000000000000028
  0
ARC
  8
_0-0_立面本体
  6
DASHED1
 62
    7
 10
486.1247627124024
 20
1042.7410513398285
 40
0.5
 50
90.000000000000028
 51
180.00000000000005
  0
ARC
  8
_0-0_立面本体
  6
DASHED1
 62
    7
 10
486.1247627124024
 20
1047.7410513398285
 40
0.5
 50
180.00000000000005
 51
270.00000000000005
  0
ARC
  8
_0-0_立面本体
  6
DASHED1
 62
    7
 10
476.3247627124025
 20
1047.1410513398286
 40
0.5
 50
90.000000000000028
 51
180.00000000000005
  0
ARC
  8
_0-0_立面本体
  6
DASHED1
 62
    7
 10
476.3247627124025
 20
1043.3410513398284
 40
0.5
 50
180.00000000000005
 51
270.00000000000005
  0
ARC
  8
_0-0_立面本体
  6
DASHED1
 62
    7
 10
485.22476271240236
 20
1041.6410513398286
 40
0.4
 50
270.00000000000005
 51
0.0000000000000508
  0
ARC
  8
_0-0_立面本体
  6
DASHED1
 62
    7
 10
485.22476271240236
 20
1041.6410513398286
 40
0.4
 50
180.00000000000005
 51
270.00000000000005
  0
ARC
  8
_0-0_立面本体
  6
DASHED1
 62
    7
 10
485.22476271240236
 20
1048.8410513398287
 40
0.4
 50
90.000000000000028
 51
180.00000000000005
  0
ARC
  8
_0-0_立面本体
  6
DASHED1
 62
    7
 10
485.22476271240236
 20
1048.8410513398287
 40
0.4
 50
0
 51
90.000000000000028
  0
ARC
  8
_0-0_立面本体
  6
DASHED1
 62
    7
 10
485.32476271240227
 20
1070.2410513398285
 40
0.5
 50
90.000000000000028
 51
180.00000000000005
  0
ARC
  8
_0-0_立面本体
  6
DASHED1
 62
    7
 10
494.32476271240261
 20
1070.2410513398285
 40
0.5
 50
0
 51
90.000000000000028
  0
ARC
  8
_0-0_立面本体
  6
DASHED1
 62
    7
 10
494.32476271240261
 20
1040.7410513398285
 40
0.5
 50
270.00000000000005
 51
0.0000000000000508
  0
ARC
  8
_0-0_立面本体
  6
DASHED1
 62
    7
 10
485.32476271240227
 20
1040.7410513398285
 40
0.5
 50
180.00000000000005
 51
270.00000000000005
  0
LINE
  8
_0-0_立面本体
  6
DASHED1
 62
    7
 10
484.82476271240244
 20
1050.2410513398285
 11
484.82476271240244
 21
1070.2410513398285
  0
LINE
  8
_0-3_断面__扉
  6
DASHED1
 62
    4
 10
484.82476271240244
 20
2527.7744603287765
 11
1360.8247627124028
 21
2527.7744603287765
  0
LINE
  8
_0-3_断面__扉
  6
CONTINUOUS
 62
    4
 10
1945.8570920036454
 20
1345.2410513398303
 11
2287.8570920036445
 21
1345.2410513398303
  0
LINE
  8
_0-3_断面__扉
  6
CONTINUOUS
 62
    4
 10
2287.8570920036445
 20
1327.2410513398303
 11
2287.8570920036445
 21
1331.2410513398301
  0
LINE
  8
_0-3_断面__扉
  6
CONTINUOUS
 62
    4
 10
2287.8570920036445
 20
1345.2410513398303
 11
2287.8570920036445
 21
1331.2410513398301
  0
LINE
  8
_0-3_断面__扉
  6
CONTINUOUS
 62
    4
 10
2272.8570920036445
 20
1260.2410513398299
 11
2287.8570920036445
 21
1260.2410513398299
  0
LINE
  8
_0-3_断面__扉
  6
CONTINUOUS
 62
    4
 10
2287.8570920036445
 20
1345.2410513398303
 11
2272.8570920036445
 21
1260.2410513398299
  0
LINE
  8
_0-3_断面__扉
  6
CONTINUOUS
 62
    5
 10
2287.8570920036445
 20
752.24105133982993
 11
2287.8570920036445
 21
745.2410513398297
  0
LINE
  8
_0-3_断面__扉
  6
CONTINUOUS
 62
    5
 10
1945.8570920036454
 20
745.2410513398297
 11
2287.8570920036445
 21
745.2410513398297
  0
LINE
  8
_0-3_断面__扉
  6
CONTINUOUS
 62
    5
 10
1945.8570920036454
 20
760.2410513398297
 11
1945.8570920036454
 21
745.2410513398297
  0
LINE
  8
_0-3_断面__扉
  6
CONTINUOUS
 62
    4
 10
2287.8570920036445
 20
797.24105133982993
 11
2272.8570920036445
 21
752.24105133982993
  0
LINE
  8
_0-3_断面__扉
  6
CONTINUOUS
 62
    4
 10
2272.8570920036445
 20
797.24105133982993
 11
2287.8570920036445
 21
797.24105133982993
  0
LINE
  8
_0-3_断面__扉
  6
CONTINUOUS
 62
    4
 10
1945.8570920036454
 20
1345.2410513398303
 11
1945.8570920036454
 21
760.2410513398297
  0
LINE
  8
_0-3_断面__扉
  6
CONTINUOUS
 62
    4
 10
2272.8570920036445
 20
752.24105133982993
 11
2272.8570920036445
 21
1345.2410513398303
  0
LINE
  8
_0-3_断面__扉
  6
CONTINUOUS
 62
    4
 10
2287.8570920036445
 20
1327.2410513398303
 11
2287.8570920036445
 21
752.24105133982993
  0
LINE
  8
_0-3_断面__扉
  6
CONTINUOUS
 62
    4
 10
2269.857092003644
 20
752.24105133982993
 11
2269.857092003644
 21
1345.2410513398303
  0
LINE
  8
_0-3_断面__扉
  6
CONTINUOUS
 62
    5
 10
2269.857092003644
 20
760.2410513398297
 11
2269.857092003644
 21
752.24105133982993
  0
LINE
  8
_0-3_断面__扉
  6
CONTINUOUS
 62
    5
 10
1945.8570920036454
 20
760.2410513398297
 11
2269.857092003644
 21
760.2410513398297
  0
LINE
  8
_0-3_断面__扉
  6
CONTINUOUS
 62
    5
 10
2269.857092003644
 20
752.24105133982993
 11
2287.8570920036445
 21
752.24105133982993
  0
LINE
  8
_0-3_断面__扉
  6
CONTINUOUS
 62
    4
 10
1945.8570920036454
 20
1330.2410513398303
 11
2269.857092003644
 21
1330.2410513398303
  0
LINE
  8
_0-3_断面__扉
  6
CONTINUOUS
 62
    7
 10
2272.357092003644
 20
752.24105133982993
 11
2272.357092003644
 21
1345.2410513398303
  0
CIRCLE
  8
_0-3_断面__扉
  6
CONTINUOUS
 62
    4
 10
1994.8570920036449
 20
1165.2410513398297
 40
2.5
  0
CIRCLE
  8
_0-3_断面__扉
  6
CONTINUOUS
 62
    7
 10
1994.8570920036449
 20
1165.2410513398297
 40
2.5
  0
LINE
  8
_0-3_断面__扉
  6
CENTER2
 62
    4
 10
1994.8570920036449
 20
1175.2410513398297
 11
1994.8570920036449
 21
1155.2410513398297
  0
LINE
  8
_0-3_断面__扉
  6
CENTER2
 62
    4
 10
1984.8570920036449
 20
1165.2410513398297
 11
2007.3570920036449
 21
1165.2410513398297
  0
CIRCLE
  8
_0-3_断面__扉
  6
CONTINUOUS
 62
    4
 10
2246.8570920036454
 20
1165.2410513398297
 40
2.5
  0
CIRCLE
  8
_0-3_断面__扉
  6
CONTINUOUS
 62
    7
 10
2246.8570920036454
 20
1165.2410513398297
 40
2.5
  0
LINE
  8
_0-3_断面__扉
  6
CENTER2
 62
    4
 10
2246.8570920036454
 20
1175.2410513398297
 11
2246.8570920036454
 21
1155.2410513398297
  0
LINE
  8
_0-3_断面__扉
  6
CENTER2
 62
    4
 10
2236.8570920036454
 20
1165.2410513398297
 11
2259.3570920036454
 21
1165.2410513398297
  0
CIRCLE
  8
_0-3_断面__扉
  6
CONTINUOUS
 62
    4
 10
1994.8570920036449
 20
1105.2410513398297
 40
2.5
  0
CIRCLE
  8
_0-3_断面__扉
  6
CONTINUOUS
 62
    7
 10
1994.8570920036449
 20
1105.2410513398297
 40
2.5
  0
LINE
  8
_0-3_断面__扉
  6
CENTER2
 62
    4
 10
1994.8570920036449
 20
1115.2410513398297
 11
1994.8570920036449
 21
1095.2410513398297
  0
LINE
  8
_0-3_断面__扉
  6
CENTER2
 62
    4
 10
1984.8570920036449
 20
1105.2410513398297
 11
2007.3570920036449
 21
1105.2410513398297
  0
CIRCLE
  8
_0-3_断面__扉
  6
CONTINUOUS
 62
    4
 10
2246.8570920036454
 20
1105.2410513398297
 40
2.5
  0
CIRCLE
  8
_0-3_断面__扉
  6
CONTINUOUS
 62
    7
 10
2246.8570920036454
 20
1105.2410513398297
 40
2.5
  0
LINE
  8
_0-3_断面__扉
  6
CENTER2
 62
    4
 10
2246.8570920036454
 20
1115.2410513398297
 11
2246.8570920036454
 21
1095.2410513398297
  0
LINE
  8
_0-3_断面__扉
  6
CENTER2
 62
    4
 10
2236.8570920036454
 20
1105.2410513398297
 11
2259.3570920036454
 21
1105.2410513398297
  0
CIRCLE
  8
_0-3_断面__扉
  6
CONTINUOUS
 62
    4
 10
1994.8570920036449
 20
1045.2410513398297
 40
2.5
  0
CIRCLE
  8
_0-3_断面__扉
  6
CONTINUOUS
 62
    7
 10
1994.8570920036449
 20
1045.2410513398297
 40
2.5
  0
LINE
  8
_0-3_断面__扉
  6
CENTER2
 62
    4
 10
1994.8570920036449
 20
1055.2410513398297
 11
1994.8570920036449
 21
1035.2410513398297
  0
LINE
  8
_0-3_断面__扉
  6
CENTER2
 62
    4
 10
1984.8570920036449
 20
1045.2410513398297
 11
2007.3570920036449
 21
1045.2410513398297
  0
CIRCLE
  8
_0-3_断面__扉
  6
CONTINUOUS
 62
    4
 10
2246.8570920036454
 20
1045.2410513398297
 40
2.5
  0
CIRCLE
  8
_0-3_断面__扉
  6
CONTINUOUS
 62
    7
 10
2246.8570920036454
 20
1045.2410513398297
 40
2.5
  0
LINE
  8
_0-3_断面__扉
  6
CENTER2
 62
    4
 10
2246.8570920036454
 20
1055.2410513398297
 11
2246.8570920036454
 21
1035.2410513398297
  0
LINE
  8
_0-3_断面__扉
  6
CENTER2
 62
    4
 10
2236.8570920036454
 20
1045.2410513398297
 11
2259.3570920036454
 21
1045.2410513398297
  0
CIRCLE
  8
_0-3_断面__扉
  6
CONTINUOUS
 62
    4
 10
1994.8570920036449
 20
985.24105133982959
 40
2.5
  0
CIRCLE
  8
_0-3_断面__扉
  6
CONTINUOUS
 62
    7
 10
1994.8570920036449
 20
985.24105133982959
 40
2.5
  0
LINE
  8
_0-3_断面__扉
  6
CENTER2
 62
    4
 10
1994.8570920036449
 20
995.2410513398297
 11
1994.8570920036449
 21
975.24105133982959
  0
LINE
  8
_0-3_断面__扉
  6
CENTER2
 62
    4
 10
1984.8570920036449
 20
985.24105133982959
 11
2007.3570920036449
 21
985.24105133982959
  0
CIRCLE
  8
_0-3_断面__扉
  6
CONTINUOUS
 62
    4
 10
2246.8570920036454
 20
985.24105133982959
 40
2.5
  0
CIRCLE
  8
_0-3_断面__扉
  6
CONTINUOUS
 62
    7
 10
2246.8570920036454
 20
985.24105133982959
 40
2.5
  0
LINE
  8
_0-3_断面__扉
  6
CENTER2
 62
    4
 10
2246.8570920036454
 20
995.2410513398297
 11
2246.8570920036454
 21
975.24105133982959
  0
LINE
  8
_0-3_断面__扉
  6
CENTER2
 62
    4
 10
2236.8570920036454
 20
985.24105133982959
 11
2259.3570920036454
 21
985.24105133982959
  0
CIRCLE
  8
_0-3_断面__扉
  6
CONTINUOUS
 62
    4
 10
1996.2972550826812
 20
925.24105133982959
 40
2.5
  0
CIRCLE
  8
_0-3_断面__扉
  6
CONTINUOUS
 62
    7
 10
1996.2972550826812
 20
925.24105133982959
 40
2.5
  0
LINE
  8
_0-3_断面__扉
  6
CENTER2
 62
    4
 10
1996.2972550826812
 20
935.24105133982959
 11
1996.2972550826812
 21
915.24105133982959
  0
LINE
  8
_0-3_断面__扉
  6
CENTER2
 62
    4
 10
1986.2972550826812
 20
925.24105133982959
 11
2008.7972550826812
 21
925.24105133982959
  0
CIRCLE
  8
_0-3_断面__扉
  6
CONTINUOUS
 62
    4
 10
2248.2972550826807
 20
925.24105133982959
 40
2.5
  0
CIRCLE
  8
_0-3_断面__扉
  6
CONTINUOUS
 62
    7
 10
2248.2972550826807
 20
925.24105133982959
 40
2.5
  0
LINE
  8
_0-3_断面__扉
  6
CENTER2
 62
    4
 10
2248.2972550826807
 20
935.24105133982959
 11
2248.2972550826807
 21
915.24105133982959
  0
LINE
  8
_0-3_断面__扉
  6
CENTER2
 62
    4
 10
2238.2972550826807
 20
925.24105133982959
 11
2260.7972550826807
 21
925.24105133982959
  0
LINE
  8
_0-6_平面扉
  6
CONTINUOUS
 62
    7
 10
1976.3570920036454
 20
1050.241051339829
 11
2265.3570920036454
 21
1050.241051339829
  0
LINE
  8
_0-6_平面扉
  6
CONTINUOUS
 62
    7
 10
2265.3570920036454
 20
1050.241051339829
 11
2265.3570920036454
 21
1065.241051339829
  0
LINE
  8
_0-6_平面扉
  6
CONTINUOUS
 62
    7
 10
2265.3570920036454
 20
1065.241051339829
 11
1976.3570920036454
 21
1065.241051339829
  0
LINE
  8
_0-6_平面扉
  6
CONTINUOUS
 62
    7
 10
1976.3570920036454
 20
1065.241051339829
 11
1976.3570920036454
 21
1050.241051339829
  0
LINE
  8
_0-6_平面扉
  6
DASHED1
 62
    7
 10
1358.824762712403
 20
2234.7744603287769
 11
1358.824762712403
 21
2523.7744603287769
  0
LINE
  8
_0-6_平面扉
  6
DASHED1
 62
    7
 10
1358.824762712403
 20
2234.7744603287769
 11
1358.824762712403
 21
2523.7744603287769
  0
LINE
  8
_0-6_平面扉
  6
DASHED1
 62
    7
 10
1358.8247627124032
 20
1050.2410513398288
 11
1358.8247627124032
 21
1065.2410513398288
  0
LINE
  8
_0-6_平面扉
  6
DASHED1
 62
    7
 10
486.82476271240204
 20
2234.7744603287769
 11
486.82476271240204
 21
2523.7744603287769
  0
LINE
  8
_0-6_平面扉
  6
DASHED1
 62
    7
 10
486.82476271240233
 20
1065.2410513398288
 11
486.82476271240233
 21
1050.2410513398288
  0
LINE
  8
_0-6_平面扉
  6
DASHED1
 62
    7
 10
1358.8247627124032
 20
1065.2410513398288
 11
486.82476271240204
 21
1065.2410513398288
  0
LINE
  8
_0-6_平面扉
  6
DASHED1
 62
    7
 10
1358.8247627124032
 20
1050.2410513398288
 11
486.82476271240204
 21
1050.2410513398288
  0
LINE
  8
_0-6_平面扉
  6
DASHED1
 62
    7
 10
486.82476271240204
 20
2523.7744603287769
 11
1358.824762712403
 21
2523.7744603287769
  0
LINE
  8
_0-6_平面扉
  6
DASHED1
 62
    7
 10
486.82476271240204
 20
2234.7744603287769
 11
1358.824762712403
 21
2234.7744603287769
  0
LINE
  8
_0-b_ラッチ断面__扉側
  6
DASHED1
 62
    7
 10
2024.3570920036449
 20
1327.6646013398299
 11
2023.2504420036448
 21
1328.3035513398299
  0
LINE
  8
_0-b_ラッチ断面__扉側
  6
DASHED1
 62
    7
 10
2024.3570920036449
 20
1326.7986013398299
 11
2022.3570920036447
 21
1327.9533013398299
  0
LINE
  8
_0-b_ラッチ断面__扉側
  6
DASHED1
 62
    7
 10
2024.3570920036449
 20
1325.93255133983
 11
2022.3570920036447
 21
1327.0872513398298
  0
LINE
  8
_0-b_ラッチ断面__扉側
  6
DASHED1
 62
    7
 10
2024.3570920036449
 20
1325.06655133983
 11
2022.3570920036447
 21
1326.2212513398299
  0
LINE
  8
_0-b_ラッチ断面__扉側
  6
DASHED1
 62
    7
 10
2024.3570920036449
 20
1324.2005013398302
 11
2022.3570920036447
 21
1325.35520133983
  0
LINE
  8
_0-b_ラッチ断面__扉側
  6
DASHED1
 62
    7
 10
2024.3570920036449
 20
1323.33450133983
 11
2022.3570920036447
 21
1324.4892013398298
  0
LINE
  8
_0-b_ラッチ断面__扉側
  6
DASHED1
 62
    7
 10
2024.3570920036449
 20
1322.4684513398301
 11
2022.3570920036447
 21
1323.6231513398299
  0
LINE
  8
_0-b_ラッチ断面__扉側
  6
DASHED1
 62
    7
 10
2024.3570920036449
 20
1321.6024513398301
 11
2022.3570920036447
 21
1322.7571513398299
  0
LINE
  8
_0-b_ラッチ断面__扉側
  6
DASHED1
 62
    7
 10
2024.3570920036449
 20
1320.7364013398298
 11
2022.3570920036447
 21
1321.8911013398301
  0
LINE
  8
_0-b_ラッチ断面__扉側
  6
DASHED1
 62
    7
 10
2024.3570920036449
 20
1319.8704013398298
 11
2022.3570920036447
 21
1321.0251013398301
  0
LINE
  8
_0-b_ラッチ断面__扉側
  6
DASHED1
 62
    7
 10
2024.3570920036449
 20
1319.00435133983
 11
2022.3570920036447
 21
1320.15905133983
  0
LINE
  8
_0-b_ラッチ断面__扉側
  6
DASHED1
 62
    7
 10
2024.3570920036449
 20
1318.13835133983
 11
2022.3570920036447
 21
1319.29305133983
  0
LINE
  8
_0-b_ラッチ断面__扉側
  6
DASHED1
 62
    7
 10
2024.3570920036449
 20
1317.2723013398299
 11
2022.3570920036447
 21
1318.4270013398299
  0
LINE
  8
_0-b_ラッチ断面__扉側
  6
DASHED1
 62
    7
 10
2024.3570920036449
 20
1316.4063013398299
 11
2022.3570920036447
 21
1317.5610013398299
  0
LINE
  8
_0-b_ラッチ断面__扉側
  6
DASHED1
 62
    7
 10
2024.3570920036449
 20
1315.54025133983
 11
2022.3570920036447
 21
1316.6949513398299
  0
LINE
  8
_0-b_ラッチ断面__扉側
  6
DASHED1
 62
    7
 10
2024.3570920036449
 20
1314.6742513398298
 11
2022.3570920036447
 21
1315.8289513398301
  0
LINE
  8
_0-b_ラッチ断面__扉側
  6
DASHED1
 62
    7
 10
2024.3570920036449
 20
1313.80820133983
 11
2022.3570920036447
 21
1314.9629013398298
  0
LINE
  8
_0-b_ラッチ断面__扉側
  6
DASHED1
 62
    7
 10
2024.3570920036449
 20
1312.94220133983
 11
2022.3570920036447
 21
1314.0969013398298
  0
LINE
  8
_0-b_ラッチ断面__扉側
  6
DASHED1
 62
    7
 10
2024.3570920036449
 20
1312.0761513398297
 11
2022.3570920036447
 21
1313.2308513398299
  0
LINE
  8
_0-b_ラッチ断面__扉側
  6
DASHED1
 62
    7
 10
2024.3570920036449
 20
1311.2101513398301
 11
2022.3570920036447
 21
1312.36485133983
  0
LINE
  8
_0-b_ラッチ断面__扉側
  6
DASHED1
 62
    7
 10
2024.3570920036449
 20
1310.3441013398298
 11
2022.3570920036447
 21
1311.4988013398301
  0
LINE
  8
_0-b_ラッチ断面__扉側
  6
DASHED1
 62
    7
 10
2024.3570920036449
 20
1309.4781013398301
 11
2022.3570920036447
 21
1310.6328013398299
  0
LINE
  8
_0-b_ラッチ断面__扉側
  6
DASHED1
 62
    7
 10
2024.3570920036449
 20
1308.61205133983
 11
2022.3570920036447
 21
1309.76675133983
  0
LINE
  8
_0-b_ラッチ断面__扉側
  6
DASHED1
 62
    7
 10
2024.3570920036449
 20
1307.74605133983
 11
2022.3570920036447
 21
1308.90075133983
  0
LINE
  8
_0-b_ラッチ断面__扉側
  6
DASHED1
 62
    7
 10
2024.3570920036449
 20
1306.8800013398299
 11
2022.3570920036447
 21
1308.03470133983
  0
LINE
  8
_0-b_ラッチ断面__扉側
  6
DASHED1
 62
    7
 10
2024.2470420036447
 20
1306.07755133983
 11
2022.3570920036447
 21
1307.16870133983
  0
LINE
  8
_0-b_ラッチ断面__扉側
  6
DASHED1
 62
    7
 10
2024.1262920036447
 20
1305.2812013398302
 11
2022.2849920036449
 21
1306.3443013398298
  0
LINE
  8
_0-b_ラッチ断面__扉側
  6
DASHED1
 62
    7
 10
2023.853542003645
 20
1304.5726513398301
 11
2022.096992003645
 21
1305.5868013398298
  0
LINE
  8
_0-b_ラッチ断面__扉側
  6
DASHED1
 62
    7
 10
2023.5086920036449
 20
1303.9057513398299
 11
2021.7966920036449
 21
1304.8941513398301
  0
LINE
  8
_0-b_ラッチ断面__扉側
  6
DASHED1
 62
    7
 10
2023.1638420036449
 20
1303.2388013398301
 11
2021.248642003645
 21
1304.3445513398298
  0
LINE
  8
_0-b_ラッチ断面__扉側
  6
DASHED1
 62
    7
 10
2022.661292003645
 20
1302.6629513398299
 11
2020.7536420036449
 21
1303.7643013398301
  0
LINE
  8
_0-b_ラッチ断面__扉側
  6
DASHED1
 62
    7
 10
2022.0836920036449
 20
1302.1303513398299
 11
2019.5320920036447
 21
1303.6035513398301
  0
LINE
  8
_0-b_ラッチ断面__扉側
  6
DASHED1
 62
    7
 10
2021.4147420036447
 20
1301.6505513398301
 11
2018.0320920036451
 21
1303.6035513398301
  0
LINE
  8
_0-b_ラッチ断面__扉側
  6
DASHED1
 62
    7
 10
2020.5263420036449
 20
1301.2974513398298
 11
2016.5320920036449
 21
1303.6035513398301
  0
LINE
  8
_0-b_ラッチ断面__扉側
  6
DASHED1
 62
    7
 10
2019.6120420036447
 20
1300.9593013398298
 11
2015.0320920036449
 21
1303.6035513398301
  0
LINE
  8
_0-b_ラッチ断面__扉側
  6
DASHED1
 62
    7
 10
2016.881842003645
 20
1300.8035513398299
 11
2012.5670420036449
 21
1303.2947013398299
  0
LINE
  8
_0-b_ラッチ断面__扉側
  6
DASHED1
 62
    7
 10
2018.331692003645
 20
1300.83250133983
 11
2013.591592003645
 21
1303.5692013398302
  0
LINE
  8
_0-b_ラッチ断面__扉側
  6
DASHED1
 62
    7
 10
2015.381842003645
 20
1300.8035513398299
 11
2011.5425420036449
 21
1303.0201513398299
  0
LINE
  8
_0-b_ラッチ断面__扉側
  6
DASHED1
 62
    7
 10
2012.3818420036448
 20
1300.8035513398299
 11
2009.4934920036448
 21
1302.47110133983
  0
LINE
  8
_0-b_ラッチ断面__扉側
  6
DASHED1
 62
    7
 10
2013.881842003645
 20
1300.8035513398299
 11
2010.5180420036449
 21
1302.7456513398301
  0
LINE
  8
_0-b_ラッチ断面__扉側
  6
DASHED1
 62
    7
 10
2010.8818420036448
 20
1300.8035513398299
 11
2008.1054920036449
 21
1302.40645133983
  0
LINE
  8
_0-b_ラッチ断面__扉側
  6
DASHED1
 62
    7
 10
2009.381842003645
 20
1300.8035513398299
 11
2006.6616920036449
 21
1302.3740513398299
  0
LINE
  8
_0-b_ラッチ断面__扉側
  6
DASHED1
 62
    7
 10
2007.881842003645
 20
1300.8035513398299
 11
2004.8059920036448
 21
1302.57935133983
  0
LINE
  8
_0-b_ラッチ断面__扉側
  6
DASHED1
 62
    7
 10
2006.381842003645
 20
1300.8035513398299
 11
2002.431992003645
 21
1303.0840013398301
  0
LINE
  8
_0-b_ラッチ断面__扉側
  6
DASHED1
 62
    7
 10
2004.8818420036448
 20
1300.8035513398299
 11
2000.0579920036448
 21
1303.5886013398298
  0
LINE
  8
_0-b_ラッチ断面__扉側
  6
DASHED1
 62
    7
 10
2003.3818420036448
 20
1300.8035513398299
 11
1997.6839920036447
 21
1304.0932013398298
  0
LINE
  8
_0-b_ラッチ断面__扉側
  6
DASHED1
 62
    7
 10
2001.881842003645
 20
1300.8035513398299
 11
1995.3099420036448
 21
1304.59780133983
  0
LINE
  8
_0-b_ラッチ断面__扉側
  6
DASHED1
 62
    7
 10
2000.381842003645
 20
1300.8035513398299
 11
1992.9359420036448
 21
1305.1024513398301
  0
LINE
  8
_0-b_ラッチ断面__扉側
  6
DASHED1
 62
    7
 10
1998.881842003645
 20
1300.8035513398299
 11
1981.0416920036448
 21
1311.1035513398301
  0
LINE
  8
_0-b_ラッチ断面__扉側
  6
DASHED1
 62
    7
 10
1997.3818420036448
 20
1300.8035513398299
 11
1978.3570920036447
 21
1311.7875013398297
  0
LINE
  8
_0-b_ラッチ断面__扉側
  6
DASHED1
 62
    7
 10
1995.8818420036448
 20
1300.8035513398299
 11
1978.3570920036447
 21
1310.9214513398299
  0
LINE
  8
_0-b_ラッチ断面__扉側
  6
DASHED1
 62
    7
 10
1994.381842003645
 20
1300.8035513398299
 11
1978.3570920036447
 21
1310.0554513398299
  0
LINE
  8
_0-b_ラッチ断面__扉側
  6
DASHED1
 62
    7
 10
1991.3570920036449
 20
1316.4063013398299
 11
1989.3570920036449
 21
1317.5610013398299
  0
LINE
  8
_0-b_ラッチ断面__扉側
  6
DASHED1
 62
    7
 10
1991.3570920036449
 20
1315.54025133983
 11
1989.3570920036449
 21
1316.6949513398299
  0
LINE
  8
_0-b_ラッチ断面__扉側
  6
DASHED1
 62
    7
 10
1991.3570920036449
 20
1314.6742513398298
 11
1989.3570920036449
 21
1315.8289513398301
  0
LINE
  8
_0-b_ラッチ断面__扉側
  6
DASHED1
 62
    7
 10
1991.3570920036449
 20
1313.80820133983
 11
1989.0862920036447
 21
1315.11925133983
  0
LINE
  8
_0-b_ラッチ断面__扉側
  6
DASHED1
 62
    7
 10
1991.3570920036449
 20
1312.94220133983
 11
1988.0486920036448
 21
1314.85230133983
  0
LINE
  8
_0-b_ラッチ断面__扉側
  6
DASHED1
 62
    7
 10
1991.3570920036449
 20
1312.0761513398297
 11
1986.6330920036448
 21
1314.8035513398301
  0
LINE
  8
_0-b_ラッチ断面__扉側
  6
DASHED1
 62
    7
 10
1991.3570920036449
 20
1311.2101513398301
 11
1985.1330920036448
 21
1314.8035513398301
  0
LINE
  8
_0-b_ラッチ断面__扉側
  6
DASHED1
 62
    7
 10
1991.3570920036449
 20
1310.3441013398298
 11
1983.6330920036448
 21
1314.8035513398301
  0
LINE
  8
_0-b_ラッチ断面__扉側
  6
DASHED1
 62
    7
 10
1991.3570920036449
 20
1309.4781013398301
 11
1988.5416920036448
 21
1311.1035513398301
  0
LINE
  8
_0-b_ラッチ断面__扉側
  6
DASHED1
 62
    7
 10
1991.3570920036449
 20
1308.61205133983
 11
1987.041692003645
 21
1311.1035513398301
  0
LINE
  8
_0-b_ラッチ断面__扉側
  6
DASHED1
 62
    7
 10
1991.3570920036449
 20
1307.74605133983
 11
1985.541692003645
 21
1311.1035513398301
  0
LINE
  8
_0-b_ラッチ断面__扉側
  6
DASHED1
 62
    7
 10
1991.3604920036448
 20
1306.8780513398301
 11
1984.041692003645
 21
1311.1035513398301
  0
LINE
  8
_0-b_ラッチ断面__扉側
  6
DASHED1
 62
    7
 10
1991.492242003645
 20
1305.9359513398298
 11
1982.5416920036448
 21
1311.1035513398301
  0
LINE
  8
_0-b_ラッチ断面__扉側
  6
DASHED1
 62
    7
 10
1988.5416920036448
 20
1311.1035513398301
 11
1982.1330920036448
 21
1314.8035513398301
  0
LINE
  8
_0-b_ラッチ断面__扉側
  6
DASHED1
 62
    7
 10
1987.041692003645
 20
1311.1035513398301
 11
1980.633092003645
 21
1314.8035513398301
  0
LINE
  8
_0-b_ラッチ断面__扉側
  6
DASHED1
 62
    7
 10
1985.541692003645
 20
1311.1035513398301
 11
1979.3570920036449
 21
1314.6742513398298
  0
LINE
  8
_0-b_ラッチ断面__扉側
  6
DASHED1
 62
    7
 10
1984.041692003645
 20
1311.1035513398301
 11
1978.3570920036447
 21
1314.3855513398302
  0
LINE
  8
_0-b_ラッチ断面__扉側
  6
DASHED1
 62
    7
 10
1982.5416920036448
 20
1311.1035513398301
 11
1978.3570920036447
 21
1313.5195513398298
  0
LINE
  8
_0-b_ラッチ断面__扉側
  6
DASHED1
 62
    7
 10
1981.0416920036448
 20
1311.1035513398301
 11
1978.3570920036447
 21
1312.6535013398299
  0
LINE
  8
_0-b_ラッチ断面__扉側
  6
DASHED1
 62
    7
 10
2024.3570920036449
 20
1328.4146013398299
 11
2023.3570920036449
 21
1328.9919513398299
  0
LINE
  8
_0-b_ラッチ断面__扉側
  6
DASHED1
 62
    7
 10
2024.3570920036449
 20
1328.4146013398299
 11
2023.2504420036448
 21
1329.0535513398299
  0
LINE
  8
_0-b_ラッチ断面__扉側
  6
DASHED1
 62
    7
 10
2024.3570920036449
 20
1329.1646013398301
 11
2023.5968420036447
 21
1329.6035513398301
  0
LINE
  8
_0-b_ラッチ断面__扉側
  6
DASHED1
 62
    7
 10
1989.3570920036449
 20
1319.3035513398299
 11
1989.3570920036449
 21
1321.3035513398301
  0
LINE
  8
_0-b_ラッチ断面__扉側
  6
DASHED1
 62
    7
 10
2009.3570920036449
 20
1302.4345513398297
 11
2006.8570920036449
 21
1302.3035513398301
  0
LINE
  8
_0-b_ラッチ断面__扉側
  6
DASHED1
 62
    7
 10
2013.7197920036446
 20
1303.6035513398301
 11
2009.3570920036449
 21
1302.4345513398297
  0
LINE
  8
_0-b_ラッチ断面__扉側
  6
DASHED1
 62
    7
 10
1991.3570920036449
 20
1316.6488513398301
 11
1989.3570920036449
 21
1317.8035513398299
  0
LINE
  8
_0-b_ラッチ断面__扉側
  6
DASHED1
 62
    7
 10
1991.3570920036449
 20
1306.91175133983
 11
1991.3570920036449
 21
1316.6488513398301
  0
LINE
  8
_0-b_ラッチ断面__扉側
  6
DASHED1
 62
    7
 10
2014.4070920036449
 20
1328.3035513398299
 11
2014.4070920036449
 21
1327.3035513398301
  0
LINE
  8
_0-b_ラッチ断面__扉側
  6
DASHED1
 62
    7
 10
1987.6250420036449
 20
1321.8035513398299
 11
1989.3570920036449
 21
1318.8035513398299
  0
LINE
  8
_0-b_ラッチ断面__扉側
  6
DASHED1
 62
    7
 10
2005.8570920036447
 20
1302.3559513398299
 11
2006.8570920036449
 21
1302.3035513398301
  0
LINE
  8
_0-b_ラッチ断面__扉側
  6
DASHED1
 62
    7
 10
1991.6650920036449
 20
1305.3725513398298
 11
2005.8570920036447
 21
1302.3559513398299
  0
LINE
  8
_0-b_ラッチ断面__扉側
  6
DASHED1
 62
    7
 10
2022.3570920036447
 20
1328.3035513398299
 11
2022.3570920036447
 21
1306.9012513398299
  0
LINE
  8
_0-b_ラッチ断面__扉側
  6
DASHED1
 62
    7
 10
2013.7197920036446
 20
1303.6035513398301
 11
2020.6209920036449
 21
1303.6035513398301
  0
LINE
  8
_0-b_ラッチ断面__扉側
  6
DASHED1
 62
    7
 10
1981.8570920036449
 20
1323.5035513398297
 11
1981.8570920036449
 21
1331.1035513398301
  0
LINE
  8
_0-b_ラッチ断面__扉側
  6
DASHED1
 62
    7
 10
1996.6570920036449
 20
1327.3035513398301
 11
2014.4070920036449
 21
1327.3035513398301
  0
LINE
  8
_0-b_ラッチ断面__扉側
  6
DASHED1
 62
    7
 10
2024.3570920036449
 20
1306.8035513398299
 11
2024.3570920036449
 21
1329.6035513398301
  0
LINE
  8
_0-b_ラッチ断面__扉側
  6
DASHED1
 62
    7
 10
2023.3570920036449
 20
1328.3035513398299
 11
2023.3570920036449
 21
1329.6202013398301
  0
LINE
  8
_0-b_ラッチ断面__扉側
  6
DASHED1
 62
    7
 10
2024.3570920036449
 20
1329.6035513398301
 11
1964.3570920036449
 21
1330.5035513398299
  0
LINE
  8
_0-b_ラッチ断面__扉側
  6
DASHED1
 62
    7
 10
1965.3570920036449
 20
1330.5035513398299
 11
1965.3570920036449
 21
1329.20355133983
  0
LINE
  8
_0-b_ラッチ断面__扉側
  6
DASHED1
 62
    7
 10
1986.6166420036449
 20
1329.20355133983
 11
1990.8570920036447
 21
1329.20355133983
  0
LINE
  8
_0-b_ラッチ断面__扉側
  6
DASHED1
 62
    7
 10
1974.535642003645
 20
1329.20355133983
 11
1965.4570920036449
 21
1329.20355133983
  0
LINE
  8
_0-b_ラッチ断面__扉側
  6
DASHED1
 62
    7
 10
1990.8570920036447
 20
1327.3035513398301
 11
1992.0570920036448
 21
1327.3035513398301
  0
LINE
  8
_0-b_ラッチ断面__扉側
  6
DASHED1
 62
    7
 10
1955.3571420036448
 20
1319.3035513398299
 11
1953.3571420036448
 21
1321.3035513398301
  0
LINE
  8
_0-b_ラッチ断面__扉側
  6
DASHED1
 62
    7
 10
1953.3571420036448
 20
1321.3035513398301
 11
1953.3571420036448
 21
1328.3035513398299
  0
LINE
  8
_0-b_ラッチ断面__扉側
  6
DASHED1
 62
    7
 10
1958.3571420036448
 20
1325.3035513398299
 11
1958.3571420036448
 21
1324.0035513398299
  0
LINE
  8
_0-b_ラッチ断面__扉側
  6
DASHED1
 62
    7
 10
1994.3570920036449
 20
1325.20355133983
 11
1994.3570920036449
 21
1314.0035513398299
  0
LINE
  8
_0-b_ラッチ断面__扉側
  6
DASHED1
 62
    7
 10
1953.3571420036448
 20
1325.3035513398299
 11
1983.2854920036447
 21
1325.3035513398299
  0
LINE
  8
_0-b_ラッチ断面__扉側
  6
DASHED1
 62
    7
 10
1984.699742003645
 20
1324.7177513398298
 11
1992.2354920036448
 21
1317.1819513398299
  0
LINE
  8
_0-b_ラッチ断面__扉側
  6
DASHED1
 62
    7
 10
1986.5281420036449
 20
1329.3035513398299
 11
1954.3571420036448
 21
1329.3035513398299
  0
LINE
  8
_0-b_ラッチ断面__扉側
  6
DASHED1
 62
    7
 10
1990.0636920036449
 20
1327.8391013398299
 11
1993.841842003645
 21
1324.0609013398302
  0
LINE
  8
_0-b_ラッチ断面__扉側
  6
DASHED1
 62
    7
 10
1989.1570920036449
 20
1319.3035513398299
 11
1998.4670920036451
 21
1319.3035513398299
  0
LINE
  8
_0-b_ラッチ断面__扉側
  6
DASHED1
 62
    7
 10
2007.8570920036449
 20
1308.3735513398301
 11
2007.8570920036449
 21
1329.0935513398301
  0
LINE
  8
_0-b_ラッチ断面__扉側
  6
DASHED1
 62
    7
 10
1963.8571420036446
 20
1325.3035513398299
 11
1963.8571420036446
 21
1329.3035513398299
  0
LINE
  8
_0-b_ラッチ断面__扉側
  6
DASHED1
 62
    7
 10
1958.3571420036448
 20
1329.3035513398299
 11
1958.3571420036448
 21
1325.3035513398299
  0
LINE
  8
_0-b_ラッチ断面__扉側
  6
DASHED1
 62
    7
 10
1955.3571420036448
 20
1319.3035513398299
 11
1962.357142003645
 21
1319.3035513398299
  0
LINE
  8
_0-b_ラッチ断面__扉側
  6
DASHED1
 62
    7
 10
1962.357142003645
 20
1320.4635513398302
 11
1962.357142003645
 21
1319.3035513398299
  0
LINE
  8
_0-b_ラッチ断面__扉側
  6
DASHED1
 62
    7
 10
1962.357142003645
 20
1320.4635513398302
 11
1958.3571420036448
 21
1324.0035513398299
  0
LINE
  8
_0-b_ラッチ断面__扉側
  6
DASHED1
 62
    7
 10
2020.786192003645
 20
1313.58170133983
 11
2021.7464920036447
 21
1321.4029513398299
  0
LINE
  8
_0-b_ラッチ断面__扉側
  6
DASHED1
 62
    7
 10
2021.7512420036448
 20
1321.40140133983
 11
2016.0662420036446
 21
1323.3035513398299
  0
LINE
  8
_0-b_ラッチ断面__扉側
  6
DASHED1
 62
    7
 10
2005.8570920036447
 20
1322.3035513398301
 11
1994.3570920036449
 21
1322.3035513398301
  0
LINE
  8
_0-b_ラッチ断面__扉側
  6
DASHED1
 62
    7
 10
2005.8570920036447
 20
1322.3035513398301
 11
2005.8570920036447
 21
1323.3035513398299
  0
LINE
  8
_0-b_ラッチ断面__扉側
  6
DASHED1
 62
    7
 10
2005.8570920036447
 20
1323.3035513398299
 11
2016.0662420036446
 21
1323.3035513398299
  0
LINE
  8
_0-b_ラッチ断面__扉側
  6
DASHED1
 62
    7
 10
2002.751242003645
 20
1316.3897513398298
 11
2002.751242003645
 21
1315.6879013398297
  0
LINE
  8
_0-b_ラッチ断面__扉側
  6
DASHED1
 62
    7
 10
2002.751242003645
 20
1316.3897513398298
 11
2006.251242003645
 21
1319.2671513398299
  0
LINE
  8
_0-b_ラッチ断面__扉側
  6
DASHED1
 62
    7
 10
2013.2512420036448
 20
1318.4192513398302
 11
2013.2512420036448
 21
1314.7999013398298
  0
LINE
  8
_0-b_ラッチ断面__扉側
  6
DASHED1
 62
    7
 10
2002.751242003645
 20
1315.6879013398297
 11
2006.251242003645
 21
1318.8489513398301
  0
LINE
  8
_0-b_ラッチ断面__扉側
  6
DASHED1
 62
    7
 10
2013.2512420036448
 20
1314.7999013398298
 11
2013.2512420036448
 21
1315.3184513398298
  0
LINE
  8
_0-b_ラッチ断面__扉側
  6
DASHED1
 62
    7
 10
1996.6570920036449
 20
1327.3035513398301
 11
1996.6570920036449
 21
1322.47580133983
  0
LINE
  8
_0-b_ラッチ断面__扉側
  6
DASHED1
 62
    7
 10
1992.0570920036448
 20
1327.3035513398301
 11
1992.0570920036448
 21
1325.84565133983
  0
LINE
  8
_0-b_ラッチ断面__扉側
  6
DASHED1
 62
    7
 10
1992.0570920036448
 20
1325.84565133983
 11
1992.0570920036448
 21
1318.6410013398301
  0
LINE
  8
_0-b_ラッチ断面__扉側
  6
DASHED1
 62
    7
 10
1996.6570920036449
 20
1322.47580133983
 11
1996.6570920036449
 21
1319.3035513398299
  0
LINE
  8
_0-b_ラッチ断面__扉側
  6
DASHED1
 62
    7
 10
1990.8570920036447
 20
1327.0456513398301
 11
1990.8570920036447
 21
1330.1060513398301
  0
LINE
  8
_0-b_ラッチ断面__扉側
  6
DASHED1
 62
    7
 10
1990.8570920036447
 20
1316.9375513398299
 11
1990.8570920036447
 21
1318.5604013398301
  0
LINE
  8
_0-b_ラッチ断面__扉側
  6
DASHED1
 62
    7
 10
1990.8570920036447
 20
1327.0456513398301
 11
1990.8570920036447
 21
1318.5604013398301
  0
LINE
  8
_0-b_ラッチ断面__扉側
  6
DASHED1
 62
    7
 10
1987.3570920036447
 20
1323.3035513398299
 11
1987.3570920036447
 21
1322.8035513398299
  0
LINE
  8
_0-b_ラッチ断面__扉側
  6
DASHED1
 62
    7
 10
1983.2854920036447
 20
1325.3035513398299
 11
1965.3570920036449
 21
1325.3035513398299
  0
LINE
  8
_0-b_ラッチ断面__扉側
  6
DASHED1
 62
    7
 10
1985.3570920036449
 20
1325.3035513398299
 11
1983.757092003645
 21
1325.3035513398299
  0
LINE
  8
_0-b_ラッチ断面__扉側
  6
DASHED1
 62
    7
 10
1974.535642003645
 20
1329.20355133983
 11
1978.9570920036449
 21
1329.20355133983
  0
LINE
  8
_0-b_ラッチ断面__扉側
  6
DASHED1
 62
    7
 10
1978.9640920036449
 20
1330.2601013398298
 11
1978.9581920036448
 21
1329.20355133983
  0
LINE
  8
_0-b_ラッチ断面__扉側
  6
DASHED1
 62
    7
 10
1984.7505920036448
 20
1330.1636513398298
 11
1984.7559920036449
 21
1329.20355133983
  0
LINE
  8
_0-b_ラッチ断面__扉側
  6
DASHED1
 62
    7
 10
1984.7570920036448
 20
1329.20355133983
 11
1986.6166420036449
 21
1329.20355133983
  0
LINE
  8
_0-b_ラッチ断面__扉側
  6
DASHED1
 62
    7
 10
1983.757092003645
 20
1325.3035513398299
 11
1983.757092003645
 21
1330.21255133983
  0
LINE
  8
_0-b_ラッチ断面__扉側
  6
DASHED1
 62
    7
 10
1979.9570920036449
 20
1325.3035513398299
 11
1979.9570920036449
 21
1330.2441013398299
  0
LINE
  8
_0-b_ラッチ断面__扉側
  6
DASHED1
 62
    7
 10
2006.8570920036449
 20
1325.8035513398299
 11
2006.8570920036449
 21
1330.8035513398299
  0
LINE
  8
_0-b_ラッチ断面__扉側
  6
DASHED1
 62
    7
 10
1996.6570920036449
 20
1327.3035513398301
 11
1996.6570920036449
 21
1322.5035513398299
  0
LINE
  8
_0-b_ラッチ断面__扉側
  6
DASHED1
 62
    7
 10
2010.1570920036447
 20
1327.3035513398301
 11
1990.9570920036449
 21
1327.3035513398301
  0
LINE
  8
_0-b_ラッチ断面__扉側
  6
DASHED1
 62
    7
 10
1992.9570920036449
 20
1327.3035513398301
 11
1992.9570920036449
 21
1322.3035513398301
  0
LINE
  8
_0-b_ラッチ断面__扉側
  6
DASHED1
 62
    7
 10
1992.9570920036449
 20
1322.3035513398301
 11
1992.3570920036447
 21
1322.3035513398301
  0
LINE
  8
_0-b_ラッチ断面__扉側
  6
DASHED1
 62
    7
 10
2010.1570920036447
 20
1327.3035513398301
 11
2012.3570920036447
 21
1328.3035513398299
  0
LINE
  8
_0-b_ラッチ断面__扉側
  6
DASHED1
 62
    7
 10
2021.6570920036449
 20
1328.3035513398299
 11
2021.6570920036449
 21
1326.3035513398299
  0
LINE
  8
_0-b_ラッチ断面__扉側
  6
DASHED1
 62
    7
 10
2023.3570920036449
 20
1328.3035513398299
 11
2012.3570920036447
 21
1328.3035513398299
  0
LINE
  8
_0-b_ラッチ断面__扉側
  6
DASHED1
 62
    7
 10
2023.3570920036449
 20
1329.5035513398302
 11
1990.9570920036449
 21
1330.0035513398299
  0
LINE
  8
_0-b_ラッチ断面__扉側
  6
DASHED1
 62
    7
 10
2023.3570920036449
 20
1329.5035513398302
 11
2023.3570920036449
 21
1328.3035513398299
  0
LINE
  8
_0-b_ラッチ断面__扉側
  6
DASHED1
 62
    7
 10
2022.3570920036447
 20
1326.3035513398299
 11
2021.6570920036449
 21
1326.3035513398299
  0
LINE
  8
_0-b_ラッチ断面__扉側
  6
DASHED1
 62
    7
 10
1990.9570920036449
 20
1322.3035513398301
 11
1992.3570920036447
 21
1322.3035513398301
  0
LINE
  8
_0-b_ラッチ断面__扉側
  6
DASHED1
 62
    7
 10
1990.9570920036449
 20
1330.0035513398299
 11
1990.9570920036449
 21
1326.9456513398299
  0
LINE
  8
_0-b_ラッチ断面__扉側
  6
DASHED1
 62
    7
 10
1992.3570920036447
 20
1327.3035513398301
 11
1992.3570920036447
 21
1325.5456513398301
  0
LINE
  8
_0-b_ラッチ断面__扉側
  6
DASHED1
 62
    7
 10
1992.3570920036447
 20
1325.5456513398301
 11
1992.3570920036447
 21
1322.5035513398299
  0
LINE
  8
_0-b_ラッチ断面__扉側
  6
DASHED1
 62
    7
 10
1990.9570920036449
 20
1326.9456513398299
 11
1990.9570920036449
 21
1322.3035513398301
  0
LINE
  8
_0-b_ラッチ断面__扉側
  6
DASHED1
 62
    7
 10
1995.6570920036449
 20
1321.5035513398299
 11
1993.3570920036447
 21
1321.5035513398299
  0
LINE
  8
_0-b_ラッチ断面__扉側
  6
DASHED1
 62
    7
 10
2022.3570920036447
 20
1329.20355133983
 11
1991.9570920036449
 21
1329.20355133983
  0
LINE
  8
_0-b_ラッチ断面__扉側
  6
DASHED1
 62
    7
 10
1991.9570920036449
 20
1329.20355133983
 11
1991.9570920036449
 21
1329.98505133983
  0
LINE
  8
_0-b_ラッチ断面__扉側
  6
DASHED1
 62
    7
 10
2014.4070920036449
 20
1328.3035513398299
 11
2023.3570920036449
 21
1328.3035513398299
  0
LINE
  8
_0-b_ラッチ断面__扉側
  6
DASHED1
 62
    7
 10
2022.3570920036447
 20
1329.20355133983
 11
2022.3570920036447
 21
1329.51900133983
  0
LINE
  8
_0-b_ラッチ断面__扉側
  6
DASHED1
 62
    7
 10
1991.0173420036448
 20
1330.0024513398302
 11
1990.9570920036449
 21
1329.9676513398298
  0
LINE
  8
_0-b_ラッチ断面__扉側
  6
DASHED1
 62
    7
 10
1998.6336420036448
 20
1329.20355133983
 11
1995.342742003645
 21
1327.3035513398301
  0
LINE
  8
_0-b_ラッチ断面__扉側
  6
DASHED1
 62
    7
 10
1997.1336420036448
 20
1329.20355133983
 11
1993.842742003645
 21
1327.3035513398301
  0
LINE
  8
_0-b_ラッチ断面__扉側
  6
DASHED1
 62
    7
 10
1995.633642003645
 20
1329.20355133983
 11
1992.342742003645
 21
1327.3035513398301
  0
LINE
  8
_0-b_ラッチ断面__扉側
  6
DASHED1
 62
    7
 10
1994.133642003645
 20
1329.20355133983
 11
1990.9570920036449
 21
1327.3695513398299
  0
LINE
  8
_0-b_ラッチ断面__扉側
  6
DASHED1
 62
    7
 10
1992.633642003645
 20
1329.20355133983
 11
1990.9570920036449
 21
1328.2356013398298
  0
LINE
  8
_0-b_ラッチ断面__扉側
  6
DASHED1
 62
    7
 10
1991.9570920036449
 20
1329.67895133983
 11
1990.9570920036449
 21
1329.10160133983
  0
LINE
  8
_0-b_ラッチ断面__扉側
  6
DASHED1
 62
    7
 10
2012.1336420036448
 20
1329.20355133983
 11
2008.842742003645
 21
1327.3035513398301
  0
LINE
  8
_0-b_ラッチ断面__扉側
  6
DASHED1
 62
    7
 10
2010.633642003645
 20
1329.20355133983
 11
2007.342742003645
 21
1327.3035513398301
  0
LINE
  8
_0-b_ラッチ断面__扉側
  6
DASHED1
 62
    7
 10
2009.133642003645
 20
1329.20355133983
 11
2005.8427420036448
 21
1327.3035513398301
  0
LINE
  8
_0-b_ラッチ断面__扉側
  6
DASHED1
 62
    7
 10
2007.633642003645
 20
1329.20355133983
 11
2004.3427420036448
 21
1327.3035513398301
  0
LINE
  8
_0-b_ラッチ断面__扉側
  6
DASHED1
 62
    7
 10
2006.1336420036448
 20
1329.20355133983
 11
2002.842742003645
 21
1327.3035513398301
  0
LINE
  8
_0-b_ラッチ断面__扉側
  6
DASHED1
 62
    7
 10
2004.6336420036448
 20
1329.20355133983
 11
2001.342742003645
 21
1327.3035513398301
  0
LINE
  8
_0-b_ラッチ断面__扉側
  6
DASHED1
 62
    7
 10
2003.133642003645
 20
1329.20355133983
 11
1999.842742003645
 21
1327.3035513398301
  0
LINE
  8
_0-b_ラッチ断面__扉側
  6
DASHED1
 62
    7
 10
2001.633642003645
 20
1329.20355133983
 11
1998.3427420036448
 21
1327.3035513398301
  0
LINE
  8
_0-b_ラッチ断面__扉側
  6
DASHED1
 62
    7
 10
2000.133642003645
 20
1329.20355133983
 11
1996.8427420036448
 21
1327.3035513398301
  0
LINE
  8
_0-b_ラッチ断面__扉側
  6
DASHED1
 62
    7
 10
2013.6336420036448
 20
1329.20355133983
 11
2011.0299420036449
 21
1327.70030133983
  0
LINE
  8
_0-b_ラッチ断面__扉側
  6
DASHED1
 62
    7
 10
2015.133642003645
 20
1329.20355133983
 11
2013.5747920036446
 21
1328.3035513398299
  0
LINE
  8
_0-b_ラッチ断面__扉側
  6
DASHED1
 62
    7
 10
2016.633642003645
 20
1329.20355133983
 11
2015.0747920036449
 21
1328.3035513398299
  0
LINE
  8
_0-b_ラッチ断面__扉側
  6
DASHED1
 62
    7
 10
2018.133642003645
 20
1329.20355133983
 11
2016.5747920036449
 21
1328.3035513398299
  0
LINE
  8
_0-b_ラッチ断面__扉側
  6
DASHED1
 62
    7
 10
2019.6336420036448
 20
1329.20355133983
 11
2018.0747920036449
 21
1328.3035513398299
  0
LINE
  8
_0-b_ラッチ断面__扉側
  6
DASHED1
 62
    7
 10
2021.1336420036448
 20
1329.20355133983
 11
2019.5747920036451
 21
1328.3035513398299
  0
LINE
  8
_0-b_ラッチ断面__扉側
  6
DASHED1
 62
    7
 10
2023.1585420036449
 20
1329.50660133983
 11
2021.0747920036446
 21
1328.3035513398299
  0
LINE
  8
_0-b_ラッチ断面__扉側
  6
DASHED1
 62
    7
 10
2023.3570920036449
 20
1328.7552013398299
 11
2022.5747920036449
 21
1328.3035513398299
  0
LINE
  8
_0-b_ラッチ断面__扉側
  6
DASHED1
 62
    7
 10
1964.3570920036449
 20
1330.5035513398299
 11
1964.3570920036449
 21
1329.3035513398299
  0
LINE
  8
_0-b_ラッチ断面__扉側
  6
DASHED1
 62
    7
 10
1964.3570920036449
 20
1329.3035513398299
 11
1964.3570920036449
 21
1326.3035513398299
  0
LINE
  8
_0-b_ラッチ断面__扉側
  6
DASHED1
 62
    7
 10
1992.881842003645
 20
1300.8035513398299
 11
1978.3570920036447
 21
1309.18940133983
  0
LINE
  8
_0-b_ラッチ断面__扉側
  6
DASHED1
 62
    7
 10
1991.381842003645
 20
1300.8035513398299
 11
1978.3570920036447
 21
1308.32340133983
  0
LINE
  8
_0-b_ラッチ断面__扉側
  6
DASHED1
 62
    7
 10
1989.8818420036448
 20
1300.8035513398299
 11
1978.3327420036448
 21
1307.4714513398298
  0
LINE
  8
_0-b_ラッチ断面__扉側
  6
DASHED1
 62
    7
 10
1988.3818420036448
 20
1300.8035513398299
 11
1978.3570920036447
 21
1306.5913513398299
  0
LINE
  8
_0-b_ラッチ断面__扉側
  6
DASHED1
 62
    7
 10
1986.881842003645
 20
1300.8035513398299
 11
1978.3570920036447
 21
1305.7253013398301
  0
LINE
  8
_0-b_ラッチ断面__扉側
  6
DASHED1
 62
    7
 10
1985.381842003645
 20
1300.8035513398299
 11
1978.3570920036447
 21
1304.8593013398299
  0
LINE
  8
_0-b_ラッチ断面__扉側
  6
DASHED1
 62
    7
 10
1983.881842003645
 20
1300.8035513398299
 11
1978.3570920036447
 21
1303.9932513398298
  0
LINE
  8
_0-b_ラッチ断面__扉側
  6
DASHED1
 62
    7
 10
1982.3818420036448
 20
1300.8035513398299
 11
1978.3570920036447
 21
1303.12725133983
  0
LINE
  8
_0-b_ラッチ断面__扉側
  6
DASHED1
 62
    7
 10
1980.8818420036448
 20
1300.8035513398299
 11
1978.447492003645
 21
1302.2090013398301
  0
LINE
  8
_0-b_ラッチ断面__扉側
  6
DASHED1
 62
    7
 10
1989.3570920036449
 20
1319.3035513398299
 11
1989.3570920036449
 21
1315.8035513398299
  0
LINE
  8
_0-b_ラッチ断面__扉側
  6
DASHED1
 62
    7
 10
1978.3570920036447
 20
1302.8035513398299
 11
1978.3570920036447
 21
1325.3035513398299
  0
LINE
  8
_0-b_ラッチ断面__扉側
  6
DASHED1
 62
    7
 10
1980.3570920036449
 20
1300.8035513398299
 11
2018.3570920036447
 21
1300.8035513398299
  0
LINE
  8
_0-b_ラッチ断面__扉側
  6
DASHED1
 62
    7
 10
1988.3570920036447
 20
1314.8035513398301
 11
1978.3570920036447
 21
1314.8035513398301
  0
LINE
  8
_0-b_ラッチ断面__扉側
  6
DASHED1
 62
    7
 10
2018.5658920036448
 20
1302.9172013398301
 11
2009.3570920036449
 21
1302.4345513398297
  0
LINE
  8
_0-b_ラッチ断面__扉側
  6
DASHED1
 62
    7
 10
1995.1477420036449
 20
1302.9172013398301
 11
2005.8570920036447
 21
1302.3559513398299
  0
LINE
  8
_0-b_ラッチ断面__扉側
  6
DASHED1
 62
    7
 10
2006.251242003645
 20
1319.2671513398299
 11
2006.251242003645
 21
1318.8489513398301
  0
LINE
  8
_0-b_ラッチ断面__扉側
  6
DASHED1
 62
    7
 10
2020.2187920036449
 20
1314.6665013398298
 11
2007.8570920036449
 21
1321.8035513398299
  0
LINE
  8
_0-b_ラッチ断面__扉側
  6
DASHED1
 62
    7
 10
2021.2104920036449
 20
1317.0373513398299
 11
2010.3570920036449
 21
1323.3035513398299
  0
LINE
  8
_0-b_ラッチ断面__扉側
  6
DASHED1
 62
    7
 10
1992.4494920036449
 20
1317.67510133983
 11
2007.8570920036449
 21
1321.8035513398299
  0
LINE
  8
_0-b_ラッチ断面__扉側
  6
DASHED1
 62
    7
 10
1989.3570920036449
 20
1311.1035513398301
 11
1980.3570920036449
 21
1311.1035513398301
  0
LINE
  8
_0-b_ラッチ断面__扉側
  6
DASHED1
 62
    7
 10
1989.3570920036449
 20
1311.1035513398301
 11
1989.3570920036449
 21
1306.8035513398299
  0
LINE
  8
_0-b_ラッチ断面__扉側
  6
DASHED1
 62
    7
 10
1989.3570920036449
 20
1311.1035513398301
 11
1989.3570920036449
 21
1315.8035513398299
  0
LINE
  8
_0-b_ラッチ断面__扉側
  6
DASHED1
 62
    7
 10
1957.1071420036448
 20
1321.8035513398299
 11
1954.6071420036448
 21
1321.8035513398299
  0
LINE
  8
_0-b_ラッチ断面__扉側
  6
DASHED1
 62
    7
 10
1954.6071420036448
 20
1329.3035513398299
 11
1954.6071420036448
 21
1321.8035513398299
  0
LINE
  8
_0-b_ラッチ断面__扉側
  6
DASHED1
 62
    7
 10
1957.1071420036448
 20
1329.3035513398299
 11
1957.1071420036448
 21
1321.8035513398299
  0
LINE
  8
_0-b_ラッチ断面__扉側
  6
DASHED1
 62
    7
 10
1955.8571420036448
 20
1320.21355133983
 11
1955.8571420036448
 21
1331.3035513398299
  0
ARC
  8
_0-b_ラッチ断面__扉側
  6
DASHED1
 62
    7
 10
2018.3570920036447
 20
1306.8035513398299
 40
6.0000000000000008
 50
269.99999999999988
 51
359.99999999999988
  0
ARC
  8
_0-b_ラッチ断面__扉側
  6
DASHED1
 62
    7
 10
1995.3570920036449
 20
1306.91175133983
 40
4
 50
179.99999999999991
 51
202.63099999999988
  0
ARC
  8
_0-b_ラッチ断面__扉側
  6
DASHED1
 62
    7
 10
2018.3570920036447
 20
1306.9012513398299
 40
4
 50
304.46999999999991
 51
0.0000000000000826
  0
ARC
  8
_0-b_ラッチ断面__扉側
  6
DASHED1
 62
    7
 10
1985.3570920036449
 20
1321.3035513398301
 40
4
 50
84.812999999999973
 51
89.999999999999971
  0
ARC
  8
_0-b_ラッチ断面__扉側
  6
DASHED1
 62
    7
 10
1985.3570920036449
 20
1321.3035513398301
 40
4
 50
359.99999999999994
 51
84.813000000000002
  0
CIRCLE
  8
_0-b_ラッチ断面__扉側
  6
DASHED1
 62
    7
 10
1994.3570920036449
 20
1319.3035513398299
 40
2.1
  0
CIRCLE
  8
_0-b_ラッチ断面__扉側
  6
DASHED1
 62
    7
 10
1994.3570920036449
 20
1319.3035513398299
 40
3.0000000000000004
  0
ARC
  8
_0-b_ラッチ断面__扉側
  6
DASHED1
 62
    7
 10
1954.3571420036448
 20
1328.3035513398299
 40
1
 50
89.999999999999971
 51
180
  0
ARC
  8
_0-b_ラッチ断面__扉側
  6
DASHED1
 62
    7
 10
1996.5247420036448
 20
1321.3775013398299
 40
6.0000000000000008
 50
223.73399999999995
 51
281.21399999999994
  0
CIRCLE
  8
_0-b_ラッチ断面__扉側
  6
DASHED1
 62
    7
 10
1994.3570920036449
 20
1319.3035513398299
 40
3.0000000000000004
  0
CIRCLE
  8
_0-b_ラッチ断面__扉側
  6
DASHED1
 62
    7
 10
1994.3570920036449
 20
1319.3035513398299
 40
2.1
  0
ARC
  8
_0-b_ラッチ断面__扉側
  6
DASHED1
 62
    7
 10
1983.2854920036447
 20
1323.3035513398299
 40
2
 50
44.999999999999964
 51
89.999999999999971
  0
ARC
  8
_0-b_ラッチ断面__扉側
  6
DASHED1
 62
    7
 10
1986.5281420036449
 20
1324.3035513398299
 40
5
 50
44.999999999999964
 51
89.999999999999971
  0
ARC
  8
_0-b_ラッチ断面__扉側
  6
DASHED1
 62
    7
 10
1998.0844920036449
 20
1328.3035513398299
 40
6.0000000000000008
 50
224.99999999999994
 51
269.99999999999994
  0
ARC
  8
_0-b_ラッチ断面__扉側
  6
DASHED1
 62
    7
 10
1992.1906920036449
 20
1318.6410013398301
 40
1
 50
224.99999999999991
 51
284.99999999999994
  0
ARC
  8
_0-b_ラッチ断面__扉側
  6
DASHED1
 62
    7
 10
2021.7230420036448
 20
1322.4943013398299
 40
10
 50
240.93599999999992
 51
257.62099999999992
  0
ARC
  8
_0-b_ラッチ断面__扉側
  6
DASHED1
 62
    7
 10
2019.7936420036448
 20
1313.70355133983
 40
1
 50
257.62099999999986
 51
352.99999999999994
  0
ARC
  8
_0-b_ラッチ断面__扉側
  6
DASHED1
 62
    7
 10
2005.9570920036449
 20
1273.8035513398299
 40
42.00685
 50
86.96199999999996
 51
94.376999999999995
  0
ARC
  8
_0-b_ラッチ断面__扉側
  6
DASHED1
 62
    7
 10
2007.1495420036449
 20
1296.2719513398301
 40
19.50685
 50
71.771999999999977
 51
86.961999999999974
  0
ARC
  8
_0-b_ラッチ断面__扉側
  6
DASHED1
 62
    7
 10
2005.9570920036449
 20
1273.8035513398299
 40
42.706699999999997
 50
86.96199999999996
 51
94.304999999999992
  0
ARC
  8
_0-b_ラッチ断面__扉側
  6
DASHED1
 62
    7
 10
2007.1495420036449
 20
1296.2719513398301
 40
20.206700000000004
 50
72.423999999999978
 51
86.961999999999974
  0
ARC
  8
_0-b_ラッチ断面__扉側
  6
DASHED1
 62
    7
 10
2005.9570920036449
 20
1273.8035513398299
 40
42.5
 50
86.96199999999996
 51
101.21399999999999
  0
ARC
  8
_0-b_ラッチ断面__扉側
  6
DASHED1
 62
    7
 10
2007.1495420036449
 20
1296.2719513398301
 40
20
 50
60.935999999999985
 51
87.972999999999984
  0
ARC
  8
_0-b_ラッチ断面__扉側
  6
DASHED1
 62
    7
 10
2020.4687920036449
 20
1315.0995513398299
 40
0.5
 50
239.99999999999994
 51
352.99999999999994
  0
ARC
  8
_0-b_ラッチ断面__扉側
  6
DASHED1
 62
    7
 10
1994.3570920036449
 20
1319.3035513398299
 40
2.2999999999999998
 50
179.99999999999985
 51
359.99999999999988
  0
ARC
  8
_0-b_ラッチ断面__扉側
  6
DASHED1
 62
    7
 10
1985.3570920036449
 20
1323.3035513398299
 40
2
 50
359.99999999999994
 51
89.999999999999943
  0
ARC
  8
_0-b_ラッチ断面__扉側
  6
DASHED1
 62
    7
 10
1989.3570920036449
 20
1322.8035513398299
 40
2
 50
179.99999999999985
 51
209.99999999999991
  0
ARC
  8
_0-b_ラッチ断面__扉側
  6
DASHED1
 62
    7
 10
1993.3570920036447
 20
1322.5035513398299
 40
1
 50
179.99999999999991
 51
269.99999999999994
  0
ARC
  8
_0-b_ラッチ断面__扉側
  6
DASHED1
 62
    7
 10
1995.6570920036449
 20
1322.5035513398299
 40
1
 50
269.99999999999988
 51
359.99999999999988
  0
ARC
  8
_0-b_ラッチ断面__扉側
  6
DASHED1
 62
    7
 10
1965.3570920036449
 20
1326.3035513398299
 40
1
 50
179.99999999999991
 51
269.99999999999994
  0
ARC
  8
_0-b_ラッチ断面__扉側
  6
DASHED1
 62
    7
 10
2007.4170920036449
 20
1311.0935513398299
 40
8.7300000000000004
 50
146.57599999999996
 51
22.665999999999996
  0
ARC
  8
_0-b_ラッチ断面__扉側
  6
DASHED1
 62
    7
 10
1980.3570920036449
 20
1312.1035513398301
 40
1
 50
179.99999999999991
 51
269.99999999999994
  0
ARC
  8
_0-b_ラッチ断面__扉側
  6
DASHED1
 62
    7
 10
1988.3570920036447
 20
1315.8035513398299
 40
1
 50
269.99999999999988
 51
359.99999999999988
  0
ARC
  8
_0-b_ラッチ断面__扉側
  6
DASHED1
 62
    7
 10
1980.3570920036449
 20
1302.8035513398299
 40
2
 50
179.99999999999991
 51
269.99999999999994
  0
ARC
  8
_0-b_ラッチ断面__扉側
  6
DASHED1
 62
    7
 10
2018.3570920036447
 20
1306.9012513398299
 40
4
 50
273
 51
304.46999999999985
  0
ARC
  8
_0-b_ラッチ断面__扉側
  6
DASHED1
 62
    7
 10
1995.3570920036449
 20
1306.91175133983
 40
4
 50
202.63099999999991
 51
266.99999999999994
  0
ARC
  8
_0-b_ラッチ断面__扉側
  6
DASHED1
 62
    7
 10
2005.9570920036449
 20
1273.8035513398299
 40
45.472499999999996
 50
86.96199999999996
 51
89.629000000000019
  0
ARC
  8
_0-b_ラッチ断面__扉側
  6
DASHED1
 62
    7
 10
2005.9570920036449
 20
1273.8035513398299
 40
45.046349999999996
 50
86.96199999999996
 51
89.625999999999976
  0
ARC
  8
_0-b_ラッチ断面__扉側
  6
DASHED1
 62
    7
 10
2007.1495420036449
 20
1296.2719513398301
 40
22.54635
 50
74.297999999999973
 51
86.961999999999974
  0
ARC
  8
_0-b_ラッチ断面__扉側
  6
DASHED1
 62
    7
 10
2007.1495420036449
 20
1296.2719513398301
 40
22.9725
 50
74.596999999999965
 51
86.96199999999996
  0
ARC
  8
_0-b_ラッチ断面__扉側
  6
DASHED1
 62
    7
 10
2007.4170920036449
 20
1311.0935513398299
 40
8.7300000000000004
 50
22.665999999999975
 51
146.57599999999999
  0
ARC
  8
_0-b_ラッチ断面__扉側
  6
DASHED1
 62
    7
 10
1995.3570920036449
 20
1306.8035513398299
 40
6.0000000000000008
 50
179.99999999999991
 51
269.99999999999994
  0
LINE
  8
_0-b_ラッチ断面__扉側
  6
DASHED1
 62
    7
 10
2006.8570920036449
 20
1331.40355133983
 11
2006.8570920036449
 21
1297.0035513398302
  0
ARC
  8
_0-b_ラッチ断面__扉側
  6
DASHED1
 62
    7
 10
1943.0570920036443
 20
1315.2410513398299
 40
1.1999999999999999
 50
90.000000000000028
 51
180.00000000000005
  0
ARC
  8
_0-b_ラッチ断面__扉側
  6
DASHED1
 62
    7
 10
1943.0570920036443
 20
1315.2410513398299
 40
1.1999999999999999
 50
90.000000000000028
 51
180.00000000000005
  0
LINE
  8
_0-b_ラッチ断面__扉側
  6
DASHED1
 62
    7
 10
1941.8570920036445
 20
1312.2410513398299
 11
1943.0570920036443
 21
1312.2410513398299
  0
LINE
  8
_0-b_ラッチ断面__扉側
  6
DASHED1
 62
    7
 10
1943.0570920036443
 20
1315.2410513398299
 11
1943.0570920036443
 21
1295.2410513398299
  0
LINE
  8
_0-b_ラッチ断面__扉側
  6
DASHED1
 62
    7
 10
1941.8570920036445
 20
1295.2410513398299
 11
1943.0570920036443
 21
1295.2410513398299
  0
LINE
  8
_0-b_ラッチ断面__扉側
  6
DASHED1
 62
    7
 10
1941.8570920036445
 20
1315.2410513398299
 11
1941.8570920036445
 21
1295.2410513398299
  0
LINE
  8
_0-b_ラッチ断面__扉側
  6
DASHED1
 62
    7
 10
1943.0570920036443
 20
1314.7410513398299
 11
1943.0570920036443
 21
1299.60035133983
  0
LINE
  8
_0-b_ラッチ断面__扉側
  6
DASHED1
 62
    7
 10
1943.5570920036443
 20
1315.2410513398299
 11
1958.6977920036442
 21
1315.2410513398299
  0
LINE
  8
_0-b_ラッチ断面__扉側
  6
DASHED1
 62
    7
 10
1972.8570920036443
 20
1315.2410513398299
 11
1972.8570920036443
 21
1316.4410513398299
  0
LINE
  8
_0-b_ラッチ断面__扉側
  6
DASHED1
 62
    7
 10
1943.0570920036443
 20
1316.4410513398299
 11
1978.8570920036443
 21
1316.4410513398299
  0
LINE
  8
_0-b_ラッチ断面__扉側
  6
DASHED1
 62
    7
 10
1943.0570920036443
 20
1315.2410513398299
 11
1978.8570920036443
 21
1315.2410513398299
  0
LINE
  8
_0-b_ラッチ断面__扉側
  6
DASHED1
 62
    7
 10
1978.8570920036443
 20
1316.4410513398299
 11
1978.8570920036443
 21
1315.2410513398299
  0
LINE
  8
_0-b_ラッチ断面__扉側
  6
DASHED1
 62
    7
 10
883.82476271240307
 20
2222.2744603287769
 11
883.32476271240307
 21
2222.2744603287769
  0
LINE
  8
_0-b_ラッチ断面__扉側
  6
DASHED1
 62
    7
 10
860.82476271240307
 20
2222.2744603287769
 11
861.32476271240307
 21
2222.2744603287769
  0
LINE
  8
_0-b_ラッチ断面__扉側
  6
DASHED1
 62
    7
 10
863.82476271240307
 20
2282.2744603287769
 11
880.82476271240307
 21
2282.2744603287769
  0
LINE
  8
_0-b_ラッチ断面__扉側
  6
DASHED1
 62
    7
 10
864.32476271240307
 20
2247.2744603287769
 11
880.32476271240284
 21
2247.2744603287769
  0
LINE
  8
_0-b_ラッチ断面__扉側
  6
DASHED1
 62
    7
 10
883.82476271240307
 20
2222.2744603287769
 11
883.32476271240307
 21
2222.2744603287769
  0
LINE
  8
_0-b_ラッチ断面__扉側
  6
DASHED1
 62
    7
 10
889.82476271240307
 20
2249.2744603287769
 11
890.82476271240307
 21
2249.2744603287769
  0
LINE
  8
_0-b_ラッチ断面__扉側
  6
DASHED1
 62
    7
 10
889.82476271240307
 20
2273.2744603287769
 11
889.82476271240307
 21
2249.2744603287769
  0
LINE
  8
_0-b_ラッチ断面__扉側
  6
DASHED1
 62
    7
 10
854.82476271240307
 20
2249.2744603287769
 11
853.82476271240307
 21
2249.2744603287769
  0
LINE
  8
_0-b_ラッチ断面__扉側
  6
DASHED1
 62
    7
 10
854.82476271240307
 20
2273.2744603287769
 11
854.82476271240307
 21
2249.2744603287769
  0
LINE
  8
_0-b_ラッチ断面__扉側
  6
DASHED1
 62
    7
 10
853.43476271240297
 20
2252.2744603287769
 11
860.82476271240307
 21
2252.2744603287769
  0
LINE
  8
_0-b_ラッチ断面__扉側
  6
DASHED1
 62
    7
 10
883.82476271240307
 20
2252.2744603287769
 11
891.92476271240298
 21
2252.2744603287769
  0
LINE
  8
_0-b_ラッチ断面__扉側
  6
DASHED1
 62
    7
 10
862.32476271240307
 20
2247.2744603287769
 11
862.32476271240307
 21
2244.4744603287772
  0
LINE
  8
_0-b_ラッチ断面__扉側
  6
DASHED1
 62
    7
 10
863.82476271240307
 20
2245.8744603287768
 11
862.82476271240284
 21
2245.8744603287768
  0
LINE
  8
_0-b_ラッチ断面__扉側
  6
DASHED1
 62
    7
 10
880.82476271240307
 20
2245.8744603287768
 11
881.82476271240307
 21
2245.8744603287768
  0
LINE
  8
_0-b_ラッチ断面__扉側
  6
DASHED1
 62
    7
 10
882.32476271240307
 20
2247.2744603287769
 11
882.32476271240307
 21
2244.4744603287772
  0
LINE
  8
_0-b_ラッチ断面__扉側
  6
DASHED1
 62
    7
 10
880.32476271240284
 20
2247.2744603287769
 11
880.32476271240284
 21
2225.2744603287769
  0
LINE
  8
_0-b_ラッチ断面__扉側
  6
DASHED1
 62
    7
 10
864.32476271240307
 20
2247.2744603287769
 11
864.32476271240307
 21
2225.2744603287769
  0
LINE
  8
_0-b_ラッチ断面__扉側
  6
DASHED1
 62
    7
 10
870.08871271240309
 20
2220.274510328777
 11
874.56081271240304
 21
2220.274510328777
  0
LINE
  8
_0-b_ラッチ断面__扉側
  6
DASHED1
 62
    7
 10
875.82476271240307
 20
2218.274510328777
 11
875.82476271240307
 21
2216.274510328777
  0
LINE
  8
_0-b_ラッチ断面__扉側
  6
DASHED1
 62
    7
 10
868.82476271240307
 20
2218.274510328777
 11
868.82476271240307
 21
2216.274510328777
  0
LINE
  8
_0-b_ラッチ断面__扉側
  6
DASHED1
 62
    7
 10
868.82476271240307
 20
2216.274510328777
 11
869.32476271240307
 21
2216.274510328777
  0
LINE
  8
_0-b_ラッチ断面__扉側
  6
DASHED1
 62
    7
 10
875.32476271240284
 20
2216.274510328777
 11
875.82476271240307
 21
2216.274510328777
  0
LINE
  8
_0-b_ラッチ断面__扉側
  6
DASHED1
 62
    7
 10
875.82476271240307
 20
2211.274510328777
 11
868.82476271240307
 21
2211.274510328777
  0
LINE
  8
_0-b_ラッチ断面__扉側
  6
DASHED1
 62
    7
 10
875.87071271240301
 20
2211.3204603287767
 11
875.82476271240307
 21
2211.274510328777
  0
LINE
  8
_0-b_ラッチ断面__扉側
  6
DASHED1
 62
    7
 10
868.77881271240312
 20
2211.3204603287767
 11
868.82476271240307
 21
2211.274510328777
  0
LINE
  8
_0-b_ラッチ断面__扉側
  6
DASHED1
 62
    7
 10
875.32476271240284
 20
2218.274510328777
 11
875.32476271240284
 21
2212.274510328777
  0
LINE
  8
_0-b_ラッチ断面__扉側
  6
DASHED1
 62
    7
 10
869.32476271240307
 20
2218.274510328777
 11
869.32476271240307
 21
2212.274510328777
  0
LINE
  8
_0-b_ラッチ断面__扉側
  6
DASHED1
 62
    7
 10
869.32476271240307
 20
2216.274510328777
 11
875.32476271240284
 21
2216.274510328777
  0
LINE
  8
_0-b_ラッチ断面__扉側
  6
DASHED1
 62
    7
 10
867.75371271240305
 20
2212.345560328777
 11
868.77881271240312
 21
2211.3204603287767
  0
LINE
  8
_0-b_ラッチ断面__扉側
  6
DASHED1
 62
    7
 10
876.89581271240285
 20
2212.345560328777
 11
875.87071271240301
 21
2211.3204603287767
  0
LINE
  8
_0-b_ラッチ断面__扉側
  6
DASHED1
 62
    7
 10
879.82476271240307
 20
2219.416610328777
 11
879.82476271240307
 21
2247.2744603287769
  0
LINE
  8
_0-b_ラッチ断面__扉側
  6
DASHED1
 62
    7
 10
864.82476271240307
 20
2219.416610328777
 11
864.82476271240307
 21
2247.2744603287769
  0
LINE
  8
_0-b_ラッチ断面__扉側
  6
DASHED1
 62
    7
 10
859.14931271240311
 20
2239.0370603287769
 11
858.937812712403
 21
2239.3125603287771
  0
LINE
  8
_0-b_ラッチ断面__扉側
  6
DASHED1
 62
    7
 10
859.14931271240311
 20
2239.0370603287769
 11
859.82476271240307
 21
2239.7744603287769
  0
LINE
  8
_0-b_ラッチ断面__扉側
  6
DASHED1
 62
    7
 10
858.937812712403
 20
2239.3125603287771
 11
859.82476271240307
 21
2239.7744603287769
  0
LINE
  8
_0-b_ラッチ断面__扉側
  6
DASHED1
 62
    7
 10
880.32476271240284
 20
2247.2744603287769
 11
889.52476271240288
 21
2247.2744603287769
  0
LINE
  8
_0-b_ラッチ断面__扉側
  6
DASHED1
 62
    7
 10
864.32476271240307
 20
2247.2744603287769
 11
855.12476271240302
 21
2247.2744603287769
  0
LINE
  8
_0-b_ラッチ断面__扉側
  6
DASHED1
 62
    7
 10
873.32476271240307
 20
2247.2744603287769
 11
873.32476271240307
 21
2237.7748603287768
  0
LINE
  8
_0-b_ラッチ断面__扉側
  6
DASHED1
 62
    7
 10
871.32476271240307
 20
2247.2744603287769
 11
871.32476271240307
 21
2237.7748603287768
  0
LINE
  8
_0-b_ラッチ断面__扉側
  6
DASHED1
 62
    7
 10
871.82476271240307
 20
2237.2748603287768
 11
872.82476271240284
 21
2237.2748603287768
  0
LINE
  8
_0-b_ラッチ断面__扉側
  6
DASHED1
 62
    7
 10
871.32476271240307
 20
2241.4944603287772
 11
864.82476271240307
 21
2241.4944603287772
  0
LINE
  8
_0-b_ラッチ断面__扉側
  6
DASHED1
 62
    7
 10
879.82476271240307
 20
2241.4944603287772
 11
873.32476271240307
 21
2241.4944603287772
  0
LINE
  8
_0-b_ラッチ断面__扉側
  6
DASHED1
 62
    7
 10
871.32476271240307
 20
2241.8644603287771
 11
870.26401271240274
 21
2241.8644603287771
  0
LINE
  8
_0-b_ラッチ断面__扉側
  6
DASHED1
 62
    7
 10
867.88551271240294
 20
2241.8644603287771
 11
864.82476271240307
 21
2241.8644603287771
  0
LINE
  8
_0-b_ラッチ断面__扉側
  6
DASHED1
 62
    7
 10
879.82476271240307
 20
2241.8644603287771
 11
876.76401271240297
 21
2241.8644603287771
  0
LINE
  8
_0-b_ラッチ断面__扉側
  6
DASHED1
 62
    7
 10
874.38551271240294
 20
2241.8644603287771
 11
873.32476271240307
 21
2241.8644603287771
  0
LINE
  8
_0-b_ラッチ断面__扉側
  6
DASHED1
 62
    7
 10
891.82476271240307
 20
2237.2744603287769
 11
891.82476271240307
 21
2248.2744603287769
  0
LINE
  8
_0-b_ラッチ断面__扉側
  6
DASHED1
 62
    7
 10
889.82476271240307
 20
2236.2744603287769
 11
890.82476271240307
 21
2236.2744603287769
  0
LINE
  8
_0-b_ラッチ断面__扉側
  6
DASHED1
 62
    7
 10
889.82476271240307
 20
2246.9744603287772
 11
889.82476271240307
 21
2228.2744603287769
  0
LINE
  8
_0-b_ラッチ断面__扉側
  6
DASHED1
 62
    7
 10
852.82476271240284
 20
2237.2744603287769
 11
852.82476271240284
 21
2248.2744603287769
  0
LINE
  8
_0-b_ラッチ断面__扉側
  6
DASHED1
 62
    7
 10
854.82476271240307
 20
2236.2744603287769
 11
853.82476271240307
 21
2236.2744603287769
  0
LINE
  8
_0-b_ラッチ断面__扉側
  6
DASHED1
 62
    7
 10
854.82476271240307
 20
2246.9744603287772
 11
854.82476271240307
 21
2228.2744603287769
  0
LINE
  8
_0-b_ラッチ断面__扉側
  6
DASHED1
 62
    7
 10
872.32476271240307
 20
2283.9744603287767
 11
872.32476271240307
 21
2208.674460328777
  0
LINE
  8
_0-b_ラッチ断面__扉側
  6
DASHED1
 62
    7
 10
853.69476271240273
 20
2264.7744603287769
 11
892.72476271240293
 21
2264.7744603287769
  0
LINE
  8
_0-b_ラッチ断面__扉側
  6
DASHED1
 62
    7
 10
859.82476271240307
 20
2243.924460328777
 11
859.82476271240307
 21
2235.674460328777
  0
LINE
  8
_0-b_ラッチ断面__扉側
  6
DASHED1
 62
    7
 10
863.07476271240307
 20
2239.7744603287769
 11
856.52476271240288
 21
2239.7744603287769
  0
LINE
  8
_0-b_ラッチ断面__扉側
  6
DASHED1
 62
    7
 10
884.82476271240307
 20
2243.5944603287771
 11
884.82476271240307
 21
2235.8744603287768
  0
LINE
  8
_0-b_ラッチ断面__扉側
  6
DASHED1
 62
    7
 10
881.55476271240308
 20
2239.7744603287769
 11
888.56476271240308
 21
2239.7744603287769
  0
LINE
  8
_0-b_ラッチ断面__扉側
  6
DASHED1
 62
    7
 10
875.88476271240301
 20
2213.774510328777
 11
868.61476271240303
 21
2213.774510328777
  0
ARC
  8
_0-b_ラッチ断面__扉側
  6
DASHED1
 62
    7
 10
880.82476271240307
 20
2273.2744603287769
 40
9
 50
0.0000000000000254
 51
90.000000000000056
  0
ARC
  8
_0-b_ラッチ断面__扉側
  6
DASHED1
 62
    7
 10
883.82476271240307
 20
2228.2744603287769
 40
6.0000000000000008
 50
270
 51
0
  0
ARC
  8
_0-b_ラッチ断面__扉側
  6
DASHED1
 62
    7
 10
883.32476271240307
 20
2225.2744603287769
 40
3.0000000000000004
 50
180.00000000000005
 51
270.00000000000005
  0
ARC
  8
_0-b_ラッチ断面__扉側
  6
DASHED1
 62
    7
 10
863.82476271240307
 20
2273.2744603287769
 40
9
 50
90.000000000000056
 51
180.00000000000011
  0
ARC
  8
_0-b_ラッチ断面__扉側
  6
DASHED1
 62
    7
 10
860.82476271240307
 20
2228.2744603287769
 40
6.0000000000000008
 50
180.00000000000005
 51
270.00000000000005
  0
ARC
  8
_0-b_ラッチ断面__扉側
  6
DASHED1
 62
    7
 10
861.32476271240307
 20
2225.2744603287769
 40
3.0000000000000004
 50
270
 51
0
  0
CIRCLE
  8
_0-b_ラッチ断面__扉側
  6
DASHED1
 62
    7
 10
859.82476271240307
 20
2239.7744603287769
 40
1.8999999999999999
  0
CIRCLE
  8
_0-b_ラッチ断面__扉側
  6
DASHED1
 62
    7
 10
884.82476271240307
 20
2239.7744603287769
 40
1.8999999999999999
  0
ARC
  8
_0-b_ラッチ断面__扉側
  6
DASHED1
 62
    7
 10
890.82476271240307
 20
2248.2744603287769
 40
1
 50
0.0000000000000254
 51
90.000000000000056
  0
ARC
  8
_0-b_ラッチ断面__扉側
  6
DASHED1
 62
    7
 10
853.82476271240307
 20
2248.2744603287769
 40
1
 50
90.000000000000056
 51
180.00000000000011
  0
ARC
  8
_0-b_ラッチ断面__扉側
  6
DASHED1
 62
    7
 10
856.82476271240307
 20
2249.2744603287769
 40
2
 50
180.00000000000005
 51
270.00000000000005
  0
ARC
  8
_0-b_ラッチ断面__扉側
  6
DASHED1
 62
    7
 10
863.82476271240307
 20
2246.3744603287768
 40
0.5
 50
270
 51
0
  0
ARC
  8
_0-b_ラッチ断面__扉側
  6
DASHED1
 62
    7
 10
862.82476271240284
 20
2246.3744603287768
 40
0.5
 50
180.00000000000005
 51
270.00000000000005
  0
ARC
  8
_0-b_ラッチ断面__扉側
  6
DASHED1
 62
    7
 10
880.82476271240307
 20
2246.3744603287768
 40
0.5
 50
180.00000000000005
 51
270.00000000000005
  0
ARC
  8
_0-b_ラッチ断面__扉側
  6
DASHED1
 62
    7
 10
881.82476271240307
 20
2246.3744603287768
 40
0.5
 50
270
 51
0
  0
ARC
  8
_0-b_ラッチ断面__扉側
  6
DASHED1
 62
    7
 10
887.82476271240284
 20
2249.2744603287769
 40
2
 50
270
 51
0
  0
ARC
  8
_0-b_ラッチ断面__扉側
  6
DASHED1
 62
    7
 10
872.32476271240307
 20
2218.274510328777
 40
3.5000000000000008
 50
90.000000000000056
 51
180.00000000000011
  0
ARC
  8
_0-b_ラッチ断面__扉側
  6
DASHED1
 62
    7
 10
872.32476271240307
 20
2218.274510328777
 40
3.5000000000000008
 50
0.0000000000000254
 51
90.000000000000056
  0
ARC
  8
_0-b_ラッチ断面__扉側
  6
DASHED1
 62
    7
 10
872.32476271240307
 20
2218.274510328777
 40
3.0000000000000004
 50
138.19000000000005
 51
180.00000000000011
  0
ARC
  8
_0-b_ラッチ断面__扉側
  6
DASHED1
 62
    7
 10
872.32476271240307
 20
2218.274510328777
 40
3.0000000000000004
 50
0.0000000000000254
 51
41.810000000000023
  0
ARC
  8
_0-b_ラッチ断面__扉側
  6
DASHED1
 62
    7
 10
870.32476271240284
 20
2212.274510328777
 40
1
 50
180.00000000000005
 51
270.00000000000005
  0
ARC
  8
_0-b_ラッチ断面__扉側
  6
DASHED1
 62
    7
 10
874.32476271240307
 20
2212.274510328777
 40
1
 50
270
 51
0
  0
ARC
  8
_0-b_ラッチ断面__扉側
  6
DASHED1
 62
    7
 10
874.82476271240307
 20
2219.416610328777
 40
10
 50
180.00000000000005
 51
225.00000000000005
  0
ARC
  8
_0-b_ラッチ断面__扉側
  6
DASHED1
 62
    7
 10
869.82476271240307
 20
2219.416610328777
 40
10
 50
315
 51
0
  0
ARC
  8
_0-b_ラッチ断面__扉側
  6
DASHED1
 62
    7
 10
889.52476271240288
 20
2246.9744603287772
 40
0.2999999999999998
 50
0.0000000000000254
 51
90.000000000000056
  0
ARC
  8
_0-b_ラッチ断面__扉側
  6
DASHED1
 62
    7
 10
855.12476271240302
 20
2246.9744603287772
 40
0.2999999999999998
 50
90.000000000000056
 51
180.00000000000011
  0
ARC
  8
_0-b_ラッチ断面__扉側
  6
DASHED1
 62
    7
 10
872.82476271240284
 20
2237.7748603287768
 40
0.5
 50
270
 51
0
  0
ARC
  8
_0-b_ラッチ断面__扉側
  6
DASHED1
 62
    7
 10
871.82476271240307
 20
2237.7748603287768
 40
0.5
 50
180.00000000000005
 51
270.00000000000005
  0
ARC
  8
_0-b_ラッチ断面__扉側
  6
DASHED1
 62
    7
 10
890.82476271240307
 20
2237.2744603287769
 40
1
 50
270
 51
0
  0
ARC
  8
_0-b_ラッチ断面__扉側
  6
DASHED1
 62
    7
 10
853.82476271240307
 20
2237.2744603287769
 40
1
 50
180.00000000000005
 51
270.00000000000005
  0
CIRCLE
  8
_0-b_ラッチ断面__扉側
  6
DASHED1
 62
    7
 10
875.57476271240307
 20
2237.274510328777
 40
2.3250000000000001
  0
CIRCLE
  8
_0-b_ラッチ断面__扉側
  6
DASHED1
 62
    7
 10
869.07476271240284
 20
2237.274510328777
 40
2.3250000000000001
  0
CIRCLE
  8
_0-b_ラッチ断面__扉側
  6
DASHED1
 62
    7
 10
869.07476271240284
 20
2243.774510328777
 40
2.3250000000000001
  0
CIRCLE
  8
_0-b_ラッチ断面__扉側
  6
DASHED1
 62
    7
 10
875.57476271240307
 20
2243.774510328777
 40
2.3250000000000001
  0
CIRCLE
  8
_0-b_ラッチ断面__扉側
  6
DASHED1
 62
    7
 10
872.32476271240307
 20
2213.774510328777
 40
1.25
  0
LINE
  8
_0-b_ラッチ断面__扉側
  6
DASHED1
 62
    7
 10
984.82476271240284
 20
2222.2744603287769
 11
984.32476271240284
 21
2222.2744603287769
  0
LINE
  8
_0-b_ラッチ断面__扉側
  6
DASHED1
 62
    7
 10
961.82476271240284
 20
2222.2744603287769
 11
962.32476271240284
 21
2222.2744603287769
  0
LINE
  8
_0-b_ラッチ断面__扉側
  6
DASHED1
 62
    7
 10
964.82476271240284
 20
2282.2744603287769
 11
981.82476271240284
 21
2282.2744603287769
  0
LINE
  8
_0-b_ラッチ断面__扉側
  6
DASHED1
 62
    7
 10
965.32476271240284
 20
2247.2744603287769
 11
981.32476271240284
 21
2247.2744603287769
  0
LINE
  8
_0-b_ラッチ断面__扉側
  6
DASHED1
 62
    7
 10
984.82476271240284
 20
2222.2744603287769
 11
984.32476271240284
 21
2222.2744603287769
  0
LINE
  8
_0-b_ラッチ断面__扉側
  6
DASHED1
 62
    7
 10
990.82476271240284
 20
2249.2744603287769
 11
991.82476271240284
 21
2249.2744603287769
  0
LINE
  8
_0-b_ラッチ断面__扉側
  6
DASHED1
 62
    7
 10
990.82476271240284
 20
2273.2744603287769
 11
990.82476271240284
 21
2249.2744603287769
  0
LINE
  8
_0-b_ラッチ断面__扉側
  6
DASHED1
 62
    7
 10
955.82476271240284
 20
2249.2744603287769
 11
954.82476271240284
 21
2249.2744603287769
  0
LINE
  8
_0-b_ラッチ断面__扉側
  6
DASHED1
 62
    7
 10
955.82476271240284
 20
2273.2744603287769
 11
955.82476271240284
 21
2249.2744603287769
  0
LINE
  8
_0-b_ラッチ断面__扉側
  6
DASHED1
 62
    7
 10
954.43476271240274
 20
2252.2744603287769
 11
961.82476271240284
 21
2252.2744603287769
  0
LINE
  8
_0-b_ラッチ断面__扉側
  6
DASHED1
 62
    7
 10
984.82476271240284
 20
2252.2744603287769
 11
992.92476271240275
 21
2252.2744603287769
  0
LINE
  8
_0-b_ラッチ断面__扉側
  6
DASHED1
 62
    7
 10
963.32476271240284
 20
2247.2744603287769
 11
963.32476271240284
 21
2244.4744603287772
  0
LINE
  8
_0-b_ラッチ断面__扉側
  6
DASHED1
 62
    7
 10
964.82476271240284
 20
2245.8744603287768
 11
963.82476271240284
 21
2245.8744603287768
  0
LINE
  8
_0-b_ラッチ断面__扉側
  6
DASHED1
 62
    7
 10
981.82476271240284
 20
2245.8744603287768
 11
982.82476271240284
 21
2245.8744603287768
  0
LINE
  8
_0-b_ラッチ断面__扉側
  6
DASHED1
 62
    7
 10
983.32476271240284
 20
2247.2744603287769
 11
983.32476271240284
 21
2244.4744603287772
  0
LINE
  8
_0-b_ラッチ断面__扉側
  6
DASHED1
 62
    7
 10
981.32476271240284
 20
2247.2744603287769
 11
981.32476271240284
 21
2225.2744603287769
  0
LINE
  8
_0-b_ラッチ断面__扉側
  6
DASHED1
 62
    7
 10
965.32476271240284
 20
2247.2744603287769
 11
965.32476271240284
 21
2225.2744603287769
  0
LINE
  8
_0-b_ラッチ断面__扉側
  6
DASHED1
 62
    7
 10
971.08871271240286
 20
2220.274510328777
 11
975.56081271240282
 21
2220.274510328777
  0
LINE
  8
_0-b_ラッチ断面__扉側
  6
DASHED1
 62
    7
 10
976.82476271240284
 20
2218.274510328777
 11
976.82476271240284
 21
2216.274510328777
  0
LINE
  8
_0-b_ラッチ断面__扉側
  6
DASHED1
 62
    7
 10
969.82476271240284
 20
2218.274510328777
 11
969.82476271240284
 21
2216.274510328777
  0
LINE
  8
_0-b_ラッチ断面__扉側
  6
DASHED1
 62
    7
 10
969.82476271240284
 20
2216.274510328777
 11
970.32476271240284
 21
2216.274510328777
  0
LINE
  8
_0-b_ラッチ断面__扉側
  6
DASHED1
 62
    7
 10
976.32476271240284
 20
2216.274510328777
 11
976.82476271240284
 21
2216.274510328777
  0
LINE
  8
_0-b_ラッチ断面__扉側
  6
DASHED1
 62
    7
 10
976.82476271240284
 20
2211.274510328777
 11
969.82476271240284
 21
2211.274510328777
  0
LINE
  8
_0-b_ラッチ断面__扉側
  6
DASHED1
 62
    7
 10
976.87071271240279
 20
2211.3204603287767
 11
976.82476271240284
 21
2211.274510328777
  0
LINE
  8
_0-b_ラッチ断面__扉側
  6
DASHED1
 62
    7
 10
969.77881271240289
 20
2211.3204603287767
 11
969.82476271240284
 21
2211.274510328777
  0
LINE
  8
_0-b_ラッチ断面__扉側
  6
DASHED1
 62
    7
 10
976.32476271240284
 20
2218.274510328777
 11
976.32476271240284
 21
2212.274510328777
  0
LINE
  8
_0-b_ラッチ断面__扉側
  6
DASHED1
 62
    7
 10
970.32476271240284
 20
2218.274510328777
 11
970.32476271240284
 21
2212.274510328777
  0
LINE
  8
_0-b_ラッチ断面__扉側
  6
DASHED1
 62
    7
 10
970.32476271240284
 20
2216.274510328777
 11
976.32476271240284
 21
2216.274510328777
  0
LINE
  8
_0-b_ラッチ断面__扉側
  6
DASHED1
 62
    7
 10
968.75371271240283
 20
2212.345560328777
 11
969.77881271240289
 21
2211.3204603287767
  0
LINE
  8
_0-b_ラッチ断面__扉側
  6
DASHED1
 62
    7
 10
977.89581271240285
 20
2212.345560328777
 11
976.87071271240279
 21
2211.3204603287767
  0
LINE
  8
_0-b_ラッチ断面__扉側
  6
DASHED1
 62
    7
 10
980.82476271240284
 20
2219.416610328777
 11
980.82476271240284
 21
2247.2744603287769
  0
LINE
  8
_0-b_ラッチ断面__扉側
  6
DASHED1
 62
    7
 10
965.82476271240284
 20
2219.416610328777
 11
965.82476271240284
 21
2247.2744603287769
  0
LINE
  8
_0-b_ラッチ断面__扉側
  6
DASHED1
 62
    7
 10
960.14931271240288
 20
2239.0370603287769
 11
959.93781271240277
 21
2239.3125603287771
  0
LINE
  8
_0-b_ラッチ断面__扉側
  6
DASHED1
 62
    7
 10
960.14931271240288
 20
2239.0370603287769
 11
960.82476271240284
 21
2239.7744603287769
  0
LINE
  8
_0-b_ラッチ断面__扉側
  6
DASHED1
 62
    7
 10
959.93781271240277
 20
2239.3125603287771
 11
960.82476271240284
 21
2239.7744603287769
  0
LINE
  8
_0-b_ラッチ断面__扉側
  6
DASHED1
 62
    7
 10
981.32476271240284
 20
2247.2744603287769
 11
990.52476271240266
 21
2247.2744603287769
  0
LINE
  8
_0-b_ラッチ断面__扉側
  6
DASHED1
 62
    7
 10
965.32476271240284
 20
2247.2744603287769
 11
956.12476271240302
 21
2247.2744603287769
  0
LINE
  8
_0-b_ラッチ断面__扉側
  6
DASHED1
 62
    7
 10
974.32476271240284
 20
2247.2744603287769
 11
974.32476271240284
 21
2237.7748603287768
  0
LINE
  8
_0-b_ラッチ断面__扉側
  6
DASHED1
 62
    7
 10
972.32476271240284
 20
2247.2744603287769
 11
972.32476271240284
 21
2237.7748603287768
  0
LINE
  8
_0-b_ラッチ断面__扉側
  6
DASHED1
 62
    7
 10
972.82476271240284
 20
2237.2748603287768
 11
973.82476271240284
 21
2237.2748603287768
  0
LINE
  8
_0-b_ラッチ断面__扉側
  6
DASHED1
 62
    7
 10
972.32476271240284
 20
2241.4944603287772
 11
965.82476271240284
 21
2241.4944603287772
  0
LINE
  8
_0-b_ラッチ断面__扉側
  6
DASHED1
 62
    7
 10
980.82476271240284
 20
2241.4944603287772
 11
974.32476271240284
 21
2241.4944603287772
  0
LINE
  8
_0-b_ラッチ断面__扉側
  6
DASHED1
 62
    7
 10
972.32476271240284
 20
2241.8644603287771
 11
971.26401271240274
 21
2241.8644603287771
  0
LINE
  8
_0-b_ラッチ断面__扉側
  6
DASHED1
 62
    7
 10
968.88551271240294
 20
2241.8644603287771
 11
965.82476271240284
 21
2241.8644603287771
  0
LINE
  8
_0-b_ラッチ断面__扉側
  6
DASHED1
 62
    7
 10
980.82476271240284
 20
2241.8644603287771
 11
977.76401271240274
 21
2241.8644603287771
  0
LINE
  8
_0-b_ラッチ断面__扉側
  6
DASHED1
 62
    7
 10
975.38551271240271
 20
2241.8644603287771
 11
974.32476271240284
 21
2241.8644603287771
  0
LINE
  8
_0-b_ラッチ断面__扉側
  6
DASHED1
 62
    7
 10
992.82476271240284
 20
2237.2744603287769
 11
992.82476271240284
 21
2248.2744603287769
  0
LINE
  8
_0-b_ラッチ断面__扉側
  6
DASHED1
 62
    7
 10
990.82476271240284
 20
2236.2744603287769
 11
991.82476271240284
 21
2236.2744603287769
  0
LINE
  8
_0-b_ラッチ断面__扉側
  6
DASHED1
 62
    7
 10
990.82476271240284
 20
2246.9744603287772
 11
990.82476271240284
 21
2228.2744603287769
  0
LINE
  8
_0-b_ラッチ断面__扉側
  6
DASHED1
 62
    7
 10
953.82476271240284
 20
2237.2744603287769
 11
953.82476271240284
 21
2248.2744603287769
  0
LINE
  8
_0-b_ラッチ断面__扉側
  6
DASHED1
 62
    7
 10
955.82476271240284
 20
2236.2744603287769
 11
954.82476271240284
 21
2236.2744603287769
  0
LINE
  8
_0-b_ラッチ断面__扉側
  6
DASHED1
 62
    7
 10
955.82476271240284
 20
2246.9744603287772
 11
955.82476271240284
 21
2228.2744603287769
  0
LINE
  8
_0-b_ラッチ断面__扉側
  6
DASHED1
 62
    7
 10
973.32476271240284
 20
2283.9744603287767
 11
973.32476271240284
 21
2208.674460328777
  0
LINE
  8
_0-b_ラッチ断面__扉側
  6
DASHED1
 62
    7
 10
954.69476271240273
 20
2264.7744603287769
 11
993.72476271240293
 21
2264.7744603287769
  0
LINE
  8
_0-b_ラッチ断面__扉側
  6
DASHED1
 62
    7
 10
960.82476271240284
 20
2243.924460328777
 11
960.82476271240284
 21
2235.674460328777
  0
LINE
  8
_0-b_ラッチ断面__扉側
  6
DASHED1
 62
    7
 10
964.07476271240284
 20
2239.7744603287769
 11
957.52476271240266
 21
2239.7744603287769
  0
LINE
  8
_0-b_ラッチ断面__扉側
  6
DASHED1
 62
    7
 10
985.82476271240284
 20
2243.5944603287771
 11
985.82476271240284
 21
2235.8744603287768
  0
LINE
  8
_0-b_ラッチ断面__扉側
  6
DASHED1
 62
    7
 10
982.55476271240286
 20
2239.7744603287769
 11
989.56476271240285
 21
2239.7744603287769
  0
LINE
  8
_0-b_ラッチ断面__扉側
  6
DASHED1
 62
    7
 10
976.88476271240278
 20
2213.774510328777
 11
969.6147627124028
 21
2213.774510328777
  0
ARC
  8
_0-b_ラッチ断面__扉側
  6
DASHED1
 62
    7
 10
981.82476271240284
 20
2273.2744603287769
 40
9
 50
0.0000000000000254
 51
90.000000000000056
  0
ARC
  8
_0-b_ラッチ断面__扉側
  6
DASHED1
 62
    7
 10
984.82476271240284
 20
2228.2744603287769
 40
6.0000000000000008
 50
270
 51
0
  0
ARC
  8
_0-b_ラッチ断面__扉側
  6
DASHED1
 62
    7
 10
984.32476271240284
 20
2225.2744603287769
 40
3.0000000000000004
 50
180.00000000000005
 51
270.00000000000005
  0
ARC
  8
_0-b_ラッチ断面__扉側
  6
DASHED1
 62
    7
 10
964.82476271240284
 20
2273.2744603287769
 40
9
 50
90.000000000000056
 51
180.00000000000011
  0
ARC
  8
_0-b_ラッチ断面__扉側
  6
DASHED1
 62
    7
 10
961.82476271240284
 20
2228.2744603287769
 40
6.0000000000000008
 50
180.00000000000005
 51
270.00000000000005
  0
ARC
  8
_0-b_ラッチ断面__扉側
  6
DASHED1
 62
    7
 10
962.32476271240284
 20
2225.2744603287769
 40
3.0000000000000004
 50
270
 51
0
  0
CIRCLE
  8
_0-b_ラッチ断面__扉側
  6
DASHED1
 62
    7
 10
960.82476271240284
 20
2239.7744603287769
 40
1.8999999999999999
  0
CIRCLE
  8
_0-b_ラッチ断面__扉側
  6
DASHED1
 62
    7
 10
985.82476271240284
 20
2239.7744603287769
 40
1.8999999999999999
  0
ARC
  8
_0-b_ラッチ断面__扉側
  6
DASHED1
 62
    7
 10
991.82476271240284
 20
2248.2744603287769
 40
1
 50
0.0000000000000254
 51
90.000000000000056
  0
ARC
  8
_0-b_ラッチ断面__扉側
  6
DASHED1
 62
    7
 10
954.82476271240284
 20
2248.2744603287769
 40
1
 50
90.000000000000056
 51
180.00000000000011
  0
ARC
  8
_0-b_ラッチ断面__扉側
  6
DASHED1
 62
    7
 10
957.82476271240284
 20
2249.2744603287769
 40
2
 50
180.00000000000005
 51
270.00000000000005
  0
ARC
  8
_0-b_ラッチ断面__扉側
  6
DASHED1
 62
    7
 10
964.82476271240284
 20
2246.3744603287768
 40
0.5
 50
270
 51
0
  0
ARC
  8
_0-b_ラッチ断面__扉側
  6
DASHED1
 62
    7
 10
963.82476271240284
 20
2246.3744603287768
 40
0.5
 50
180.00000000000005
 51
270.00000000000005
  0
ARC
  8
_0-b_ラッチ断面__扉側
  6
DASHED1
 62
    7
 10
981.82476271240284
 20
2246.3744603287768
 40
0.5
 50
180.00000000000005
 51
270.00000000000005
  0
ARC
  8
_0-b_ラッチ断面__扉側
  6
DASHED1
 62
    7
 10
982.82476271240284
 20
2246.3744603287768
 40
0.5
 50
270
 51
0
  0
ARC
  8
_0-b_ラッチ断面__扉側
  6
DASHED1
 62
    7
 10
988.82476271240284
 20
2249.2744603287769
 40
2
 50
270
 51
0
  0
ARC
  8
_0-b_ラッチ断面__扉側
  6
DASHED1
 62
    7
 10
973.32476271240284
 20
2218.274510328777
 40
3.5000000000000008
 50
90.000000000000056
 51
180.00000000000011
  0
ARC
  8
_0-b_ラッチ断面__扉側
  6
DASHED1
 62
    7
 10
973.32476271240284
 20
2218.274510328777
 40
3.5000000000000008
 50
0.0000000000000254
 51
90.000000000000056
  0
ARC
  8
_0-b_ラッチ断面__扉側
  6
DASHED1
 62
    7
 10
973.32476271240284
 20
2218.274510328777
 40
3.0000000000000004
 50
138.19000000000005
 51
180.00000000000011
  0
ARC
  8
_0-b_ラッチ断面__扉側
  6
DASHED1
 62
    7
 10
973.32476271240284
 20
2218.274510328777
 40
3.0000000000000004
 50
0.0000000000000254
 51
41.810000000000023
  0
ARC
  8
_0-b_ラッチ断面__扉側
  6
DASHED1
 62
    7
 10
971.32476271240284
 20
2212.274510328777
 40
1
 50
180.00000000000005
 51
270.00000000000005
  0
ARC
  8
_0-b_ラッチ断面__扉側
  6
DASHED1
 62
    7
 10
975.32476271240284
 20
2212.274510328777
 40
1
 50
270
 51
0
  0
ARC
  8
_0-b_ラッチ断面__扉側
  6
DASHED1
 62
    7
 10
975.82476271240284
 20
2219.416610328777
 40
10
 50
180.00000000000005
 51
225.00000000000005
  0
ARC
  8
_0-b_ラッチ断面__扉側
  6
DASHED1
 62
    7
 10
970.82476271240284
 20
2219.416610328777
 40
10
 50
315
 51
0
  0
ARC
  8
_0-b_ラッチ断面__扉側
  6
DASHED1
 62
    7
 10
990.52476271240266
 20
2246.9744603287772
 40
0.2999999999999998
 50
0.0000000000000254
 51
90.000000000000056
  0
ARC
  8
_0-b_ラッチ断面__扉側
  6
DASHED1
 62
    7
 10
956.12476271240302
 20
2246.9744603287772
 40
0.2999999999999998
 50
90.000000000000056
 51
180.00000000000011
  0
ARC
  8
_0-b_ラッチ断面__扉側
  6
DASHED1
 62
    7
 10
973.82476271240284
 20
2237.7748603287768
 40
0.5
 50
270
 51
0
  0
ARC
  8
_0-b_ラッチ断面__扉側
  6
DASHED1
 62
    7
 10
972.82476271240284
 20
2237.7748603287768
 40
0.5
 50
180.00000000000005
 51
270.00000000000005
  0
ARC
  8
_0-b_ラッチ断面__扉側
  6
DASHED1
 62
    7
 10
991.82476271240284
 20
2237.2744603287769
 40
1
 50
270
 51
0
  0
ARC
  8
_0-b_ラッチ断面__扉側
  6
DASHED1
 62
    7
 10
954.82476271240284
 20
2237.2744603287769
 40
1
 50
180.00000000000005
 51
270.00000000000005
  0
CIRCLE
  8
_0-b_ラッチ断面__扉側
  6
DASHED1
 62
    7
 10
976.57476271240284
 20
2237.274510328777
 40
2.3250000000000001
  0
CIRCLE
  8
_0-b_ラッチ断面__扉側
  6
DASHED1
 62
    7
 10
970.07476271240284
 20
2237.274510328777
 40
2.3250000000000001
  0
CIRCLE
  8
_0-b_ラッチ断面__扉側
  6
DASHED1
 62
    7
 10
970.07476271240284
 20
2243.774510328777
 40
2.3250000000000001
  0
CIRCLE
  8
_0-b_ラッチ断面__扉側
  6
DASHED1
 62
    7
 10
976.57476271240284
 20
2243.774510328777
 40
2.3250000000000001
  0
CIRCLE
  8
_0-b_ラッチ断面__扉側
  6
DASHED1
 62
    7
 10
973.32476271240284
 20
2213.774510328777
 40
1.25
  0
LINE
  8
_0-b_ラッチ断面__扉側
  6
DASHED1
 62
    7
 10
884.82476271240238
 20
1332.6410513398291
 11
884.82476271240238
 21
1324.2410513398292
  0
LINE
  8
_0-b_ラッチ断面__扉側
  6
DASHED1
 62
    7
 10
883.82476271240238
 20
1301.0410513398292
 11
860.82476271240238
 21
1301.0410513398292
  0
LINE
  8
_0-b_ラッチ断面__扉側
  6
DASHED1
 62
    7
 10
872.32476271240238
 20
1318.0410513398292
 11
864.82476271240238
 21
1318.0410513398292
  0
LINE
  8
_0-b_ラッチ断面__扉側
  6
DASHED1
 62
    7
 10
862.32476271240238
 20
1325.5410513398292
 11
862.32476271240238
 21
1320.0410513398289
  0
LINE
  8
_0-b_ラッチ断面__扉側
  6
DASHED1
 62
    7
 10
863.82476271240238
 20
1319.5410513398292
 11
862.82476271240238
 21
1319.5410513398292
  0
LINE
  8
_0-b_ラッチ断面__扉側
  6
DASHED1
 62
    7
 10
891.90476271240231
 20
1328.991051339829
 11
891.92476271240229
 21
1328.991051339829
  0
LINE
  8
_0-b_ラッチ断面__扉側
  6
DASHED1
 62
    7
 10
854.82476271240238
 20
1311.3410513398293
 11
853.82476271240238
 21
1311.3410513398293
  0
LINE
  8
_0-b_ラッチ断面__扉側
  6
DASHED1
 62
    7
 10
855.82476271240238
 20
1325.5410513398292
 11
863.32476271240238
 21
1325.5410513398292
  0
LINE
  8
_0-b_ラッチ断面__扉側
  6
DASHED1
 62
    7
 10
854.82476271240238
 20
1324.5410513398292
 11
854.82476271240238
 21
1307.0410513398292
  0
LINE
  8
_0-b_ラッチ断面__扉側
  6
DASHED1
 62
    7
 10
852.82476271240238
 20
1330.7410513398292
 11
852.82476271240238
 21
1312.3410513398291
  0
LINE
  8
_0-b_ラッチ断面__扉側
  6
DASHED1
 62
    7
 10
864.32476271240238
 20
1330.7410513398292
 11
852.82476271240238
 21
1330.7410513398292
  0
LINE
  8
_0-b_ラッチ断面__扉側
  6
DASHED1
 62
    7
 10
854.82476271240238
 20
1330.7410513398292
 11
854.82476271240238
 21
1326.5410513398292
  0
LINE
  8
_0-b_ラッチ断面__扉側
  6
DASHED1
 62
    7
 10
864.32476271240238
 20
1330.7410513398292
 11
864.32476271240238
 21
1318.5410513398292
  0
LINE
  8
_0-b_ラッチ断面__扉側
  6
DASHED1
 62
    7
 10
889.82476271240238
 20
1330.7410513398292
 11
889.82476271240238
 21
1307.0410513398292
  0
LINE
  8
_0-b_ラッチ断面__扉側
  6
DASHED1
 62
    7
 10
880.32476271240238
 20
1330.7410513398292
 11
891.82476271240238
 21
1330.7410513398292
  0
LINE
  8
_0-b_ラッチ断面__扉側
  6
DASHED1
 62
    7
 10
891.82476271240238
 20
1330.7410513398292
 11
891.82476271240238
 21
1312.3410513398291
  0
LINE
  8
_0-b_ラッチ断面__扉側
  6
DASHED1
 62
    7
 10
889.82476271240238
 20
1311.3410513398293
 11
890.82476271240238
 21
1311.3410513398293
  0
LINE
  8
_0-b_ラッチ断面__扉側
  6
DASHED1
 62
    7
 10
864.32476271240238
 20
1329.8410513398291
 11
880.32476271240238
 21
1329.8410513398291
  0
LINE
  8
_0-b_ラッチ断面__扉側
  6
DASHED1
 62
    7
 10
880.32476271240238
 20
1330.7410513398292
 11
880.32476271240238
 21
1318.5410513398292
  0
LINE
  8
_0-b_ラッチ断面__扉側
  6
DASHED1
 62
    7
 10
872.32476271240238
 20
1318.0410513398292
 11
879.82476271240238
 21
1318.0410513398292
  0
LINE
  8
_0-b_ラッチ断面__扉側
  6
DASHED1
 62
    7
 10
888.82476271240238
 20
1325.5410513398292
 11
881.32476271240238
 21
1325.5410513398292
  0
LINE
  8
_0-b_ラッチ断面__扉側
  6
DASHED1
 62
    7
 10
878.82476271240238
 20
1329.5410513398292
 11
865.82476271240238
 21
1329.5410513398292
  0
LINE
  8
_0-b_ラッチ断面__扉側
  6
DASHED1
 62
    7
 10
869.32476271240238
 20
1325.5410513398292
 11
869.32476271240238
 21
1320.5410513398292
  0
LINE
  8
_0-b_ラッチ断面__扉側
  6
DASHED1
 62
    7
 10
874.32476271240238
 20
1319.5410513398292
 11
870.32476271240238
 21
1319.5410513398292
  0
LINE
  8
_0-b_ラッチ断面__扉側
  6
DASHED1
 62
    7
 10
875.32476271240238
 20
1325.5410513398292
 11
875.32476271240238
 21
1320.5410513398292
  0
LINE
  8
_0-b_ラッチ断面__扉側
  6
DASHED1
 62
    7
 10
878.82476271240238
 20
1325.5410513398292
 11
875.32476271240238
 21
1325.5410513398292
  0
LINE
  8
_0-b_ラッチ断面__扉側
  6
DASHED1
 62
    7
 10
869.32476271240238
 20
1325.5410513398292
 11
865.82476271240238
 21
1325.5410513398292
  0
LINE
  8
_0-b_ラッチ断面__扉側
  6
DASHED1
 62
    7
 10
866.82476271240238
 20
1319.1449013398291
 11
866.62816271240239
 21
1319.6046513398291
  0
LINE
  8
_0-b_ラッチ断面__扉側
  6
DASHED1
 62
    7
 10
877.82476271240238
 20
1319.1449013398291
 11
878.02136271240237
 21
1319.6046513398291
  0
LINE
  8
_0-b_ラッチ断面__扉側
  6
DASHED1
 62
    7
 10
879.82476271240238
 20
1318.0410513398292
 11
879.82476271240238
 21
1328.5410513398292
  0
LINE
  8
_0-b_ラッチ断面__扉側
  6
DASHED1
 62
    7
 10
864.82476271240238
 20
1318.0410513398292
 11
864.82476271240238
 21
1328.5410513398292
  0
LINE
  8
_0-b_ラッチ断面__扉側
  6
DASHED1
 62
    7
 10
880.82476271240238
 20
1319.5410513398292
 11
881.82476271240238
 21
1319.5410513398292
  0
LINE
  8
_0-b_ラッチ断面__扉側
  6
DASHED1
 62
    7
 10
882.32476271240238
 20
1325.5410513398292
 11
882.32476271240238
 21
1320.0410513398289
  0
LINE
  8
_0-b_ラッチ断面__扉側
  6
DASHED1
 62
    7
 10
864.32476271240238
 20
1323.5410513398292
 11
864.82476271240238
 21
1323.5410513398292
  0
LINE
  8
_0-b_ラッチ断面__扉側
  6
DASHED1
 62
    7
 10
864.32476271240238
 20
1322.5410513398292
 11
864.82476271240238
 21
1322.5410513398292
  0
LINE
  8
_0-b_ラッチ断面__扉側
  6
DASHED1
 62
    7
 10
879.82476271240238
 20
1322.5410513398292
 11
880.32476271240238
 21
1322.5410513398292
  0
LINE
  8
_0-b_ラッチ断面__扉側
  6
DASHED1
 62
    7
 10
879.82476271240238
 20
1323.5410513398292
 11
880.32476271240238
 21
1323.5410513398292
  0
LINE
  8
_0-b_ラッチ断面__扉側
  6
DASHED1
 62
    7
 10
864.32476271240238
 20
1330.241051339829
 11
880.32476271240238
 21
1330.241051339829
  0
LINE
  8
_0-b_ラッチ断面__扉側
  6
DASHED1
 62
    7
 10
872.32476271240238
 20
1301.0410513398292
 11
871.62476271240234
 21
1301.0410513398292
  0
LINE
  8
_0-b_ラッチ断面__扉側
  6
DASHED1
 62
    7
 10
872.32476271240238
 20
1301.0410513398292
 11
873.02476271240266
 21
1301.0410513398292
  0
LINE
  8
_0-b_ラッチ断面__扉側
  6
DASHED1
 62
    7
 10
871.82476271240238
 20
1315.0410513398289
 11
872.32476271240238
 21
1315.0410513398289
  0
LINE
  8
_0-b_ラッチ断面__扉側
  6
DASHED1
 62
    7
 10
871.32476271240238
 20
1301.3410513398293
 11
871.32476271240238
 21
1314.5410513398292
  0
LINE
  8
_0-b_ラッチ断面__扉側
  6
DASHED1
 62
    7
 10
873.32476271240238
 20
1301.3410513398293
 11
873.32476271240238
 21
1314.5410513398292
  0
LINE
  8
_0-b_ラッチ断面__扉側
  6
DASHED1
 62
    7
 10
872.32476271240238
 20
1315.0410513398289
 11
872.82476271240238
 21
1315.0410513398289
  0
LINE
  8
_0-b_ラッチ断面__扉側
  6
DASHED1
 62
    7
 10
872.32476271240238
 20
1331.3410513398293
 11
872.32476271240238
 21
1298.3410513398291
  0
ARC
  8
_0-b_ラッチ断面__扉側
  6
DASHED1
 62
    7
 10
860.82476271240238
 20
1307.0410513398292
 40
6.0000000000000008
 50
180.00000000000005
 51
270.00000000000005
  0
ARC
  8
_0-b_ラッチ断面__扉側
  6
DASHED1
 62
    7
 10
883.82476271240238
 20
1307.0410513398292
 40
6.0000000000000008
 50
270.00000000000005
 51
0.0000000000000508
  0
ARC
  8
_0-b_ラッチ断面__扉側
  6
DASHED1
 62
    7
 10
863.32476271240238
 20
1326.5410513398292
 40
1
 50
270.00000000000005
 51
0.0000000000000508
  0
ARC
  8
_0-b_ラッチ断面__扉側
  6
DASHED1
 62
    7
 10
855.82476271240238
 20
1326.5410513398292
 40
1
 50
180.00000000000005
 51
270.00000000000005
  0
ARC
  8
_0-b_ラッチ断面__扉側
  6
DASHED1
 62
    7
 10
864.82476271240238
 20
1318.5410513398292
 40
0.5
 50
180.00000000000005
 51
270.00000000000005
  0
ARC
  8
_0-b_ラッチ断面__扉側
  6
DASHED1
 62
    7
 10
863.82476271240238
 20
1320.0410513398289
 40
0.5
 50
270.00000000000005
 51
0.0000000000000508
  0
ARC
  8
_0-b_ラッチ断面__扉側
  6
DASHED1
 62
    7
 10
862.82476271240238
 20
1320.0410513398289
 40
0.5
 50
180.00000000000005
 51
270.00000000000005
  0
ARC
  8
_0-b_ラッチ断面__扉側
  6
DASHED1
 62
    7
 10
853.82476271240238
 20
1312.3410513398291
 40
1
 50
180.00000000000005
 51
270.00000000000005
  0
ARC
  8
_0-b_ラッチ断面__扉側
  6
DASHED1
 62
    7
 10
855.82476271240238
 20
1324.5410513398292
 40
1
 50
90.000000000000028
 51
180.00000000000005
  0
ARC
  8
_0-b_ラッチ断面__扉側
  6
DASHED1
 62
    7
 10
890.82476271240238
 20
1312.3410513398291
 40
1
 50
270.00000000000005
 51
0.0000000000000508
  0
ARC
  8
_0-b_ラッチ断面__扉側
  6
DASHED1
 62
    7
 10
879.82476271240238
 20
1318.5410513398292
 40
0.5
 50
270.00000000000005
 51
0.0000000000000508
  0
ARC
  8
_0-b_ラッチ断面__扉側
  6
DASHED1
 62
    7
 10
881.32476271240238
 20
1326.5410513398292
 40
1
 50
180.00000000000005
 51
270.00000000000005
  0
ARC
  8
_0-b_ラッチ断面__扉側
  6
DASHED1
 62
    7
 10
888.82476271240238
 20
1326.5410513398292
 40
1
 50
270.00000000000005
 51
0.0000000000000508
  0
ARC
  8
_0-b_ラッチ断面__扉側
  6
DASHED1
 62
    7
 10
865.82476271240238
 20
1328.5410513398292
 40
1
 50
90.000000000000028
 51
180.00000000000005
  0
ARC
  8
_0-b_ラッチ断面__扉側
  6
DASHED1
 62
    7
 10
878.82476271240238
 20
1328.5410513398292
 40
1
 50
0
 51
90.000000000000028
  0
ARC
  8
_0-b_ラッチ断面__扉側
  6
DASHED1
 62
    7
 10
865.82476271240238
 20
1326.5410513398292
 40
1
 50
180.00000000000005
 51
270.00000000000005
  0
ARC
  8
_0-b_ラッチ断面__扉側
  6
DASHED1
 62
    7
 10
878.82476271240238
 20
1326.5410513398292
 40
1
 50
270.00000000000005
 51
0.0000000000000508
  0
ARC
  8
_0-b_ラッチ断面__扉側
  6
DASHED1
 62
    7
 10
870.32476271240238
 20
1320.5410513398292
 40
1
 50
180.00000000000005
 51
270.00000000000005
  0
ARC
  8
_0-b_ラッチ断面__扉側
  6
DASHED1
 62
    7
 10
874.32476271240238
 20
1320.5410513398292
 40
1
 50
270.00000000000005
 51
0.0000000000000508
  0
ARC
  8
_0-b_ラッチ断面__扉側
  6
DASHED1
 62
    7
 10
880.82476271240238
 20
1320.0410513398289
 40
0.5
 50
180.00000000000005
 51
270.00000000000005
  0
ARC
  8
_0-b_ラッチ断面__扉側
  6
DASHED1
 62
    7
 10
881.82476271240238
 20
1320.0410513398289
 40
0.5
 50
270.00000000000005
 51
0.0000000000000508
  0
ARC
  8
_0-b_ラッチ断面__扉側
  6
DASHED1
 62
    7
 10
871.62476271240234
 20
1301.3410513398293
 40
0.2999999999999998
 50
180.00000000000005
 51
270.00000000000005
  0
ARC
  8
_0-b_ラッチ断面__扉側
  6
DASHED1
 62
    7
 10
873.02476271240266
 20
1301.3410513398293
 40
0.2999999999999998
 50
270.00000000000005
 51
0.0000000000000508
  0
ARC
  8
_0-b_ラッチ断面__扉側
  6
DASHED1
 62
    7
 10
871.82476271240238
 20
1314.5410513398292
 40
0.5
 50
90.000000000000028
 51
180.00000000000005
  0
ARC
  8
_0-b_ラッチ断面__扉側
  6
DASHED1
 62
    7
 10
872.82476271240238
 20
1314.5410513398292
 40
0.5
 50
0
 51
90.000000000000028
  0
LINE
  8
_0-b_ラッチ断面__扉側
  6
DASHED1
 62
    7
 10
859.82476271240238
 20
1332.6410513398291
 11
859.82476271240238
 21
1324.2410513398292
  0
LINE
  8
_0-b_ラッチ断面__扉側
  6
DASHED1
 62
    7
 10
985.82476271240238
 20
1332.6410513398291
 11
985.82476271240238
 21
1324.2410513398292
  0
LINE
  8
_0-b_ラッチ断面__扉側
  6
DASHED1
 62
    7
 10
984.82476271240238
 20
1301.0410513398292
 11
961.82476271240238
 21
1301.0410513398292
  0
LINE
  8
_0-b_ラッチ断面__扉側
  6
DASHED1
 62
    7
 10
973.32476271240238
 20
1318.0410513398292
 11
965.82476271240238
 21
1318.0410513398292
  0
LINE
  8
_0-b_ラッチ断面__扉側
  6
DASHED1
 62
    7
 10
963.32476271240238
 20
1325.5410513398292
 11
963.32476271240238
 21
1320.0410513398289
  0
LINE
  8
_0-b_ラッチ断面__扉側
  6
DASHED1
 62
    7
 10
964.82476271240238
 20
1319.5410513398292
 11
963.82476271240216
 21
1319.5410513398292
  0
LINE
  8
_0-b_ラッチ断面__扉側
  6
DASHED1
 62
    7
 10
992.90476271240231
 20
1328.991051339829
 11
992.92476271240229
 21
1328.991051339829
  0
LINE
  8
_0-b_ラッチ断面__扉側
  6
DASHED1
 62
    7
 10
955.82476271240238
 20
1311.3410513398293
 11
954.82476271240238
 21
1311.3410513398293
  0
LINE
  8
_0-b_ラッチ断面__扉側
  6
DASHED1
 62
    7
 10
956.82476271240238
 20
1325.5410513398292
 11
964.32476271240238
 21
1325.5410513398292
  0
LINE
  8
_0-b_ラッチ断面__扉側
  6
DASHED1
 62
    7
 10
955.82476271240238
 20
1324.5410513398292
 11
955.82476271240238
 21
1307.0410513398292
  0
LINE
  8
_0-b_ラッチ断面__扉側
  6
DASHED1
 62
    7
 10
953.82476271240216
 20
1330.7410513398292
 11
953.82476271240216
 21
1312.3410513398291
  0
LINE
  8
_0-b_ラッチ断面__扉側
  6
DASHED1
 62
    7
 10
965.32476271240238
 20
1330.7410513398292
 11
953.82476271240216
 21
1330.7410513398292
  0
LINE
  8
_0-b_ラッチ断面__扉側
  6
DASHED1
 62
    7
 10
955.82476271240238
 20
1330.7410513398292
 11
955.82476271240238
 21
1326.5410513398292
  0
LINE
  8
_0-b_ラッチ断面__扉側
  6
DASHED1
 62
    7
 10
965.32476271240238
 20
1330.7410513398292
 11
965.32476271240238
 21
1318.5410513398292
  0
LINE
  8
_0-b_ラッチ断面__扉側
  6
DASHED1
 62
    7
 10
990.82476271240238
 20
1330.7410513398292
 11
990.82476271240238
 21
1307.0410513398292
  0
LINE
  8
_0-b_ラッチ断面__扉側
  6
DASHED1
 62
    7
 10
981.32476271240216
 20
1330.7410513398292
 11
992.82476271240238
 21
1330.7410513398292
  0
LINE
  8
_0-b_ラッチ断面__扉側
  6
DASHED1
 62
    7
 10
992.82476271240238
 20
1330.7410513398292
 11
992.82476271240238
 21
1312.3410513398291
  0
LINE
  8
_0-b_ラッチ断面__扉側
  6
DASHED1
 62
    7
 10
990.82476271240238
 20
1311.3410513398293
 11
991.82476271240238
 21
1311.3410513398293
  0
LINE
  8
_0-b_ラッチ断面__扉側
  6
DASHED1
 62
    7
 10
965.32476271240238
 20
1329.8410513398291
 11
981.32476271240216
 21
1329.8410513398291
  0
LINE
  8
_0-b_ラッチ断面__扉側
  6
DASHED1
 62
    7
 10
981.32476271240216
 20
1330.7410513398292
 11
981.32476271240216
 21
1318.5410513398292
  0
LINE
  8
_0-b_ラッチ断面__扉側
  6
DASHED1
 62
    7
 10
973.32476271240238
 20
1318.0410513398292
 11
980.82476271240238
 21
1318.0410513398292
  0
LINE
  8
_0-b_ラッチ断面__扉側
  6
DASHED1
 62
    7
 10
989.82476271240238
 20
1325.5410513398292
 11
982.32476271240238
 21
1325.5410513398292
  0
LINE
  8
_0-b_ラッチ断面__扉側
  6
DASHED1
 62
    7
 10
979.82476271240238
 20
1329.5410513398292
 11
966.82476271240238
 21
1329.5410513398292
  0
LINE
  8
_0-b_ラッチ断面__扉側
  6
DASHED1
 62
    7
 10
970.32476271240238
 20
1325.5410513398292
 11
970.32476271240238
 21
1320.5410513398292
  0
LINE
  8
_0-b_ラッチ断面__扉側
  6
DASHED1
 62
    7
 10
975.32476271240238
 20
1319.5410513398292
 11
971.32476271240216
 21
1319.5410513398292
  0
LINE
  8
_0-b_ラッチ断面__扉側
  6
DASHED1
 62
    7
 10
976.32476271240216
 20
1325.5410513398292
 11
976.32476271240216
 21
1320.5410513398292
  0
LINE
  8
_0-b_ラッチ断面__扉側
  6
DASHED1
 62
    7
 10
979.82476271240238
 20
1325.5410513398292
 11
976.32476271240216
 21
1325.5410513398292
  0
LINE
  8
_0-b_ラッチ断面__扉側
  6
DASHED1
 62
    7
 10
970.32476271240238
 20
1325.5410513398292
 11
966.82476271240238
 21
1325.5410513398292
  0
LINE
  8
_0-b_ラッチ断面__扉側
  6
DASHED1
 62
    7
 10
967.82476271240238
 20
1319.1449013398291
 11
967.62816271240217
 21
1319.6046513398291
  0
LINE
  8
_0-b_ラッチ断面__扉側
  6
DASHED1
 62
    7
 10
978.82476271240216
 20
1319.1449013398291
 11
979.02136271240215
 21
1319.6046513398291
  0
LINE
  8
_0-b_ラッチ断面__扉側
  6
DASHED1
 62
    7
 10
980.82476271240238
 20
1318.0410513398292
 11
980.82476271240238
 21
1328.5410513398292
  0
LINE
  8
_0-b_ラッチ断面__扉側
  6
DASHED1
 62
    7
 10
965.82476271240238
 20
1318.0410513398292
 11
965.82476271240238
 21
1328.5410513398292
  0
LINE
  8
_0-b_ラッチ断面__扉側
  6
DASHED1
 62
    7
 10
981.82476271240238
 20
1319.5410513398292
 11
982.82476271240238
 21
1319.5410513398292
  0
LINE
  8
_0-b_ラッチ断面__扉側
  6
DASHED1
 62
    7
 10
983.32476271240238
 20
1325.5410513398292
 11
983.32476271240238
 21
1320.0410513398289
  0
LINE
  8
_0-b_ラッチ断面__扉側
  6
DASHED1
 62
    7
 10
965.32476271240238
 20
1323.5410513398292
 11
965.82476271240238
 21
1323.5410513398292
  0
LINE
  8
_0-b_ラッチ断面__扉側
  6
DASHED1
 62
    7
 10
965.32476271240238
 20
1322.5410513398292
 11
965.82476271240238
 21
1322.5410513398292
  0
LINE
  8
_0-b_ラッチ断面__扉側
  6
DASHED1
 62
    7
 10
980.82476271240238
 20
1322.5410513398292
 11
981.32476271240216
 21
1322.5410513398292
  0
LINE
  8
_0-b_ラッチ断面__扉側
  6
DASHED1
 62
    7
 10
980.82476271240238
 20
1323.5410513398292
 11
981.32476271240216
 21
1323.5410513398292
  0
LINE
  8
_0-b_ラッチ断面__扉側
  6
DASHED1
 62
    7
 10
965.32476271240238
 20
1330.241051339829
 11
981.32476271240216
 21
1330.241051339829
  0
LINE
  8
_0-b_ラッチ断面__扉側
  6
DASHED1
 62
    7
 10
973.32476271240238
 20
1301.0410513398292
 11
972.62476271240211
 21
1301.0410513398292
  0
LINE
  8
_0-b_ラッチ断面__扉側
  6
DASHED1
 62
    7
 10
973.32476271240238
 20
1301.0410513398292
 11
974.0247627124022
 21
1301.0410513398292
  0
LINE
  8
_0-b_ラッチ断面__扉側
  6
DASHED1
 62
    7
 10
972.82476271240238
 20
1315.0410513398289
 11
973.32476271240238
 21
1315.0410513398289
  0
LINE
  8
_0-b_ラッチ断面__扉側
  6
DASHED1
 62
    7
 10
972.32476271240238
 20
1301.3410513398293
 11
972.32476271240238
 21
1314.5410513398292
  0
LINE
  8
_0-b_ラッチ断面__扉側
  6
DASHED1
 62
    7
 10
974.32476271240238
 20
1301.3410513398293
 11
974.32476271240238
 21
1314.5410513398292
  0
LINE
  8
_0-b_ラッチ断面__扉側
  6
DASHED1
 62
    7
 10
973.32476271240238
 20
1315.0410513398289
 11
973.82476271240216
 21
1315.0410513398289
  0
LINE
  8
_0-b_ラッチ断面__扉側
  6
DASHED1
 62
    7
 10
973.32476271240238
 20
1331.3410513398293
 11
973.32476271240238
 21
1298.3410513398291
  0
ARC
  8
_0-b_ラッチ断面__扉側
  6
DASHED1
 62
    7
 10
961.82476271240238
 20
1307.0410513398292
 40
6.0000000000000008
 50
180.00000000000005
 51
270.00000000000005
  0
ARC
  8
_0-b_ラッチ断面__扉側
  6
DASHED1
 62
    7
 10
984.82476271240238
 20
1307.0410513398292
 40
6.0000000000000008
 50
270.00000000000005
 51
0.0000000000000508
  0
ARC
  8
_0-b_ラッチ断面__扉側
  6
DASHED1
 62
    7
 10
964.32476271240238
 20
1326.5410513398292
 40
1
 50
270.00000000000005
 51
0.0000000000000508
  0
ARC
  8
_0-b_ラッチ断面__扉側
  6
DASHED1
 62
    7
 10
956.82476271240238
 20
1326.5410513398292
 40
1
 50
180.00000000000005
 51
270.00000000000005
  0
ARC
  8
_0-b_ラッチ断面__扉側
  6
DASHED1
 62
    7
 10
965.82476271240238
 20
1318.5410513398292
 40
0.5
 50
180.00000000000005
 51
270.00000000000005
  0
ARC
  8
_0-b_ラッチ断面__扉側
  6
DASHED1
 62
    7
 10
964.82476271240238
 20
1320.0410513398289
 40
0.5
 50
270.00000000000005
 51
0.0000000000000508
  0
ARC
  8
_0-b_ラッチ断面__扉側
  6
DASHED1
 62
    7
 10
963.82476271240216
 20
1320.0410513398289
 40
0.5
 50
180.00000000000005
 51
270.00000000000005
  0
ARC
  8
_0-b_ラッチ断面__扉側
  6
DASHED1
 62
    7
 10
954.82476271240238
 20
1312.3410513398291
 40
1
 50
180.00000000000005
 51
270.00000000000005
  0
ARC
  8
_0-b_ラッチ断面__扉側
  6
DASHED1
 62
    7
 10
956.82476271240238
 20
1324.5410513398292
 40
1
 50
90.000000000000028
 51
180.00000000000005
  0
ARC
  8
_0-b_ラッチ断面__扉側
  6
DASHED1
 62
    7
 10
991.82476271240238
 20
1312.3410513398291
 40
1
 50
270.00000000000005
 51
0.0000000000000508
  0
ARC
  8
_0-b_ラッチ断面__扉側
  6
DASHED1
 62
    7
 10
980.82476271240238
 20
1318.5410513398292
 40
0.5
 50
270.00000000000005
 51
0.0000000000000508
  0
ARC
  8
_0-b_ラッチ断面__扉側
  6
DASHED1
 62
    7
 10
982.32476271240238
 20
1326.5410513398292
 40
1
 50
180.00000000000005
 51
270.00000000000005
  0
ARC
  8
_0-b_ラッチ断面__扉側
  6
DASHED1
 62
    7
 10
989.82476271240238
 20
1326.5410513398292
 40
1
 50
270.00000000000005
 51
0.0000000000000508
  0
ARC
  8
_0-b_ラッチ断面__扉側
  6
DASHED1
 62
    7
 10
966.82476271240238
 20
1328.5410513398292
 40
1
 50
90.000000000000028
 51
180.00000000000005
  0
ARC
  8
_0-b_ラッチ断面__扉側
  6
DASHED1
 62
    7
 10
979.82476271240238
 20
1328.5410513398292
 40
1
 50
0
 51
90.000000000000028
  0
ARC
  8
_0-b_ラッチ断面__扉側
  6
DASHED1
 62
    7
 10
966.82476271240238
 20
1326.5410513398292
 40
1
 50
180.00000000000005
 51
270.00000000000005
  0
ARC
  8
_0-b_ラッチ断面__扉側
  6
DASHED1
 62
    7
 10
979.82476271240238
 20
1326.5410513398292
 40
1
 50
270.00000000000005
 51
0.0000000000000508
  0
ARC
  8
_0-b_ラッチ断面__扉側
  6
DASHED1
 62
    7
 10
971.32476271240216
 20
1320.5410513398292
 40
1
 50
180.00000000000005
 51
270.00000000000005
  0
ARC
  8
_0-b_ラッチ断面__扉側
  6
DASHED1
 62
    7
 10
975.32476271240238
 20
1320.5410513398292
 40
1
 50
270.00000000000005
 51
0.0000000000000508
  0
ARC
  8
_0-b_ラッチ断面__扉側
  6
DASHED1
 62
    7
 10
981.82476271240238
 20
1320.0410513398289
 40
0.5
 50
180.00000000000005
 51
270.00000000000005
  0
ARC
  8
_0-b_ラッチ断面__扉側
  6
DASHED1
 62
    7
 10
982.82476271240238
 20
1320.0410513398289
 40
0.5
 50
270.00000000000005
 51
0.0000000000000508
  0
ARC
  8
_0-b_ラッチ断面__扉側
  6
DASHED1
 62
    7
 10
972.62476271240211
 20
1301.3410513398293
 40
0.2999999999999998
 50
180.00000000000005
 51
270.00000000000005
  0
ARC
  8
_0-b_ラッチ断面__扉側
  6
DASHED1
 62
    7
 10
974.0247627124022
 20
1301.3410513398293
 40
0.2999999999999998
 50
270.00000000000005
 51
0.0000000000000508
  0
ARC
  8
_0-b_ラッチ断面__扉側
  6
DASHED1
 62
    7
 10
972.82476271240238
 20
1314.5410513398292
 40
0.5
 50
90.000000000000028
 51
180.00000000000005
  0
ARC
  8
_0-b_ラッチ断面__扉側
  6
DASHED1
 62
    7
 10
973.82476271240216
 20
1314.5410513398292
 40
0.5
 50
0
 51
90.000000000000028
  0
LINE
  8
_0-b_ラッチ断面__扉側
  6
DASHED1
 62
    7
 10
960.82476271240238
 20
1332.6410513398291
 11
960.82476271240238
 21
1324.2410513398292
  0
LINE
  8
_0-d_ラッチ平面__扉側
  6
CONTINUOUS
 62
    7
 10
4112.7167019027483
 20
2293.7632135306548
 11
2832.4595048283417
 21
2293.7632135306548
  0
TEXT
  8
_0-d_ラッチ平面__扉側
 62
    7
 10
2912.3122758718463
 20
2733.4432167003151
 40
35
 41
0.8571428571428568
 50
0
  1
天　板
  0
LINE
  8
_0-d_ラッチ平面__扉側
  6
CONTINUOUS
 62
    3
 10
4112.7167019027483
 20
2853.7632135306557
 11
2832.4595048283417
 21
2853.7632135306557
  0
TEXT
  8
_0-d_ラッチ平面__扉側
 62
    7
 10
3277.9600048283427
 20
2803.7632135306557
 40
35
 41
0.8571428571428568
 50
0
  1
仕　様
  0
TEXT
  8
_0-d_ラッチ平面__扉側
 62
    7
 10
3172.4595048283417
 20
2731.2632135306548
 40
35
 41
0.8571428571428568
 50
0
  1
片面化粧パーティクルボード　１５ｔ
  0
LINE
  8
_0-d_ラッチ平面__扉側
  6
CONTINUOUS
 62
    3
 10
2832.4595048283417
 20
2223.7632135306548
 11
4112.7167019027483
 21
2223.7632135306548
  0
LINE
  8
_0-d_ラッチ平面__扉側
  6
CONTINUOUS
 62
    7
 10
4112.7167019027483
 20
2573.7632135306548
 11
2832.4595048283417
 21
2573.7632135306548
  0
LINE
  8
_0-d_ラッチ平面__扉側
  6
CONTINUOUS
 62
    7
 10
4112.7167019027483
 20
2503.7632135306548
 11
2832.4595048283417
 21
2503.7632135306548
  0
LINE
  8
_0-d_ラッチ平面__扉側
  6
CONTINUOUS
 62
    7
 10
4112.7167019027483
 20
2433.7632135306548
 11
2832.4595048283417
 21
2433.7632135306548
  0
LINE
  8
_0-d_ラッチ平面__扉側
  6
CONTINUOUS
 62
    7
 10
4112.7167019027483
 20
2363.7632135306548
 11
2832.4595048283417
 21
2363.7632135306548
  0
LINE
  8
_0-d_ラッチ平面__扉側
  6
CONTINUOUS
 62
    7
 10
4112.7167019027483
 20
2643.7632135306548
 11
2832.4595048283417
 21
2643.7632135306548
  0
LINE
  8
_0-d_ラッチ平面__扉側
  6
CONTINUOUS
 62
    7
 10
4112.7167019027483
 20
2713.7632135306548
 11
2832.4595048283417
 21
2713.7632135306548
  0
LINE
  8
_0-d_ラッチ平面__扉側
  6
CONTINUOUS
 62
    7
 10
4112.7167019027483
 20
2783.7632135306557
 11
2832.4595048283417
 21
2783.7632135306557
  0
LINE
  8
_0-d_ラッチ平面__扉側
  6
CONTINUOUS
 62
    7
 10
4112.7167019027483
 20
2788.7632135306557
 11
2832.4595048283417
 21
2788.7632135306557
  0
TEXT
  8
_0-d_ラッチ平面__扉側
 62
    7
 10
2912.4595048283413
 20
2241.2632135306548
 40
35
 41
0.8571428571428568
 50
0
  1
棚　板
  0
TEXT
  8
_0-d_ラッチ平面__扉側
 62
    7
 10
2912.4595048283413
 20
2311.2632135306548
 40
35
 41
0.8571428571428568
 50
0
  1
丁　番
  0
TEXT
  8
_0-d_ラッチ平面__扉側
 62
    7
 10
2912.4595048283426
 20
2381.2632135306548
 40
35
 41
0.8571428571428568
 50
0
  1
　扉
  0
TEXT
  8
_0-d_ラッチ平面__扉側
 62
    7
 10
2912.4595048283413
 20
2451.2632135306548
 40
35
 41
0.8571428571428568
 50
0
  1
背　板
  0
TEXT
  8
_0-d_ラッチ平面__扉側
 62
    7
 10
2912.4595048283408
 20
2521.2632135306548
 40
35
 41
0.8571428571428568
 50
0
  1
見　上　板
  0
TEXT
  8
_0-d_ラッチ平面__扉側
 62
    7
 10
2912.4595048283408
 20
2661.2632135306548
 40
35
 41
0.8571428571428568
 50
0
  1
左　側　板
  0
TEXT
  8
_0-d_ラッチ平面__扉側
 62
    7
 10
2912.4595048283408
 20
2591.2632135306548
 40
35
 41
0.8571428571428568
 50
0
  1
右　側　板
  0
LINE
  8
_0-d_ラッチ平面__扉側
  6
CONTINUOUS
 62
    7
 10
4112.7167019027483
 20
2223.7632135306548
 11
2832.4595048283417
 21
2223.7632135306548
  0
LINE
  8
_0-d_ラッチ平面__扉側
  6
CONTINUOUS
 62
    3
 10
2832.4595048283417
 20
2153.7632135306548
 11
4112.7167019027483
 21
2153.7632135306548
  0
LINE
  8
_0-d_ラッチ平面__扉側
  6
CONTINUOUS
 62
    3
 10
2832.4595048283417
 20
2853.7632135306557
 11
2832.4595048283417
 21
2153.7632135306548
  0
LINE
  8
_0-d_ラッチ平面__扉側
  6
CONTINUOUS
 62
    3
 10
4112.7167019027483
 20
2853.7632135306557
 11
4112.7167019027483
 21
2153.7632135306548
  0
LINE
  8
_0-d_ラッチ平面__扉側
  6
CONTINUOUS
 62
    7
 10
3132.4595048283417
 20
2783.7632135306557
 11
3132.4595048283417
 21
2153.7632135306548
  0
TEXT
  8
_0-d_ラッチ平面__扉側
 62
    7
 10
3172.4595048283413
 20
2171.2632135306548
 40
35
 41
0.8571428571428568
 50
0
  1
アルミ一文字把手
  0
TEXT
  8
_0-d_ラッチ平面__扉側
 62
    7
 10
3173.4393824625249
 20
2592.4775512727633
 40
35
 41
0.8571428571428568
 50
0
  1
低圧メラミン化粧パーティクルボード　１２ｔ
  0
TEXT
  8
_0-d_ラッチ平面__扉側
 62
    7
 10
3172.4595048283417
 20
2661.2632135306548
 40
35
 41
0.8571428571428568
 50
0
  1
低圧メラミン化粧パーティクルボード　１２ｔ
  0
TEXT
  8
_0-d_ラッチ平面__扉側
 62
    7
 10
3172.4595048283417
 20
2521.2632135306548
 40
35
 41
0.8571428571428568
 50
0
  1
低圧メラミン化粧パーティクルボード　１５ｔ
  0
TEXT
  8
_0-d_ラッチ平面__扉側
 62
    7
 10
3172.4595048283426
 20
2451.2632135306548
 40
35
 41
0.8571428571428568
 50
0
  1
カラーＭＤＦ・落とし込み
  0
TEXT
  8
_0-d_ラッチ平面__扉側
 62
    7
 10
2912.4595048283426
 20
2171.2632135306548
 40
35
 41
0.8571428571428568
 50
0
  1
把　手
  0
TEXT
  8
_0-d_ラッチ平面__扉側
 62
    7
 10
3172.4595048283413
 20
2241.2632135306548
 40
35
 41
0.8571428571428568
 50
0
  1
可動式　棚板　１５ｔ
  0
TEXT
  8
_0-d_ラッチ平面__扉側
 62
    7
 10
3172.4595048283413
 20
2311.2632135306548
 40
35
 41
0.8571428571428568
 50
0
  1
ワンタッチスライド式丁番
  0
TEXT
  8
_0-d_ラッチ平面__扉側
 62
    7
 10
3172.4595048283426
 20
2381.2632135306548
 40
35
 41
0.8571428571428568
 50
0
  1
両面化粧パ－ティクルボ－ド　１２ｔ　耐震ラッチ付
  0
TEXT
  8
_0-d_ラッチ平面__扉側
 62
    7
 10
3858.3377621159092
 20
2088.7632135306548
 40
35
 41
0.8571428571428568
 50
0
  1
扉　色
  0
TEXT
  8
_0-d_ラッチ平面__扉側
 62
    7
 10
3713.4289219216452
 20
2021.2632135306546
 40
35
 41
0.8571428571428568
 50
0
  1
ＳＷ
  0
TEXT
  8
_0-d_ラッチ平面__扉側
 62
    7
 10
3827.9588223290693
 20
2021.2632135306546
 40
35
 41
0.8571428571428568
 50
0
  1
ホワイト
  0
TEXT
  8
_0-d_ラッチ平面__扉側
 62
    7
 10
3718.4203773313333
 20
1961.852540346435
 40
35
 41
0.8571428571428568
 50
0
  1
ＬＧ
  0
TEXT
  8
_0-d_ラッチ平面__扉側
 62
    7
 10
3828.0578162341043
 20
1961.852540346435
 40
35
 41
0.8571428571428568
 50
0
  1
木　　目
  0
TEXT
  8
_0-d_ラッチ平面__扉側
 62
    7
 10
3713.4289219216452
 20
1896.2632135306546
 40
35
 41
0.8571428571428568
 50
0
  1
ＵＷ
  0
TEXT
  8
_0-d_ラッチ平面__扉側
 62
    7
 10
3827.9588223290688
 20
1896.2632135306546
 40
35
 41
0.8571428571428568
 50
0
  1
ｳﾙﾄﾗﾎﾜｲﾄ（艶有）
  0
TEXT
  8
_0-d_ラッチ平面__扉側
 62
    7
 10
3718.4203773313333
 20
1836.852540346435
 40
35
 41
0.8571428571428568
 50
0
  1
ＷＮ
  0
TEXT
  8
_0-d_ラッチ平面__扉側
 62
    7
 10
3827.9588223290693
 20
1836.2632135306544
 40
35
 41
0.8571428571428568
 50
0
  1
ｳｨﾝｻﾞｰﾅｯﾄ（艶有）
  0
LINE
  8
_0-d_ラッチ平面__扉側
  6
CONTINUOUS
 62
    3
 10
4112.7167019027483
 20
2138.7632135306548
 11
4112.7167019027483
 21
1643.7632135306539
  0
LINE
  8
_0-d_ラッチ平面__扉側
  6
CONTINUOUS
 62
    7
 10
3797.9588223290693
 20
2068.7632135306548
 11
3797.9588223290693
 21
1948.7632135306546
  0
TEXT
  8
_0-d_ラッチ平面__扉側
 62
    7
 10
3718.4203773313333
 20
1776.8525403464345
 40
35
 41
0.8571428571428568
 50
0
  1
ＢＳ
  0
TEXT
  8
_0-d_ラッチ平面__扉側
 62
    7
 10
3828.0578162341043
 20
1776.8525403464345
 40
35
 41
0.8571428571428568
 50
0
  1
ブラックストーン
  0
LINE
  8
_0-d_ラッチ平面__扉側
  6
CONTINUOUS
 62
    3
 10
3697.9588223290693
 20
2138.7632135306548
 11
3697.9588223290693
 21
1643.7632135306539
  0
LINE
  8
_0-d_ラッチ平面__扉側
  6
CONTINUOUS
 62
    7
 10
3797.9588223290693
 20
1943.7632135306546
 11
3797.9588223290693
 21
1643.7632135306539
  0
TEXT
  8
_0-d_ラッチ平面__扉側
 62
    7
 10
3718.4203773313333
 20
1716.8525403464343
 40
35
 41
0.8571428571428568
 50
0
  1
ＰＭ
  0
TEXT
  8
_0-d_ラッチ平面__扉側
 62
    7
 10
3828.0578162341053
 20
1716.8525403464343
 40
35
 41
0.8571428571428568
 50
0
  1
ペールグレイン
  0
TEXT
  8
_0-d_ラッチ平面__扉側
 62
    7
 10
3718.4203773313333
 20
1656.8525403464343
 40
35
 41
0.8571428571428568
 50
0
  1
ＭＤ
  0
TEXT
  8
_0-d_ラッチ平面__扉側
 62
    7
 10
3828.0578162341053
 20
1656.8525403464343
 40
35
 41
0.8571428571428568
 50
0
  1
ダークグレイン
  0
LINE
  8
_0-d_ラッチ平面__扉側
  6
CONTINUOUS
 62
    3
 10
4112.7167019027483
 20
2138.7632135306548
 11
3697.9588223290693
 21
2138.7632135306548
  0
LINE
  8
_0-d_ラッチ平面__扉側
  6
CONTINUOUS
 62
    3
 10
4112.7167019027483
 20
1643.7632135306539
 11
3697.9588223290693
 21
1643.7632135306539
  0
LINE
  8
_0-d_ラッチ平面__扉側
  6
CONTINUOUS
 62
    7
 10
3697.9588223290693
 20
2008.7632135306546
 11
4112.7167019027483
 21
2008.7632135306546
  0
LINE
  8
_0-d_ラッチ平面__扉側
  6
CONTINUOUS
 62
    7
 10
4112.7167019027483
 20
2008.7632135306546
 11
3697.9588223290693
 21
2008.7632135306546
  0
LINE
  8
_0-d_ラッチ平面__扉側
  6
CONTINUOUS
 62
    3
 10
4112.7167019027483
 20
2008.7632135306546
 11
3697.9588223290693
 21
2008.7632135306546
  0
LINE
  8
_0-d_ラッチ平面__扉側
  6
CONTINUOUS
 62
    3
 10
4112.7167019027483
 20
1948.7632135306546
 11
3697.9588223290693
 21
1948.7632135306546
  0
LINE
  8
_0-d_ラッチ平面__扉側
  6
CONTINUOUS
 62
    7
 10
4112.7167019027483
 20
1883.7632135306546
 11
3697.9588223290693
 21
1883.7632135306546
  0
LINE
  8
_0-d_ラッチ平面__扉側
  6
CONTINUOUS
 62
    3
 10
4112.7167019027483
 20
1883.7632135306546
 11
3697.9588223290693
 21
1883.7632135306546
  0
LINE
  8
_0-d_ラッチ平面__扉側
  6
CONTINUOUS
 62
    3
 10
4112.7167019027483
 20
1823.7632135306546
 11
3697.9588223290693
 21
1823.7632135306546
  0
LINE
  8
_0-d_ラッチ平面__扉側
  6
CONTINUOUS
 62
    7
 10
3697.9588223290693
 20
1883.7632135306546
 11
4112.7167019027483
 21
1883.7632135306546
  0
LINE
  8
_0-d_ラッチ平面__扉側
  6
CONTINUOUS
 62
    7
 10
4112.7167019027483
 20
1948.7632135306546
 11
3697.9588223290693
 21
1948.7632135306546
  0
LINE
  8
_0-d_ラッチ平面__扉側
  6
CONTINUOUS
 62
    7
 10
4112.7167019027483
 20
1943.7632135306546
 11
3697.9588223290693
 21
1943.7632135306546
  0
LINE
  8
_0-d_ラッチ平面__扉側
  6
CONTINUOUS
 62
    7
 10
4112.7167019027483
 20
1823.7632135306546
 11
3697.9588223290693
 21
1823.7632135306546
  0
LINE
  8
_0-d_ラッチ平面__扉側
  6
CONTINUOUS
 62
    3
 10
4112.7167019027483
 20
1823.7632135306546
 11
3697.9588223290693
 21
1823.7632135306546
  0
LINE
  8
_0-d_ラッチ平面__扉側
  6
CONTINUOUS
 62
    3
 10
4112.7167019027483
 20
1763.7632135306539
 11
3697.9588223290693
 21
1763.7632135306539
  0
LINE
  8
_0-d_ラッチ平面__扉側
  6
CONTINUOUS
 62
    7
 10
3697.9588223290693
 20
1823.7632135306546
 11
4112.7167019027483
 21
1823.7632135306546
  0
LINE
  8
_0-d_ラッチ平面__扉側
  6
CONTINUOUS
 62
    7
 10
4112.7167019027483
 20
1763.7632135306539
 11
3697.9588223290693
 21
1763.7632135306539
  0
LINE
  8
_0-d_ラッチ平面__扉側
  6
CONTINUOUS
 62
    3
 10
4112.7167019027483
 20
1763.7632135306539
 11
3697.9588223290693
 21
1763.7632135306539
  0
LINE
  8
_0-d_ラッチ平面__扉側
  6
CONTINUOUS
 62
    3
 10
4112.7167019027483
 20
1703.7632135306539
 11
3697.9588223290693
 21
1703.7632135306539
  0
LINE
  8
_0-d_ラッチ平面__扉側
  6
CONTINUOUS
 62
    7
 10
3697.9588223290693
 20
1763.7632135306539
 11
4112.7167019027483
 21
1763.7632135306539
  0
LINE
  8
_0-d_ラッチ平面__扉側
  6
CONTINUOUS
 62
    7
 10
4112.7167019027483
 20
1703.7632135306539
 11
3697.9588223290693
 21
1703.7632135306539
  0
LINE
  8
_0-d_ラッチ平面__扉側
  6
CONTINUOUS
 62
    3
 10
4112.7167019027483
 20
1703.7632135306539
 11
3697.9588223290693
 21
1703.7632135306539
  0
LINE
  8
_0-d_ラッチ平面__扉側
  6
CONTINUOUS
 62
    7
 10
3697.9588223290693
 20
1703.7632135306539
 11
4112.7167019027483
 21
1703.7632135306539
  0
LINE
  8
_0-d_ラッチ平面__扉側
  6
CONTINUOUS
 62
    7
 10
4112.7167019027483
 20
2068.7632135306548
 11
3697.9588223290693
 21
2068.7632135306548
  0
LINE
  8
_0-d_ラッチ平面__扉側
  6
CONTINUOUS
 62
    7
 10
4112.7167019027483
 20
2073.7632135306548
 11
3697.9588223290693
 21
2073.7632135306548
  0
LINE
  8
_e-0_
  6
CONTINUOUS
 62
    7
 10
2235.8366640958884
 20
183.94486665957714
 11
2264.9846622966547
 21
194.55387039310096
  0
LINE
  8
_e-0_
  6
CONTINUOUS
 62
    7
 10
2229.6843953320885
 20
176.38473509396874
 11
2279.6036842974681
 21
194.55387039310011
  0
LINE
  8
_e-0_
  6
CONTINUOUS
 62
    7
 10
2226.2574714057891
 20
169.81654792732371
 11
2255.9150768319382
 21
180.61103352205378
  0
LINE
  8
_e-0_
  6
CONTINUOUS
 62
    7
 10
2224.2626908639713
 20
163.76961832382903
 11
2246.0093920977324
 21
171.68477026639777
  0
LINE
  8
_e-0_
  6
CONTINUOUS
 62
    7
 10
2223.253185238545
 20
158.08129946246992
 11
2241.5081926224484
 21
164.72557877652036
  0
LINE
  8
_e-0_
  6
CONTINUOUS
 62
    7
 10
2223.0156427143556
 20
152.67395219190916
 11
2241.4255440656406
 21
159.37460829955426
  0
LINE
  8
_e-0_
  6
CONTINUOUS
 62
    7
 10
2223.4344835706642
 20
147.50550893412082
 11
2241.8793979036299
 21
154.21890872491019
  0
LINE
  8
_e-0_
  6
CONTINUOUS
 62
    7
 10
2224.4457407209774
 20
142.55268757364603
 11
2243.3203026450692
 21
149.42246629882959
  0
LINE
  8
_e-0_
  6
CONTINUOUS
 62
    7
 10
2226.0182888832982
 20
137.80415943430114
 11
2245.7132505946715
 21
144.97253926225369
  0
LINE
  8
_e-0_
  6
CONTINUOUS
 62
    7
 10
2228.1462640287199
 20
133.25779018411338
 11
2249.1506443149041
 21
140.90275939749233
  0
LINE
  8
_e-0_
  6
CONTINUOUS
 62
    7
 10
2230.8477427532316
 20
128.92015916595937
 11
2253.9308498295386
 21
137.32172305611442
  0
LINE
  8
_e-0_
  6
CONTINUOUS
 62
    7
 10
2234.1689215693718
 20
124.80808053533024
 11
2260.9975727253272
 21
134.57291098160936
  0
LINE
  8
_e-0_
  6
CONTINUOUS
 62
    7
 10
2238.1963030092374
 20
120.95303863909776
 11
2276.6158743796222
 21
134.93661903118379
  0
LINE
  8
_e-0_
  6
CONTINUOUS
 62
    7
 10
2243.0858385970814
 20
117.41179519008085
 11
2271.2352160844511
 21
127.65733070860676
  0
LINE
  8
_e-0_
  6
CONTINUOUS
 62
    7
 10
2271.6356660451692
 20
186.33286006079629
 11
2294.2227062982819
 21
194.55387039310181
  0
LINE
  8
_e-0_
  6
CONTINUOUS
 62
    7
 10
2252.6131881355313
 20
174.08835545732216
 11
2305.1018637432653
 21
193.19267101459161
  0
LINE
  8
_e-0_
  6
CONTINUOUS
 62
    7
 10
2265.1203526762756
 20
173.3197022028429
 11
2305.1018637432653
 21
187.87178215221217
  0
LINE
  8
_e-0_
  6
CONTINUOUS
 62
    7
 10
2279.7393746770908
 20
173.3197022028429
 11
2305.1018637432653
 21
182.55089328983274
  0
LINE
  8
_e-0_
  6
CONTINUOUS
 62
    7
 10
2283.9258801693504
 20
169.52257672523785
 11
2305.1018637432653
 21
177.2300044274533
  0
LINE
  8
_e-0_
  6
CONTINUOUS
 62
    7
 10
2283.9258801693504
 20
164.20168786285842
 11
2305.1018637432653
 21
171.9091155650733
  0
LINE
  8
_e-0_
  6
CONTINUOUS
 62
    7
 10
2283.9258801693504
 20
158.88079900047898
 11
2305.1018637432653
 21
166.58822670269387
  0
LINE
  8
_e-0_
  6
CONTINUOUS
 62
    7
 10
2283.9258801693504
 20
153.55991013809955
 11
2305.1018637432653
 21
161.26733784031443
  0
LINE
  8
_e-0_
  6
CONTINUOUS
 62
    7
 10
2283.8515813964468
 20
148.21197873394055
 11
2305.1018637432653
 21
155.946448977935
  0
LINE
  8
_e-0_
  6
CONTINUOUS
 62
    7
 10
2282.7047247631385
 20
142.47366819406579
 11
2305.1018637432653
 21
150.62556011555528
  0
LINE
  8
_e-0_
  6
CONTINUOUS
 62
    7
 10
2280.4457301125839
 20
136.33057251951811
 11
2305.1018637432653
 21
145.30467125317585
  0
LINE
  8
_e-0_
  6
CONTINUOUS
 62
    7
 10
2276.4511200095648
 20
129.55576448214031
 11
2303.9116004635197
 21
139.55056198602875
  0
LINE
  8
_e-0_
  6
CONTINUOUS
 62
    7
 10
2267.7970807133169
 20
121.0850629097564
 11
2301.0895051181669
 21
133.20251441967968
  0
LINE
  8
_e-0_
  6
CONTINUOUS
 62
    7
 10
2259.0298539746227
 20
112.57316447742937
 11
2296.2211119089834
 21
126.10967534045357
  0
LINE
  8
_e-0_
  6
CONTINUOUS
 62
    7
 10
2274.1883752837684
 20
112.76952616706864
 11
2284.7751922141192
 21
116.62281240534184
  0
LINE
  8
_e-0_
  6
CONTINUOUS
 62
    3
 10
2258.4972011002919
 20
181.99134005275396
 11
2254.375207286127
 21
179.18201849977236
  0
LINE
  8
_e-0_
  6
CONTINUOUS
 62
    3
 10
2274.4375760187454
 20
112.57316447742766
 11
2258.971134866972
 21
112.57316447742766
  0
ARC
  8
_e-0_
  6
CONTINUOUS
 62
    3
 10
2274.4375760187454
 20
117.57316447742766
 40
5
 50
270
 51
286.20399351045659
  0
LINE
  8
_e-0_
  6
CONTINUOUS
 62
    3
 10
2305.279594668063
 20
194.55387039310011
 11
2305.279594668063
 21
144.19867916164037
  0
ARC
  8
_e-0_
  6
CONTINUOUS
 62
    3
 10
2263.9728996034464
 20
153.58344839081951
 40
42.5
 50
286.20399351045648
 51
345.50707147989851
  0
ARC
  8
_e-0_
  6
CONTINUOUS
 62
    3
 10
2300.279594668063
 20
144.19867916164037
 40
5
 50
345.50707147989879
 51
0.0000000000000159
  0
ARC
  8
_e-0_
  6
CONTINUOUS
 62
    3
 10
2242.1434725645221
 20
154.92082031886695
 40
40
 50
279.71265316664215
 51
332.69093929010892
  0
ARC
  8
_e-0_
  6
CONTINUOUS
 62
    3
 10
2248.0482195817735
 20
120.42250206040307
 40
5
 50
241.9452628118
 51
279.71265316664221
  0
ARC
  8
_e-0_
  6
CONTINUOUS
 62
    3
 10
2255.3150461234199
 20
189.55387039310011
 40
5
 50
90
 51
106.05338143786268
  0
LINE
  8
_e-0_
  6
CONTINUOUS
 62
    3
 10
2280.4842327420237
 20
194.55387039309982
 11
2270.268932781993
 21
189.66588876819173
  0
LINE
  8
_e-0_
  6
CONTINUOUS
 62
    3
 10
2270.268932781993
 20
189.66588876819173
 11
2264.3501921643833
 21
185.86970164581146
  0
LINE
  8
_e-0_
  6
CONTINUOUS
 62
    3
 10
2258.4972011002919
 20
181.99134005275368
 11
2264.3501921643833
 21
185.86970164581146
  0
ARC
  8
_e-0_
  6
CONTINUOUS
 62
    3
 10
2255.3150461234199
 20
189.55387039310011
 40
5
 50
90
 51
106.05338143786268
  0
ARC
  8
_e-0_
  6
CONTINUOUS
 62
    3
 10
2255.3150461234199
 20
189.55387039310011
 40
5
 50
90
 51
106.05338143786268
  0
LINE
  8
_e-0_
  6
CONTINUOUS
 62
    3
 10
2280.4842327420237
 20
194.55387039310011
 11
2255.3150461234199
 21
194.55387039310011
  0
ARC
  8
_e-0_
  6
CONTINUOUS
 62
    3
 10
2265.6850271033658
 20
153.5162026761742
 40
42.5
 50
106.05338143786271
 51
241.94526281180051
  0
ARC
  8
_e-0_
  6
CONTINUOUS
 62
    3
 10
2255.3150461234199
 20
189.55387039310011
 40
5
 50
90
 51
106.05338143786268
  0
LINE
  8
_e-0_
  6
CONTINUOUS
 62
    3
 10
2291.2227167726573
 20
194.55387039310011
 11
2305.279594668063
 21
194.55387039310011
  0
ARC
  8
_e-0_
  6
CONTINUOUS
 62
    3
 10
2291.2227167726573
 20
189.55387039310011
 40
5
 50
90
 51
112.84552721528325
  0
LINE
  8
_e-0_
  6
CONTINUOUS
 62
    3
 10
2284.1036110941486
 20
173.31970220284119
 11
2261.0680884297689
 21
173.31970220284119
  0
ARC
  8
_e-0_
  6
CONTINUOUS
 62
    3
 10
2261.0680884297689
 20
168.31970220284119
 40
5
 50
90
 51
110.93110431809542
  0
ARC
  8
_e-0_
  6
CONTINUOUS
 62
    3
 10
2246.280000107059
 20
162.1290763781451
 40
0.5
 50
165.368776721252
 51
224.67319701305797
  0
LINE
  8
_e-0_
  6
CONTINUOUS
 62
    3
 10
2245.9244358848645
 20
161.77754532134485
 11
2245.7344921007288
 21
161.96966835730563
  0
ARC
  8
_e-0_
  6
CONTINUOUS
 62
    3
 10
2268.2129904475896
 20
149.63948873629476
 40
25
 50
110.93110431809527
 51
150.17701829297226
  0
ARC
  8
_e-0_
  6
CONTINUOUS
 62
    3
 10
2246.0900563229238
 20
162.32119941410587
 40
0.5
 50
224.67319701305652
 51
330.17701829297561
  0
LINE
  8
_e-0_
  6
CONTINUOUS
 62
    3
 10
2289.2814768910575
 20
194.16164509702042
 11
2275.5741279425565
 21
188.38678539583099
  0
LINE
  8
_e-0_
  6
CONTINUOUS
 62
    3
 10
2275.5741279425565
 20
188.38678539583099
 11
2269.1652622122451
 21
184.88657977403136
  0
ARC
  8
_e-0_
  6
CONTINUOUS
 62
    3
 10
2269.9855058223765
 20
155.94045789086862
 40
25
 50
126.05682261028302
 51
165.36877672125814
  0
ARC
  8
_e-0_
  6
CONTINUOUS
 62
    3
 10
2314.0795261788807
 20
95.540573190998543
 40
100
 50
116.68868989749238
 51
126.03335467187628
  0
LINE
  8
_e-0_
  6
CONTINUOUS
 62
    3
 10
2254.375207286127
 20
179.18201849977265
 11
2246.4067752679411
 21
171.92707079532567
  0
LINE
  8
_e-0_
  6
CONTINUOUS
 62
    3
 10
2246.4067752679411
 20
171.92707079532567
 11
2244.5616298314562
 21
169.7938494987261
  0
ARC
  8
_e-0_
  6
CONTINUOUS
 62
    3
 10
2266.6001168011466
 20
158.97724261098005
 40
25
 50
169.07329675873063
 51
296.32138326661799
  0
LINE
  8
_e-0_
  6
CONTINUOUS
 62
    3
 10
2244.5616298314557
 20
169.7938494987261
 11
2242.0533548929147
 21
163.71606945109476
  0
LINE
  8
_e-0_
  6
CONTINUOUS
 62
    3
 10
2284.1036110941486
 20
173.31970220284119
 11
2284.1036110941486
 21
148.84947071428769
  0
ARC
  8
_e-0_
  6
CONTINUOUS
 62
    3
 10
2269.3348263498528
 20
128.55612168904315
 40
5
 50
311.4163090429962
 51
326.13300916724881
  0
ARC
  8
_e-0_
  6
CONTINUOUS
 62
    3
 10
2244.3366749153346
 20
153.16117420016951
 40
40
 50
316.78132524618342
 51
353.81191653224226
  0
ARC
  8
_e-0_
  6
CONTINUOUS
 62
    3
 10
2232.9509318238069
 20
169.80187564163315
 40
60
 50
294.69555798319504
 51
311.41630904299643
  0
ARC
  8
_e-0_
  6
CONTINUOUS
 62
    3
 10
2263.9775491586719
 20
187.40588336388725
 40
75
 50
264.68313230529076
 51
266.17253517307824
  0
ARC
  8
_e-0_
  6
CONTINUOUS
 62
    3
 10
2257.0741018984176
 20
113.22642248740947
 40
0.5
 50
174.02086603460466
 51
264.68313230528985
  0
ARC
  8
_e-0_
  6
CONTINUOUS
 62
    3
 10
2259.0632216918124
 20
113.01808994668988
 40
2.5
 50
114.69555798319522
 51
174.02086603461154
  0
LINE
  8
_e-0_
  6
CONTINUOUS
 62
    7
 10
2368.9407257363964
 20
153.8555320965915
 11
2380.3126248015978
 21
157.9945648634046
  0
LINE
  8
_e-0_
  6
CONTINUOUS
 62
    3
 10
2428.3092572732289
 20
147.05833678116505
 11
2428.3092572732289
 21
120.91539808426659
  0
CIRCLE
  8
_e-0_
  6
CONTINUOUS
 62
    3
 10
2357.5674768778403
 20
146.88814634727634
 40
13.33773795583065
  0
CIRCLE
  8
_e-0_
  6
CONTINUOUS
 62
    3
 10
2357.2837594304651
 20
146.60442889990122
 40
25.691707563897665
  0
LINE
  8
_e-0_
  6
CONTINUOUS
 62
    3
 10
2391.5446955520596
 20
172.68771567712093
 11
2391.5446955520596
 21
120.91539808426659
  0
LINE
  8
_e-0_
  6
CONTINUOUS
 62
    3
 10
2391.5446955520596
 20
120.91539808426659
 11
2406.9076645804707
 21
120.91539808426659
  0
LINE
  8
_e-0_
  6
CONTINUOUS
 62
    3
 10
2406.9076645804707
 20
120.91539808426659
 11
2406.9076645804707
 21
157.05833678116505
  0
LINE
  8
_e-0_
  6
CONTINUOUS
 62
    3
 10
2443.2282098557325
 20
120.91539808426659
 11
2428.3092572732289
 21
120.91539808426659
  0
LINE
  8
_e-0_
  6
CONTINUOUS
 62
    3
 10
2418.3092572732289
 20
157.05833678116505
 11
2406.9076645804707
 21
157.05833678116505
  0
ARC
  8
_e-0_
  6
CONTINUOUS
 62
    3
 10
2418.3092572732289
 20
147.05833678116505
 40
10
 50
0
 51
90
  0
LINE
  8
_e-0_
  6
CONTINUOUS
 62
    3
 10
2418.2282098557325
 20
172.68771567712093
 11
2391.5446955520596
 21
172.68771567712093
  0
LINE
  8
_e-0_
  6
CONTINUOUS
 62
    3
 10
2443.2282098557325
 20
147.68771567712093
 11
2443.2282098557325
 21
120.91539808426659
  0
ARC
  8
_e-0_
  6
CONTINUOUS
 62
    3
 10
2418.2282098557325
 20
147.68771567712093
 40
25
 50
0
 51
90
  0
ARC
  8
_e-0_
  6
CONTINUOUS
 62
    3
 10
2478.295994444325
 20
146.60174948003543
 40
13.33773795583065
 50
23.422555400004949
 51
97.191484740792631
  0
LINE
  8
_e-0_
  6
CONTINUOUS
 62
    3
 10
2466.0573099578646
 20
151.90362233962787
 11
2490.5346789307855
 21
151.90362233962787
  0
ARC
  8
_e-0_
  6
CONTINUOUS
 62
    3
 10
2478.295994444325
 20
146.60174948003543
 40
13.33773795583065
 50
92.530763017635237
 51
156.57744459999506
  0
ARC
  8
_e-0_
  6
CONTINUOUS
 62
    3
 10
2478.295994444325
 20
146.60174948003543
 40
13.33773795583065
 50
204.21097500392608
 51
316.0067678116265
  0
LINE
  8
_e-0_
  6
CONTINUOUS
 62
    3
 10
2466.1314228627888
 20
141.13197324913869
 11
2503.5708091830401
 21
141.13197324913869
  0
LINE
  8
_e-0_
  6
CONTINUOUS
 62
    3
 10
2487.8914545430643
 20
137.33771152286408
 11
2500.7599750366907
 21
134.21464658261612
  0
ARC
  8
_e-0_
  6
CONTINUOUS
 62
    3
 10
2478.6163205945872
 20
147.24240178055936
 40
25.691707563897665
 50
346.24110979921471
 51
329.53046432565093
  0
ARC
  8
_e-0_
  6
CONTINUOUS
 62
    3
 10
2538.5642928691422
 20
146.56831030951025
 40
11.089756641867943
 50
94.502189492040685
 51
357.22978420280037
  0
LINE
  8
_e-0_
  6
CONTINUOUS
 62
    3
 10
2548.6410899779489
 20
157.6238476750268
 11
2537.6937781159522
 21
157.6238476750268
  0
LINE
  8
_e-0_
  6
CONTINUOUS
 62
    3
 10
2549.6410899779489
 20
156.62384767502715
 11
2549.6410899779489
 21
146.03233625585858
  0
ARC
  8
_e-0_
  6
CONTINUOUS
 62
    3
 10
2548.6410899779489
 20
156.62384767502715
 40
1
 50
0
 51
90
  0
LINE
  8
_e-0_
  6
CONTINUOUS
 62
    3
 10
2541.0210795623534
 20
172.7157992833321
 11
2549.4438113726191
 21
172.7157992833321
  0
ARC
  8
_e-0_
  6
CONTINUOUS
 62
    3
 10
2539.017019488006
 20
147.10237349201634
 40
25.691707563897665
 50
85.526146014136969
 51
347.40557840019874
  0
LINE
  8
_e-0_
  6
CONTINUOUS
 62
    3
 10
2549.4438113726191
 20
193.55387039310016
 11
2549.4438113726191
 21
172.7157992833321
  0
ARC
  8
_e-0_
  6
CONTINUOUS
 62
    3
 10
2550.4438113726191
 20
193.55387039310016
 40
1
 50
90
 51
180
  0
LINE
  8
_e-0_
  6
CONTINUOUS
 62
    3
 10
2564.0905330831633
 20
193.55387039310016
 11
2564.0905330831633
 21
141.50034229411204
  0
LINE
  8
_e-0_
  6
CONTINUOUS
 62
    3
 10
2563.0905330831637
 20
194.55387039310011
 11
2550.4438113726191
 21
194.55387039310011
  0
ARC
  8
_e-0_
  6
CONTINUOUS
 62
    3
 10
2563.0905330831637
 20
193.55387039310016
 40
1
 50
0
 51
90
  0
CIRCLE
  8
_e-0_
  6
CONTINUOUS
 62
    3
 10
2599.5440184063854
 20
147.043799567397
 40
13.33773795583065
  0
CIRCLE
  8
_e-0_
  6
CONTINUOUS
 62
    3
 10
2599.2603009590102
 20
146.76008212002216
 40
25.691707563897665
  0
ARC
  8
_e-0_
  6
CONTINUOUS
 62
    3
 10
2353.3563784056705
 20
167.9863014610953
 40
5
 50
90
 51
106.05338143786268
  0
ARC
  8
_e-0_
  6
CONTINUOUS
 62
    3
 10
2353.3563784056705
 20
167.9863014610953
 40
5
 50
90
 51
106.05338143786268
  0
ARC
  8
_e-0_
  6
CONTINUOUS
 62
    3
 10
2353.3563784056705
 20
167.9863014610953
 40
5
 50
90
 51
106.05338143786268
  0
ARC
  8
_e-0_
  6
CONTINUOUS
 62
    3
 10
2353.3563784056705
 20
167.9863014610953
 40
5
 50
90
 51
106.05338143786268
  0
LINE
  8
_e-0_
  6
CONTINUOUS
 62
    7
 10
2338.3978142599034
 20
164.02237690083893
 11
2360.5551916202571
 21
172.08700272941143
  0
LINE
  8
_e-0_
  6
CONTINUOUS
 62
    7
 10
2353.2922401344162
 20
164.1226157132661
 11
2368.5713183881321
 21
169.68374540464282
  0
LINE
  8
_e-0_
  6
CONTINUOUS
 62
    7
 10
2333.8018889252853
 20
157.02870801774821
 11
2353.2922401344162
 21
164.1226157132661
  0
LINE
  8
_e-0_
  6
CONTINUOUS
 62
    7
 10
2331.9785744704108
 20
151.04418696608718
 11
2349.2864007501184
 21
157.343720551751
  0
LINE
  8
_e-0_
  6
CONTINUOUS
 62
    7
 10
2331.612090482029
 20
145.58990884060165
 11
2344.6864605819832
 21
150.34859038876504
  0
LINE
  8
_e-0_
  6
CONTINUOUS
 62
    7
 10
2332.3211868115895
 20
140.52710993540927
 11
2344.3765135579678
 21
144.91489003544415
  0
LINE
  8
_e-0_
  6
CONTINUOUS
 62
    7
 10
2333.971216176696
 20
135.8067826475937
 11
2346.0301909803711
 21
140.19589053189747
  0
LINE
  8
_e-0_
  6
CONTINUOUS
 62
    7
 10
2336.5548628009087
 20
131.42626425228996
 11
2349.6156774979731
 21
136.18001203728795
  0
LINE
  8
_e-0_
  6
CONTINUOUS
 62
    7
 10
2340.1868985942028
 20
127.42732830845881
 11
2357.0387292924815
 21
133.56089307552565
  0
LINE
  8
_e-0_
  6
CONTINUOUS
 62
    7
 10
2345.2008630322079
 20
123.93137325718271
 11
2367.3042092217142
 21
131.97633334784399
  0
LINE
  8
_e-0_
  6
CONTINUOUS
 62
    7
 10
2352.6724918069285
 20
121.32993487028784
 11
2367.3578368417856
 21
126.6749633429049
  0
LINE
  8
_e-0_
  6
CONTINUOUS
 62
    7
 10
2367.3578368417856
 20
126.6749633429049
 11
2377.0623269725419
 21
130.20710888923048
  0
LINE
  8
_e-0_
  6
CONTINUOUS
 62
    7
 10
2366.4508876466361
 20
131.66574969425852
 11
2381.1137543140057
 21
137.00259671019495
  0
LINE
  8
_e-0_
  6
CONTINUOUS
 62
    7
 10
2366.5391143016527
 20
137.01875043293284
 11
2382.7075173187545
 21
142.90356786677762
  0
LINE
  8
_e-0_
  6
CONTINUOUS
 62
    7
 10
2370.5419646629043
 20
143.79655767902988
 11
2382.9193516787918
 21
148.3015581308058
  0
LINE
  8
_e-0_
  6
CONTINUOUS
 62
    7
 10
2370.7072497472495
 20
149.17760539227913
 11
2382.0827968697476
 21
153.31796594336083
  0
LINE
  8
_e-0_
  6
CONTINUOUS
 62
    7
 10
2357.1904356777322
 20
160.22055399600276
 11
2373.8148342762628
 21
166.2713402484448
  0
LINE
  8
_e-0_
  6
CONTINUOUS
 62
    7
 10
2365.2105772791237
 20
157.81875795113023
 11
2377.6015196979014
 21
162.32869216607127
  0
LINE
  8
_e-0_
  6
CONTINUOUS
 62
    7
 10
2391.5446955520596
 20
167.40359314812394
 11
2406.0627028821104
 21
172.68771567712093
  0
LINE
  8
_e-0_
  6
CONTINUOUS
 62
    7
 10
2391.5446955520596
 20
162.08270428574451
 11
2420.4177781140142
 21
172.59164690980639
  0
LINE
  8
_e-0_
  6
CONTINUOUS
 62
    7
 10
2391.5446955520596
 20
156.76181542336507
 11
2428.825043624869
 21
170.3307524449508
  0
LINE
  8
_e-0_
  6
CONTINUOUS
 62
    7
 10
2391.5446955520596
 20
151.44092656098564
 11
2434.1617370349076
 21
166.95226113322974
  0
LINE
  8
_e-0_
  6
CONTINUOUS
 62
    7
 10
2391.5446955520596
 20
146.12003769860621
 11
2406.9076645804707
 21
151.7117011349012
  0
LINE
  8
_e-0_
  6
CONTINUOUS
 62
    7
 10
2420.759742105426
 20
156.75344503673244
 11
2437.9751424470605
 21
163.01933833206305
  0
LINE
  8
_e-0_
  6
CONTINUOUS
 62
    7
 10
2391.5446955520596
 20
140.79914883622677
 11
2406.9076645804707
 21
146.39081227252177
  0
LINE
  8
_e-0_
  6
CONTINUOUS
 62
    7
 10
2395.3906273502475
 20
120.91539808426659
 11
2406.9076645804707
 21
125.10725682300346
  0
LINE
  8
_e-0_
  6
CONTINUOUS
 62
    7
 10
2391.5446955520596
 20
124.8364822490879
 11
2406.9076645804707
 21
130.42814568538318
  0
LINE
  8
_e-0_
  6
CONTINUOUS
 62
    7
 10
2391.5446955520596
 20
130.15737111146762
 11
2406.9076645804707
 21
135.74903454776261
  0
LINE
  8
_e-0_
  6
CONTINUOUS
 62
    7
 10
2391.5446955520596
 20
135.47825997384705
 11
2406.9076645804707
 21
141.06992341014233
  0
LINE
  8
_e-0_
  6
CONTINUOUS
 62
    7
 10
2428.3092572732289
 20
143.53857725381516
 11
2443.2282098557325
 21
148.96863192027495
  0
LINE
  8
_e-0_
  6
CONTINUOUS
 62
    7
 10
2428.3092572732289
 20
138.21768839143601
 11
2443.2282098557325
 21
143.6477430578958
  0
LINE
  8
_e-0_
  6
CONTINUOUS
 62
    7
 10
2428.1557813921931
 20
148.80360546382007
 11
2442.4194517644268
 21
153.99515691069751
  0
LINE
  8
_e-0_
  6
CONTINUOUS
 62
    7
 10
2428.3092572732289
 20
132.89679952905657
 11
2443.2282098557325
 21
138.32685419551637
  0
LINE
  8
_e-0_
  6
CONTINUOUS
 62
    7
 10
2428.3092572732289
 20
127.57591066667686
 11
2443.2282098557325
 21
133.00596533313665
  0
LINE
  8
_e-0_
  6
CONTINUOUS
 62
    7
 10
2428.3092572732289
 20
122.25502180429714
 11
2443.2282098557325
 21
127.68507647075722
  0
LINE
  8
_e-0_
  6
CONTINUOUS
 62
    7
 10
2439.247693352695
 20
120.91539808426659
 11
2443.2282098557325
 21
122.3641876083775
  0
LINE
  8
_e-0_
  6
CONTINUOUS
 62
    7
 10
2426.0696362324174
 20
153.36519958368285
 11
2440.6804200699466
 21
158.68308999984094
  0
LINE
  8
_e-0_
  6
CONTINUOUS
 62
    7
 10
2461.2391180831359
 20
166.16584413190906
 11
2479.7642757393732
 21
172.9084501038676
  0
LINE
  8
_e-0_
  6
CONTINUOUS
 62
    7
 10
2455.6823727205842
 20
158.8224653581642
 11
2488.7412225351813
 21
170.85490266975369
  0
LINE
  8
_e-0_
  6
CONTINUOUS
 62
    7
 10
2453.5136329133938
 20
152.71221976009883
 11
2494.3301637756285
 21
167.56822205995973
  0
LINE
  8
_e-0_
  6
CONTINUOUS
 62
    7
 10
2453.5499758138648
 20
147.40455863171803
 11
2466.0402009988042
 21
151.95062881831773
  0
LINE
  8
_e-0_
  6
CONTINUOUS
 62
    7
 10
2484.2015654578563
 20
158.5608248950723
 11
2498.33930178449
 21
163.70654009787131
  0
LINE
  8
_e-0_
  6
CONTINUOUS
 62
    7
 10
2488.743461686327
 20
154.89305106698225
 11
2501.229225702727
 21
159.43749752102377
  0
LINE
  8
_e-0_
  6
CONTINUOUS
 62
    7
 10
2455.2600765304937
 20
142.70609552778864
 11
2480.5300737608513
 21
151.90362233962787
  0
LINE
  8
_e-0_
  6
CONTINUOUS
 62
    7
 10
2454.9396132864276
 20
137.26856758339266
 11
2503.1647877023642
 21
154.82109561308902
  0
LINE
  8
_e-0_
  6
CONTINUOUS
 62
    7
 10
2457.3510255582341
 20
132.82536101049515
 11
2468.979076889896
 21
137.05762557773937
  0
LINE
  8
_e-0_
  6
CONTINUOUS
 62
    7
 10
2480.1732551160739
 20
141.13197324913869
 11
2504.1735768638141
 21
149.86737597812748
  0
LINE
  8
_e-0_
  6
CONTINUOUS
 62
    7
 10
2494.7922771168896
 20
141.13197324913869
 11
2504.1658959394976
 21
144.54369148792522
  0
LINE
  8
_e-0_
  6
CONTINUOUS
 62
    7
 10
2460.7789079158069
 20
128.75211929283807
 11
2474.6057479243422
 21
133.78467748990601
  0
LINE
  8
_e-0_
  6
CONTINUOUS
 62
    7
 10
2465.5015919032312
 20
125.15014682772687
 11
2494.5480952820462
 21
135.72220946712775
  0
LINE
  8
_e-0_
  6
CONTINUOUS
 62
    7
 10
2472.3576833866291
 20
122.32467118870999
 11
2499.4275233351891
 21
132.17728717633548
  0
LINE
  8
_e-0_
  6
CONTINUOUS
 62
    7
 10
2544.6739029189734
 20
122.04117824124523
 11
2550.7926211614717
 21
124.26820955337575
  0
LINE
  8
_e-0_
  6
CONTINUOUS
 62
    7
 10
2531.4520014282843
 20
122.54968852061381
 11
2560.5943212189044
 21
133.15662548186594
  0
LINE
  8
_e-0_
  6
CONTINUOUS
 62
    7
 10
2525.0484139172749
 20
125.53986213646737
 11
2563.5777072966575
 21
139.56337807387171
  0
LINE
  8
_e-0_
  6
CONTINUOUS
 62
    7
 10
2514.1325981815766
 20
153.49216330021562
 11
2564.0905330831633
 21
171.67536456980116
  0
LINE
  8
_e-0_
  6
CONTINUOUS
 62
    7
 10
2516.6404168063627
 20
159.72582349495553
 11
2564.0905330831633
 21
176.99625343218059
  0
LINE
  8
_e-0_
  6
CONTINUOUS
 62
    7
 10
2549.4438113726191
 20
192.94883814948036
 11
2553.8536012194617
 21
194.55387039310011
  0
LINE
  8
_e-0_
  6
CONTINUOUS
 62
    7
 10
2549.4438113726191
 20
187.62794928710093
 11
2564.0905330831633
 21
192.95892001931918
  0
LINE
  8
_e-0_
  6
CONTINUOUS
 62
    7
 10
2549.4438113726191
 20
182.30706042472121
 11
2564.0905330831633
 21
187.63803115693974
  0
LINE
  8
_e-0_
  6
CONTINUOUS
 62
    7
 10
2549.4438113726191
 20
176.98617156234149
 11
2564.0905330831633
 21
182.31714229456031
  0
LINE
  8
_e-0_
  6
CONTINUOUS
 62
    7
 10
2523.4107658070579
 20
167.51091786918209
 11
2537.8537439408219
 21
172.76773200402942
  0
LINE
  8
_e-0_
  6
CONTINUOUS
 62
    7
 10
2540.1033297065005
 20
157.6238476750268
 11
2564.0905330831633
 21
166.35447570742172
  0
LINE
  8
_e-0_
  6
CONTINUOUS
 62
    7
 10
2513.3371361174354
 20
147.88174992400058
 11
2530.4259422685104
 21
154.10156670213723
  0
LINE
  8
_e-0_
  6
CONTINUOUS
 62
    7
 10
2513.7061446004349
 20
142.6951691656248
 11
2527.5354029593377
 21
147.72860757024204
  0
LINE
  8
_e-0_
  6
CONTINUOUS
 62
    7
 10
2515.0447452877542
 20
137.86149110899771
 11
2528.1911856253786
 21
142.64640407844922
  0
LINE
  8
_e-0_
  6
CONTINUOUS
 62
    7
 10
2517.3070774056068
 20
133.36402379754076
 11
2531.0862222029413
 21
138.37922235741473
  0
LINE
  8
_e-0_
  6
CONTINUOUS
 62
    7
 10
2520.5624650595818
 20
129.22799914220604
 11
2537.8068709000103
 21
135.50444957572807
  0
LINE
  8
_e-0_
  6
CONTINUOUS
 62
    7
 10
2546.2562243546644
 20
138.57976273201643
 11
2564.0905330831633
 21
145.0709202579037
  0
LINE
  8
_e-0_
  6
CONTINUOUS
 62
    7
 10
2549.5566716184766
 20
145.10191615818882
 11
2564.0905330831633
 21
150.39180912028314
  0
LINE
  8
_e-0_
  6
CONTINUOUS
 62
    7
 10
2549.6410899779489
 20
150.4535307906417
 11
2564.0905330831633
 21
155.71269798266257
  0
LINE
  8
_e-0_
  6
CONTINUOUS
 62
    7
 10
2549.6410899779489
 20
155.77441965302114
 11
2564.0905330831633
 21
161.033586845042
  0
LINE
  8
_e-0_
  6
CONTINUOUS
 62
    7
 10
2587.1974966456623
 20
169.44383378606516
 11
2593.9201106595442
 21
171.8906651835789
  0
LINE
  8
_e-0_
  6
CONTINUOUS
 62
    7
 10
2577.6443798702302
 20
160.64589477295925
 11
2606.8934288682321
 21
171.29167798882519
  0
LINE
  8
_e-0_
  6
CONTINUOUS
 62
    7
 10
2600.5688513241625
 20
121.1017202570602
 11
2614.7507703136088
 21
126.26351663399304
  0
LINE
  8
_e-0_
  6
CONTINUOUS
 62
    7
 10
2590.2952099751182
 20
122.68330947086099
 11
2621.6042102293968
 21
134.07885362805103
  0
LINE
  8
_e-0_
  6
CONTINUOUS
 62
    7
 10
2574.6838259529545
 20
154.24745240775138
 11
2613.2741842187642
 21
168.2931941461743
  0
LINE
  8
_e-0_
  6
CONTINUOUS
 62
    7
 10
2584.3475524073419
 20
125.8394280149622
 11
2624.1316663639163
 21
140.31966129180915
  0
LINE
  8
_e-0_
  6
CONTINUOUS
 62
    7
 10
2580.1202834180858
 20
129.62171679301548
 11
2594.2968457670781
 21
134.78156351226772
  0
LINE
  8
_e-0_
  6
CONTINUOUS
 62
    7
 10
2577.060163208755
 20
133.82881298592224
 11
2589.4416673383839
 21
138.33531194455133
  0
LINE
  8
_e-0_
  6
CONTINUOUS
 62
    7
 10
2574.9705638104942
 20
138.38914986579482
 11
2586.9202518331721
 21
142.73848061481658
  0
LINE
  8
_e-0_
  6
CONTINUOUS
 62
    7
 10
2573.8046086959921
 20
143.2856657720049
 11
2586.2281608356038
 21
147.80746895467757
  0
LINE
  8
_e-0_
  6
CONTINUOUS
 62
    7
 10
2573.6305462928121
 20
148.54320110072194
 11
2588.0360729418825
 21
153.78638400991206
  0
LINE
  8
_e-0_
  6
CONTINUOUS
 62
    7
 10
2604.0255663442703
 20
159.60608366937663
 11
2617.7476653121634
 21
164.60051924534468
  0
LINE
  8
_e-0_
  6
CONTINUOUS
 62
    7
 10
2609.2536798838054
 20
156.18807251675207
 11
2620.9938043422398
 21
160.46112836620267
  0
LINE
  8
_e-0_
  6
CONTINUOUS
 62
    7
 10
2611.9817903194934
 20
151.86013464875372
 11
2623.2480506609945
 21
155.9607180645537
  0
LINE
  8
_e-0_
  6
CONTINUOUS
 62
    7
 10
2612.880576247539
 20
146.8663771111602
 11
2624.5786526959909
 21
151.12412873656694
  0
LINE
  8
_e-0_
  6
CONTINUOUS
 62
    7
 10
2611.4455992521011
 20
141.02319933558476
 11
2624.9387339199165
 21
145.93429872161465
  0
TEXT
  8
_e-0_
 62
    7
 10
2634.9094164018197
 20
164.98768243046669
 40
35
 41
0.5714285714285711
 50
0
  1
ワンド
  0
TEXT
  8
_e-0_
 62
    7
 10
2641.755243841706
 20
131.44312797502095
 40
30
 41
0.6666666666666666
 50
0
  1
株式
  0
TEXT
  8
_e-0_
 62
    7
 10
2641.0706610977176
 20
103.37523547148492
 40
30
 41
0.6666666666666666
 50
0
  1
会社
  0
LINE
  8
_0-8_ラッチ立面__受け
  6
CONTINUOUS
 62
    4
 10
797.66514634671807
 20
1918.7336152219872
 11
1047.665146346718
 21
1918.7336152219872
  0
LINE
  8
_0-8_ラッチ立面__受け
  6
CONTINUOUS
 62
    4
 10
797.66514634671807
 20
1988.7336152219872
 11
797.66514634671807
 21
1918.7336152219872
  0
LINE
  8
_0-8_ラッチ立面__受け
  6
CONTINUOUS
 62
    4
 10
1047.665146346718
 20
1988.7336152219872
 11
797.66514634671807
 21
1988.7336152219872
  0
LINE
  8
_0-8_ラッチ立面__受け
  6
CONTINUOUS
 62
    4
 10
1047.665146346718
 20
1918.7336152219872
 11
1047.665146346718
 21
1988.7336152219872
  0
TEXT
  8
_0-8_ラッチ立面__受け
 62
    7
 10
872.82476271240284
 20
1938.7336152219872
 40
30
 41
1
 50
0
  1
平面図
  0
LINE
  8
_0-8_ラッチ立面__受け
  6
CONTINUOUS
 62
    4
 10
797.98437907808738
 20
411.67369927125179
 11
797.98437907808738
 21
341.67369927125179
  0
LINE
  8
_0-8_ラッチ立面__受け
  6
CONTINUOUS
 62
    4
 10
797.98437907808738
 20
411.67369927125179
 11
1047.9843790780873
 21
411.67369927125179
  0
LINE
  8
_0-8_ラッチ立面__受け
  6
CONTINUOUS
 62
    4
 10
1047.9843790780873
 20
411.67369927125179
 11
1047.9843790780873
 21
341.67369927125179
  0
LINE
  8
_0-8_ラッチ立面__受け
  6
CONTINUOUS
 62
    4
 10
1047.9843790780873
 20
341.67369927125179
 11
797.98437907808738
 21
341.67369927125179
  0
TEXT
  8
_0-8_ラッチ立面__受け
 62
    7
 10
872.98437907808738
 20
361.67369927125179
 40
30
 41
1
 50
0
  1
立面図
  0
LINE
  8
_0-8_ラッチ立面__受け
  6
CONTINUOUS
 62
    4
 10
1983.8570920036443
 20
411.58423435877193
 11
1983.8570920036443
 21
341.58423435877193
  0
LINE
  8
_0-8_ラッチ立面__受け
  6
CONTINUOUS
 62
    4
 10
1983.8570920036443
 20
341.58423435877193
 11
2233.8570920036445
 21
341.58423435877193
  0
LINE
  8
_0-8_ラッチ立面__受け
  6
CONTINUOUS
 62
    4
 10
2233.8570920036445
 20
341.58423435877193
 11
2233.8570920036445
 21
411.58423435877193
  0
LINE
  8
_0-8_ラッチ立面__受け
  6
CONTINUOUS
 62
    4
 10
2233.8570920036445
 20
411.58423435877193
 11
1983.8570920036443
 21
411.58423435877193
  0
TEXT
  8
_0-8_ラッチ立面__受け
 62
    7
 10
2058.8570920036445
 20
361.58423435877193
 40
30
 41
1
 50
0
  1
断面図
  0
LINE
  8
_0-8_ラッチ立面__受け
  6
CONTINUOUS
 62
    4
 10
3129.8913935730729
 20
411.51252889017041
 11
3129.8913935730729
 21
341.51252889017001
  0
LINE
  8
_0-8_ラッチ立面__受け
  6
CONTINUOUS
 62
    4
 10
3129.8913935730729
 20
341.51252889017001
 11
3379.8913935730729
 21
341.51252889017001
  0
LINE
  8
_0-8_ラッチ立面__受け
  6
CONTINUOUS
 62
    4
 10
3379.8913935730729
 20
341.51252889017001
 11
3379.8913935730729
 21
411.51252889017041
  0
LINE
  8
_0-8_ラッチ立面__受け
  6
CONTINUOUS
 62
    4
 10
3379.8913935730729
 20
411.51252889017041
 11
3129.8913935730729
 21
411.51252889017041
  0
TEXT
  8
_0-8_ラッチ立面__受け
 62
    7
 10
3204.8913935730729
 20
361.51252889017001
 40
30
 41
1
 50
0
  1
背面図
  0
LINE
  8
_f-8_
  6
CONTINUOUS
 62
    7
 10
622.05073382680154
 20
104.42521185597115
 11
622.05073382680154
 21
204.42521185597115
  0
LINE
  8
_f-8_
  6
CONTINUOUS
 62
    7
 10
162.05073382680211
 20
104.42521185597115
 11
602.05073382680154
 21
104.42521185597115
  0
LINE
  8
_f-8_
  6
CONTINUOUS
 62
    7
 10
162.05073382680211
 20
204.42521185597115
 11
602.05073382680154
 21
204.42521185597115
  0
LINE
  8
_f-8_
  6
CONTINUOUS
 62
    7
 10
1412.0507338268016
 20
104.42521185597115
 11
1412.0507338268016
 21
204.42521185597115
  0
LINE
  8
_f-8_
  6
CONTINUOUS
 62
    7
 10
2202.0507338268016
 20
104.42521185597115
 11
2202.0507338268016
 21
204.42521185597115
  0
LINE
  8
_f-8_
  6
CONTINUOUS
 62
    7
 10
2212.0507338268016
 20
104.42521185597115
 11
2212.0507338268016
 21
204.42521185597115
  0
LINE
  8
_f-8_
  6
CONTINUOUS
 62
    7
 10
622.05073382680154
 20
104.42521185597115
 11
2202.0507338268016
 21
104.42521185597115
  0
LINE
  8
_f-8_
  6
CONTINUOUS
 62
    7
 10
622.05073382680154
 20
204.42521185597115
 11
2202.0507338268016
 21
204.42521185597115
  0
LINE
  8
_f-8_
  6
CONTINUOUS
 62
    7
 10
2702.0507338268021
 20
104.42521185597115
 11
2702.0507338268021
 21
204.42521185597115
  0
LINE
  8
_f-8_
  6
CONTINUOUS
 62
    7
 10
2712.0507338268021
 20
104.42521185597115
 11
2712.0507338268021
 21
204.42521185597115
  0
LINE
  8
_f-8_
  6
CONTINUOUS
 62
    7
 10
2212.0507338268016
 20
104.42521185597115
 11
2702.0507338268021
 21
104.42521185597115
  0
LINE
  8
_f-8_
  6
CONTINUOUS
 62
    7
 10
2212.0507338268016
 20
204.42521185597115
 11
2702.0507338268021
 21
204.42521185597115
  0
LINE
  8
_f-8_
  6
CONTINUOUS
 62
    7
 10
3012.0507338268021
 20
104.42521185597115
 11
3012.0507338268021
 21
204.42521185597115
  0
LINE
  8
_f-8_
  6
CONTINUOUS
 62
    7
 10
3312.0507338268021
 20
104.42521185597115
 11
3312.0507338268021
 21
204.42521185597115
  0
LINE
  8
_f-8_
  6
CONTINUOUS
 62
    7
 10
3692.0507338268021
 20
104.42521185597115
 11
3692.0507338268021
 21
204.42521185597115
  0
LINE
  8
_f-8_
  6
CONTINUOUS
 62
    7
 10
2712.0507338268021
 20
104.42521185597115
 11
4102.0507338268025
 21
104.42521185597115
  0
LINE
  8
_f-8_
  6
CONTINUOUS
 62
    7
 10
4102.0507338268025
 20
104.42521185597115
 11
4102.0507338268025
 21
204.42521185597115
  0
LINE
  8
_f-8_
  6
CONTINUOUS
 62
    7
 10
2712.0507338268021
 20
204.42521185597115
 11
4102.0507338268025
 21
204.42521185597115
  0
LINE
  8
_f-8_
  6
CONTINUOUS
 62
    7
 10
162.05073382680211
 20
154.42521185597115
 11
602.05073382680154
 21
154.42521185597115
  0
TEXT
  8
_f-8_
 62
    7
 10
647.05073382680041
 20
171.92521185597115
 40
25
 41
0.8
 50
0
  1
名　称
  0
TEXT
  8
_f-8_
 62
    7
 10
1437.0507338268025
 20
171.92521185597115
 40
25
 41
0.8
 50
0
  1
図面名称
  0
TEXT
  8
_f-8_
 62
    7
 10
2737.0507338268016
 20
171.92521185597115
 40
25
 41
0.64
 50
0
  1
ＳＣＡＬＥ
  0
TEXT
  8
_f-8_
 62
    7
 10
3037.0507338268021
 20
171.92521185597115
 40
25
 41
0.64
 50
0
  1
ＤＡＴＡ
  0
TEXT
  8
_f-8_
 62
    7
 10
3717.0507338268021
 20
171.92521185597115
 40
25
 41
0.64
 50
0
  1
ＳＨＥＥＴ　ＮＯ．
  0
TEXT
  8
_f-8_
 62
    7
 10
2824.007169387964
 20
125.15256180468327
 40
35
 41
0.5714285714285711
 50
0
  1
１／１０
  0
TEXT
  8
_f-8_
 62
    7
 10
3337.0507338268021
 20
171.92521185597115
 40
25
 41
0.64
 50
0
  1
ＣＨＥＣＫＥＤ
  0
TEXT
  8
_f-8_
 62
    7
 10
3554.0507338268025
 20
171.92521185597115
 40
25
 41
0.64
 50
0
  1
ＤＲＡＷＩＮＧ
  0
POINT
  8
_0-9_ラッチ断面__受け
 62
    3
 10
472.82476271240284
 20
2735.7744603287765
  0
POINT
  8
_0-9_ラッチ断面__受け
 62
    3
 10
472.82476271240284
 20
2735.7744603287765
  0
POINT
  8
_0-9_ラッチ断面__受け
 62
    3
 10
472.82476271240284
 20
2735.7744603287765
  0
POINT
  8
_0-9_ラッチ断面__受け
 62
    3
 10
1372.8247627124028
 20
2735.7744603287765
  0
POINT
  8
_0-9_ラッチ断面__受け
 62
    3
 10
1562.8247627124028
 20
2545.7744603287765
  0
POINT
  8
_0-9_ラッチ断面__受け
 62
    3
 10
1562.8247627124028
 20
2187.7744603287769
  0
POINT
  8
_0-9_ラッチ断面__受け
 62
    3
 10
1372.8247627124028
 20
1535.2410513398297
  0
POINT
  8
_0-9_ラッチ断面__受け
 62
    3
 10
472.82476271240284
 20
1535.2410513398297
  0
POINT
  8
_0-9_ラッチ断面__受け
 62
    3
 10
1562.8247627124028
 20
1345.2410513398297
  0
POINT
  8
_0-9_ラッチ断面__受け
 62
    3
 10
1562.8247627124028
 20
745.2410513398297
  0
POINT
  8
_0-9_ラッチ断面__受け
 62
    3
 10
1512.8247627124028
 20
745.2410513398297
  0
POINT
  8
_0-9_ラッチ断面__受け
 62
    3
 10
1512.8247627124028
 20
730.24105133982993
  0
POINT
  8
_0-9_ラッチ断面__受け
 62
    3
 10
2477.857092003644
 20
1345.2410513398299
  0
POINT
  8
_0-9_ラッチ断面__受け
 62
    3
 10
2477.857092003644
 20
745.2410513398297
  0
POINT
  8
_0-9_ラッチ断面__受け
 62
    3
 10
2397.857092003644
 20
1165.2410513398297
  0
POINT
  8
_0-9_ラッチ断面__受け
 62
    3
 10
2397.857092003644
 20
1105.2410513398297
  0
POINT
  8
_0-9_ラッチ断面__受け
 62
    3
 10
2397.857092003644
 20
1045.2410513398297
  0
POINT
  8
_0-9_ラッチ断面__受け
 62
    3
 10
2397.857092003644
 20
985.2410513398297
  0
POINT
  8
_0-9_ラッチ断面__受け
 62
    3
 10
2804.8913935730729
 20
1535.2410513398297
  0
POINT
  8
_0-9_ラッチ断面__受け
 62
    3
 10
3704.8913935730729
 20
1535.2410513398297
  0
POINT
  8
_0-9_ラッチ断面__受け
 62
    3
 10
2816.8913935730729
 20
555.24105133982914
  0
POINT
  8
_0-9_ラッチ断面__受け
 62
    3
 10
3692.8913935730734
 20
555.24105133982914
  0
LINE
  8
_f-a__0-7_寸法
  6
CONTINUOUS
 62
    4
 10
1980.3570920036443
 20
1145.1567451335447
 11
2270.3570920036445
 21
1145.1567451335447
  0
TEXT
  8
_0-9_ラッチ断面__受け
 62
    7
 10
2092.2570920036441
 20
1150.1567451335447
 40
35
 41
0.6285714285714286
 50
0
  1
２９０
  0
POINT
  8
_0-9_ラッチ断面__受け
 62
    3
 10
2270.3570920036445
 20
1145.1567451335447
  0
POINT
  8
_0-9_ラッチ断面__受け
 62
    3
 10
1980.3570920036443
 20
1145.1567451335447
  0
LINE
  8
_0-9_ラッチ断面__受け
  6
CONTINUOUS
 62
    4
 10
1980.3570920036443
 20
1155.1567451335447
 11
1980.3570920036443
 21
1091.9691036668175
  0
TEXT
  8
_f-8_
 62
    7
 10
691.76976921477603
 20
120.59042553191488
 40
45
 41
0.8
 50
0
  1
吊り戸棚　高さ６０ｃｍタイプ
  0
TEXT
  8
_f-8_
 62
    7
 10
1572.3510638297873
 20
120.59042553191488
 40
45
 41
0.6666666666666666
 50
0
  1
ＫＴＤ３－６０－９０ＨＳ
  0
TEXT
  8
_f-8_
 62
    7
 10
3037.0507338268034
 20
126.92521185597115
 40
35
 41
0.5714285714285711
 50
0
  1
２０２３．０５．０１
  0
TEXT
  8
_f-8_
 62
    7
 10
3594.0507338268034
 20
129.42521185597115
 40
30
 41
0.7333333333333329
 50
0
  1
Ｔ．Ｋ
  0
LINE
  8
_f-8_
  6
CONTINUOUS
 62
    7
 10
87.716701902748468
 20
2868.7632135306557
 11
4127.7167019027483
 21
2868.7632135306557
  0
LINE
  8
_f-8_
  6
CONTINUOUS
 62
    7
 10
4127.7167019027483
 20
2868.7632135306557
 11
4127.7167019027483
 21
48.763213530655491
  0
LINE
  8
_f-8_
  6
CONTINUOUS
 62
    7
 10
4127.7167019027483
 20
48.763213530655491
 11
87.716701902748468
 21
48.763213530655491
  0
LINE
  8
_f-8_
  6
CONTINUOUS
 62
    7
 10
87.716701902748468
 20
48.763213530655491
 11
87.716701902748468
 21
2868.7632135306557
  0
POINT
  8
_0-9_ラッチ断面__受け
 62
    3
 10
2287.8570920036445
 20
1535.2410513398297
  0
POINT
  8
_0-9_ラッチ断面__受け
 62
    3
 10
1929.8570920036443
 20
1535.2410513398297
  0
POINT
  8
_0-9_ラッチ断面__受け
 62
    3
 10
1929.8570920036443
 20
1535.2410513398297
  0
POINT
  8
_0-9_ラッチ断面__受け
 62
    3
 10
2287.8570920036445
 20
1535.2410513398297
  0
LINE
  8
_0-9_ラッチ断面__受け
  6
CONTINUOUS
 62
    4
 10
1929.8570920036443
 20
1535.2410513398297
 11
2287.8570920036445
 21
1535.2410513398297
  0
TEXT
  8
_0-9_ラッチ断面__受け
 62
    7
 10
2075.7570920036441
 20
1535.2410513398297
 40
35
 41
0.6285714285714286
 50
0
  1
３５８
  0
POINT
  8
_0-9_ラッチ断面__受け
 62
    9
 10
2287.8570920036445
 20
1455.2410513398297
  0
POINT
  8
_0-9_ラッチ断面__受け
 62
    9
 10
1945.8570920036454
 20
1455.2410513398297
  0
POINT
  8
_0-9_ラッチ断面__受け
 62
    9
 10
1945.8570920036454
 20
1455.2410513398297
  0
POINT
  8
_0-9_ラッチ断面__受け
 62
    3
 10
1945.8570920036454
 20
1455.2410513398297
  0
POINT
  8
_0-9_ラッチ断面__受け
 62
    3
 10
2287.8570920036445
 20
1455.2410513398297
  0
LINE
  8
_0-9_ラッチ断面__受け
  6
CONTINUOUS
 62
    4
 10
1945.8570920036454
 20
1455.2410513398297
 11
2287.8570920036445
 21
1455.2410513398297
  0
TEXT
  8
_0-9_ラッチ断面__受け
 62
    7
 10
2083.7570920036446
 20
1460.2410513398297
 40
35
 41
0.6285714285714286
 50
0
  1
３４２
  0
LINE
  8
_0-9_ラッチ断面__受け
  6
CONTINUOUS
 62
    4
 10
1929.8570920036443
 20
1535.2410513398297
 11
1929.8570920036443
 21
1375.2410513398297
  0
LINE
  8
_0-9_ラッチ断面__受け
  6
CONTINUOUS
 62
    4
 10
2287.8570920036445
 20
1535.2410513398297
 11
2287.8570920036445
 21
1375.2410513398297
  0
LINE
  8
_0-9_ラッチ断面__受け
  6
CONTINUOUS
 62
    4
 10
2287.8570920036445
 20
1505.2410513398303
 11
2287.8570920036445
 21
1375.2410513398297
  0
LINE
  8
_0-9_ラッチ断面__受け
  6
CONTINUOUS
 62
    4
 10
1945.8570920036454
 20
1455.2410513398297
 11
1945.8570920036454
 21
1375.2410513398297
  0
TEXT
  8
_0-9_ラッチ断面__受け
 62
    7
 10
1508.5209370755999
 20
680.7872566772296
 40
35
 41
0.6285714285714286
 50
90
  1
１５
  0
LINE
  8
_0-9_ラッチ断面__受け
  6
CONTINUOUS
 62
    4
 10
1512.8247627124028
 20
730.24105133982993
 11
1512.8247627124028
 21
686.95535310095067
  0
ENDSEC
  0
EOF
