  0
SECTION
  2
HEADER
  9
$ACADVER
  1
AC1009
  9
$INSBASE
 10
0
 20
0
 30
0
  9
$EXTMIN
 10
0
 20
0
  9
$EXTMAX
 10
4200
 20
2970
  9
$LIMMIN
 10
0
 20
0
  9
$LIMMAX
 10
4200
 20
2970
  9
$LTSCALE
 40
10
  0
ENDSEC
  0
SECTION
  2
TABLES
  0
TABLE
  2
LTYPE
 70
     9
  0
LTYPE
  2
CONTINUOUS
 70
    64
  3
実線
 72
    65
 73
     0
 40
0.0
  0
LTYPE
  2
DASHED1
 70
    64
  3
--  --  --  --  --  --  --  --  
 72
    65
 73
     2
 40
2.5
 49
1.25
 49
-1.25
  0
LTYPE
  2
DASHED2
 70
    64
  3
----    ----    ----    ----    
 72
    65
 73
     2
 40
5.0
 49
2.5
 49
-2.5
  0
LTYPE
  2
DASHED3
 70
    64
  3
------  ------  ------  ------  
 72
    65
 73
     2
 40
5.0
 49
3.75
 49
-1.25
  0
LTYPE
  2
CENTER1
 70
    64
  3
----- - ----- - ----- - ----- - 
 72
    65
 73
     4
 40
10.0
 49
6.25
 49
-1.25
 49
1.25
 49
-1.25
  0
LTYPE
  2
CENTER2
 70
    64
  3
----------  --  ----------  --  
 72
    65
 73
     4
 40
20.0
 49
12.5
 49
-2.5
 49
2.5
 49
-2.5
  0
LTYPE
  2
PHANTOM1
 70
    64
  3
--- - - --- - - --- - - --- - - 
 72
    65
 73
     6
 40
10.0
 49
3.25
 49
-1.25
 49
1.25
 49
-1.25
 49
1.25
 49
-1.25
  0
LTYPE
  2
PHANTOM2
 70
    64
  3
--------  -  -  --------  -  -  
 72
    65
 73
     6
 40
20.0
 49
10.0
 49
-2.5
 49
1.25
 49
-2.5
 49
1.25
 49
-2.5
  0
LTYPE
  2
DOT
 70
    64
  3
-   -   -   -   -   -   -   -   
 72
    65
 73
     2
 40
2.5
 49
0.625
 49
-1.875
  0
LTYPE
  2
DUMMY
 70
    64
  3
ダミー
 72
    65
 73
     0
 40
0.0
  0
LTYPE
  2
RAND1
 70
    64
  3
ランダム線1
 72
    65
 73
     4
 40
10.0
 49
1.0
 49
-2.0
 49
3.0
 49
-4.0
  0
LTYPE
  2
RAND2
 70
    64
  3
ランダム線2
 72
    65
 73
     4
 40
14.0
 49
2.0
 49
-3.0
 49
4.0
 49
-5.0
  0
LTYPE
  2
RAND3
 70
    64
  3
ランダム線3
 72
    65
 73
     4
 40
18.0
 49
3.0
 49
-4.0
 49
5.0
 49
-6.0
  0
LTYPE
  2
RAND4
 70
    64
  3
ランダム線4
 72
    65
 73
     4
 40
22.0
 49
4.0
 49
-5.0
 49
6.0
 49
-7.0
  0
LTYPE
  2
RAND5
 70
    64
  3
ランダム線5
 72
    65
 73
     4
 40
26.0
 49
5.0
 49
-6.0
 49
7.0
 49
-8.0
  0
LTYPE
  2
LONG1
 70
    64
  3
----------  --  ----------  --  
 72
    65
 73
     4
 40
40.0
 49
32.5
 49
-2.5
 49
2.5
 49
-2.5
  0
LTYPE
  2
LONG2
 70
    64
  3
--------  -  -  --------  -  -  
 72
    65
 73
     6
 40
40.0
 49
30.0
 49
-2.5
 49
1.25
 49
-2.5
 49
1.25
 49
-2.5
  0
LTYPE
  2
LONG3
 70
    64
  3
+++++++++++++++..+++++++++++++++
 72
    65
 73
     2
 40
40.0
 49
37.5
 49
-2.5
  0
LTYPE
  2
LONG4
 70
    64
  3
+++++++++++++++..+++++++++++++++
 72
    65
 73
     2
 40
80.0
 49
75.0
 49
-5.0
  0
LTYPE
  2
LONG5
 70
    64
  3
----------  --  ----------  --  
 72
    65
 73
     4
 40
60.0
 49
37.5
 49
-7.5
 49
7.5
 49
-7.5
  0
LTYPE
  2
dashed
 70
   64
  3
-------   -------------   ------
 72
   65
 73
    2
 40
7.5
 49
6
 49
-1.5
  0
LTYPE
  2
dashed_spaced
 70
   64
  3
----        --------        ----
 72
   65
 73
    2
 40
12
 49
6
 49
-6
  0
LTYPE
  2
long_dashed_dotted
 70
   64
  3
------------- --- --------------
 72
   65
 73
    4
 40
15.25
 49
12
 49
-1.5
 49
0.25
 49
-1.5
  0
LTYPE
  2
long_dashed_double-dotted
 70
   64
  3
----------- --- --- ------------
 72
   65
 73
    6
 40
17
 49
12
 49
-1.5
 49
0.25
 49
-1.5
 49
0.25
 49
-1.5
  0
LTYPE
  2
long_dashed_triplicate-dotted
 70
   64
  3
--------- --- --- --- ----------
 72
   65
 73
    8
 40
18.75
 49
12
 49
-1.5
 49
0.25
 49
-1.5
 49
0.25
 49
-1.5
 49
0.25
 49
-1.5
  0
LTYPE
  2
dotted
 70
   64
  3
   -       -       -       -    
 72
   65
 73
    2
 40
1.75
 49
0.25
 49
-1.5
  0
LTYPE
  2
chain
 70
   64
  3
-------------- -- --------------
 72
   65
 73
    4
 40
18.5
 49
12
 49
-1.5
 49
3.5
 49
-1.5
  0
LTYPE
  2
chain_double_dash
 70
   64
  3
------------ -- -- -------------
 72
   65
 73
    6
 40
23.5
 49
12
 49
-1.5
 49
3.5
 49
-1.5
 49
3.5
 49
-1.5
  0
LTYPE
  2
dashed_dotted
 70
   64
  3
-----------     -     ----------
 72
   65
 73
    4
 40
9.25
 49
6
 49
-1.5
 49
0.25
 49
-1.5
  0
LTYPE
  2
double-dashed_dotted
 70
   64
  3
------   -----------   -   -----
 72
   65
 73
    6
 40
16.75
 49
6
 49
-1.5
 49
6
 49
-1.5
 49
0.25
 49
-1.5
  0
LTYPE
  2
dashed_double-dotted
 70
   64
  3
---------    -    -    ---------
 72
   65
 73
    6
 40
11
 49
6
 49
-1.5
 49
0.25
 49
-1.5
 49
0.25
 49
-1.5
  0
LTYPE
  2
double-dashed_double-dotted
 70
   64
  3
-----   ---------   -   -   ----
 72
   65
 73
    8
 40
18.5
 49
6
 49
-1.5
 49
6
 49
-1.5
 49
0.25
 49
-1.5
 49
0.25
 49
-1.5
  0
LTYPE
  2
dashed_triplicate-dotted
 70
   64
  3
-------    -    -    -    ------
 72
   65
 73
    8
 40
12.75
 49
6
 49
-1.5
 49
0.25
 49
-1.5
 49
0.25
 49
-1.5
 49
0.25
 49
-1.5
  0
LTYPE
  2
double-dashed_triplicate-dotted
 70
   64
  3
-----  ---------  -  -  -  -----
 72
   65
 73
   10
 40
20.25
 49
6
 49
-1.5
 49
6
 49
-1.5
 49
0.25
 49
-1.5
 49
0.25
 49
-1.5
 49
0.25
 49
-1.5
  0
LTYPE
  2
undefined
 70
   64
  3
--------------------------------
 72
   65
 73
    0
 40
0
  0
LTYPE
  2
_
 70
   64
  3
                                
 72
   65
 73
    0
 40
0
  0
LTYPE
  2
__18
 70
   64
  3
                                
 72
   65
 73
    0
 40
0
  0
LTYPE
  2
__19
 70
   64
  3
                                
 72
   65
 73
    0
 40
0
  0
LTYPE
  2
__20
 70
   64
  3
                                
 72
   65
 73
    0
 40
0
  0
LTYPE
  2
__21
 70
   64
  3
                                
 72
   65
 73
    0
 40
0
  0
LTYPE
  2
__22
 70
   64
  3
                                
 72
   65
 73
    0
 40
0
  0
LTYPE
  2
__23
 70
   64
  3
                                
 72
   65
 73
    0
 40
0
  0
LTYPE
  2
__24
 70
   64
  3
                                
 72
   65
 73
    0
 40
0
  0
LTYPE
  2
__25
 70
   64
  3
                                
 72
   65
 73
    0
 40
0
  0
LTYPE
  2
__26
 70
   64
  3
                                
 72
   65
 73
    0
 40
0
  0
LTYPE
  2
__27
 70
   64
  3
                                
 72
   65
 73
    0
 40
0
  0
LTYPE
  2
__28
 70
   64
  3
                                
 72
   65
 73
    0
 40
0
  0
LTYPE
  2
__29
 70
   64
  3
                                
 72
   65
 73
    0
 40
0
  0
LTYPE
  2
__30
 70
   64
  3
                                
 72
   65
 73
    0
 40
0
  0
LTYPE
  2
__31
 70
   64
  3
                                
 72
   65
 73
    0
 40
0
  0
LTYPE
  2
__32
 70
   64
  3
                                
 72
   65
 73
    0
 40
0
  0
ENDTAB
  0
TABLE
  2
STYLE
  5
3
100
AcDbSymbolTable
 70
     1
  0
STYLE
  5
10
100
AcDbSymbolTableRecord
100
AcDbTextStyleTableRecord
  2
STANDARD
 70
     0
 40
0.0
 41
1.0
 50
0.0
 71
     0
 42
0.2
  3
txt
  4
bigfont.shx
  0
STYLE
  5
26
100
AcDbSymbolTableRecord
100
AcDbTextStyleTableRecord
  2
TATEGAKI
 70
    68
 40
0.0
 41
1.0
 50
0.0
 71
     0
 42
1.0
  3
txt
  4
bigfont.shx
  0
ENDTAB
  0
TABLE
  2
LAYER
 70
   14
  0
LAYER
  2
_0-0_
 70
   64
 62
    7
  6
CONTINUOUS
  0
LAYER
  2
_0-2_
 70
   64
 62
    7
  6
CONTINUOUS
  0
LAYER
  2
_0-3_
 70
   64
 62
    7
  6
CONTINUOUS
  0
LAYER
  2
_0-4_
 70
   64
 62
    7
  6
CONTINUOUS
  0
LAYER
  2
_0-5_
 70
   64
 62
    7
  6
CONTINUOUS
  0
LAYER
  2
_0-8_
 70
   64
 62
    7
  6
CONTINUOUS
  0
LAYER
  2
_0-9_
 70
   64
 62
    7
  6
CONTINUOUS
  0
LAYER
  2
_0-d_
 70
   64
 62
    7
  6
CONTINUOUS
  0
LAYER
  2
_e-0_
 70
   64
 62
    7
  6
CONTINUOUS
  0
LAYER
  2
_f-7_
 70
   64
 62
    7
  6
CONTINUOUS
  0
LAYER
  2
_f-8_
 70
   64
 62
    7
  6
CONTINUOUS
  0
LAYER
  2
_f-9_
 70
   64
 62
    7
  6
CONTINUOUS
  0
LAYER
  2
_f-d_固定文字
 70
   64
 62
    7
  6
CONTINUOUS
  0
LAYER
  2
ADD_LINE
 70
   64
 62
    7
  6
CONTINUOUS
  0
ENDTAB
  0
ENDSEC
  0
SECTION
  2
BLOCKS
  0
ENDSEC
  0
SECTION
  2
ENTITIES
  0
POINT
  8
_0-9_
 62
    3
 10
1541
 20
1228.9999999999997
  0
LINE
  8
_0-9_
  6
CONTINUOUS
 62
    4
 10
1551
 20
1228.9999999999997
 11
1431.3913793989086
 21
1228.9999999999997
  0
POINT
  8
_0-9_
 62
    3
 10
1541
 20
1225
  0
LINE
  8
_0-9_
  6
CONTINUOUS
 62
    4
 10
1551
 20
1225
 11
1431.3913793989086
 21
1225
  0
LINE
  8
_f-9_
  6
CONTINUOUS
 62
    7
 10
630
 20
120
 11
630
 21
220
  0
LINE
  8
_f-9_
  6
CONTINUOUS
 62
    7
 10
170
 20
120
 11
610
 21
120
  0
LINE
  8
_f-9_
  6
CONTINUOUS
 62
    7
 10
170
 20
220
 11
610
 21
220
  0
LINE
  8
_f-9_
  6
CONTINUOUS
 62
    7
 10
1420
 20
120
 11
1420
 21
220
  0
LINE
  8
_f-9_
  6
CONTINUOUS
 62
    7
 10
2210
 20
120
 11
2210
 21
220
  0
LINE
  8
_f-9_
  6
CONTINUOUS
 62
    7
 10
2220
 20
120
 11
2220
 21
220
  0
LINE
  8
_f-9_
  6
CONTINUOUS
 62
    7
 10
630
 20
120
 11
2210
 21
120
  0
LINE
  8
_f-9_
  6
CONTINUOUS
 62
    7
 10
630
 20
220
 11
2210
 21
220
  0
LINE
  8
_f-9_
  6
CONTINUOUS
 62
    7
 10
2710
 20
120
 11
2710
 21
220
  0
LINE
  8
_f-9_
  6
CONTINUOUS
 62
    7
 10
2720
 20
120
 11
2720
 21
220
  0
LINE
  8
_f-9_
  6
CONTINUOUS
 62
    7
 10
2220
 20
120
 11
2710
 21
120
  0
LINE
  8
_f-9_
  6
CONTINUOUS
 62
    7
 10
2220
 20
220
 11
2710
 21
220
  0
LINE
  8
_f-9_
  6
CONTINUOUS
 62
    7
 10
3020
 20
120
 11
3020
 21
220
  0
LINE
  8
_f-9_
  6
CONTINUOUS
 62
    7
 10
3320
 20
120
 11
3320
 21
220
  0
LINE
  8
_f-9_
  6
CONTINUOUS
 62
    7
 10
3700
 20
120
 11
3700
 21
220
  0
LINE
  8
_f-9_
  6
CONTINUOUS
 62
    7
 10
2720
 20
120
 11
4110
 21
120
  0
LINE
  8
_f-9_
  6
CONTINUOUS
 62
    7
 10
4110
 20
120
 11
4110
 21
220
  0
LINE
  8
_f-9_
  6
CONTINUOUS
 62
    7
 10
2720
 20
220
 11
4110
 21
220
  0
LINE
  8
_0-0_
  6
CONTINUOUS
 62
    7
 10
4130
 20
2860
 11
4130
 21
100
  0
LINE
  8
_0-0_
  6
CONTINUOUS
 62
    7
 10
150
 20
2860
 11
4130
 21
2860
  0
LINE
  8
_0-0_
  6
CONTINUOUS
 62
    7
 10
150
 20
100
 11
4130
 21
100
  0
LINE
  8
_0-0_
  6
CONTINUOUS
 62
    7
 10
150
 20
100
 11
150
 21
2860
  0
TEXT
  8
_f-8_
 62
    7
 10
3340
 20
187.5
 40
25
 41
0.64
 50
0
  1
ＣＨＥＣＫＥＤ
  0
TEXT
  8
_f-8_
 62
    7
 10
3720
 20
187.5
 40
25
 41
0.64
 50
0
  1
ＳＨＥＥＴ　ＮＯ．
  0
TEXT
  8
_f-8_
 62
    7
 10
3542
 20
187.5
 40
25
 41
0.64
 50
0
  1
ＤＲＡＷＩＮＧ
  0
LINE
  8
_f-9_
  6
CONTINUOUS
 62
    7
 10
170
 20
170
 11
610
 21
170
  0
TEXT
  8
_f-8_
 62
    7
 10
2861
 20
142.5
 40
35
 41
0.5714285714285711
 50
0
  1
１／１０
  0
TEXT
  8
_f-8_
 62
    7
 10
2740.3739840854213
 20
187.46937299484983
 40
25
 41
0.64
 50
0
  1
ＳＣＡＬＥ
  0
TEXT
  8
_f-8_
 62
    7
 10
1445
 20
187.5
 40
25
 41
0.8
 50
0
  1
図面名称
  0
TEXT
  8
_f-8_
 62
    7
 10
655
 20
187.5
 40
25
 41
0.8
 50
0
  1
名　称
  0
LINE
  8
_f-8_
  6
CONTINUOUS
 62
    7
 10
2165
 20
2872
 11
2166.15
 21
2874.0000000000004
  0
LINE
  8
_f-8_
  6
CONTINUOUS
 62
    7
 10
2158.6399999999998
 20
2877
 11
2165
 21
2866
  0
LINE
  8
_f-8_
  6
CONTINUOUS
 62
    7
 10
2165
 20
2866
 11
2171.3499999999999
 21
2877
  0
LINE
  8
_f-8_
  6
CONTINUOUS
 62
    7
 10
2165
 20
2860
 11
2176.5399999999999
 21
2880
  0
LINE
  8
_f-8_
  6
CONTINUOUS
 62
    7
 10
2153.4499999999998
 20
2880
 11
2165
 21
2860
  0
LINE
  8
_f-8_
  6
CONTINUOUS
 62
    7
 10
2176.5399999999999
 20
2880
 11
2153.4499999999998
 21
2880
  0
LINE
  8
_f-8_
  6
CONTINUOUS
 62
    7
 10
2163.8400000000001
 20
2874.0000000000004
 11
2165
 21
2872
  0
LINE
  8
_f-8_
  6
CONTINUOUS
 62
    7
 10
2166.15
 20
2874.0000000000004
 11
2163.8400000000001
 21
2874.0000000000004
  0
LINE
  8
_f-8_
  6
CONTINUOUS
 62
    7
 10
2171.3499999999999
 20
2877
 11
2158.6399999999998
 21
2877
  0
LINE
  8
_f-7_
  6
CONTINUOUS
 62
    7
 10
120
 20
1462.6794919243113
 11
120
 21
1497.3205080756886
  0
LINE
  8
_f-7_
  6
CONTINUOUS
 62
    7
 10
120
 20
1497.3205080756886
 11
150
 21
1480
  0
LINE
  8
_f-7_
  6
CONTINUOUS
 62
    7
 10
150
 20
1480
 11
120
 21
1462.6794919243113
  0
LINE
  8
_f-7_
  6
CONTINUOUS
 62
    7
 10
125
 20
1471.3397459621555
 11
125
 21
1488.6602540378444
  0
LINE
  8
_f-7_
  6
CONTINUOUS
 62
    7
 10
125
 20
1488.6602540378444
 11
140
 21
1480
  0
LINE
  8
_f-7_
  6
CONTINUOUS
 62
    7
 10
140
 20
1480
 11
125
 21
1471.3397459621555
  0
LINE
  8
_f-7_
  6
CONTINUOUS
 62
    7
 10
128.99999999999977
 20
1478.2679491924309
 11
128.99999999999977
 21
1481.732050807569
  0
LINE
  8
_f-7_
  6
CONTINUOUS
 62
    7
 10
128.99999999999977
 20
1481.732050807569
 11
132.00000000000045
 21
1480
  0
LINE
  8
_f-7_
  6
CONTINUOUS
 62
    7
 10
132.00000000000045
 20
1480
 11
128.99999999999977
 21
1478.2679491924309
  0
LINE
  8
_f-7_
  6
CONTINUOUS
 62
    7
 10
4160
 20
1462.6794919243113
 11
4160
 21
1497.3205080756886
  0
LINE
  8
_f-7_
  6
CONTINUOUS
 62
    7
 10
4160
 20
1497.3205080756886
 11
4130
 21
1480
  0
LINE
  8
_f-7_
  6
CONTINUOUS
 62
    7
 10
4130
 20
1480
 11
4160
 21
1462.6794919243113
  0
LINE
  8
_f-7_
  6
CONTINUOUS
 62
    7
 10
4155
 20
1471.3397459621555
 11
4155
 21
1488.6602540378444
  0
LINE
  8
_f-7_
  6
CONTINUOUS
 62
    7
 10
4155
 20
1488.6602540378444
 11
4140
 21
1480
  0
LINE
  8
_f-7_
  6
CONTINUOUS
 62
    7
 10
4140
 20
1480
 11
4155
 21
1471.3397459621555
  0
LINE
  8
_f-7_
  6
CONTINUOUS
 62
    7
 10
4151
 20
1478.2679491924309
 11
4151
 21
1481.732050807569
  0
LINE
  8
_f-7_
  6
CONTINUOUS
 62
    7
 10
4151
 20
1481.732050807569
 11
4148
 21
1480
  0
LINE
  8
_f-7_
  6
CONTINUOUS
 62
    7
 10
4148
 20
1480
 11
4151
 21
1478.2679491924309
  0
TEXT
  8
_f-d_固定文字
 62
    7
 10
149.98500000000007
 20
65
 40
20
 41
1
 50
0
  1
%f
  0
TEXT
  8
_f-d_固定文字
 62
    7
 10
4050
 20
65.00000323002979
 40
20
 41
1
 50
0
  1
%m
  0
TEXT
  8
_f-d_固定文字
 62
    7
 10
4080
 20
65.00000323002979
 40
20
 41
1
 50
0
  1
．
  0
TEXT
  8
_f-d_固定文字
 62
    7
 10
4110
 20
65.00000323002979
 40
20
 41
1
 50
0
  1
%d
  0
TEXT
  8
_f-d_固定文字
 62
    7
 10
3990
 20
65.00000323002979
 40
20
 41
1
 50
0
  1
%y
  0
TEXT
  8
_f-d_固定文字
 62
    7
 10
4020
 20
65.00000323002979
 40
20
 41
1
 50
0
  1
．
  0
LINE
  8
_0-8_
  6
CONTINUOUS
 62
    4
 10
975
 20
1903.6399999999998
 11
1225
 21
1903.6399999999998
  0
LINE
  8
_0-8_
  6
CONTINUOUS
 62
    4
 10
1225
 20
1903.6399999999998
 11
1225
 21
1973.6399999999998
  0
LINE
  8
_0-8_
  6
CONTINUOUS
 62
    4
 10
1225
 20
1973.6399999999998
 11
975
 21
1973.6399999999998
  0
LINE
  8
_0-8_
  6
CONTINUOUS
 62
    4
 10
975
 20
1973.6399999999998
 11
975
 21
1903.6399999999998
  0
TEXT
  8
_0-8_
 62
    7
 10
1053
 20
1921.1399999999998
 40
35
 41
0.8571428571428568
 50
0
  1
平面図
  0
LINE
  8
_0-8_
  6
CONTINUOUS
 62
    4
 10
975
 20
261.88599999999996
 11
1225
 21
261.88599999999996
  0
LINE
  8
_0-8_
  6
CONTINUOUS
 62
    4
 10
1225
 20
261.88599999999996
 11
1225
 21
331.88599999999979
  0
LINE
  8
_0-8_
  6
CONTINUOUS
 62
    4
 10
1225
 20
331.88599999999979
 11
975
 21
331.88599999999979
  0
LINE
  8
_0-8_
  6
CONTINUOUS
 62
    4
 10
975
 20
331.88599999999979
 11
975
 21
261.88599999999996
  0
TEXT
  8
_0-8_
 62
    7
 10
1053.0000000000006
 20
279.38599999999979
 40
35
 41
0.8571428571428568
 50
0
  1
立面図
  0
POINT
  8
_0-9_
 62
    3
 10
2261.6674015250046
 20
580
  0
LINE
  8
_0-9_
  6
CONTINUOUS
 62
    4
 10
2251.6674015250046
 20
580
 11
2538.1520228784852
 21
580
  0
POINT
  8
_0-9_
 62
    3
 10
2341.6674015250046
 20
580
  0
LINE
  8
_0-9_
  6
CONTINUOUS
 62
    4
 10
2331.6674015250046
 20
580
 11
2538.1520228784852
 21
580
  0
POINT
  8
_0-9_
 62
    3
 10
2580.0000000000004
 20
1776.5121313760805
  0
POINT
  8
_0-9_
 62
    3
 10
3130
 20
1776.5121313760805
  0
LINE
  8
_0-9_
  6
CONTINUOUS
 62
    4
 10
2580.0000000000004
 20
1786.5121313760805
 11
2580.0000000000004
 21
1502.2073875056082
  0
LINE
  8
_0-9_
  6
CONTINUOUS
 62
    4
 10
3130
 20
1786.5121313760805
 11
3130
 21
1502.2073875056082
  0
POINT
  8
_0-9_
 62
    3
 10
3110
 20
1616.5121313760805
  0
POINT
  8
_0-9_
 62
    3
 10
3129.999992919922
 20
1616.5121313760805
  0
LINE
  8
_0-9_
  6
CONTINUOUS
 62
    4
 10
3110
 20
1626.5121313760805
 11
3110
 21
1502.2073875056082
  0
LINE
  8
_0-9_
  6
CONTINUOUS
 62
    4
 10
3129.999992919922
 20
1626.5121313760805
 11
3129.999992919922
 21
1502.2073875056082
  0
LINE
  8
_0-9_
  6
CONTINUOUS
 62
    4
 10
3130
 20
1706.5121313760805
 11
3130
 21
1502.2073875056082
  0
LINE
  8
_0-9_
  6
CONTINUOUS
 62
    4
 10
3129.999992919922
 20
1616.5121313760805
 11
3173.2713286586481
 21
1616.5121313760805
  0
POINT
  8
_0-9_
 62
    3
 10
3294.5527025351175
 20
580
  0
POINT
  8
_0-9_
 62
    3
 10
3294.5527025351175
 20
1469.9999999999997
  0
LINE
  8
_0-9_
  6
CONTINUOUS
 62
    4
 10
3304.5527025351175
 20
580
 11
3171.5440126943508
 21
580
  0
LINE
  8
_0-9_
  6
CONTINUOUS
 62
    4
 10
3304.5527025351175
 20
1469.9999999999997
 11
3171.5440126943508
 21
1469.9999999999997
  0
LINE
  8
_0-9_
  6
CONTINUOUS
 62
    4
 10
2580.0000000000004
 20
1776.5121313760805
 11
3130
 21
1776.5121313760805
  0
TEXT
  8
_0-9_
 62
    7
 10
2821.9000000000005
 20
1776.5121313760805
 40
35
 41
0.6285714285714286
 50
0
  1
５５０
  0
LINE
  8
_0-9_
  6
CONTINUOUS
 62
    4
 10
3110
 20
1616.5121313760805
 11
3129.999992919922
 21
1616.5121313760805
  0
TEXT
  8
_0-9_
 62
    7
 10
3131.1308840387519
 20
1616.5121313760805
 40
35
 41
0.6285714285714286
 50
0
  1
２０
  0
LINE
  8
_0-9_
  6
CONTINUOUS
 62
    4
 10
3294.5527025351175
 20
580
 11
3294.5527025351175
 21
1469.9999999999997
  0
TEXT
  8
_0-9_
 62
    7
 10
3294.5527025351175
 20
991.89999999999986
 40
35
 41
0.6285714285714286
 50
90
  1
８９０
  0
LINE
  8
_0-8_
  6
CONTINUOUS
 62
    4
 10
2732.5000000000004
 20
261.88599999999996
 11
2982.5
 21
261.88599999999996
  0
LINE
  8
_0-8_
  6
CONTINUOUS
 62
    4
 10
2982.5
 20
261.88599999999996
 11
2982.5
 21
331.88599999999996
  0
LINE
  8
_0-8_
  6
CONTINUOUS
 62
    4
 10
2982.5
 20
331.88599999999996
 11
2732.5000000000004
 21
331.88599999999996
  0
LINE
  8
_0-8_
  6
CONTINUOUS
 62
    4
 10
2732.5000000000004
 20
331.88599999999996
 11
2732.5000000000004
 21
261.88599999999996
  0
TEXT
  8
_0-8_
 62
    7
 10
2810.4969999999998
 20
279.38599999999996
 40
35
 41
0.8571428571428568
 50
0
  1
断面図
  0
LINE
  8
_0-2_
  6
CONTINUOUS
 62
    5
 10
800
 20
2610
 11
800
 21
2060
  0
POINT
  8
_0-9_
 62
    3
 10
800
 20
2749.5350085356249
  0
LINE
  8
_0-9_
  6
CONTINUOUS
 62
    4
 10
800
 20
2759.5350085356249
 11
800
 21
2625.1644127179247
  0
LINE
  8
_0-2_
  6
CONTINUOUS
 62
    5
 10
1400
 20
2610
 11
1400
 21
2060
  0
POINT
  8
_0-9_
 62
    3
 10
1400
 20
2749.5350085356249
  0
LINE
  8
_0-9_
  6
CONTINUOUS
 62
    4
 10
1400
 20
2759.5350085356249
 11
1400
 21
2625.1644127179247
  0
POINT
  8
_0-9_
 62
    3
 10
1701
 20
2060
  0
POINT
  8
_0-9_
 62
    3
 10
1701
 20
2610
  0
LINE
  8
_0-9_
  6
CONTINUOUS
 62
    4
 10
1711
 20
2060
 11
1438.8289412795729
 21
2060
  0
LINE
  8
_0-9_
  6
CONTINUOUS
 62
    4
 10
1711
 20
2610
 11
1438.8289412795729
 21
2610
  0
POINT
  8
_0-9_
 62
    3
 10
1621
 20
2610
  0
LINE
  8
_0-9_
  6
CONTINUOUS
 62
    4
 10
1631
 20
2610
 11
1438.8289412795729
 21
2610
  0
LINE
  8
_0-9_
  6
CONTINUOUS
 62
    4
 10
1621
 20
2610
 11
1621
 21
2653.1741041155455
  0
LINE
  8
_0-9_
  6
CONTINUOUS
 62
    4
 10
1701
 20
2060
 11
1701
 21
2610
  0
TEXT
  8
_0-9_
 62
    7
 10
1701
 20
2301.9
 40
35
 41
0.6285714285714286
 50
90
  1
５５０
  0
LINE
  8
_0-2_
  6
CONTINUOUS
 62
    5
 10
1400
 20
2060
 11
800
 21
2060
  0
LINE
  8
_0-2_
  6
CONTINUOUS
 62
    5
 10
1400
 20
2610
 11
800
 21
2610
  0
LINE
  8
_0-9_
  6
CONTINUOUS
 62
    4
 10
800
 20
2749.5350085356249
 11
1400
 21
2749.5350085356249
  0
TEXT
  8
_0-9_
 62
    7
 10
1066.9
 20
2749.5350085356249
 40
35
 41
0.6285714285714286
 50
0
  1
６００
  0
POINT
  8
_0-9_
 62
    3
 10
800
 20
1635.023002019227
  0
LINE
  8
_0-9_
  6
CONTINUOUS
 62
    4
 10
800
 20
1645.023002019227
 11
800
 21
1503.8849441254412
  0
POINT
  8
_0-9_
 62
    3
 10
1400
 20
1635.023002019227
  0
LINE
  8
_0-9_
  6
CONTINUOUS
 62
    4
 10
1400
 20
1645.023002019227
 11
1400
 21
1503.8849441254412
  0
POINT
  8
_0-9_
 62
    3
 10
1701
 20
580
  0
LINE
  8
_0-9_
  6
CONTINUOUS
 62
    4
 10
1711
 20
580
 11
1431.3913793989086
 21
580
  0
POINT
  8
_0-9_
 62
    3
 10
1701
 20
1469.9999999999997
  0
LINE
  8
_0-9_
  6
CONTINUOUS
 62
    4
 10
1711
 20
1469.9999999999997
 11
1431.3913793989086
 21
1469.9999999999997
  0
POINT
  8
_0-9_
 62
    3
 10
1621
 20
580
  0
LINE
  8
_0-9_
  6
CONTINUOUS
 62
    4
 10
1631
 20
580
 11
1431.3913793989086
 21
580
  0
LINE
  8
_0-2_
  6
CONTINUOUS
 62
    5
 10
1400
 20
1469.9999999999997
 11
800
 21
1469.9999999999997
  0
LINE
  8
_0-9_
  6
CONTINUOUS
 62
    4
 10
800
 20
1635.023002019227
 11
1400
 21
1635.023002019227
  0
TEXT
  8
_0-9_
 62
    7
 10
1066.9
 20
1635.023002019227
 40
35
 41
0.6285714285714286
 50
0
  1
６００
  0
TEXT
  8
_f-8_
 62
    7
 10
959
 20
137.5
 40
45
 41
0.8
 50
0
  1
調理台
  0
POINT
  8
_0-9_
 62
    4
 10
1099.4982310827449
 20
472.08277206296656
  0
LINE
  8
_0-9_
  6
CONTINUOUS
 62
    4
 10
1099.4982310827449
 20
462.08277206296656
 11
1099.4982310827449
 21
557.24264540409626
  0
POINT
  8
_0-9_
 62
    4
 10
1100.501768917255
 20
472.08277206296656
  0
LINE
  8
_0-9_
  6
CONTINUOUS
 62
    4
 10
1100.501768917255
 20
462.08277206296656
 11
1100.501768917255
 21
557.24264540409626
  0
LINE
  8
_0-9_
  6
CONTINUOUS
 62
    4
 10
1394.5
 20
462.08277206296656
 11
1394.5
 21
557.24264540409626
  0
LINE
  8
_0-2_
  6
CONTINUOUS
 62
    5
 10
2580.0000000000004
 20
1401.9999999999995
 11
3130
 21
1401.9999999999995
  0
LINE
  8
_0-2_
  6
CONTINUOUS
 62
    5
 10
2580.0000000000004
 20
1421.9999999999995
 11
2580.0000000000004
 21
1401.9999999999995
  0
ARC
  8
_0-2_
  6
CONTINUOUS
 62
    5
 10
2588
 20
1421.9999999999995
 40
8
 50
90
 51
180
  0
LINE
  8
_0-2_
  6
CONTINUOUS
 62
    5
 10
3100.2700676729664
 20
1429.999999999999
 11
2588
 21
1429.999999999999
  0
LINE
  8
_0-2_
  6
CONTINUOUS
 62
    4
 10
3130
 20
1463.9999999999997
 11
3130
 21
1401.9999999999995
  0
LINE
  8
_0-2_
  6
CONTINUOUS
 62
    5
 10
3100.7219144399346
 20
1430
 11
3095
 21
1430
  0
ARC
  8
_0-2_
  6
CONTINUOUS
 62
    4
 10
3100.7219144399346
 20
1440
 40
10.600000000000003
 50
270
 51
355.71084667117963
  0
LINE
  8
_0-2_
  6
CONTINUOUS
 62
    4
 10
3129.4000000000005
 20
1469.3999999999996
 11
3120.4224684480532
 21
1469.3999999999996
  0
ARC
  8
_0-2_
  6
CONTINUOUS
 62
    4
 10
3120.4224684480532
 20
1461.9999999999995
 40
7.4000000000000021
 50
90.000000000000028
 51
175.71084667117946
  0
LINE
  8
_0-2_
  6
CONTINUOUS
 62
    4
 10
3113.043193554879
 20
1462.5534456169884
 11
3111.2922271247521
 21
1439.2072265486378
  0
ARC
  8
_0-2_
  6
CONTINUOUS
 62
    5
 10
3120.4224684480532
 20
1461.9999999999995
 40
8
 50
90.000000000000028
 51
175.71084667117946
  0
LINE
  8
_0-2_
  6
CONTINUOUS
 62
    5
 10
3112.4448739689455
 20
1462.598319585933
 11
3110.6939075388186
 21
1439.2521005175833
  0
LINE
  8
_0-2_
  6
CONTINUOUS
 62
    5
 10
3120.4224684480532
 20
1470
 11
3130
 21
1470
  0
ARC
  8
_0-2_
  6
CONTINUOUS
 62
    5
 10
3100.7219144399346
 20
1440
 40
10
 50
270
 51
355.71084667117963
  0
LINE
  8
_0-2_
  6
CONTINUOUS
 62
    4
 10
3129.4000000000005
 20
1469.3999999999996
 11
3129.4000000000005
 21
1464.5999999999994
  0
LINE
  8
_0-2_
  6
CONTINUOUS
 62
    4
 10
3129.4000000000005
 20
1468.9999999999997
 11
3128.8000000000006
 21
1468.9999999999997
  0
LINE
  8
_0-2_
  6
CONTINUOUS
 62
    4
 10
3128.8000000000006
 20
1468.9999999999997
 11
3128.8000000000006
 21
1463.9999999999997
  0
LINE
  8
_0-2_
  6
CONTINUOUS
 62
    4
 10
3130
 20
1463.9999999999997
 11
3128.8000000000006
 21
1463.9999999999997
  0
LINE
  8
_0-2_
  6
CONTINUOUS
 62
    5
 10
3130
 20
1470
 11
3130
 21
1463.9999999999997
  0
CIRCLE
  8
_0-2_
  6
DASHED1
 62
    4
 10
3110
 20
1418.5000000000013
 40
2.0000000000000008
  0
CIRCLE
  8
_0-2_
  6
DASHED1
 62
    4
 10
3109.9998237033146
 20
1418.5774415274227
 40
5.0000000000000008
  0
LINE
  8
_0-2_
  6
CONTINUOUS
 62
    5
 10
1400
 20
1401.9999999999995
 11
800
 21
1401.9999999999995
  0
LINE
  8
_0-2_
  6
CONTINUOUS
 62
    5
 10
1400
 20
1429.999999999999
 11
800
 21
1429.999999999999
  0
LINE
  8
_0-2_
  6
CONTINUOUS
 62
    5
 10
1400
 20
1469.9999999999997
 11
1400
 21
1401.9999999999995
  0
LINE
  8
_0-2_
  6
CONTINUOUS
 62
    5
 10
800
 20
1469.9999999999997
 11
800
 21
1401.9999999999995
  0
LINE
  8
_0-4_
  6
CONTINUOUS
 62
    3
 10
2593
 20
1229.9999999999997
 11
2605.0000000000004
 21
1229.9999999999997
  0
LINE
  8
_0-4_
  6
CONTINUOUS
 62
    3
 10
2593
 20
724.99999999999988
 11
2605.0000000000004
 21
724.99999999999988
  0
POINT
  8
_0-9_
 62
    3
 10
2261.6674015250046
 20
1430
  0
LINE
  8
_0-9_
  6
CONTINUOUS
 62
    4
 10
2251.6674015250046
 20
1430
 11
2538.1520228784852
 21
1430
  0
POINT
  8
_0-9_
 62
    3
 10
2341.6674015250046
 20
719.99999999999988
  0
LINE
  8
_0-9_
  6
CONTINUOUS
 62
    4
 10
2331.6674015250046
 20
719.99999999999988
 11
2538.1520228784852
 21
719.99999999999988
  0
LINE
  8
_0-9_
  6
CONTINUOUS
 62
    4
 10
2331.6674015250046
 20
1430
 11
2538.1520228784852
 21
1430
  0
POINT
  8
_0-9_
 62
    3
 10
2421.6674015250046
 20
724.99999999999988
  0
LINE
  8
_0-9_
  6
CONTINUOUS
 62
    4
 10
2411.6674015250046
 20
719.99999999999988
 11
2538.1520228784852
 21
719.99999999999988
  0
LINE
  8
_0-9_
  6
CONTINUOUS
 62
    4
 10
2411.6674015250046
 20
724.99999999999988
 11
2538.1520228784852
 21
724.99999999999988
  0
LINE
  8
_0-4_
  6
CONTINUOUS
 62
    3
 10
1099.5
 20
724.99999999999988
 11
805.50000000000011
 21
724.99999999999988
  0
POINT
  8
_0-9_
 62
    3
 10
1701
 20
1429.9999999999997
  0
LINE
  8
_0-9_
  6
CONTINUOUS
 62
    4
 10
1711
 20
1429.9999999999997
 11
1431.3913793989086
 21
1429.9999999999997
  0
POINT
  8
_0-9_
 62
    3
 10
1621
 20
719.99999999999988
  0
LINE
  8
_0-9_
  6
CONTINUOUS
 62
    4
 10
1631
 20
719.99999999999988
 11
1431.3913793989086
 21
719.99999999999988
  0
LINE
  8
_0-9_
  6
CONTINUOUS
 62
    4
 10
1631
 20
1429.9999999999997
 11
1431.3913793989086
 21
1429.9999999999997
  0
POINT
  8
_0-9_
 62
    3
 10
1541
 20
724.99999999999988
  0
LINE
  8
_0-9_
  6
CONTINUOUS
 62
    4
 10
1551
 20
719.99999999999988
 11
1431.3913793989086
 21
719.99999999999988
  0
LINE
  8
_0-9_
  6
CONTINUOUS
 62
    4
 10
1551
 20
724.99999999999988
 11
1431.3913793989086
 21
724.99999999999988
  0
LINE
  8
_0-4_
  6
CONTINUOUS
 62
    3
 10
1100.5
 20
724.99999999999988
 11
1394.5
 21
724.99999999999988
  0
POINT
  8
_0-9_
 62
    3
 10
2421.6674015250046
 20
1399
  0
LINE
  8
_0-9_
  6
CONTINUOUS
 62
    4
 10
2411.6674015250046
 20
1399
 11
2538.1520228784852
 21
1399
  0
LINE
  8
_0-4_
  6
CONTINUOUS
 62
    3
 10
2605.0000000000004
 20
1369
 11
2593
 21
1369
  0
ARC
  8
_0-5_
  6
CONTINUOUS
 62
    4
 10
2604.5999999999999
 20
1397.0000000000002
 40
2
 50
0.0000000000000127
 51
90.000000000000042
  0
ARC
  8
_0-5_
  6
CONTINUOUS
 62
    4
 10
2604.5999999999999
 20
1397.0000000000002
 40
0.6999999999999999
 50
0
 51
90
  0
LINE
  8
_0-5_
  6
CONTINUOUS
 62
    4
 10
2606.6000000000003
 20
1355
 11
2606.6000000000003
 21
1397.0000000000002
  0
ARC
  8
_0-5_
  6
CONTINUOUS
 62
    4
 10
2606.1000000000003
 20
1355
 40
0.5
 50
270
 51
0
  0
ARC
  8
_0-5_
  6
CONTINUOUS
 62
    4
 10
2605.8000000000001
 20
1355.2999999999999
 40
0.8000000000000001
 50
128.68218745349332
 51
270
  0
LINE
  8
_0-5_
  6
CONTINUOUS
 62
    4
 10
2606.1000000000003
 20
1354.5000000000002
 11
2605.8000000000001
 21
1354.5000000000002
  0
LINE
  8
_0-5_
  6
CONTINUOUS
 62
    4
 10
2605.300000000001
 20
1363.2755002001601
 11
2605.300000000001
 21
1355.9244997998396
  0
ARC
  8
_0-5_
  6
CONTINUOUS
 62
    4
 10
2605.8000000000001
 20
1363.9
 40
0.8000000000000001
 50
128.68218745349335
 51
231.31781254650667
  0
LINE
  8
_0-5_
  6
CONTINUOUS
 62
    4
 10
2605.300000000001
 20
1368.7
 11
2605.300000000001
 21
1364.5244997998397
  0
ARC
  8
_0-5_
  6
CONTINUOUS
 62
    4
 10
2605.0000000000004
 20
1368.7
 40
0.2999999999999998
 50
0.0000000000000127
 51
90.000000000000014
  0
LINE
  8
_0-5_
  6
CONTINUOUS
 62
    4
 10
2605.300000000001
 20
1372.4496126617748
 11
2605.300000000001
 21
1397.0000000000002
  0
ARC
  8
_0-5_
  6
CONTINUOUS
 62
    4
 10
2604.3000000000001
 20
1372.4496126617748
 40
1
 50
272.96093613416371
 51
0
  0
ARC
  8
_0-5_
  6
CONTINUOUS
 62
    4
 10
2591.5000000000004
 20
1363.8000000000001
 40
0.8000000000000001
 50
180
 51
359.99999999999994
  0
LINE
  8
_0-5_
  6
CONTINUOUS
 62
    4
 10
2593.8285714285721
 20
1399
 11
2604.5999999999999
 21
1399
  0
ARC
  8
_0-5_
  6
CONTINUOUS
 62
    4
 10
2593.8285714285721
 20
1397.0000000000002
 40
2
 50
90.000000000000028
 51
161.07535558394951
  0
ARC
  8
_0-5_
  6
CONTINUOUS
 62
    4
 10
2593.8285714285721
 20
1397.0000000000002
 40
0.6999999999999999
 50
90
 51
161.07535558395002
  0
LINE
  8
_0-5_
  6
CONTINUOUS
 62
    4
 10
2604.5999999999999
 20
1397.7
 11
2593.8285714285721
 21
1397.7
  0
LINE
  8
_0-5_
  6
CONTINUOUS
 62
    4
 10
2593.1664092664091
 20
1397.2270270270271
 11
2592.0375798523668
 21
1393.9346079027359
  0
ARC
  8
_0-5_
  6
CONTINUOUS
 62
    4
 10
2592.2267690415555
 20
1393.8697430378713
 40
0.2
 50
161.07535558394698
 51
226.45103723177706
  0
ARC
  8
_0-5_
  6
CONTINUOUS
 62
    4
 10
2591.4000000000005
 20
1393.0000000000004
 40
1
 50
161.07535558395028
 51
46.451037231780105
  0
LINE
  8
_0-5_
  6
CONTINUOUS
 62
    4
 10
2591.93667953668
 20
1397.6486486486487
 11
2590.4540540540547
 21
1393.3243243243246
  0
LINE
  8
_0-5_
  6
CONTINUOUS
 62
    4
 10
2592.2999999999997
 20
1368.7
 11
2592.2999999999997
 21
1363.8000000000001
  0
ARC
  8
_0-5_
  6
CONTINUOUS
 62
    4
 10
2592.6000000000003
 20
1368.7
 40
0.2999999999999998
 50
90
 51
180
  0
LINE
  8
_0-5_
  6
CONTINUOUS
 62
    4
 10
2605.0000000000004
 20
1369
 11
2592.6000000000003
 21
1369
  0
LINE
  8
_0-5_
  6
CONTINUOUS
 62
    4
 10
2590.7000000000007
 20
1369.6503873382255
 11
2590.7000000000007
 21
1363.8000000000001
  0
ARC
  8
_0-5_
  6
CONTINUOUS
 62
    4
 10
2591.7000000000002
 20
1369.6503873382255
 40
1
 50
92.960936134163759
 51
180
  0
LINE
  8
_0-5_
  6
CONTINUOUS
 62
    4
 10
2604.3516550854283
 20
1371.4509476768328
 11
2591.6483449145716
 21
1370.6490523231675
  0
ARC
  8
_0-5_
  6
CONTINUOUS
 62
    4
 10
1103.5
 20
1395
 40
3.0000000000000004
 50
180
 51
270
  0
ARC
  8
_0-5_
  6
CONTINUOUS
 62
    4
 10
1096.5
 20
1395
 40
3.0000000000000004
 50
270
 51
0
  0
ARC
  8
_0-5_
  6
CONTINUOUS
 62
    4
 10
808.5
 20
1395
 40
3.0000000000000004
 50
180
 51
270
  0
LINE
  8
_0-5_
  6
CONTINUOUS
 62
    4
 10
1096.5
 20
1392
 11
808.5
 21
1392
  0
LINE
  8
_0-5_
  6
CONTINUOUS
 62
    4
 10
805.50000000000011
 20
1363.0000000000004
 11
1099.5
 21
1363.0000000000004
  0
LINE
  8
_0-5_
  6
CONTINUOUS
 62
    4
 10
805.50000000000011
 20
1370.6000000000028
 11
1099.5
 21
1370.6000000000028
  0
LINE
  8
_0-4_
  6
CONTINUOUS
 62
    3
 10
805.50000000000011
 20
1399
 11
1099.5
 21
1399
  0
POINT
  8
_0-9_
 62
    3
 10
1541
 20
1399
  0
LINE
  8
_0-9_
  6
CONTINUOUS
 62
    4
 10
1551
 20
1399
 11
1431.3913793989086
 21
1399
  0
POINT
  8
_0-9_
 62
    3
 10
1541
 20
1399
  0
LINE
  8
_0-9_
  6
CONTINUOUS
 62
    4
 10
1551
 20
1399
 11
1431.3913793989086
 21
1399
  0
ARC
  8
_0-5_
  6
CONTINUOUS
 62
    4
 10
1391.5
 20
1395
 40
3.0000000000000004
 50
270
 51
0
  0
LINE
  8
_0-5_
  6
CONTINUOUS
 62
    4
 10
1103.5
 20
1392
 11
1391.5
 21
1392
  0
LINE
  8
_0-5_
  6
CONTINUOUS
 62
    4
 10
1394.5
 20
1363.0000000000004
 11
1100.5
 21
1363.0000000000004
  0
LINE
  8
_0-5_
  6
CONTINUOUS
 62
    4
 10
1394.5
 20
1370.6000000000028
 11
1100.5
 21
1370.6000000000028
  0
LINE
  8
_0-4_
  6
CONTINUOUS
 62
    3
 10
1394.5
 20
1399
 11
1100.5
 21
1399
  0
LINE
  8
_0-4_
  6
CONTINUOUS
 62
    3
 10
2593
 20
1369
 11
2593
 21
1229.9999999999997
  0
LINE
  8
_0-4_
  6
CONTINUOUS
 62
    3
 10
2605.0000000000004
 20
1369
 11
2605.0000000000004
 21
1229.9999999999997
  0
POINT
  8
_0-9_
 62
    3
 10
2421.6674015250046
 20
1228.9999999999997
  0
LINE
  8
_0-9_
  6
CONTINUOUS
 62
    4
 10
2411.6674015250046
 20
1228.9999999999997
 11
2538.1520228784852
 21
1228.9999999999997
  0
LINE
  8
_0-4_
  6
CONTINUOUS
 62
    3
 10
1099.5
 20
1228.9999999999997
 11
805.50000000000011
 21
1228.9999999999997
  0
LINE
  8
_0-4_
  6
CONTINUOUS
 62
    3
 10
1100.5
 20
1228.9999999999997
 11
1394.5
 21
1228.9999999999997
  0
LINE
  8
_0-9_
  6
CONTINUOUS
 62
    4
 10
2421.6674015250046
 20
1228.9999999999997
 11
2421.6674015250046
 21
1399
  0
TEXT
  8
_0-9_
 62
    7
 10
2421.6674015250046
 20
1280.9
 40
35
 41
0.6285714285714286
 50
90
  1
１７０
  0
LINE
  8
_0-9_
  6
CONTINUOUS
 62
    4
 10
1541
 20
1228.9999999999997
 11
1541
 21
1399
  0
TEXT
  8
_0-9_
 62
    7
 10
1541
 20
1280.9
 40
35
 41
0.6285714285714286
 50
90
  1
１７０
  0
LINE
  8
_0-4_
  6
CONTINUOUS
 62
    3
 10
1394.5
 20
1399
 11
1394.5
 21
1228.9999999999997
  0
LINE
  8
_0-4_
  6
CONTINUOUS
 62
    3
 10
1100.5
 20
1399
 11
1100.5
 21
1228.9999999999997
  0
LINE
  8
_0-4_
  6
CONTINUOUS
 62
    3
 10
1099.5
 20
1399
 11
1099.5
 21
1228.9999999999997
  0
LINE
  8
_0-4_
  6
CONTINUOUS
 62
    3
 10
805.50000000000011
 20
1399
 11
805.50000000000011
 21
1228.9999999999997
  0
ARC
  8
_0-5_
  6
CONTINUOUS
 62
    4
 10
1103.5
 20
1221
 40
3.0000000000000004
 50
180
 51
270
  0
ARC
  8
_0-5_
  6
CONTINUOUS
 62
    4
 10
1096.5
 20
1221
 40
3.0000000000000004
 50
270
 51
0
  0
ARC
  8
_0-5_
  6
CONTINUOUS
 62
    4
 10
808.5
 20
1221
 40
3.0000000000000004
 50
180
 51
270
  0
LINE
  8
_0-5_
  6
CONTINUOUS
 62
    4
 10
1096.5
 20
1218
 11
808.5
 21
1218
  0
LINE
  8
_0-5_
  6
CONTINUOUS
 62
    4
 10
805.50000000000011
 20
1189.0000000000004
 11
1099.5
 21
1189.0000000000004
  0
LINE
  8
_0-5_
  6
CONTINUOUS
 62
    4
 10
805.50000000000011
 20
1196.6000000000028
 11
1099.5
 21
1196.6000000000028
  0
LINE
  8
_0-4_
  6
CONTINUOUS
 62
    3
 10
1099.5
 20
1225
 11
805.50000000000011
 21
1225
  0
ARC
  8
_0-5_
  6
CONTINUOUS
 62
    4
 10
1391.5
 20
1221
 40
3.0000000000000004
 50
270
 51
0
  0
LINE
  8
_0-5_
  6
CONTINUOUS
 62
    4
 10
1103.5
 20
1218
 11
1391.5
 21
1218
  0
LINE
  8
_0-5_
  6
CONTINUOUS
 62
    4
 10
1394.5
 20
1189.0000000000004
 11
1100.5
 21
1189.0000000000004
  0
LINE
  8
_0-5_
  6
CONTINUOUS
 62
    4
 10
1394.5
 20
1196.6000000000028
 11
1100.5
 21
1196.6000000000028
  0
LINE
  8
_0-4_
  6
CONTINUOUS
 62
    3
 10
1100.5
 20
1225
 11
1394.5
 21
1225
  0
LINE
  8
_0-4_
  6
CONTINUOUS
 62
    3
 10
1394.5
 20
1225
 11
1394.5
 21
724.99999999999988
  0
LINE
  8
_0-4_
  6
CONTINUOUS
 62
    3
 10
1100.5
 20
1225
 11
1100.5
 21
724.99999999999988
  0
LINE
  8
_0-4_
  6
CONTINUOUS
 62
    3
 10
1099.5
 20
1225
 11
1099.5
 21
724.99999999999988
  0
LINE
  8
_0-4_
  6
CONTINUOUS
 62
    3
 10
805.50000000000011
 20
1225
 11
805.50000000000011
 21
724.99999999999988
  0
LINE
  8
_0-5_
  6
CENTER2
 62
    4
 10
1099.5
 20
1225
 11
805.50000000000011
 21
975
  0
LINE
  8
_0-5_
  6
CENTER2
 62
    4
 10
805.50000000000011
 20
975
 11
1099.5
 21
724.99999999999988
  0
LINE
  8
_0-5_
  6
CENTER2
 62
    4
 10
1100.5
 20
724.99999999999988
 11
1394.5
 21
975
  0
LINE
  8
_0-5_
  6
CENTER2
 62
    4
 10
1394.5
 20
975
 11
1100.5
 21
1225
  0
POINT
  8
_0-9_
 62
    3
 10
2421.6674015250046
 20
1225
  0
LINE
  8
_0-9_
  6
CONTINUOUS
 62
    4
 10
2411.6674015250046
 20
1225
 11
2538.1520228784852
 21
1225
  0
LINE
  8
_0-4_
  6
CONTINUOUS
 62
    3
 10
2605.0000000000004
 20
1195
 11
2593
 21
1195
  0
ARC
  8
_0-5_
  6
CONTINUOUS
 62
    4
 10
2604.5999999999999
 20
1223
 40
2
 50
0.0000000000000127
 51
90.000000000000042
  0
ARC
  8
_0-5_
  6
CONTINUOUS
 62
    4
 10
2604.5999999999999
 20
1223
 40
0.6999999999999999
 50
0
 51
90
  0
LINE
  8
_0-5_
  6
CONTINUOUS
 62
    4
 10
2606.6000000000003
 20
1180.9999999999997
 11
2606.6000000000003
 21
1223
  0
ARC
  8
_0-5_
  6
CONTINUOUS
 62
    4
 10
2606.1000000000003
 20
1180.9999999999997
 40
0.5
 50
270
 51
0
  0
ARC
  8
_0-5_
  6
CONTINUOUS
 62
    4
 10
2605.8000000000001
 20
1181.2999999999999
 40
0.8000000000000001
 50
128.68218745349332
 51
270
  0
LINE
  8
_0-5_
  6
CONTINUOUS
 62
    4
 10
2606.1000000000003
 20
1180.5
 11
2605.8000000000001
 21
1180.5
  0
LINE
  8
_0-5_
  6
CONTINUOUS
 62
    4
 10
2605.300000000001
 20
1189.2755002001601
 11
2605.300000000001
 21
1181.9244997998396
  0
ARC
  8
_0-5_
  6
CONTINUOUS
 62
    4
 10
2605.8000000000001
 20
1189.9
 40
0.8000000000000001
 50
128.68218745349335
 51
231.31781254650667
  0
LINE
  8
_0-5_
  6
CONTINUOUS
 62
    4
 10
2605.300000000001
 20
1194.7
 11
2605.300000000001
 21
1190.5244997998397
  0
ARC
  8
_0-5_
  6
CONTINUOUS
 62
    4
 10
2605.0000000000004
 20
1194.7
 40
0.2999999999999998
 50
0.0000000000000127
 51
90.000000000000014
  0
LINE
  8
_0-5_
  6
CONTINUOUS
 62
    4
 10
2605.300000000001
 20
1198.4496126617748
 11
2605.300000000001
 21
1223
  0
ARC
  8
_0-5_
  6
CONTINUOUS
 62
    4
 10
2604.3000000000001
 20
1198.4496126617748
 40
1
 50
272.96093613416371
 51
0
  0
ARC
  8
_0-5_
  6
CONTINUOUS
 62
    4
 10
2591.5000000000004
 20
1189.8000000000001
 40
0.8000000000000001
 50
180
 51
359.99999999999994
  0
LINE
  8
_0-5_
  6
CONTINUOUS
 62
    4
 10
2593.8285714285721
 20
1225
 11
2604.5999999999999
 21
1225
  0
ARC
  8
_0-5_
  6
CONTINUOUS
 62
    4
 10
2593.8285714285721
 20
1223
 40
2
 50
90.000000000000028
 51
161.07535558394951
  0
ARC
  8
_0-5_
  6
CONTINUOUS
 62
    4
 10
2593.8285714285721
 20
1223
 40
0.6999999999999999
 50
90
 51
161.07535558395002
  0
LINE
  8
_0-5_
  6
CONTINUOUS
 62
    4
 10
2604.5999999999999
 20
1223.7
 11
2593.8285714285721
 21
1223.7
  0
LINE
  8
_0-5_
  6
CONTINUOUS
 62
    4
 10
2593.1664092664091
 20
1223.2270270270271
 11
2592.0375798523668
 21
1219.9346079027357
  0
ARC
  8
_0-5_
  6
CONTINUOUS
 62
    4
 10
2592.2267690415555
 20
1219.8697430378711
 40
0.2
 50
161.07535558394698
 51
226.45103723177706
  0
ARC
  8
_0-5_
  6
CONTINUOUS
 62
    4
 10
2591.4000000000005
 20
1219.0000000000002
 40
1
 50
161.07535558395028
 51
46.451037231780105
  0
LINE
  8
_0-5_
  6
CONTINUOUS
 62
    4
 10
2591.93667953668
 20
1223.6486486486485
 11
2590.4540540540547
 21
1219.3243243243243
  0
LINE
  8
_0-5_
  6
CONTINUOUS
 62
    4
 10
2592.2999999999997
 20
1194.7
 11
2592.2999999999997
 21
1189.8000000000001
  0
ARC
  8
_0-5_
  6
CONTINUOUS
 62
    4
 10
2592.6000000000003
 20
1194.7
 40
0.2999999999999998
 50
90
 51
180
  0
LINE
  8
_0-5_
  6
CONTINUOUS
 62
    4
 10
2605.0000000000004
 20
1195
 11
2592.6000000000003
 21
1195
  0
LINE
  8
_0-5_
  6
CONTINUOUS
 62
    4
 10
2590.7000000000007
 20
1195.6503873382255
 11
2590.7000000000007
 21
1189.8000000000001
  0
ARC
  8
_0-5_
  6
CONTINUOUS
 62
    4
 10
2591.7000000000002
 20
1195.6503873382255
 40
1
 50
92.960936134163759
 51
180
  0
LINE
  8
_0-5_
  6
CONTINUOUS
 62
    4
 10
2604.3516550854283
 20
1197.4509476768325
 11
2591.6483449145716
 21
1196.6490523231675
  0
LINE
  8
_0-4_
  6
CONTINUOUS
 62
    3
 10
2593
 20
1195
 11
2593
 21
724.99999999999988
  0
LINE
  8
_0-4_
  6
CONTINUOUS
 62
    3
 10
2605.0000000000004
 20
1195
 11
2605.0000000000004
 21
724.99999999999988
  0
LINE
  8
_0-9_
  6
CONTINUOUS
 62
    4
 10
2341.6674015250046
 20
580
 11
2341.6674015250046
 21
719.99999999999988
  0
TEXT
  8
_0-9_
 62
    7
 10
2341.6674015250046
 20
616.89999999999986
 40
35
 41
0.6285714285714286
 50
90
  1
１４０
  0
LINE
  8
_0-9_
  6
CONTINUOUS
 62
    4
 10
1621
 20
580
 11
1621
 21
719.99999999999988
  0
TEXT
  8
_0-9_
 62
    7
 10
1621
 20
616.89999999999986
 40
35
 41
0.6285714285714286
 50
90
  1
１４０
  0
LINE
  8
_0-9_
  6
CONTINUOUS
 62
    4
 10
2261.6674015250046
 20
580
 11
2261.6674015250046
 21
1430
  0
TEXT
  8
_0-9_
 62
    7
 10
2261.6674015250046
 20
971.89999999999997
 40
35
 41
0.6285714285714286
 50
90
  1
８５０
  0
LINE
  8
_0-9_
  6
CONTINUOUS
 62
    4
 10
1701
 20
1429.9999999999997
 11
1701
 21
1469.9999999999997
  0
TEXT
  8
_0-9_
 62
    7
 10
1701
 20
1427.9499999999995
 40
35
 41
0.6285714285714286
 50
90
  1
４０
  0
LINE
  8
_0-9_
  6
CONTINUOUS
 62
    4
 10
1701
 20
580
 11
1701
 21
1429.9999999999997
  0
TEXT
  8
_0-9_
 62
    7
 10
1701
 20
971.89999999999986
 40
35
 41
0.6285714285714286
 50
90
  1
８５０
  0
POINT
  8
_0-9_
 62
    3
 10
1621
 20
2590
  0
LINE
  8
_0-9_
  6
CONTINUOUS
 62
    4
 10
1631
 20
2590
 11
1438.8289412795729
 21
2590
  0
LINE
  8
_0-2_
  6
CONTINUOUS
 62
    5
 10
1400
 20
2590
 11
800
 21
2590
  0
LINE
  8
_0-9_
  6
CONTINUOUS
 62
    4
 10
1621
 20
2590
 11
1621
 21
2610
  0
TEXT
  8
_0-9_
 62
    7
 10
1621
 20
2608.8946563204317
 40
35
 41
0.6285714285714286
 50
90
  1
２０
  0
TEXT
  8
_f-8_
 62
    7
 10
3040
 20
187.5
 40
25
 41
0.64
 50
0
  1
ＤＡＴＡ
  0
LINE
  8
_0-3_
  6
CONTINUOUS
 62
    4
 10
2612
 20
732.99999999999977
 11
3105
 21
732.99999999999977
  0
LINE
  8
_0-3_
  6
CONTINUOUS
 62
    4
 10
2612
 20
732.99999999999977
 11
2612
 21
719.99999999999988
  0
LINE
  8
_0-3_
  6
CONTINUOUS
 62
    5
 10
2608
 20
736.99999999999988
 11
2608
 21
719.99999999999988
  0
LINE
  8
_0-3_
  6
CONTINUOUS
 62
    5
 10
2608
 20
736.99999999999988
 11
3105
 21
736.99999999999988
  0
LINE
  8
_0-3_
  6
CONTINUOUS
 62
    5
 10
2608
 20
719.99999999999988
 11
3105
 21
719.99999999999988
  0
LINE
  8
_0-3_
  6
CONTINUOUS
 62
    2
 10
2608
 20
1180
 11
2628
 21
1180
  0
LINE
  8
_0-3_
  6
CONTINUOUS
 62
    2
 10
2608
 20
1402.0000000000004
 11
2608
 21
1347.0000000000004
  0
LINE
  8
_0-3_
  6
CONTINUOUS
 62
    2
 10
2608
 20
1347.0000000000004
 11
2628
 21
1347.0000000000004
  0
LINE
  8
_0-3_
  6
CONTINUOUS
 62
    2
 10
2628
 20
1402.0000000000004
 11
2628
 21
1347.0000000000004
  0
LINE
  8
_0-3_
  6
CONTINUOUS
 62
    5
 10
3130
 20
1401.9999999999995
 11
3130
 21
580
  0
LINE
  8
_0-3_
  6
CONTINUOUS
 62
    4
 10
3105
 20
1401.9999999999995
 11
3105
 21
580
  0
LINE
  8
_0-3_
  6
CONTINUOUS
 62
    4
 10
3109
 20
1401.9999999999995
 11
3109
 21
580
  0
LINE
  8
_0-3_
  6
CONTINUOUS
 62
    5
 10
2650
 20
580
 11
3130
 21
580
  0
LINE
  8
_0-3_
  6
CONTINUOUS
 62
    5
 10
2650
 20
719.99999999999988
 11
2650
 21
580
  0
LINE
  8
_0-3_
  6
CONTINUOUS
 62
    2
 10
2628
 20
1237.9999999999997
 11
2628
 21
1180
  0
LINE
  8
_0-3_
  6
CONTINUOUS
 62
    2
 10
2608
 20
1237.9999999999997
 11
2608
 21
1180
  0
LINE
  8
_0-3_
  6
CONTINUOUS
 62
    7
 10
2662
 20
719.99999999999988
 11
2662
 21
580
  0
LINE
  8
_0-4_
  6
CONTINUOUS
 62
    7
 10
2612.5977000000007
 20
1274.3621999999998
 11
2612.6059000000004
 21
1274.1281999999998
  0
LINE
  8
_0-4_
  6
CONTINUOUS
 62
    7
 10
2612.6059000000004
 20
1274.1281999999998
 11
2612.6137000000007
 21
1273.9031999999999
  0
LINE
  8
_0-4_
  6
CONTINUOUS
 62
    7
 10
2612.6137000000007
 20
1273.9031999999999
 11
2612.621
 21
1273.6958999999999
  0
LINE
  8
_0-4_
  6
CONTINUOUS
 62
    7
 10
2612.621
 20
1273.6958999999999
 11
2612.6273000000001
 21
1273.5141999999998
  0
LINE
  8
_0-4_
  6
CONTINUOUS
 62
    7
 10
2612.6273000000001
 20
1273.5141999999998
 11
2612.6325000000006
 21
1273.3649999999997
  0
LINE
  8
_0-4_
  6
CONTINUOUS
 62
    7
 10
2612.6325000000006
 20
1273.3649999999997
 11
2612.6364000000007
 21
1273.2541999999998
  0
LINE
  8
_0-4_
  6
CONTINUOUS
 62
    7
 10
2612.6364000000007
 20
1273.2541999999998
 11
2612.6388000000006
 21
1273.1858999999999
  0
LINE
  8
_0-4_
  6
CONTINUOUS
 62
    7
 10
2612.6388000000006
 20
1273.1858999999999
 11
2612.6396000000004
 21
1273.1628999999998
  0
LINE
  8
_0-4_
  6
CONTINUOUS
 62
    7
 10
2608.5000000000009
 20
1277.1604999999997
 11
2609.7000000000002
 21
1277.1604999999997
  0
LINE
  8
_0-4_
  6
CONTINUOUS
 62
    7
 10
2608.5000000000009
 20
1277.1604999999997
 11
2608.5000000000009
 21
1300.8394999999998
  0
LINE
  8
_0-4_
  6
CONTINUOUS
 62
    7
 10
2608.5000000000009
 20
1300.8394999999998
 11
2609.7000000000002
 21
1300.8394999999998
  0
LINE
  8
_0-4_
  6
CONTINUOUS
 62
    7
 10
2609.7000000000002
 20
1300.8394999999998
 11
2609.7000000000002
 21
1277.1604999999997
  0
LINE
  8
_0-4_
  6
CONTINUOUS
 62
    7
 10
2612.6396000000004
 20
1304.8369999999999
 11
2612.6388000000006
 21
1304.8139999999998
  0
LINE
  8
_0-4_
  6
CONTINUOUS
 62
    7
 10
2612.6388000000006
 20
1304.8139999999998
 11
2612.6364000000007
 21
1304.7456999999999
  0
LINE
  8
_0-4_
  6
CONTINUOUS
 62
    7
 10
2612.6364000000007
 20
1304.7456999999999
 11
2612.6325000000006
 21
1304.6348999999997
  0
LINE
  8
_0-4_
  6
CONTINUOUS
 62
    7
 10
2612.6325000000006
 20
1304.6348999999997
 11
2612.6273000000001
 21
1304.4857999999999
  0
LINE
  8
_0-4_
  6
CONTINUOUS
 62
    7
 10
2612.6273000000001
 20
1304.4857999999999
 11
2612.621
 21
1304.3039999999998
  0
LINE
  8
_0-4_
  6
CONTINUOUS
 62
    7
 10
2612.621
 20
1304.3039999999998
 11
2612.6137000000007
 21
1304.0967
  0
LINE
  8
_0-4_
  6
CONTINUOUS
 62
    7
 10
2612.6137000000007
 20
1304.0967
 11
2612.6059000000004
 21
1303.8716999999999
  0
LINE
  8
_0-4_
  6
CONTINUOUS
 62
    7
 10
2612.6059000000004
 20
1303.8716999999999
 11
2612.5977000000007
 21
1303.6377999999995
  0
LINE
  8
_0-4_
  6
CONTINUOUS
 62
    7
 10
2612.5977000000007
 20
1274.3621999999998
 11
2637.2197000000005
 21
1275.2219999999997
  0
LINE
  8
_0-4_
  6
CONTINUOUS
 62
    7
 10
2637.2197000000005
 20
1302.7778999999998
 11
2612.5977000000007
 21
1303.6377999999995
  0
LINE
  8
_0-4_
  6
CONTINUOUS
 62
    7
 10
2612.6396000000004
 20
1304.8369999999999
 11
2637.2616000000007
 21
1303.9771999999998
  0
LINE
  8
_0-4_
  6
CONTINUOUS
 62
    7
 10
2637.2616000000007
 20
1303.9771999999998
 11
2637.2608
 21
1303.9542000000001
  0
LINE
  8
_0-4_
  6
CONTINUOUS
 62
    7
 10
2637.2608
 20
1303.9542000000001
 11
2637.2584000000006
 21
1303.8858999999997
  0
LINE
  8
_0-4_
  6
CONTINUOUS
 62
    7
 10
2637.2584000000006
 20
1303.8858999999997
 11
2637.2545
 21
1303.7750999999998
  0
LINE
  8
_0-4_
  6
CONTINUOUS
 62
    7
 10
2637.2545
 20
1303.7750999999998
 11
2637.2493000000008
 21
1303.6259999999997
  0
LINE
  8
_0-4_
  6
CONTINUOUS
 62
    7
 10
2637.2493000000008
 20
1303.6259999999997
 11
2637.2430000000008
 21
1303.4441999999999
  0
LINE
  8
_0-4_
  6
CONTINUOUS
 62
    7
 10
2637.2430000000008
 20
1303.4441999999999
 11
2637.2357000000006
 21
1303.2368999999998
  0
LINE
  8
_0-4_
  6
CONTINUOUS
 62
    7
 10
2637.2357000000006
 20
1303.2368999999998
 11
2637.2279000000003
 21
1303.0118999999995
  0
LINE
  8
_0-4_
  6
CONTINUOUS
 62
    7
 10
2637.2279000000003
 20
1303.0118999999995
 11
2637.2197000000005
 21
1302.7778999999998
  0
LINE
  8
_0-4_
  6
CONTINUOUS
 62
    7
 10
2637.2197000000005
 20
1275.2219999999997
 11
2637.2279000000003
 21
1274.9879999999998
  0
LINE
  8
_0-4_
  6
CONTINUOUS
 62
    7
 10
2637.2279000000003
 20
1274.9879999999998
 11
2637.2357000000006
 21
1274.7630999999998
  0
LINE
  8
_0-4_
  6
CONTINUOUS
 62
    7
 10
2637.2357000000006
 20
1274.7630999999998
 11
2637.2430000000008
 21
1274.5556999999998
  0
LINE
  8
_0-4_
  6
CONTINUOUS
 62
    7
 10
2637.2430000000008
 20
1274.5556999999998
 11
2637.2493000000008
 21
1274.3739999999997
  0
LINE
  8
_0-4_
  6
CONTINUOUS
 62
    7
 10
2637.2493000000008
 20
1274.3739999999997
 11
2637.2545
 21
1274.2247999999997
  0
LINE
  8
_0-4_
  6
CONTINUOUS
 62
    7
 10
2637.2545
 20
1274.2247999999997
 11
2637.2584000000006
 21
1274.1139999999998
  0
LINE
  8
_0-4_
  6
CONTINUOUS
 62
    7
 10
2637.2584000000006
 20
1274.1139999999998
 11
2637.2608
 21
1274.0457999999998
  0
LINE
  8
_0-4_
  6
CONTINUOUS
 62
    7
 10
2637.2608
 20
1274.0457999999998
 11
2637.2616000000007
 21
1274.0226999999999
  0
LINE
  8
_0-4_
  6
CONTINUOUS
 62
    7
 10
2637.2616000000007
 20
1274.0226999999999
 11
2612.6396000000004
 21
1273.1628999999998
  0
LINE
  8
_0-4_
  6
CONTINUOUS
 62
    7
 10
2642.2256000000006
 20
1279.4484999999999
 11
2642.4549000000006
 21
1279.4011999999997
  0
LINE
  8
_0-4_
  6
CONTINUOUS
 62
    7
 10
2642.4549000000006
 20
1279.4011999999997
 11
2642.6753000000007
 21
1279.3557999999998
  0
LINE
  8
_0-4_
  6
CONTINUOUS
 62
    7
 10
2642.6753000000007
 20
1279.3557999999998
 11
2642.8785000000007
 21
1279.3138999999998
  0
LINE
  8
_0-4_
  6
CONTINUOUS
 62
    7
 10
2642.8785000000007
 20
1279.3138999999998
 11
2643.0566000000003
 21
1279.2771999999997
  0
LINE
  8
_0-4_
  6
CONTINUOUS
 62
    7
 10
2643.0566000000003
 20
1279.2771999999997
 11
2643.2028
 21
1279.2469999999998
  0
LINE
  8
_0-4_
  6
CONTINUOUS
 62
    7
 10
2643.2028
 20
1279.2469999999998
 11
2643.3114000000005
 21
1279.2245999999997
  0
LINE
  8
_0-4_
  6
CONTINUOUS
 62
    7
 10
2643.3114000000005
 20
1279.2245999999997
 11
2643.3783000000003
 21
1279.2108999999998
  0
LINE
  8
_0-4_
  6
CONTINUOUS
 62
    7
 10
2643.3783000000003
 20
1279.2108999999998
 11
2643.4008000000003
 21
1279.2061999999998
  0
LINE
  8
_0-4_
  6
CONTINUOUS
 62
    7
 10
2642.2256000000006
 20
1298.5514
 11
2642.4549000000006
 21
1298.5987
  0
LINE
  8
_0-4_
  6
CONTINUOUS
 62
    7
 10
2642.4549000000006
 20
1298.5987
 11
2642.6753000000007
 21
1298.6441999999999
  0
LINE
  8
_0-4_
  6
CONTINUOUS
 62
    7
 10
2642.6753000000007
 20
1298.6441999999999
 11
2642.8785000000007
 21
1298.6859999999999
  0
LINE
  8
_0-4_
  6
CONTINUOUS
 62
    7
 10
2642.8785000000007
 20
1298.6859999999999
 11
2643.0566000000003
 21
1298.7228
  0
LINE
  8
_0-4_
  6
CONTINUOUS
 62
    7
 10
2643.0566000000003
 20
1298.7228
 11
2643.2028
 21
1298.7528999999997
  0
LINE
  8
_0-4_
  6
CONTINUOUS
 62
    7
 10
2643.2028
 20
1298.7528999999997
 11
2643.3114000000005
 21
1298.7752999999997
  0
LINE
  8
_0-4_
  6
CONTINUOUS
 62
    7
 10
2643.3114000000005
 20
1298.7752999999997
 11
2643.3783000000003
 21
1298.7890999999995
  0
LINE
  8
_0-4_
  6
CONTINUOUS
 62
    7
 10
2643.3783000000003
 20
1298.7890999999995
 11
2643.4008000000003
 21
1298.7936999999999
  0
LINE
  8
_0-4_
  6
CONTINUOUS
 62
    7
 10
2607.0000000000004
 20
1308.75
 11
2607.0000000000004
 21
1306.5348999999996
  0
LINE
  8
_0-4_
  6
CONTINUOUS
 62
    7
 10
2607.0000000000004
 20
1306.5
 11
2606.2000000000007
 21
1306.5
  0
LINE
  8
_0-4_
  6
CONTINUOUS
 62
    7
 10
2606.2000000000007
 20
1308.75
 11
2606.2000000000007
 21
1306.5
  0
LINE
  8
_0-4_
  6
CONTINUOUS
 62
    7
 10
2607.0000000000004
 20
1308.75
 11
2606.2000000000007
 21
1308.75
  0
LINE
  8
_0-4_
  6
CONTINUOUS
 62
    7
 10
2605.0000000000004
 20
1306.1365999999998
 11
2605.0000000000004
 21
1308.3866
  0
LINE
  8
_0-4_
  6
CONTINUOUS
 62
    7
 10
2606.2000000000007
 20
1306.5
 11
2606.2000000000007
 21
1271.5
  0
LINE
  8
_0-4_
  6
CONTINUOUS
 62
    7
 10
2605.0000000000004
 20
1271.8632999999997
 11
2605.0000000000004
 21
1306.1365999999998
  0
LINE
  8
_0-4_
  6
CONTINUOUS
 62
    7
 10
2606.2000000000007
 20
1271.5
 11
2606.2000000000007
 21
1269.25
  0
LINE
  8
_0-4_
  6
CONTINUOUS
 62
    7
 10
2605.0000000000004
 20
1269.6132999999999
 11
2605.0000000000004
 21
1271.8632999999997
  0
LINE
  8
_0-4_
  6
CONTINUOUS
 62
    7
 10
2607.0000000000004
 20
1271.4649999999999
 11
2637.3139000000001
 21
1272.5235999999999
  0
LINE
  8
_0-4_
  6
CONTINUOUS
 62
    7
 10
2607.0000000000004
 20
1271.5
 11
2607.0000000000004
 21
1271.4649999999999
  0
LINE
  8
_0-4_
  6
CONTINUOUS
 62
    7
 10
2607.0000000000004
 20
1271.5
 11
2606.2000000000007
 21
1271.5
  0
LINE
  8
_0-4_
  6
CONTINUOUS
 62
    7
 10
2637.3139000000001
 20
1305.4762999999998
 11
2607.0000000000004
 21
1306.5348999999996
  0
LINE
  8
_0-4_
  6
CONTINUOUS
 62
    7
 10
2607.0000000000004
 20
1306.5348999999996
 11
2607.0000000000004
 21
1306.5
  0
LINE
  8
_0-4_
  6
CONTINUOUS
 62
    7
 10
2607.0000000000004
 20
1271.4649999999999
 11
2607.0000000000004
 21
1269.25
  0
LINE
  8
_0-4_
  6
CONTINUOUS
 62
    7
 10
2607.0000000000004
 20
1269.25
 11
2606.2000000000007
 21
1269.25
  0
LINE
  8
_0-4_
  6
CONTINUOUS
 62
    7
 10
2606.2000000000007
 20
1315.0382999999999
 11
2606.2000000000007
 21
1308.75
  0
LINE
  8
_0-4_
  6
CONTINUOUS
 62
    7
 10
2606.2000000000007
 20
1315.0382999999999
 11
2605.0000000000004
 21
1315.0382999999999
  0
LINE
  8
_0-4_
  6
CONTINUOUS
 62
    7
 10
2605.0000000000004
 20
1308.3866
 11
2605.0000000000004
 21
1315.0382999999999
  0
LINE
  8
_0-4_
  6
CONTINUOUS
 62
    7
 10
2606.2000000000007
 20
1249.25
 11
2606.2000000000007
 21
1246.2499999999997
  0
LINE
  8
_0-4_
  6
CONTINUOUS
 62
    7
 10
2606.2000000000007
 20
1249.25
 11
2605.0000000000004
 21
1249.25
  0
LINE
  8
_0-4_
  6
CONTINUOUS
 62
    7
 10
2605.0000000000004
 20
1247.4499999999998
 11
2605.0000000000004
 21
1249.25
  0
LINE
  8
_0-4_
  6
CONTINUOUS
 62
    7
 10
2606.2000000000007
 20
1331.7499999999997
 11
2606.2000000000007
 21
1328.75
  0
LINE
  8
_0-4_
  6
CONTINUOUS
 62
    7
 10
2606.2000000000007
 20
1328.75
 11
2605.0000000000004
 21
1328.75
  0
LINE
  8
_0-4_
  6
CONTINUOUS
 62
    7
 10
2605.0000000000004
 20
1328.75
 11
2605.0000000000004
 21
1330.5499999999997
  0
LINE
  8
_0-4_
  6
CONTINUOUS
 62
    7
 10
2606.2000000000007
 20
1269.25
 11
2606.2000000000007
 21
1262.7835
  0
LINE
  8
_0-4_
  6
CONTINUOUS
 62
    7
 10
2605.0000000000004
 20
1262.7835
 11
2606.2000000000007
 21
1262.7835
  0
LINE
  8
_0-4_
  6
CONTINUOUS
 62
    7
 10
2605.0000000000004
 20
1262.7835
 11
2605.0000000000004
 21
1269.6132999999999
  0
LINE
  8
_0-4_
  6
CONTINUOUS
 62
    7
 10
2606.2000000000007
 20
1262.7835
 11
2606.2000000000007
 21
1249.25
  0
LINE
  8
_0-4_
  6
CONTINUOUS
 62
    7
 10
2605.0000000000004
 20
1249.25
 11
2605.0000000000004
 21
1262.7835
  0
LINE
  8
_0-4_
  6
CONTINUOUS
 62
    7
 10
2606.2000000000007
 20
1328.75
 11
2606.2000000000007
 21
1315.0382999999999
  0
LINE
  8
_0-4_
  6
CONTINUOUS
 62
    7
 10
2605.0000000000004
 20
1315.0382999999999
 11
2605.0000000000004
 21
1328.75
  0
LINE
  8
_0-4_
  6
CONTINUOUS
 62
    7
 10
2607.0000000000004
 20
1246.2499999999997
 11
2606.2000000000007
 21
1246.2499999999997
  0
LINE
  8
_0-4_
  6
CONTINUOUS
 62
    7
 10
2606.2000000000007
 20
1249.25
 11
2607.0000000000004
 21
1249.25
  0
LINE
  8
_0-4_
  6
CONTINUOUS
 62
    7
 10
2607.0000000000004
 20
1249.25
 11
2607.0000000000004
 21
1246.2499999999997
  0
LINE
  8
_0-4_
  6
CONTINUOUS
 62
    7
 10
2607.0000000000004
 20
1328.75
 11
2606.2000000000007
 21
1328.75
  0
LINE
  8
_0-4_
  6
CONTINUOUS
 62
    7
 10
2606.2000000000007
 20
1331.7499999999997
 11
2607.0000000000004
 21
1331.7499999999997
  0
LINE
  8
_0-4_
  6
CONTINUOUS
 62
    7
 10
2607.0000000000004
 20
1331.7499999999997
 11
2607.0000000000004
 21
1328.75
  0
LINE
  8
_0-4_
  6
CONTINUOUS
 62
    7
 10
2607.0000000000004
 20
1328.75
 11
2607.0000000000004
 21
1308.75
  0
LINE
  8
_0-4_
  6
CONTINUOUS
 62
    7
 10
2607.0000000000004
 20
1269.25
 11
2607.0000000000004
 21
1249.25
  0
LINE
  8
_0-4_
  6
CONTINUOUS
 62
    7
 10
2637.3110000000006
 20
1305.4903999999999
 11
2607.0000000000004
 21
1306.5488999999997
  0
LINE
  8
_0-4_
  6
CONTINUOUS
 62
    7
 10
2607.0000000000004
 20
1271.4510999999997
 11
2637.3110000000006
 21
1272.5095999999998
  0
ARC
  8
_0-4_
  6
CONTINUOUS
 62
    7
 10
2612.5000000000004
 20
1277.1604999999997
 40
2.7999999999999998
 50
180.00000000000005
 51
272.00000000000005
  0
ARC
  8
_0-4_
  6
CONTINUOUS
 62
    7
 10
2612.5000000000004
 20
1277.1604999999997
 40
4
 50
180.00000000000005
 51
272.00000000000005
  0
ARC
  8
_0-4_
  6
CONTINUOUS
 62
    7
 10
2612.5000000000004
 20
1300.8394999999998
 40
4
 50
88.000000000000028
 51
180.00000000000005
  0
ARC
  8
_0-4_
  6
CONTINUOUS
 62
    7
 10
2612.5000000000004
 20
1300.8394999999998
 40
2.7999999999999998
 50
88.000000000000028
 51
180.00000000000005
  0
ARC
  8
_0-4_
  6
CONTINUOUS
 62
    7
 10
2637.0347000000001
 20
1280.5187999999998
 40
5.3000000000000015
 50
272.00000000000011
 51
348.35000000000013
  0
ARC
  8
_0-4_
  6
CONTINUOUS
 62
    7
 10
2637.0347000000001
 20
1297.4811999999999
 40
5.3000000000000015
 50
11.650000000000002
 51
88.000000000000014
  0
ARC
  8
_0-4_
  6
CONTINUOUS
 62
    7
 10
2595.9000000000005
 20
1289
 40
47.299999999999997
 50
348.35000000000013
 51
11.650000000000069
  0
ARC
  8
_0-4_
  6
CONTINUOUS
 62
    7
 10
2637.0347000000001
 20
1280.5187999999998
 40
6.5
 50
272.00000000000011
 51
348.35000000000013
  0
ARC
  8
_0-4_
  6
CONTINUOUS
 62
    7
 10
2637.0347000000001
 20
1297.4811999999999
 40
6.5
 50
11.650000000000002
 51
88.000000000000014
  0
ARC
  8
_0-4_
  6
CONTINUOUS
 62
    7
 10
2595.9000000000005
 20
1289
 40
48.500000000000014
 50
348.35000000000013
 51
11.650000000000069
  0
LINE
  8
_0-4_
  6
CONTINUOUS
 62
    7
 10
2606.200000000007
 20
1306.4999307652399
 11
2605.9916221868065
 21
1306.4944109545162
  0
LINE
  8
_0-4_
  6
CONTINUOUS
 62
    7
 10
2605.9916221868065
 20
1306.4944109545162
 11
2605.7895758280155
 21
1306.4780192390007
  0
LINE
  8
_0-4_
  6
CONTINUOUS
 62
    7
 10
2605.7895758280155
 20
1306.4780192390007
 11
2605.6000000000058
 21
1306.4512536726749
  0
LINE
  8
_0-4_
  6
CONTINUOUS
 62
    7
 10
2605.6000000000058
 20
1306.4512536726749
 11
2605.4286548683821
 21
1306.4149275137269
  0
LINE
  8
_0-4_
  6
CONTINUOUS
 62
    7
 10
2605.4286548683821
 20
1306.4149275137269
 11
2605.2807466682625
 21
1306.3701445141155
  0
LINE
  8
_0-4_
  6
CONTINUOUS
 62
    7
 10
2605.2807466682625
 20
1306.3701445141155
 11
2605.1607695154625
 21
1306.3182653826215
  0
LINE
  8
_0-4_
  6
CONTINUOUS
 62
    7
 10
2605.1607695154625
 20
1306.3182653826215
 11
2605.0723688550597
 21
1306.2608664404035
  0
LINE
  8
_0-4_
  6
CONTINUOUS
 62
    7
 10
2605.0723688550597
 20
1306.2608664404035
 11
2605.018230696387
 21
1306.1996917252758
  0
LINE
  8
_0-4_
  6
CONTINUOUS
 62
    7
 10
2605.018230696387
 20
1306.1996917252758
 11
2605.0000000000009
 21
1306.1366000000034
  0
LINE
  8
_0-4_
  6
CONTINUOUS
 62
    7
 10
2606.200000000007
 20
1308.7499307652401
 11
2605.9916221868065
 21
1308.7444109545165
  0
LINE
  8
_0-4_
  6
CONTINUOUS
 62
    7
 10
2605.9916221868065
 20
1308.7444109545165
 11
2605.7895758280155
 21
1308.7280192390012
  0
LINE
  8
_0-4_
  6
CONTINUOUS
 62
    7
 10
2605.7895758280155
 20
1308.7280192390012
 11
2605.6000000000058
 21
1308.7012536726751
  0
LINE
  8
_0-4_
  6
CONTINUOUS
 62
    7
 10
2605.6000000000058
 20
1308.7012536726751
 11
2605.4286548683821
 21
1308.6649275137274
  0
LINE
  8
_0-4_
  6
CONTINUOUS
 62
    7
 10
2605.4286548683821
 20
1308.6649275137274
 11
2605.2807466682625
 21
1308.6201445141157
  0
LINE
  8
_0-4_
  6
CONTINUOUS
 62
    7
 10
2605.2807466682625
 20
1308.6201445141157
 11
2605.1607695154625
 21
1308.5682653826215
  0
LINE
  8
_0-4_
  6
CONTINUOUS
 62
    7
 10
2605.1607695154625
 20
1308.5682653826215
 11
2605.0723688550597
 21
1308.5108664404037
  0
LINE
  8
_0-4_
  6
CONTINUOUS
 62
    7
 10
2605.0723688550597
 20
1308.5108664404037
 11
2605.018230696387
 21
1308.4496917252761
  0
LINE
  8
_0-4_
  6
CONTINUOUS
 62
    7
 10
2605.018230696387
 20
1308.4496917252761
 11
2605.0000000000009
 21
1308.3866000000036
  0
LINE
  8
_0-4_
  6
CONTINUOUS
 62
    7
 10
2605.0000000000009
 20
1271.8633000000036
 11
2605.0182306963833
 21
1271.8002082747291
  0
LINE
  8
_0-4_
  6
CONTINUOUS
 62
    7
 10
2605.0182306963833
 20
1271.8002082747291
 11
2605.0723688550533
 21
1271.7390335596012
  0
LINE
  8
_0-4_
  6
CONTINUOUS
 62
    7
 10
2605.0723688550533
 20
1271.7390335596012
 11
2605.160769515453
 21
1271.6816346173829
  0
LINE
  8
_0-4_
  6
CONTINUOUS
 62
    7
 10
2605.160769515453
 20
1271.6816346173829
 11
2605.2807466682497
 21
1271.6297554858883
  0
LINE
  8
_0-4_
  6
CONTINUOUS
 62
    7
 10
2605.2807466682497
 20
1271.6297554858883
 11
2605.4286548683671
 21
1271.584972486276
  0
LINE
  8
_0-4_
  6
CONTINUOUS
 62
    7
 10
2605.4286548683671
 20
1271.584972486276
 11
2605.5999999999899
 21
1271.5486463273273
  0
LINE
  8
_0-4_
  6
CONTINUOUS
 62
    7
 10
2605.5999999999899
 20
1271.5486463273273
 11
2605.7895758279983
 21
1271.5218807610006
  0
LINE
  8
_0-4_
  6
CONTINUOUS
 62
    7
 10
2605.7895758279983
 20
1271.5218807610006
 11
2605.9916221867883
 21
1271.5054890454841
  0
LINE
  8
_0-4_
  6
CONTINUOUS
 62
    7
 10
2605.9916221867883
 20
1271.5054890454841
 11
2606.1999999999825
 21
1271.4999692347596
  0
LINE
  8
_0-4_
  6
CONTINUOUS
 62
    7
 10
2605.0000000000009
 20
1269.6133000000036
 11
2605.0182306963833
 21
1269.5502082747293
  0
LINE
  8
_0-4_
  6
CONTINUOUS
 62
    7
 10
2605.0182306963833
 20
1269.5502082747293
 11
2605.0723688550533
 21
1269.4890335596014
  0
LINE
  8
_0-4_
  6
CONTINUOUS
 62
    7
 10
2605.0723688550533
 20
1269.4890335596014
 11
2605.1607695154534
 21
1269.4316346173832
  0
LINE
  8
_0-4_
  6
CONTINUOUS
 62
    7
 10
2605.1607695154534
 20
1269.4316346173832
 11
2605.2807466682502
 21
1269.3797554858886
  0
LINE
  8
_0-4_
  6
CONTINUOUS
 62
    7
 10
2605.2807466682502
 20
1269.3797554858886
 11
2605.4286548683676
 21
1269.334972486276
  0
LINE
  8
_0-4_
  6
CONTINUOUS
 62
    7
 10
2605.4286548683676
 20
1269.334972486276
 11
2605.5999999999899
 21
1269.2986463273275
  0
LINE
  8
_0-4_
  6
CONTINUOUS
 62
    7
 10
2605.5999999999899
 20
1269.2986463273275
 11
2605.7895758279983
 21
1269.2718807610008
  0
LINE
  8
_0-4_
  6
CONTINUOUS
 62
    7
 10
2605.7895758279983
 20
1269.2718807610008
 11
2605.9916221867883
 21
1269.2554890454844
  0
LINE
  8
_0-4_
  6
CONTINUOUS
 62
    7
 10
2605.9916221867883
 20
1269.2554890454844
 11
2606.1999999999825
 21
1269.2499692347598
  0
ARC
  8
_0-4_
  6
CONTINUOUS
 62
    7
 10
2637.0347000000001
 20
1297.4811999999999
 40
8
 50
11.650000000000002
 51
88.000000000000014
  0
ARC
  8
_0-4_
  6
CONTINUOUS
 62
    7
 10
2595.9000000000005
 20
1289
 40
50
 50
348.35000000000013
 51
11.650000000000069
  0
ARC
  8
_0-4_
  6
CONTINUOUS
 62
    7
 10
2637.0347000000001
 20
1280.5187999999998
 40
8
 50
272.00000000000011
 51
348.35000000000013
  0
ARC
  8
_0-4_
  6
CONTINUOUS
 62
    7
 10
2606.2000000000007
 20
1247.4499999999998
 40
1.1999999999999999
 50
180.00000000000005
 51
270.00000000000005
  0
ARC
  8
_0-4_
  6
CONTINUOUS
 62
    7
 10
2606.2000000000007
 20
1330.5499999999997
 40
1.1999999999999999
 50
90.000000000000028
 51
180.00000000000005
  0
ARC
  8
_0-4_
  6
CONTINUOUS
 62
    7
 10
2637.0318000000006
 20
1297.4951999999998
 40
8
 50
11.670000000000001
 51
88.000000000000014
  0
ARC
  8
_0-4_
  6
CONTINUOUS
 62
    7
 10
2637.0318000000006
 20
1280.5046999999995
 40
8
 50
272.00000000000011
 51
348.33000000000009
  0
ARC
  8
_0-4_
  6
CONTINUOUS
 62
    7
 10
2668.1000500000004
 20
1409.799907218736
 40
80.200050000000004
 50
267
 51
270.00000000000017
  0
ARC
  8
_0-4_
  6
CONTINUOUS
 62
    7
 10
2668.1000500000004
 20
1409.799907218736
 40
80.200050000000004
 50
267
 51
270.00000000000017
  0
LINE
  8
_0-4_
  6
CONTINUOUS
 62
    7
 10
2993.1880000000001
 20
1245.4999572187359
 11
2994.1939000000002
 21
1245.4980072187361
  0
LINE
  8
_0-4_
  6
CONTINUOUS
 62
    7
 10
2994.1939000000002
 20
1245.4980072187361
 11
2995.1999500000001
 21
1245.496057218736
  0
LINE
  8
_0-4_
  6
CONTINUOUS
 62
    7
 10
2608.4999500000003
 20
1245.4999572187359
 11
2993.2000000000007
 21
1245.4999572187359
  0
LINE
  8
_0-4_
  6
CONTINUOUS
 62
    7
 10
2608.4999500000003
 20
1332.6133572187361
 11
2608.4999500000003
 21
1325.7643572187362
  0
LINE
  8
_0-4_
  6
CONTINUOUS
 62
    7
 10
2663.9027500000001
 20
1329.7098072187361
 11
2608.4999500000003
 21
1332.6133572187361
  0
LINE
  8
_0-4_
  6
CONTINUOUS
 62
    7
 10
2982.7501000000006
 20
1329.5998572187361
 11
2668.1000500000004
 21
1329.5998572187361
  0
LINE
  8
_0-4_
  6
CONTINUOUS
 62
    7
 10
2982.7501000000006
 20
1322.7603072187362
 11
2982.7501000000006
 21
1329.5998572187361
  0
LINE
  8
_0-4_
  6
CONTINUOUS
 62
    7
 10
2668.1000500000004
 20
1322.7603072187362
 11
2982.7501000000006
 21
1322.7603072187362
  0
LINE
  8
_0-4_
  6
CONTINUOUS
 62
    7
 10
2608.4999500000003
 20
1325.7643572187362
 11
2663.5448500000002
 21
1322.8795572187364
  0
LINE
  8
_0-4_
  6
CONTINUOUS
 62
    7
 10
3005.9999500000003
 20
1246.9999572187359
 11
3005.9999500000003
 21
1332.7999572187359
  0
LINE
  8
_0-4_
  6
CONTINUOUS
 62
    7
 10
3004.9127500000004
 20
1246.9999572187359
 11
3005.9999500000003
 21
1246.9999572187359
  0
LINE
  8
_0-4_
  6
CONTINUOUS
 62
    7
 10
3005.9999500000003
 20
1332.7999572187359
 11
3004.9127500000004
 21
1332.7999572187359
  0
LINE
  8
_0-4_
  6
CONTINUOUS
 62
    7
 10
2994.9716499999999
 20
1246.9999572187359
 11
2995.1993500000003
 21
1246.9999572187359
  0
LINE
  8
_0-4_
  6
CONTINUOUS
 62
    7
 10
2995.1999500000001
 20
1247.2278072187359
 11
2995.1999500000001
 21
1247.2230072187362
  0
LINE
  8
_0-4_
  6
CONTINUOUS
 62
    7
 10
2995.1999500000001
 20
1247.2230072187362
 11
2995.1999500000001
 21
1247.2210572187359
  0
LINE
  8
_0-4_
  6
CONTINUOUS
 62
    7
 10
2995.1999500000001
 20
1247.2210572187359
 11
2995.1999500000001
 21
1247.218657218736
  0
LINE
  8
_0-4_
  6
CONTINUOUS
 62
    7
 10
2995.1999500000001
 20
1247.218657218736
 11
2995.1998000000003
 21
1247.215957218736
  0
LINE
  8
_0-4_
  6
CONTINUOUS
 62
    7
 10
2995.1998000000003
 20
1247.215957218736
 11
2995.1998000000003
 21
1247.2129572187361
  0
LINE
  8
_0-4_
  6
CONTINUOUS
 62
    7
 10
2995.1998000000003
 20
1247.2129572187361
 11
2995.1994999999997
 21
1247.209657218736
  0
LINE
  8
_0-4_
  6
CONTINUOUS
 62
    7
 10
2995.1994999999997
 20
1247.209657218736
 11
2995.1992000000009
 21
1247.2063572187362
  0
LINE
  8
_0-4_
  6
CONTINUOUS
 62
    7
 10
2995.1992000000009
 20
1247.2063572187362
 11
2995.1985999999997
 21
1247.202907218736
  0
LINE
  8
_0-4_
  6
CONTINUOUS
 62
    7
 10
2995.1985999999997
 20
1247.202907218736
 11
2995.1980000000003
 21
1247.1994572187361
  0
LINE
  8
_0-4_
  6
CONTINUOUS
 62
    7
 10
2995.1980000000003
 20
1247.1994572187361
 11
2995.1972500000001
 21
1247.1960072187362
  0
LINE
  8
_0-4_
  6
CONTINUOUS
 62
    7
 10
2995.1972500000001
 20
1247.1960072187362
 11
2995.1962000000003
 21
1247.1924072187362
  0
LINE
  8
_0-4_
  6
CONTINUOUS
 62
    7
 10
2995.1962000000003
 20
1247.1924072187362
 11
2995.1949999999997
 21
1247.188957218736
  0
LINE
  8
_0-4_
  6
CONTINUOUS
 62
    7
 10
2995.1949999999997
 20
1247.188957218736
 11
2995.1935000000003
 21
1247.1852072187361
  0
LINE
  8
_0-4_
  6
CONTINUOUS
 62
    7
 10
2995.1935000000003
 20
1247.1852072187361
 11
2995.1918500000001
 21
1247.1814572187361
  0
LINE
  8
_0-4_
  6
CONTINUOUS
 62
    7
 10
2995.1918500000001
 20
1247.1814572187361
 11
2995.1897500000004
 21
1247.1775572187361
  0
LINE
  8
_0-4_
  6
CONTINUOUS
 62
    7
 10
2995.1897500000004
 20
1247.1775572187361
 11
2995.1875000000009
 21
1247.1733572187361
  0
LINE
  8
_0-4_
  6
CONTINUOUS
 62
    7
 10
2995.1875000000009
 20
1247.1733572187361
 11
2995.1849500000002
 21
1247.168857218736
  0
LINE
  8
_0-4_
  6
CONTINUOUS
 62
    7
 10
2995.1849500000002
 20
1247.168857218736
 11
2995.1821000000009
 21
1247.164207218736
  0
LINE
  8
_0-4_
  6
CONTINUOUS
 62
    7
 10
2995.1821000000009
 20
1247.164207218736
 11
2995.1789500000004
 21
1247.159257218736
  0
LINE
  8
_0-4_
  6
CONTINUOUS
 62
    7
 10
2995.1789500000004
 20
1247.159257218736
 11
2995.1755000000002
 21
1247.1541572187361
  0
LINE
  8
_0-4_
  6
CONTINUOUS
 62
    7
 10
2995.1755000000002
 20
1247.1541572187361
 11
2995.1720500000001
 21
1247.1492072187361
  0
LINE
  8
_0-4_
  6
CONTINUOUS
 62
    7
 10
2995.1720500000001
 20
1247.1492072187361
 11
2995.1686000000008
 21
1247.144107218736
  0
LINE
  8
_0-4_
  6
CONTINUOUS
 62
    7
 10
2995.1686000000008
 20
1247.144107218736
 11
2995.1650000000008
 21
1247.1393072187361
  0
LINE
  8
_0-4_
  6
CONTINUOUS
 62
    7
 10
2995.1650000000008
 20
1247.1393072187361
 11
2995.1615500000002
 21
1247.134657218736
  0
LINE
  8
_0-4_
  6
CONTINUOUS
 62
    7
 10
2995.1615500000002
 20
1247.134657218736
 11
2995.1580999999996
 21
1247.1303072187361
  0
LINE
  8
_0-4_
  6
CONTINUOUS
 62
    7
 10
2995.1580999999996
 20
1247.1303072187361
 11
2995.1548000000002
 21
1247.1264072187361
  0
LINE
  8
_0-4_
  6
CONTINUOUS
 62
    7
 10
2995.1548000000002
 20
1247.1264072187361
 11
2995.1516500000002
 21
1247.1228072187361
  0
LINE
  8
_0-4_
  6
CONTINUOUS
 62
    7
 10
2995.1516500000002
 20
1247.1228072187361
 11
2995.1485000000002
 21
1247.1193572187362
  0
LINE
  8
_0-4_
  6
CONTINUOUS
 62
    7
 10
2995.1485000000002
 20
1247.1193572187362
 11
2995.1452000000008
 21
1247.115907218736
  0
LINE
  8
_0-4_
  6
CONTINUOUS
 62
    7
 10
2995.1452000000008
 20
1247.115907218736
 11
2995.1416000000008
 21
1247.1124572187361
  0
LINE
  8
_0-4_
  6
CONTINUOUS
 62
    7
 10
2995.1416000000008
 20
1247.1124572187361
 11
2995.1377000000002
 21
1247.1088572187361
  0
LINE
  8
_0-4_
  6
CONTINUOUS
 62
    7
 10
2995.1377000000002
 20
1247.1088572187361
 11
2995.1332000000002
 21
1247.1049572187362
  0
LINE
  8
_0-4_
  6
CONTINUOUS
 62
    7
 10
2995.1332000000002
 20
1247.1049572187362
 11
2995.1282500000002
 21
1247.100607218736
  0
LINE
  8
_0-4_
  6
CONTINUOUS
 62
    7
 10
2995.1282500000002
 20
1247.100607218736
 11
2995.12255
 21
1247.0958072187361
  0
LINE
  8
_0-4_
  6
CONTINUOUS
 62
    7
 10
2995.12255
 20
1247.0958072187361
 11
2995.1164000000007
 21
1247.090707218736
  0
LINE
  8
_0-4_
  6
CONTINUOUS
 62
    7
 10
2995.1164000000007
 20
1247.090707218736
 11
2995.1096500000003
 21
1247.0851572187361
  0
LINE
  8
_0-4_
  6
CONTINUOUS
 62
    7
 10
2995.1096500000003
 20
1247.0851572187361
 11
2995.1026000000001
 21
1247.079457218736
  0
LINE
  8
_0-4_
  6
CONTINUOUS
 62
    7
 10
2995.1026000000001
 20
1247.079457218736
 11
2995.0954000000001
 21
1247.073757218736
  0
LINE
  8
_0-4_
  6
CONTINUOUS
 62
    7
 10
2995.0954000000001
 20
1247.073757218736
 11
2995.0880500000002
 21
1247.0680572187361
  0
LINE
  8
_0-4_
  6
CONTINUOUS
 62
    7
 10
2995.0880500000002
 20
1247.0680572187361
 11
2995.0807000000004
 21
1247.0626572187361
  0
LINE
  8
_0-4_
  6
CONTINUOUS
 62
    7
 10
2995.0807000000004
 20
1247.0626572187361
 11
2995.0735000000004
 21
1247.0574072187359
  0
LINE
  8
_0-4_
  6
CONTINUOUS
 62
    7
 10
2995.0735000000004
 20
1247.0574072187359
 11
2995.0664500000002
 21
1247.0524572187359
  0
LINE
  8
_0-4_
  6
CONTINUOUS
 62
    7
 10
2995.0664500000002
 20
1247.0524572187359
 11
2995.0597000000007
 21
1247.0479572187359
  0
LINE
  8
_0-4_
  6
CONTINUOUS
 62
    7
 10
2995.0597000000007
 20
1247.0479572187359
 11
2995.0531
 21
1247.0437572187361
  0
LINE
  8
_0-4_
  6
CONTINUOUS
 62
    7
 10
2995.0531
 20
1247.0437572187361
 11
2995.0466500000002
 21
1247.0398572187359
  0
LINE
  8
_0-4_
  6
CONTINUOUS
 62
    7
 10
2995.0466500000002
 20
1247.0398572187359
 11
2995.0402000000003
 21
1247.035957218736
  0
LINE
  8
_0-4_
  6
CONTINUOUS
 62
    7
 10
2995.0402000000003
 20
1247.035957218736
 11
2995.0340500000002
 21
1247.0325072187361
  0
LINE
  8
_0-4_
  6
CONTINUOUS
 62
    7
 10
2995.0340500000002
 20
1247.0325072187361
 11
2995.0277500000001
 21
1247.0290572187359
  0
LINE
  8
_0-4_
  6
CONTINUOUS
 62
    7
 10
2995.0277500000001
 20
1247.0290572187359
 11
2995.0216
 21
1247.025607218736
  0
LINE
  8
_0-4_
  6
CONTINUOUS
 62
    7
 10
2995.0216
 20
1247.025607218736
 11
2995.0154500000003
 21
1247.0223072187359
  0
LINE
  8
_0-4_
  6
CONTINUOUS
 62
    7
 10
2995.0154500000003
 20
1247.0223072187359
 11
2995.0093000000006
 21
1247.0191572187359
  0
LINE
  8
_0-4_
  6
CONTINUOUS
 62
    7
 10
2995.0093000000006
 20
1247.0191572187359
 11
2995.0034500000001
 21
1247.0160072187359
  0
LINE
  8
_0-4_
  6
CONTINUOUS
 62
    7
 10
2995.0034500000001
 20
1247.0160072187359
 11
2994.9977499999999
 21
1247.013157218736
  0
LINE
  8
_0-4_
  6
CONTINUOUS
 62
    7
 10
2994.9977499999999
 20
1247.013157218736
 11
2994.9925000000002
 21
1247.010457218736
  0
LINE
  8
_0-4_
  6
CONTINUOUS
 62
    7
 10
2994.9925000000002
 20
1247.010457218736
 11
2994.9877000000005
 21
1247.0080572187359
  0
LINE
  8
_0-4_
  6
CONTINUOUS
 62
    7
 10
2994.9877000000005
 20
1247.0080572187359
 11
2994.9835000000007
 21
1247.005957218736
  0
LINE
  8
_0-4_
  6
CONTINUOUS
 62
    7
 10
2994.9835000000007
 20
1247.005957218736
 11
2994.9716499999999
 21
1246.9999572187359
  0
LINE
  8
_0-4_
  6
CONTINUOUS
 62
    7
 10
2995.1999500000001
 20
1247.219107218736
 11
2995.1999500000001
 21
1248.999907218736
  0
LINE
  8
_0-4_
  6
CONTINUOUS
 62
    7
 10
2995.1999500000001
 20
1248.999907218736
 11
2995.1999500000001
 21
1282.7998572187361
  0
LINE
  8
_0-4_
  6
CONTINUOUS
 62
    7
 10
2994.6692500000008
 20
1248.999907218736
 11
2994.6692500000008
 21
1315.2925572187361
  0
LINE
  8
_0-4_
  6
CONTINUOUS
 62
    7
 10
2995.1993500000003
 20
1246.9999572187359
 11
3004.9127500000004
 21
1246.9999572187359
  0
LINE
  8
_0-4_
  6
CONTINUOUS
 62
    7
 10
3004.9127500000004
 20
1332.7999572187359
 11
3001.3066000000003
 21
1332.7999572187359
  0
LINE
  8
_0-4_
  6
CONTINUOUS
 62
    7
 10
2613.2582499999998
 20
1325.5149072187361
 11
2613.2582499999998
 21
1325.383207218736
  0
LINE
  8
_0-4_
  6
CONTINUOUS
 62
    7
 10
2613.2582499999998
 20
1325.383207218736
 11
2613.1789000000003
 21
1325.387257218736
  0
LINE
  8
_0-4_
  6
CONTINUOUS
 62
    7
 10
2613.1789000000003
 20
1325.387257218736
 11
2613.1454499999999
 21
1325.389057218736
  0
LINE
  8
_0-4_
  6
CONTINUOUS
 62
    7
 10
2613.1454499999999
 20
1325.389057218736
 11
2613.1046500000002
 21
1325.3910072187361
  0
LINE
  8
_0-4_
  6
CONTINUOUS
 62
    7
 10
2613.1046500000002
 20
1325.3910072187361
 11
2613.0563500000007
 21
1325.3929572187362
  0
LINE
  8
_0-4_
  6
CONTINUOUS
 62
    7
 10
2613.0563500000007
 20
1325.3929572187362
 11
2613.0008500000003
 21
1325.394907218736
  0
LINE
  8
_0-4_
  6
CONTINUOUS
 62
    7
 10
2613.0008500000003
 20
1325.394907218736
 11
2612.9380000000001
 21
1325.3964072187361
  0
LINE
  8
_0-4_
  6
CONTINUOUS
 62
    7
 10
2612.9380000000001
 20
1325.3964072187361
 11
2612.8677999999999
 21
1325.397607218736
  0
LINE
  8
_0-4_
  6
CONTINUOUS
 62
    7
 10
2612.8677999999999
 20
1325.397607218736
 11
2612.7903999999998
 21
1325.398057218736
  0
LINE
  8
_0-4_
  6
CONTINUOUS
 62
    7
 10
2612.7903999999998
 20
1325.398057218736
 11
2612.7056500000003
 21
1325.3977572187361
  0
LINE
  8
_0-4_
  6
CONTINUOUS
 62
    7
 10
2612.7056500000003
 20
1325.3977572187361
 11
2612.6138500000001
 21
1325.3965572187362
  0
LINE
  8
_0-4_
  6
CONTINUOUS
 62
    7
 10
2612.6138500000001
 20
1325.3965572187362
 11
2612.5150000000003
 21
1325.3938572187362
  0
LINE
  8
_0-4_
  6
CONTINUOUS
 62
    7
 10
2612.5150000000003
 20
1325.3938572187362
 11
2612.4092500000001
 21
1325.389507218736
  0
LINE
  8
_0-4_
  6
CONTINUOUS
 62
    7
 10
2612.4092500000001
 20
1325.389507218736
 11
2612.2966000000001
 21
1325.3830572187362
  0
LINE
  8
_0-4_
  6
CONTINUOUS
 62
    7
 10
2612.2966000000001
 20
1325.3830572187362
 11
2612.1772
 21
1325.3740572187361
  0
LINE
  8
_0-4_
  6
CONTINUOUS
 62
    7
 10
2612.1772
 20
1325.3740572187361
 11
2612.0513500000006
 21
1325.362057218736
  0
LINE
  8
_0-4_
  6
CONTINUOUS
 62
    7
 10
2612.0513500000006
 20
1325.362057218736
 11
2611.9192000000002
 21
1325.346907218736
  0
LINE
  8
_0-4_
  6
CONTINUOUS
 62
    7
 10
2611.9192000000002
 20
1325.346907218736
 11
2611.7806
 21
1325.3281572187361
  0
LINE
  8
_0-4_
  6
CONTINUOUS
 62
    7
 10
2611.7806
 20
1325.3281572187361
 11
2611.6360000000004
 21
1325.3053572187359
  0
LINE
  8
_0-4_
  6
CONTINUOUS
 62
    7
 10
2611.6360000000004
 20
1325.3053572187359
 11
2611.4864499999998
 21
1325.278657218736
  0
LINE
  8
_0-4_
  6
CONTINUOUS
 62
    7
 10
2611.4864499999998
 20
1325.278657218736
 11
2611.3331500000003
 21
1325.2485072187359
  0
LINE
  8
_0-4_
  6
CONTINUOUS
 62
    7
 10
2611.3331500000003
 20
1325.2485072187359
 11
2611.1773000000002
 21
1325.2147572187363
  0
LINE
  8
_0-4_
  6
CONTINUOUS
 62
    7
 10
2611.1773000000002
 20
1325.2147572187363
 11
2611.0201000000001
 21
1325.177707218736
  0
LINE
  8
_0-4_
  6
CONTINUOUS
 62
    7
 10
2611.0201000000001
 20
1325.177707218736
 11
2610.8626000000003
 21
1325.1376572187361
  0
LINE
  8
_0-4_
  6
CONTINUOUS
 62
    7
 10
2610.8626000000003
 20
1325.1376572187361
 11
2610.7063000000007
 21
1325.0947572187362
  0
LINE
  8
_0-4_
  6
CONTINUOUS
 62
    7
 10
2610.7063000000007
 20
1325.0947572187362
 11
2610.5520999999998
 21
1325.049007218736
  0
LINE
  8
_0-4_
  6
CONTINUOUS
 62
    7
 10
2610.5520999999998
 20
1325.049007218736
 11
2610.4012000000002
 21
1325.001007218736
  0
LINE
  8
_0-4_
  6
CONTINUOUS
 62
    7
 10
2610.4012000000002
 20
1325.001007218736
 11
2610.2543500000001
 21
1324.9509072187361
  0
LINE
  8
_0-4_
  6
CONTINUOUS
 62
    7
 10
2610.2543500000001
 20
1324.9509072187361
 11
2610.1116999999999
 21
1324.8993072187361
  0
LINE
  8
_0-4_
  6
CONTINUOUS
 62
    7
 10
2610.1116999999999
 20
1324.8993072187361
 11
2609.9740000000001
 21
1324.8466572187362
  0
LINE
  8
_0-4_
  6
CONTINUOUS
 62
    7
 10
2609.9740000000001
 20
1324.8466572187362
 11
2609.8418500000002
 21
1324.793257218736
  0
LINE
  8
_0-4_
  6
CONTINUOUS
 62
    7
 10
2609.8418500000002
 20
1324.793257218736
 11
2609.7154
 21
1324.7397072187363
  0
LINE
  8
_0-4_
  6
CONTINUOUS
 62
    7
 10
2609.7154
 20
1324.7397072187363
 11
2609.5954000000001
 21
1324.6864572187362
  0
LINE
  8
_0-4_
  6
CONTINUOUS
 62
    7
 10
2609.5954000000001
 20
1324.6864572187362
 11
2609.4821499999998
 21
1324.6341072187362
  0
LINE
  8
_0-4_
  6
CONTINUOUS
 62
    7
 10
2609.4821499999998
 20
1324.6341072187362
 11
2609.3762500000002
 21
1324.5828072187362
  0
LINE
  8
_0-4_
  6
CONTINUOUS
 62
    7
 10
2609.3762500000002
 20
1324.5828072187362
 11
2609.2775500000007
 21
1324.5328572187361
  0
LINE
  8
_0-4_
  6
CONTINUOUS
 62
    7
 10
2609.2775500000007
 20
1324.5328572187361
 11
2609.1857500000005
 21
1324.484707218736
  0
LINE
  8
_0-4_
  6
CONTINUOUS
 62
    7
 10
2609.1857500000005
 20
1324.484707218736
 11
2609.1006999999999
 21
1324.438507218736
  0
LINE
  8
_0-4_
  6
CONTINUOUS
 62
    7
 10
2609.1006999999999
 20
1324.438507218736
 11
2609.0223999999998
 21
1324.3945572187362
  0
LINE
  8
_0-4_
  6
CONTINUOUS
 62
    7
 10
2609.0223999999998
 20
1324.3945572187362
 11
2608.95055
 21
1324.352857218736
  0
LINE
  8
_0-4_
  6
CONTINUOUS
 62
    7
 10
2608.95055
 20
1324.352857218736
 11
2608.8850000000002
 21
1324.3138572187358
  0
LINE
  8
_0-4_
  6
CONTINUOUS
 62
    7
 10
2608.8850000000002
 20
1324.3138572187358
 11
2608.8254500000002
 21
1324.2778572187357
  0
LINE
  8
_0-4_
  6
CONTINUOUS
 62
    7
 10
2608.8254500000002
 20
1324.2778572187357
 11
2608.7719000000006
 21
1324.2448572187363
  0
LINE
  8
_0-4_
  6
CONTINUOUS
 62
    7
 10
2608.7719000000006
 20
1324.2448572187363
 11
2608.7240500000002
 21
1324.2150072187362
  0
LINE
  8
_0-4_
  6
CONTINUOUS
 62
    7
 10
2608.7240500000002
 20
1324.2150072187362
 11
2608.6817500000001
 21
1324.1880072187361
  0
LINE
  8
_0-4_
  6
CONTINUOUS
 62
    7
 10
2608.6817500000001
 20
1324.1880072187361
 11
2608.6445499999999
 21
1324.1641572187361
  0
LINE
  8
_0-4_
  6
CONTINUOUS
 62
    7
 10
2608.6445499999999
 20
1324.1641572187361
 11
2608.6123000000002
 21
1324.1431572187361
  0
LINE
  8
_0-4_
  6
CONTINUOUS
 62
    7
 10
2608.6123000000002
 20
1324.1431572187361
 11
2608.5850000000004
 21
1324.1251572187361
  0
LINE
  8
_0-4_
  6
CONTINUOUS
 62
    7
 10
2608.5850000000004
 20
1324.1251572187361
 11
2608.5622000000003
 21
1324.1100072187362
  0
LINE
  8
_0-4_
  6
CONTINUOUS
 62
    7
 10
2608.5622000000003
 20
1324.1100072187362
 11
2608.4999500000003
 21
1324.0681572187361
  0
LINE
  8
_0-4_
  6
CONTINUOUS
 62
    7
 10
2608.4999500000003
 20
1325.7643572187362
 11
2608.4999500000003
 21
1324.0681572187361
  0
LINE
  8
_0-4_
  6
CONTINUOUS
 62
    7
 10
2993.2000000000007
 20
1245.5004072187359
 11
2993.2000000000007
 21
1245.5020572187361
  0
LINE
  8
_0-4_
  6
CONTINUOUS
 62
    7
 10
2993.2000000000007
 20
1245.5020572187361
 11
2993.2000000000007
 21
1245.5026572187359
  0
LINE
  8
_0-4_
  6
CONTINUOUS
 62
    7
 10
2993.2000000000007
 20
1245.5026572187359
 11
2993.2000000000007
 21
1245.5034072187361
  0
LINE
  8
_0-4_
  6
CONTINUOUS
 62
    7
 10
2993.2000000000007
 20
1245.5034072187361
 11
2993.2000000000007
 21
1245.5043072187361
  0
LINE
  8
_0-4_
  6
CONTINUOUS
 62
    7
 10
2993.2000000000007
 20
1245.5043072187361
 11
2993.2000000000007
 21
1245.5053572187359
  0
LINE
  8
_0-4_
  6
CONTINUOUS
 62
    7
 10
2993.2000000000007
 20
1245.5053572187359
 11
2993.2000000000007
 21
1245.5067072187359
  0
LINE
  8
_0-4_
  6
CONTINUOUS
 62
    7
 10
2993.2000000000007
 20
1245.5067072187359
 11
2993.2000000000007
 21
1245.5080572187359
  0
LINE
  8
_0-4_
  6
CONTINUOUS
 62
    7
 10
2993.2000000000007
 20
1245.5080572187359
 11
2993.2000000000007
 21
1245.509557218736
  0
LINE
  8
_0-4_
  6
CONTINUOUS
 62
    7
 10
2993.2000000000007
 20
1245.509557218736
 11
2993.2000000000007
 21
1245.5112072187359
  0
LINE
  8
_0-4_
  6
CONTINUOUS
 62
    7
 10
2993.2000000000007
 20
1245.5112072187359
 11
2993.2000000000007
 21
1245.5130072187359
  0
LINE
  8
_0-4_
  6
CONTINUOUS
 62
    7
 10
2993.2000000000007
 20
1245.5130072187359
 11
2993.2000000000007
 21
1245.5152572187359
  0
LINE
  8
_0-4_
  6
CONTINUOUS
 62
    7
 10
2993.2000000000007
 20
1245.5152572187359
 11
2993.2000000000007
 21
1245.518107218736
  0
LINE
  8
_0-4_
  6
CONTINUOUS
 62
    7
 10
2993.2000000000007
 20
1245.518107218736
 11
2993.2000000000007
 21
1245.5218572187361
  0
LINE
  8
_0-4_
  6
CONTINUOUS
 62
    7
 10
2993.2000000000007
 20
1245.5218572187361
 11
2993.2000000000007
 21
1245.526657218736
  0
LINE
  8
_0-4_
  6
CONTINUOUS
 62
    7
 10
2993.2000000000007
 20
1245.526657218736
 11
2993.2000000000007
 21
1245.532807218736
  0
LINE
  8
_0-4_
  6
CONTINUOUS
 62
    7
 10
2993.2000000000007
 20
1245.532807218736
 11
2993.2000000000007
 21
1245.5406072187361
  0
LINE
  8
_0-4_
  6
CONTINUOUS
 62
    7
 10
2993.2000000000007
 20
1245.5406072187361
 11
2993.2000000000007
 21
1245.550357218736
  0
LINE
  8
_0-4_
  6
CONTINUOUS
 62
    7
 10
2993.2000000000007
 20
1245.550357218736
 11
2993.2000000000007
 21
1245.562057218736
  0
LINE
  8
_0-4_
  6
CONTINUOUS
 62
    7
 10
2993.2000000000007
 20
1245.562057218736
 11
2993.2000000000007
 21
1245.5757072187359
  0
LINE
  8
_0-4_
  6
CONTINUOUS
 62
    7
 10
2993.2000000000007
 20
1245.5757072187359
 11
2993.2000000000007
 21
1245.5911572187362
  0
LINE
  8
_0-4_
  6
CONTINUOUS
 62
    7
 10
2993.2000000000007
 20
1245.5911572187362
 11
2993.2000000000007
 21
1245.6085572187359
  0
LINE
  8
_0-4_
  6
CONTINUOUS
 62
    7
 10
2993.2000000000007
 20
1245.6085572187359
 11
2993.2000000000007
 21
1245.6276072187361
  0
LINE
  8
_0-4_
  6
CONTINUOUS
 62
    7
 10
2993.2000000000007
 20
1245.6276072187361
 11
2993.2000000000007
 21
1245.648157218736
  0
LINE
  8
_0-4_
  6
CONTINUOUS
 62
    7
 10
2993.2000000000007
 20
1245.648157218736
 11
2993.2000000000007
 21
1245.670207218736
  0
LINE
  8
_0-4_
  6
CONTINUOUS
 62
    7
 10
2993.2000000000007
 20
1245.670207218736
 11
2993.2000000000007
 21
1245.6937572187362
  0
LINE
  8
_0-4_
  6
CONTINUOUS
 62
    7
 10
2993.2000000000007
 20
1245.6937572187362
 11
2993.2000000000007
 21
1245.7185072187362
  0
LINE
  8
_0-4_
  6
CONTINUOUS
 62
    7
 10
2993.2000000000007
 20
1245.7185072187362
 11
2993.2000000000007
 21
1245.744607218736
  0
LINE
  8
_0-4_
  6
CONTINUOUS
 62
    7
 10
2993.2000000000007
 20
1245.744607218736
 11
2993.2000000000007
 21
1245.771907218736
  0
LINE
  8
_0-4_
  6
CONTINUOUS
 62
    7
 10
2993.2000000000007
 20
1245.771907218736
 11
2993.2000000000007
 21
1245.8005572187362
  0
LINE
  8
_0-4_
  6
CONTINUOUS
 62
    7
 10
2993.2000000000007
 20
1245.8005572187362
 11
2993.2000000000007
 21
1245.8304072187361
  0
LINE
  8
_0-4_
  6
CONTINUOUS
 62
    7
 10
2993.2000000000007
 20
1245.8304072187361
 11
2993.2000000000007
 21
1245.8614572187361
  0
LINE
  8
_0-4_
  6
CONTINUOUS
 62
    7
 10
2993.2000000000007
 20
1245.8614572187361
 11
2993.2000000000007
 21
1245.8937072187361
  0
LINE
  8
_0-4_
  6
CONTINUOUS
 62
    7
 10
2993.2000000000007
 20
1245.8937072187361
 11
2993.2000000000007
 21
1245.9271572187362
  0
LINE
  8
_0-4_
  6
CONTINUOUS
 62
    7
 10
2993.2000000000007
 20
1245.9271572187362
 11
2993.2000000000007
 21
1245.9619572187359
  0
LINE
  8
_0-4_
  6
CONTINUOUS
 62
    7
 10
2993.2000000000007
 20
1245.9619572187359
 11
2993.2000000000007
 21
1245.9978072187361
  0
LINE
  8
_0-4_
  6
CONTINUOUS
 62
    7
 10
2993.2000000000007
 20
1245.9978072187361
 11
2993.2000000000007
 21
1246.034857218736
  0
LINE
  8
_0-4_
  6
CONTINUOUS
 62
    7
 10
2993.2000000000007
 20
1246.034857218736
 11
2993.2000000000007
 21
1246.072957218736
  0
LINE
  8
_0-4_
  6
CONTINUOUS
 62
    7
 10
2993.2000000000007
 20
1246.072957218736
 11
2993.2000000000007
 21
1246.1121072187361
  0
LINE
  8
_0-4_
  6
CONTINUOUS
 62
    7
 10
2993.2000000000007
 20
1246.1121072187361
 11
2993.2000000000007
 21
1246.152307218736
  0
LINE
  8
_0-4_
  6
CONTINUOUS
 62
    7
 10
2993.2000000000007
 20
1246.152307218736
 11
2993.2000000000007
 21
1246.1934072187359
  0
LINE
  8
_0-4_
  6
CONTINUOUS
 62
    7
 10
2993.2000000000007
 20
1246.1934072187359
 11
2993.2000000000007
 21
1246.235407218736
  0
LINE
  8
_0-4_
  6
CONTINUOUS
 62
    7
 10
2993.2000000000007
 20
1246.235407218736
 11
2993.2000000000007
 21
1246.2781572187361
  0
LINE
  8
_0-4_
  6
CONTINUOUS
 62
    7
 10
2993.2000000000007
 20
1246.2781572187361
 11
2993.2000000000007
 21
1246.3216572187361
  0
LINE
  8
_0-4_
  6
CONTINUOUS
 62
    7
 10
2993.2000000000007
 20
1246.3216572187361
 11
2993.2000000000007
 21
1246.3653072187362
  0
LINE
  8
_0-4_
  6
CONTINUOUS
 62
    7
 10
2993.2000000000007
 20
1246.3653072187362
 11
2993.2000000000007
 21
1246.408957218736
  0
LINE
  8
_0-4_
  6
CONTINUOUS
 62
    7
 10
2993.2000000000007
 20
1246.408957218736
 11
2993.2000000000007
 21
1246.4523072187359
  0
LINE
  8
_0-4_
  6
CONTINUOUS
 62
    7
 10
2993.2000000000007
 20
1246.4523072187359
 11
2993.2000000000007
 21
1246.495057218736
  0
LINE
  8
_0-4_
  6
CONTINUOUS
 62
    7
 10
2993.2000000000007
 20
1246.495057218736
 11
2993.2000000000007
 21
1246.5369072187361
  0
LINE
  8
_0-4_
  6
CONTINUOUS
 62
    7
 10
2993.2000000000007
 20
1246.5369072187361
 11
2993.2000000000007
 21
1246.577557218736
  0
LINE
  8
_0-4_
  6
CONTINUOUS
 62
    7
 10
2993.2000000000007
 20
1246.577557218736
 11
2993.2000000000007
 21
1246.616557218736
  0
LINE
  8
_0-4_
  6
CONTINUOUS
 62
    7
 10
2993.2000000000007
 20
1246.616557218736
 11
2993.2000000000007
 21
1246.6542072187362
  0
LINE
  8
_0-4_
  6
CONTINUOUS
 62
    7
 10
2993.2000000000007
 20
1246.6542072187362
 11
2993.2000000000007
 21
1246.690057218736
  0
LINE
  8
_0-4_
  6
CONTINUOUS
 62
    7
 10
2993.2000000000007
 20
1246.690057218736
 11
2993.2000000000007
 21
1246.724257218736
  0
LINE
  8
_0-4_
  6
CONTINUOUS
 62
    7
 10
2993.2000000000007
 20
1246.724257218736
 11
2993.2000000000007
 21
1246.7565072187362
  0
LINE
  8
_0-4_
  6
CONTINUOUS
 62
    7
 10
2993.2000000000007
 20
1246.7565072187362
 11
2993.2000000000007
 21
1246.786957218736
  0
LINE
  8
_0-4_
  6
CONTINUOUS
 62
    7
 10
2993.2000000000007
 20
1246.786957218736
 11
2993.2000000000007
 21
1246.8154572187361
  0
LINE
  8
_0-4_
  6
CONTINUOUS
 62
    7
 10
2993.2000000000007
 20
1246.8154572187361
 11
2993.2000000000007
 21
1246.841857218736
  0
LINE
  8
_0-4_
  6
CONTINUOUS
 62
    7
 10
2993.2000000000007
 20
1246.841857218736
 11
2993.2000000000007
 21
1246.8663072187362
  0
LINE
  8
_0-4_
  6
CONTINUOUS
 62
    7
 10
2993.2000000000007
 20
1246.8663072187362
 11
2993.2000000000007
 21
1246.888507218736
  0
LINE
  8
_0-4_
  6
CONTINUOUS
 62
    7
 10
2993.2000000000007
 20
1246.888507218736
 11
2993.2000000000007
 21
1246.908607218736
  0
LINE
  8
_0-4_
  6
CONTINUOUS
 62
    7
 10
2993.2000000000007
 20
1246.908607218736
 11
2993.2000000000007
 21
1246.926607218736
  0
LINE
  8
_0-4_
  6
CONTINUOUS
 62
    7
 10
2993.2000000000007
 20
1246.926607218736
 11
2993.2000000000007
 21
1246.9423572187361
  0
LINE
  8
_0-4_
  6
CONTINUOUS
 62
    7
 10
2993.2000000000007
 20
1246.9423572187361
 11
2993.2000000000007
 21
1246.956157218736
  0
LINE
  8
_0-4_
  6
CONTINUOUS
 62
    7
 10
2993.2000000000007
 20
1246.956157218736
 11
2993.2000000000007
 21
1246.967857218736
  0
LINE
  8
_0-4_
  6
CONTINUOUS
 62
    7
 10
2993.2000000000007
 20
1246.967857218736
 11
2993.2000000000007
 21
1246.9999572187359
  0
LINE
  8
_0-4_
  6
CONTINUOUS
 62
    7
 10
2993.7427000000002
 20
1246.9999572187359
 11
2993.7274000000002
 21
1247.0026572187359
  0
LINE
  8
_0-4_
  6
CONTINUOUS
 62
    7
 10
2993.7274000000002
 20
1247.0026572187359
 11
2993.7209500000008
 21
1247.0037072187362
  0
LINE
  8
_0-4_
  6
CONTINUOUS
 62
    7
 10
2993.7209500000008
 20
1247.0037072187362
 11
2993.7131500000004
 21
1247.0052072187361
  0
LINE
  8
_0-4_
  6
CONTINUOUS
 62
    7
 10
2993.7131500000004
 20
1247.0052072187361
 11
2993.7044500000001
 21
1247.0067072187359
  0
LINE
  8
_0-4_
  6
CONTINUOUS
 62
    7
 10
2993.7044500000001
 20
1247.0067072187359
 11
2993.6947000000004
 21
1247.0085072187359
  0
LINE
  8
_0-4_
  6
CONTINUOUS
 62
    7
 10
2993.6947000000004
 20
1247.0085072187359
 11
2993.6843500000004
 21
1247.0103072187359
  0
LINE
  8
_0-4_
  6
CONTINUOUS
 62
    7
 10
2993.6843500000004
 20
1247.0103072187359
 11
2993.6734000000001
 21
1247.012257218736
  0
LINE
  8
_0-4_
  6
CONTINUOUS
 62
    7
 10
2993.6734000000001
 20
1247.012257218736
 11
2993.6620000000002
 21
1247.0143572187359
  0
LINE
  8
_0-4_
  6
CONTINUOUS
 62
    7
 10
2993.6620000000002
 20
1247.0143572187359
 11
2993.6506000000003
 21
1247.0166072187359
  0
LINE
  8
_0-4_
  6
CONTINUOUS
 62
    7
 10
2993.6506000000003
 20
1247.0166072187359
 11
2993.6390500000006
 21
1247.0187072187359
  0
LINE
  8
_0-4_
  6
CONTINUOUS
 62
    7
 10
2993.6390500000006
 20
1247.0187072187359
 11
2993.6275
 21
1247.0209572187359
  0
LINE
  8
_0-4_
  6
CONTINUOUS
 62
    7
 10
2993.6275
 20
1247.0209572187359
 11
2993.6156500000006
 21
1247.0232072187359
  0
LINE
  8
_0-4_
  6
CONTINUOUS
 62
    7
 10
2993.6156500000006
 20
1247.0232072187359
 11
2993.60365
 21
1247.025607218736
  0
LINE
  8
_0-4_
  6
CONTINUOUS
 62
    7
 10
2993.60365
 20
1247.025607218736
 11
2993.5913500000006
 21
1247.028307218736
  0
LINE
  8
_0-4_
  6
CONTINUOUS
 62
    7
 10
2993.5913500000006
 20
1247.028307218736
 11
2993.5784499999999
 21
1247.031007218736
  0
LINE
  8
_0-4_
  6
CONTINUOUS
 62
    7
 10
2993.5784499999999
 20
1247.031007218736
 11
2993.5652500000005
 21
1247.0340072187359
  0
LINE
  8
_0-4_
  6
CONTINUOUS
 62
    7
 10
2993.5652500000005
 20
1247.0340072187359
 11
2993.5513
 21
1247.0371572187359
  0
LINE
  8
_0-4_
  6
CONTINUOUS
 62
    7
 10
2993.5513
 20
1247.0371572187359
 11
2993.5367500000006
 21
1247.0406072187361
  0
LINE
  8
_0-4_
  6
CONTINUOUS
 62
    7
 10
2993.5367500000006
 20
1247.0406072187361
 11
2993.5217499999998
 21
1247.0442072187361
  0
LINE
  8
_0-4_
  6
CONTINUOUS
 62
    7
 10
2993.5217499999998
 20
1247.0442072187361
 11
2993.5066000000006
 21
1247.0479572187359
  0
LINE
  8
_0-4_
  6
CONTINUOUS
 62
    7
 10
2993.5066000000006
 20
1247.0479572187359
 11
2993.4916000000002
 21
1247.0518572187361
  0
LINE
  8
_0-4_
  6
CONTINUOUS
 62
    7
 10
2993.4916000000002
 20
1247.0518572187361
 11
2993.4769000000005
 21
1247.0556072187359
  0
LINE
  8
_0-4_
  6
CONTINUOUS
 62
    7
 10
2993.4769000000005
 20
1247.0556072187359
 11
2993.4629500000005
 21
1247.0592072187359
  0
LINE
  8
_0-4_
  6
CONTINUOUS
 62
    7
 10
2993.4629500000005
 20
1247.0592072187359
 11
2993.4497500000002
 21
1247.0626572187361
  0
LINE
  8
_0-4_
  6
CONTINUOUS
 62
    7
 10
2993.4497500000002
 20
1247.0626572187361
 11
2993.4377500000005
 21
1247.0658072187361
  0
LINE
  8
_0-4_
  6
CONTINUOUS
 62
    7
 10
2993.4377500000005
 20
1247.0658072187361
 11
2993.4270999999998
 21
1247.068657218736
  0
LINE
  8
_0-4_
  6
CONTINUOUS
 62
    7
 10
2993.4270999999998
 20
1247.068657218736
 11
2993.4176500000003
 21
1247.0712072187361
  0
LINE
  8
_0-4_
  6
CONTINUOUS
 62
    7
 10
2993.4176500000003
 20
1247.0712072187361
 11
2993.4092500000001
 21
1247.0734572187361
  0
LINE
  8
_0-4_
  6
CONTINUOUS
 62
    7
 10
2993.4092500000001
 20
1247.0734572187361
 11
2993.4014500000002
 21
1247.0757072187361
  0
LINE
  8
_0-4_
  6
CONTINUOUS
 62
    7
 10
2993.4014500000002
 20
1247.0757072187361
 11
2993.3944000000001
 21
1247.077807218736
  0
LINE
  8
_0-4_
  6
CONTINUOUS
 62
    7
 10
2993.3944000000001
 20
1247.077807218736
 11
2993.3874999999998
 21
1247.079907218736
  0
LINE
  8
_0-4_
  6
CONTINUOUS
 62
    7
 10
2993.3874999999998
 20
1247.079907218736
 11
2993.3809000000001
 21
1247.0820072187361
  0
LINE
  8
_0-4_
  6
CONTINUOUS
 62
    7
 10
2993.3809000000001
 20
1247.0820072187361
 11
2993.3739999999997
 21
1247.0842572187361
  0
LINE
  8
_0-4_
  6
CONTINUOUS
 62
    7
 10
2993.3739999999997
 20
1247.0842572187361
 11
2993.36695
 21
1247.0868072187361
  0
LINE
  8
_0-4_
  6
CONTINUOUS
 62
    7
 10
2993.36695
 20
1247.0868072187361
 11
2993.35975
 21
1247.089357218736
  0
LINE
  8
_0-4_
  6
CONTINUOUS
 62
    7
 10
2993.35975
 20
1247.089357218736
 11
2993.3523999999997
 21
1247.0919072187361
  0
LINE
  8
_0-4_
  6
CONTINUOUS
 62
    7
 10
2993.3523999999997
 20
1247.0919072187361
 11
2993.3450500000003
 21
1247.0946072187362
  0
LINE
  8
_0-4_
  6
CONTINUOUS
 62
    7
 10
2993.3450500000003
 20
1247.0946072187362
 11
2993.3379999999997
 21
1247.0971572187361
  0
LINE
  8
_0-4_
  6
CONTINUOUS
 62
    7
 10
2993.3379999999997
 20
1247.0971572187361
 11
2993.3312500000001
 21
1247.099707218736
  0
LINE
  8
_0-4_
  6
CONTINUOUS
 62
    7
 10
2993.3312500000001
 20
1247.099707218736
 11
2993.3248000000003
 21
1247.1021072187361
  0
LINE
  8
_0-4_
  6
CONTINUOUS
 62
    7
 10
2993.3248000000003
 20
1247.1021072187361
 11
2993.3190999999997
 21
1247.104207218736
  0
LINE
  8
_0-4_
  6
CONTINUOUS
 62
    7
 10
2993.3190999999997
 20
1247.104207218736
 11
2993.3138500000004
 21
1247.1063072187362
  0
LINE
  8
_0-4_
  6
CONTINUOUS
 62
    7
 10
2993.3138500000004
 20
1247.1063072187362
 11
2993.3093500000004
 21
1247.1081072187362
  0
LINE
  8
_0-4_
  6
CONTINUOUS
 62
    7
 10
2993.3093500000004
 20
1247.1081072187362
 11
2993.3051500000001
 21
1247.1097572187361
  0
LINE
  8
_0-4_
  6
CONTINUOUS
 62
    7
 10
2993.3051500000001
 20
1247.1097572187361
 11
2993.3014000000002
 21
1247.1112572187362
  0
LINE
  8
_0-4_
  6
CONTINUOUS
 62
    7
 10
2993.3014000000002
 20
1247.1112572187362
 11
2993.2978000000002
 21
1247.112757218736
  0
LINE
  8
_0-4_
  6
CONTINUOUS
 62
    7
 10
2993.2978000000002
 20
1247.112757218736
 11
2993.2942000000002
 21
1247.1144072187362
  0
LINE
  8
_0-4_
  6
CONTINUOUS
 62
    7
 10
2993.2942000000002
 20
1247.1144072187362
 11
2993.2906000000002
 21
1247.1160572187361
  0
LINE
  8
_0-4_
  6
CONTINUOUS
 62
    7
 10
2993.2906000000002
 20
1247.1160572187361
 11
2993.2868500000004
 21
1247.1178572187361
  0
LINE
  8
_0-4_
  6
CONTINUOUS
 62
    7
 10
2993.2868500000004
 20
1247.1178572187361
 11
2993.2828000000008
 21
1247.119957218736
  0
LINE
  8
_0-4_
  6
CONTINUOUS
 62
    7
 10
2993.2828000000008
 20
1247.119957218736
 11
2993.2784500000002
 21
1247.1220572187362
  0
LINE
  8
_0-4_
  6
CONTINUOUS
 62
    7
 10
2993.2784500000002
 20
1247.1220572187362
 11
2993.2739500000002
 21
1247.1243072187362
  0
LINE
  8
_0-4_
  6
CONTINUOUS
 62
    7
 10
2993.2739500000002
 20
1247.1243072187362
 11
2993.2694500000002
 21
1247.1265572187362
  0
LINE
  8
_0-4_
  6
CONTINUOUS
 62
    7
 10
2993.2694500000002
 20
1247.1265572187362
 11
2993.2649500000002
 21
1247.1289572187361
  0
LINE
  8
_0-4_
  6
CONTINUOUS
 62
    7
 10
2993.2649500000002
 20
1247.1289572187361
 11
2993.2604500000002
 21
1247.1313572187359
  0
LINE
  8
_0-4_
  6
CONTINUOUS
 62
    7
 10
2993.2604500000002
 20
1247.1313572187359
 11
2993.2562500000003
 21
1247.1336072187359
  0
LINE
  8
_0-4_
  6
CONTINUOUS
 62
    7
 10
2993.2562500000003
 20
1247.1336072187359
 11
2993.2522000000008
 21
1247.1357072187361
  0
LINE
  8
_0-4_
  6
CONTINUOUS
 62
    7
 10
2993.2522000000008
 20
1247.1357072187361
 11
2993.2484500000005
 21
1247.137807218736
  0
LINE
  8
_0-4_
  6
CONTINUOUS
 62
    7
 10
2993.2484500000005
 20
1247.137807218736
 11
2993.2450000000008
 21
1247.1397572187361
  0
LINE
  8
_0-4_
  6
CONTINUOUS
 62
    7
 10
2993.2450000000008
 20
1247.1397572187361
 11
2993.2418500000003
 21
1247.1415572187361
  0
LINE
  8
_0-4_
  6
CONTINUOUS
 62
    7
 10
2993.2418500000003
 20
1247.1415572187361
 11
2993.2390000000004
 21
1247.1433572187361
  0
LINE
  8
_0-4_
  6
CONTINUOUS
 62
    7
 10
2993.2390000000004
 20
1247.1433572187361
 11
2993.2361500000001
 21
1247.1451572187361
  0
LINE
  8
_0-4_
  6
CONTINUOUS
 62
    7
 10
2993.2361500000001
 20
1247.1451572187361
 11
2993.2336000000004
 21
1247.1469572187361
  0
LINE
  8
_0-4_
  6
CONTINUOUS
 62
    7
 10
2993.2336000000004
 20
1247.1469572187361
 11
2993.2312000000001
 21
1247.1487572187361
  0
LINE
  8
_0-4_
  6
CONTINUOUS
 62
    7
 10
2993.2312000000001
 20
1247.1487572187361
 11
2993.2289500000001
 21
1247.1505572187361
  0
LINE
  8
_0-4_
  6
CONTINUOUS
 62
    7
 10
2993.2289500000001
 20
1247.1505572187361
 11
2993.2267000000001
 21
1247.1525072187359
  0
LINE
  8
_0-4_
  6
CONTINUOUS
 62
    7
 10
2993.2267000000001
 20
1247.1525072187359
 11
2993.2246000000004
 21
1247.1546072187361
  0
LINE
  8
_0-4_
  6
CONTINUOUS
 62
    7
 10
2993.2246000000004
 20
1247.1546072187361
 11
2993.2226500000001
 21
1247.1565572187359
  0
LINE
  8
_0-4_
  6
CONTINUOUS
 62
    7
 10
2993.2226500000001
 20
1247.1565572187359
 11
2993.2208500000001
 21
1247.158507218736
  0
LINE
  8
_0-4_
  6
CONTINUOUS
 62
    7
 10
2993.2208500000001
 20
1247.158507218736
 11
2993.2192000000004
 21
1247.1604572187361
  0
LINE
  8
_0-4_
  6
CONTINUOUS
 62
    7
 10
2993.2192000000004
 20
1247.1604572187361
 11
2993.2177000000001
 21
1247.162107218736
  0
LINE
  8
_0-4_
  6
CONTINUOUS
 62
    7
 10
2993.2177000000001
 20
1247.162107218736
 11
2993.2165000000004
 21
1247.1636072187361
  0
LINE
  8
_0-4_
  6
CONTINUOUS
 62
    7
 10
2993.2165000000004
 20
1247.1636072187361
 11
2993.2129000000004
 21
1247.1681072187361
  0
LINE
  8
_0-4_
  6
CONTINUOUS
 62
    7
 10
2993.2000000000007
 20
1247.197957218736
 11
2993.2000000000007
 21
1248.999907218736
  0
LINE
  8
_0-4_
  6
CONTINUOUS
 62
    7
 10
2995.1999500000001
 20
1248.999907218736
 11
2993.2000000000007
 21
1248.999907218736
  0
LINE
  8
_0-4_
  6
CONTINUOUS
 62
    7
 10
2995.1999500000001
 20
1245.4962072187361
 11
2995.1999500000001
 21
1247.0008572187359
  0
LINE
  8
_0-4_
  6
CONTINUOUS
 62
    7
 10
2608.4999500000003
 20
1247.1999072187361
 11
2608.4999500000003
 21
1245.4999572187359
  0
LINE
  8
_0-4_
  6
CONTINUOUS
 62
    7
 10
2608.4999500000003
 20
1247.1999072187361
 11
2989.31545
 21
1247.1999072187361
  0
LINE
  8
_0-4_
  6
CONTINUOUS
 62
    7
 10
2663.5379499999999
 20
1322.7481572187361
 11
2613.2582499999998
 21
1325.383207218736
  0
LINE
  8
_0-4_
  6
CONTINUOUS
 62
    7
 10
2668.1000500000004
 20
1322.628607218736
 11
2980
 21
1322.628607218736
  0
LINE
  8
_0-4_
  6
CONTINUOUS
 62
    7
 10
2989.31545
 20
1246.9999572187359
 11
2989.31545
 21
1247.1999072187361
  0
LINE
  8
_0-4_
  6
CONTINUOUS
 62
    7
 10
2608.4999500000003
 20
1250.499907218736
 11
2608.4999500000003
 21
1247.1999072187361
  0
LINE
  8
_0-4_
  6
CONTINUOUS
 62
    7
 10
2608
 20
1250.9998572187359
 11
2608.4999500000003
 21
1250.499907218736
  0
LINE
  8
_0-4_
  6
CONTINUOUS
 62
    7
 10
2608
 20
1276.9999572187359
 11
2608
 21
1250.9998572187359
  0
LINE
  8
_0-4_
  6
CONTINUOUS
 62
    7
 10
2619.7157500000002
 20
1279.9999572187361
 11
2611
 21
1279.9999572187361
  0
LINE
  8
_0-4_
  6
CONTINUOUS
 62
    7
 10
2633.2000000000007
 20
1284.7498572187362
 11
2625.5842000000002
 21
1284.7498572187362
  0
LINE
  8
_0-4_
  6
CONTINUOUS
 62
    7
 10
2633.6999500000001
 20
1284.615907218736
 11
2633.6999500000001
 21
1275.4999572187359
  0
LINE
  8
_0-4_
  6
CONTINUOUS
 62
    7
 10
2639.5000000000004
 20
1275.4999572187359
 11
2633.6999500000001
 21
1275.4999572187359
  0
LINE
  8
_0-4_
  6
CONTINUOUS
 62
    7
 10
2639.6999500000001
 20
1302.2998572187361
 11
2639.6999500000001
 21
1275.6999072187361
  0
LINE
  8
_0-4_
  6
CONTINUOUS
 62
    7
 10
2633.6999500000001
 20
1302.4999572187359
 11
2639.5000000000004
 21
1302.4999572187359
  0
LINE
  8
_0-4_
  6
CONTINUOUS
 62
    7
 10
2633.6999500000001
 20
1302.4999572187359
 11
2633.6999500000001
 21
1293.383857218736
  0
LINE
  8
_0-4_
  6
CONTINUOUS
 62
    7
 10
2625.5842000000002
 20
1293.249907218736
 11
2633.2000000000007
 21
1293.249907218736
  0
LINE
  8
_0-4_
  6
CONTINUOUS
 62
    7
 10
2611
 20
1297.9999572187357
 11
2619.7157500000002
 21
1297.9999572187357
  0
LINE
  8
_0-4_
  6
CONTINUOUS
 62
    7
 10
2608
 20
1322.499907218736
 11
2608
 21
1300.9999572187361
  0
LINE
  8
_0-4_
  6
CONTINUOUS
 62
    7
 10
2608.4999500000003
 20
1322.499907218736
 11
2608
 21
1322.499907218736
  0
LINE
  8
_0-4_
  6
CONTINUOUS
 62
    7
 10
2989.31545
 20
1246.9999572187359
 11
2993.2000000000007
 21
1246.9999572187359
  0
LINE
  8
_0-4_
  6
CONTINUOUS
 62
    7
 10
2993.2000000000007
 20
1246.9999572187359
 11
2993.7427000000002
 21
1246.9999572187359
  0
LINE
  8
_0-4_
  6
CONTINUOUS
 62
    7
 10
2986
 20
1332.7999572187359
 11
2990.6933500000004
 21
1332.7999572187359
  0
LINE
  8
_0-4_
  6
CONTINUOUS
 62
    7
 10
2608.4999500000003
 20
1324.0681572187361
 11
2608.4999500000003
 21
1322.499907218736
  0
LINE
  8
_0-4_
  6
CONTINUOUS
 62
    7
 10
2668.1000500000004
 20
1322.628607218736
 11
2668.1000500000004
 21
1322.7603072187362
  0
LINE
  8
_0-4_
  6
CONTINUOUS
 62
    7
 10
2980
 20
1322.628607218736
 11
2980
 21
1322.7603072187362
  0
LINE
  8
_0-4_
  6
CONTINUOUS
 62
    7
 10
2663.5379499999999
 20
1322.7481572187361
 11
2663.5448500000002
 21
1322.8795572187364
  0
LINE
  8
_0-4_
  6
CONTINUOUS
 62
    7
 10
2634.1998999999996
 20
1294.2499572187357
 11
2634.1998999999996
 21
1302.2998572187361
  0
LINE
  8
_0-4_
  6
CONTINUOUS
 62
    7
 10
2634.1998999999996
 20
1275.6999072187361
 11
2634.1998999999996
 21
1283.7499572187359
  0
LINE
  8
_0-4_
  6
CONTINUOUS
 62
    7
 10
2605.9999000000007
 20
1246.9999572187359
 11
2605.9999000000007
 21
1245.999907218736
  0
LINE
  8
_0-4_
  6
CONTINUOUS
 62
    7
 10
2605.9999000000007
 20
1245.999907218736
 11
2608.4999500000003
 21
1245.999907218736
  0
LINE
  8
_0-4_
  6
CONTINUOUS
 62
    7
 10
2608.4999500000003
 20
1246.9999572187359
 11
2605.9999000000007
 21
1246.9999572187359
  0
LINE
  8
_0-4_
  6
CONTINUOUS
 62
    7
 10
3004.9127500000004
 20
1246.9999572187359
 11
3004.9127500000004
 21
1321.2333072187361
  0
LINE
  8
_0-4_
  6
CONTINUOUS
 62
    7
 10
3004.9127500000004
 20
1328.3665572187362
 11
3004.9127500000004
 21
1332.7999572187359
  0
LINE
  8
_0-4_
  6
CONTINUOUS
 62
    7
 10
2995.9999000000007
 20
1324.7998572187361
 11
2995.9999000000007
 21
1325.2999572187359
  0
LINE
  8
_0-4_
  6
CONTINUOUS
 62
    7
 10
2995.9999000000007
 20
1324.7998572187361
 11
2995.4999500000003
 21
1324.7998572187361
  0
LINE
  8
_0-4_
  6
CONTINUOUS
 62
    7
 10
2995.9999000000007
 20
1324.7998572187361
 11
2995.9999000000007
 21
1324.2999072187358
  0
LINE
  8
_0-4_
  6
CONTINUOUS
 62
    7
 10
2995.9999000000007
 20
1324.7998572187361
 11
2996.5000000000004
 21
1324.7998572187361
  0
LINE
  8
_0-4_
  6
CONTINUOUS
 62
    7
 10
2995.9999000000007
 20
1325.7999072187362
 11
2995.9999000000007
 21
1334.899957218736
  0
LINE
  8
_0-4_
  6
CONTINUOUS
 62
    7
 10
2995
 20
1324.7998572187361
 11
2985.8999500000004
 21
1324.7998572187361
  0
LINE
  8
_0-4_
  6
CONTINUOUS
 62
    7
 10
2995.9999000000007
 20
1323.7999572187363
 11
2995.9999000000007
 21
1314.6999072187361
  0
LINE
  8
_0-4_
  6
CONTINUOUS
 62
    7
 10
2996.9999500000003
 20
1324.7998572187361
 11
3006.1000000000003
 21
1324.7998572187361
  0
LINE
  8
_0-4_
  6
CENTER2
 62
    7
 10
2646.9919000000004
 20
1288.9999572187361
 11
2621.8342000000002
 21
1288.9999572187361
  0
ARC
  8
_0-4_
  6
CONTINUOUS
 62
    7
 10
2668.1000500000004
 20
1409.799907218736
 40
87.039600000000021
 50
267
 51
270.00000000000017
  0
CIRCLE
  8
_0-4_
  6
CONTINUOUS
 62
    7
 10
2995.9999000000007
 20
1324.7998572187361
 40
9.6000000000000014
  0
ARC
  8
_0-4_
  6
CONTINUOUS
 62
    7
 10
2668.1000500000004
 20
1409.799907218736
 40
87.171300000000002
 50
267
 51
270.00000000000017
  0
ARC
  8
_0-4_
  6
CONTINUOUS
 62
    7
 10
2982.1300000000001
 20
1331.5999572187361
 40
1.9999500000000003
 50
270.00000000000005
 51
348.47200000000003
  0
ARC
  8
_0-4_
  6
CONTINUOUS
 62
    7
 10
2986.0493500000006
 20
1330.800457218736
 40
1.9999500000000003
 50
91.413000000000025
 51
168.47200000000003
  0
ARC
  8
_0-4_
  6
CONTINUOUS
 62
    7
 10
2611
 20
1276.9999572187359
 40
3.0000000000000004
 50
90.000000000000028
 51
180.00000000000005
  0
ARC
  8
_0-4_
  6
CONTINUOUS
 62
    7
 10
2619.7157500000002
 20
1282.9999572187357
 40
3.0000000000000004
 50
270.00000000000005
 51
347.97500000000007
  0
ARC
  8
_0-4_
  6
CONTINUOUS
 62
    7
 10
2625.5842000000002
 20
1281.7498572187359
 40
3.0000000000000004
 50
90.000000000000028
 51
167.97500000000002
  0
ARC
  8
_0-4_
  6
CONTINUOUS
 62
    7
 10
2633.2000000000007
 20
1283.7499572187359
 40
1.0000500000000001
 50
60.000000000000007
 51
90.000000000000028
  0
ARC
  8
_0-4_
  6
CONTINUOUS
 62
    7
 10
2639.5000000000004
 20
1275.6999072187361
 40
0.1999499999999999
 50
270.00000000000005
 51
0.0000000000000508
  0
ARC
  8
_0-4_
  6
CONTINUOUS
 62
    7
 10
2639.5000000000004
 20
1302.2998572187361
 40
0.1999499999999999
 50
0
 51
90.000000000000028
  0
ARC
  8
_0-4_
  6
CONTINUOUS
 62
    7
 10
2633.2000000000007
 20
1294.2499572187357
 40
1.0000500000000001
 50
270.00000000000005
 51
300.00000000000005
  0
ARC
  8
_0-4_
  6
CONTINUOUS
 62
    7
 10
2625.5842000000002
 20
1296.249907218736
 40
3.0000000000000004
 50
192.02500000000003
 51
270.00000000000005
  0
ARC
  8
_0-4_
  6
CONTINUOUS
 62
    7
 10
2619.7157500000002
 20
1294.9999572187359
 40
3.0000000000000004
 50
12.025
 51
90.000000000000014
  0
ARC
  8
_0-4_
  6
CONTINUOUS
 62
    7
 10
2611
 20
1300.9999572187361
 40
3.0000000000000004
 50
180.00000000000005
 51
270.00000000000005
  0
ARC
  8
_0-4_
  6
CONTINUOUS
 62
    7
 10
2634.4000000000005
 20
1302.2998572187361
 40
0.1999499999999999
 50
90.000000000000028
 51
180.00000000000005
  0
ARC
  8
_0-4_
  6
CONTINUOUS
 62
    7
 10
2633.2000000000007
 20
1294.2499572187357
 40
1.0000500000000001
 50
300.00000000000005
 51
0.0000000000000636
  0
ARC
  8
_0-4_
  6
CONTINUOUS
 62
    7
 10
2634.4000000000005
 20
1275.6999072187361
 40
0.1999499999999999
 50
180.00000000000005
 51
270.00000000000005
  0
ARC
  8
_0-4_
  6
CONTINUOUS
 62
    7
 10
2633.2000000000007
 20
1283.7499572187359
 40
1.0000500000000001
 50
0
 51
60.000000000000007
  0
POINT
  8
_0-9_
 62
    4
 10
805.50000000000011
 20
472.08277206296656
  0
POINT
  8
_0-9_
 62
    4
 10
1099.5
 20
472.08277206296656
  0
LINE
  8
_0-9_
  6
CONTINUOUS
 62
    4
 10
805.50000000000011
 20
462.08277206296656
 11
805.50000000000011
 21
557.24264540409626
  0
LINE
  8
_0-9_
  6
CONTINUOUS
 62
    4
 10
1099.5
 20
462.08277206296656
 11
1099.5
 21
557.24264540409626
  0
LINE
  8
_0-9_
  6
CONTINUOUS
 62
    4
 10
805.50000000000011
 20
472.08277206296656
 11
1099.5
 21
472.08277206296656
  0
TEXT
  8
_0-9_
 62
    7
 10
922.40000000000009
 20
477.08277206296656
 40
30
 41
0.6666666666666666
 50
0
  1
２９４
  0
POINT
  8
_0-9_
 62
    4
 10
1100.5
 20
472.08277206296656
  0
POINT
  8
_0-9_
 62
    4
 10
1394.5
 20
472.08277206296656
  0
LINE
  8
_0-9_
  6
CONTINUOUS
 62
    4
 10
1100.5
 20
462.08277206296656
 11
1100.5
 21
557.24264540409626
  0
LINE
  8
_0-9_
  6
CONTINUOUS
 62
    4
 10
1394.5
 20
462.08277206296656
 11
1394.5
 21
557.24264540409626
  0
LINE
  8
_0-9_
  6
CONTINUOUS
 62
    4
 10
1100.5
 20
472.08277206296656
 11
1394.5
 21
472.08277206296656
  0
TEXT
  8
_0-9_
 62
    7
 10
1217.3999999999998
 20
477.08277206296656
 40
30
 41
0.6666666666666666
 50
0
  1
２９４
  0
LINE
  8
_0-3_
  6
DASHED1
 62
    2
 10
1085.0000000000002
 20
1347.0000000000002
 11
1085.0000000000002
 21
1239.9999999999997
  0
LINE
  8
_0-3_
  6
DASHED1
 62
    2
 10
1115.0000000000002
 20
1347.0000000000002
 11
1115.0000000000002
 21
1239.9999999999997
  0
LINE
  8
_0-3_
  6
CONTINUOUS
 62
    4
 10
3087
 20
1233
 11
3105
 21
1233
  0
LINE
  8
_0-3_
  6
CONTINUOUS
 62
    4
 10
3087
 20
1233
 11
3087
 21
1188
  0
LINE
  8
_0-3_
  6
CONTINUOUS
 62
    4
 10
3087
 20
1188
 11
3105
 21
1188
  0
TEXT
  8
_f-8_
 62
    7
 10
3058.9895931728829
 20
141.0450804397999
 40
35
 41
0.5714285714285711
 50
0
  1
２０２３.０５.０１
  0
TEXT
  8
_f-8_
 62
    7
 10
3582
 20
145
 40
30
 41
0.733333333333333
 50
0
  1
Ｔ．Ｋ
  0
LINE
  8
_0-9_
  6
CONTINUOUS
 62
    4
 10
1541
 20
724.99999999999988
 11
1541
 21
1225
  0
TEXT
  8
_0-9_
 62
    7
 10
1541
 20
941.89999999999986
 40
35
 41
0.6285714285714286
 50
90
  1
４９９
  0
LINE
  8
_0-9_
  6
CONTINUOUS
 62
    4
 10
2421.6674015250046
 20
724.99999999999988
 11
2421.6674015250046
 21
1225
  0
TEXT
  8
_0-9_
 62
    7
 10
2421.6674015250046
 20
941.89999999999986
 40
35
 41
0.6285714285714286
 50
90
  1
４９９
  0
LINE
  8
_0-3_
  6
DASHED1
 62
    2
 10
812.00000000000045
 20
1401.9999999999995
 11
812.00000000000045
 21
580
  0
LINE
  8
_0-3_
  6
CONTINUOUS
 62
    5
 10
800
 20
1401.9999999999995
 11
800
 21
580
  0
LINE
  8
_0-3_
  6
DASHED1
 62
    2
 10
1388
 20
1401.9999999999995
 11
1388
 21
580
  0
LINE
  8
_0-3_
  6
CONTINUOUS
 62
    5
 10
1400
 20
1401.9999999999995
 11
1400
 21
580
  0
LINE
  8
_0-3_
  6
DASHED1
 62
    2
 10
1388
 20
1347.0000000000002
 11
814.50000000000045
 21
1347.0000000000002
  0
LINE
  8
_0-3_
  6
DASHED1
 62
    2
 10
1388
 20
1237.9999999999997
 11
812.00000000000045
 21
1237.9999999999997
  0
LINE
  8
_0-3_
  6
DASHED1
 62
    2
 10
1388
 20
736.99999999999988
 11
812.00000000000045
 21
736.99999999999988
  0
LINE
  8
_0-3_
  6
DASHED1
 62
    2
 10
1388
 20
1180
 11
812.00000000000045
 21
1180
  0
LINE
  8
_0-3_
  6
CONTINUOUS
 62
    4
 10
1400
 20
719.99999999999988
 11
800
 21
719.99999999999988
  0
LINE
  8
_0-3_
  6
CONTINUOUS
 62
    5
 10
1400
 20
580
 11
800
 21
580
  0
LINE
  8
_0-3_
  6
CONTINUOUS
 62
    4
 10
2608
 20
1347.0000000000004
 11
2608
 21
1332.6133572187361
  0
LINE
  8
_0-3_
  6
CONTINUOUS
 62
    4
 10
2608
 20
1245.4999572187359
 11
2608
 21
736.99999999999988
  0
LINE
  8
_0-3_
  6
CONTINUOUS
 62
    2
 10
2628
 20
1237.9999999999997
 11
2608
 21
1237.9999999999997
  0
LINE
  8
_0-d_
  6
CONTINUOUS
 62
    3
 10
4115
 20
2145
 11
3129.9989999999997
 21
2145
  0
LINE
  8
_0-d_
  6
CONTINUOUS
 62
    3
 10
4115
 20
2845
 11
3129.9989999999997
 21
2845
  0
LINE
  8
_0-d_
  6
CONTINUOUS
 62
    7
 10
4115
 20
2285
 11
3129.9989999999997
 21
2285
  0
LINE
  8
_0-d_
  6
CONTINUOUS
 62
    7
 10
4115
 20
2355
 11
3129.9989999999997
 21
2355
  0
LINE
  8
_0-d_
  6
CONTINUOUS
 62
    7
 10
4115
 20
2425
 11
3129.9989999999997
 21
2425
  0
LINE
  8
_0-d_
  6
CONTINUOUS
 62
    7
 10
4115
 20
2495
 11
3129.9989999999997
 21
2495
  0
LINE
  8
_0-d_
  6
CONTINUOUS
 62
    7
 10
4115
 20
2565
 11
3129.9989999999997
 21
2565
  0
LINE
  8
_0-d_
  6
CONTINUOUS
 62
    7
 10
4115
 20
2635
 11
3129.9989999999997
 21
2635
  0
LINE
  8
_0-d_
  6
CONTINUOUS
 62
    7
 10
4115
 20
2705
 11
3129.9989999999997
 21
2705
  0
LINE
  8
_0-d_
  6
CONTINUOUS
 62
    7
 10
4115
 20
2775
 11
3129.9989999999997
 21
2775
  0
LINE
  8
_0-d_
  6
CONTINUOUS
 62
    7
 10
4115
 20
2780
 11
3129.9989999999997
 21
2780
  0
TEXT
  8
_0-d_
 62
    7
 10
3527.4994999999998
 20
2795
 40
35
 41
0.8571428571428568
 50
0
  1
仕　　　　様
  0
TEXT
  8
_0-d_
 62
    7
 10
3200.9989999999997
 20
2722.5
 40
35
 41
0.8571428571428568
 50
0
  1
ト　ッ　プ
  0
TEXT
  8
_0-d_
 62
    7
 10
3216.9990000000002
 20
2652.5
 40
35
 41
0.8571428571428568
 50
0
  1
側　　板
  0
TEXT
  8
_0-d_
 62
    7
 10
3454.9990000000002
 20
2652.5
 40
35
 41
0.7714285714285713
 50
0
  1
低圧メラミン化粧パーティクルボード　１２ｔ
  0
TEXT
  8
_0-d_
 62
    7
 10
3216.9990000000002
 20
2582.5
 40
35
 41
0.8571428571428568
 50
0
  1
地　　板
  0
TEXT
  8
_0-d_
 62
    7
 10
3454.9989999999988
 20
2582.5
 40
35
 41
0.8571428571428568
 50
0
  1
ステンレス貼り　片面フラッシュ
  0
TEXT
  8
_0-d_
 62
    7
 10
3216.9990000000002
 20
2512.5
 40
35
 41
0.8571428571428568
 50
0
  1
背　　板
  0
TEXT
  8
_0-d_
 62
    7
 10
3454.9989999999988
 20
2512.5
 40
35
 41
0.8571428571428568
 50
0
  1
ＭＤＦ　２．５ｔ
  0
TEXT
  8
_0-d_
 62
    7
 10
3264.9989999999997
 20
2442.5
 40
35
 41
0.8571428571428568
 50
0
  1
扉
  0
TEXT
  8
_0-d_
 62
    7
 10
3454.9989999999988
 20
2442.5
 40
35
 41
0.7714285714285713
 50
0
  1
両面化粧パーティクルボード　１２ｔ
  0
TEXT
  8
_0-d_
 62
    7
 10
3216.9990000000002
 20
2372.5
 40
35
 41
0.8571428571428568
 50
0
  1
丁　　番
  0
TEXT
  8
_0-d_
 62
    7
 10
3454.9990000000002
 20
2372.5
 40
35
 41
0.8571428571428568
 50
0
  1
スライド式丁番
  0
LINE
  8
_0-d_
  6
CONTINUOUS
 62
    3
 10
4115
 20
2145
 11
3129.9989999999997
 21
2145
  0
LINE
  8
_0-d_
  6
CONTINUOUS
 62
    7
 10
4115
 20
2285
 11
3129.9989999999997
 21
2285
  0
LINE
  8
_0-d_
  6
CONTINUOUS
 62
    7
 10
4115
 20
2145
 11
3129.9989999999997
 21
2145
  0
TEXT
  8
_0-d_
 62
    7
 10
3216.9990000000002
 20
2302.5
 40
35
 41
0.8571428571428568
 50
0
  1
把　　手
  0
TEXT
  8
_0-d_
 62
    7
 10
3454.9989999999988
 20
2302.5
 40
35
 41
0.8571428571428568
 50
0
  1
アルミ一文字把手
  0
LINE
  8
_0-d_
  6
CONTINUOUS
 62
    7
 10
4115
 20
2215
 11
3429.9989999999997
 21
2215
  0
TEXT
  8
_0-d_
 62
    7
 10
3454.9989999999988
 20
2232.5
 40
35
 41
0.7714285714285713
 50
0
  1
メタルボックス　スライドレール
  0
TEXT
  8
_0-d_
 62
    7
 10
3168.9989999999993
 20
2197.5
 40
35
 41
0.8571428571428568
 50
0
  1
引　き　出　し
  0
LINE
  8
_0-d_
  6
CONTINUOUS
 62
    3
 10
4115
 20
2145
 11
4115
 21
2845
  0
LINE
  8
_0-d_
  6
CONTINUOUS
 62
    7
 10
3429.9989999999997
 20
2775
 11
3429.9989999999997
 21
2145
  0
LINE
  8
_0-d_
  6
CONTINUOUS
 62
    3
 10
3129.9989999999997
 20
2845
 11
3129.9989999999997
 21
2145
  0
TEXT
  8
_0-d_
 62
    7
 10
3454.9990000000002
 20
2722.5
 40
35
 41
0.8571428571428568
 50
0
  1
ステンレスＳＵＳ４４３ＣＴ
  0
LINE
  8
_0-d_
  6
CONTINUOUS
 62
    3
 10
4115
 20
2130
 11
4115
 21
1634.9999999999995
  0
LINE
  8
_0-d_
  6
CONTINUOUS
 62
    7
 10
3800.2421204263214
 20
2060
 11
3800.2421204263214
 21
1940
  0
TEXT
  8
_0-d_
 62
    7
 10
3830.2421204263209
 20
2012.5
 40
35
 41
0.8571428571428568
 50
0
  1
ホワイト
  0
TEXT
  8
_0-d_
 62
    7
 10
3830.3411143313564
 20
1953.0893268157801
 40
35
 41
0.8571428571428568
 50
0
  1
木　　目
  0
TEXT
  8
_0-d_
 62
    7
 10
3715.7122200188973
 20
2012.5
 40
35
 41
0.8571428571428568
 50
0
  1
ＳＷ
  0
TEXT
  8
_0-d_
 62
    7
 10
3720.7036754285845
 20
1953.0893268157801
 40
35
 41
0.8571428571428568
 50
0
  1
ＬＧ
  0
LINE
  8
_0-d_
  6
CONTINUOUS
 62
    3
 10
3700.2421204263214
 20
2130
 11
3700.2421204263214
 21
1634.9999999999995
  0
LINE
  8
_0-d_
  6
CONTINUOUS
 62
    7
 10
3800.2421204263214
 20
1935
 11
3800.2421204263214
 21
1634.9999999999995
  0
TEXT
  8
_0-d_
 62
    7
 10
3715.7122200188973
 20
1887.5
 40
35
 41
0.8571428571428568
 50
0
  1
ＵＷ
  0
TEXT
  8
_0-d_
 62
    7
 10
3720.7036754285845
 20
1828.0893268157801
 40
35
 41
0.8571428571428568
 50
0
  1
ＷＮ
  0
TEXT
  8
_0-d_
 62
    7
 10
3720.7036754285845
 20
1768.0893268157797
 40
35
 41
0.8571428571428568
 50
0
  1
ＢＳ
  0
TEXT
  8
_0-d_
 62
    7
 10
3720.7036754285845
 20
1708.0893268157797
 40
35
 41
0.8571428571428568
 50
0
  1
ＰＭ
  0
TEXT
  8
_0-d_
 62
    7
 10
3720.7036754285845
 20
1648.0893268157797
 40
35
 41
0.8571428571428568
 50
0
  1
ＭＤ
  0
TEXT
  8
_0-d_
 62
    7
 10
3830.3411143313569
 20
1648.0893268157797
 40
35
 41
0.8571428571428568
 50
0
  1
ダークグレイン
  0
TEXT
  8
_0-d_
 62
    7
 10
3830.3411143313569
 20
1708.0893268157797
 40
35
 41
0.8571428571428568
 50
0
  1
ペールグレイン
  0
TEXT
  8
_0-d_
 62
    7
 10
3830.341114331356
 20
1768.0893268157797
 40
35
 41
0.8571428571428568
 50
0
  1
ブラックストーン
  0
TEXT
  8
_0-d_
 62
    7
 10
3830.2421204263209
 20
1827.4999999999997
 40
35
 41
0.8571428571428568
 50
0
  1
ｳｨﾝｻﾞｰﾅｯﾄ（艶有）
  0
TEXT
  8
_0-d_
 62
    7
 10
3830.24212042632
 20
1887.5
 40
35
 41
0.8571428571428568
 50
0
  1
ｳﾙﾄﾗﾎﾜｲﾄ（艶有）
  0
LINE
  8
_0-d_
  6
CONTINUOUS
 62
    3
 10
4115
 20
2130
 11
3700.2421204263214
 21
2130
  0
LINE
  8
_0-d_
  6
CONTINUOUS
 62
    3
 10
4115
 20
1634.9999999999995
 11
3700.2421204263214
 21
1634.9999999999995
  0
LINE
  8
_0-d_
  6
CONTINUOUS
 62
    7
 10
3700.2421204263214
 20
2000
 11
4115
 21
2000
  0
LINE
  8
_0-d_
  6
CONTINUOUS
 62
    7
 10
4115
 20
2000
 11
3700.2421204263214
 21
2000
  0
LINE
  8
_0-d_
  6
CONTINUOUS
 62
    3
 10
4115
 20
2000
 11
3700.2421204263214
 21
2000
  0
LINE
  8
_0-d_
  6
CONTINUOUS
 62
    3
 10
4115
 20
1940
 11
3700.2421204263214
 21
1940
  0
LINE
  8
_0-d_
  6
CONTINUOUS
 62
    7
 10
4115
 20
1875
 11
3700.2421204263214
 21
1875
  0
LINE
  8
_0-d_
  6
CONTINUOUS
 62
    3
 10
4115
 20
1875
 11
3700.2421204263214
 21
1875
  0
LINE
  8
_0-d_
  6
CONTINUOUS
 62
    3
 10
4115
 20
1814.9999999999997
 11
3700.2421204263214
 21
1814.9999999999997
  0
LINE
  8
_0-d_
  6
CONTINUOUS
 62
    7
 10
3700.2421204263214
 20
1875
 11
4115
 21
1875
  0
LINE
  8
_0-d_
  6
CONTINUOUS
 62
    7
 10
4115
 20
1940
 11
3700.2421204263214
 21
1940
  0
LINE
  8
_0-d_
  6
CONTINUOUS
 62
    7
 10
4115
 20
1935
 11
3700.2421204263214
 21
1935
  0
LINE
  8
_0-d_
  6
CONTINUOUS
 62
    7
 10
4115
 20
1814.9999999999997
 11
3700.2421204263214
 21
1814.9999999999997
  0
LINE
  8
_0-d_
  6
CONTINUOUS
 62
    3
 10
4115
 20
1814.9999999999997
 11
3700.2421204263214
 21
1814.9999999999997
  0
LINE
  8
_0-d_
  6
CONTINUOUS
 62
    3
 10
4115
 20
1754.9999999999995
 11
3700.2421204263214
 21
1754.9999999999995
  0
LINE
  8
_0-d_
  6
CONTINUOUS
 62
    7
 10
3700.2421204263214
 20
1814.9999999999997
 11
4115
 21
1814.9999999999997
  0
LINE
  8
_0-d_
  6
CONTINUOUS
 62
    7
 10
4115
 20
1754.9999999999995
 11
3700.2421204263214
 21
1754.9999999999995
  0
LINE
  8
_0-d_
  6
CONTINUOUS
 62
    3
 10
4115
 20
1754.9999999999995
 11
3700.2421204263214
 21
1754.9999999999995
  0
LINE
  8
_0-d_
  6
CONTINUOUS
 62
    3
 10
4115
 20
1694.9999999999995
 11
3700.2421204263214
 21
1694.9999999999995
  0
LINE
  8
_0-d_
  6
CONTINUOUS
 62
    7
 10
3700.2421204263214
 20
1754.9999999999995
 11
4115
 21
1754.9999999999995
  0
LINE
  8
_0-d_
  6
CONTINUOUS
 62
    7
 10
4115
 20
1694.9999999999995
 11
3700.2421204263214
 21
1694.9999999999995
  0
LINE
  8
_0-d_
  6
CONTINUOUS
 62
    3
 10
4115
 20
1694.9999999999995
 11
3700.2421204263214
 21
1694.9999999999995
  0
LINE
  8
_0-d_
  6
CONTINUOUS
 62
    7
 10
3700.2421204263214
 20
1694.9999999999995
 11
4115
 21
1694.9999999999995
  0
LINE
  8
_0-d_
  6
CONTINUOUS
 62
    7
 10
4115
 20
2060
 11
3700.2421204263214
 21
2060
  0
LINE
  8
_0-d_
  6
CONTINUOUS
 62
    7
 10
4115
 20
2065
 11
3700.2421204263214
 21
2065
  0
TEXT
  8
_0-d_
 62
    7
 10
3860.6210602131609
 20
2080
 40
35
 41
0.8571428571428568
 50
0
  1
扉　色
  0
LINE
  8
_e-0_
  6
CONTINUOUS
 62
    7
 10
2406.8858818993949
 20
165.21450008584452
 11
2406.8858818993949
 21
170.21450008584452
  0
LINE
  8
_e-0_
  6
CONTINUOUS
 62
    7
 10
2431.3858818993949
 20
165.21450008584452
 11
2431.3858818993949
 21
170.21450008584452
  0
LINE
  8
_e-0_
  6
CONTINUOUS
 62
    7
 10
2406.8858818993949
 20
165.21450008584452
 11
2431.3858818993949
 21
165.21450008584452
  0
LINE
  8
_e-0_
  6
CONTINUOUS
 62
    7
 10
2406.8858818993949
 20
170.21450008584452
 11
2431.3858818993949
 21
170.21450008584452
  0
LINE
  8
_e-0_
  6
CONTINUOUS
 62
    7
 10
2243.7859302690862
 20
199.51965480360598
 11
2272.9339284698526
 21
210.12865853712995
  0
LINE
  8
_e-0_
  6
CONTINUOUS
 62
    7
 10
2237.6336615052864
 20
191.95952323799758
 11
2287.5529504706664
 21
210.12865853712895
  0
LINE
  8
_e-0_
  6
CONTINUOUS
 62
    7
 10
2234.2067375789874
 20
185.39133607135255
 11
2263.8643430051361
 21
196.18582166608263
  0
LINE
  8
_e-0_
  6
CONTINUOUS
 62
    7
 10
2232.2119570371696
 20
179.34440646785787
 11
2253.9586582709303
 21
187.25955841042662
  0
LINE
  8
_e-0_
  6
CONTINUOUS
 62
    7
 10
2231.2024514117429
 20
173.65608760649877
 11
2249.4574587956462
 21
180.3003669205492
  0
LINE
  8
_e-0_
  6
CONTINUOUS
 62
    7
 10
2230.9649088875535
 20
168.248740335938
 11
2249.3748102388385
 21
174.94939644358311
  0
LINE
  8
_e-0_
  6
CONTINUOUS
 62
    7
 10
2231.3837497438626
 20
163.08029707814966
 11
2249.8286640768278
 21
169.79369686893903
  0
LINE
  8
_e-0_
  6
CONTINUOUS
 62
    7
 10
2232.3950068941753
 20
158.12747571767488
 11
2251.2695688182666
 21
164.99725444285843
  0
LINE
  8
_e-0_
  6
CONTINUOUS
 62
    7
 10
2233.9675550564961
 20
153.37894757832998
 11
2253.6625167678694
 21
160.54732740628253
  0
LINE
  8
_e-0_
  6
CONTINUOUS
 62
    7
 10
2236.0955302019183
 20
148.83257832814223
 11
2257.099910488102
 21
156.47754754152117
  0
LINE
  8
_e-0_
  6
CONTINUOUS
 62
    7
 10
2238.7970089264299
 20
144.49494730998821
 11
2261.880116002736
 21
152.89651120014326
  0
LINE
  8
_e-0_
  6
CONTINUOUS
 62
    7
 10
2242.1181877425697
 20
140.38286867935909
 11
2268.9468388985251
 21
150.14769912563821
  0
LINE
  8
_e-0_
  6
CONTINUOUS
 62
    7
 10
2246.1455691824353
 20
136.52782678312661
 11
2284.5651405528201
 21
150.51140717521263
  0
LINE
  8
_e-0_
  6
CONTINUOUS
 62
    7
 10
2251.0351047702793
 20
132.98658333410969
 11
2279.184482257649
 21
143.2321188526356
  0
LINE
  8
_e-0_
  6
CONTINUOUS
 62
    7
 10
2279.5849322183671
 20
201.90764820482513
 11
2302.1719724714803
 21
210.12865853713066
  0
LINE
  8
_e-0_
  6
CONTINUOUS
 62
    7
 10
2260.5624543087292
 20
189.663143601351
 11
2313.0511299164631
 21
208.76745915862059
  0
LINE
  8
_e-0_
  6
CONTINUOUS
 62
    7
 10
2273.069618849473
 20
188.89449034687174
 11
2313.0511299164631
 21
203.44657029624102
  0
LINE
  8
_e-0_
  6
CONTINUOUS
 62
    7
 10
2287.6886408502887
 20
188.89449034687174
 11
2313.0511299164631
 21
198.12568143386158
  0
LINE
  8
_e-0_
  6
CONTINUOUS
 62
    7
 10
2291.8751463425487
 20
185.09736486926669
 11
2313.0511299164631
 21
192.80479257148215
  0
LINE
  8
_e-0_
  6
CONTINUOUS
 62
    7
 10
2291.8751463425487
 20
179.77647600688726
 11
2313.0511299164631
 21
187.48390370910215
  0
LINE
  8
_e-0_
  6
CONTINUOUS
 62
    7
 10
2291.8751463425487
 20
174.45558714450783
 11
2313.0511299164631
 21
182.16301484672271
  0
LINE
  8
_e-0_
  6
CONTINUOUS
 62
    7
 10
2291.8751463425487
 20
169.13469828212839
 11
2313.0511299164631
 21
176.84212598434328
  0
LINE
  8
_e-0_
  6
CONTINUOUS
 62
    7
 10
2291.8008475696447
 20
163.78676687796939
 11
2313.0511299164631
 21
171.52123712196384
  0
LINE
  8
_e-0_
  6
CONTINUOUS
 62
    7
 10
2290.6539909363364
 20
158.04845633809463
 11
2313.0511299164631
 21
166.20034825958413
  0
LINE
  8
_e-0_
  6
CONTINUOUS
 62
    7
 10
2288.3949962857823
 20
151.90536066354695
 11
2313.0511299164631
 21
160.87945939720469
  0
LINE
  8
_e-0_
  6
CONTINUOUS
 62
    7
 10
2284.4003861827627
 20
145.13055262616916
 11
2311.8608666367172
 21
155.12535013005759
  0
LINE
  8
_e-0_
  6
CONTINUOUS
 62
    7
 10
2275.7463468865148
 20
136.65985105378524
 11
2309.0387712913648
 21
148.77730256370853
  0
LINE
  8
_e-0_
  6
CONTINUOUS
 62
    7
 10
2266.9791201478205
 20
128.14795262145821
 11
2304.1703780821812
 21
141.68446348448242
  0
LINE
  8
_e-0_
  6
CONTINUOUS
 62
    7
 10
2282.1376414569663
 20
128.34431431109749
 11
2292.724458387317
 21
132.19760054937069
  0
LINE
  8
_e-0_
  6
CONTINUOUS
 62
    3
 10
2266.4464672734898
 20
197.56612819678281
 11
2262.3244734593249
 21
194.75680664380121
  0
LINE
  8
_e-0_
  6
CONTINUOUS
 62
    3
 10
2282.3868421919432
 20
128.14795262145651
 11
2266.9204010401699
 21
128.14795262145651
  0
ARC
  8
_e-0_
  6
CONTINUOUS
 62
    3
 10
2282.3868421919432
 20
133.14795262145651
 40
5
 50
270
 51
286.20399351045659
  0
LINE
  8
_e-0_
  6
CONTINUOUS
 62
    3
 10
2313.2288608412609
 20
210.12865853712895
 11
2313.2288608412609
 21
159.77346730566921
  0
ARC
  8
_e-0_
  6
CONTINUOUS
 62
    3
 10
2271.9221657766447
 20
169.15823653484835
 40
42.5
 50
286.20399351045648
 51
345.50707147989851
  0
ARC
  8
_e-0_
  6
CONTINUOUS
 62
    3
 10
2308.2288608412609
 20
159.77346730566921
 40
5
 50
345.50707147989879
 51
0.0000000000000159
  0
ARC
  8
_e-0_
  6
CONTINUOUS
 62
    3
 10
2250.0927387377205
 20
170.4956084628958
 40
40
 50
279.71265316664215
 51
332.69093929010892
  0
ARC
  8
_e-0_
  6
CONTINUOUS
 62
    3
 10
2255.9974857549714
 20
135.99729020443191
 40
5
 50
241.9452628118
 51
279.71265316664221
  0
ARC
  8
_e-0_
  6
CONTINUOUS
 62
    3
 10
2263.2643122966178
 20
205.12865853712895
 40
5
 50
90
 51
106.05338143786268
  0
LINE
  8
_e-0_
  6
CONTINUOUS
 62
    3
 10
2288.4334989152221
 20
210.12865853712881
 11
2278.2181989551913
 21
205.24067691222057
  0
LINE
  8
_e-0_
  6
CONTINUOUS
 62
    3
 10
2278.2181989551913
 20
205.24067691222057
 11
2272.2994583375816
 21
201.4444897898403
  0
LINE
  8
_e-0_
  6
CONTINUOUS
 62
    3
 10
2266.4464672734898
 20
197.56612819678252
 11
2272.2994583375811
 21
201.4444897898403
  0
ARC
  8
_e-0_
  6
CONTINUOUS
 62
    3
 10
2263.2643122966178
 20
205.12865853712895
 40
5
 50
90
 51
106.05338143786268
  0
ARC
  8
_e-0_
  6
CONTINUOUS
 62
    3
 10
2263.2643122966178
 20
205.12865853712895
 40
5
 50
90
 51
106.05338143786268
  0
LINE
  8
_e-0_
  6
CONTINUOUS
 62
    3
 10
2288.4334989152216
 20
210.12865853712895
 11
2263.2643122966178
 21
210.12865853712895
  0
ARC
  8
_e-0_
  6
CONTINUOUS
 62
    3
 10
2273.6342932765637
 20
169.09099082020304
 40
42.5
 50
106.05338143786268
 51
241.94526281180051
  0
ARC
  8
_e-0_
  6
CONTINUOUS
 62
    3
 10
2263.2643122966178
 20
205.12865853712895
 40
5
 50
90
 51
106.05338143786268
  0
LINE
  8
_e-0_
  6
CONTINUOUS
 62
    3
 10
2299.1719829458552
 20
210.12865853712895
 11
2313.2288608412609
 21
210.12865853712895
  0
ARC
  8
_e-0_
  6
CONTINUOUS
 62
    3
 10
2299.1719829458552
 20
205.12865853712895
 40
5
 50
90
 51
112.84552721528325
  0
LINE
  8
_e-0_
  6
CONTINUOUS
 62
    3
 10
2292.0528772673465
 20
188.89449034687004
 11
2269.0173546029673
 21
188.89449034687004
  0
ARC
  8
_e-0_
  6
CONTINUOUS
 62
    3
 10
2269.0173546029673
 20
183.89449034687004
 40
5
 50
90
 51
110.93110431809542
  0
ARC
  8
_e-0_
  6
CONTINUOUS
 62
    3
 10
2254.2292662802574
 20
177.70386452217394
 40
0.5
 50
165.368776721252
 51
224.67319701305797
  0
LINE
  8
_e-0_
  6
CONTINUOUS
 62
    3
 10
2253.8737020580624
 20
177.3523334653737
 11
2253.6837582739271
 21
177.54445650133447
  0
ARC
  8
_e-0_
  6
CONTINUOUS
 62
    3
 10
2276.1622566207875
 20
165.2142768803236
 40
25
 50
110.93110431809527
 51
150.17701829297229
  0
ARC
  8
_e-0_
  6
CONTINUOUS
 62
    3
 10
2254.0393224961217
 20
177.89598755813472
 40
0.5
 50
224.67319701305652
 51
330.17701829297561
  0
LINE
  8
_e-0_
  6
CONTINUOUS
 62
    3
 10
2297.2307430642558
 20
209.73643324104926
 11
2283.5233941157548
 21
203.96157353985984
  0
LINE
  8
_e-0_
  6
CONTINUOUS
 62
    3
 10
2283.5233941157548
 20
203.96157353985984
 11
2277.114528385443
 21
200.4613679180602
  0
ARC
  8
_e-0_
  6
CONTINUOUS
 62
    3
 10
2277.9347719955744
 20
171.51524603489747
 40
25
 50
126.05682261028302
 51
165.36877672125814
  0
ARC
  8
_e-0_
  6
CONTINUOUS
 62
    3
 10
2322.0287923520791
 20
111.11536133502738
 40
100
 50
116.68868989749238
 51
126.03335467187628
  0
LINE
  8
_e-0_
  6
CONTINUOUS
 62
    3
 10
2262.3244734593245
 20
194.75680664380149
 11
2254.3560414411385
 21
187.50185893935451
  0
LINE
  8
_e-0_
  6
CONTINUOUS
 62
    3
 10
2254.3560414411385
 20
187.50185893935451
 11
2252.5108960046536
 21
185.36863764275494
  0
ARC
  8
_e-0_
  6
CONTINUOUS
 62
    3
 10
2274.5493829743445
 20
174.5520307550089
 40
25
 50
169.07329675873063
 51
296.32138326661799
  0
LINE
  8
_e-0_
  6
CONTINUOUS
 62
    3
 10
2252.5108960046536
 20
185.36863764275494
 11
2250.0026210661126
 21
179.29085759512361
  0
LINE
  8
_e-0_
  6
CONTINUOUS
 62
    3
 10
2292.0528772673465
 20
188.89449034687004
 11
2292.0528772673465
 21
164.42425885831653
  0
ARC
  8
_e-0_
  6
CONTINUOUS
 62
    3
 10
2277.2840925230507
 20
144.13090983307199
 40
5
 50
311.4163090429962
 51
326.13300916724881
  0
ARC
  8
_e-0_
  6
CONTINUOUS
 62
    3
 10
2252.2859410885325
 20
168.73596234419835
 40
40
 50
316.78132524618342
 51
353.81191653224226
  0
ARC
  8
_e-0_
  6
CONTINUOUS
 62
    3
 10
2240.9001979970048
 20
185.376663785662
 40
60
 50
294.69555798319504
 51
311.41630904299643
  0
ARC
  8
_e-0_
  6
CONTINUOUS
 62
    3
 10
2271.9268153318698
 20
202.98067150791609
 40
75
 50
264.68313230529076
 51
266.17253517307824
  0
ARC
  8
_e-0_
  6
CONTINUOUS
 62
    3
 10
2265.0233680716155
 20
128.80121063143832
 40
0.5
 50
174.02086603460466
 51
264.68313230528985
  0
ARC
  8
_e-0_
  6
CONTINUOUS
 62
    3
 10
2267.0124878650103
 20
128.59287809071872
 40
2.5
 50
114.69555798319522
 51
174.02086603461154
  0
LINE
  8
_e-0_
  6
CONTINUOUS
 62
    7
 10
2376.8899919095938
 20
169.43032024062034
 11
2388.2618909747957
 21
173.56935300743344
  0
LINE
  8
_e-0_
  6
CONTINUOUS
 62
    3
 10
2436.2585234464268
 20
162.63312492519389
 11
2436.2585234464268
 21
136.49018622829544
  0
CIRCLE
  8
_e-0_
  6
CONTINUOUS
 62
    3
 10
2365.5167430510382
 20
162.46293449130519
 40
13.33773795583065
  0
CIRCLE
  8
_e-0_
  6
CONTINUOUS
 62
    3
 10
2365.2330256036634
 20
162.17921704393006
 40
25.691707563897665
  0
LINE
  8
_e-0_
  6
CONTINUOUS
 62
    3
 10
2399.4939617252575
 20
188.26250382114977
 11
2399.4939617252575
 21
136.49018622829544
  0
LINE
  8
_e-0_
  6
CONTINUOUS
 62
    3
 10
2399.4939617252575
 20
136.49018622829544
 11
2414.856930753669
 21
136.49018622829544
  0
LINE
  8
_e-0_
  6
CONTINUOUS
 62
    3
 10
2414.856930753669
 20
136.49018622829544
 11
2414.856930753669
 21
172.63312492519389
  0
LINE
  8
_e-0_
  6
CONTINUOUS
 62
    3
 10
2451.1774760289299
 20
136.49018622829544
 11
2436.2585234464268
 21
136.49018622829544
  0
LINE
  8
_e-0_
  6
CONTINUOUS
 62
    3
 10
2426.2585234464268
 20
172.63312492519389
 11
2414.856930753669
 21
172.63312492519389
  0
ARC
  8
_e-0_
  6
CONTINUOUS
 62
    3
 10
2426.2585234464268
 20
162.63312492519389
 40
10
 50
0
 51
90
  0
LINE
  8
_e-0_
  6
CONTINUOUS
 62
    3
 10
2426.1774760289299
 20
188.26250382114977
 11
2399.4939617252575
 21
188.26250382114977
  0
LINE
  8
_e-0_
  6
CONTINUOUS
 62
    3
 10
2451.1774760289299
 20
163.26250382114977
 11
2451.1774760289299
 21
136.49018622829544
  0
ARC
  8
_e-0_
  6
CONTINUOUS
 62
    3
 10
2426.1774760289299
 20
163.26250382114977
 40
25
 50
0
 51
90
  0
ARC
  8
_e-0_
  6
CONTINUOUS
 62
    3
 10
2486.2452606175229
 20
162.17653762406428
 40
13.33773795583065
 50
23.422555400004949
 51
97.191484740792631
  0
LINE
  8
_e-0_
  6
CONTINUOUS
 62
    3
 10
2474.0065761310625
 20
167.47841048365671
 11
2498.4839451039833
 21
167.47841048365671
  0
ARC
  8
_e-0_
  6
CONTINUOUS
 62
    3
 10
2486.2452606175229
 20
162.17653762406428
 40
13.33773795583065
 50
92.530763017635237
 51
156.57744459999506
  0
ARC
  8
_e-0_
  6
CONTINUOUS
 62
    3
 10
2486.2452606175229
 20
162.17653762406428
 40
13.33773795583065
 50
204.21097500392608
 51
316.0067678116265
  0
LINE
  8
_e-0_
  6
CONTINUOUS
 62
    3
 10
2474.0806890359867
 20
156.70676139316753
 11
2511.520075356238
 21
156.70676139316753
  0
LINE
  8
_e-0_
  6
CONTINUOUS
 62
    3
 10
2495.8407207162622
 20
152.91249966689292
 11
2508.7092412098891
 21
149.78943472664496
  0
ARC
  8
_e-0_
  6
CONTINUOUS
 62
    3
 10
2486.5655867677851
 20
162.8171899245882
 40
25.691707563897665
 50
346.24110979921471
 51
329.53046432565093
  0
ARC
  8
_e-0_
  6
CONTINUOUS
 62
    3
 10
2546.5135590423406
 20
162.14309845353909
 40
11.089756641867943
 50
94.502189492040685
 51
357.22978420280037
  0
LINE
  8
_e-0_
  6
CONTINUOUS
 62
    3
 10
2556.5903561511468
 20
173.19863581905565
 11
2545.6430442891501
 21
173.19863581905565
  0
LINE
  8
_e-0_
  6
CONTINUOUS
 62
    3
 10
2557.5903561511468
 20
172.19863581905599
 11
2557.5903561511468
 21
161.60712439988742
  0
ARC
  8
_e-0_
  6
CONTINUOUS
 62
    3
 10
2556.5903561511468
 20
172.19863581905599
 40
1
 50
0
 51
90
  0
LINE
  8
_e-0_
  6
CONTINUOUS
 62
    3
 10
2548.9703457355517
 20
188.29058742736094
 11
2557.393077545817
 21
188.29058742736094
  0
ARC
  8
_e-0_
  6
CONTINUOUS
 62
    3
 10
2546.9662856612039
 20
162.67716163604518
 40
25.691707563897665
 50
85.526146014136969
 51
347.40557840019874
  0
LINE
  8
_e-0_
  6
CONTINUOUS
 62
    3
 10
2557.393077545817
 20
209.12865853712901
 11
2557.393077545817
 21
188.29058742736094
  0
ARC
  8
_e-0_
  6
CONTINUOUS
 62
    3
 10
2558.3930775458175
 20
209.12865853712901
 40
1
 50
90
 51
180
  0
LINE
  8
_e-0_
  6
CONTINUOUS
 62
    3
 10
2572.0397992563612
 20
209.12865853712901
 11
2572.0397992563612
 21
157.07513043814088
  0
LINE
  8
_e-0_
  6
CONTINUOUS
 62
    3
 10
2571.0397992563616
 20
210.12865853712895
 11
2558.3930775458175
 21
210.12865853712895
  0
ARC
  8
_e-0_
  6
CONTINUOUS
 62
    3
 10
2571.0397992563616
 20
209.12865853712901
 40
1
 50
0
 51
90
  0
CIRCLE
  8
_e-0_
  6
CONTINUOUS
 62
    3
 10
2607.4932845795829
 20
162.61858771142584
 40
13.33773795583065
  0
CIRCLE
  8
_e-0_
  6
CONTINUOUS
 62
    3
 10
2607.2095671322081
 20
162.334870264051
 40
25.691707563897665
  0
ARC
  8
_e-0_
  6
CONTINUOUS
 62
    3
 10
2361.3056445788683
 20
183.56108960512415
 40
5
 50
90
 51
106.05338143786268
  0
ARC
  8
_e-0_
  6
CONTINUOUS
 62
    3
 10
2361.3056445788683
 20
183.56108960512415
 40
5
 50
90
 51
106.05338143786268
  0
ARC
  8
_e-0_
  6
CONTINUOUS
 62
    3
 10
2361.3056445788683
 20
183.56108960512415
 40
5
 50
90
 51
106.05338143786268
  0
ARC
  8
_e-0_
  6
CONTINUOUS
 62
    3
 10
2361.3056445788683
 20
183.56108960512415
 40
5
 50
90
 51
106.05338143786268
  0
LINE
  8
_e-0_
  6
CONTINUOUS
 62
    7
 10
2346.3470804331013
 20
179.59716504486777
 11
2368.504457793455
 21
187.66179087344028
  0
LINE
  8
_e-0_
  6
CONTINUOUS
 62
    7
 10
2361.2415063076141
 20
179.69740385729494
 11
2376.5205845613299
 21
185.25853354867166
  0
LINE
  8
_e-0_
  6
CONTINUOUS
 62
    7
 10
2341.7511550984827
 20
172.60349616177705
 11
2361.2415063076141
 21
179.69740385729494
  0
LINE
  8
_e-0_
  6
CONTINUOUS
 62
    7
 10
2339.9278406436087
 20
166.61897511011602
 11
2357.2356669233163
 21
172.91850869577984
  0
LINE
  8
_e-0_
  6
CONTINUOUS
 62
    7
 10
2339.5613566552269
 20
161.16469698463049
 11
2352.6357267551811
 21
165.92337853279389
  0
LINE
  8
_e-0_
  6
CONTINUOUS
 62
    7
 10
2340.2704529847874
 20
156.10189807943811
 11
2352.3257797311657
 21
160.489678179473
  0
LINE
  8
_e-0_
  6
CONTINUOUS
 62
    7
 10
2341.9204823498939
 20
151.38157079162255
 11
2353.979457153569
 21
155.77067867592631
  0
LINE
  8
_e-0_
  6
CONTINUOUS
 62
    7
 10
2344.5041289741066
 20
147.00105239631881
 11
2357.564943671171
 21
151.75480018131679
  0
LINE
  8
_e-0_
  6
CONTINUOUS
 62
    7
 10
2348.1361647674007
 20
143.00211645248765
 11
2364.9879954656798
 21
149.13568121955449
  0
LINE
  8
_e-0_
  6
CONTINUOUS
 62
    7
 10
2353.1501292054063
 20
139.50616140121155
 11
2375.2534753949121
 21
147.55112149187283
  0
LINE
  8
_e-0_
  6
CONTINUOUS
 62
    7
 10
2360.6217579801259
 20
136.90472301431668
 11
2375.3071030149835
 21
142.24975148693374
  0
LINE
  8
_e-0_
  6
CONTINUOUS
 62
    7
 10
2375.3071030149835
 20
142.24975148693374
 11
2385.0115931457403
 21
145.78189703325932
  0
LINE
  8
_e-0_
  6
CONTINUOUS
 62
    7
 10
2374.400153819834
 20
147.24053783828736
 11
2389.0630204872036
 21
152.57738485422379
  0
LINE
  8
_e-0_
  6
CONTINUOUS
 62
    7
 10
2374.4883804748506
 20
152.59353857696169
 11
2390.6567834919524
 21
158.47835601080646
  0
LINE
  8
_e-0_
  6
CONTINUOUS
 62
    7
 10
2378.4912308361022
 20
159.37134582305873
 11
2390.8686178519892
 21
163.87634627483464
  0
LINE
  8
_e-0_
  6
CONTINUOUS
 62
    7
 10
2378.6565159204474
 20
164.75239353630797
 11
2390.0320630429455
 21
168.89275408738967
  0
LINE
  8
_e-0_
  6
CONTINUOUS
 62
    7
 10
2365.1397018509301
 20
175.7953421400316
 11
2381.7641004494607
 21
181.84612839247364
  0
LINE
  8
_e-0_
  6
CONTINUOUS
 62
    7
 10
2373.1598434523216
 20
173.39354609515908
 11
2385.5507858710998
 21
177.90348031010012
  0
LINE
  8
_e-0_
  6
CONTINUOUS
 62
    7
 10
2399.4939617252575
 20
182.97838129215278
 11
2414.0119690553083
 21
188.26250382114977
  0
LINE
  8
_e-0_
  6
CONTINUOUS
 62
    7
 10
2399.4939617252575
 20
177.65749242977335
 11
2428.3670442872125
 21
188.16643505383524
  0
LINE
  8
_e-0_
  6
CONTINUOUS
 62
    7
 10
2399.4939617252575
 20
172.33660356739392
 11
2436.7743097980664
 21
185.90554058897964
  0
LINE
  8
_e-0_
  6
CONTINUOUS
 62
    7
 10
2399.4939617252575
 20
167.01571470501448
 11
2442.1110032081055
 21
182.52704927725858
  0
LINE
  8
_e-0_
  6
CONTINUOUS
 62
    7
 10
2399.4939617252575
 20
161.69482584263505
 11
2414.856930753669
 21
167.28648927893004
  0
LINE
  8
_e-0_
  6
CONTINUOUS
 62
    7
 10
2428.7090082786239
 20
172.32823318076128
 11
2445.9244086202584
 21
178.5941264760919
  0
LINE
  8
_e-0_
  6
CONTINUOUS
 62
    7
 10
2399.4939617252575
 20
156.37393698025562
 11
2414.856930753669
 21
161.96560041655061
  0
LINE
  8
_e-0_
  6
CONTINUOUS
 62
    7
 10
2403.3398935234454
 20
136.49018622829544
 11
2414.856930753669
 21
140.68204496703231
  0
LINE
  8
_e-0_
  6
CONTINUOUS
 62
    7
 10
2399.4939617252575
 20
140.41127039311675
 11
2414.856930753669
 21
146.00293382941202
  0
LINE
  8
_e-0_
  6
CONTINUOUS
 62
    7
 10
2399.4939617252575
 20
145.73215925549646
 11
2414.856930753669
 21
151.32382269179146
  0
LINE
  8
_e-0_
  6
CONTINUOUS
 62
    7
 10
2399.4939617252575
 20
151.0530481178759
 11
2414.856930753669
 21
156.64471155417118
  0
LINE
  8
_e-0_
  6
CONTINUOUS
 62
    7
 10
2436.2585234464268
 20
159.113365397844
 11
2451.1774760289299
 21
164.5434200643038
  0
LINE
  8
_e-0_
  6
CONTINUOUS
 62
    7
 10
2436.2585234464268
 20
153.79247653546485
 11
2451.1774760289299
 21
159.22253120192465
  0
LINE
  8
_e-0_
  6
CONTINUOUS
 62
    7
 10
2436.105047565391
 20
164.37839360784892
 11
2450.3687179376247
 21
169.56994505472636
  0
LINE
  8
_e-0_
  6
CONTINUOUS
 62
    7
 10
2436.2585234464268
 20
148.47158767308542
 11
2451.1774760289299
 21
153.90164233954521
  0
LINE
  8
_e-0_
  6
CONTINUOUS
 62
    7
 10
2436.2585234464268
 20
143.1506988107057
 11
2451.1774760289299
 21
148.5807534771655
  0
LINE
  8
_e-0_
  6
CONTINUOUS
 62
    7
 10
2436.2585234464268
 20
137.82980994832598
 11
2451.1774760289299
 21
143.25986461478606
  0
LINE
  8
_e-0_
  6
CONTINUOUS
 62
    7
 10
2447.1969595258929
 20
136.49018622829544
 11
2451.1774760289299
 21
137.93897575240634
  0
LINE
  8
_e-0_
  6
CONTINUOUS
 62
    7
 10
2434.0189024056153
 20
168.93998772771169
 11
2448.6296862431445
 21
174.25787814386978
  0
LINE
  8
_e-0_
  6
CONTINUOUS
 62
    7
 10
2469.1883842563338
 20
181.74063227593791
 11
2487.7135419125711
 21
188.48323824789645
  0
LINE
  8
_e-0_
  6
CONTINUOUS
 62
    7
 10
2463.6316388937821
 20
174.39725350219305
 11
2496.6904887083792
 21
186.42969081378254
  0
LINE
  8
_e-0_
  6
CONTINUOUS
 62
    7
 10
2461.4628990865917
 20
168.28700790412767
 11
2502.2794299488264
 21
183.14301020398858
  0
LINE
  8
_e-0_
  6
CONTINUOUS
 62
    7
 10
2461.4992419870627
 20
162.97934677574687
 11
2473.9894671720021
 21
167.52541696234658
  0
LINE
  8
_e-0_
  6
CONTINUOUS
 62
    7
 10
2492.1508316310541
 20
174.13561303910114
 11
2506.2885679576879
 21
179.28132824190015
  0
LINE
  8
_e-0_
  6
CONTINUOUS
 62
    7
 10
2496.6927278595248
 20
170.46783921101109
 11
2509.1784918759249
 21
175.01228566505261
  0
LINE
  8
_e-0_
  6
CONTINUOUS
 62
    7
 10
2463.2093427036916
 20
158.28088367181749
 11
2488.4793399340492
 21
167.47841048365671
  0
LINE
  8
_e-0_
  6
CONTINUOUS
 62
    7
 10
2462.888879459625
 20
152.84335572742151
 11
2511.1140538755621
 21
170.39588375711787
  0
LINE
  8
_e-0_
  6
CONTINUOUS
 62
    7
 10
2465.300291731432
 20
148.400149154524
 11
2476.9283430630939
 21
152.63241372176821
  0
LINE
  8
_e-0_
  6
CONTINUOUS
 62
    7
 10
2488.1225212892718
 20
156.70676139316753
 11
2512.1228430370119
 21
165.44216412215632
  0
LINE
  8
_e-0_
  6
CONTINUOUS
 62
    7
 10
2502.7415432900875
 20
156.70676139316753
 11
2512.1151621126955
 21
160.11847963195407
  0
LINE
  8
_e-0_
  6
CONTINUOUS
 62
    7
 10
2468.7281740890048
 20
144.32690743686691
 11
2482.5550140975401
 21
149.35946563393486
  0
LINE
  8
_e-0_
  6
CONTINUOUS
 62
    7
 10
2473.4508580764295
 20
140.72493497175571
 11
2502.4973614552441
 21
151.29699761115659
  0
LINE
  8
_e-0_
  6
CONTINUOUS
 62
    7
 10
2480.3069495598269
 20
137.89945933273884
 11
2507.3767895083869
 21
147.75207532036432
  0
LINE
  8
_e-0_
  6
CONTINUOUS
 62
    7
 10
2552.6231690921713
 20
137.61596638527407
 11
2558.7418873346696
 21
139.84299769740459
  0
LINE
  8
_e-0_
  6
CONTINUOUS
 62
    7
 10
2539.4012676014826
 20
138.12447666464265
 11
2568.5435873921023
 21
148.73141362589478
  0
LINE
  8
_e-0_
  6
CONTINUOUS
 62
    7
 10
2532.9976800904728
 20
141.11465028049622
 11
2571.5269734698549
 21
155.13816621790056
  0
LINE
  8
_e-0_
  6
CONTINUOUS
 62
    7
 10
2522.0818643547745
 20
169.06695144424446
 11
2572.0397992563612
 21
187.25015271383
  0
LINE
  8
_e-0_
  6
CONTINUOUS
 62
    7
 10
2524.5896829795606
 20
175.30061163898437
 11
2572.0397992563612
 21
192.57104157620943
  0
LINE
  8
_e-0_
  6
CONTINUOUS
 62
    7
 10
2557.393077545817
 20
208.52362629350906
 11
2561.8028673926596
 21
210.12865853712895
  0
LINE
  8
_e-0_
  6
CONTINUOUS
 62
    7
 10
2557.393077545817
 20
203.20273743112977
 11
2572.0397992563612
 21
208.53370816334788
  0
LINE
  8
_e-0_
  6
CONTINUOUS
 62
    7
 10
2557.393077545817
 20
197.88184856875005
 11
2572.0397992563612
 21
203.21281930096859
  0
LINE
  8
_e-0_
  6
CONTINUOUS
 62
    7
 10
2557.393077545817
 20
192.56095970637034
 11
2572.0397992563612
 21
197.89193043858915
  0
LINE
  8
_e-0_
  6
CONTINUOUS
 62
    7
 10
2531.3600319802562
 20
183.08570601321093
 11
2545.8030101140193
 21
188.34252014805827
  0
LINE
  8
_e-0_
  6
CONTINUOUS
 62
    7
 10
2548.0525958796984
 20
173.19863581905565
 11
2572.0397992563612
 21
181.92926385145057
  0
LINE
  8
_e-0_
  6
CONTINUOUS
 62
    7
 10
2521.2864022906333
 20
163.45653806802943
 11
2538.3752084417083
 21
169.67635484616607
  0
LINE
  8
_e-0_
  6
CONTINUOUS
 62
    7
 10
2521.6554107736328
 20
158.26995730965364
 11
2535.4846691325356
 21
163.30339571427089
  0
LINE
  8
_e-0_
  6
CONTINUOUS
 62
    7
 10
2522.9940114609521
 20
153.43627925302655
 11
2536.1404517985765
 21
158.22119222247806
  0
LINE
  8
_e-0_
  6
CONTINUOUS
 62
    7
 10
2525.2563435788042
 20
148.93881194156961
 11
2539.0354883761392
 21
153.95401050144357
  0
LINE
  8
_e-0_
  6
CONTINUOUS
 62
    7
 10
2528.5117312327797
 20
144.80278728623488
 11
2545.7561370732082
 21
151.07923771975691
  0
LINE
  8
_e-0_
  6
CONTINUOUS
 62
    7
 10
2554.2054905278619
 20
154.15455087604527
 11
2572.0397992563612
 21
160.64570840193255
  0
LINE
  8
_e-0_
  6
CONTINUOUS
 62
    7
 10
2557.505937791675
 20
160.67670430221767
 11
2572.0397992563612
 21
165.96659726431198
  0
LINE
  8
_e-0_
  6
CONTINUOUS
 62
    7
 10
2557.5903561511468
 20
166.02831893467055
 11
2572.0397992563612
 21
171.28748612669141
  0
LINE
  8
_e-0_
  6
CONTINUOUS
 62
    7
 10
2557.5903561511468
 20
171.34920779704998
 11
2572.0397992563612
 21
176.60837498907085
  0
LINE
  8
_e-0_
  6
CONTINUOUS
 62
    7
 10
2595.1467628188602
 20
185.01862193009401
 11
2601.869376832742
 21
187.46545332760774
  0
LINE
  8
_e-0_
  6
CONTINUOUS
 62
    7
 10
2585.5936460434281
 20
176.22068291698809
 11
2614.84269504143
 21
186.86646613285404
  0
LINE
  8
_e-0_
  6
CONTINUOUS
 62
    7
 10
2608.5181174973604
 20
136.67650840108905
 11
2622.7000364868072
 21
141.83830477802189
  0
LINE
  8
_e-0_
  6
CONTINUOUS
 62
    7
 10
2598.2444761483161
 20
138.25809761488983
 11
2629.5534764025942
 21
149.65364177207987
  0
LINE
  8
_e-0_
  6
CONTINUOUS
 62
    7
 10
2582.6330921261528
 20
169.82224055178022
 11
2621.2234503919621
 21
183.86798229020314
  0
LINE
  8
_e-0_
  6
CONTINUOUS
 62
    7
 10
2592.2968185805398
 20
141.41421615899105
 11
2632.0809325371142
 21
155.89444943583799
  0
LINE
  8
_e-0_
  6
CONTINUOUS
 62
    7
 10
2588.0695495912832
 20
145.19650493704432
 11
2602.246111940276
 21
150.35635165629656
  0
LINE
  8
_e-0_
  6
CONTINUOUS
 62
    7
 10
2585.0094293819529
 20
149.40360112995108
 11
2597.3909335115822
 21
153.91010008858017
  0
LINE
  8
_e-0_
  6
CONTINUOUS
 62
    7
 10
2582.919829983693
 20
153.96393800982366
 11
2594.8695180063709
 21
158.31326875884542
  0
LINE
  8
_e-0_
  6
CONTINUOUS
 62
    7
 10
2581.7538748691904
 20
158.86045391603374
 11
2594.1774270088017
 21
163.38225709870641
  0
LINE
  8
_e-0_
  6
CONTINUOUS
 62
    7
 10
2581.5798124660104
 20
164.11798924475078
 11
2595.9853391150809
 21
169.36117215394091
  0
LINE
  8
_e-0_
  6
CONTINUOUS
 62
    7
 10
2611.9748325174678
 20
175.18087181340547
 11
2625.6969314853613
 21
180.17530738937352
  0
LINE
  8
_e-0_
  6
CONTINUOUS
 62
    7
 10
2617.2029460570038
 20
171.76286066078091
 11
2628.9430705154377
 21
176.03591651023151
  0
LINE
  8
_e-0_
  6
CONTINUOUS
 62
    7
 10
2619.9310564926913
 20
167.43492279278257
 11
2631.1973168341919
 21
171.53550620858254
  0
LINE
  8
_e-0_
  6
CONTINUOUS
 62
    7
 10
2620.8298424207368
 20
162.44116525518904
 11
2632.5279188691888
 21
166.69891688059578
  0
LINE
  8
_e-0_
  6
CONTINUOUS
 62
    7
 10
2619.394865425299
 20
156.5979874796136
 11
2632.8880000931144
 21
161.50908686564349
  0
TEXT
  8
_e-0_
 62
    7
 10
2642.8586825750176
 20
180.56247057449553
 40
35
 41
0.5714285714285711
 50
0
  1
ワンド
  0
TEXT
  8
_e-0_
 62
    7
 10
2649.7045100149039
 20
147.0179161190498
 40
30
 41
0.6666666666666666
 50
0
  1
株式
  0
TEXT
  8
_e-0_
 62
    7
 10
2649.0199272709151
 20
118.95002361551377
 40
30
 41
0.6666666666666666
 50
0
  1
会社
  0
TEXT
  8
_f-8_
 62
    7
 10
1593.75
 20
135.59405940594047
 40
45
 41
0.6666666666666666
 50
0
  1
ＫＴＤ５－８５－６０Ｔ
  0
ENDSEC
  0
EOF
