  0
SECTION
  2
HEADER
  9
$ACADVER
  1
AC1009
  9
$INSBASE
 10
0
 20
0
 30
0
  9
$EXTMIN
 10
0
 20
0
  9
$EXTMAX
 10
4200
 20
2970
  9
$LIMMIN
 10
0
 20
0
  9
$LIMMAX
 10
4200
 20
2970
  9
$LTSCALE
 40
10
  0
ENDSEC
  0
SECTION
  2
TABLES
  0
TABLE
  2
LTYPE
 70
     9
  0
LTYPE
  2
CONTINUOUS
 70
    64
  3
実線
 72
    65
 73
     0
 40
0.0
  0
LTYPE
  2
DASHED1
 70
    64
  3
--  --  --  --  --  --  --  --  
 72
    65
 73
     2
 40
2.5
 49
1.25
 49
-1.25
  0
LTYPE
  2
DASHED2
 70
    64
  3
----    ----    ----    ----    
 72
    65
 73
     2
 40
5.0
 49
2.5
 49
-2.5
  0
LTYPE
  2
DASHED3
 70
    64
  3
------  ------  ------  ------  
 72
    65
 73
     2
 40
5.0
 49
3.75
 49
-1.25
  0
LTYPE
  2
CENTER1
 70
    64
  3
----- - ----- - ----- - ----- - 
 72
    65
 73
     4
 40
10.0
 49
6.25
 49
-1.25
 49
1.25
 49
-1.25
  0
LTYPE
  2
CENTER2
 70
    64
  3
----------  --  ----------  --  
 72
    65
 73
     4
 40
20.0
 49
12.5
 49
-2.5
 49
2.5
 49
-2.5
  0
LTYPE
  2
PHANTOM1
 70
    64
  3
--- - - --- - - --- - - --- - - 
 72
    65
 73
     6
 40
10.0
 49
3.25
 49
-1.25
 49
1.25
 49
-1.25
 49
1.25
 49
-1.25
  0
LTYPE
  2
PHANTOM2
 70
    64
  3
--------  -  -  --------  -  -  
 72
    65
 73
     6
 40
20.0
 49
10.0
 49
-2.5
 49
1.25
 49
-2.5
 49
1.25
 49
-2.5
  0
LTYPE
  2
DOT
 70
    64
  3
-   -   -   -   -   -   -   -   
 72
    65
 73
     2
 40
2.5
 49
0.625
 49
-1.875
  0
LTYPE
  2
DUMMY
 70
    64
  3
ダミー
 72
    65
 73
     0
 40
0.0
  0
LTYPE
  2
RAND1
 70
    64
  3
ランダム線1
 72
    65
 73
     4
 40
10.0
 49
1.0
 49
-2.0
 49
3.0
 49
-4.0
  0
LTYPE
  2
RAND2
 70
    64
  3
ランダム線2
 72
    65
 73
     4
 40
14.0
 49
2.0
 49
-3.0
 49
4.0
 49
-5.0
  0
LTYPE
  2
RAND3
 70
    64
  3
ランダム線3
 72
    65
 73
     4
 40
18.0
 49
3.0
 49
-4.0
 49
5.0
 49
-6.0
  0
LTYPE
  2
RAND4
 70
    64
  3
ランダム線4
 72
    65
 73
     4
 40
22.0
 49
4.0
 49
-5.0
 49
6.0
 49
-7.0
  0
LTYPE
  2
RAND5
 70
    64
  3
ランダム線5
 72
    65
 73
     4
 40
26.0
 49
5.0
 49
-6.0
 49
7.0
 49
-8.0
  0
LTYPE
  2
LONG1
 70
    64
  3
----------  --  ----------  --  
 72
    65
 73
     4
 40
40.0
 49
32.5
 49
-2.5
 49
2.5
 49
-2.5
  0
LTYPE
  2
LONG2
 70
    64
  3
--------  -  -  --------  -  -  
 72
    65
 73
     6
 40
40.0
 49
30.0
 49
-2.5
 49
1.25
 49
-2.5
 49
1.25
 49
-2.5
  0
LTYPE
  2
LONG3
 70
    64
  3
+++++++++++++++..+++++++++++++++
 72
    65
 73
     2
 40
40.0
 49
37.5
 49
-2.5
  0
LTYPE
  2
LONG4
 70
    64
  3
+++++++++++++++..+++++++++++++++
 72
    65
 73
     2
 40
80.0
 49
75.0
 49
-5.0
  0
LTYPE
  2
LONG5
 70
    64
  3
----------  --  ----------  --  
 72
    65
 73
     4
 40
60.0
 49
37.5
 49
-7.5
 49
7.5
 49
-7.5
  0
LTYPE
  2
dashed
 70
   64
  3
-------   -------------   ------
 72
   65
 73
    2
 40
7.5
 49
6
 49
-1.5
  0
LTYPE
  2
dashed_spaced
 70
   64
  3
----        --------        ----
 72
   65
 73
    2
 40
12
 49
6
 49
-6
  0
LTYPE
  2
long_dashed_dotted
 70
   64
  3
------------- --- --------------
 72
   65
 73
    4
 40
15.25
 49
12
 49
-1.5
 49
0.25
 49
-1.5
  0
LTYPE
  2
long_dashed_double-dotted
 70
   64
  3
----------- --- --- ------------
 72
   65
 73
    6
 40
17
 49
12
 49
-1.5
 49
0.25
 49
-1.5
 49
0.25
 49
-1.5
  0
LTYPE
  2
long_dashed_triplicate-dotted
 70
   64
  3
--------- --- --- --- ----------
 72
   65
 73
    8
 40
18.75
 49
12
 49
-1.5
 49
0.25
 49
-1.5
 49
0.25
 49
-1.5
 49
0.25
 49
-1.5
  0
LTYPE
  2
dotted
 70
   64
  3
   -       -       -       -    
 72
   65
 73
    2
 40
1.75
 49
0.25
 49
-1.5
  0
LTYPE
  2
chain
 70
   64
  3
-------------- -- --------------
 72
   65
 73
    4
 40
18.5
 49
12
 49
-1.5
 49
3.5
 49
-1.5
  0
LTYPE
  2
chain_double_dash
 70
   64
  3
------------ -- -- -------------
 72
   65
 73
    6
 40
23.5
 49
12
 49
-1.5
 49
3.5
 49
-1.5
 49
3.5
 49
-1.5
  0
LTYPE
  2
dashed_dotted
 70
   64
  3
-----------     -     ----------
 72
   65
 73
    4
 40
9.25
 49
6
 49
-1.5
 49
0.25
 49
-1.5
  0
LTYPE
  2
double-dashed_dotted
 70
   64
  3
------   -----------   -   -----
 72
   65
 73
    6
 40
16.75
 49
6
 49
-1.5
 49
6
 49
-1.5
 49
0.25
 49
-1.5
  0
LTYPE
  2
dashed_double-dotted
 70
   64
  3
---------    -    -    ---------
 72
   65
 73
    6
 40
11
 49
6
 49
-1.5
 49
0.25
 49
-1.5
 49
0.25
 49
-1.5
  0
LTYPE
  2
double-dashed_double-dotted
 70
   64
  3
-----   ---------   -   -   ----
 72
   65
 73
    8
 40
18.5
 49
6
 49
-1.5
 49
6
 49
-1.5
 49
0.25
 49
-1.5
 49
0.25
 49
-1.5
  0
LTYPE
  2
dashed_triplicate-dotted
 70
   64
  3
-------    -    -    -    ------
 72
   65
 73
    8
 40
12.75
 49
6
 49
-1.5
 49
0.25
 49
-1.5
 49
0.25
 49
-1.5
 49
0.25
 49
-1.5
  0
LTYPE
  2
double-dashed_triplicate-dotted
 70
   64
  3
-----  ---------  -  -  -  -----
 72
   65
 73
   10
 40
20.25
 49
6
 49
-1.5
 49
6
 49
-1.5
 49
0.25
 49
-1.5
 49
0.25
 49
-1.5
 49
0.25
 49
-1.5
  0
LTYPE
  2
undefined
 70
   64
  3
--------------------------------
 72
   65
 73
    0
 40
0
  0
LTYPE
  2
_
 70
   64
  3
                                
 72
   65
 73
    0
 40
0
  0
LTYPE
  2
__18
 70
   64
  3
                                
 72
   65
 73
    0
 40
0
  0
LTYPE
  2
__19
 70
   64
  3
                                
 72
   65
 73
    0
 40
0
  0
LTYPE
  2
__20
 70
   64
  3
                                
 72
   65
 73
    0
 40
0
  0
LTYPE
  2
__21
 70
   64
  3
                                
 72
   65
 73
    0
 40
0
  0
LTYPE
  2
__22
 70
   64
  3
                                
 72
   65
 73
    0
 40
0
  0
LTYPE
  2
__23
 70
   64
  3
                                
 72
   65
 73
    0
 40
0
  0
LTYPE
  2
__24
 70
   64
  3
                                
 72
   65
 73
    0
 40
0
  0
LTYPE
  2
__25
 70
   64
  3
                                
 72
   65
 73
    0
 40
0
  0
LTYPE
  2
__26
 70
   64
  3
                                
 72
   65
 73
    0
 40
0
  0
LTYPE
  2
__27
 70
   64
  3
                                
 72
   65
 73
    0
 40
0
  0
LTYPE
  2
__28
 70
   64
  3
                                
 72
   65
 73
    0
 40
0
  0
LTYPE
  2
__29
 70
   64
  3
                                
 72
   65
 73
    0
 40
0
  0
LTYPE
  2
__30
 70
   64
  3
                                
 72
   65
 73
    0
 40
0
  0
LTYPE
  2
__31
 70
   64
  3
                                
 72
   65
 73
    0
 40
0
  0
LTYPE
  2
__32
 70
   64
  3
                                
 72
   65
 73
    0
 40
0
  0
ENDTAB
  0
TABLE
  2
STYLE
  5
3
100
AcDbSymbolTable
 70
     1
  0
STYLE
  5
10
100
AcDbSymbolTableRecord
100
AcDbTextStyleTableRecord
  2
STANDARD
 70
     0
 40
0.0
 41
1.0
 50
0.0
 71
     0
 42
0.2
  3
txt
  4
bigfont.shx
  0
STYLE
  5
26
100
AcDbSymbolTableRecord
100
AcDbTextStyleTableRecord
  2
TATEGAKI
 70
    68
 40
0.0
 41
1.0
 50
0.0
 71
     0
 42
1.0
  3
txt
  4
bigfont.shx
  0
ENDTAB
  0
TABLE
  2
LAYER
 70
   15
  0
LAYER
  2
_0-0_
 70
   64
 62
    7
  6
CONTINUOUS
  0
LAYER
  2
_0-2_
 70
   64
 62
    7
  6
CONTINUOUS
  0
LAYER
  2
_0-3_
 70
   64
 62
    7
  6
CONTINUOUS
  0
LAYER
  2
_0-4_
 70
   64
 62
    7
  6
CONTINUOUS
  0
LAYER
  2
_0-5_
 70
   64
 62
    7
  6
CONTINUOUS
  0
LAYER
  2
_0-6_
 70
   64
 62
    7
  6
CONTINUOUS
  0
LAYER
  2
_0-8_
 70
   64
 62
    7
  6
CONTINUOUS
  0
LAYER
  2
_0-9_
 70
   64
 62
    7
  6
CONTINUOUS
  0
LAYER
  2
_0-d_
 70
   64
 62
    7
  6
CONTINUOUS
  0
LAYER
  2
_e-0_
 70
   64
 62
    7
  6
CONTINUOUS
  0
LAYER
  2
_f-7_
 70
   64
 62
    7
  6
CONTINUOUS
  0
LAYER
  2
_f-8_
 70
   64
 62
    7
  6
CONTINUOUS
  0
LAYER
  2
_f-9_
 70
   64
 62
    7
  6
CONTINUOUS
  0
LAYER
  2
_f-d_固定文字
 70
   64
 62
    7
  6
CONTINUOUS
  0
LAYER
  2
ADD_LINE
 70
   64
 62
    7
  6
CONTINUOUS
  0
ENDTAB
  0
ENDSEC
  0
SECTION
  2
BLOCKS
  0
ENDSEC
  0
SECTION
  2
ENTITIES
  0
LINE
  8
_0-2_
  6
CONTINUOUS
 62
    4
 10
2099.9999999999995
 20
2577.1199999999998
 11
2620
 21
2577.1199999999998
  0
LINE
  8
_f-9_
  6
CONTINUOUS
 62
    7
 10
630
 20
120
 11
630
 21
220
  0
LINE
  8
_f-9_
  6
CONTINUOUS
 62
    7
 10
170
 20
120
 11
610
 21
120
  0
LINE
  8
_f-9_
  6
CONTINUOUS
 62
    7
 10
170
 20
220
 11
610
 21
220
  0
LINE
  8
_f-9_
  6
CONTINUOUS
 62
    7
 10
1420
 20
120
 11
1420
 21
220
  0
LINE
  8
_f-9_
  6
CONTINUOUS
 62
    7
 10
2210
 20
120
 11
2210
 21
220
  0
LINE
  8
_f-9_
  6
CONTINUOUS
 62
    7
 10
2220
 20
120
 11
2220
 21
220
  0
LINE
  8
_f-9_
  6
CONTINUOUS
 62
    7
 10
630
 20
120
 11
2210
 21
120
  0
LINE
  8
_f-9_
  6
CONTINUOUS
 62
    7
 10
630
 20
220
 11
2210
 21
220
  0
LINE
  8
_f-9_
  6
CONTINUOUS
 62
    7
 10
2710
 20
120
 11
2710
 21
220
  0
LINE
  8
_f-9_
  6
CONTINUOUS
 62
    7
 10
2720
 20
120
 11
2720
 21
220
  0
LINE
  8
_f-9_
  6
CONTINUOUS
 62
    7
 10
2220
 20
120
 11
2710
 21
120
  0
LINE
  8
_f-9_
  6
CONTINUOUS
 62
    7
 10
2220
 20
220
 11
2710
 21
220
  0
LINE
  8
_f-9_
  6
CONTINUOUS
 62
    7
 10
3020
 20
120
 11
3020
 21
220
  0
LINE
  8
_f-9_
  6
CONTINUOUS
 62
    7
 10
3320
 20
120
 11
3320
 21
220
  0
LINE
  8
_f-9_
  6
CONTINUOUS
 62
    7
 10
3700
 20
120
 11
3700
 21
220
  0
LINE
  8
_f-9_
  6
CONTINUOUS
 62
    7
 10
2720
 20
120
 11
4110
 21
120
  0
LINE
  8
_f-9_
  6
CONTINUOUS
 62
    7
 10
4110
 20
120
 11
4110
 21
220
  0
LINE
  8
_f-9_
  6
CONTINUOUS
 62
    7
 10
2720
 20
220
 11
4110
 21
220
  0
LINE
  8
_0-0_
  6
CONTINUOUS
 62
    7
 10
4130
 20
2860
 11
4130
 21
100
  0
LINE
  8
_0-0_
  6
CONTINUOUS
 62
    7
 10
150
 20
2860
 11
4130
 21
2860
  0
LINE
  8
_0-0_
  6
CONTINUOUS
 62
    7
 10
150
 20
100
 11
4130
 21
100
  0
LINE
  8
_0-0_
  6
CONTINUOUS
 62
    7
 10
150
 20
100
 11
150
 21
2860
  0
TEXT
  8
_f-8_
 62
    7
 10
3040
 20
187.5
 40
25
 41
0.64
 50
0
  1
ＤＡＴＡ
  0
TEXT
  8
_f-8_
 62
    7
 10
3340
 20
187.5
 40
25
 41
0.64
 50
0
  1
ＣＨＥＣＫＥＤ
  0
TEXT
  8
_f-8_
 62
    7
 10
3720
 20
187.5
 40
25
 41
0.64
 50
0
  1
ＳＨＥＥＴ　ＮＯ．
  0
TEXT
  8
_f-8_
 62
    7
 10
3542
 20
187.5
 40
25
 41
0.64
 50
0
  1
ＤＲＡＷＩＮＧ
  0
LINE
  8
_f-9_
  6
CONTINUOUS
 62
    7
 10
170
 20
170
 11
610
 21
170
  0
TEXT
  8
_f-8_
 62
    7
 10
2861
 20
142.5
 40
35
 41
0.5714285714285712
 50
0
  1
１／１０
  0
TEXT
  8
_f-8_
 62
    7
 10
2740.3739840854213
 20
187.46937299484983
 40
25
 41
0.64
 50
0
  1
ＳＣＡＬＥ
  0
TEXT
  8
_f-8_
 62
    7
 10
1445
 20
187.5
 40
25
 41
0.8
 50
0
  1
図面名称
  0
TEXT
  8
_f-8_
 62
    7
 10
655
 20
187.5
 40
25
 41
0.8
 50
0
  1
名　称
  0
LINE
  8
_f-8_
  6
CONTINUOUS
 62
    7
 10
2165
 20
2872
 11
2166.15
 21
2874.0000000000004
  0
LINE
  8
_f-8_
  6
CONTINUOUS
 62
    7
 10
2158.6399999999998
 20
2877
 11
2165
 21
2866
  0
LINE
  8
_f-8_
  6
CONTINUOUS
 62
    7
 10
2165
 20
2866
 11
2171.3499999999999
 21
2877
  0
LINE
  8
_f-8_
  6
CONTINUOUS
 62
    7
 10
2165
 20
2860
 11
2176.5399999999999
 21
2880
  0
LINE
  8
_f-8_
  6
CONTINUOUS
 62
    7
 10
2153.4499999999998
 20
2880
 11
2165
 21
2860
  0
LINE
  8
_f-8_
  6
CONTINUOUS
 62
    7
 10
2176.5399999999999
 20
2880
 11
2153.4499999999998
 21
2880
  0
LINE
  8
_f-8_
  6
CONTINUOUS
 62
    7
 10
2163.8400000000001
 20
2874.0000000000004
 11
2165
 21
2872
  0
LINE
  8
_f-8_
  6
CONTINUOUS
 62
    7
 10
2166.15
 20
2874.0000000000004
 11
2163.8400000000001
 21
2874.0000000000004
  0
LINE
  8
_f-8_
  6
CONTINUOUS
 62
    7
 10
2171.3499999999999
 20
2877
 11
2158.6399999999998
 21
2877
  0
LINE
  8
_f-7_
  6
CONTINUOUS
 62
    7
 10
120
 20
1462.6794919243113
 11
120
 21
1497.3205080756886
  0
LINE
  8
_f-7_
  6
CONTINUOUS
 62
    7
 10
120
 20
1497.3205080756886
 11
150
 21
1480
  0
LINE
  8
_f-7_
  6
CONTINUOUS
 62
    7
 10
150
 20
1480
 11
120
 21
1462.6794919243113
  0
LINE
  8
_f-7_
  6
CONTINUOUS
 62
    7
 10
125
 20
1471.3397459621555
 11
125
 21
1488.6602540378444
  0
LINE
  8
_f-7_
  6
CONTINUOUS
 62
    7
 10
125
 20
1488.6602540378444
 11
140
 21
1480
  0
LINE
  8
_f-7_
  6
CONTINUOUS
 62
    7
 10
140
 20
1480
 11
125
 21
1471.3397459621555
  0
LINE
  8
_f-7_
  6
CONTINUOUS
 62
    7
 10
128.99999999999977
 20
1478.2679491924309
 11
128.99999999999977
 21
1481.732050807569
  0
LINE
  8
_f-7_
  6
CONTINUOUS
 62
    7
 10
128.99999999999977
 20
1481.732050807569
 11
132.00000000000045
 21
1480
  0
LINE
  8
_f-7_
  6
CONTINUOUS
 62
    7
 10
132.00000000000045
 20
1480
 11
128.99999999999977
 21
1478.2679491924309
  0
LINE
  8
_f-7_
  6
CONTINUOUS
 62
    7
 10
4160
 20
1462.6794919243113
 11
4160
 21
1497.3205080756886
  0
LINE
  8
_f-7_
  6
CONTINUOUS
 62
    7
 10
4160
 20
1497.3205080756886
 11
4130
 21
1480
  0
LINE
  8
_f-7_
  6
CONTINUOUS
 62
    7
 10
4130
 20
1480
 11
4160
 21
1462.6794919243113
  0
LINE
  8
_f-7_
  6
CONTINUOUS
 62
    7
 10
4155
 20
1471.3397459621555
 11
4155
 21
1488.6602540378444
  0
LINE
  8
_f-7_
  6
CONTINUOUS
 62
    7
 10
4155
 20
1488.6602540378444
 11
4140
 21
1480
  0
LINE
  8
_f-7_
  6
CONTINUOUS
 62
    7
 10
4140
 20
1480
 11
4155
 21
1471.3397459621555
  0
LINE
  8
_f-7_
  6
CONTINUOUS
 62
    7
 10
4151
 20
1478.2679491924309
 11
4151
 21
1481.732050807569
  0
LINE
  8
_f-7_
  6
CONTINUOUS
 62
    7
 10
4151
 20
1481.732050807569
 11
4148
 21
1480
  0
LINE
  8
_f-7_
  6
CONTINUOUS
 62
    7
 10
4148
 20
1480
 11
4151
 21
1478.2679491924309
  0
LINE
  8
_0-3_
  6
CONTINUOUS
 62
    4
 10
280
 20
587.59000000000014
 11
295.49999999999954
 21
612.59000000000014
  0
LINE
  8
_0-9_
  6
CONTINUOUS
 62
    4
 10
202.31600000000071
 20
587.59000000000014
 11
261.12968959251247
 21
587.59000000000014
  0
POINT
  8
_0-9_
 62
    3
 10
212.31600000000071
 20
587.59000000000014
  0
LINE
  8
_0-9_
  6
CONTINUOUS
 62
    4
 10
280.00000708007746
 20
1425.371309093771
 11
226.02048909701579
 21
1425.371309093771
  0
LINE
  8
_0-9_
  6
CONTINUOUS
 62
    4
 10
202.31600000000071
 20
1377.5900000000001
 11
261.12968959251247
 21
1377.5900000000001
  0
POINT
  8
_0-9_
 62
    3
 10
212.31600000000071
 20
1377.5900000000001
  0
LINE
  8
_0-9_
  6
CONTINUOUS
 62
    4
 10
212.31600000000071
 20
587.59000000000014
 11
212.31600000000071
 21
1377.5900000000001
  0
TEXT
  8
_0-9_
 62
    7
 10
212.31600000000071
 20
949.49000000000012
 40
35
 41
0.6285714285714286
 50
90
  1
７９０
  0
LINE
  8
_0-3_
  6
CONTINUOUS
 62
    4
 10
4014.5
 20
587.59000000000014
 11
4030
 21
612.59000000000014
  0
POINT
  8
_0-9_
 62
    3
 10
4113.6487208023581
 20
587.59000000000014
  0
LINE
  8
_0-9_
  6
CONTINUOUS
 62
    4
 10
4123.6487208023581
 20
587.59000000000014
 11
4048.3909679212115
 21
587.59000000000014
  0
POINT
  8
_0-9_
 62
    3
 10
4113.6487208023581
 20
1377.5899999999999
  0
LINE
  8
_0-9_
  6
CONTINUOUS
 62
    4
 10
4123.6487208023581
 20
1377.5899999999999
 11
4048.3909679212115
 21
1377.5899999999999
  0
LINE
  8
_0-9_
  6
CONTINUOUS
 62
    4
 10
4113.6487208023581
 20
587.59000000000014
 11
4113.6487208023581
 21
1377.5899999999999
  0
TEXT
  8
_0-9_
 62
    7
 10
4113.6487208023581
 20
949.49
 40
35
 41
0.6285714285714286
 50
90
  1
７９０
  0
LINE
  8
_0-8_
  6
CONTINUOUS
 62
    4
 10
2204.9999999999995
 20
1647.2900000000001
 11
1954.9999999999995
 21
1647.2900000000001
  0
LINE
  8
_0-8_
  6
CONTINUOUS
 62
    4
 10
1954.9999999999995
 20
1647.2900000000001
 11
1954.9999999999995
 21
1717.2900000000001
  0
LINE
  8
_0-8_
  6
CONTINUOUS
 62
    4
 10
1954.9999999999995
 20
1717.2900000000001
 11
2204.9999999999995
 21
1717.2900000000001
  0
LINE
  8
_0-8_
  6
CONTINUOUS
 62
    4
 10
2204.9999999999995
 20
1717.2900000000001
 11
2204.9999999999995
 21
1647.2900000000001
  0
TEXT
  8
_0-8_
 62
    7
 10
2032.9999999999995
 20
1664.7900000000001
 40
35
 41
0.8571428571428569
 50
0
  1
平面図
  0
LINE
  8
_0-8_
  6
CONTINUOUS
 62
    4
 10
2204.9999999999995
 20
249.45599999999984
 11
2204.9999999999995
 21
319.45600000000013
  0
LINE
  8
_0-8_
  6
CONTINUOUS
 62
    4
 10
2204.9999999999995
 20
319.45600000000013
 11
1954.9999999999995
 21
319.45600000000013
  0
LINE
  8
_0-8_
  6
CONTINUOUS
 62
    4
 10
1954.9999999999995
 20
249.45599999999984
 11
2204.9999999999995
 21
249.45599999999984
  0
LINE
  8
_0-8_
  6
CONTINUOUS
 62
    4
 10
1954.9999999999995
 20
319.45600000000013
 11
1954.9999999999995
 21
249.45599999999984
  0
TEXT
  8
_0-8_
 62
    7
 10
2032.999999999999
 20
266.95600000000013
 40
35
 41
0.8571428571428569
 50
0
  1
立面図
  0
TEXT
  8
_0-8_
 62
    7
 10
3635
 20
266.95600000000013
 40
35
 41
0.8571428571428569
 50
0
  1
Ａ－Ａ断面図
  0
LINE
  8
_0-8_
  6
CONTINUOUS
 62
    4
 10
3854.9999999999995
 20
319.45600000000013
 11
3605
 21
319.45600000000013
  0
LINE
  8
_0-8_
  6
CONTINUOUS
 62
    4
 10
3854.9999999999995
 20
249.45599999999984
 11
3854.9999999999995
 21
319.45600000000013
  0
LINE
  8
_0-8_
  6
CONTINUOUS
 62
    4
 10
3605
 20
249.45599999999984
 11
3854.9999999999995
 21
249.45599999999984
  0
LINE
  8
_0-8_
  6
CONTINUOUS
 62
    4
 10
3605
 20
319.45600000000013
 11
3605
 21
249.45599999999984
  0
LINE
  8
_0-3_
  6
CONTINUOUS
 62
    4
 10
4030
 20
612.59000000000014
 11
4014.5000000000004
 21
612.59000000000014
  0
LINE
  8
_0-3_
  6
CONTINUOUS
 62
    5
 10
4030
 20
1336.5900000000001
 11
4030
 21
587.59000000000014
  0
LINE
  8
_0-9_
  6
CONTINUOUS
 62
    4
 10
4029.9999929199225
 20
1515.3713090937712
 11
4029.9999929199225
 21
1391.473307555917
  0
POINT
  8
_0-9_
 62
    3
 10
4030
 20
1425.3713090937712
  0
LINE
  8
_0-9_
  6
CONTINUOUS
 62
    4
 10
4010
 20
1435.3713090937712
 11
4010
 21
1391.473307555917
  0
POINT
  8
_0-9_
 62
    3
 10
4010
 20
1425.3713090937712
  0
LINE
  8
_0-9_
  6
CONTINUOUS
 62
    4
 10
4010
 20
1425.3713090937712
 11
4030
 21
1425.3713090937712
  0
TEXT
  8
_0-9_
 62
    7
 10
4035.2705834340372
 20
1424.9221081748157
 40
35
 41
0.6285714285714286
 50
0
  1
２０
  0
TEXT
  8
_0-8_
 62
    7
 10
485
 20
266.95600000000013
 40
35
 41
0.8571428571428569
 50
0
  1
Ｂ－Ｂ断面図
  0
LINE
  8
_0-8_
  6
CONTINUOUS
 62
    4
 10
705
 20
249.45599999999984
 11
455
 21
249.45599999999984
  0
LINE
  8
_0-8_
  6
CONTINUOUS
 62
    4
 10
455
 20
249.45599999999984
 11
455
 21
319.45600000000013
  0
LINE
  8
_0-8_
  6
CONTINUOUS
 62
    4
 10
455
 20
319.45600000000013
 11
705
 21
319.45600000000013
  0
LINE
  8
_0-8_
  6
CONTINUOUS
 62
    4
 10
705
 20
319.45600000000013
 11
705
 21
249.45599999999984
  0
LINE
  8
_0-3_
  6
CONTINUOUS
 62
    4
 10
295.49999999999954
 20
612.59000000000014
 11
280
 21
612.59000000000014
  0
LINE
  8
_0-3_
  6
CONTINUOUS
 62
    5
 10
280
 20
1336.5900000000001
 11
280
 21
587.59000000000014
  0
LINE
  8
_0-9_
  6
CONTINUOUS
 62
    4
 10
880
 20
1595.3713090937706
 11
880
 21
1371.1857769909795
  0
LINE
  8
_0-9_
  6
CONTINUOUS
 62
    4
 10
280
 20
1595.3713090937706
 11
280
 21
1391.4733075559165
  0
POINT
  8
_0-9_
 62
    3
 10
280
 20
1425.3713090937708
  0
LINE
  8
_0-9_
  6
CONTINUOUS
 62
    4
 10
280
 20
1425.3713090937708
 11
223.4620965278259
 21
1425.3713090937708
  0
POINT
  8
_0-9_
 62
    3
 10
280
 20
1585.3713090937706
  0
POINT
  8
_0-9_
 62
    3
 10
880
 20
1585.3713090937706
  0
POINT
  8
_0-9_
 62
    3
 10
300
 20
1425.3713090937708
  0
LINE
  8
_0-9_
  6
CONTINUOUS
 62
    4
 10
300
 20
1435.3713090937708
 11
300
 21
1391.4733075559165
  0
LINE
  8
_0-5_
  6
CONTINUOUS
 62
    4
 10
852
 20
1114.5900000000001
 11
374.70000000000027
 21
1114.5900000000001
  0
LINE
  8
_0-5_
  6
CONTINUOUS
 62
    4
 10
403.99999999999863
 20
1032.5899999999999
 11
403.99999999999863
 21
1029.5900000000001
  0
LINE
  8
_0-5_
  6
CENTER2
 62
    4
 10
857.28199999999833
 20
1099.5900000000001
 11
834.07099999999945
 21
1099.5900000000001
  0
LINE
  8
_0-5_
  6
CENTER2
 62
    4
 10
856.17999999999983
 20
1054.5900000000001
 11
832.72199999999929
 21
1054.5900000000001
  0
LINE
  8
_0-5_
  6
CONTINUOUS
 62
    4
 10
828.99999999999909
 20
1029.5900000000001
 11
403.99999999999863
 21
1029.5900000000001
  0
LINE
  8
_0-5_
  6
CONTINUOUS
 62
    4
 10
372.00000000000045
 20
1111.8900000000003
 11
372.00000000000045
 21
1094.5900000000001
  0
LINE
  8
_0-5_
  6
CONTINUOUS
 62
    4
 10
838
 20
1114.5900000000001
 11
838
 21
1046.5899999999999
  0
LINE
  8
_0-5_
  6
CONTINUOUS
 62
    4
 10
827.61899999999923
 20
1032.5899999999999
 11
403.80300000000033
 21
1032.5899999999999
  0
LINE
  8
_0-5_
  6
CONTINUOUS
 62
    4
 10
828.99999999999909
 20
1032.5899999999999
 11
828.99999999999909
 21
1029.5900000000001
  0
LINE
  8
_0-5_
  6
CONTINUOUS
 62
    4
 10
838
 20
1114.5900000000001
 11
834.31099999999969
 21
1038.96
  0
LINE
  8
_0-5_
  6
CONTINUOUS
 62
    4
 10
852
 20
1046.5899999999999
 11
834.68299999999953
 21
1046.5899999999999
  0
LINE
  8
_0-5_
  6
CONTINUOUS
 62
    4
 10
827.61899999999923
 20
1035.2899999999999
 11
403.80300000000033
 21
1035.2899999999999
  0
LINE
  8
_0-5_
  6
CONTINUOUS
 62
    4
 10
835.30299999999942
 20
1114.72
 11
831.61400000000003
 21
1039.0899999999999
  0
LINE
  8
_0-5_
  6
CONTINUOUS
 62
    4
 10
393.62399999999979
 20
1108.0899999999999
 11
397.11199999999962
 21
1038.95
  0
LINE
  8
_0-5_
  6
CONTINUOUS
 62
    4
 10
389.6289999999999
 20
1111.8900000000003
 11
374.70000000000027
 21
1111.8900000000003
  0
LINE
  8
_0-5_
  6
CONTINUOUS
 62
    4
 10
396.32100000000036
 20
1108.23
 11
399.80800000000044
 21
1039.0899999999999
  0
LINE
  8
_0-5_
  6
CONTINUOUS
 62
    4
 10
385
 20
1094.5900000000001
 11
372.00000000000045
 21
1094.5900000000001
  0
LINE
  8
_0-5_
  6
CONTINUOUS
 62
    4
 10
374.70000000000027
 20
1111.8900000000003
 11
374.70000000000027
 21
1094.5900000000001
  0
ARC
  8
_0-5_
  6
CONTINUOUS
 62
    4
 10
827.61899999999923
 20
1039.2899999999999
 40
6.7000000000000001
 50
270
 51
357.20699999999999
  0
ARC
  8
_0-5_
  6
CONTINUOUS
 62
    4
 10
827.61899999999923
 20
1039.2899999999999
 40
4
 50
270
 51
357.20699999999999
  0
ARC
  8
_0-5_
  6
CONTINUOUS
 62
    4
 10
389.6289999999999
 20
1107.8900000000001
 40
4
 50
2.8880000000000034
 51
90
  0
ARC
  8
_0-5_
  6
CONTINUOUS
 62
    4
 10
403.80300000000033
 20
1039.2899999999999
 40
4
 50
182.88799999999997
 51
270
  0
ARC
  8
_0-5_
  6
CONTINUOUS
 62
    4
 10
403.80300000000033
 20
1039.2899999999999
 40
6.7000000000000001
 50
182.88799999999997
 51
270
  0
ARC
  8
_0-5_
  6
CONTINUOUS
 62
    4
 10
389.6289999999999
 20
1107.8900000000001
 40
6.7000000000000001
 50
2.8880000000000034
 51
90
  0
ARC
  8
_0-5_
  6
CONTINUOUS
 62
    4
 10
385
 20
1091.5899999999999
 40
3.0000000000000004
 50
0
 51
90
  0
ARC
  8
_0-5_
  6
CONTINUOUS
 62
    4
 10
374.70000000000027
 20
1111.8900000000003
 40
2.7000000000000001
 50
90
 51
180
  0
LINE
  8
_0-5_
  6
CONTINUOUS
 62
    4
 10
387.99999999999954
 20
1047.5899999999999
 11
387.99999999999954
 21
1091.5899999999999
  0
LINE
  8
_0-5_
  6
CONTINUOUS
 62
    4
 10
390.99999999999909
 20
1044.5900000000001
 11
396.82700000000068
 21
1044.5900000000001
  0
ARC
  8
_0-5_
  6
CONTINUOUS
 62
    4
 10
390.99999999999909
 20
1047.5899999999999
 40
3
 50
180
 51
270
  0
LINE
  8
_0-9_
  6
CONTINUOUS
 62
    4
 10
280
 20
1585.3713090937706
 11
880
 21
1585.3713090937706
  0
TEXT
  8
_0-9_
 62
    7
 10
546.90000000000054
 20
1585.3713090937706
 40
35
 41
0.6285714285714286
 50
0
  1
６００
  0
LINE
  8
_0-9_
  6
CONTINUOUS
 62
    4
 10
280
 20
1425.3713090937708
 11
300
 21
1425.3713090937708
  0
TEXT
  8
_0-9_
 62
    7
 10
229.06323238084951
 20
1425.8692084575432
 40
35
 41
0.6285714285714286
 50
0
  1
２０
  0
LINE
  8
_0-8_
  6
CONTINUOUS
 62
    4
 10
1876.6478245516486
 20
586.52424368010815
 11
1883.1183006792116
 21
562.37609802288147
  0
LINE
  8
_0-8_
  6
CONTINUOUS
 62
    4
 10
1876.6478245516486
 20
586.52424368010815
 11
1894.3254940813126
 21
568.84657415044443
  0
LINE
  8
_0-8_
  6
CONTINUOUS
 62
    4
 10
1876.6478245516486
 20
586.52424368010815
 11
1928.2255841758956
 21
497.18894347033796
  0
LINE
  8
_0-3_
  6
CONTINUOUS
 62
    4
 10
3460.0000000000009
 20
1265.5900000000001
 11
3475.0000000000009
 21
1265.5900000000001
  0
LINE
  8
_0-3_
  6
CONTINUOUS
 62
    4
 10
3475.0000000000009
 20
1324.5900000000003
 11
3475.0000000000009
 21
1265.5900000000001
  0
LINE
  8
_0-3_
  6
CONTINUOUS
 62
    4
 10
3460.0000000000009
 20
1324.5900000000003
 11
3460.0000000000009
 21
1265.5900000000001
  0
LINE
  8
_0-3_
  6
CONTINUOUS
 62
    4
 10
3460.0000000000009
 20
1324.5900000000003
 11
3475.0000000000009
 21
1324.5900000000003
  0
LINE
  8
_0-3_
  6
CONTINUOUS
 62
    4
 10
849.99999999999954
 20
1265.5900000000001
 11
834.99999999999954
 21
1265.5900000000001
  0
LINE
  8
_0-3_
  6
CONTINUOUS
 62
    4
 10
849.99999999999954
 20
1324.5900000000003
 11
849.99999999999954
 21
1265.5900000000001
  0
LINE
  8
_0-3_
  6
CONTINUOUS
 62
    4
 10
849.99999999999954
 20
1324.5900000000003
 11
834.99999999999954
 21
1324.5900000000003
  0
LINE
  8
_0-3_
  6
CONTINUOUS
 62
    4
 10
834.99999999999954
 20
1324.5900000000003
 11
834.99999999999954
 21
1265.5900000000001
  0
POINT
  8
_0-9_
 62
    3
 10
2680
 20
1754.0239791949534
  0
LINE
  8
_0-9_
  6
CONTINUOUS
 62
    4
 10
2680
 20
1744.0239791949534
 11
2680
 21
1976.395934214534
  0
POINT
  8
_0-9_
 62
    3
 10
2680
 20
1834.0239791949534
  0
POINT
  8
_0-9_
 62
    3
 10
2680
 20
2819.4662883839687
  0
LINE
  8
_0-9_
  6
CONTINUOUS
 62
    4
 10
2680
 20
2829.4662883839687
 11
2680
 21
2631.9944115135522
  0
POINT
  8
_0-9_
 62
    3
 10
2680
 20
2739.4662883839687
  0
LINE
  8
_0-9_
  6
CONTINUOUS
 62
    4
 10
3040
 20
2013.1199999999994
 11
2710.7428230637233
 21
2013.1199999999994
  0
LINE
  8
_0-9_
  6
CONTINUOUS
 62
    4
 10
3040
 20
2013.1199999999994
 11
3040
 21
1959.3029423545897
  0
POINT
  8
_0-9_
 62
    3
 10
3040
 20
2013.1199999999994
  0
POINT
  8
_0-9_
 62
    3
 10
3040
 20
2613.1200000000008
  0
POINT
  8
_0-9_
 62
    3
 10
2880
 20
2613.1200000000008
  0
POINT
  8
_0-9_
 62
    3
 10
1479.9999999999995
 20
1754.0239791949534
  0
LINE
  8
_0-9_
  6
CONTINUOUS
 62
    4
 10
1479.9999999999995
 20
1744.0239791949534
 11
1479.9999999999995
 21
1976.395934214534
  0
POINT
  8
_0-9_
 62
    3
 10
1479.9999999999995
 20
1834.0239791949534
  0
LINE
  8
_0-9_
  6
CONTINUOUS
 62
    4
 10
1479.9999999999995
 20
1754.0239791949534
 11
2680
 21
1754.0239791949534
  0
TEXT
  8
_0-9_
 62
    7
 10
2024.7999999999997
 20
1754.0239791949534
 40
35
 41
0.6285714285714286
 50
0
  1
１，２００
  0
LINE
  8
_0-9_
  6
CONTINUOUS
 62
    4
 10
1225.1831334303074
 20
2013.1199999999994
 11
1453.2505709355314
 21
2013.1199999999994
  0
LINE
  8
_0-9_
  6
CONTINUOUS
 62
    4
 10
1225.1831334303074
 20
2613.1199999999998
 11
1453.2505709355314
 21
2613.1199999999998
  0
POINT
  8
_0-9_
 62
    3
 10
1234.3392868183525
 20
2013.1199999999994
  0
POINT
  8
_0-9_
 62
    3
 10
1234.3392868183525
 20
2613.1199999999998
  0
LINE
  8
_0-9_
  6
CONTINUOUS
 62
    4
 10
1234.3392868183525
 20
2013.1199999999994
 11
1234.3392868183525
 21
2613.1199999999998
  0
TEXT
  8
_0-9_
 62
    7
 10
1234.3392868183525
 20
2280.0199999999999
 40
35
 41
0.6285714285714286
 50
90
  1
６００
  0
POINT
  8
_0-9_
 62
    3
 10
1479.9999999999995
 20
1514.8118288954988
  0
LINE
  8
_0-9_
  6
CONTINUOUS
 62
    4
 10
1479.9999999999995
 20
1524.8118288954988
 11
1479.9999999999995
 21
1406.4360163463345
  0
POINT
  8
_0-9_
 62
    3
 10
1480
 20
344.22095770392814
  0
LINE
  8
_0-9_
  6
CONTINUOUS
 62
    4
 10
1480
 20
334.22095770392814
 11
1480
 21
542.76582582829064
  0
POINT
  8
_0-9_
 62
    3
 10
1480
 20
424.22095770392814
  0
LINE
  8
_0-9_
  6
CONTINUOUS
 62
    4
 10
1480
 20
414.22095770392814
 11
1480
 21
566.08643528842105
  0
LINE
  8
_0-8_
  6
PHANTOM2
 62
    4
 10
1557.7310121399846
 20
562.30500000000006
 11
1657.7310121399846
 21
562.30500000000006
  0
LINE
  8
_0-8_
  6
CONTINUOUS
 62
    4
 10
1657.7310121399846
 20
562.30500000000006
 11
1633.5828664827572
 21
568.77547612756302
  0
LINE
  8
_0-8_
  6
CONTINUOUS
 62
    4
 10
1657.7310121399846
 20
562.30500000000006
 11
1633.5828664827572
 21
555.8345238724371
  0
TEXT
  8
_0-8_
 62
    7
 10
1657.7310121399846
 20
544.80500000000006
 40
35
 41
0.8571428571428569
 50
0
  1
Ｂ
  0
LINE
  8
_0-8_
  6
PHANTOM2
 62
    4
 10
1557.7310121399846
 20
1434.3299999999999
 11
1557.7310121399846
 21
562.30500000000006
  0
LINE
  8
_0-8_
  6
PHANTOM2
 62
    4
 10
1557.7310121399846
 20
1434.3299999999999
 11
1657.7310121399846
 21
1434.3299999999999
  0
LINE
  8
_0-8_
  6
CONTINUOUS
 62
    4
 10
1657.7310121399846
 20
1434.3299999999999
 11
1633.5828664827572
 21
1440.8004761275628
  0
LINE
  8
_0-8_
  6
CONTINUOUS
 62
    4
 10
1657.7310121399846
 20
1434.3299999999999
 11
1633.5828664827572
 21
1427.8595238724369
  0
TEXT
  8
_0-8_
 62
    7
 10
1657.7310121399846
 20
1416.8299999999999
 40
35
 41
0.8571428571428569
 50
0
  1
Ｂ
  0
LINE
  8
_0-8_
  6
PHANTOM2
 62
    4
 10
2592.4999999999995
 20
562.30500000000006
 11
2492.4999999999995
 21
562.30500000000006
  0
LINE
  8
_0-8_
  6
CONTINUOUS
 62
    4
 10
2492.4999999999995
 20
562.30500000000006
 11
2516.6481456572264
 21
555.8345238724371
  0
LINE
  8
_0-8_
  6
CONTINUOUS
 62
    4
 10
2492.4999999999995
 20
562.30500000000006
 11
2516.6481456572264
 21
568.77547612756302
  0
LINE
  8
_0-8_
  6
PHANTOM2
 62
    4
 10
2592.4999999999995
 20
1434.3299999999999
 11
2592.4999999999995
 21
562.30500000000006
  0
POINT
  8
_0-9_
 62
    3
 10
2679.9999999999995
 20
1514.8118288954988
  0
LINE
  8
_0-9_
  6
CONTINUOUS
 62
    4
 10
2679.9999999999995
 20
1524.8118288954988
 11
2679.9999999999995
 21
1406.4360163463345
  0
LINE
  8
_0-8_
  6
PHANTOM2
 62
    4
 10
2592.4999999999995
 20
1434.3299999999999
 11
2492.4999999999995
 21
1434.3299999999999
  0
LINE
  8
_0-8_
  6
CONTINUOUS
 62
    4
 10
2492.4999999999995
 20
1434.3299999999999
 11
2516.6481456572264
 21
1427.8595238724369
  0
LINE
  8
_0-8_
  6
CONTINUOUS
 62
    4
 10
2492.4999999999995
 20
1434.3299999999999
 11
2516.6481456572264
 21
1440.8004761275628
  0
TEXT
  8
_0-8_
 62
    7
 10
2462.4999999999995
 20
1416.8299999999999
 40
35
 41
0.8571428571428569
 50
0
  1
Ａ
  0
TEXT
  8
_0-8_
 62
    7
 10
2462.4999999999995
 20
544.80500000000006
 40
35
 41
0.8571428571428569
 50
0
  1
Ａ
  0
POINT
  8
_0-9_
 62
    3
 10
2680
 20
344.22095770392814
  0
LINE
  8
_0-9_
  6
CONTINUOUS
 62
    4
 10
2680
 20
334.22095770392814
 11
2680
 21
542.76582582829064
  0
POINT
  8
_0-9_
 62
    3
 10
2680
 20
424.22095770392814
  0
LINE
  8
_0-9_
  6
CONTINUOUS
 62
    4
 10
2680
 20
414.22095770392814
 11
2680
 21
566.08643528842105
  0
LINE
  8
_0-8_
  6
CONTINUOUS
 62
    4
 10
2624.6372821826853
 20
247.90099999999981
 11
2624.6372821826853
 21
786.76593435728921
  0
POINT
  8
_0-8_
 62
    3
 10
2624.6372821826853
 20
786.76593435728921
  0
LINE
  8
_0-8_
  6
CONTINUOUS
 62
    4
 10
2624.6372821826853
 20
247.90099999999981
 11
2788.5572821826849
 21
247.90099999999981
  0
TEXT
  8
_0-8_
 62
    7
 10
2643.1003672172746
 20
255.16781991158467
 40
30
 41
1
 50
0
  1
包丁差し
  0
LINE
  8
_0-9_
  6
CONTINUOUS
 62
    4
 10
2679.9999999999995
 20
1514.8118288954988
 11
1479.9999999999995
 21
1514.8118288954988
  0
TEXT
  8
_0-9_
 62
    7
 10
2024.7999999999992
 20
1514.8118288954988
 40
35
 41
0.6285714285714286
 50
0
  1
１，２００
  0
LINE
  8
_0-9_
  6
CONTINUOUS
 62
    4
 10
2680
 20
344.22095770392814
 11
1480
 21
344.22095770392814
  0
TEXT
  8
_0-9_
 62
    7
 10
2024.8000000000001
 20
344.22095770392814
 40
35
 41
0.6285714285714286
 50
0
  1
１，２００
  0
LINE
  8
_0-9_
  6
CONTINUOUS
 62
    4
 10
1190
 20
587.59000000000014
 11
888.30038410061933
 21
587.59000000000014
  0
LINE
  8
_0-9_
  6
CONTINUOUS
 62
    4
 10
1190
 20
1337.5900000000003
 11
888.30038410061933
 21
1337.5900000000003
  0
LINE
  8
_0-9_
  6
CONTINUOUS
 62
    4
 10
1030
 20
997.59000000000014
 11
888.30038410061933
 21
997.59000000000014
  0
LINE
  8
_0-9_
  6
CONTINUOUS
 62
    4
 10
1030
 20
1002.59
 11
888.30038410061933
 21
1002.59
  0
LINE
  8
_0-9_
  6
CONTINUOUS
 62
    4
 10
1030
 20
1182.5899999999999
 11
888.30038410061933
 21
1182.5899999999999
  0
LINE
  8
_0-9_
  6
CONTINUOUS
 62
    4
 10
1030
 20
1187.5899999999999
 11
888.30038410061933
 21
1187.5899999999999
  0
LINE
  8
_0-9_
  6
CONTINUOUS
 62
    4
 10
1030
 20
1187.5899999999999
 11
888.30038410061933
 21
1187.5899999999999
  0
LINE
  8
_0-9_
  6
CONTINUOUS
 62
    4
 10
1030
 20
1337.5900000000003
 11
888.30038410061933
 21
1337.5900000000003
  0
POINT
  8
_0-9_
 62
    3
 10
1020
 20
997.59000000000014
  0
POINT
  8
_0-9_
 62
    3
 10
1020
 20
1002.59
  0
POINT
  8
_0-9_
 62
    3
 10
1020
 20
1182.5899999999999
  0
LINE
  8
_0-9_
  6
CONTINUOUS
 62
    4
 10
1020
 20
1002.59
 11
1020
 21
1182.5899999999999
  0
TEXT
  8
_0-9_
 62
    7
 10
1020
 20
1059.49
 40
35
 41
0.6285714285714286
 50
90
  1
１８０
  0
POINT
  8
_0-9_
 62
    3
 10
1020
 20
1187.5899999999999
  0
POINT
  8
_0-9_
 62
    3
 10
1020
 20
1187.5899999999999
  0
LINE
  8
_0-9_
  6
CONTINUOUS
 62
    4
 10
1020
 20
1187.5899999999999
 11
1020
 21
1337.5900000000003
  0
TEXT
  8
_0-9_
 62
    7
 10
1020
 20
1229.4900000000002
 40
35
 41
0.6285714285714286
 50
90
  1
１５０
  0
POINT
  8
_0-9_
 62
    3
 10
1100
 20
587.59000000000014
  0
POINT
  8
_0-9_
 62
    3
 10
1180
 20
587.59000000000014
  0
POINT
  8
_0-9_
 62
    3
 10
1180
 20
1337.5900000000003
  0
LINE
  8
_0-9_
  6
CONTINUOUS
 62
    4
 10
1180
 20
587.59000000000014
 11
1180
 21
1337.5900000000003
  0
TEXT
  8
_0-9_
 62
    7
 10
1180
 20
929.49000000000023
 40
35
 41
0.6285714285714286
 50
90
  1
７５０
  0
LINE
  8
_0-9_
  6
CONTINUOUS
 62
    4
 10
3120.0000000000009
 20
587.59000000000014
 11
3411.5544755363953
 21
587.59000000000014
  0
LINE
  8
_0-9_
  6
CONTINUOUS
 62
    4
 10
3120.0000000000009
 20
1337.5900000000003
 11
3411.5544755363953
 21
1337.5900000000003
  0
LINE
  8
_0-9_
  6
CONTINUOUS
 62
    4
 10
3280.0000000000009
 20
1182.5899999999999
 11
3411.5544755363953
 21
1182.5899999999999
  0
LINE
  8
_0-9_
  6
CONTINUOUS
 62
    4
 10
3280.0000000000009
 20
1187.5899999999999
 11
3411.5544755363953
 21
1187.5899999999999
  0
LINE
  8
_0-9_
  6
CONTINUOUS
 62
    4
 10
3280.0000000000009
 20
1337.5900000000003
 11
3411.5544755363953
 21
1337.5900000000003
  0
POINT
  8
_0-9_
 62
    3
 10
3130.0000000000009
 20
587.59000000000014
  0
POINT
  8
_0-9_
 62
    3
 10
3130.0000000000009
 20
1337.5900000000003
  0
LINE
  8
_0-9_
  6
CONTINUOUS
 62
    4
 10
3130.0000000000009
 20
587.59000000000014
 11
3130.0000000000009
 21
1337.5900000000003
  0
TEXT
  8
_0-9_
 62
    7
 10
3130.0000000000009
 20
929.49000000000023
 40
35
 41
0.6285714285714286
 50
90
  1
７５０
  0
POINT
  8
_0-9_
 62
    3
 10
3210.0000000000009
 20
587.59000000000014
  0
POINT
  8
_0-9_
 62
    3
 10
3290.0000000000009
 20
1337.5900000000003
  0
POINT
  8
_0-9_
 62
    3
 10
3290.0000000000009
 20
1182.5899999999999
  0
POINT
  8
_0-9_
 62
    3
 10
3290.0000000000009
 20
1187.5899999999999
  0
POINT
  8
_0-9_
 62
    3
 10
3290.0000000000009
 20
1337.5900000000003
  0
LINE
  8
_0-9_
  6
CONTINUOUS
 62
    4
 10
3290.0000000000009
 20
1187.5899999999999
 11
3290.0000000000009
 21
1337.5900000000003
  0
TEXT
  8
_0-9_
 62
    7
 10
3290.0000000000009
 20
1229.4900000000002
 40
35
 41
0.6285714285714286
 50
90
  1
１５０
  0
POINT
  8
_0-9_
 62
    3
 10
2960
 20
587.59000000000014
  0
LINE
  8
_0-9_
  6
CONTINUOUS
 62
    4
 10
2970
 20
587.59000000000014
 11
2695.3734563818798
 21
587.59000000000014
  0
POINT
  8
_0-9_
 62
    3
 10
2880
 20
587.58998870849609
  0
LINE
  8
_0-9_
  6
CONTINUOUS
 62
    4
 10
2890
 20
587.58998870849609
 11
2695.3734563818798
 21
587.58998870849609
  0
POINT
  8
_0-9_
 62
    3
 10
2960
 20
1377.5900000000001
  0
LINE
  8
_0-9_
  6
CONTINUOUS
 62
    4
 10
2970
 20
1377.5900000000001
 11
2695.3734563818798
 21
1377.5900000000001
  0
POINT
  8
_0-9_
 62
    3
 10
2880
 20
1337.5900000000001
  0
LINE
  8
_0-9_
  6
CONTINUOUS
 62
    4
 10
2890
 20
1337.5900000000001
 11
2695.3734563818798
 21
1337.5900000000001
  0
LINE
  8
_0-9_
  6
CONTINUOUS
 62
    4
 10
2890
 20
1377.5900000000001
 11
2695.3734563818798
 21
1377.5900000000001
  0
LINE
  8
_0-9_
  6
CONTINUOUS
 62
    4
 10
2960
 20
587.59000000000014
 11
2960
 21
1377.5900000000001
  0
TEXT
  8
_0-9_
 62
    7
 10
2960
 20
949.49000000000012
 40
35
 41
0.6285714285714286
 50
90
  1
７９０
  0
LINE
  8
_0-9_
  6
CONTINUOUS
 62
    4
 10
2880
 20
587.58998870849609
 11
2880
 21
1337.5900000000001
  0
TEXT
  8
_0-9_
 62
    7
 10
2880
 20
929.48999435424809
 40
35
 41
0.6285714285714286
 50
90
  1
７５０
  0
TEXT
  8
_f-d_固定文字
 62
    7
 10
150
 20
65
 40
20
 41
1
 50
0
  1
%f
  0
TEXT
  8
_f-d_固定文字
 62
    7
 10
3990.0149999999994
 20
65.00000323002979
 40
20
 41
1
 50
0
  1
%y
  0
TEXT
  8
_f-d_固定文字
 62
    7
 10
4020.0149999999994
 20
65.00000323002979
 40
20
 41
1
 50
0
  1
．
  0
TEXT
  8
_f-d_固定文字
 62
    7
 10
4050.0149999999994
 20
65.00000323002979
 40
20
 41
1
 50
0
  1
%m
  0
TEXT
  8
_f-d_固定文字
 62
    7
 10
4080.0149999999994
 20
65.00000323002979
 40
20
 41
1
 50
0
  1
．
  0
TEXT
  8
_f-d_固定文字
 62
    7
 10
4110.0149999999994
 20
65.00000323002979
 40
20
 41
1
 50
0
  1
%d
  0
LINE
  8
_0-3_
  6
CONTINUOUS
 62
    4
 10
849.99999999999954
 20
1162.0900000000001
 11
849.99999999999954
 21
695.09000000000014
  0
LINE
  8
_0-3_
  6
CONTINUOUS
 62
    4
 10
849.99999999999954
 20
1221.0900000000001
 11
849.99999999999954
 21
1265.5900000000001
  0
LINE
  8
_0-3_
  6
CONTINUOUS
 62
    4
 10
3460.0000000000009
 20
1221.0900000000001
 11
3460.0000000000009
 21
1265.5900000000001
  0
LINE
  8
_0-3_
  6
CONTINUOUS
 62
    4
 10
3460.0000000000009
 20
1162.0900000000003
 11
3478.0000000000013
 21
1162.0900000000003
  0
LINE
  8
_0-3_
  6
CONTINUOUS
 62
    4
 10
3460.0000000000009
 20
1221.0900000000001
 11
3460.0000000000009
 21
1162.0900000000003
  0
LINE
  8
_0-3_
  6
CONTINUOUS
 62
    4
 10
3478.0000000000013
 20
1221.0900000000001
 11
3478.0000000000013
 21
1162.0900000000003
  0
LINE
  8
_0-3_
  6
CONTINUOUS
 62
    4
 10
3460.0000000000009
 20
1221.0900000000001
 11
3478.0000000000013
 21
1221.0900000000001
  0
LINE
  8
_0-3_
  6
CONTINUOUS
 62
    4
 10
849.99999999999954
 20
1162.0900000000003
 11
831.99999999999931
 21
1162.0900000000003
  0
LINE
  8
_0-3_
  6
CONTINUOUS
 62
    4
 10
831.99999999999931
 20
1221.0900000000001
 11
831.99999999999931
 21
1162.0900000000003
  0
LINE
  8
_0-3_
  6
CONTINUOUS
 62
    4
 10
849.99999999999954
 20
1221.0900000000001
 11
831.99999999999931
 21
1221.0900000000001
  0
LINE
  8
_0-3_
  6
CONTINUOUS
 62
    4
 10
849.99999999999954
 20
1221.0900000000001
 11
849.99999999999954
 21
1162.0900000000003
  0
LINE
  8
_0-3_
  6
CONTINUOUS
 62
    3
 10
1480
 20
1187.5899999999999
 11
2680
 21
1187.5899999999999
  0
ARC
  8
_0-2_
  6
CONTINUOUS
 62
    4
 10
2620
 20
2087.1199999999989
 40
40
 50
269.99999999999994
 51
0.0000000000000127
  0
LINE
  8
_0-2_
  6
CONTINUOUS
 62
    5
 10
1479.9999999999986
 20
2013.1199999999992
 11
1479.9999999999986
 21
2613.1199999999998
  0
LINE
  8
_0-2_
  6
CONTINUOUS
 62
    5
 10
2680
 20
2013.1199999999992
 11
2680
 21
2613.1199999999998
  0
LINE
  8
_0-2_
  6
CONTINUOUS
 62
    5
 10
1479.9999999999986
 20
2013.1199999999992
 11
2680
 21
2013.1199999999992
  0
LINE
  8
_0-2_
  6
CONTINUOUS
 62
    5
 10
2680
 20
2593.1199999999998
 11
1479.9999999999986
 21
2593.1199999999998
  0
LINE
  8
_0-2_
  6
CONTINUOUS
 62
    5
 10
2680
 20
2613.1199999999998
 11
1479.9999999999986
 21
2613.1199999999998
  0
LINE
  8
_0-2_
  6
DASHED1
 62
    4
 10
1480
 20
1337.5899999999999
 11
2680
 21
1337.5899999999999
  0
ARC
  8
_0-2_
  6
CONTINUOUS
 62
    7
 10
2550.5635106802792
 20
2385.2803639015187
 40
80
 50
4.5302932459148763
 51
85.288448297117938
  0
ARC
  8
_0-2_
  6
CONTINUOUS
 62
    7
 10
2169.4364893197198
 20
2385.2803639015187
 40
80
 50
94.711551702882104
 51
175.4697067540851
  0
ARC
  8
_0-2_
  6
CONTINUOUS
 62
    7
 10
2169.4364893197198
 20
2160.9596360984805
 40
80
 50
184.53029324591486
 51
265.28844829711789
  0
ARC
  8
_0-2_
  6
CONTINUOUS
 62
    7
 10
2360
 20
4473.1199999999998
 40
2400
 50
265.28844829711789
 51
274.7115517028821
  0
ARC
  8
_0-2_
  6
CONTINUOUS
 62
    7
 10
1134.9999999999988
 20
2273.1199999999994
 40
1500
 50
355.4697067540851
 51
4.5302932459149047
  0
ARC
  8
_0-2_
  6
CONTINUOUS
 62
    7
 10
2550.5635106802792
 20
2160.9596360984805
 40
80
 50
274.7115517028821
 51
355.4697067540851
  0
ARC
  8
_0-2_
  6
CONTINUOUS
 62
    4
 10
2620
 20
2537.1200000000003
 40
40
 50
0
 51
90
  0
ARC
  8
_0-2_
  6
CONTINUOUS
 62
    4
 10
2099.9999999999995
 20
2537.1200000000003
 40
40
 50
89.999999999999985
 51
180
  0
CIRCLE
  8
_0-2_
  6
CONTINUOUS
 62
    7
 10
2492
 20
2273.1199999999994
 40
90.5
  0
LINE
  8
_0-2_
  6
CONTINUOUS
 62
    5
 10
1480
 20
1340.5899999999999
 11
2680
 21
1340.5899999999999
  0
ARC
  8
_0-2_
  6
CONTINUOUS
 62
    7
 10
2360
 20
73.119999999998981
 40
2400
 50
85.288448297117923
 51
94.71155170288209
  0
ARC
  8
_0-2_
  6
CONTINUOUS
 62
    7
 10
3585
 20
2273.1199999999994
 40
1500
 50
175.4697067540851
 51
184.53029324591486
  0
LINE
  8
_0-2_
  6
CONTINUOUS
 62
    5
 10
1480
 20
1377.5899999999999
 11
1480
 21
1302.5899999999999
  0
LINE
  8
_0-2_
  6
CONTINUOUS
 62
    5
 10
2680
 20
1377.5899999999999
 11
2680
 21
1302.5899999999999
  0
LINE
  8
_0-2_
  6
CONTINUOUS
 62
    5
 10
1480
 20
1302.5899999999999
 11
2680
 21
1302.5899999999999
  0
CIRCLE
  8
_0-2_
  6
CONTINUOUS
 62
    7
 10
2492
 20
2273.1199999999994
 40
79.5
  0
LINE
  8
_0-2_
  6
CONTINUOUS
 62
    4
 10
1479.9999999999986
 20
2028.1199999999989
 11
2680
 21
2028.1199999999989
  0
LINE
  8
_0-2_
  6
CONTINUOUS
 62
    4
 10
2620
 20
2047.1199999999987
 11
2099.9999999999995
 21
2047.1199999999994
  0
ARC
  8
_0-2_
  6
CONTINUOUS
 62
    4
 10
2099.9999999999995
 20
2087.1199999999994
 40
40
 50
180
 51
269.99999999999994
  0
LINE
  8
_0-2_
  6
CONTINUOUS
 62
    4
 10
1479.9999999999986
 20
2034.1199999999989
 11
2680
 21
2034.1199999999989
  0
LINE
  8
_0-2_
  6
CONTINUOUS
 62
    4
 10
2660
 20
2087.1199999999989
 11
2660
 21
2537.1200000000003
  0
LINE
  8
_0-2_
  6
CONTINUOUS
 62
    4
 10
2059.9999999999995
 20
2086.1234602581826
 11
2059.9999999999995
 21
2537.1200000000003
  0
LINE
  8
_0-2_
  6
DASHED1
 62
    4
 10
279.99999999999971
 20
1314.5900000000017
 11
850.99999999999931
 21
1314.5899999999996
  0
CIRCLE
  8
_0-2_
  6
DASHED1
 62
    4
 10
830
 20
1325.1129988884244
 40
5
  0
CIRCLE
  8
_0-2_
  6
DASHED1
 62
    4
 10
830
 20
1325.1129988884244
 40
2
  0
CIRCLE
  8
_0-2_
  6
DASHED1
 62
    4
 10
300.00017629668548
 20
1326.167441527423
 40
5
  0
CIRCLE
  8
_0-2_
  6
DASHED1
 62
    4
 10
299.99999999999971
 20
1326.0900000000017
 40
2
  0
LINE
  8
_0-2_
  6
CONTINUOUS
 62
    5
 10
859
 20
1337.5900000000003
 11
865
 21
1340.5899999999999
  0
LINE
  8
_0-2_
  6
CONTINUOUS
 62
    5
 10
810
 20
1337.5900000000003
 11
859
 21
1337.5900000000003
  0
LINE
  8
_0-2_
  6
CONTINUOUS
 62
    5
 10
871.99999999999954
 20
1340.5899999999999
 11
865
 21
1340.5899999999999
  0
ARC
  8
_0-2_
  6
CONTINUOUS
 62
    5
 10
871.99999999999954
 20
1332.5899999999999
 40
8
 50
0
 51
90
  0
LINE
  8
_0-2_
  6
CONTINUOUS
 62
    5
 10
880
 20
1303.5900000000003
 11
880
 21
1332.5899999999999
  0
ARC
  8
_0-2_
  6
CONTINUOUS
 62
    5
 10
879
 20
1303.5900000000003
 40
1
 50
270
 51
0
  0
ARC
  8
_0-2_
  6
CONTINUOUS
 62
    4
 10
879
 20
1303.5900000000003
 40
0.3999999999999999
 50
270
 51
0
  0
ARC
  8
_0-2_
  6
CONTINUOUS
 62
    4
 10
871.99999999999954
 20
1332.5899999999999
 40
7.4000000000000012
 50
0
 51
90
  0
LINE
  8
_0-2_
  6
CONTINUOUS
 62
    4
 10
879.40000000000054
 20
1332.5899999999999
 11
879.40000000000054
 21
1303.5900000000003
  0
LINE
  8
_0-2_
  6
CONTINUOUS
 62
    4
 10
871.99999999999954
 20
1339.99
 11
865.14164078649969
 21
1339.99
  0
LINE
  8
_0-2_
  6
CONTINUOUS
 62
    4
 10
859.14164078649969
 20
1336.9900000000004
 11
865.14164078649969
 21
1339.99
  0
LINE
  8
_0-2_
  6
CONTINUOUS
 62
    4
 10
810
 20
1336.9900000000004
 11
859.14164078649969
 21
1336.9900000000004
  0
LINE
  8
_0-2_
  6
CONTINUOUS
 62
    4
 10
870.59999999999968
 20
1303.5900000000003
 11
870.59999999999968
 21
1308.5900000000003
  0
LINE
  8
_0-2_
  6
CONTINUOUS
 62
    5
 10
870.59999999999968
 20
1308.5900000000003
 11
870
 21
1308.5900000000003
  0
LINE
  8
_0-2_
  6
CONTINUOUS
 62
    5
 10
870
 20
1303.5900000000003
 11
870
 21
1308.5900000000003
  0
LINE
  8
_0-2_
  6
CONTINUOUS
 62
    5
 10
870.99999999999954
 20
1302.5900000000003
 11
879
 21
1302.5900000000003
  0
ARC
  8
_0-2_
  6
CONTINUOUS
 62
    5
 10
870.99999999999954
 20
1303.5900000000003
 40
1
 50
180
 51
270
  0
ARC
  8
_0-2_
  6
CONTINUOUS
 62
    4
 10
870.99999999999954
 20
1303.5900000000003
 40
0.3999999999999999
 50
180
 51
270
  0
LINE
  8
_0-2_
  6
CONTINUOUS
 62
    4
 10
879
 20
1303.1900000000005
 11
870.99999999999954
 21
1303.1900000000005
  0
LINE
  8
_0-2_
  6
CONTINUOUS
 62
    4
 10
850.99999999999931
 20
1303.5900000000003
 11
850.99999999999931
 21
1314.5899999999996
  0
LINE
  8
_0-2_
  6
CONTINUOUS
 62
    4
 10
851.99999999999954
 20
1302.5900000000003
 11
870.99999999999954
 21
1302.5900000000003
  0
ARC
  8
_0-2_
  6
CONTINUOUS
 62
    4
 10
851.99999999999954
 20
1303.5900000000003
 40
1
 50
180
 51
270
  0
LINE
  8
_0-2_
  6
CONTINUOUS
 62
    5
 10
279.99999999999971
 20
1377.5900000000003
 11
279.99999999999971
 21
1371.5899999999999
  0
LINE
  8
_0-2_
  6
CONTINUOUS
 62
    4
 10
279.99999999999971
 20
1371.5899999999999
 11
281.19999999999947
 21
1371.5899999999999
  0
LINE
  8
_0-2_
  6
CONTINUOUS
 62
    4
 10
281.19999999999947
 20
1376.5899999999999
 11
281.19999999999947
 21
1371.5899999999999
  0
LINE
  8
_0-2_
  6
CONTINUOUS
 62
    4
 10
280.59999999999917
 20
1376.5899999999999
 11
281.19999999999947
 21
1376.5899999999999
  0
LINE
  8
_0-2_
  6
CONTINUOUS
 62
    4
 10
280.59999999999917
 20
1376.9900000000004
 11
280.59999999999917
 21
1372.19
  0
LINE
  8
_0-2_
  6
CONTINUOUS
 62
    4
 10
279.99999999999971
 20
1371.5899999999999
 11
279.99999999999971
 21
1314.5900000000017
  0
ARC
  8
_0-2_
  6
CONTINUOUS
 62
    5
 10
309.27808556006567
 20
1347.5900000000003
 40
10
 50
184.28915332882039
 51
270
  0
LINE
  8
_0-2_
  6
CONTINUOUS
 62
    5
 10
289.57753155194637
 20
1377.5900000000003
 11
279.99999999999971
 21
1377.5900000000003
  0
LINE
  8
_0-2_
  6
CONTINUOUS
 62
    5
 10
297.55512603105415
 20
1370.1883195859338
 11
299.30609246118109
 21
1346.8421005175837
  0
ARC
  8
_0-2_
  6
CONTINUOUS
 62
    5
 10
289.57753155194637
 20
1369.5900000000003
 40
8
 50
4.2891533288205359
 51
90
  0
LINE
  8
_0-2_
  6
CONTINUOUS
 62
    4
 10
296.95680644512066
 20
1370.1434456169886
 11
298.70777287524759
 21
1346.7972265486389
  0
ARC
  8
_0-2_
  6
CONTINUOUS
 62
    4
 10
289.57753155194637
 20
1369.5900000000003
 40
7.4000000000000012
 50
4.2891533288205359
 51
90
  0
LINE
  8
_0-2_
  6
CONTINUOUS
 62
    4
 10
280.59999999999917
 20
1376.9900000000004
 11
289.57753155194637
 21
1376.9900000000004
  0
ARC
  8
_0-2_
  6
CONTINUOUS
 62
    4
 10
309.27808556006567
 20
1347.5900000000003
 40
10.600000000000003
 50
184.28915332882039
 51
270
  0
LINE
  8
_0-3_
  6
CONTINUOUS
 62
    5
 10
1480
 20
1302.5899999999999
 11
1480
 21
587.59000000000014
  0
LINE
  8
_0-3_
  6
CONTINUOUS
 62
    5
 10
2680
 20
1302.5899999999999
 11
2680
 21
587.59000000000014
  0
ARC
  8
_0-2_
  6
CONTINUOUS
 62
    4
 10
3860.0000000000009
 20
1247.9751158594103
 40
30.600000000000004
 50
275.21801712357489
 51
0
  0
LINE
  8
_0-2_
  6
DASHED1
 62
    4
 10
4030
 20
1314.590000000001
 11
3459
 21
1314.5899999999992
  0
CIRCLE
  8
_0-2_
  6
DASHED1
 62
    4
 10
3480
 20
1325.1129988884238
 40
5
  0
CIRCLE
  8
_0-2_
  6
DASHED1
 62
    4
 10
3480
 20
1325.1129988884238
 40
2
  0
CIRCLE
  8
_0-2_
  6
DASHED1
 62
    4
 10
4009.9998237033141
 20
1326.1674415274226
 40
5
  0
CIRCLE
  8
_0-2_
  6
DASHED1
 62
    4
 10
4010
 20
1326.0900000000012
 40
2
  0
LINE
  8
_0-2_
  6
CONTINUOUS
 62
    5
 10
3450.9999999999995
 20
1337.5899999999999
 11
3445
 21
1340.5899999999994
  0
LINE
  8
_0-2_
  6
CONTINUOUS
 62
    5
 10
3437.9999999999995
 20
1340.5899999999994
 11
3445
 21
1340.5899999999994
  0
ARC
  8
_0-2_
  6
CONTINUOUS
 62
    5
 10
3437.9999999999995
 20
1332.5899999999992
 40
8
 50
90.000000000000028
 51
180
  0
LINE
  8
_0-2_
  6
CONTINUOUS
 62
    5
 10
3430
 20
1303.5899999999996
 11
3430
 21
1332.5899999999992
  0
ARC
  8
_0-2_
  6
CONTINUOUS
 62
    5
 10
3430.9999999999995
 20
1303.5899999999996
 40
1
 50
180
 51
270
  0
ARC
  8
_0-2_
  6
CONTINUOUS
 62
    4
 10
3430.9999999999995
 20
1303.5899999999996
 40
0.3999999999999999
 50
180
 51
270
  0
ARC
  8
_0-2_
  6
CONTINUOUS
 62
    4
 10
3437.9999999999995
 20
1332.5899999999992
 40
7.4000000000000012
 50
90.000000000000028
 51
180
  0
LINE
  8
_0-2_
  6
CONTINUOUS
 62
    4
 10
3430.5999999999994
 20
1332.5899999999992
 11
3430.5999999999994
 21
1303.5899999999996
  0
LINE
  8
_0-2_
  6
CONTINUOUS
 62
    4
 10
3437.9999999999995
 20
1339.9899999999993
 11
3444.8583592135
 21
1339.9899999999993
  0
LINE
  8
_0-2_
  6
CONTINUOUS
 62
    4
 10
3450.8583592135
 20
1336.9899999999997
 11
3444.8583592135
 21
1339.9899999999993
  0
LINE
  8
_0-2_
  6
CONTINUOUS
 62
    4
 10
3439.3999999999996
 20
1303.5899999999996
 11
3439.3999999999996
 21
1308.5899999999996
  0
LINE
  8
_0-2_
  6
CONTINUOUS
 62
    5
 10
3439.3999999999996
 20
1308.5899999999996
 11
3440
 21
1308.5899999999996
  0
LINE
  8
_0-2_
  6
CONTINUOUS
 62
    5
 10
3440
 20
1303.5899999999996
 11
3440
 21
1308.5899999999996
  0
LINE
  8
_0-2_
  6
CONTINUOUS
 62
    5
 10
3439
 20
1302.5899999999999
 11
3430.9999999999995
 21
1302.5899999999999
  0
ARC
  8
_0-2_
  6
CONTINUOUS
 62
    5
 10
3439
 20
1303.5899999999996
 40
1
 50
270
 51
0
  0
ARC
  8
_0-2_
  6
CONTINUOUS
 62
    4
 10
3439
 20
1303.5899999999996
 40
0.3999999999999999
 50
270
 51
0
  0
LINE
  8
_0-2_
  6
CONTINUOUS
 62
    4
 10
3430.9999999999995
 20
1303.1899999999998
 11
3439
 21
1303.1899999999998
  0
LINE
  8
_0-2_
  6
CONTINUOUS
 62
    4
 10
3459
 20
1303.5899999999996
 11
3459
 21
1314.5899999999992
  0
LINE
  8
_0-2_
  6
CONTINUOUS
 62
    4
 10
3458
 20
1302.5899999999999
 11
3439
 21
1302.5899999999999
  0
ARC
  8
_0-2_
  6
CONTINUOUS
 62
    4
 10
3458
 20
1303.5899999999996
 40
1
 50
270
 51
0
  0
LINE
  8
_0-2_
  6
CONTINUOUS
 62
    5
 10
4030
 20
1377.5899999999999
 11
4030
 21
1371.5899999999992
  0
LINE
  8
_0-2_
  6
CONTINUOUS
 62
    4
 10
4030
 20
1371.5899999999992
 11
4028.8000000000001
 21
1371.5899999999992
  0
LINE
  8
_0-2_
  6
CONTINUOUS
 62
    4
 10
4028.8000000000001
 20
1376.5899999999992
 11
4028.8000000000001
 21
1371.5899999999992
  0
LINE
  8
_0-2_
  6
CONTINUOUS
 62
    4
 10
4029.4000000000005
 20
1376.5899999999992
 11
4028.8000000000001
 21
1376.5899999999992
  0
LINE
  8
_0-2_
  6
CONTINUOUS
 62
    4
 10
4029.4000000000005
 20
1376.9899999999997
 11
4029.4000000000005
 21
1372.1899999999993
  0
LINE
  8
_0-2_
  6
CONTINUOUS
 62
    4
 10
4030
 20
1371.5899999999992
 11
4030
 21
1314.590000000001
  0
ARC
  8
_0-2_
  6
CONTINUOUS
 62
    5
 10
4000.7219144399346
 20
1347.5899999999999
 40
10
 50
270
 51
355.71084667117958
  0
LINE
  8
_0-2_
  6
CONTINUOUS
 62
    5
 10
4020.4224684480527
 20
1377.5899999999999
 11
4030
 21
1377.5899999999999
  0
LINE
  8
_0-2_
  6
CONTINUOUS
 62
    5
 10
4012.4448739689455
 20
1370.1883195859331
 11
4010.6939075388186
 21
1346.8421005175832
  0
ARC
  8
_0-2_
  6
CONTINUOUS
 62
    5
 10
4020.4224684480527
 20
1369.5899999999996
 40
8
 50
90.000000000000028
 51
175.71084667117946
  0
LINE
  8
_0-2_
  6
CONTINUOUS
 62
    4
 10
4013.043193554879
 20
1370.1434456169881
 11
4011.2922271247521
 21
1346.7972265486382
  0
ARC
  8
_0-2_
  6
CONTINUOUS
 62
    4
 10
4020.4224684480527
 20
1369.5899999999996
 40
7.4000000000000012
 50
90.000000000000028
 51
175.71084667117946
  0
LINE
  8
_0-2_
  6
CONTINUOUS
 62
    4
 10
4029.4000000000005
 20
1376.9899999999997
 11
4020.4224684480527
 21
1376.9899999999997
  0
ARC
  8
_0-2_
  6
CONTINUOUS
 62
    4
 10
4000.7219144399346
 20
1347.5899999999999
 40
10.600000000000003
 50
270
 51
355.71084667117958
  0
ARC
  8
_0-2_
  6
CONTINUOUS
 62
    5
 10
3468.8583592135
 20
1335.5899999999999
 40
5
 50
180
 51
270
  0
LINE
  8
_0-2_
  6
CONTINUOUS
 62
    4
 10
3475.0000000000009
 20
1329.3899999999998
 11
3475.0000000000009
 21
1329.99
  0
LINE
  8
_0-2_
  6
CONTINUOUS
 62
    4
 10
3485.0000000000009
 20
1329.99
 11
3468.8583592135
 21
1329.99
  0
ARC
  8
_0-2_
  6
CONTINUOUS
 62
    4
 10
3485.0000000000009
 20
1324.99
 40
5
 50
0
 51
90
  0
LINE
  8
_0-2_
  6
CONTINUOUS
 62
    4
 10
3475.0000000000009
 20
1329.3899999999998
 11
3485.0000000000009
 21
1329.3899999999998
  0
ARC
  8
_0-2_
  6
CONTINUOUS
 62
    4
 10
3485.0000000000009
 20
1324.99
 40
4.4000000000000003
 50
0
 51
90
  0
LINE
  8
_0-2_
  6
CONTINUOUS
 62
    5
 10
3485.0000000000009
 20
1330.5899999999999
 11
3468.8583592135
 21
1330.5899999999999
  0
ARC
  8
_0-2_
  6
CONTINUOUS
 62
    5
 10
3485.0000000000009
 20
1325.5899999999999
 40
5
 50
0
 51
90
  0
ARC
  8
_0-2_
  6
CONTINUOUS
 62
    4
 10
3468.8583592135
 20
1335.5899999999999
 40
5.6000000000000005
 50
180
 51
270
  0
LINE
  8
_0-2_
  6
CONTINUOUS
 62
    5
 10
3463.8583592135
 20
1336.5899999999999
 11
3463.8583592135
 21
1335.5899999999999
  0
LINE
  8
_0-2_
  6
CONTINUOUS
 62
    5
 10
3462.8583592135
 20
1337.5899999999999
 11
3450.9999999999995
 21
1337.5899999999999
  0
ARC
  8
_0-2_
  6
CONTINUOUS
 62
    5
 10
3462.8583592135
 20
1336.5899999999999
 40
1
 50
0
 51
90
  0
LINE
  8
_0-2_
  6
CONTINUOUS
 62
    4
 10
3463.2583592135001
 20
1335.5899999999999
 11
3463.2583592135001
 21
1336.5899999999999
  0
ARC
  8
_0-2_
  6
CONTINUOUS
 62
    4
 10
3462.8583592135
 20
1336.5899999999999
 40
0.3999999999999999
 50
0
 51
90
  0
LINE
  8
_0-2_
  6
CONTINUOUS
 62
    4
 10
3462.8583592135
 20
1336.9899999999997
 11
3450.8583592135
 21
1336.9899999999997
  0
LINE
  8
_0-2_
  6
CENTER2
 62
    4
 10
3689.9999999999945
 20
1252.6760138458823
 11
3690.00000000006
 21
842.88102767041232
  0
LINE
  8
_0-2_
  6
CONTINUOUS
 62
    4
 10
3905.0000000000009
 20
1329.3899999999998
 11
3905.0000000000009
 21
1329.99
  0
ARC
  8
_0-2_
  6
CONTINUOUS
 62
    4
 10
3895.0000000000009
 20
1324.99
 40
5
 50
90.000000000000028
 51
180
  0
LINE
  8
_0-2_
  6
CONTINUOUS
 62
    4
 10
3905.0000000000009
 20
1329.3899999999998
 11
3895.0000000000009
 21
1329.3899999999998
  0
ARC
  8
_0-2_
  6
CONTINUOUS
 62
    4
 10
3989
 20
1335.5899999999999
 40
5.6000000000000005
 50
270
 51
0
  0
LINE
  8
_0-2_
  6
CONTINUOUS
 62
    5
 10
3994
 20
1336.5899999999999
 11
3994
 21
1335.5899999999999
  0
LINE
  8
_0-2_
  6
CONTINUOUS
 62
    4
 10
3994.6000000000003
 20
1335.5899999999999
 11
3994.6000000000003
 21
1336.5899999999999
  0
ARC
  8
_0-2_
  6
CONTINUOUS
 62
    5
 10
3995
 20
1336.5899999999999
 40
1
 50
90.000000000000028
 51
180
  0
LINE
  8
_0-2_
  6
CONTINUOUS
 62
    5
 10
4000.7219144399346
 20
1337.5899999999999
 11
3995
 21
1337.5899999999999
  0
ARC
  8
_0-2_
  6
CONTINUOUS
 62
    4
 10
3995
 20
1336.5899999999999
 40
0.3999999999999999
 50
90.000000000000028
 51
180
  0
LINE
  8
_0-2_
  6
CONTINUOUS
 62
    4
 10
4000.7219144399346
 20
1336.9899999999997
 11
3995
 21
1336.9899999999997
  0
ARC
  8
_0-2_
  6
CONTINUOUS
 62
    5
 10
3989
 20
1335.5899999999999
 40
5
 50
270
 51
0
  0
LINE
  8
_0-2_
  6
CONTINUOUS
 62
    5
 10
3895.0000000000009
 20
1330.5899999999999
 11
3989
 21
1330.5899999999999
  0
LINE
  8
_0-2_
  6
CONTINUOUS
 62
    4
 10
3895.0000000000009
 20
1329.99
 11
3989
 21
1329.99
  0
ARC
  8
_0-2_
  6
CONTINUOUS
 62
    4
 10
3895.0000000000009
 20
1324.99
 40
4.4000000000000003
 50
90.000000000000028
 51
180
  0
ARC
  8
_0-2_
  6
CONTINUOUS
 62
    5
 10
3895.0000000000009
 20
1325.5899999999999
 40
5
 50
90.000000000000028
 51
180
  0
LINE
  8
_0-2_
  6
CONTINUOUS
 62
    4
 10
3895.0000000000009
 20
1330.5899999999999
 11
3485.0000000000009
 21
1330.5899999999999
  0
LINE
  8
_0-2_
  6
CONTINUOUS
 62
    4
 10
3462.8583592135
 20
1337.5899999999999
 11
3995
 21
1337.5899999999999
  0
LINE
  8
_0-2_
  6
CONTINUOUS
 62
    5
 10
3890.0000000000009
 20
1247.9751158594103
 11
3890.0000000000009
 21
1325.5899999999999
  0
LINE
  8
_0-2_
  6
CONTINUOUS
 62
    5
 10
3862.7283721896628
 20
1218.0994403826168
 11
3780.4999999999995
 21
1210.5899999999994
  0
ARC
  8
_0-2_
  6
CONTINUOUS
 62
    5
 10
3860.0000000000009
 20
1247.9751158594103
 40
30
 50
275.21801712357489
 51
0
  0
LINE
  8
_0-2_
  6
CONTINUOUS
 62
    5
 10
3490.0000000000009
 20
1247.9751158594103
 11
3490.0000000000009
 21
1325.5899999999999
  0
LINE
  8
_0-2_
  6
CONTINUOUS
 62
    5
 10
3517.2716278103393
 20
1218.0994403826168
 11
3599.499999999999
 21
1210.5899999999996
  0
ARC
  8
_0-2_
  6
CONTINUOUS
 62
    5
 10
3520.0000000000009
 20
1247.9751158594103
 40
30
 50
179.99999999999994
 51
264.78198287642499
  0
LINE
  8
_0-2_
  6
CONTINUOUS
 62
    4
 10
3890.6000000000003
 20
1247.9751158594103
 11
3890.6000000000003
 21
1324.99
  0
ARC
  8
_0-2_
  6
CONTINUOUS
 62
    4
 10
3520.0000000000009
 20
1247.9751158594103
 40
30.600000000000004
 50
180
 51
264.78198287642499
  0
LINE
  8
_0-2_
  6
CONTINUOUS
 62
    4
 10
3489.4000000000005
 20
1247.9751158594103
 11
3489.4000000000005
 21
1324.99
  0
LINE
  8
_0-2_
  6
CENTER2
 62
    4
 10
2360
 20
2461.789310864543
 11
2360
 21
2842.4868922512077
  0
POINT
  8
_0-9_
 62
    3
 10
2360
 20
2819.4662883839687
  0
LINE
  8
_0-9_
  6
CONTINUOUS
 62
    4
 10
2680
 20
2819.4662883839687
 11
2360
 21
2819.4662883839687
  0
TEXT
  8
_0-9_
 62
    7
 10
2486.9
 20
2819.4662883839687
 40
35
 41
0.6285714285714286
 50
0
  1
３２０
  0
LINE
  8
_0-2_
  6
CENTER2
 62
    4
 10
2492
 20
2137.9699359349942
 11
2492
 21
2758.3430004280694
  0
POINT
  8
_0-9_
 62
    3
 10
2492
 20
2739.4662883839687
  0
LINE
  8
_0-9_
  6
CONTINUOUS
 62
    4
 10
2680
 20
2739.4662883839687
 11
2492
 21
2739.4662883839687
  0
TEXT
  8
_0-9_
 62
    7
 10
2552.9
 20
2739.4662883839687
 40
35
 41
0.6285714285714286
 50
0
  1
１８８
  0
LINE
  8
_0-9_
  6
CONTINUOUS
 62
    4
 10
3050
 20
2047.1199999999987
 11
2710.7428230637233
 21
2047.1199999999987
  0
POINT
  8
_0-9_
 62
    3
 10
3040
 20
2047.119999999998
  0
LINE
  8
_0-9_
  6
CONTINUOUS
 62
    4
 10
3040
 20
2013.1199999999994
 11
3040
 21
2047.119999999998
  0
TEXT
  8
_0-9_
 62
    7
 10
3040
 20
1964.6614585397314
 40
35
 41
0.6285714285714286
 50
90
  1
３４
  0
POINT
  8
_0-9_
 62
    3
 10
2960
 20
2047.119999999998
  0
LINE
  8
_0-9_
  6
CONTINUOUS
 62
    4
 10
2960
 20
2073.1199999999994
 11
2710.7428230637233
 21
2073.1199999999994
  0
POINT
  8
_0-9_
 62
    3
 10
2960
 20
2073.1199999999994
  0
LINE
  8
_0-2_
  6
CENTER2
 62
    4
 10
2374.1267458696779
 20
2273.1199999999994
 11
2904.2927128953238
 21
2273.1199999999994
  0
POINT
  8
_0-9_
 62
    3
 10
2880
 20
2273.1199999999994
  0
LINE
  8
_0-9_
  6
CONTINUOUS
 62
    4
 10
3050
 20
2577.1199999999998
 11
2710.7428230637233
 21
2577.1199999999998
  0
POINT
  8
_0-9_
 62
    3
 10
3040
 20
2577.1200000000008
  0
POINT
  8
_0-9_
 62
    3
 10
2960
 20
2577.1200000000008
  0
LINE
  8
_0-9_
  6
CONTINUOUS
 62
    4
 10
3040
 20
2047.119999999998
 11
3040
 21
2577.1200000000008
  0
TEXT
  8
_0-9_
 62
    7
 10
3040
 20
2279.0199999999995
 40
35
 41
0.6285714285714286
 50
90
  1
５３０
  0
LINE
  8
_0-9_
  6
CONTINUOUS
 62
    4
 10
2960
 20
2473.1199999999994
 11
2710.7428230637233
 21
2473.1199999999994
  0
POINT
  8
_0-9_
 62
    3
 10
2960
 20
2473.1199999999994
  0
LINE
  8
_0-9_
  6
CONTINUOUS
 62
    4
 10
2960
 20
2073.1199999999994
 11
2960
 21
2473.1199999999994
  0
TEXT
  8
_0-9_
 62
    7
 10
2960
 20
2240.019999999999
 40
35
 41
0.6285714285714286
 50
90
  1
４００
  0
LINE
  8
_0-9_
  6
CONTINUOUS
 62
    4
 10
2960
 20
2473.1199999999994
 11
2960
 21
2577.1200000000008
  0
TEXT
  8
_0-9_
 62
    7
 10
2960
 20
2492.0199999999999
 40
35
 41
0.6285714285714286
 50
90
  1
１０４
  0
LINE
  8
_0-9_
  6
CONTINUOUS
 62
    4
 10
2960
 20
2047.119999999998
 11
2960
 21
2073.1199999999994
  0
TEXT
  8
_0-9_
 62
    7
 10
2957.255338701465
 20
2076.1238937917241
 40
35
 41
0.6285714285714286
 50
90
  1
２６
  0
LINE
  8
_0-9_
  6
CONTINUOUS
 62
    4
 10
3040
 20
2577.1200000000008
 11
3040
 21
2613.1200000000008
  0
TEXT
  8
_0-9_
 62
    7
 10
3040
 20
2615.7216813998502
 40
35
 41
0.6285714285714286
 50
90
  1
３６
  0
LINE
  8
_0-9_
  6
CONTINUOUS
 62
    4
 10
3040
 20
2613.1200000000008
 11
3040
 21
2662.9013976575311
  0
LINE
  8
_0-9_
  6
CONTINUOUS
 62
    4
 10
3050
 20
2613.1199999999998
 11
2710.7428230637233
 21
2613.1199999999998
  0
POINT
  8
_0-9_
 62
    3
 10
2059.9999999999995
 20
1914.0239791949534
  0
LINE
  8
_0-9_
  6
CONTINUOUS
 62
    4
 10
2059.9999999999995
 20
1824.0239791949534
 11
2059.9999999999995
 21
1976.395934214534
  0
POINT
  8
_0-9_
 62
    3
 10
2059.9999999999995
 20
1834.0239791949534
  0
POINT
  8
_0-9_
 62
    3
 10
2084.9999999999995
 20
1914.0239791949534
  0
LINE
  8
_0-9_
  6
CONTINUOUS
 62
    4
 10
2084.9999999999995
 20
1904.0239791949534
 11
2084.9999999999995
 21
1976.395934214534
  0
POINT
  8
_0-9_
 62
    3
 10
2634.999999999999
 20
1914.0239791949534
  0
LINE
  8
_0-9_
  6
CONTINUOUS
 62
    4
 10
2634.999999999999
 20
1904.0239791949534
 11
2634.999999999999
 21
1976.395934214534
  0
LINE
  8
_0-9_
  6
CONTINUOUS
 62
    4
 10
2084.9999999999995
 20
1914.0239791949534
 11
2634.999999999999
 21
1914.0239791949534
  0
TEXT
  8
_0-9_
 62
    7
 10
2326.8999999999996
 20
1914.0239791949534
 40
35
 41
0.6285714285714286
 50
0
  1
５５０
  0
POINT
  8
_0-9_
 62
    3
 10
2660
 20
1834.0239791949534
  0
LINE
  8
_0-9_
  6
CONTINUOUS
 62
    4
 10
2660
 20
1824.0239791949534
 11
2660
 21
1976.395934214534
  0
POINT
  8
_0-9_
 62
    3
 10
2660
 20
1914.0239791949534
  0
LINE
  8
_0-9_
  6
CONTINUOUS
 62
    4
 10
2660
 20
1834.0239791949534
 11
2059.9999999999995
 21
1834.0239791949534
  0
TEXT
  8
_0-9_
 62
    7
 10
2326.9
 20
1834.0239791949534
 40
35
 41
0.6285714285714286
 50
0
  1
６００
  0
LINE
  8
_0-9_
  6
CONTINUOUS
 62
    4
 10
2634.999999999999
 20
1914.0239791949534
 11
2660
 21
1914.0239791949534
  0
TEXT
  8
_0-9_
 62
    7
 10
2583.240484725733
 20
1914.2184472180133
 40
35
 41
0.6285714285714286
 50
0
  1
２５
  0
LINE
  8
_0-9_
  6
CONTINUOUS
 62
    4
 10
2084.9999999999995
 20
1914.0239791949534
 11
2059.9999999999995
 21
1914.0239791949534
  0
TEXT
  8
_0-9_
 62
    7
 10
2092.9949918621605
 20
1914.0239791949534
 40
35
 41
0.6285714285714286
 50
0
  1
２５
  0
LINE
  8
_0-9_
  6
CONTINUOUS
 62
    4
 10
2660
 20
1834.0239791949534
 11
2680
 21
1834.0239791949534
  0
TEXT
  8
_0-9_
 62
    7
 10
2692.3627965743389
 20
1834.0239791949534
 40
35
 41
0.6285714285714286
 50
0
  1
２０
  0
LINE
  8
_0-9_
  6
CONTINUOUS
 62
    4
 10
2680
 20
1834.0239791949534
 11
2748.9638018035102
 21
1834.0239791949534
  0
LINE
  8
_0-8_
  6
CONTINUOUS
 62
    4
 10
2452.130172073027
 20
2292.1086369874246
 11
2445.6596959454636
 21
2316.2567826446515
  0
LINE
  8
_0-8_
  6
CONTINUOUS
 62
    4
 10
2452.130172073027
 20
2292.1086369874246
 11
2434.4525025433636
 21
2309.7863065170886
  0
LINE
  8
_0-8_
  6
CONTINUOUS
 62
    4
 10
2452.130172073027
 20
2292.1086369874246
 11
2208.2678709707302
 21
2714.49053254726
  0
POINT
  8
_0-9_
 62
    3
 10
2208.8088774885213
 20
2613.1199999999998
  0
LINE
  8
_0-9_
  6
CONTINUOUS
 62
    4
 10
2208.8088774885213
 20
2613.1199999999998
 11
2208.8088774885213
 21
2673.6137008132354
  0
LINE
  8
_0-9_
  6
CONTINUOUS
 62
    4
 10
2880
 20
2273.1199999999994
 11
2880
 21
2613.1200000000008
  0
TEXT
  8
_0-9_
 62
    7
 10
2880
 20
2390.8287922996451
 40
35
 41
0.6285714285714286
 50
90
  1
３４０
  0
LINE
  8
_0-2_
  6
CONTINUOUS
 62
    5
 10
1480
 20
1377.5899999999999
 11
1651.0920842935088
 21
1377.5899999999999
  0
LINE
  8
_0-9_
  6
CONTINUOUS
 62
    4
 10
880
 20
1515.3713090937708
 11
880
 21
1371.1857769909795
  0
LINE
  8
_0-9_
  6
CONTINUOUS
 62
    4
 10
1304.3392868183525
 20
2013.1199999999994
 11
1453.2505709355314
 21
2013.1199999999994
  0
LINE
  8
_0-9_
  6
CONTINUOUS
 62
    4
 10
1304.3392868183525
 20
2613.1199999999998
 11
1453.2505709355314
 21
2613.1199999999998
  0
POINT
  8
_0-9_
 62
    3
 10
1479.9999999999995
 20
1834.0239791949534
  0
LINE
  8
_0-9_
  6
CONTINUOUS
 62
    4
 10
1479.9999999999995
 20
1824.0239791949534
 11
1479.9999999999995
 21
1976.395934214534
  0
POINT
  8
_0-9_
 62
    3
 10
2059.9999999999995
 20
1834.0239791949534
  0
LINE
  8
_0-9_
  6
CONTINUOUS
 62
    4
 10
2059.9999999999995
 20
1824.0239791949534
 11
2059.9999999999995
 21
1976.395934214534
  0
POINT
  8
_0-9_
 62
    3
 10
3430.0000000000009
 20
1569.7212475807784
  0
POINT
  8
_0-9_
 62
    3
 10
4030
 20
1569.7212475807784
  0
POINT
  8
_0-9_
 62
    3
 10
3430.0000000000009
 20
1489.7212475807787
  0
POINT
  8
_0-9_
 62
    3
 10
4029.9999929199225
 20
1489.7212475807787
  0
LINE
  8
_0-9_
  6
CONTINUOUS
 62
    4
 10
3430.0000000000009
 20
1569.7212475807784
 11
4030
 21
1569.7212475807784
  0
TEXT
  8
_0-9_
 62
    7
 10
3696.9000000000005
 20
1569.7212475807784
 40
35
 41
0.6285714285714286
 50
0
  1
６００
  0
POINT
  8
_0-9_
 62
    3
 10
3490.0000000000009
 20
1489.7212475807787
  0
LINE
  8
_0-9_
  6
CONTINUOUS
 62
    4
 10
3430.0000000000009
 20
1489.7212475807787
 11
3490.0000000000009
 21
1489.7212475807787
  0
TEXT
  8
_0-9_
 62
    7
 10
3437.9500000000007
 20
1489.7212475807787
 40
35
 41
0.6285714285714286
 50
0
  1
６０
  0
POINT
  8
_0-9_
 62
    3
 10
3890.0000000000009
 20
1489.7212475807787
  0
LINE
  8
_0-9_
  6
CONTINUOUS
 62
    4
 10
3890.0000000000009
 20
1489.7212475807787
 11
4029.9999929199225
 21
1489.7212475807787
  0
TEXT
  8
_0-9_
 62
    7
 10
3926.8999964599615
 20
1489.7212475807787
 40
35
 41
0.6285714285714286
 50
0
  1
１４０
  0
LINE
  8
_0-9_
  6
CONTINUOUS
 62
    4
 10
3490.0000000000009
 20
1489.7212475807787
 11
3890.0000000000009
 21
1489.7212475807787
  0
TEXT
  8
_0-9_
 62
    7
 10
3656.900000000001
 20
1489.7212475807787
 40
35
 41
0.6285714285714286
 50
0
  1
４００
  0
LINE
  8
_0-9_
  6
CONTINUOUS
 62
    4
 10
3490.0000000000009
 20
1499.9243057448966
 11
3490.0000000000009
 21
1371.1857769909802
  0
LINE
  8
_0-9_
  6
CONTINUOUS
 62
    4
 10
3890.0000000000009
 20
1499.9243057448966
 11
3890.0000000000009
 21
1371.1857769909802
  0
LINE
  8
_0-9_
  6
CONTINUOUS
 62
    4
 10
3430.0000000000009
 20
1580.0321594428974
 11
3430.0000000000009
 21
1371.1857769909802
  0
LINE
  8
_0-9_
  6
CONTINUOUS
 62
    4
 10
4030
 20
1580.0321594428974
 11
4030
 21
1391.473307555917
  0
LINE
  8
_0-3_
  6
CONTINUOUS
 62
    4
 10
295.49999999999954
 20
587.59000000000014
 11
295.49999999999954
 21
1336.5900000000001
  0
LINE
  8
_0-3_
  6
CONTINUOUS
 62
    4
 10
297.99999999999954
 20
587.59000000000014
 11
297.99999999999954
 21
1336.5900000000001
  0
LINE
  8
_0-3_
  6
DASHED1
 62
    4
 10
849.99999999999954
 20
1336.5900000000001
 11
280
 21
1336.5900000000001
  0
LINE
  8
_0-3_
  6
CONTINUOUS
 62
    4
 10
849.99999999999954
 20
1336.5900000000001
 11
849.99999999999954
 21
1324.5900000000003
  0
LINE
  8
_0-3_
  6
CONTINUOUS
 62
    4
 10
4012.0000000000004
 20
587.59000000000014
 11
4012.0000000000004
 21
1336.5900000000001
  0
LINE
  8
_0-3_
  6
CONTINUOUS
 62
    4
 10
4014.5000000000004
 20
587.59000000000014
 11
4014.5000000000004
 21
1336.5900000000001
  0
LINE
  8
_0-3_
  6
DASHED1
 62
    4
 10
3460.0000000000009
 20
1336.5900000000001
 11
4030
 21
1336.5900000000001
  0
LINE
  8
_0-3_
  6
CONTINUOUS
 62
    4
 10
3460.0000000000009
 20
1336.5900000000001
 11
3460.0000000000009
 21
1324.5900000000003
  0
CIRCLE
  8
_0-2_
  6
CONTINUOUS
 62
    7
 10
2360
 20
2543.1199999999998
 40
18.5
  0
LINE
  8
_0-2_
  6
CENTER2
 62
    4
 10
2410
 20
2543.1199999999998
 11
2189.65117652473
 21
2543.1199999999998
  0
LINE
  8
_0-3_
  6
CONTINUOUS
 62
    5
 10
3515
 20
587.59000000000014
 11
4030
 21
587.59000000000014
  0
LINE
  8
_0-3_
  6
CONTINUOUS
 62
    5
 10
794.99999999999943
 20
587.59000000000014
 11
280
 21
587.59000000000014
  0
LINE
  8
_0-3_
  6
CONTINUOUS
 62
    5
 10
1780
 20
1187.5899999999999
 11
1780.0000000000002
 21
587.59000000000014
  0
LINE
  8
_0-3_
  6
CONTINUOUS
 62
    5
 10
2379.9999999999995
 20
1187.5899999999999
 11
2379.9999999999995
 21
587.59000000000014
  0
LINE
  8
_0-3_
  6
CONTINUOUS
 62
    5
 10
2379.9999999999995
 20
587.59000000000014
 11
2680
 21
587.59000000000014
  0
LINE
  8
_0-3_
  6
DASHED1
 62
    2
 10
1492
 20
1302.5899999999999
 11
1492
 21
587.59000000000014
  0
LINE
  8
_0-3_
  6
DASHED1
 62
    2
 10
1768
 20
1187.5899999999999
 11
1768
 21
587.59000000000014
  0
LINE
  8
_0-3_
  6
DASHED1
 62
    2
 10
2391.999999999999
 20
1187.5899999999999
 11
2391.999999999999
 21
587.59000000000014
  0
LINE
  8
_0-3_
  6
DASHED1
 62
    2
 10
2668
 20
1302.5899999999999
 11
2668
 21
587.59000000000014
  0
LINE
  8
_0-3_
  6
DASHED1
 62
    4
 10
2668
 20
1162.0900000000003
 11
2391.999999999999
 21
1162.0900000000003
  0
LINE
  8
_0-3_
  6
CONTINUOUS
 62
    5
 10
1480
 20
587.59000000000014
 11
1780.0000000000002
 21
587.59000000000014
  0
LINE
  8
_0-3_
  6
CONTINUOUS
 62
    7
 10
1780.0000000000002
 20
587.59000000000014
 11
2379.9999999999995
 21
587.59000000000014
  0
LINE
  8
_0-3_
  6
DASHED1
 62
    4
 10
1492
 20
1162.0900000000001
 11
1768
 21
1162.0900000000001
  0
LINE
  8
_0-4_
  6
CONTINUOUS
 62
    3
 10
1484
 20
1182.5899999999999
 11
1484
 21
1002.59
  0
LINE
  8
_0-4_
  6
CONTINUOUS
 62
    3
 10
1484
 20
1002.59
 11
1777.9999999999997
 21
1002.59
  0
LINE
  8
_0-4_
  6
CONTINUOUS
 62
    3
 10
1777.9999999999997
 20
1182.5899999999999
 11
1777.9999999999997
 21
1002.59
  0
LINE
  8
_0-4_
  6
CONTINUOUS
 62
    3
 10
1777.9999999999997
 20
1182.5899999999999
 11
1484
 21
1182.5899999999999
  0
LINE
  8
_0-4_
  6
CONTINUOUS
 62
    3
 10
1484
 20
997.59000000000014
 11
1777.9999999999997
 21
997.59000000000014
  0
LINE
  8
_0-4_
  6
CONTINUOUS
 62
    3
 10
2382.9999999999995
 20
1182.5899999999999
 11
2677.0000000000004
 21
1182.5899999999999
  0
TEXT
  8
_0-8_
 62
    7
 10
1948.0485381741509
 20
499.41136187986359
 40
30
 41
1
 50
0
  1
背板あり（白）
  0
LINE
  8
_0-8_
  6
CONTINUOUS
 62
    4
 10
1928.2255841758956
 20
497.18894347033796
 11
2135.7197770517009
 21
497.18894347033796
  0
LINE
  8
_0-8_
  6
CONTINUOUS
 62
    4
 10
2360
 20
2543.1199999999998
 11
2353.5295238724365
 21
2567.2681456572267
  0
LINE
  8
_0-8_
  6
CONTINUOUS
 62
    4
 10
2360
 20
2543.1199999999998
 11
2342.322330470336
 21
2560.7976695296638
  0
LINE
  8
_0-8_
  6
CONTINUOUS
 62
    4
 10
2219.3904256341652
 20
2786.6629268322576
 11
2050.3230139575948
 21
2786.6629268322576
  0
LINE
  8
_0-8_
  6
CONTINUOUS
 62
    4
 10
2360
 20
2543.1199999999998
 11
2219.3904256341652
 21
2786.6629268322576
  0
TEXT
  8
_0-8_
 62
    7
 10
2067.7389128500744
 20
2791.6629268322576
 40
30
 41
0.8666666666666665
 50
0
  1
水栓穴φ３７
  0
LINE
  8
_0-9_
  6
CONTINUOUS
 62
    9
 10
1480
 20
494.22095770392814
 11
1480
 21
566.08643528842105
  0
LINE
  8
_0-9_
  6
CONTINUOUS
 62
    9
 10
2379.9999999999995
 20
494.22095770392814
 11
2379.9999999999995
 21
566.08643528842105
  0
LINE
  8
_0-9_
  6
CONTINUOUS
 62
    9
 10
2382.9999999999995
 20
504.22095770392814
 11
2379.9999999999995
 21
504.22095770392814
  0
POINT
  8
_0-9_
 62
    3
 10
2208.8088774885213
 20
2613.1199999999998
  0
POINT
  8
_0-9_
 62
    3
 10
2208.8088774885213
 20
2543.1199999999998
  0
LINE
  8
_0-9_
  6
CONTINUOUS
 62
    4
 10
2208.8088774885213
 20
2613.1199999999998
 11
2208.8088774885213
 21
2543.1199999999998
  0
TEXT
  8
_0-9_
 62
    7
 10
2208.8088774885213
 20
2620.0914212146899
 40
35
 41
0.6285714285714286
 50
90
  1
７０
  0
POINT
  8
_0-9_
 62
    3
 10
1480
 20
424.22095770392814
  0
POINT
  8
_0-9_
 62
    3
 10
1780.0000000000002
 20
424.22095770392814
  0
LINE
  8
_0-9_
  6
CONTINUOUS
 62
    4
 10
1480
 20
414.22095770392814
 11
1480
 21
566.08643528842105
  0
LINE
  8
_0-9_
  6
CONTINUOUS
 62
    4
 10
1780.0000000000002
 20
414.22095770392814
 11
1780.0000000000002
 21
566.08643528842105
  0
LINE
  8
_0-9_
  6
CONTINUOUS
 62
    4
 10
1480
 20
424.22095770392814
 11
1780.0000000000002
 21
424.22095770392814
  0
TEXT
  8
_0-9_
 62
    7
 10
1596.9
 20
424.22095770392814
 40
35
 41
0.6285714285714286
 50
0
  1
３００
  0
POINT
  8
_0-9_
 62
    3
 10
2379.9999999999995
 20
424.22095770392814
  0
LINE
  8
_0-9_
  6
CONTINUOUS
 62
    4
 10
2379.9999999999995
 20
414.22095770392814
 11
2379.9999999999995
 21
566.08643528842105
  0
LINE
  8
_0-9_
  6
CONTINUOUS
 62
    4
 10
1780.0000000000002
 20
424.22095770392814
 11
2379.9999999999995
 21
424.22095770392814
  0
TEXT
  8
_0-9_
 62
    7
 10
2046.9
 20
424.22095770392814
 40
35
 41
0.6285714285714286
 50
0
  1
６００
  0
POINT
  8
_0-9_
 62
    3
 10
2680
 20
424.22095770392814
  0
LINE
  8
_0-9_
  6
CONTINUOUS
 62
    4
 10
2680
 20
414.22095770392814
 11
2680
 21
566.08643528842105
  0
LINE
  8
_0-9_
  6
CONTINUOUS
 62
    4
 10
2379.9999999999995
 20
424.22095770392814
 11
2680
 21
424.22095770392814
  0
TEXT
  8
_0-9_
 62
    7
 10
2496.9
 20
424.22095770392814
 40
35
 41
0.6285714285714286
 50
0
  1
３００
  0
LINE
  8
_0-9_
  6
CONTINUOUS
 62
    4
 10
1304.3392868183525
 20
2013.1199999999994
 11
1453.2505709355314
 21
2013.1199999999994
  0
LINE
  8
_0-9_
  6
CONTINUOUS
 62
    4
 10
1304.3392868183525
 20
2613.1199999999998
 11
1453.2505709355314
 21
2613.1199999999998
  0
LINE
  8
_0-9_
  6
CONTINUOUS
 62
    4
 10
880
 20
1515.3713090937708
 11
880
 21
1371.1857769909795
  0
LINE
  8
_0-9_
  6
CONTINUOUS
 62
    4
 10
880
 20
1515.3713090937708
 11
880
 21
1371.1857769909795
  0
LINE
  8
_0-9_
  6
CONTINUOUS
 62
    4
 10
1304.3392868183525
 20
2013.1199999999994
 11
1453.2505709355314
 21
2013.1199999999994
  0
LINE
  8
_0-9_
  6
CONTINUOUS
 62
    4
 10
1304.3392868183525
 20
2613.1199999999998
 11
1453.2505709355314
 21
2613.1199999999998
  0
LINE
  8
_0-9_
  6
CONTINUOUS
 62
    4
 10
880
 20
1515.3713090937708
 11
880
 21
1371.1857769909795
  0
POINT
  8
_0-9_
 62
    3
 10
1479.9999999999995
 20
1914.0239791949534
  0
LINE
  8
_0-9_
  6
CONTINUOUS
 62
    4
 10
1479.9999999999995
 20
1904.0239791949534
 11
1479.9999999999995
 21
1976.395934214534
  0
POINT
  8
_0-9_
 62
    3
 10
2059.9999999999995
 20
1914.0239791949534
  0
LINE
  8
_0-9_
  6
CONTINUOUS
 62
    4
 10
2059.9999999999995
 20
1904.0239791949534
 11
2059.9999999999995
 21
1976.395934214534
  0
POINT
  8
_0-9_
 62
    3
 10
1479.9999999999995
 20
1834.0239791949534
  0
POINT
  8
_0-9_
 62
    3
 10
2059.9999999999995
 20
1834.0239791949534
  0
LINE
  8
_0-9_
  6
CONTINUOUS
 62
    4
 10
1479.9999999999995
 20
1824.0239791949534
 11
1479.9999999999995
 21
1976.395934214534
  0
LINE
  8
_0-9_
  6
CONTINUOUS
 62
    4
 10
2059.9999999999995
 20
1824.0239791949534
 11
2059.9999999999995
 21
1976.395934214534
  0
LINE
  8
_0-9_
  6
CONTINUOUS
 62
    4
 10
1479.9999999999995
 20
1834.0239791949534
 11
2059.9999999999995
 21
1834.0239791949534
  0
TEXT
  8
_0-9_
 62
    7
 10
1736.8999999999994
 20
1834.0239791949534
 40
35
 41
0.6285714285714286
 50
0
  1
５８０
  0
POINT
  8
_0-9_
 62
    3
 10
2059.9999999999995
 20
1914.0239791949534
  0
LINE
  8
_0-9_
  6
CONTINUOUS
 62
    4
 10
2059.9999999999995
 20
1904.0239791949534
 11
2059.9999999999995
 21
1976.395934214534
  0
POINT
  8
_0-9_
 62
    3
 10
1479.9999999999995
 20
1914.0239791949534
  0
LINE
  8
_0-9_
  6
CONTINUOUS
 62
    4
 10
1479.9999999999995
 20
1904.0239791949534
 11
1479.9999999999995
 21
1976.395934214534
  0
LINE
  8
_0-9_
  6
CONTINUOUS
 62
    4
 10
880
 20
1515.3713090937708
 11
880
 21
1371.1857769909795
  0
LINE
  8
_0-9_
  6
CONTINUOUS
 62
    4
 10
1304.3392868183525
 20
2013.1199999999994
 11
1453.2505709355314
 21
2013.1199999999994
  0
LINE
  8
_0-9_
  6
CONTINUOUS
 62
    4
 10
1304.3392868183525
 20
2613.1199999999998
 11
1453.2505709355314
 21
2613.1199999999998
  0
CIRCLE
  8
_0-3_
  6
DASHED1
 62
    2
 10
2492
 20
2273.1199999999994
 40
67.5
  0
LINE
  8
_0-d_
  6
CONTINUOUS
 62
    3
 10
4115
 20
2244.9999999999995
 11
4115
 21
2845
  0
LINE
  8
_0-d_
  6
CONTINUOUS
 62
    7
 10
4115
 20
2785
 11
3115
 21
2785
  0
LINE
  8
_0-d_
  6
CONTINUOUS
 62
    7
 10
4115
 20
2790
 11
3115
 21
2790
  0
LINE
  8
_0-d_
  6
CONTINUOUS
 62
    7
 10
4115
 20
2730.9999999999995
 11
3115
 21
2730.9999999999995
  0
LINE
  8
_0-d_
  6
CONTINUOUS
 62
    7
 10
4115
 20
2677
 11
3115
 21
2677
  0
LINE
  8
_0-d_
  6
CONTINUOUS
 62
    7
 10
4115
 20
2622.9999999999995
 11
3115
 21
2622.9999999999995
  0
LINE
  8
_0-d_
  6
CONTINUOUS
 62
    7
 10
4115
 20
2569
 11
3115
 21
2569
  0
LINE
  8
_0-d_
  6
CONTINUOUS
 62
    7
 10
4115
 20
2514.9999999999995
 11
3115
 21
2514.9999999999995
  0
LINE
  8
_0-d_
  6
CONTINUOUS
 62
    7
 10
4115
 20
2460.9999999999995
 11
3115
 21
2460.9999999999995
  0
LINE
  8
_0-d_
  6
CONTINUOUS
 62
    7
 10
4115
 20
2407
 11
3115
 21
2407
  0
LINE
  8
_0-d_
  6
CONTINUOUS
 62
    7
 10
4115
 20
2352.999999999999
 11
3115
 21
2352.999999999999
  0
LINE
  8
_0-d_
  6
CONTINUOUS
 62
    7
 10
4115
 20
2298.9999999999995
 11
3115
 21
2298.9999999999995
  0
LINE
  8
_0-d_
  6
CONTINUOUS
 62
    3
 10
4115
 20
2244.9999999999995
 11
3115
 21
2244.9999999999995
  0
LINE
  8
_0-d_
  6
CONTINUOUS
 62
    3
 10
3115
 20
2845
 11
3115
 21
2244.9999999999995
  0
LINE
  8
_0-d_
  6
CONTINUOUS
 62
    3
 10
4115
 20
2845
 11
3115
 21
2845
  0
LINE
  8
_0-d_
  6
CONTINUOUS
 62
    7
 10
3325
 20
2785
 11
3325
 21
2244.9999999999995
  0
TEXT
  8
_0-d_
 62
    7
 10
3144.8000000000001
 20
2254.4999999999977
 40
35
 41
0.8571428571428569
 50
0
  1
そ　の　他
  0
TEXT
  8
_0-d_
 62
    7
 10
3159.8500000000012
 20
2362.4999999999981
 40
35
 41
0.8571428571428569
 50
0
  1
把　　手
  0
TEXT
  8
_0-d_
 62
    7
 10
3159.8500000000012
 20
2416.4999999999981
 40
35
 41
0.8571428571428569
 50
0
  1
丁　　番
  0
TEXT
  8
_0-d_
 62
    7
 10
3205
 20
2470.4999999999981
 40
35
 41
0.8571428571428569
 50
0
  1
扉
  0
TEXT
  8
_0-d_
 62
    7
 10
3159.8500000000012
 20
2578.499999999999
 40
35
 41
0.8571428571428569
 50
0
  1
背　　板
  0
TEXT
  8
_0-d_
 62
    7
 10
3159.8500000000012
 20
2632.499999999999
 40
35
 41
0.8571428571428569
 50
0
  1
地　　板
  0
TEXT
  8
_0-d_
 62
    7
 10
3159.8500000000012
 20
2686.499999999999
 40
35
 41
0.8571428571428569
 50
0
  1
側　　板
  0
TEXT
  8
_0-d_
 62
    7
 10
3159.8500000000012
 20
2524.4999999999986
 40
35
 41
0.8571428571428569
 50
0
  1
台　　輪
  0
TEXT
  8
_0-d_
 62
    7
 10
3159.8500000000012
 20
2308.4999999999981
 40
35
 41
0.8571428571428569
 50
0
  1
引き出し
  0
TEXT
  8
_0-d_
 62
    7
 10
3144.8000000000001
 20
2740.4999999999995
 40
35
 41
0.8571428571428569
 50
0
  1
ト　ッ　プ
  0
TEXT
  8
_0-d_
 62
    7
 10
3345
 20
2800
 40
35
 41
0.8571428571428569
 50
0
  1
仕　　　　様
  0
TEXT
  8
_0-d_
 62
    7
 10
3345.0000000000022
 20
2254.4999999999977
 40
35
 41
0.8571428571428569
 50
0
  1
包丁差し
  0
TEXT
  8
_0-d_
 62
    7
 10
3344.9999999999963
 20
2632.499999999999
 40
35
 41
0.7999999999999999
 50
0
  1
片面フラッシュ　１７．５ｔ　ＥＢコーティング化粧板
  0
TEXT
  8
_0-d_
 62
    7
 10
3344.9999999999977
 20
2416.4999999999981
 40
35
 41
0.8571428571428569
 50
0
  1
スライド式丁番
  0
TEXT
  8
_0-d_
 62
    7
 10
3344.9999999999963
 20
2578.499999999999
 40
35
 41
0.7999999999999999
 50
0
  1
片面フラッシュ　１７．５ｔ　内部：グレー、外部：白
  0
TEXT
  8
_0-d_
 62
    7
 10
3347.174622985095
 20
2686.499999999999
 40
35
 41
0.7714285714285713
 50
0
  1
低圧メラミン化粧パーティクルボード　１２ｔ
  0
TEXT
  8
_0-d_
 62
    7
 10
3344.9999999999977
 20
2470.4999999999981
 40
35
 41
0.8571428571428569
 50
0
  1
両面化粧パ－ティクルボ－ド　１２ｔ
  0
TEXT
  8
_0-d_
 62
    7
 10
3344.9999999999977
 20
2362.4999999999981
 40
35
 41
0.8571428571428569
 50
0
  1
アルミ一文字把手
  0
TEXT
  8
_0-d_
 62
    7
 10
3344.9999999999977
 20
2308.4999999999981
 40
35
 41
0.8571428571428569
 50
0
  1
メタルボックス　スライドレール
  0
TEXT
  8
_0-8_
 62
    7
 10
1984.0295963526091
 20
2719.49053254726
 40
30
 41
0.8666666666666665
 50
0
  1
底板排水孔１３５φ
  0
LINE
  8
_0-8_
  6
CONTINUOUS
 62
    4
 10
2208.2678709707302
 20
2714.49053254726
 11
1984.4066301725299
 21
2714.49053254726
  0
LINE
  8
_0-4_
  6
CONTINUOUS
 62
    3
 10
1484
 20
1182.5899999999999
 11
1777.9999999999997
 21
1182.5899999999999
  0
LINE
  8
_0-4_
  6
CONTINUOUS
 62
    3
 10
1778.0000000000009
 20
1182.5899999999999
 11
1484
 21
1182.5899999999999
  0
LINE
  8
_0-4_
  6
CONTINUOUS
 62
    3
 10
1777.9999999999997
 20
1182.5899999999999
 11
1484
 21
1182.5899999999999
  0
ARC
  8
_0-4_
  6
CONTINUOUS
 62
    4
 10
1487.0000000000009
 20
1178.5900000000006
 40
3.0000000000000004
 50
180
 51
270
  0
ARC
  8
_0-4_
  6
CONTINUOUS
 62
    4
 10
1775.0000000000011
 20
1178.5900000000006
 40
3.0000000000000004
 50
270
 51
0
  0
LINE
  8
_0-4_
  6
CONTINUOUS
 62
    4
 10
1484.0000000000006
 20
1146.5900000000006
 11
1777.9999999999997
 21
1146.5900000000006
  0
LINE
  8
_0-4_
  6
CONTINUOUS
 62
    4
 10
1484.0000000000006
 20
1154.1900000000032
 11
1777.9999999999997
 21
1154.1900000000032
  0
LINE
  8
_0-4_
  6
CONTINUOUS
 62
    3
 10
1484
 20
1182.5899999999999
 11
1777.9999999999997
 21
1182.5899999999999
  0
LINE
  8
_0-4_
  6
CONTINUOUS
 62
    4
 10
1775.0000000000011
 20
1175.5900000000003
 11
1487.0000000000009
 21
1175.5900000000003
  0
LINE
  8
_0-4_
  6
CONTINUOUS
 62
    3
 10
1484
 20
997.59000000000014
 11
1777.9999999999997
 21
997.59000000000014
  0
LINE
  8
_0-4_
  6
CONTINUOUS
 62
    3
 10
1778.0000000000009
 20
997.59000000000014
 11
1484
 21
997.59000000000014
  0
LINE
  8
_0-4_
  6
CONTINUOUS
 62
    3
 10
1777.9999999999997
 20
997.59000000000014
 11
1484
 21
997.59000000000014
  0
ARC
  8
_0-4_
  6
CONTINUOUS
 62
    4
 10
1487.0000000000009
 20
993.59000000000082
 40
3.0000000000000004
 50
180
 51
270
  0
ARC
  8
_0-4_
  6
CONTINUOUS
 62
    4
 10
1775.0000000000011
 20
993.59000000000082
 40
3.0000000000000004
 50
270
 51
0
  0
LINE
  8
_0-4_
  6
CONTINUOUS
 62
    4
 10
1484.0000000000006
 20
961.5900000000006
 11
1777.9999999999997
 21
961.5900000000006
  0
LINE
  8
_0-4_
  6
CONTINUOUS
 62
    4
 10
1484.0000000000006
 20
969.19000000000335
 11
1777.9999999999997
 21
969.19000000000335
  0
LINE
  8
_0-4_
  6
CONTINUOUS
 62
    3
 10
1484
 20
997.59000000000014
 11
1777.9999999999997
 21
997.59000000000014
  0
LINE
  8
_0-4_
  6
CONTINUOUS
 62
    4
 10
1775.0000000000011
 20
990.5900000000006
 11
1487.0000000000009
 21
990.5900000000006
  0
LINE
  8
_0-4_
  6
CONTINUOUS
 62
    3
 10
866.49999999999863
 20
1002.5900000000001
 11
854.49999999999863
 21
1002.5900000000001
  0
LINE
  8
_0-4_
  6
CONTINUOUS
 62
    3
 10
852.99999999999909
 20
1187.5899999999999
 11
852.99999999999909
 21
1302.5899999999999
  0
LINE
  8
_0-4_
  6
CONTINUOUS
 62
    3
 10
852.99999999999909
 20
1187.5899999999999
 11
864.99999999999818
 21
1187.5899999999999
  0
LINE
  8
_0-4_
  6
CONTINUOUS
 62
    3
 10
864.99999999999818
 20
1302.5899999999999
 11
864.99999999999818
 21
1187.5899999999999
  0
LINE
  8
_0-4_
  6
CONTINUOUS
 62
    3
 10
3456.0000000000013
 20
1152.5900000000008
 11
3444.0000000000009
 21
1152.5900000000008
  0
LINE
  8
_0-4_
  6
CONTINUOUS
 62
    3
 10
3456.0000000000009
 20
1152.5899999999999
 11
3444.0000000000009
 21
1152.5899999999999
  0
LINE
  8
_0-4_
  6
CONTINUOUS
 62
    3
 10
3456.0000000000009
 20
1152.5899999999999
 11
3444.0000000000009
 21
1152.5899999999999
  0
LINE
  8
_0-4_
  6
CONTINUOUS
 62
    3
 10
3456.0000000000013
 20
1152.5900000000008
 11
3444.0000000000009
 21
1152.5900000000008
  0
ARC
  8
_0-4_
  6
CONTINUOUS
 62
    4
 10
3455.6000000000012
 20
1180.5899999999999
 40
2
 50
0.0000000000000127
 51
90.000000000000042
  0
ARC
  8
_0-4_
  6
CONTINUOUS
 62
    4
 10
3455.6000000000012
 20
1180.5899999999999
 40
0.6999999999999997
 50
0.0000000000000127
 51
90.000000000000014
  0
LINE
  8
_0-4_
  6
CONTINUOUS
 62
    4
 10
3457.6000000000012
 20
1138.5899999999996
 11
3457.6000000000012
 21
1180.5899999999999
  0
ARC
  8
_0-4_
  6
CONTINUOUS
 62
    4
 10
3457.1000000000008
 20
1138.5899999999996
 40
0.5
 50
270
 51
0
  0
ARC
  8
_0-4_
  6
CONTINUOUS
 62
    4
 10
3456.800000000001
 20
1138.8899999999996
 40
0.8000000000000001
 50
128.68218745349335
 51
270
  0
LINE
  8
_0-4_
  6
CONTINUOUS
 62
    4
 10
3457.1000000000008
 20
1138.0899999999996
 11
3456.800000000001
 21
1138.0899999999996
  0
LINE
  8
_0-4_
  6
CONTINUOUS
 62
    4
 10
3456.300000000001
 20
1146.8655002001601
 11
3456.300000000001
 21
1139.5144997998395
  0
ARC
  8
_0-4_
  6
CONTINUOUS
 62
    4
 10
3456.800000000001
 20
1147.4899999999997
 40
0.8000000000000001
 50
128.68218745349332
 51
231.31781254650658
  0
LINE
  8
_0-4_
  6
CONTINUOUS
 62
    4
 10
3456.300000000001
 20
1152.2899999999999
 11
3456.300000000001
 21
1148.1144997998396
  0
ARC
  8
_0-4_
  6
CONTINUOUS
 62
    4
 10
3456.0000000000009
 20
1152.2899999999999
 40
0.2999999999999998
 50
0.0000000000000127
 51
90.000000000000014
  0
LINE
  8
_0-4_
  6
CONTINUOUS
 62
    4
 10
3456.300000000001
 20
1156.0396126617747
 11
3456.300000000001
 21
1180.5899999999999
  0
ARC
  8
_0-4_
  6
CONTINUOUS
 62
    4
 10
3455.300000000001
 20
1156.0396126617747
 40
1
 50
272.96093613416371
 51
0
  0
LINE
  8
_0-4_
  6
CONTINUOUS
 62
    4
 10
3444.8285714285725
 20
1182.5900000000001
 11
3455.6000000000012
 21
1182.5900000000001
  0
ARC
  8
_0-4_
  6
CONTINUOUS
 62
    4
 10
3444.8285714285725
 20
1180.5899999999999
 40
2
 50
90
 51
161.07535558394951
  0
ARC
  8
_0-4_
  6
CONTINUOUS
 62
    4
 10
3444.8285714285725
 20
1180.5899999999999
 40
0.6999999999999997
 50
90
 51
161.07535558395002
  0
LINE
  8
_0-4_
  6
CONTINUOUS
 62
    4
 10
3455.6000000000012
 20
1181.2899999999999
 11
3444.8285714285725
 21
1181.2899999999999
  0
LINE
  8
_0-4_
  6
CONTINUOUS
 62
    4
 10
3444.1664092664104
 20
1180.817027027027
 11
3443.0375798523673
 21
1177.524607902736
  0
ARC
  8
_0-4_
  6
CONTINUOUS
 62
    4
 10
3443.2267690415569
 20
1177.459743037871
 40
0.2
 50
161.07535558394698
 51
226.45103723177706
  0
ARC
  8
_0-4_
  6
CONTINUOUS
 62
    4
 10
3442.4000000000005
 20
1176.5900000000001
 40
1
 50
161.07535558395028
 51
46.451037231780105
  0
LINE
  8
_0-4_
  6
CONTINUOUS
 62
    4
 10
3442.9366795366804
 20
1181.2386486486489
 11
3441.4540540540547
 21
1176.9143243243242
  0
LINE
  8
_0-4_
  6
CONTINUOUS
 62
    4
 10
3443.300000000001
 20
1152.2899999999999
 11
3443.300000000001
 21
1147.3899999999998
  0
ARC
  8
_0-4_
  6
CONTINUOUS
 62
    4
 10
3443.6000000000008
 20
1152.2899999999999
 40
0.2999999999999998
 50
90
 51
180
  0
LINE
  8
_0-4_
  6
CONTINUOUS
 62
    4
 10
3441.7000000000011
 20
1153.2403873382254
 11
3441.7000000000011
 21
1147.3899999999998
  0
ARC
  8
_0-4_
  6
CONTINUOUS
 62
    4
 10
3442.7000000000007
 20
1153.2403873382254
 40
1
 50
92.960936134163759
 51
180
  0
LINE
  8
_0-4_
  6
CONTINUOUS
 62
    4
 10
3455.3516550854287
 20
1155.0409476768325
 11
3442.648344914573
 21
1154.2390523231672
  0
ARC
  8
_0-4_
  6
CONTINUOUS
 62
    4
 10
3442.5000000000009
 20
1147.3899999999998
 40
0.8000000000000001
 50
180
 51
359.99999999999994
  0
LINE
  8
_0-4_
  6
CONTINUOUS
 62
    4
 10
3456.0000000000009
 20
1152.5899999999999
 11
3451.8741478640731
 21
1152.5899999999999
  0
LINE
  8
_0-4_
  6
CONTINUOUS
 62
    4
 10
3451.8741478640731
 20
1152.5899999999999
 11
3443.6000000000008
 21
1152.5899999999999
  0
LINE
  8
_0-4_
  6
CONTINUOUS
 62
    3
 10
854.49999999999863
 20
1152.5900000000008
 11
866.49999999999863
 21
1152.5900000000008
  0
LINE
  8
_0-4_
  6
CONTINUOUS
 62
    3
 10
854.49999999999863
 20
1152.5899999999999
 11
866.49999999999863
 21
1152.5899999999999
  0
LINE
  8
_0-4_
  6
CONTINUOUS
 62
    3
 10
854.49999999999863
 20
1152.5899999999999
 11
866.49999999999886
 21
1152.5899999999999
  0
ARC
  8
_0-4_
  6
CONTINUOUS
 62
    4
 10
854.89999999999872
 20
1180.5899999999999
 40
2
 50
89.999999999999985
 51
180
  0
ARC
  8
_0-4_
  6
CONTINUOUS
 62
    4
 10
854.89999999999872
 20
1180.5899999999999
 40
0.6999999999999997
 50
90
 51
180
  0
LINE
  8
_0-4_
  6
CONTINUOUS
 62
    4
 10
852.89999999999872
 20
1138.5899999999996
 11
852.89999999999872
 21
1180.5899999999999
  0
ARC
  8
_0-4_
  6
CONTINUOUS
 62
    4
 10
853.39999999999895
 20
1138.5899999999996
 40
0.5
 50
180
 51
270
  0
ARC
  8
_0-4_
  6
CONTINUOUS
 62
    4
 10
853.69999999999868
 20
1138.8899999999996
 40
0.8000000000000001
 50
270
 51
51.317812546506686
  0
LINE
  8
_0-4_
  6
CONTINUOUS
 62
    4
 10
853.39999999999895
 20
1138.0899999999996
 11
853.69999999999868
 21
1138.0899999999996
  0
LINE
  8
_0-4_
  6
CONTINUOUS
 62
    4
 10
854.19999999999868
 20
1146.8655002001601
 11
854.19999999999868
 21
1139.5144997998395
  0
ARC
  8
_0-4_
  6
CONTINUOUS
 62
    4
 10
853.69999999999868
 20
1147.4899999999997
 40
0.8000000000000001
 50
308.68218745349338
 51
51.317812546506658
  0
LINE
  8
_0-4_
  6
CONTINUOUS
 62
    4
 10
854.19999999999868
 20
1152.2899999999999
 11
854.19999999999868
 21
1148.1144997998396
  0
ARC
  8
_0-4_
  6
CONTINUOUS
 62
    4
 10
854.49999999999863
 20
1152.2899999999999
 40
0.2999999999999998
 50
90
 51
180
  0
LINE
  8
_0-4_
  6
CONTINUOUS
 62
    4
 10
854.19999999999868
 20
1156.0396126617747
 11
854.19999999999868
 21
1180.5899999999999
  0
ARC
  8
_0-4_
  6
CONTINUOUS
 62
    4
 10
855.1999999999989
 20
1156.0396126617747
 40
1
 50
180
 51
267.03906386583628
  0
LINE
  8
_0-4_
  6
CONTINUOUS
 62
    4
 10
865.67142857142721
 20
1182.5899999999999
 11
854.89999999999872
 21
1182.5899999999999
  0
ARC
  8
_0-4_
  6
CONTINUOUS
 62
    4
 10
865.67142857142721
 20
1180.5899999999999
 40
2
 50
18.92464441605048
 51
90
  0
ARC
  8
_0-4_
  6
CONTINUOUS
 62
    4
 10
865.67142857142721
 20
1180.5899999999999
 40
0.6999999999999997
 50
18.924644416049972
 51
90
  0
LINE
  8
_0-4_
  6
CONTINUOUS
 62
    4
 10
854.89999999999872
 20
1181.2899999999999
 11
865.67142857142721
 21
1181.2899999999999
  0
LINE
  8
_0-4_
  6
CONTINUOUS
 62
    4
 10
866.33359073358951
 20
1180.817027027027
 11
867.4624201476322
 21
1177.524607902736
  0
ARC
  8
_0-4_
  6
CONTINUOUS
 62
    4
 10
867.27323095844303
 20
1177.459743037871
 40
0.2
 50
313.5489627682229
 51
18.924644416052935
  0
ARC
  8
_0-4_
  6
CONTINUOUS
 62
    4
 10
868.09999999999899
 20
1176.5900000000001
 40
1
 50
133.54896276821992
 51
18.924644416049773
  0
LINE
  8
_0-4_
  6
CONTINUOUS
 62
    4
 10
867.56332046331908
 20
1181.2386486486489
 11
869.04594594594482
 21
1176.9143243243242
  0
LINE
  8
_0-4_
  6
CONTINUOUS
 62
    4
 10
867.1999999999989
 20
1152.2899999999999
 11
867.1999999999989
 21
1147.3899999999998
  0
ARC
  8
_0-4_
  6
CONTINUOUS
 62
    4
 10
866.89999999999872
 20
1152.2899999999999
 40
0.2999999999999998
 50
0
 51
90
  0
LINE
  8
_0-4_
  6
CONTINUOUS
 62
    4
 10
868.79999999999859
 20
1153.2403873382254
 11
868.79999999999859
 21
1147.3899999999998
  0
ARC
  8
_0-4_
  6
CONTINUOUS
 62
    4
 10
867.79999999999881
 20
1153.2403873382254
 40
1
 50
0.0000000000000127
 51
87.03906386583624
  0
LINE
  8
_0-4_
  6
CONTINUOUS
 62
    4
 10
855.14834491457099
 20
1155.0409476768325
 11
867.85165508542695
 21
1154.2390523231672
  0
ARC
  8
_0-4_
  6
CONTINUOUS
 62
    4
 10
867.99999999999863
 20
1147.3899999999998
 40
0.8000000000000001
 50
180.00000000000005
 51
0
  0
LINE
  8
_0-4_
  6
CONTINUOUS
 62
    3
 10
854.49999999999863
 20
967.59000000000105
 11
866.49999999999863
 21
967.59000000000105
  0
LINE
  8
_0-4_
  6
CONTINUOUS
 62
    3
 10
854.49999999999863
 20
967.59000000000003
 11
866.49999999999863
 21
967.59000000000003
  0
LINE
  8
_0-4_
  6
CONTINUOUS
 62
    3
 10
854.49999999999863
 20
967.59000000000003
 11
866.49999999999886
 21
967.59000000000003
  0
ARC
  8
_0-4_
  6
CONTINUOUS
 62
    4
 10
854.89999999999872
 20
995.59000000000014
 40
2
 50
89.999999999999985
 51
180
  0
ARC
  8
_0-4_
  6
CONTINUOUS
 62
    4
 10
854.89999999999872
 20
995.59000000000014
 40
0.6999999999999997
 50
90
 51
180
  0
LINE
  8
_0-4_
  6
CONTINUOUS
 62
    4
 10
852.89999999999872
 20
953.5899999999998
 11
852.89999999999872
 21
995.59000000000014
  0
ARC
  8
_0-4_
  6
CONTINUOUS
 62
    4
 10
853.39999999999895
 20
953.5899999999998
 40
0.5
 50
180
 51
270
  0
ARC
  8
_0-4_
  6
CONTINUOUS
 62
    4
 10
853.69999999999868
 20
953.88999999999987
 40
0.8000000000000001
 50
270
 51
51.317812546506686
  0
LINE
  8
_0-4_
  6
CONTINUOUS
 62
    4
 10
853.39999999999895
 20
953.0899999999998
 11
853.69999999999868
 21
953.0899999999998
  0
LINE
  8
_0-4_
  6
CONTINUOUS
 62
    4
 10
854.19999999999868
 20
961.86550020016034
 11
854.19999999999868
 21
954.51449979983965
  0
ARC
  8
_0-4_
  6
CONTINUOUS
 62
    4
 10
853.69999999999868
 20
962.49
 40
0.8000000000000001
 50
308.68218745349338
 51
51.317812546506658
  0
LINE
  8
_0-4_
  6
CONTINUOUS
 62
    4
 10
854.19999999999868
 20
967.29000000000019
 11
854.19999999999868
 21
963.11449979983979
  0
ARC
  8
_0-4_
  6
CONTINUOUS
 62
    4
 10
854.49999999999863
 20
967.29000000000019
 40
0.2999999999999998
 50
90
 51
180
  0
LINE
  8
_0-4_
  6
CONTINUOUS
 62
    4
 10
854.19999999999868
 20
971.03961266177498
 11
854.19999999999868
 21
995.59000000000014
  0
ARC
  8
_0-4_
  6
CONTINUOUS
 62
    4
 10
855.1999999999989
 20
971.03961266177498
 40
1
 50
180
 51
267.03906386583628
  0
LINE
  8
_0-4_
  6
CONTINUOUS
 62
    4
 10
865.67142857142721
 20
997.59000000000014
 11
854.89999999999872
 21
997.59000000000014
  0
ARC
  8
_0-4_
  6
CONTINUOUS
 62
    4
 10
865.67142857142721
 20
995.59000000000014
 40
2
 50
18.92464441605048
 51
90
  0
ARC
  8
_0-4_
  6
CONTINUOUS
 62
    4
 10
865.67142857142721
 20
995.59000000000014
 40
0.6999999999999997
 50
18.924644416049972
 51
90
  0
LINE
  8
_0-4_
  6
CONTINUOUS
 62
    4
 10
854.89999999999872
 20
996.29000000000007
 11
865.67142857142721
 21
996.29000000000007
  0
LINE
  8
_0-4_
  6
CONTINUOUS
 62
    4
 10
866.33359073358951
 20
995.81702702702716
 11
867.4624201476322
 21
992.52460790273619
  0
ARC
  8
_0-4_
  6
CONTINUOUS
 62
    4
 10
867.27323095844303
 20
992.45974303787124
 40
0.2
 50
313.5489627682229
 51
18.924644416052935
  0
ARC
  8
_0-4_
  6
CONTINUOUS
 62
    4
 10
868.09999999999899
 20
991.59000000000037
 40
1
 50
133.54896276821992
 51
18.924644416049773
  0
LINE
  8
_0-4_
  6
CONTINUOUS
 62
    4
 10
867.56332046331908
 20
996.23864864864901
 11
869.04594594594482
 21
991.91432432432452
  0
LINE
  8
_0-4_
  6
CONTINUOUS
 62
    4
 10
867.1999999999989
 20
967.29000000000019
 11
867.1999999999989
 21
962.3900000000001
  0
ARC
  8
_0-4_
  6
CONTINUOUS
 62
    4
 10
866.89999999999872
 20
967.29000000000019
 40
0.2999999999999998
 50
0
 51
90
  0
LINE
  8
_0-4_
  6
CONTINUOUS
 62
    4
 10
868.79999999999859
 20
968.24038733822567
 11
868.79999999999859
 21
962.3900000000001
  0
ARC
  8
_0-4_
  6
CONTINUOUS
 62
    4
 10
867.79999999999881
 20
968.24038733822567
 40
1
 50
0.0000000000000127
 51
87.03906386583624
  0
LINE
  8
_0-4_
  6
CONTINUOUS
 62
    4
 10
855.14834491457099
 20
970.0409476768325
 11
867.85165508542695
 21
969.23905232316747
  0
ARC
  8
_0-4_
  6
CONTINUOUS
 62
    4
 10
867.99999999999863
 20
962.3900000000001
 40
0.8000000000000001
 50
180.00000000000005
 51
0
  0
LINE
  8
_0-4_
  6
CONTINUOUS
 62
    3
 10
854.49999999999863
 20
1152.5900000000008
 11
854.49999999999863
 21
1002.5900000000001
  0
LINE
  8
_0-4_
  6
CONTINUOUS
 62
    3
 10
866.49999999999863
 20
1152.5900000000008
 11
866.49999999999863
 21
1002.5900000000001
  0
LINE
  8
_0-4_
  6
CONTINUOUS
 62
    3
 10
854.49999999999863
 20
1152.5900000000008
 11
866.89999999999872
 21
1152.5900000000008
  0
LINE
  8
_0-4_
  6
CONTINUOUS
 62
    3
 10
854.49999999999863
 20
967.59000000000105
 11
866.89999999999872
 21
967.59000000000105
  0
LINE
  8
_0-4_
  6
CONTINUOUS
 62
    3
 10
2676.999999999999
 20
1182.5899999999999
 11
2382.999999999999
 21
1182.5899999999999
  0
LINE
  8
_0-4_
  6
CONTINUOUS
 62
    3
 10
2382.999999999999
 20
1182.5899999999999
 11
2676.999999999999
 21
1182.5899999999999
  0
LINE
  8
_0-4_
  6
CONTINUOUS
 62
    3
 10
2677.0000000000004
 20
1182.5899999999999
 11
2382.999999999999
 21
1182.5899999999999
  0
LINE
  8
_0-4_
  6
CONTINUOUS
 62
    3
 10
2676.999999999999
 20
1182.5899999999999
 11
2382.999999999999
 21
1182.5899999999999
  0
ARC
  8
_0-4_
  6
CONTINUOUS
 62
    4
 10
2386
 20
1178.5900000000006
 40
3.0000000000000004
 50
180
 51
270
  0
ARC
  8
_0-4_
  6
CONTINUOUS
 62
    4
 10
2674.0000000000004
 20
1178.5900000000006
 40
3.0000000000000004
 50
270
 51
0
  0
LINE
  8
_0-4_
  6
CONTINUOUS
 62
    4
 10
2383
 20
1146.5900000000006
 11
2676.999999999999
 21
1146.5900000000006
  0
LINE
  8
_0-4_
  6
CONTINUOUS
 62
    4
 10
2383
 20
1154.1900000000032
 11
2676.999999999999
 21
1154.1900000000032
  0
LINE
  8
_0-4_
  6
CONTINUOUS
 62
    3
 10
2382.999999999999
 20
1182.5899999999999
 11
2676.999999999999
 21
1182.5899999999999
  0
LINE
  8
_0-4_
  6
CONTINUOUS
 62
    4
 10
2674.0000000000004
 20
1175.5900000000003
 11
2386
 21
1175.5900000000003
  0
LINE
  8
_0-9_
  6
CONTINUOUS
 62
    4
 10
2059.9999999999995
 20
1914.0239791949534
 11
1479.9999999999995
 21
1914.0239791949534
  0
TEXT
  8
_0-9_
 62
    7
 10
1736.8999999999994
 20
1914.0239791949534
 40
35
 41
0.6285714285714286
 50
0
  1
５８０
  0
LINE
  8
_0-2_
  6
CONTINUOUS
 62
    5
 10
1479.9999999999995
 20
1377.5899999999999
 11
2680
 21
1377.5899999999999
  0
LINE
  8
_0-2_
  6
CONTINUOUS
 62
    5
 10
309.27808556006567
 20
1337.5900000000003
 11
810
 21
1337.5900000000003
  0
LINE
  8
_0-2_
  6
CONTINUOUS
 62
    4
 10
309.27808556006567
 20
1336.9900000000004
 11
810
 21
1336.9900000000004
  0
LINE
  8
_0-3_
  6
CONTINUOUS
 62
    4
 10
327.99999999999954
 20
702.58999999999991
 11
297.99999999999954
 21
687.59000000000014
  0
LINE
  8
_0-3_
  6
CONTINUOUS
 62
    4
 10
849.49999999999931
 20
702.58999999999991
 11
784.99999999999886
 21
687.59000000000014
  0
LINE
  8
_0-3_
  6
CONTINUOUS
 62
    4
 10
3982.0000000000004
 20
687.59000000000014
 11
4012.0000000000004
 21
702.58999999999969
  0
LINE
  8
_0-3_
  6
CONTINUOUS
 62
    4
 10
3460.5
 20
687.59000000000014
 11
3525.0000000000004
 21
702.58999999999969
  0
LINE
  8
_0-3_
  6
CONTINUOUS
 62
    4
 10
3460.5000000000009
 20
705.09000000000014
 11
3460.5000000000009
 21
687.59000000000014
  0
LINE
  8
_0-3_
  6
CONTINUOUS
 62
    5
 10
3460.0000000000009
 20
687.59000000000014
 11
4012.0000000000004
 21
687.59000000000014
  0
LINE
  8
_0-3_
  6
CONTINUOUS
 62
    5
 10
3460.0000000000009
 20
705.09000000000014
 11
3460.0000000000009
 21
687.59000000000014
  0
LINE
  8
_0-3_
  6
CONTINUOUS
 62
    5
 10
3460.0000000000009
 20
705.09000000000014
 11
4012.0000000000004
 21
705.09000000000014
  0
LINE
  8
_0-3_
  6
CONTINUOUS
 62
    4
 10
3982.0000000000004
 20
687.59000000000014
 11
3982.0000000000004
 21
702.58999999999991
  0
LINE
  8
_0-3_
  6
CONTINUOUS
 62
    4
 10
3525.0000000000009
 20
687.59000000000014
 11
3525.0000000000009
 21
702.58999999999991
  0
POINT
  8
_0-9_
 62
    3
 10
4030
 20
871.1341301280604
  0
LINE
  8
_0-3_
  6
CONTINUOUS
 62
    4
 10
784.99999999999943
 20
702.58999999999969
 11
784.99999999999943
 21
687.59000000000014
  0
LINE
  8
_0-3_
  6
CONTINUOUS
 62
    4
 10
327.99999999999954
 20
702.58999999999969
 11
327.99999999999954
 21
687.59000000000014
  0
LINE
  8
_0-3_
  6
CONTINUOUS
 62
    4
 10
849.5
 20
705.09000000000014
 11
849.5
 21
687.59000000000014
  0
LINE
  8
_0-3_
  6
CONTINUOUS
 62
    4
 10
849.5
 20
702.58999999999969
 11
297.99999999999954
 21
702.58999999999969
  0
LINE
  8
_0-3_
  6
CONTINUOUS
 62
    5
 10
849.99999999999954
 20
687.59000000000014
 11
297.99999999999954
 21
687.59000000000014
  0
LINE
  8
_0-3_
  6
CONTINUOUS
 62
    5
 10
849.99999999999954
 20
705.09000000000014
 11
849.99999999999954
 21
687.59000000000014
  0
LINE
  8
_0-3_
  6
CONTINUOUS
 62
    5
 10
849.99999999999954
 20
705.09000000000014
 11
297.99999999999954
 21
705.09000000000014
  0
ARC
  8
_0-5_
  6
CONTINUOUS
 62
    4
 10
403.80300000000033
 20
729.28999999999996
 40
4
 50
182.88799999999997
 51
270
  0
LINE
  8
_0-5_
  6
CONTINUOUS
 62
    4
 10
396.32100000000036
 20
843.22699999999997
 11
399.80800000000044
 21
729.08799999999996
  0
LINE
  8
_0-5_
  6
CONTINUOUS
 62
    4
 10
403.99999999999863
 20
722.59000000000014
 11
403.99999999999863
 21
719.59000000000003
  0
LINE
  8
_0-5_
  6
CONTINUOUS
 62
    4
 10
827.61899999999923
 20
725.28999999999996
 11
403.80300000000033
 21
725.28999999999996
  0
LINE
  8
_0-5_
  6
CONTINUOUS
 62
    4
 10
828.99999999999909
 20
722.59000000000014
 11
828.99999999999909
 21
719.59000000000003
  0
LINE
  8
_0-5_
  6
CONTINUOUS
 62
    4
 10
827.61899999999923
 20
722.59000000000014
 11
403.80300000000033
 21
722.59000000000014
  0
LINE
  8
_0-5_
  6
CONTINUOUS
 62
    4
 10
828.99999999999909
 20
719.59000000000003
 11
403.99999999999863
 21
719.59000000000003
  0
LINE
  8
_0-5_
  6
CONTINUOUS
 62
    4
 10
390.99999999999909
 20
734.59000000000003
 11
396.82700000000068
 21
734.59000000000003
  0
ARC
  8
_0-5_
  6
CONTINUOUS
 62
    4
 10
390.99999999999909
 20
737.59000000000003
 40
3
 50
180
 51
270
  0
LINE
  8
_0-5_
  6
CENTER2
 62
    4
 10
857.28199999999833
 20
834.59000000000003
 11
834.07099999999945
 21
834.59000000000003
  0
LINE
  8
_0-5_
  6
CONTINUOUS
 62
    4
 10
852
 20
849.59000000000003
 11
374.70000000000027
 21
849.59000000000003
  0
LINE
  8
_0-5_
  6
CONTINUOUS
 62
    4
 10
374.70000000000027
 20
846.88999999999987
 11
374.70000000000027
 21
829.59000000000003
  0
LINE
  8
_0-5_
  6
CONTINUOUS
 62
    4
 10
389.6289999999999
 20
846.88999999999987
 11
374.70000000000027
 21
846.88999999999987
  0
LINE
  8
_0-5_
  6
CONTINUOUS
 62
    4
 10
372.00000000000045
 20
846.88999999999987
 11
372.00000000000045
 21
829.59000000000003
  0
LINE
  8
_0-5_
  6
CONTINUOUS
 62
    4
 10
385
 20
829.59000000000003
 11
372.00000000000045
 21
829.59000000000003
  0
ARC
  8
_0-5_
  6
CONTINUOUS
 62
    4
 10
389.6289999999999
 20
842.88999999999998
 40
4
 50
2.8880000000000034
 51
90
  0
ARC
  8
_0-5_
  6
CONTINUOUS
 62
    4
 10
389.6289999999999
 20
842.88999999999998
 40
6.7000000000000001
 50
2.8880000000000034
 51
90
  0
ARC
  8
_0-5_
  6
CONTINUOUS
 62
    4
 10
385
 20
826.59000000000003
 40
3.0000000000000004
 50
0
 51
90
  0
ARC
  8
_0-5_
  6
CONTINUOUS
 62
    4
 10
374.70000000000027
 20
846.88999999999987
 40
2.7000000000000001
 50
90
 51
180
  0
LINE
  8
_0-5_
  6
CONTINUOUS
 62
    4
 10
387.99999999999954
 20
737.59000000000003
 11
387.99999999999954
 21
826.59000000000003
  0
LINE
  8
_0-5_
  6
CONTINUOUS
 62
    4
 10
852
 20
746.59000000000003
 11
834.68299999999953
 21
746.59000000000003
  0
LINE
  8
_0-5_
  6
CENTER2
 62
    4
 10
856.17999999999983
 20
754.59000000000003
 11
832.72199999999929
 21
754.59000000000003
  0
LINE
  8
_0-5_
  6
CONTINUOUS
 62
    4
 10
838
 20
849.59000000000003
 11
838
 21
746.59000000000003
  0
ARC
  8
_0-5_
  6
CONTINUOUS
 62
    4
 10
827.61899999999923
 20
729.28999999999996
 40
6.7000000000000001
 50
270
 51
357.1952944435057
  0
LINE
  8
_0-5_
  6
CONTINUOUS
 62
    4
 10
838
 20
849.59000000000003
 11
834.31097421784033
 21
728.96215694645991
  0
LINE
  8
_0-5_
  6
CONTINUOUS
 62
    4
 10
835.30299999999942
 20
849.721
 11
831.61362256696793
 21
729.08265837980491
  0
ARC
  8
_0-5_
  6
CONTINUOUS
 62
    4
 10
827.61899999999923
 20
729.28999999999996
 40
4
 50
270
 51
357.02871845302161
  0
ARC
  8
_0-5_
  6
CONTINUOUS
 62
    4
 10
403.80300000000033
 20
729.28999999999996
 40
6.7000000000000001
 50
183.07772898696305
 51
270
  0
LINE
  8
_0-5_
  6
CONTINUOUS
 62
    4
 10
393.62399999999979
 20
843.091
 11
397.11266397640656
 21
728.93027247613429
  0
LINE
  8
_0-3_
  6
CONTINUOUS
 62
    4
 10
3460.5000000000009
 20
702.58999999999991
 11
4012.0000000000004
 21
702.58999999999991
  0
LINE
  8
_0-9_
  6
CONTINUOUS
 62
    4
 10
1110
 20
687.59000000000014
 11
888.30038410061933
 21
687.59000000000014
  0
LINE
  8
_0-9_
  6
CONTINUOUS
 62
    4
 10
1030
 20
692.59000000000014
 11
888.30038410061933
 21
692.59000000000014
  0
POINT
  8
_0-9_
 62
    3
 10
1100
 20
687.59000000000014
  0
LINE
  8
_0-9_
  6
CONTINUOUS
 62
    4
 10
3200.0000000000009
 20
687.59000000000014
 11
3411.5544755363953
 21
687.59000000000014
  0
LINE
  8
_0-9_
  6
CONTINUOUS
 62
    4
 10
3280.0000000000009
 20
692.59000000000014
 11
3411.5544755363953
 21
692.59000000000014
  0
POINT
  8
_0-9_
 62
    3
 10
3210.0000000000009
 20
687.59000000000014
  0
POINT
  8
_0-9_
 62
    3
 10
3290.0000000000009
 20
692.59000000000014
  0
LINE
  8
_0-6_
  6
DASHED1
 62
    6
 10
2647.5
 20
750.62300000000004
 11
2407.4999999999995
 21
750.62300000000004
  0
POINT
  8
_0-9_
 62
    3
 10
3690.00000000006
 20
871.1341301280604
  0
LINE
  8
_0-9_
  6
CONTINUOUS
 62
    4
 10
3690.00000000006
 20
871.1341301280604
 11
4030
 21
871.1341301280604
  0
TEXT
  8
_0-9_
 62
    7
 10
3826.9000000000301
 20
871.1341301280604
 40
35
 41
0.6285714285714286
 50
0
  1
３４０
  0
LINE
  8
_0-3_
  6
CONTINUOUS
 62
    5
 10
2680
 20
687.59000000000014
 11
2379.9999999999995
 21
687.59000000000014
  0
LINE
  8
_0-3_
  6
DASHED1
 62
    2
 10
2668
 20
705.09000000000014
 11
2391.999999999999
 21
705.09000000000014
  0
LINE
  8
_0-3_
  6
DASHED1
 62
    2
 10
1492
 20
705.09000000000014
 11
1768
 21
705.09000000000014
  0
LINE
  8
_0-3_
  6
DASHED1
 62
    7
 10
3745.00000000006
 20
705.09000000000014
 11
3745.00000000006
 21
687.59000000000014
  0
LINE
  8
_0-3_
  6
DASHED1
 62
    7
 10
3635.00000000006
 20
705.09000000000014
 11
3635.00000000006
 21
687.59000000000014
  0
LINE
  8
_0-4_
  6
CONTINUOUS
 62
    3
 10
1484
 20
692.59000000000014
 11
1777.9999999999997
 21
692.59000000000014
  0
LINE
  8
_0-3_
  6
CONTINUOUS
 62
    5
 10
1480
 20
687.59000000000014
 11
1781
 21
687.59000000000014
  0
LINE
  8
_0-4_
  6
CONTINUOUS
 62
    3
 10
2677.0000000000004
 20
692.59000000000014
 11
2382.9999999999995
 21
692.59000000000014
  0
LINE
  8
_0-3_
  6
CENTER2
 62
    4
 10
2491.6666666666665
 20
721.22900000000015
 11
2491.6666666666665
 21
662.98800000000005
  0
LINE
  8
_0-3_
  6
DASHED1
 62
    4
 10
2546.6666666666665
 20
705.09000000000014
 11
2546.6666666666665
 21
687.59000000000014
  0
LINE
  8
_0-3_
  6
DASHED1
 62
    4
 10
2437.6666666666665
 20
705.09000000000014
 11
2437.6666666666665
 21
687.59000000000014
  0
LINE
  8
_0-4_
  6
CONTINUOUS
 62
    3
 10
866.49999999999863
 20
692.59000000000014
 11
854.49999999999863
 21
692.59000000000014
  0
LINE
  8
_0-4_
  6
CONTINUOUS
 62
    3
 10
3444.0000000000009
 20
692.59000000000014
 11
3456.0000000000013
 21
692.59000000000014
  0
LINE
  8
_0-6_
  6
DASHED1
 62
    6
 10
2647.5
 20
965.62
 11
2647.5
 21
750.62300000000004
  0
LINE
  8
_0-6_
  6
DASHED1
 62
    6
 10
2647.5
 20
965.62
 11
2407.4999999999995
 21
965.62
  0
LINE
  8
_0-6_
  6
DASHED1
 62
    6
 10
2407.4999999999995
 20
965.62
 11
2407.4999999999995
 21
750.62300000000004
  0
LINE
  8
_0-9_
  6
CONTINUOUS
 62
    4
 10
3210.0000000000009
 20
587.59000000000014
 11
3210.0000000000009
 21
687.59000000000014
  0
TEXT
  8
_0-9_
 62
    7
 10
3210.0000000000009
 20
604.49000000000012
 40
35
 41
0.6285714285714286
 50
90
  1
１００
  0
LINE
  8
_0-9_
  6
CONTINUOUS
 62
    4
 10
3290.0000000000009
 20
692.59000000000014
 11
3290.0000000000009
 21
1182.5899999999999
  0
TEXT
  8
_0-9_
 62
    7
 10
3290.0000000000009
 20
904.49000000000012
 40
35
 41
0.6285714285714286
 50
90
  1
４９０
  0
LINE
  8
_0-4_
  6
CONTINUOUS
 62
    3
 10
3444.0000000000009
 20
1152.5899999999999
 11
3444.0000000000009
 21
692.59000000000014
  0
LINE
  8
_0-3_
  6
CONTINUOUS
 62
    4
 10
3460.0000000000009
 20
1162.0900000000003
 11
3460.0000000000009
 21
692.59000000000014
  0
LINE
  8
_0-3_
  6
CONTINUOUS
 62
    5
 10
3515.0000000000009
 20
687.59000000000014
 11
3515.0000000000009
 21
587.59000000000014
  0
LINE
  8
_0-3_
  6
CONTINUOUS
 62
    7
 10
3527.0000000000018
 20
687.59000000000014
 11
3527.0000000000018
 21
587.59000000000014
  0
LINE
  8
_0-4_
  6
CONTINUOUS
 62
    3
 10
2382.9999999999995
 20
1182.5899999999999
 11
2382.9999999999995
 21
692.59000000000014
  0
LINE
  8
_0-4_
  6
CONTINUOUS
 62
    3
 10
2677.0000000000004
 20
1182.5899999999999
 11
2677.0000000000004
 21
692.59000000000014
  0
LINE
  8
_0-4_
  6
CONTINUOUS
 62
    3
 10
1777.9999999999997
 20
997.59000000000014
 11
1777.9999999999997
 21
692.59000000000014
  0
LINE
  8
_0-4_
  6
CONTINUOUS
 62
    3
 10
1484
 20
997.59000000000014
 11
1484
 21
692.59000000000014
  0
LINE
  8
_0-4_
  6
CONTINUOUS
 62
    3
 10
854.49999999999863
 20
967.59000000000105
 11
854.49999999999863
 21
692.59000000000014
  0
LINE
  8
_0-4_
  6
CONTINUOUS
 62
    3
 10
866.49999999999863
 20
967.59000000000105
 11
866.49999999999863
 21
692.59000000000014
  0
LINE
  8
_0-3_
  6
CONTINUOUS
 62
    5
 10
794.99999999999943
 20
687.59000000000014
 11
794.99999999999943
 21
587.59000000000014
  0
LINE
  8
_0-3_
  6
CONTINUOUS
 62
    7
 10
782.99999999999897
 20
687.59000000000014
 11
782.99999999999897
 21
587.59000000000014
  0
LINE
  8
_0-9_
  6
CONTINUOUS
 62
    4
 10
1020
 20
692.59000000000014
 11
1020
 21
997.59000000000014
  0
TEXT
  8
_0-9_
 62
    7
 10
1020
 20
811.99000000000012
 40
35
 41
0.6285714285714286
 50
90
  1
３０５
  0
LINE
  8
_0-9_
  6
CONTINUOUS
 62
    4
 10
1100
 20
587.59000000000014
 11
1100
 21
687.59000000000014
  0
TEXT
  8
_0-9_
 62
    7
 10
1100
 20
604.49000000000012
 40
35
 41
0.6285714285714286
 50
90
  1
１００
  0
LINE
  8
_0-4_
  6
CONTINUOUS
 62
    3
 10
3456.0000000000013
 20
1152.5899999999999
 11
3456.0000000000013
 21
692.59000000000014
  0
LINE
  8
_0-4_
  6
CENTER1
 62
    4
 10
2382.9999999999995
 20
692.59000000000014
 11
2677.0000000000004
 21
937.59000000000014
  0
LINE
  8
_0-4_
  6
CENTER1
 62
    4
 10
2677.0000000000004
 20
937.59000000000014
 11
2382.9999999999995
 21
1182.5899999999999
  0
TEXT
  8
_0-d_
 62
    7
 10
3345
 20
2740.4999999999995
 40
35
 41
0.6857142857142857
 50
0
  1
ステンレス４４３ＣＴ　銀河エンボス　０．６ｔ　ゴミ収納器
  0
ARC
  8
_0-2_
  6
CONTINUOUS
 62
    4
 10
3603.5989244757593
 20
1206.5904721754143
 40
0.4
 50
90
 51
180
  0
LINE
  8
_0-2_
  6
CONTINUOUS
 62
    4
 10
3603.1989244757596
 20
1206.5904721754143
 11
3603.1989244757596
 21
1206.3504721754143
  0
LINE
  8
_0-2_
  6
CONTINUOUS
 62
    4
 10
3603.1989244757596
 20
1205.0268361754142
 11
3603.1989244757596
 21
1205.2304721754144
  0
LINE
  8
_0-2_
  6
CONTINUOUS
 62
    4
 10
3600.3989244757599
 20
1206.3504721754143
 11
3600.3989244757599
 21
1205.2304721754144
  0
LINE
  8
_0-2_
  6
CONTINUOUS
 62
    4
 10
3600.7989244757595
 20
1190.2268361754142
 11
3600.7989244757595
 21
1200.9735031754141
  0
LINE
  8
_0-2_
  6
CONTINUOUS
 62
    4
 10
3605.9989244757593
 20
1200.2632001754143
 11
3605.9989244757593
 21
1190.2268361754142
  0
LINE
  8
_0-2_
  6
CONTINUOUS
 62
    4
 10
3600.3989244757599
 20
1201.3759921754142
 11
3600.3989244757599
 21
1205.0268361754142
  0
ARC
  8
_0-2_
  6
CONTINUOUS
 62
    4
 10
3602.3989244757594
 20
1190.2268361754142
 40
1.6000000000000003
 50
180
 51
270
  0
ARC
  8
_0-2_
  6
CONTINUOUS
 62
    4
 10
3607.5989244757593
 20
1190.2268361754142
 40
1.6000000000000003
 50
180
 51
270
  0
LINE
  8
_0-2_
  6
CONTINUOUS
 62
    4
 10
3600.7448794757592
 20
1200.9796601754144
 11
3605.9989244757593
 21
1200.2632001754143
  0
ARC
  8
_0-2_
  6
CONTINUOUS
 62
    4
 10
3600.7989244757595
 20
1201.3759921754142
 40
0.4
 50
180
 51
262.23483399999997
  0
LINE
  8
_0-2_
  6
CONTINUOUS
 62
    4
 10
3623.6636864757592
 20
1200.9796601754144
 11
3623.6636864757592
 21
1188.6268361754143
  0
LINE
  8
_0-2_
  6
CONTINUOUS
 62
    4
 10
3619.9843154757591
 20
1200.9796601754144
 11
3619.9843154757591
 21
1188.6268361754143
  0
LINE
  8
_0-2_
  6
CONTINUOUS
 62
    4
 10
3627.0577994757595
 20
1190.2268361754142
 11
3627.0577994757595
 21
1200.2632001754143
  0
LINE
  8
_0-2_
  6
CONTINUOUS
 62
    4
 10
3623.6636864757592
 20
1200.9796601754144
 11
3627.0577994757595
 21
1200.2632001754143
  0
LINE
  8
_0-2_
  6
CONTINUOUS
 62
    4
 10
3605.9989244757593
 20
1200.2632001754143
 11
3619.9843154757591
 21
1200.2632001754143
  0
LINE
  8
_0-2_
  6
CONTINUOUS
 62
    4
 10
3669.5989244757593
 20
1200.9796601754144
 11
3669.5989244757593
 21
1188.6268361754143
  0
LINE
  8
_0-2_
  6
CONTINUOUS
 62
    4
 10
3602.3989244757594
 20
1208.1904721754142
 11
3608.3989244757594
 21
1206.9904721754144
  0
ARC
  8
_0-2_
  6
CONTINUOUS
 62
    4
 10
3600.7989244757595
 20
1209.7904721754143
 40
0.8000000000000001
 50
86.525398999999993
 51
245.704811
  0
LINE
  8
_0-2_
  6
CONTINUOUS
 62
    4
 10
3600.4697744757595
 20
1209.0613221754142
 11
3602.3989244757594
 21
1208.1904721754142
  0
LINE
  8
_0-2_
  6
CONTINUOUS
 62
    4
 10
3611.9989244757589
 20
1188.6268361754143
 11
3611.9989244757589
 21
1188.5904721754143
  0
LINE
  8
_0-2_
  6
CONTINUOUS
 62
    4
 10
3613.513225475759
 20
1188.5904721754143
 11
3611.9989244757589
 21
1188.5904721754143
  0
ARC
  8
_0-2_
  6
CONTINUOUS
 62
    4
 10
3613.513225475759
 20
1182.9904721754141
 40
5.5999999999999996
 50
2.4163609999999895
 51
90
  0
LINE
  8
_0-2_
  6
CONTINUOUS
 62
    4
 10
3620.6078654757593
 20
1147.6892861754142
 11
3619.1082454757588
 21
1183.2265741754142
  0
ARC
  8
_0-2_
  6
CONTINUOUS
 62
    4
 10
3623.0057314757596
 20
1147.7904721754141
 40
2.3999999999999999
 50
182.41636100000002
 51
229.595561
  0
ARC
  8
_0-2_
  6
CONTINUOUS
 62
    4
 10
3619.8944724757598
 20
1144.1353291754144
 40
2.3999999999999999
 50
2.5791449999999955
 51
49.595560999999989
  0
LINE
  8
_0-2_
  6
CONTINUOUS
 62
    4
 10
3600.7989244757595
 20
1210.5904721754143
 11
3689.9999999999945
 21
1210.5904721754143
  0
LINE
  8
_0-2_
  6
CONTINUOUS
 62
    4
 10
3600.3989244757599
 20
1205.2304721754144
 11
3689.9999999999945
 21
1205.2304721754144
  0
LINE
  8
_0-2_
  6
CONTINUOUS
 62
    4
 10
3600.3989244757599
 20
1206.3504721754143
 11
3689.9999999999945
 21
1206.3504721754143
  0
LINE
  8
_0-2_
  6
CONTINUOUS
 62
    4
 10
3689.9999999999945
 20
1206.9904721754144
 11
3603.5989244757593
 21
1206.9904721754144
  0
LINE
  8
_0-2_
  6
CONTINUOUS
 62
    4
 10
3600.7448794757592
 20
1200.9796601754144
 11
3689.9999999999945
 21
1200.9796601754144
  0
LINE
  8
_0-2_
  6
CONTINUOUS
 62
    4
 10
3627.0577994757595
 20
1200.2632001754143
 11
3689.9999999999945
 21
1200.2632001754143
  0
LINE
  8
_0-2_
  6
CONTINUOUS
 62
    4
 10
3689.9999999999945
 20
1205.0268361754142
 11
3600.3989244757599
 21
1205.0268361754142
  0
LINE
  8
_0-2_
  6
CONTINUOUS
 62
    4
 10
3689.9999999999945
 20
1188.6268361754143
 11
3602.3989244757594
 21
1188.6268361754143
  0
LINE
  8
_0-2_
  6
CONTINUOUS
 62
    4
 10
3602.3989244757594
 20
1208.1904721754142
 11
3689.9999999999945
 21
1208.1904721754142
  0
LINE
  8
_0-2_
  6
CONTINUOUS
 62
    4
 10
3689.9999999999945
 20
1145.3904721754142
 11
3621.9401064757594
 21
1145.3904721754142
  0
ARC
  8
_0-2_
  6
CONTINUOUS
 62
    4
 10
3776.4010755242293
 20
1206.5904721754143
 40
0.4
 50
0
 51
90
  0
LINE
  8
_0-2_
  6
CONTINUOUS
 62
    4
 10
3776.8010755242289
 20
1206.5904721754143
 11
3776.8010755242289
 21
1206.3504721754143
  0
LINE
  8
_0-2_
  6
CONTINUOUS
 62
    4
 10
3776.8010755242289
 20
1205.0268361754142
 11
3776.8010755242289
 21
1205.2304721754144
  0
LINE
  8
_0-2_
  6
CONTINUOUS
 62
    4
 10
3779.6010755242286
 20
1206.3504721754143
 11
3779.6010755242286
 21
1205.2304721754144
  0
LINE
  8
_0-2_
  6
CONTINUOUS
 62
    4
 10
3779.201075524229
 20
1190.2268361754142
 11
3779.201075524229
 21
1200.9735031754141
  0
LINE
  8
_0-2_
  6
CONTINUOUS
 62
    4
 10
3774.0010755242292
 20
1200.2632001754143
 11
3774.0010755242292
 21
1190.2268361754142
  0
LINE
  8
_0-2_
  6
CONTINUOUS
 62
    4
 10
3779.6010755242286
 20
1201.3759921754142
 11
3779.6010755242286
 21
1205.0268361754142
  0
ARC
  8
_0-2_
  6
CONTINUOUS
 62
    4
 10
3777.6010755242295
 20
1190.2268361754142
 40
1.6000000000000003
 50
270
 51
0
  0
ARC
  8
_0-2_
  6
CONTINUOUS
 62
    4
 10
3772.4010755242297
 20
1190.2268361754142
 40
1.6000000000000003
 50
270
 51
0
  0
LINE
  8
_0-2_
  6
CONTINUOUS
 62
    4
 10
3779.2551205242298
 20
1200.9796601754144
 11
3774.0010755242292
 21
1200.2632001754143
  0
ARC
  8
_0-2_
  6
CONTINUOUS
 62
    4
 10
3779.201075524229
 20
1201.3759921754142
 40
0.4
 50
277.76516600000002
 51
0
  0
LINE
  8
_0-2_
  6
CONTINUOUS
 62
    4
 10
3756.3363135242293
 20
1200.9796601754144
 11
3756.3363135242293
 21
1188.6268361754143
  0
LINE
  8
_0-2_
  6
CONTINUOUS
 62
    4
 10
3760.015684524229
 20
1200.9796601754144
 11
3760.015684524229
 21
1188.6268361754143
  0
LINE
  8
_0-2_
  6
CONTINUOUS
 62
    4
 10
3752.9422005242295
 20
1190.2268361754142
 11
3752.9422005242295
 21
1200.2632001754143
  0
LINE
  8
_0-2_
  6
CONTINUOUS
 62
    4
 10
3756.3363135242293
 20
1200.9796601754144
 11
3752.9422005242295
 21
1200.2632001754143
  0
LINE
  8
_0-2_
  6
CONTINUOUS
 62
    4
 10
3774.0010755242292
 20
1200.2632001754143
 11
3760.015684524229
 21
1200.2632001754143
  0
LINE
  8
_0-2_
  6
CONTINUOUS
 62
    4
 10
3710.4010755242288
 20
1200.9796601754144
 11
3710.4010755242288
 21
1188.6268361754143
  0
LINE
  8
_0-2_
  6
CONTINUOUS
 62
    4
 10
3777.6010755242295
 20
1208.1904721754142
 11
3771.6010755242291
 21
1206.9904721754144
  0
ARC
  8
_0-2_
  6
CONTINUOUS
 62
    4
 10
3779.201075524229
 20
1209.7904721754143
 40
0.8000000000000001
 50
294.29518899999999
 51
93.474601000000006
  0
LINE
  8
_0-2_
  6
CONTINUOUS
 62
    4
 10
3779.530225524229
 20
1209.0613221754142
 11
3777.6010755242295
 21
1208.1904721754142
  0
LINE
  8
_0-2_
  6
CONTINUOUS
 62
    4
 10
3768.0010755242296
 20
1188.6268361754143
 11
3768.0010755242296
 21
1188.5904721754143
  0
LINE
  8
_0-2_
  6
CONTINUOUS
 62
    4
 10
3766.486774524229
 20
1188.5904721754143
 11
3768.0010755242296
 21
1188.5904721754143
  0
ARC
  8
_0-2_
  6
CONTINUOUS
 62
    4
 10
3766.486774524229
 20
1182.9904721754141
 40
5.5999999999999996
 50
90
 51
177.583639
  0
LINE
  8
_0-2_
  6
CONTINUOUS
 62
    4
 10
3759.3921345242288
 20
1147.6892861754142
 11
3760.8917545242297
 21
1183.2265741754142
  0
ARC
  8
_0-2_
  6
CONTINUOUS
 62
    4
 10
3756.994268524229
 20
1147.7904721754141
 40
2.3999999999999999
 50
310.40443900000002
 51
357.58363899999994
  0
ARC
  8
_0-2_
  6
CONTINUOUS
 62
    4
 10
3760.1055275242288
 20
1144.1353291754144
 40
2.3999999999999999
 50
130.40443899999999
 51
177.42085500000001
  0
LINE
  8
_0-2_
  6
CONTINUOUS
 62
    4
 10
3779.201075524229
 20
1210.5904721754143
 11
3689.9999999999945
 21
1210.5904721754143
  0
LINE
  8
_0-2_
  6
CONTINUOUS
 62
    4
 10
3779.6010755242286
 20
1205.2304721754144
 11
3689.9999999999945
 21
1205.2304721754144
  0
LINE
  8
_0-2_
  6
CONTINUOUS
 62
    4
 10
3779.6010755242286
 20
1206.3504721754143
 11
3689.9999999999945
 21
1206.3504721754143
  0
LINE
  8
_0-2_
  6
CONTINUOUS
 62
    4
 10
3689.9999999999945
 20
1206.9904721754144
 11
3776.4010755242293
 21
1206.9904721754144
  0
LINE
  8
_0-2_
  6
CONTINUOUS
 62
    4
 10
3779.2551205242298
 20
1200.9796601754144
 11
3689.9999999999945
 21
1200.9796601754144
  0
LINE
  8
_0-2_
  6
CONTINUOUS
 62
    4
 10
3752.9422005242295
 20
1200.2632001754143
 11
3689.9999999999945
 21
1200.2632001754143
  0
LINE
  8
_0-2_
  6
CONTINUOUS
 62
    4
 10
3689.9999999999945
 20
1205.0268361754142
 11
3779.6010755242286
 21
1205.0268361754142
  0
LINE
  8
_0-2_
  6
CONTINUOUS
 62
    4
 10
3689.9999999999945
 20
1188.6268361754143
 11
3777.6010755242295
 21
1188.6268361754143
  0
LINE
  8
_0-2_
  6
CONTINUOUS
 62
    4
 10
3777.6010755242295
 20
1208.1904721754142
 11
3689.9999999999945
 21
1208.1904721754142
  0
LINE
  8
_0-2_
  6
CONTINUOUS
 62
    4
 10
3689.9999999999945
 20
1145.3904721754142
 11
3758.0598935242287
 21
1145.3904721754142
  0
LINE
  8
_0-2_
  6
CONTINUOUS
 62
    4
 10
3689.9999999999945
 20
1053.2504721754144
 11
3632.4466764757589
 21
1053.2504721754144
  0
LINE
  8
_0-2_
  6
CONTINUOUS
 62
    4
 10
3689.9999999999945
 20
1053.2504721754144
 11
3747.5533235242296
 21
1053.2504721754144
  0
LINE
  8
_0-2_
  6
CONTINUOUS
 62
    4
 10
3660.1999999999943
 20
1049.2623271754143
 11
3660.1999999999943
 21
1050.5576521754142
  0
LINE
  8
_0-2_
  6
CONTINUOUS
 62
    4
 10
3660.1999999999943
 20
1050.5576521754142
 11
3661.3999999999941
 21
1051.2504721754144
  0
ARC
  8
_0-2_
  6
CONTINUOUS
 62
    4
 10
3659.7999999999938
 20
1051.6504721754142
 40
1.6000000000000003
 50
0
 51
90
  0
LINE
  8
_0-2_
  6
CONTINUOUS
 62
    4
 10
3661.3999999999941
 20
1051.2504721754144
 11
3661.3999999999941
 21
1051.6504721754142
  0
LINE
  8
_0-2_
  6
CONTINUOUS
 62
    4
 10
3661.3999999999941
 20
1051.2504721754144
 11
3661.3999999999941
 21
1049.2623271754143
  0
LINE
  8
_0-2_
  6
CONTINUOUS
 62
    4
 10
3660.1999999999943
 20
1038.5832931754143
 11
3660.1999999999943
 21
1050.5576521754142
  0
LINE
  8
_0-2_
  6
CONTINUOUS
 62
    4
 10
3660.1999999999943
 20
1050.5576521754142
 11
3661.3999999999941
 21
1051.2504721754144
  0
ARC
  8
_0-2_
  6
CONTINUOUS
 62
    4
 10
3659.7999999999938
 20
1051.6504721754142
 40
1.6000000000000003
 50
0
 51
90
  0
LINE
  8
_0-2_
  6
CONTINUOUS
 62
    4
 10
3661.3999999999941
 20
1051.2504721754144
 11
3661.3999999999941
 21
1051.6504721754142
  0
LINE
  8
_0-2_
  6
CONTINUOUS
 62
    4
 10
3661.3999999999941
 20
1037.8904721754142
 11
3660.1999999999943
 21
1038.5832931754143
  0
LINE
  8
_0-2_
  6
CONTINUOUS
 62
    4
 10
3661.3999999999941
 20
1051.2504721754144
 11
3661.3999999999941
 21
1037.8904721754142
  0
LINE
  8
_0-2_
  6
CONTINUOUS
 62
    4
 10
3719.7999999999947
 20
1049.2623271754143
 11
3719.7999999999947
 21
1050.5576521754142
  0
LINE
  8
_0-2_
  6
CONTINUOUS
 62
    4
 10
3719.7999999999947
 20
1050.5576521754142
 11
3718.5999999999944
 21
1051.2504721754144
  0
ARC
  8
_0-2_
  6
CONTINUOUS
 62
    4
 10
3720.1999999999948
 20
1051.6504721754142
 40
1.6000000000000003
 50
90
 51
180
  0
LINE
  8
_0-2_
  6
CONTINUOUS
 62
    4
 10
3718.5999999999944
 20
1051.2504721754144
 11
3718.5999999999944
 21
1051.6504721754142
  0
LINE
  8
_0-2_
  6
CONTINUOUS
 62
    4
 10
3718.5999999999944
 20
1051.2504721754144
 11
3718.5999999999944
 21
1049.2623271754143
  0
LINE
  8
_0-2_
  6
CONTINUOUS
 62
    4
 10
3719.7999999999947
 20
1038.5832931754143
 11
3719.7999999999947
 21
1050.5576521754142
  0
LINE
  8
_0-2_
  6
CONTINUOUS
 62
    4
 10
3719.7999999999947
 20
1050.5576521754142
 11
3718.5999999999944
 21
1051.2504721754144
  0
ARC
  8
_0-2_
  6
CONTINUOUS
 62
    4
 10
3720.1999999999948
 20
1051.6504721754142
 40
1.6000000000000003
 50
90
 51
180
  0
LINE
  8
_0-2_
  6
CONTINUOUS
 62
    4
 10
3718.5999999999944
 20
1051.2504721754144
 11
3718.5999999999944
 21
1051.6504721754142
  0
LINE
  8
_0-2_
  6
CONTINUOUS
 62
    4
 10
3718.5999999999944
 20
1037.8904721754142
 11
3719.7999999999947
 21
1038.5832931754143
  0
LINE
  8
_0-2_
  6
CONTINUOUS
 62
    4
 10
3718.5999999999944
 20
1051.2504721754144
 11
3718.5999999999944
 21
1037.8904721754142
  0
LINE
  8
_0-2_
  6
CONTINUOUS
 62
    4
 10
3718.5999999999944
 20
1051.2504721754144
 11
3689.9999999999945
 21
1051.2504721754144
  0
LINE
  8
_0-2_
  6
CONTINUOUS
 62
    4
 10
3661.3999999999941
 20
1051.2504721754144
 11
3689.9999999999945
 21
1051.2504721754144
  0
LINE
  8
_0-2_
  6
CONTINUOUS
 62
    4
 10
3660.1999999999943
 20
1050.5576521754142
 11
3689.9999999999945
 21
1050.5576521754142
  0
LINE
  8
_0-2_
  6
CONTINUOUS
 62
    4
 10
3719.7999999999947
 20
1050.5576521754142
 11
3689.9999999999945
 21
1050.5576521754142
  0
LINE
  8
_0-2_
  6
CONTINUOUS
 62
    4
 10
3719.7999999999947
 20
1038.5832931754143
 11
3689.9999999999945
 21
1038.5832931754143
  0
LINE
  8
_0-2_
  6
CONTINUOUS
 62
    4
 10
3661.3999999999941
 20
1038.5832931754143
 11
3689.9999999999945
 21
1038.5832931754143
  0
LINE
  8
_0-2_
  6
CONTINUOUS
 62
    4
 10
3661.3999999999941
 20
1037.8904721754142
 11
3689.9999999999945
 21
1037.8904721754142
  0
LINE
  8
_0-2_
  6
CONTINUOUS
 62
    4
 10
3718.5999999999944
 20
1037.8904721754142
 11
3689.9999999999945
 21
1037.8904721754142
  0
LINE
  8
_0-2_
  6
CONTINUOUS
 62
    4
 10
3757.707958524229
 20
1144.2433281754142
 11
3753.9565526206806
 21
1060.9620387144213
  0
LINE
  8
_0-2_
  6
CONTINUOUS
 62
    4
 10
3622.2920414757595
 20
1144.2433281754142
 11
3626.0370477628657
 21
1061.1041103331933
  0
ARC
  8
_0-2_
  6
CONTINUOUS
 62
    4
 10
3634.0289438846007
 20
1061.2504721754144
 40
8
 50
182.57914499999998
 51
270
  0
ARC
  8
_0-2_
  6
CONTINUOUS
 62
    4
 10
3745.9646564989452
 20
1061.2504721754144
 40
8
 50
270
 51
357.42085500000001
  0
LINE
  8
_0-2_
  6
CONTINUOUS
 62
    4
 10
3599.4629498240378
 20
1210.5899999999996
 11
3600.7989244757595
 21
1210.5904721754143
  0
LINE
  8
_0-2_
  6
CONTINUOUS
 62
    4
 10
3597.3158572193842
 20
1210.1859698421444
 11
3599.9999999999945
 21
1210.1739643154969
  0
LINE
  8
_0-2_
  6
CONTINUOUS
 62
    4
 10
3780.499999999999
 20
1210.5890015857603
 11
3779.3740645131288
 21
1210.5890015857603
  0
LINE
  8
_0-2_
  6
CONTINUOUS
 62
    4
 10
3782.7173403732094
 20
1210.1890015857604
 11
3780.039591901087
 21
1210.1890015857604
  0
LINE
  8
_0-2_
  6
CONTINUOUS
 62
    4
 10
3517.2170603665463
 20
1217.5019268730809
 11
3597.3159476446107
 21
1210.1869599983722
  0
LINE
  8
_0-2_
  6
CONTINUOUS
 62
    4
 10
3862.7829396334554
 20
1217.5019268730809
 11
3782.7064077372915
 21
1210.1890015857604
  0
LINE
  8
_0-d_
  6
CONTINUOUS
 62
    3
 10
4115
 20
2229.9999999999995
 11
4115
 21
1734.9999999999988
  0
LINE
  8
_0-d_
  6
CONTINUOUS
 62
    7
 10
3800.2421204263214
 20
2159.9999999999995
 11
3800.2421204263214
 21
2039.9999999999995
  0
TEXT
  8
_0-d_
 62
    7
 10
3860.6210602131604
 20
2179.9999999999995
 40
35
 41
0.8571428571428569
 50
0
  1
扉　色
  0
TEXT
  8
_0-d_
 62
    7
 10
3715.7122200188973
 20
2112.4999999999995
 40
35
 41
0.8571428571428569
 50
0
  1
ＳＷ
  0
TEXT
  8
_0-d_
 62
    7
 10
3830.24212042632
 20
2112.4999999999995
 40
35
 41
0.8571428571428569
 50
0
  1
ホワイト
  0
TEXT
  8
_0-d_
 62
    7
 10
3720.7036754285845
 20
2053.0893268157797
 40
35
 41
0.8571428571428569
 50
0
  1
ＬＧ
  0
LINE
  8
_0-d_
  6
CONTINUOUS
 62
    3
 10
3700.2421204263214
 20
2229.9999999999995
 11
3700.2421204263214
 21
1734.9999999999988
  0
LINE
  8
_0-d_
  6
CONTINUOUS
 62
    7
 10
3800.2421204263214
 20
2034.9999999999995
 11
3800.2421204263214
 21
1734.9999999999988
  0
TEXT
  8
_0-d_
 62
    7
 10
3830.3411143313564
 20
2053.0893268157797
 40
35
 41
0.8571428571428569
 50
0
  1
木　　目
  0
TEXT
  8
_0-d_
 62
    7
 10
3715.7122200188973
 20
1987.4999999999995
 40
35
 41
0.8571428571428569
 50
0
  1
ＵＷ
  0
TEXT
  8
_0-d_
 62
    7
 10
3830.24212042632
 20
1987.4999999999995
 40
35
 41
0.8571428571428569
 50
0
  1
ｳﾙﾄﾗﾎﾜｲﾄ（艶有）
  0
TEXT
  8
_0-d_
 62
    7
 10
3720.7036754285845
 20
1928.0893268157797
 40
35
 41
0.8571428571428569
 50
0
  1
ＷＮ
  0
TEXT
  8
_0-d_
 62
    7
 10
3830.24212042632
 20
1927.499999999999
 40
35
 41
0.8571428571428569
 50
0
  1
ｳｨﾝｻﾞｰﾅｯﾄ（艶有）
  0
TEXT
  8
_0-d_
 62
    7
 10
3720.7036754285845
 20
1868.0893268157794
 40
35
 41
0.8571428571428569
 50
0
  1
ＢＳ
  0
TEXT
  8
_0-d_
 62
    7
 10
3830.341114331356
 20
1868.0893268157794
 40
35
 41
0.8571428571428569
 50
0
  1
ブラックストーン
  0
TEXT
  8
_0-d_
 62
    7
 10
3720.7036754285845
 20
1808.0893268157792
 40
35
 41
0.8571428571428569
 50
0
  1
ＰＭ
  0
TEXT
  8
_0-d_
 62
    7
 10
3830.3411143313564
 20
1808.0893268157792
 40
35
 41
0.8571428571428569
 50
0
  1
ペールグレイン
  0
TEXT
  8
_0-d_
 62
    7
 10
3720.7036754285845
 20
1748.0893268157792
 40
35
 41
0.8571428571428569
 50
0
  1
ＭＤ
  0
LINE
  8
_0-d_
  6
CONTINUOUS
 62
    3
 10
4115
 20
2229.9999999999995
 11
3700.2421204263214
 21
2229.9999999999995
  0
LINE
  8
_0-d_
  6
CONTINUOUS
 62
    3
 10
4115
 20
1734.9999999999988
 11
3700.2421204263214
 21
1734.9999999999988
  0
LINE
  8
_0-d_
  6
CONTINUOUS
 62
    7
 10
3700.2421204263214
 20
2099.9999999999995
 11
4115
 21
2099.9999999999995
  0
LINE
  8
_0-d_
  6
CONTINUOUS
 62
    7
 10
4115
 20
2099.9999999999995
 11
3700.2421204263214
 21
2099.9999999999995
  0
LINE
  8
_0-d_
  6
CONTINUOUS
 62
    3
 10
4115
 20
2099.9999999999995
 11
3700.2421204263214
 21
2099.9999999999995
  0
LINE
  8
_0-d_
  6
CONTINUOUS
 62
    3
 10
4115
 20
2039.9999999999995
 11
3700.2421204263214
 21
2039.9999999999995
  0
LINE
  8
_0-d_
  6
CONTINUOUS
 62
    7
 10
4115
 20
1974.9999999999995
 11
3700.2421204263214
 21
1974.9999999999995
  0
LINE
  8
_0-d_
  6
CONTINUOUS
 62
    3
 10
4115
 20
1974.9999999999995
 11
3700.2421204263214
 21
1974.9999999999995
  0
LINE
  8
_0-d_
  6
CONTINUOUS
 62
    3
 10
4115
 20
1914.999999999999
 11
3700.2421204263214
 21
1914.999999999999
  0
LINE
  8
_0-d_
  6
CONTINUOUS
 62
    7
 10
3700.2421204263214
 20
1974.9999999999995
 11
4115
 21
1974.9999999999995
  0
LINE
  8
_0-d_
  6
CONTINUOUS
 62
    7
 10
4115
 20
2039.9999999999995
 11
3700.2421204263214
 21
2039.9999999999995
  0
LINE
  8
_0-d_
  6
CONTINUOUS
 62
    7
 10
4115
 20
2034.9999999999995
 11
3700.2421204263214
 21
2034.9999999999995
  0
LINE
  8
_0-d_
  6
CONTINUOUS
 62
    7
 10
4115
 20
1914.999999999999
 11
3700.2421204263214
 21
1914.999999999999
  0
LINE
  8
_0-d_
  6
CONTINUOUS
 62
    3
 10
4115
 20
1914.999999999999
 11
3700.2421204263214
 21
1914.999999999999
  0
LINE
  8
_0-d_
  6
CONTINUOUS
 62
    3
 10
4115
 20
1854.9999999999988
 11
3700.2421204263214
 21
1854.9999999999988
  0
LINE
  8
_0-d_
  6
CONTINUOUS
 62
    7
 10
3700.2421204263214
 20
1914.999999999999
 11
4115
 21
1914.999999999999
  0
LINE
  8
_0-d_
  6
CONTINUOUS
 62
    7
 10
4115
 20
1854.9999999999988
 11
3700.2421204263214
 21
1854.9999999999988
  0
LINE
  8
_0-d_
  6
CONTINUOUS
 62
    3
 10
4115
 20
1854.9999999999988
 11
3700.2421204263214
 21
1854.9999999999988
  0
LINE
  8
_0-d_
  6
CONTINUOUS
 62
    3
 10
4115
 20
1794.9999999999988
 11
3700.2421204263214
 21
1794.9999999999988
  0
LINE
  8
_0-d_
  6
CONTINUOUS
 62
    7
 10
3700.2421204263214
 20
1854.9999999999988
 11
4115
 21
1854.9999999999988
  0
LINE
  8
_0-d_
  6
CONTINUOUS
 62
    7
 10
4115
 20
1794.9999999999988
 11
3700.2421204263214
 21
1794.9999999999988
  0
LINE
  8
_0-d_
  6
CONTINUOUS
 62
    3
 10
4115
 20
1794.9999999999988
 11
3700.2421204263214
 21
1794.9999999999988
  0
LINE
  8
_0-d_
  6
CONTINUOUS
 62
    7
 10
3700.2421204263214
 20
1794.9999999999988
 11
4115
 21
1794.9999999999988
  0
LINE
  8
_0-d_
  6
CONTINUOUS
 62
    7
 10
4115
 20
2159.9999999999995
 11
3700.2421204263214
 21
2159.9999999999995
  0
LINE
  8
_0-d_
  6
CONTINUOUS
 62
    7
 10
4115
 20
2164.9999999999995
 11
3700.2421204263214
 21
2164.9999999999995
  0
TEXT
  8
_0-d_
 62
    7
 10
3830.3411143313564
 20
1748.0893268157792
 40
35
 41
0.8571428571428569
 50
0
  1
ダークグレイン
  0
TEXT
  8
_0-d_
 62
    7
 10
3345
 20
2524.4999999999986
 40
35
 41
0.8571428571428569
 50
0
  1
片面化粧パーティクルボード　１２ｔ
  0
TEXT
  8
_f-8_
 62
    7
 10
838.0686695278971
 20
137.5
 40
45
 41
0.8
 50
0
  1
ロータイプ流し台
  0
TEXT
  8
_f-8_
 62
    7
 10
1516.8347639484977
 20
137.5
 40
45
 41
0.6666666666666666
 50
0
  1
ＫＴＤ６－７５－１２０ＤＳ（右）
  0
TEXT
  8
_f-8_
 62
    7
 10
3043
 20
142.5
 40
35
 41
0.5714285714285712
 50
0
  1
２０２３．０５．０１
  0
TEXT
  8
_f-8_
 62
    7
 10
3584.3160698881233
 20
145
 40
30
 41
0.733333333333333
 50
0
  1
Ｔ．Ｋ
  0
LINE
  8
_e-0_
  6
CONTINUOUS
 62
    7
 10
2243.7859302690862
 20
199.51965480360598
 11
2272.9339284698526
 21
210.12865853712995
  0
LINE
  8
_e-0_
  6
CONTINUOUS
 62
    7
 10
2237.6336615052869
 20
191.95952323799758
 11
2287.5529504706664
 21
210.12865853712895
  0
LINE
  8
_e-0_
  6
CONTINUOUS
 62
    7
 10
2234.2067375789874
 20
185.39133607135255
 11
2263.8643430051365
 21
196.18582166608263
  0
LINE
  8
_e-0_
  6
CONTINUOUS
 62
    7
 10
2232.2119570371696
 20
179.34440646785787
 11
2253.9586582709303
 21
187.25955841042662
  0
LINE
  8
_e-0_
  6
CONTINUOUS
 62
    7
 10
2231.2024514117433
 20
173.65608760649877
 11
2249.4574587956462
 21
180.3003669205492
  0
LINE
  8
_e-0_
  6
CONTINUOUS
 62
    7
 10
2230.9649088875535
 20
168.248740335938
 11
2249.3748102388385
 21
174.94939644358311
  0
LINE
  8
_e-0_
  6
CONTINUOUS
 62
    7
 10
2231.3837497438626
 20
163.08029707814966
 11
2249.8286640768283
 21
169.79369686893903
  0
LINE
  8
_e-0_
  6
CONTINUOUS
 62
    7
 10
2232.3950068941753
 20
158.12747571767488
 11
2251.269568818267
 21
164.99725444285843
  0
LINE
  8
_e-0_
  6
CONTINUOUS
 62
    7
 10
2233.9675550564961
 20
153.37894757832998
 11
2253.6625167678698
 21
160.54732740628253
  0
LINE
  8
_e-0_
  6
CONTINUOUS
 62
    7
 10
2236.0955302019183
 20
148.83257832814223
 11
2257.099910488102
 21
156.47754754152117
  0
LINE
  8
_e-0_
  6
CONTINUOUS
 62
    7
 10
2238.7970089264299
 20
144.49494730998821
 11
2261.880116002736
 21
152.89651120014326
  0
LINE
  8
_e-0_
  6
CONTINUOUS
 62
    7
 10
2242.1181877425701
 20
140.38286867935909
 11
2268.9468388985251
 21
150.14769912563821
  0
LINE
  8
_e-0_
  6
CONTINUOUS
 62
    7
 10
2246.1455691824353
 20
136.52782678312661
 11
2284.5651405528205
 21
150.51140717521263
  0
LINE
  8
_e-0_
  6
CONTINUOUS
 62
    7
 10
2251.0351047702797
 20
132.98658333410969
 11
2279.1844822576495
 21
143.2321188526356
  0
LINE
  8
_e-0_
  6
CONTINUOUS
 62
    7
 10
2279.5849322183671
 20
201.90764820482513
 11
2302.1719724714803
 21
210.12865853713066
  0
LINE
  8
_e-0_
  6
CONTINUOUS
 62
    7
 10
2260.5624543087296
 20
189.663143601351
 11
2313.0511299164636
 21
208.76745915862059
  0
LINE
  8
_e-0_
  6
CONTINUOUS
 62
    7
 10
2273.0696188494734
 20
188.89449034687174
 11
2313.0511299164636
 21
203.44657029624102
  0
LINE
  8
_e-0_
  6
CONTINUOUS
 62
    7
 10
2287.6886408502887
 20
188.89449034687174
 11
2313.0511299164636
 21
198.12568143386158
  0
LINE
  8
_e-0_
  6
CONTINUOUS
 62
    7
 10
2291.8751463425487
 20
185.09736486926669
 11
2313.0511299164636
 21
192.80479257148215
  0
LINE
  8
_e-0_
  6
CONTINUOUS
 62
    7
 10
2291.8751463425487
 20
179.77647600688726
 11
2313.0511299164636
 21
187.48390370910215
  0
LINE
  8
_e-0_
  6
CONTINUOUS
 62
    7
 10
2291.8751463425487
 20
174.45558714450783
 11
2313.0511299164636
 21
182.16301484672271
  0
LINE
  8
_e-0_
  6
CONTINUOUS
 62
    7
 10
2291.8751463425487
 20
169.13469828212839
 11
2313.0511299164636
 21
176.84212598434328
  0
LINE
  8
_e-0_
  6
CONTINUOUS
 62
    7
 10
2291.8008475696451
 20
163.78676687796939
 11
2313.0511299164636
 21
171.52123712196384
  0
LINE
  8
_e-0_
  6
CONTINUOUS
 62
    7
 10
2290.6539909363364
 20
158.04845633809463
 11
2313.0511299164636
 21
166.20034825958413
  0
LINE
  8
_e-0_
  6
CONTINUOUS
 62
    7
 10
2288.3949962857823
 20
151.90536066354695
 11
2313.0511299164636
 21
160.87945939720469
  0
LINE
  8
_e-0_
  6
CONTINUOUS
 62
    7
 10
2284.4003861827632
 20
145.13055262616916
 11
2311.8608666367176
 21
155.12535013005759
  0
LINE
  8
_e-0_
  6
CONTINUOUS
 62
    7
 10
2275.7463468865153
 20
136.65985105378524
 11
2309.0387712913652
 21
148.77730256370853
  0
LINE
  8
_e-0_
  6
CONTINUOUS
 62
    7
 10
2266.9791201478205
 20
128.14795262145821
 11
2304.1703780821812
 21
141.68446348448242
  0
LINE
  8
_e-0_
  6
CONTINUOUS
 62
    7
 10
2282.1376414569663
 20
128.34431431109749
 11
2292.7244583873175
 21
132.19760054937069
  0
LINE
  8
_e-0_
  6
CONTINUOUS
 62
    3
 10
2266.4464672734898
 20
197.56612819678281
 11
2262.3244734593249
 21
194.75680664380121
  0
LINE
  8
_e-0_
  6
CONTINUOUS
 62
    3
 10
2282.3868421919432
 20
128.14795262145651
 11
2266.9204010401704
 21
128.14795262145651
  0
ARC
  8
_e-0_
  6
CONTINUOUS
 62
    3
 10
2282.3868421919432
 20
133.14795262145651
 40
5
 50
270
 51
286.20399351045659
  0
LINE
  8
_e-0_
  6
CONTINUOUS
 62
    3
 10
2313.2288608412613
 20
210.12865853712895
 11
2313.2288608412613
 21
159.77346730566921
  0
ARC
  8
_e-0_
  6
CONTINUOUS
 62
    3
 10
2271.9221657766447
 20
169.15823653484835
 40
42.5
 50
286.20399351045648
 51
345.50707147989851
  0
ARC
  8
_e-0_
  6
CONTINUOUS
 62
    3
 10
2308.2288608412613
 20
159.77346730566921
 40
5
 50
345.50707147989879
 51
0.0000000000000159
  0
ARC
  8
_e-0_
  6
CONTINUOUS
 62
    3
 10
2250.0927387377205
 20
170.4956084628958
 40
40
 50
279.71265316664215
 51
332.69093929010892
  0
ARC
  8
_e-0_
  6
CONTINUOUS
 62
    3
 10
2255.9974857549714
 20
135.99729020443191
 40
5
 50
241.9452628118
 51
279.71265316664221
  0
ARC
  8
_e-0_
  6
CONTINUOUS
 62
    3
 10
2263.2643122966178
 20
205.12865853712895
 40
5
 50
90
 51
106.05338143786268
  0
LINE
  8
_e-0_
  6
CONTINUOUS
 62
    3
 10
2288.4334989152221
 20
210.12865853712881
 11
2278.2181989551913
 21
205.24067691222057
  0
LINE
  8
_e-0_
  6
CONTINUOUS
 62
    3
 10
2278.2181989551913
 20
205.24067691222057
 11
2272.2994583375816
 21
201.4444897898403
  0
LINE
  8
_e-0_
  6
CONTINUOUS
 62
    3
 10
2266.4464672734898
 20
197.56612819678252
 11
2272.2994583375816
 21
201.4444897898403
  0
ARC
  8
_e-0_
  6
CONTINUOUS
 62
    3
 10
2263.2643122966178
 20
205.12865853712895
 40
5
 50
90
 51
106.05338143786268
  0
ARC
  8
_e-0_
  6
CONTINUOUS
 62
    3
 10
2263.2643122966178
 20
205.12865853712895
 40
5
 50
90
 51
106.05338143786268
  0
LINE
  8
_e-0_
  6
CONTINUOUS
 62
    3
 10
2288.4334989152221
 20
210.12865853712895
 11
2263.2643122966178
 21
210.12865853712895
  0
ARC
  8
_e-0_
  6
CONTINUOUS
 62
    3
 10
2273.6342932765642
 20
169.09099082020304
 40
42.5
 50
106.05338143786271
 51
241.94526281180051
  0
ARC
  8
_e-0_
  6
CONTINUOUS
 62
    3
 10
2263.2643122966178
 20
205.12865853712895
 40
5
 50
90
 51
106.05338143786268
  0
LINE
  8
_e-0_
  6
CONTINUOUS
 62
    3
 10
2299.1719829458552
 20
210.12865853712895
 11
2313.2288608412613
 21
210.12865853712895
  0
ARC
  8
_e-0_
  6
CONTINUOUS
 62
    3
 10
2299.1719829458552
 20
205.12865853712895
 40
5
 50
90
 51
112.84552721528326
  0
LINE
  8
_e-0_
  6
CONTINUOUS
 62
    3
 10
2292.0528772673465
 20
188.89449034687004
 11
2269.0173546029673
 21
188.89449034687004
  0
ARC
  8
_e-0_
  6
CONTINUOUS
 62
    3
 10
2269.0173546029673
 20
183.89449034687004
 40
5
 50
90
 51
110.93110431809542
  0
ARC
  8
_e-0_
  6
CONTINUOUS
 62
    3
 10
2254.2292662802574
 20
177.70386452217394
 40
0.5
 50
165.368776721252
 51
224.67319701305797
  0
LINE
  8
_e-0_
  6
CONTINUOUS
 62
    3
 10
2253.8737020580624
 20
177.3523334653737
 11
2253.6837582739271
 21
177.54445650133447
  0
ARC
  8
_e-0_
  6
CONTINUOUS
 62
    3
 10
2276.1622566207875
 20
165.2142768803236
 40
25
 50
110.93110431809527
 51
150.17701829297226
  0
ARC
  8
_e-0_
  6
CONTINUOUS
 62
    3
 10
2254.0393224961217
 20
177.89598755813472
 40
0.5
 50
224.67319701305652
 51
330.17701829297561
  0
LINE
  8
_e-0_
  6
CONTINUOUS
 62
    3
 10
2297.2307430642558
 20
209.73643324104926
 11
2283.5233941157548
 21
203.96157353985984
  0
LINE
  8
_e-0_
  6
CONTINUOUS
 62
    3
 10
2283.5233941157548
 20
203.96157353985984
 11
2277.114528385443
 21
200.4613679180602
  0
ARC
  8
_e-0_
  6
CONTINUOUS
 62
    3
 10
2277.9347719955744
 20
171.51524603489747
 40
25
 50
126.05682261028302
 51
165.36877672125814
  0
ARC
  8
_e-0_
  6
CONTINUOUS
 62
    3
 10
2322.0287923520791
 20
111.11536133502738
 40
100
 50
116.68868989749238
 51
126.03335467187628
  0
LINE
  8
_e-0_
  6
CONTINUOUS
 62
    3
 10
2262.3244734593245
 20
194.75680664380149
 11
2254.3560414411385
 21
187.50185893935451
  0
LINE
  8
_e-0_
  6
CONTINUOUS
 62
    3
 10
2254.3560414411385
 20
187.50185893935451
 11
2252.5108960046536
 21
185.36863764275494
  0
ARC
  8
_e-0_
  6
CONTINUOUS
 62
    3
 10
2274.5493829743445
 20
174.5520307550089
 40
25
 50
169.07329675873063
 51
296.32138326661799
  0
LINE
  8
_e-0_
  6
CONTINUOUS
 62
    3
 10
2252.5108960046541
 20
185.36863764275494
 11
2250.002621066113
 21
179.29085759512361
  0
LINE
  8
_e-0_
  6
CONTINUOUS
 62
    3
 10
2292.0528772673465
 20
188.89449034687004
 11
2292.0528772673465
 21
164.42425885831653
  0
ARC
  8
_e-0_
  6
CONTINUOUS
 62
    3
 10
2277.2840925230507
 20
144.13090983307199
 40
5
 50
311.4163090429962
 51
326.13300916724881
  0
ARC
  8
_e-0_
  6
CONTINUOUS
 62
    3
 10
2252.285941088533
 20
168.73596234419835
 40
40
 50
316.78132524618342
 51
353.81191653224226
  0
ARC
  8
_e-0_
  6
CONTINUOUS
 62
    3
 10
2240.9001979970053
 20
185.376663785662
 40
60
 50
294.69555798319504
 51
311.41630904299643
  0
ARC
  8
_e-0_
  6
CONTINUOUS
 62
    3
 10
2271.9268153318698
 20
202.98067150791609
 40
75
 50
264.68313230529076
 51
266.17253517307824
  0
ARC
  8
_e-0_
  6
CONTINUOUS
 62
    3
 10
2265.0233680716155
 20
128.80121063143832
 40
0.5
 50
174.02086603460466
 51
264.68313230528985
  0
ARC
  8
_e-0_
  6
CONTINUOUS
 62
    3
 10
2267.0124878650103
 20
128.59287809071872
 40
2.5
 50
114.69555798319522
 51
174.02086603461154
  0
LINE
  8
_e-0_
  6
CONTINUOUS
 62
    7
 10
2376.8899919095943
 20
169.43032024062034
 11
2388.2618909747961
 21
173.56935300743344
  0
LINE
  8
_e-0_
  6
CONTINUOUS
 62
    3
 10
2436.2585234464268
 20
162.63312492519389
 11
2436.2585234464268
 21
136.49018622829544
  0
CIRCLE
  8
_e-0_
  6
CONTINUOUS
 62
    3
 10
2365.5167430510387
 20
162.46293449130519
 40
13.33773795583065
  0
CIRCLE
  8
_e-0_
  6
CONTINUOUS
 62
    3
 10
2365.2330256036634
 20
162.17921704393006
 40
25.691707563897665
  0
LINE
  8
_e-0_
  6
CONTINUOUS
 62
    3
 10
2399.4939617252575
 20
188.26250382114977
 11
2399.4939617252575
 21
136.49018622829544
  0
LINE
  8
_e-0_
  6
CONTINUOUS
 62
    3
 10
2399.4939617252575
 20
136.49018622829544
 11
2414.856930753669
 21
136.49018622829544
  0
LINE
  8
_e-0_
  6
CONTINUOUS
 62
    3
 10
2414.856930753669
 20
136.49018622829544
 11
2414.856930753669
 21
172.63312492519389
  0
LINE
  8
_e-0_
  6
CONTINUOUS
 62
    3
 10
2451.1774760289304
 20
136.49018622829544
 11
2436.2585234464268
 21
136.49018622829544
  0
LINE
  8
_e-0_
  6
CONTINUOUS
 62
    3
 10
2426.2585234464268
 20
172.63312492519389
 11
2414.856930753669
 21
172.63312492519389
  0
ARC
  8
_e-0_
  6
CONTINUOUS
 62
    3
 10
2426.2585234464268
 20
162.63312492519389
 40
10
 50
0
 51
90
  0
LINE
  8
_e-0_
  6
CONTINUOUS
 62
    3
 10
2426.1774760289299
 20
188.26250382114977
 11
2399.4939617252575
 21
188.26250382114977
  0
LINE
  8
_e-0_
  6
CONTINUOUS
 62
    3
 10
2451.1774760289304
 20
163.26250382114977
 11
2451.1774760289304
 21
136.49018622829544
  0
ARC
  8
_e-0_
  6
CONTINUOUS
 62
    3
 10
2426.1774760289299
 20
163.26250382114977
 40
25
 50
0
 51
90
  0
ARC
  8
_e-0_
  6
CONTINUOUS
 62
    3
 10
2486.2452606175233
 20
162.17653762406428
 40
13.33773795583065
 50
23.422555400004949
 51
97.191484740792631
  0
LINE
  8
_e-0_
  6
CONTINUOUS
 62
    3
 10
2474.0065761310629
 20
167.47841048365671
 11
2498.4839451039833
 21
167.47841048365671
  0
ARC
  8
_e-0_
  6
CONTINUOUS
 62
    3
 10
2486.2452606175233
 20
162.17653762406428
 40
13.33773795583065
 50
92.530763017635237
 51
156.57744459999506
  0
ARC
  8
_e-0_
  6
CONTINUOUS
 62
    3
 10
2486.2452606175233
 20
162.17653762406428
 40
13.33773795583065
 50
204.21097500392608
 51
316.0067678116265
  0
LINE
  8
_e-0_
  6
CONTINUOUS
 62
    3
 10
2474.0806890359867
 20
156.70676139316753
 11
2511.5200753562385
 21
156.70676139316753
  0
LINE
  8
_e-0_
  6
CONTINUOUS
 62
    3
 10
2495.8407207162626
 20
152.91249966689292
 11
2508.7092412098891
 21
149.78943472664496
  0
ARC
  8
_e-0_
  6
CONTINUOUS
 62
    3
 10
2486.5655867677851
 20
162.8171899245882
 40
25.691707563897665
 50
346.24110979921471
 51
329.53046432565093
  0
ARC
  8
_e-0_
  6
CONTINUOUS
 62
    3
 10
2546.5135590423406
 20
162.14309845353909
 40
11.089756641867943
 50
94.502189492040685
 51
357.22978420280037
  0
LINE
  8
_e-0_
  6
CONTINUOUS
 62
    3
 10
2556.5903561511468
 20
173.19863581905565
 11
2545.6430442891501
 21
173.19863581905565
  0
LINE
  8
_e-0_
  6
CONTINUOUS
 62
    3
 10
2557.5903561511468
 20
172.19863581905599
 11
2557.5903561511468
 21
161.60712439988742
  0
ARC
  8
_e-0_
  6
CONTINUOUS
 62
    3
 10
2556.5903561511468
 20
172.19863581905599
 40
1
 50
0
 51
90
  0
LINE
  8
_e-0_
  6
CONTINUOUS
 62
    3
 10
2548.9703457355517
 20
188.29058742736094
 11
2557.3930775458175
 21
188.29058742736094
  0
ARC
  8
_e-0_
  6
CONTINUOUS
 62
    3
 10
2546.9662856612039
 20
162.67716163604518
 40
25.691707563897665
 50
85.526146014136969
 51
347.40557840019874
  0
LINE
  8
_e-0_
  6
CONTINUOUS
 62
    3
 10
2557.3930775458175
 20
209.12865853712901
 11
2557.3930775458175
 21
188.29058742736094
  0
ARC
  8
_e-0_
  6
CONTINUOUS
 62
    3
 10
2558.3930775458175
 20
209.12865853712901
 40
1
 50
90
 51
180
  0
LINE
  8
_e-0_
  6
CONTINUOUS
 62
    3
 10
2572.0397992563612
 20
209.12865853712901
 11
2572.0397992563612
 21
157.07513043814088
  0
LINE
  8
_e-0_
  6
CONTINUOUS
 62
    3
 10
2571.0397992563616
 20
210.12865853712895
 11
2558.3930775458175
 21
210.12865853712895
  0
ARC
  8
_e-0_
  6
CONTINUOUS
 62
    3
 10
2571.0397992563616
 20
209.12865853712901
 40
1
 50
0
 51
90
  0
CIRCLE
  8
_e-0_
  6
CONTINUOUS
 62
    3
 10
2607.4932845795829
 20
162.61858771142584
 40
13.33773795583065
  0
CIRCLE
  8
_e-0_
  6
CONTINUOUS
 62
    3
 10
2607.2095671322085
 20
162.334870264051
 40
25.691707563897665
  0
ARC
  8
_e-0_
  6
CONTINUOUS
 62
    3
 10
2361.3056445788688
 20
183.56108960512415
 40
5
 50
90
 51
106.05338143786268
  0
ARC
  8
_e-0_
  6
CONTINUOUS
 62
    3
 10
2361.3056445788688
 20
183.56108960512415
 40
5
 50
90
 51
106.05338143786268
  0
ARC
  8
_e-0_
  6
CONTINUOUS
 62
    3
 10
2361.3056445788688
 20
183.56108960512415
 40
5
 50
90
 51
106.05338143786268
  0
ARC
  8
_e-0_
  6
CONTINUOUS
 62
    3
 10
2361.3056445788688
 20
183.56108960512415
 40
5
 50
90
 51
106.05338143786268
  0
LINE
  8
_e-0_
  6
CONTINUOUS
 62
    7
 10
2346.3470804331013
 20
179.59716504486777
 11
2368.5044577934554
 21
187.66179087344028
  0
LINE
  8
_e-0_
  6
CONTINUOUS
 62
    7
 10
2361.2415063076145
 20
179.69740385729494
 11
2376.5205845613304
 21
185.25853354867166
  0
LINE
  8
_e-0_
  6
CONTINUOUS
 62
    7
 10
2341.7511550984831
 20
172.60349616177705
 11
2361.2415063076145
 21
179.69740385729494
  0
LINE
  8
_e-0_
  6
CONTINUOUS
 62
    7
 10
2339.9278406436087
 20
166.61897511011602
 11
2357.2356669233163
 21
172.91850869577984
  0
LINE
  8
_e-0_
  6
CONTINUOUS
 62
    7
 10
2339.5613566552269
 20
161.16469698463049
 11
2352.6357267551816
 21
165.92337853279389
  0
LINE
  8
_e-0_
  6
CONTINUOUS
 62
    7
 10
2340.2704529847874
 20
156.10189807943811
 11
2352.3257797311662
 21
160.489678179473
  0
LINE
  8
_e-0_
  6
CONTINUOUS
 62
    7
 10
2341.9204823498939
 20
151.38157079162255
 11
2353.9794571535694
 21
155.77067867592631
  0
LINE
  8
_e-0_
  6
CONTINUOUS
 62
    7
 10
2344.504128974107
 20
147.00105239631881
 11
2357.564943671171
 21
151.75480018131679
  0
LINE
  8
_e-0_
  6
CONTINUOUS
 62
    7
 10
2348.1361647674011
 20
143.00211645248765
 11
2364.9879954656798
 21
149.13568121955449
  0
LINE
  8
_e-0_
  6
CONTINUOUS
 62
    7
 10
2353.1501292054063
 20
139.50616140121155
 11
2375.2534753949121
 21
147.55112149187283
  0
LINE
  8
_e-0_
  6
CONTINUOUS
 62
    7
 10
2360.6217579801264
 20
136.90472301431668
 11
2375.3071030149835
 21
142.24975148693374
  0
LINE
  8
_e-0_
  6
CONTINUOUS
 62
    7
 10
2375.3071030149835
 20
142.24975148693374
 11
2385.0115931457403
 21
145.78189703325932
  0
LINE
  8
_e-0_
  6
CONTINUOUS
 62
    7
 10
2374.4001538198344
 20
147.24053783828736
 11
2389.063020487204
 21
152.57738485422379
  0
LINE
  8
_e-0_
  6
CONTINUOUS
 62
    7
 10
2374.4883804748506
 20
152.59353857696169
 11
2390.6567834919524
 21
158.47835601080646
  0
LINE
  8
_e-0_
  6
CONTINUOUS
 62
    7
 10
2378.4912308361026
 20
159.37134582305873
 11
2390.8686178519897
 21
163.87634627483464
  0
LINE
  8
_e-0_
  6
CONTINUOUS
 62
    7
 10
2378.6565159204478
 20
164.75239353630797
 11
2390.0320630429459
 21
168.89275408738967
  0
LINE
  8
_e-0_
  6
CONTINUOUS
 62
    7
 10
2365.1397018509305
 20
175.7953421400316
 11
2381.7641004494612
 21
181.84612839247364
  0
LINE
  8
_e-0_
  6
CONTINUOUS
 62
    7
 10
2373.159843452322
 20
173.39354609515908
 11
2385.5507858710998
 21
177.90348031010012
  0
LINE
  8
_e-0_
  6
CONTINUOUS
 62
    7
 10
2399.4939617252575
 20
182.97838129215278
 11
2414.0119690553087
 21
188.26250382114977
  0
LINE
  8
_e-0_
  6
CONTINUOUS
 62
    7
 10
2399.4939617252575
 20
177.65749242977335
 11
2428.3670442872125
 21
188.16643505383524
  0
LINE
  8
_e-0_
  6
CONTINUOUS
 62
    7
 10
2399.4939617252575
 20
172.33660356739392
 11
2436.7743097980664
 21
185.90554058897964
  0
LINE
  8
_e-0_
  6
CONTINUOUS
 62
    7
 10
2399.4939617252575
 20
167.01571470501448
 11
2442.1110032081055
 21
182.52704927725858
  0
LINE
  8
_e-0_
  6
CONTINUOUS
 62
    7
 10
2399.4939617252575
 20
161.69482584263505
 11
2414.856930753669
 21
167.28648927893004
  0
LINE
  8
_e-0_
  6
CONTINUOUS
 62
    7
 10
2428.7090082786239
 20
172.32823318076128
 11
2445.9244086202584
 21
178.5941264760919
  0
LINE
  8
_e-0_
  6
CONTINUOUS
 62
    7
 10
2399.4939617252575
 20
156.37393698025562
 11
2414.856930753669
 21
161.96560041655061
  0
LINE
  8
_e-0_
  6
CONTINUOUS
 62
    7
 10
2403.3398935234458
 20
136.49018622829544
 11
2414.856930753669
 21
140.68204496703231
  0
LINE
  8
_e-0_
  6
CONTINUOUS
 62
    7
 10
2399.4939617252575
 20
140.41127039311675
 11
2414.856930753669
 21
146.00293382941202
  0
LINE
  8
_e-0_
  6
CONTINUOUS
 62
    7
 10
2399.4939617252575
 20
145.73215925549646
 11
2414.856930753669
 21
151.32382269179146
  0
LINE
  8
_e-0_
  6
CONTINUOUS
 62
    7
 10
2399.4939617252575
 20
151.0530481178759
 11
2414.856930753669
 21
156.64471155417118
  0
LINE
  8
_e-0_
  6
CONTINUOUS
 62
    7
 10
2436.2585234464268
 20
159.113365397844
 11
2451.1774760289304
 21
164.5434200643038
  0
LINE
  8
_e-0_
  6
CONTINUOUS
 62
    7
 10
2436.2585234464268
 20
153.79247653546485
 11
2451.1774760289304
 21
159.22253120192465
  0
LINE
  8
_e-0_
  6
CONTINUOUS
 62
    7
 10
2436.105047565391
 20
164.37839360784892
 11
2450.3687179376247
 21
169.56994505472636
  0
LINE
  8
_e-0_
  6
CONTINUOUS
 62
    7
 10
2436.2585234464268
 20
148.47158767308542
 11
2451.1774760289304
 21
153.90164233954521
  0
LINE
  8
_e-0_
  6
CONTINUOUS
 62
    7
 10
2436.2585234464268
 20
143.1506988107057
 11
2451.1774760289304
 21
148.5807534771655
  0
LINE
  8
_e-0_
  6
CONTINUOUS
 62
    7
 10
2436.2585234464268
 20
137.82980994832598
 11
2451.1774760289304
 21
143.25986461478606
  0
LINE
  8
_e-0_
  6
CONTINUOUS
 62
    7
 10
2447.1969595258929
 20
136.49018622829544
 11
2451.1774760289304
 21
137.93897575240634
  0
LINE
  8
_e-0_
  6
CONTINUOUS
 62
    7
 10
2434.0189024056153
 20
168.93998772771169
 11
2448.6296862431445
 21
174.25787814386978
  0
LINE
  8
_e-0_
  6
CONTINUOUS
 62
    7
 10
2469.1883842563338
 20
181.74063227593791
 11
2487.7135419125711
 21
188.48323824789645
  0
LINE
  8
_e-0_
  6
CONTINUOUS
 62
    7
 10
2463.6316388937825
 20
174.39725350219305
 11
2496.6904887083792
 21
186.42969081378254
  0
LINE
  8
_e-0_
  6
CONTINUOUS
 62
    7
 10
2461.4628990865917
 20
168.28700790412767
 11
2502.2794299488264
 21
183.14301020398858
  0
LINE
  8
_e-0_
  6
CONTINUOUS
 62
    7
 10
2461.4992419870632
 20
162.97934677574687
 11
2473.9894671720021
 21
167.52541696234658
  0
LINE
  8
_e-0_
  6
CONTINUOUS
 62
    7
 10
2492.1508316310541
 20
174.13561303910114
 11
2506.2885679576884
 21
179.28132824190015
  0
LINE
  8
_e-0_
  6
CONTINUOUS
 62
    7
 10
2496.6927278595248
 20
170.46783921101109
 11
2509.1784918759253
 21
175.01228566505261
  0
LINE
  8
_e-0_
  6
CONTINUOUS
 62
    7
 10
2463.2093427036916
 20
158.28088367181749
 11
2488.4793399340492
 21
167.47841048365671
  0
LINE
  8
_e-0_
  6
CONTINUOUS
 62
    7
 10
2462.8888794596255
 20
152.84335572742151
 11
2511.1140538755621
 21
170.39588375711787
  0
LINE
  8
_e-0_
  6
CONTINUOUS
 62
    7
 10
2465.300291731432
 20
148.400149154524
 11
2476.9283430630944
 21
152.63241372176821
  0
LINE
  8
_e-0_
  6
CONTINUOUS
 62
    7
 10
2488.1225212892722
 20
156.70676139316753
 11
2512.1228430370119
 21
165.44216412215632
  0
LINE
  8
_e-0_
  6
CONTINUOUS
 62
    7
 10
2502.7415432900879
 20
156.70676139316753
 11
2512.1151621126959
 21
160.11847963195407
  0
LINE
  8
_e-0_
  6
CONTINUOUS
 62
    7
 10
2468.7281740890052
 20
144.32690743686691
 11
2482.5550140975401
 21
149.35946563393486
  0
LINE
  8
_e-0_
  6
CONTINUOUS
 62
    7
 10
2473.4508580764295
 20
140.72493497175571
 11
2502.4973614552445
 21
151.29699761115659
  0
LINE
  8
_e-0_
  6
CONTINUOUS
 62
    7
 10
2480.3069495598269
 20
137.89945933273884
 11
2507.3767895083869
 21
147.75207532036432
  0
LINE
  8
_e-0_
  6
CONTINUOUS
 62
    7
 10
2552.6231690921717
 20
137.61596638527407
 11
2558.7418873346696
 21
139.84299769740459
  0
LINE
  8
_e-0_
  6
CONTINUOUS
 62
    7
 10
2539.4012676014826
 20
138.12447666464265
 11
2568.5435873921023
 21
148.73141362589478
  0
LINE
  8
_e-0_
  6
CONTINUOUS
 62
    7
 10
2532.9976800904732
 20
141.11465028049622
 11
2571.5269734698549
 21
155.13816621790056
  0
LINE
  8
_e-0_
  6
CONTINUOUS
 62
    7
 10
2522.081864354775
 20
169.06695144424446
 11
2572.0397992563612
 21
187.25015271383
  0
LINE
  8
_e-0_
  6
CONTINUOUS
 62
    7
 10
2524.5896829795606
 20
175.30061163898437
 11
2572.0397992563612
 21
192.57104157620943
  0
LINE
  8
_e-0_
  6
CONTINUOUS
 62
    7
 10
2557.3930775458175
 20
208.52362629350906
 11
2561.8028673926596
 21
210.12865853712895
  0
LINE
  8
_e-0_
  6
CONTINUOUS
 62
    7
 10
2557.3930775458175
 20
203.20273743112977
 11
2572.0397992563612
 21
208.53370816334788
  0
LINE
  8
_e-0_
  6
CONTINUOUS
 62
    7
 10
2557.3930775458175
 20
197.88184856875005
 11
2572.0397992563612
 21
203.21281930096859
  0
LINE
  8
_e-0_
  6
CONTINUOUS
 62
    7
 10
2557.3930775458175
 20
192.56095970637034
 11
2572.0397992563612
 21
197.89193043858915
  0
LINE
  8
_e-0_
  6
CONTINUOUS
 62
    7
 10
2531.3600319802562
 20
183.08570601321093
 11
2545.8030101140193
 21
188.34252014805827
  0
LINE
  8
_e-0_
  6
CONTINUOUS
 62
    7
 10
2548.0525958796984
 20
173.19863581905565
 11
2572.0397992563612
 21
181.92926385145057
  0
LINE
  8
_e-0_
  6
CONTINUOUS
 62
    7
 10
2521.2864022906337
 20
163.45653806802943
 11
2538.3752084417083
 21
169.67635484616607
  0
LINE
  8
_e-0_
  6
CONTINUOUS
 62
    7
 10
2521.6554107736333
 20
158.26995730965364
 11
2535.4846691325356
 21
163.30339571427089
  0
LINE
  8
_e-0_
  6
CONTINUOUS
 62
    7
 10
2522.9940114609526
 20
153.43627925302655
 11
2536.1404517985765
 21
158.22119222247806
  0
LINE
  8
_e-0_
  6
CONTINUOUS
 62
    7
 10
2525.2563435788042
 20
148.93881194156961
 11
2539.0354883761397
 21
153.95401050144357
  0
LINE
  8
_e-0_
  6
CONTINUOUS
 62
    7
 10
2528.5117312327797
 20
144.80278728623488
 11
2545.7561370732087
 21
151.07923771975691
  0
LINE
  8
_e-0_
  6
CONTINUOUS
 62
    7
 10
2554.2054905278623
 20
154.15455087604527
 11
2572.0397992563612
 21
160.64570840193255
  0
LINE
  8
_e-0_
  6
CONTINUOUS
 62
    7
 10
2557.505937791675
 20
160.67670430221767
 11
2572.0397992563612
 21
165.96659726431198
  0
LINE
  8
_e-0_
  6
CONTINUOUS
 62
    7
 10
2557.5903561511468
 20
166.02831893467055
 11
2572.0397992563612
 21
171.28748612669141
  0
LINE
  8
_e-0_
  6
CONTINUOUS
 62
    7
 10
2557.5903561511468
 20
171.34920779704998
 11
2572.0397992563612
 21
176.60837498907085
  0
LINE
  8
_e-0_
  6
CONTINUOUS
 62
    7
 10
2595.1467628188602
 20
185.01862193009401
 11
2601.869376832742
 21
187.46545332760774
  0
LINE
  8
_e-0_
  6
CONTINUOUS
 62
    7
 10
2585.5936460434281
 20
176.22068291698809
 11
2614.8426950414304
 21
186.86646613285404
  0
LINE
  8
_e-0_
  6
CONTINUOUS
 62
    7
 10
2608.5181174973608
 20
136.67650840108905
 11
2622.7000364868072
 21
141.83830477802189
  0
LINE
  8
_e-0_
  6
CONTINUOUS
 62
    7
 10
2598.2444761483161
 20
138.25809761488983
 11
2629.5534764025951
 21
149.65364177207987
  0
LINE
  8
_e-0_
  6
CONTINUOUS
 62
    7
 10
2582.6330921261528
 20
169.82224055178022
 11
2621.2234503919626
 21
183.86798229020314
  0
LINE
  8
_e-0_
  6
CONTINUOUS
 62
    7
 10
2592.2968185805402
 20
141.41421615899105
 11
2632.0809325371146
 21
155.89444943583799
  0
LINE
  8
_e-0_
  6
CONTINUOUS
 62
    7
 10
2588.0695495912832
 20
145.19650493704432
 11
2602.246111940276
 21
150.35635165629656
  0
LINE
  8
_e-0_
  6
CONTINUOUS
 62
    7
 10
2585.0094293819529
 20
149.40360112995108
 11
2597.3909335115822
 21
153.91010008858017
  0
LINE
  8
_e-0_
  6
CONTINUOUS
 62
    7
 10
2582.919829983693
 20
153.96393800982366
 11
2594.8695180063709
 21
158.31326875884542
  0
LINE
  8
_e-0_
  6
CONTINUOUS
 62
    7
 10
2581.7538748691904
 20
158.86045391603374
 11
2594.1774270088017
 21
163.38225709870641
  0
LINE
  8
_e-0_
  6
CONTINUOUS
 62
    7
 10
2581.5798124660104
 20
164.11798924475078
 11
2595.9853391150813
 21
169.36117215394091
  0
LINE
  8
_e-0_
  6
CONTINUOUS
 62
    7
 10
2611.9748325174678
 20
175.18087181340547
 11
2625.6969314853622
 21
180.17530738937352
  0
LINE
  8
_e-0_
  6
CONTINUOUS
 62
    7
 10
2617.2029460570038
 20
171.76286066078091
 11
2628.9430705154381
 21
176.03591651023151
  0
LINE
  8
_e-0_
  6
CONTINUOUS
 62
    7
 10
2619.9310564926913
 20
167.43492279278257
 11
2631.1973168341919
 21
171.53550620858254
  0
LINE
  8
_e-0_
  6
CONTINUOUS
 62
    7
 10
2620.8298424207368
 20
162.44116525518904
 11
2632.5279188691888
 21
166.69891688059578
  0
LINE
  8
_e-0_
  6
CONTINUOUS
 62
    7
 10
2619.394865425299
 20
156.5979874796136
 11
2632.8880000931144
 21
161.50908686564349
  0
TEXT
  8
_e-0_
 62
    7
 10
2642.8586825750176
 20
180.56247057449553
 40
35
 41
0.5714285714285712
 50
0
  1
ワンド
  0
TEXT
  8
_e-0_
 62
    7
 10
2649.7045100149039
 20
147.0179161190498
 40
30
 41
0.6666666666666666
 50
0
  1
株式
  0
TEXT
  8
_e-0_
 62
    7
 10
2649.0199272709155
 20
118.95002361551377
 40
30
 41
0.6666666666666666
 50
0
  1
会社
  0
ENDSEC
  0
EOF
