  0
SECTION
  2
HEADER
  9
$ACADVER
  1
AC1009
  9
$INSBASE
 10
0
 20
0
 30
0
  9
$EXTMIN
 10
0
 20
0
  9
$EXTMAX
 10
4200
 20
2970
  9
$LIMMIN
 10
0
 20
0
  9
$LIMMAX
 10
4200
 20
2970
  9
$LTSCALE
 40
10
  0
ENDSEC
  0
SECTION
  2
TABLES
  0
TABLE
  2
LTYPE
 70
     9
  0
LTYPE
  2
CONTINUOUS
 70
    64
  3
実線
 72
    65
 73
     0
 40
0.0
  0
LTYPE
  2
DASHED1
 70
    64
  3
--  --  --  --  --  --  --  --  
 72
    65
 73
     2
 40
2.5
 49
1.25
 49
-1.25
  0
LTYPE
  2
DASHED2
 70
    64
  3
----    ----    ----    ----    
 72
    65
 73
     2
 40
5.0
 49
2.5
 49
-2.5
  0
LTYPE
  2
DASHED3
 70
    64
  3
------  ------  ------  ------  
 72
    65
 73
     2
 40
5.0
 49
3.75
 49
-1.25
  0
LTYPE
  2
CENTER1
 70
    64
  3
----- - ----- - ----- - ----- - 
 72
    65
 73
     4
 40
10.0
 49
6.25
 49
-1.25
 49
1.25
 49
-1.25
  0
LTYPE
  2
CENTER2
 70
    64
  3
----------  --  ----------  --  
 72
    65
 73
     4
 40
20.0
 49
12.5
 49
-2.5
 49
2.5
 49
-2.5
  0
LTYPE
  2
PHANTOM1
 70
    64
  3
--- - - --- - - --- - - --- - - 
 72
    65
 73
     6
 40
10.0
 49
3.25
 49
-1.25
 49
1.25
 49
-1.25
 49
1.25
 49
-1.25
  0
LTYPE
  2
PHANTOM2
 70
    64
  3
--------  -  -  --------  -  -  
 72
    65
 73
     6
 40
20.0
 49
10.0
 49
-2.5
 49
1.25
 49
-2.5
 49
1.25
 49
-2.5
  0
LTYPE
  2
DOT
 70
    64
  3
-   -   -   -   -   -   -   -   
 72
    65
 73
     2
 40
2.5
 49
0.625
 49
-1.875
  0
LTYPE
  2
DUMMY
 70
    64
  3
ダミー
 72
    65
 73
     0
 40
0.0
  0
LTYPE
  2
RAND1
 70
    64
  3
ランダム線1
 72
    65
 73
     4
 40
10.0
 49
1.0
 49
-2.0
 49
3.0
 49
-4.0
  0
LTYPE
  2
RAND2
 70
    64
  3
ランダム線2
 72
    65
 73
     4
 40
14.0
 49
2.0
 49
-3.0
 49
4.0
 49
-5.0
  0
LTYPE
  2
RAND3
 70
    64
  3
ランダム線3
 72
    65
 73
     4
 40
18.0
 49
3.0
 49
-4.0
 49
5.0
 49
-6.0
  0
LTYPE
  2
RAND4
 70
    64
  3
ランダム線4
 72
    65
 73
     4
 40
22.0
 49
4.0
 49
-5.0
 49
6.0
 49
-7.0
  0
LTYPE
  2
RAND5
 70
    64
  3
ランダム線5
 72
    65
 73
     4
 40
26.0
 49
5.0
 49
-6.0
 49
7.0
 49
-8.0
  0
LTYPE
  2
LONG1
 70
    64
  3
----------  --  ----------  --  
 72
    65
 73
     4
 40
40.0
 49
32.5
 49
-2.5
 49
2.5
 49
-2.5
  0
LTYPE
  2
LONG2
 70
    64
  3
--------  -  -  --------  -  -  
 72
    65
 73
     6
 40
40.0
 49
30.0
 49
-2.5
 49
1.25
 49
-2.5
 49
1.25
 49
-2.5
  0
LTYPE
  2
LONG3
 70
    64
  3
+++++++++++++++..+++++++++++++++
 72
    65
 73
     2
 40
40.0
 49
37.5
 49
-2.5
  0
LTYPE
  2
LONG4
 70
    64
  3
+++++++++++++++..+++++++++++++++
 72
    65
 73
     2
 40
80.0
 49
75.0
 49
-5.0
  0
LTYPE
  2
LONG5
 70
    64
  3
----------  --  ----------  --  
 72
    65
 73
     4
 40
60.0
 49
37.5
 49
-7.5
 49
7.5
 49
-7.5
  0
LTYPE
  2
dashed
 70
   64
  3
-------   -------------   ------
 72
   65
 73
    2
 40
7.5
 49
6
 49
-1.5
  0
LTYPE
  2
dashed_spaced
 70
   64
  3
----        --------        ----
 72
   65
 73
    2
 40
12
 49
6
 49
-6
  0
LTYPE
  2
long_dashed_dotted
 70
   64
  3
------------- --- --------------
 72
   65
 73
    4
 40
15.25
 49
12
 49
-1.5
 49
0.25
 49
-1.5
  0
LTYPE
  2
long_dashed_double-dotted
 70
   64
  3
----------- --- --- ------------
 72
   65
 73
    6
 40
17
 49
12
 49
-1.5
 49
0.25
 49
-1.5
 49
0.25
 49
-1.5
  0
LTYPE
  2
long_dashed_triplicate-dotted
 70
   64
  3
--------- --- --- --- ----------
 72
   65
 73
    8
 40
18.75
 49
12
 49
-1.5
 49
0.25
 49
-1.5
 49
0.25
 49
-1.5
 49
0.25
 49
-1.5
  0
LTYPE
  2
dotted
 70
   64
  3
   -       -       -       -    
 72
   65
 73
    2
 40
1.75
 49
0.25
 49
-1.5
  0
LTYPE
  2
chain
 70
   64
  3
-------------- -- --------------
 72
   65
 73
    4
 40
18.5
 49
12
 49
-1.5
 49
3.5
 49
-1.5
  0
LTYPE
  2
chain_double_dash
 70
   64
  3
------------ -- -- -------------
 72
   65
 73
    6
 40
23.5
 49
12
 49
-1.5
 49
3.5
 49
-1.5
 49
3.5
 49
-1.5
  0
LTYPE
  2
dashed_dotted
 70
   64
  3
-----------     -     ----------
 72
   65
 73
    4
 40
9.25
 49
6
 49
-1.5
 49
0.25
 49
-1.5
  0
LTYPE
  2
double-dashed_dotted
 70
   64
  3
------   -----------   -   -----
 72
   65
 73
    6
 40
16.75
 49
6
 49
-1.5
 49
6
 49
-1.5
 49
0.25
 49
-1.5
  0
LTYPE
  2
dashed_double-dotted
 70
   64
  3
---------    -    -    ---------
 72
   65
 73
    6
 40
11
 49
6
 49
-1.5
 49
0.25
 49
-1.5
 49
0.25
 49
-1.5
  0
LTYPE
  2
double-dashed_double-dotted
 70
   64
  3
-----   ---------   -   -   ----
 72
   65
 73
    8
 40
18.5
 49
6
 49
-1.5
 49
6
 49
-1.5
 49
0.25
 49
-1.5
 49
0.25
 49
-1.5
  0
LTYPE
  2
dashed_triplicate-dotted
 70
   64
  3
-------    -    -    -    ------
 72
   65
 73
    8
 40
12.75
 49
6
 49
-1.5
 49
0.25
 49
-1.5
 49
0.25
 49
-1.5
 49
0.25
 49
-1.5
  0
LTYPE
  2
double-dashed_triplicate-dotted
 70
   64
  3
-----  ---------  -  -  -  -----
 72
   65
 73
   10
 40
20.25
 49
6
 49
-1.5
 49
6
 49
-1.5
 49
0.25
 49
-1.5
 49
0.25
 49
-1.5
 49
0.25
 49
-1.5
  0
LTYPE
  2
undefined
 70
   64
  3
--------------------------------
 72
   65
 73
    0
 40
0
  0
LTYPE
  2
_
 70
   64
  3
                                
 72
   65
 73
    0
 40
0
  0
LTYPE
  2
__18
 70
   64
  3
                                
 72
   65
 73
    0
 40
0
  0
LTYPE
  2
__19
 70
   64
  3
                                
 72
   65
 73
    0
 40
0
  0
LTYPE
  2
__20
 70
   64
  3
                                
 72
   65
 73
    0
 40
0
  0
LTYPE
  2
__21
 70
   64
  3
                                
 72
   65
 73
    0
 40
0
  0
LTYPE
  2
__22
 70
   64
  3
                                
 72
   65
 73
    0
 40
0
  0
LTYPE
  2
__23
 70
   64
  3
                                
 72
   65
 73
    0
 40
0
  0
LTYPE
  2
__24
 70
   64
  3
                                
 72
   65
 73
    0
 40
0
  0
LTYPE
  2
__25
 70
   64
  3
                                
 72
   65
 73
    0
 40
0
  0
LTYPE
  2
__26
 70
   64
  3
                                
 72
   65
 73
    0
 40
0
  0
LTYPE
  2
__27
 70
   64
  3
                                
 72
   65
 73
    0
 40
0
  0
LTYPE
  2
__28
 70
   64
  3
                                
 72
   65
 73
    0
 40
0
  0
LTYPE
  2
__29
 70
   64
  3
                                
 72
   65
 73
    0
 40
0
  0
LTYPE
  2
__30
 70
   64
  3
                                
 72
   65
 73
    0
 40
0
  0
LTYPE
  2
__31
 70
   64
  3
                                
 72
   65
 73
    0
 40
0
  0
LTYPE
  2
__32
 70
   64
  3
                                
 72
   65
 73
    0
 40
0
  0
ENDTAB
  0
TABLE
  2
STYLE
  5
3
100
AcDbSymbolTable
 70
     1
  0
STYLE
  5
10
100
AcDbSymbolTableRecord
100
AcDbTextStyleTableRecord
  2
STANDARD
 70
     0
 40
0.0
 41
1.0
 50
0.0
 71
     0
 42
0.2
  3
txt
  4
bigfont.shx
  0
STYLE
  5
26
100
AcDbSymbolTableRecord
100
AcDbTextStyleTableRecord
  2
TATEGAKI
 70
    68
 40
0.0
 41
1.0
 50
0.0
 71
     0
 42
1.0
  3
txt
  4
bigfont.shx
  0
ENDTAB
  0
TABLE
  2
LAYER
 70
   16
  0
LAYER
  2
_0-0_
 70
   64
 62
    7
  6
CONTINUOUS
  0
LAYER
  2
_0-2_
 70
   64
 62
    7
  6
CONTINUOUS
  0
LAYER
  2
_0-3_
 70
   64
 62
    7
  6
CONTINUOUS
  0
LAYER
  2
_0-4_
 70
   64
 62
    7
  6
CONTINUOUS
  0
LAYER
  2
_0-5_
 70
   64
 62
    7
  6
CONTINUOUS
  0
LAYER
  2
_0-6_
 70
   64
 62
    7
  6
CONTINUOUS
  0
LAYER
  2
_0-7_
 70
   64
 62
    7
  6
CONTINUOUS
  0
LAYER
  2
_0-8_
 70
   64
 62
    7
  6
CONTINUOUS
  0
LAYER
  2
_0-9_
 70
   64
 62
    7
  6
CONTINUOUS
  0
LAYER
  2
_0-d_
 70
   64
 62
    7
  6
CONTINUOUS
  0
LAYER
  2
_e-0_
 70
   64
 62
    7
  6
CONTINUOUS
  0
LAYER
  2
_f-7_
 70
   64
 62
    7
  6
CONTINUOUS
  0
LAYER
  2
_f-8_
 70
   64
 62
    7
  6
CONTINUOUS
  0
LAYER
  2
_f-9_
 70
   64
 62
    7
  6
CONTINUOUS
  0
LAYER
  2
_f-d_固定文字
 70
   64
 62
    7
  6
CONTINUOUS
  0
LAYER
  2
ADD_LINE
 70
   64
 62
    7
  6
CONTINUOUS
  0
ENDTAB
  0
ENDSEC
  0
SECTION
  2
BLOCKS
  0
ENDSEC
  0
SECTION
  2
ENTITIES
  0
LINE
  8
_0-4_
  6
CONTINUOUS
 62
    3
 10
3072.1218352890059
 20
1335
 11
3376.1218352890055
 21
1335
  0
LINE
  8
_0-5_
  6
CONTINUOUS
 62
    4
 10
1993.6967245398502
 20
1327.9999999999997
 11
2207.0355085243882
 21
1327.9999999999997
  0
LINE
  8
_f-9_
  6
CONTINUOUS
 62
    7
 10
630
 20
120
 11
630
 21
220
  0
LINE
  8
_f-9_
  6
CONTINUOUS
 62
    7
 10
170
 20
120
 11
610
 21
120
  0
LINE
  8
_f-9_
  6
CONTINUOUS
 62
    7
 10
170
 20
220
 11
610
 21
220
  0
LINE
  8
_f-9_
  6
CONTINUOUS
 62
    7
 10
1420
 20
120
 11
1420
 21
220
  0
LINE
  8
_f-9_
  6
CONTINUOUS
 62
    7
 10
2210
 20
120
 11
2210
 21
220
  0
LINE
  8
_f-9_
  6
CONTINUOUS
 62
    7
 10
2220
 20
120
 11
2220
 21
220
  0
LINE
  8
_f-9_
  6
CONTINUOUS
 62
    7
 10
630
 20
120
 11
2210
 21
120
  0
LINE
  8
_f-9_
  6
CONTINUOUS
 62
    7
 10
630
 20
220
 11
2210
 21
220
  0
LINE
  8
_f-9_
  6
CONTINUOUS
 62
    7
 10
2710
 20
120
 11
2710
 21
220
  0
LINE
  8
_f-9_
  6
CONTINUOUS
 62
    7
 10
2720
 20
120
 11
2720
 21
220
  0
LINE
  8
_f-9_
  6
CONTINUOUS
 62
    7
 10
2220
 20
120
 11
2710
 21
120
  0
LINE
  8
_f-9_
  6
CONTINUOUS
 62
    7
 10
2220
 20
220
 11
2710
 21
220
  0
LINE
  8
_f-9_
  6
CONTINUOUS
 62
    7
 10
3020
 20
120
 11
3020
 21
220
  0
LINE
  8
_f-9_
  6
CONTINUOUS
 62
    7
 10
3320
 20
120
 11
3320
 21
220
  0
LINE
  8
_f-9_
  6
CONTINUOUS
 62
    7
 10
3700
 20
120
 11
3700
 21
220
  0
LINE
  8
_f-9_
  6
CONTINUOUS
 62
    7
 10
2720
 20
120
 11
4110
 21
120
  0
LINE
  8
_f-9_
  6
CONTINUOUS
 62
    7
 10
4110
 20
120
 11
4110
 21
220
  0
LINE
  8
_f-9_
  6
CONTINUOUS
 62
    7
 10
2720
 20
220
 11
4110
 21
220
  0
LINE
  8
_0-0_
  6
CONTINUOUS
 62
    7
 10
4130
 20
2860
 11
4130
 21
100
  0
LINE
  8
_0-0_
  6
CONTINUOUS
 62
    7
 10
150
 20
2860
 11
4130
 21
2860
  0
LINE
  8
_0-0_
  6
CONTINUOUS
 62
    7
 10
150
 20
100
 11
4130
 21
100
  0
LINE
  8
_0-0_
  6
CONTINUOUS
 62
    7
 10
150
 20
100
 11
150
 21
2860
  0
TEXT
  8
_f-8_
 62
    7
 10
3040
 20
187.5
 40
25
 41
0.64
 50
0
  1
ＤＡＴＡ
  0
TEXT
  8
_f-8_
 62
    7
 10
3340
 20
187.5
 40
25
 41
0.64
 50
0
  1
ＣＨＥＣＫＥＤ
  0
TEXT
  8
_f-8_
 62
    7
 10
3720
 20
187.5
 40
25
 41
0.64
 50
0
  1
ＳＨＥＥＴ　ＮＯ．
  0
TEXT
  8
_f-8_
 62
    7
 10
3542
 20
187.5
 40
25
 41
0.64
 50
0
  1
ＤＲＡＷＩＮＧ
  0
LINE
  8
_f-9_
  6
CONTINUOUS
 62
    7
 10
170
 20
170
 11
610
 21
170
  0
TEXT
  8
_f-8_
 62
    7
 10
2861
 20
142.5
 40
35
 41
0.5714285714285711
 50
0
  1
１／１０
  0
TEXT
  8
_f-8_
 62
    7
 10
2740.3739840854213
 20
187.46937299484983
 40
25
 41
0.64
 50
0
  1
ＳＣＡＬＥ
  0
TEXT
  8
_f-8_
 62
    7
 10
1445
 20
187.5
 40
25
 41
0.8
 50
0
  1
図面名称
  0
TEXT
  8
_f-8_
 62
    7
 10
655
 20
187.5
 40
25
 41
0.8
 50
0
  1
名　称
  0
LINE
  8
_f-8_
  6
CONTINUOUS
 62
    7
 10
2165
 20
2872
 11
2166.15
 21
2874.0000000000004
  0
LINE
  8
_f-8_
  6
CONTINUOUS
 62
    7
 10
2158.6399999999998
 20
2877
 11
2165
 21
2866
  0
LINE
  8
_f-8_
  6
CONTINUOUS
 62
    7
 10
2165
 20
2866
 11
2171.3499999999999
 21
2877
  0
LINE
  8
_f-8_
  6
CONTINUOUS
 62
    7
 10
2165
 20
2860
 11
2176.5399999999999
 21
2880
  0
LINE
  8
_f-8_
  6
CONTINUOUS
 62
    7
 10
2153.4499999999998
 20
2880
 11
2165
 21
2860
  0
LINE
  8
_f-8_
  6
CONTINUOUS
 62
    7
 10
2176.5399999999999
 20
2880
 11
2153.4499999999998
 21
2880
  0
LINE
  8
_f-8_
  6
CONTINUOUS
 62
    7
 10
2163.8400000000001
 20
2874.0000000000004
 11
2165
 21
2872
  0
LINE
  8
_f-8_
  6
CONTINUOUS
 62
    7
 10
2166.15
 20
2874.0000000000004
 11
2163.8400000000001
 21
2874.0000000000004
  0
LINE
  8
_f-8_
  6
CONTINUOUS
 62
    7
 10
2171.3499999999999
 20
2877
 11
2158.6399999999998
 21
2877
  0
LINE
  8
_f-7_
  6
CONTINUOUS
 62
    7
 10
120
 20
1462.6794919243113
 11
120
 21
1497.3205080756886
  0
LINE
  8
_f-7_
  6
CONTINUOUS
 62
    7
 10
120
 20
1497.3205080756886
 11
150
 21
1480
  0
LINE
  8
_f-7_
  6
CONTINUOUS
 62
    7
 10
150
 20
1480
 11
120
 21
1462.6794919243113
  0
LINE
  8
_f-7_
  6
CONTINUOUS
 62
    7
 10
125
 20
1471.3397459621555
 11
125
 21
1488.6602540378444
  0
LINE
  8
_f-7_
  6
CONTINUOUS
 62
    7
 10
125
 20
1488.6602540378444
 11
140
 21
1480
  0
LINE
  8
_f-7_
  6
CONTINUOUS
 62
    7
 10
140
 20
1480
 11
125
 21
1471.3397459621555
  0
LINE
  8
_f-7_
  6
CONTINUOUS
 62
    7
 10
4160
 20
1462.6794919243113
 11
4160
 21
1497.3205080756886
  0
LINE
  8
_f-7_
  6
CONTINUOUS
 62
    7
 10
4160
 20
1497.3205080756886
 11
4130
 21
1480
  0
LINE
  8
_f-7_
  6
CONTINUOUS
 62
    7
 10
4130
 20
1480
 11
4160
 21
1462.6794919243113
  0
LINE
  8
_f-7_
  6
CONTINUOUS
 62
    7
 10
4155
 20
1471.3397459621555
 11
4155
 21
1488.6602540378444
  0
LINE
  8
_f-7_
  6
CONTINUOUS
 62
    7
 10
4155
 20
1488.6602540378444
 11
4140
 21
1480
  0
LINE
  8
_f-7_
  6
CONTINUOUS
 62
    7
 10
4140
 20
1480
 11
4155
 21
1471.3397459621555
  0
LINE
  8
_f-7_
  6
CONTINUOUS
 62
    7
 10
4151
 20
1478.2679491924309
 11
4151
 21
1481.732050807569
  0
LINE
  8
_f-7_
  6
CONTINUOUS
 62
    7
 10
4151
 20
1481.732050807569
 11
4148
 21
1480
  0
LINE
  8
_f-7_
  6
CONTINUOUS
 62
    7
 10
4148
 20
1480
 11
4151
 21
1478.2679491924309
  0
TEXT
  8
_f-d_固定文字
 62
    7
 10
149.98500000000007
 20
65
 40
20
 41
1
 50
0
  1
%f
  0
TEXT
  8
_f-d_固定文字
 62
    7
 10
4050
 20
65.00000323002979
 40
20
 41
1
 50
0
  1
%m
  0
TEXT
  8
_f-d_固定文字
 62
    7
 10
4080
 20
65.00000323002979
 40
20
 41
1
 50
0
  1
．
  0
TEXT
  8
_f-d_固定文字
 62
    7
 10
4110
 20
65.00000323002979
 40
20
 41
1
 50
0
  1
%d
  0
TEXT
  8
_f-d_固定文字
 62
    7
 10
3990
 20
65.00000323002979
 40
20
 41
1
 50
0
  1
%y
  0
TEXT
  8
_f-d_固定文字
 62
    7
 10
4020
 20
65.00000323002979
 40
20
 41
1
 50
0
  1
．
  0
LINE
  8
_0-8_
  6
CONTINUOUS
 62
    4
 10
3362.5000000000004
 20
261.88599999999996
 11
3612.5
 21
261.88599999999996
  0
LINE
  8
_0-8_
  6
CONTINUOUS
 62
    4
 10
3612.5
 20
261.88599999999996
 11
3612.5
 21
331.88599999999996
  0
LINE
  8
_0-8_
  6
CONTINUOUS
 62
    4
 10
3612.5
 20
331.88599999999996
 11
3362.5000000000004
 21
331.88599999999996
  0
LINE
  8
_0-8_
  6
CONTINUOUS
 62
    4
 10
3362.5000000000004
 20
331.88599999999996
 11
3362.5000000000004
 21
261.88599999999996
  0
LINE
  8
_0-8_
  6
CONTINUOUS
 62
    4
 10
847.49999999999954
 20
261.88599999999996
 11
597.5
 21
261.88599999999996
  0
LINE
  8
_0-8_
  6
CONTINUOUS
 62
    4
 10
597.5
 20
261.88599999999996
 11
597.5
 21
331.88599999999996
  0
LINE
  8
_0-8_
  6
CONTINUOUS
 62
    4
 10
597.5
 20
331.88599999999996
 11
847.49999999999954
 21
331.88599999999996
  0
LINE
  8
_0-8_
  6
CONTINUOUS
 62
    4
 10
847.49999999999954
 20
331.88599999999996
 11
847.49999999999954
 21
261.88599999999996
  0
LINE
  8
_0-2_
  6
CONTINUOUS
 62
    5
 10
1963.5786444152913
 20
1352.0000000000002
 11
1574.6699141100896
 21
1352.0000000000002
  0
LINE
  8
_0-2_
  6
CONTINUOUS
 62
    5
 10
2252.0782098436934
 20
1379.9999999999997
 11
1957.9217901563069
 21
1379.9999999999997
  0
TEXT
  8
_0-8_
 62
    7
 10
659.50300000000027
 20
279.38599999999996
 40
35
 41
0.8571428571428568
 50
0
  1
Ａ立面図
  0
TEXT
  8
_0-8_
 62
    7
 10
3424.4969999999993
 20
279.38599999999996
 40
35
 41
0.8571428571428568
 50
0
  1
Ｂ立面図
  0
LINE
  8
_0-2_
  6
CONTINUOUS
 62
    5
 10
1585.2819592954097
 20
1384.722649901887
 11
1585.3696445107743
 21
1383.8599593690457
  0
LINE
  8
_0-2_
  6
CONTINUOUS
 62
    5
 10
1585.3696445107743
 20
1383.8599593690457
 11
1585.5619254668999
 21
1383.0319083938875
  0
LINE
  8
_0-2_
  6
CONTINUOUS
 62
    5
 10
1585.5619254668999
 20
1383.0319083938875
 11
1585.8529598042337
 21
1382.2636568862785
  0
LINE
  8
_0-2_
  6
CONTINUOUS
 62
    5
 10
1585.8529598042337
 20
1382.2636568862785
 11
1586.2339045917065
 21
1381.5785477795236
  0
LINE
  8
_0-2_
  6
CONTINUOUS
 62
    5
 10
1586.2339045917065
 20
1381.5785477795236
 11
1586.6931850147179
 21
1380.9973977671495
  0
LINE
  8
_0-2_
  6
CONTINUOUS
 62
    5
 10
1586.6931850147179
 20
1380.9973977671495
 11
1587.216846070022
 21
1380.5378647982061
  0
LINE
  8
_0-2_
  6
CONTINUOUS
 62
    5
 10
1587.216846070022
 20
1380.5378647982061
 11
1587.7889765814384
 21
1380.2139115494198
  0
LINE
  8
_0-2_
  6
CONTINUOUS
 62
    5
 10
1587.7889765814384
 20
1380.2139115494198
 11
1588.3921926528901
 21
1380.0353811763266
  0
LINE
  8
_0-2_
  6
CONTINUOUS
 62
    5
 10
1588.3921926528901
 20
1380.0353811763266
 11
1588.8120497338206
 21
1379.9999999999997
  0
LINE
  8
_0-2_
  6
CONTINUOUS
 62
    5
 10
1588.8120975858346
 20
1379.9999999999997
 11
1957.9217901563069
 21
1379.9999999999997
  0
LINE
  8
_0-2_
  6
CONTINUOUS
 62
    5
 10
1584.1296556374959
 20
1419.9999999999997
 11
1574.6699141100896
 21
1419.9999999999997
  0
LINE
  8
_0-2_
  6
CONTINUOUS
 62
    5
 10
1582.1916810870638
 20
1413.3882901373572
 11
1582.0689217855533
 21
1414.5960568833354
  0
LINE
  8
_0-2_
  6
CONTINUOUS
 62
    5
 10
1582.0689217855533
 20
1414.5960568833354
 11
1581.7997284469774
 21
1415.7553282485569
  0
LINE
  8
_0-2_
  6
CONTINUOUS
 62
    5
 10
1581.7997284469774
 20
1415.7553282485569
 11
1581.39228037471
 21
1416.8308803592094
  0
LINE
  8
_0-2_
  6
CONTINUOUS
 62
    5
 10
1581.39228037471
 20
1416.8308803592094
 11
1580.8589576722483
 21
1417.7900331086661
  0
LINE
  8
_0-2_
  6
CONTINUOUS
 62
    5
 10
1580.8589576722483
 20
1417.7900331086661
 11
1580.2159650800326
 21
1418.6036431259901
  0
LINE
  8
_0-2_
  6
CONTINUOUS
 62
    5
 10
1580.2159650800326
 20
1418.6036431259901
 11
1579.4828396026068
 21
1419.2469892825106
  0
LINE
  8
_0-2_
  6
CONTINUOUS
 62
    5
 10
1579.4828396026068
 20
1419.2469892825106
 11
1578.6818568866235
 21
1419.7005238308115
  0
LINE
  8
_0-2_
  6
CONTINUOUS
 62
    5
 10
1578.6818568866235
 20
1419.7005238308115
 11
1577.8373543865909
 21
1419.950466353142
  0
LINE
  8
_0-2_
  6
CONTINUOUS
 62
    5
 10
1577.8373543865909
 20
1419.950466353142
 11
1577.2495544732885
 21
1419.9999999999997
  0
LINE
  8
_0-2_
  6
CONTINUOUS
 62
    5
 10
1574.6699141100896
 20
1419.9999999999997
 11
1574.6699141100896
 21
1352.0000000000002
  0
LINE
  8
_0-2_
  6
CONTINUOUS
 62
    5
 10
1582.1916810870641
 20
1413.3882901373572
 11
1585.2819592954097
 21
1384.722649901887
  0
LINE
  8
_0-2_
  6
CONTINUOUS
 62
    5
 10
2833.3199846221441
 20
1379.9999999999997
 11
2833.9339236430191
 21
1380.0759612349386
  0
LINE
  8
_0-2_
  6
CONTINUOUS
 62
    5
 10
2833.9339236430191
 20
1380.0759612349386
 11
2834.5292084374132
 21
1380.3015368960702
  0
LINE
  8
_0-2_
  6
CONTINUOUS
 62
    5
 10
2834.5292084374132
 20
1380.3015368960702
 11
2835.0877515780766
 21
1380.6698729810775
  0
LINE
  8
_0-2_
  6
CONTINUOUS
 62
    5
 10
2835.0877515780766
 20
1380.6698729810775
 11
2835.5925820143183
 21
1381.1697777844049
  0
LINE
  8
_0-2_
  6
CONTINUOUS
 62
    5
 10
2835.5925820143183
 20
1381.1697777844049
 11
2836.0283607287874
 21
1381.786061951567
  0
LINE
  8
_0-2_
  6
CONTINUOUS
 62
    5
 10
2836.0283607287874
 20
1381.786061951567
 11
2836.3818468057611
 21
1382.4999999999997
  0
LINE
  8
_0-2_
  6
CONTINUOUS
 62
    5
 10
2836.3818468057611
 20
1382.4999999999997
 11
2836.6422997496624
 21
1383.2898992833713
  0
LINE
  8
_0-2_
  6
CONTINUOUS
 62
    5
 10
2836.6422997496624
 20
1383.2898992833713
 11
2836.801805829587
 21
1384.1317591116651
  0
LINE
  8
_0-2_
  6
CONTINUOUS
 62
    5
 10
2836.801805829587
 20
1384.1317591116651
 11
2836.8500750605553
 21
1384.722649901887
  0
LINE
  8
_0-2_
  6
CONTINUOUS
 62
    5
 10
2844.8824798826758
 20
1419.9999999999997
 11
2844.0229652534508
 21
1419.8936542710853
  0
LINE
  8
_0-2_
  6
CONTINUOUS
 62
    5
 10
2844.0229652534508
 20
1419.8936542710853
 11
2843.1895665412994
 21
1419.577848345501
  0
LINE
  8
_0-2_
  6
CONTINUOUS
 62
    5
 10
2843.1895665412994
 20
1419.577848345501
 11
2842.4076061443702
 21
1419.0621778264908
  0
LINE
  8
_0-2_
  6
CONTINUOUS
 62
    5
 10
2842.4076061443702
 20
1419.0621778264908
 11
2841.7008435336319
 21
1418.3623111018325
  0
LINE
  8
_0-2_
  6
CONTINUOUS
 62
    5
 10
2841.7008435336319
 20
1418.3623111018325
 11
2841.0907533333747
 21
1417.4995132678054
  0
LINE
  8
_0-2_
  6
CONTINUOUS
 62
    5
 10
2841.0907533333747
 20
1417.4995132678054
 11
2840.5958728256118
 21
1416.4999999999997
  0
LINE
  8
_0-2_
  6
CONTINUOUS
 62
    5
 10
2840.5958728256118
 20
1416.4999999999997
 11
2840.2312387041502
 21
1415.3941410032794
  0
LINE
  8
_0-2_
  6
CONTINUOUS
 62
    5
 10
2840.2312387041502
 20
1415.3941410032794
 11
2840.007930192256
 21
1414.2155372436682
  0
LINE
  8
_0-2_
  6
CONTINUOUS
 62
    5
 10
2840.007930192256
 20
1414.2155372436682
 11
2839.9403532689007
 21
1413.3882901373572
  0
LINE
  8
_0-2_
  6
CONTINUOUS
 62
    5
 10
2847.4621202458752
 20
1419.9999999999997
 11
2847.4621202458752
 21
1352.0000000000002
  0
LINE
  8
_0-2_
  6
CONTINUOUS
 62
    5
 10
2839.9403532689007
 20
1413.3882901373572
 11
2836.8500750605553
 21
1384.722649901887
  0
LINE
  8
_0-2_
  6
CONTINUOUS
 62
    5
 10
2847.4621202458752
 20
1419.9999999999997
 11
1574.6699141100896
 21
1419.9999999999997
  0
LINE
  8
_0-2_
  6
CONTINUOUS
 62
    5
 10
2833.3199846221441
 20
1379.9999999999997
 11
2252.0782098436934
 21
1379.9999999999997
  0
LINE
  8
_0-2_
  6
CONTINUOUS
 62
    5
 10
1998.9339828220186
 20
1372.0000000000002
 11
1998.848042494942
 21
1373.3891854213356
  0
LINE
  8
_0-2_
  6
CONTINUOUS
 62
    5
 10
1998.848042494942
 20
1373.3891854213356
 11
1998.5928327670631
 21
1374.7361611466055
  0
LINE
  8
_0-2_
  6
CONTINUOUS
 62
    5
 10
1998.5928327670631
 20
1374.7361611466055
 11
1998.1761080568207
 21
1376.0000000000002
  0
LINE
  8
_0-2_
  6
CONTINUOUS
 62
    5
 10
1998.1761080568207
 20
1376.0000000000002
 11
1997.610530333663
 21
1377.1423008774925
  0
LINE
  8
_0-2_
  6
CONTINUOUS
 62
    5
 10
1997.610530333663
 20
1377.1423008774925
 11
1996.9132843905117
 21
1378.128355544952
  0
LINE
  8
_0-2_
  6
CONTINUOUS
 62
    5
 10
1996.9132843905117
 20
1378.128355544952
 11
1996.1055556925261
 21
1378.9282032302758
  0
LINE
  8
_0-2_
  6
CONTINUOUS
 62
    5
 10
1996.1055556925261
 20
1378.9282032302758
 11
1995.2118866674641
 21
1379.5175409662874
  0
LINE
  8
_0-2_
  6
CONTINUOUS
 62
    5
 10
1995.2118866674641
 20
1379.5175409662874
 11
1994.2594309964338
 21
1379.878462024098
  0
LINE
  8
_0-2_
  6
CONTINUOUS
 62
    5
 10
1994.2594309964338
 20
1379.878462024098
 11
1993.2771285630337
 21
1380.0000000000002
  0
LINE
  8
_0-2_
  6
CONTINUOUS
 62
    5
 10
2428.8549057929312
 20
1380.0000000000002
 11
2427.8726033595312
 21
1379.878462024098
  0
LINE
  8
_0-2_
  6
CONTINUOUS
 62
    5
 10
2427.8726033595312
 20
1379.878462024098
 11
2426.9201476885009
 21
1379.5175409662874
  0
LINE
  8
_0-2_
  6
CONTINUOUS
 62
    5
 10
2426.9201476885009
 20
1379.5175409662874
 11
2426.0264786634388
 21
1378.9282032302758
  0
LINE
  8
_0-2_
  6
CONTINUOUS
 62
    5
 10
2426.0264786634388
 20
1378.9282032302758
 11
2425.2187499654532
 21
1378.128355544952
  0
LINE
  8
_0-2_
  6
CONTINUOUS
 62
    5
 10
2425.2187499654532
 20
1378.128355544952
 11
2424.5215040223019
 21
1377.1423008774925
  0
LINE
  8
_0-2_
  6
CONTINUOUS
 62
    5
 10
2424.5215040223019
 20
1377.1423008774925
 11
2423.9559262991442
 21
1376.0000000000002
  0
LINE
  8
_0-2_
  6
CONTINUOUS
 62
    5
 10
2423.9559262991442
 20
1376.0000000000002
 11
2423.5392015889019
 21
1374.7361611466055
  0
LINE
  8
_0-2_
  6
CONTINUOUS
 62
    5
 10
2423.5392015889019
 20
1374.7361611466055
 11
2423.2839918610229
 21
1373.3891854213356
  0
LINE
  8
_0-2_
  6
CONTINUOUS
 62
    5
 10
2423.2839918610229
 20
1373.3891854213356
 11
2423.1980515339464
 21
1372.0000000000002
  0
LINE
  8
_0-2_
  6
CONTINUOUS
 62
    5
 10
1984.0847404171006
 20
1352.0000000000002
 11
1963.5786444152913
 21
1352.0000000000002
  0
LINE
  8
_0-2_
  6
CONTINUOUS
 62
    5
 10
2438.0472939388641
 20
1352.0000000000002
 11
2847.4621202458752
 21
1352.0000000000002
  0
LINE
  8
_0-2_
  6
CONTINUOUS
 62
    5
 10
1984.0847404171006
 20
1342.9999999999997
 11
1984.0847404171006
 21
1352.0000000000002
  0
ARC
  8
_0-2_
  6
CONTINUOUS
 62
    5
 10
1985.0847404171006
 20
1342.9999999999997
 40
1
 50
180
 51
270
  0
LINE
  8
_0-2_
  6
CONTINUOUS
 62
    5
 10
1997.9339828220181
 20
1341.9999999999995
 11
1985.0847404171006
 21
1341.9999999999995
  0
LINE
  8
_0-2_
  6
CONTINUOUS
 62
    5
 10
1998.9339828220181
 20
1342.9999999999997
 11
1998.9339828220181
 21
1372.0000000000002
  0
ARC
  8
_0-2_
  6
CONTINUOUS
 62
    5
 10
1997.9339828220181
 20
1342.9999999999997
 40
1
 50
270
 51
0
  0
LINE
  8
_0-2_
  6
CONTINUOUS
 62
    5
 10
2423.1980515339464
 20
1342.9999999999997
 11
2423.1980515339464
 21
1372.0000000000002
  0
ARC
  8
_0-2_
  6
CONTINUOUS
 62
    5
 10
2424.1980515339464
 20
1342.9999999999997
 40
1
 50
180
 51
270
  0
LINE
  8
_0-2_
  6
CONTINUOUS
 62
    5
 10
2437.0472939388637
 20
1341.9999999999995
 11
2424.1980515339464
 21
1341.9999999999995
  0
LINE
  8
_0-2_
  6
CONTINUOUS
 62
    5
 10
2438.0472939388641
 20
1342.9999999999997
 11
2438.0472939388641
 21
1352.0000000000002
  0
ARC
  8
_0-2_
  6
CONTINUOUS
 62
    5
 10
2437.0472939388637
 20
1342.9999999999997
 40
1
 50
270
 51
0
  0
LINE
  8
_0-2_
  6
CONTINUOUS
 62
    5
 10
2424.1980515339464
 20
1341.9999999999995
 11
1997.9339828220181
 21
1341.9999999999995
  0
TEXT
  8
_f-8_
 62
    7
 10
688.26587681212743
 20
137.5
 40
45
 41
0.8
 50
0
  1
コンパクトキッチン用隅調理台
  0
LINE
  8
_0-2_
  6
CONTINUOUS
 62
    5
 10
1998.9339828220181
 20
1760
 11
1574.6699141100896
 21
2184.2640687119283
  0
LINE
  8
_0-2_
  6
CONTINUOUS
 62
    5
 10
2211.0660171779823
 20
2820.6601717798212
 11
1574.6699141100896
 21
2184.2640687119283
  0
LINE
  8
_0-2_
  6
CONTINUOUS
 62
    5
 10
2847.4621202458752
 20
2184.2640687119283
 11
2211.0660171779823
 21
2820.6601717798212
  0
LINE
  8
_0-2_
  6
CONTINUOUS
 62
    5
 10
2211.0660171779823
 20
2792.3759005323599
 11
1588.8120497338206
 21
2170.1219330881976
  0
LINE
  8
_0-2_
  6
CONTINUOUS
 62
    5
 10
2833.3199846221441
 20
2170.1219330881976
 11
2211.0660171779823
 21
2792.3759005323599
  0
LINE
  8
_0-2_
  6
CONTINUOUS
 62
    5
 10
2847.4621202458752
 20
2184.2640687119283
 11
2423.1980515339464
 21
1760
  0
LINE
  8
_0-2_
  6
CONTINUOUS
 62
    5
 10
2211.0660171779823
 20
1972.1320343559641
 11
1998.9339828220181
 21
1760
  0
LINE
  8
_0-2_
  6
CONTINUOUS
 62
    5
 10
2423.1980515339464
 20
1760
 11
2211.0660171779823
 21
1972.1320343559641
  0
LINE
  8
_0-2_
  6
CONTINUOUS
 62
    5
 10
2211.0660171779823
 20
2001.8305191657991
 11
1984.0847404171006
 21
1774.8492424049175
  0
LINE
  8
_0-2_
  6
CONTINUOUS
 62
    5
 10
2438.0472939388641
 20
1774.8492424049175
 11
2211.0660171779823
 21
2001.8305191657991
  0
LINE
  8
_0-2_
  6
CONTINUOUS
 62
    5
 10
2433.8046532517446
 20
1770.6066017177981
 11
2211.0660171779823
 21
1993.3452377915609
  0
LINE
  8
_0-2_
  6
CONTINUOUS
 62
    5
 10
2211.0660171779823
 20
1993.3452377915609
 11
1988.3273811042199
 21
1770.6066017177981
  0
CIRCLE
  8
_0-2_
  6
DASHED1
 62
    4
 10
1586.2209655838157
 20
1363.5000000000002
 40
1.3999999999999999
  0
CIRCLE
  8
_0-2_
  6
DASHED1
 62
    4
 10
1963.5786444152913
 20
1363.5000000000002
 40
1.3999999999999999
  0
CIRCLE
  8
_0-2_
  6
DASHED1
 62
    4
 10
2458.5533905932738
 20
1363.5000000000002
 40
1.3999999999999999
  0
CIRCLE
  8
_0-2_
  6
DASHED1
 62
    4
 10
2812.1067811865477
 20
1363.5000000000002
 40
1.3999999999999999
  0
LINE
  8
_0-3_
  6
CONTINUOUS
 62
    5
 10
1751.4466094067261
 20
529.99999999999977
 11
1938.8299064211616
 21
529.99999999999977
  0
LINE
  8
_0-3_
  6
CONTINUOUS
 62
    4
 10
1938.8299064211616
 20
529.99999999999977
 11
1947.3151877954001
 21
529.99999999999977
  0
LINE
  8
_0-3_
  6
CONTINUOUS
 62
    5
 10
1751.4466094067261
 20
1352.0000000000002
 11
1751.4466094067261
 21
529.99999999999977
  0
LINE
  8
_0-3_
  6
CONTINUOUS
 62
    5
 10
2847.4621202458752
 20
1352.0000000000002
 11
2847.4621202458752
 21
529.99999999999977
  0
LINE
  8
_0-3_
  6
CONTINUOUS
 62
    4
 10
2483.2568901432423
 20
529.99999999999977
 11
2474.7716087690037
 21
529.99999999999977
  0
LINE
  8
_0-3_
  6
CONTINUOUS
 62
    5
 10
2847.4621202458752
 20
529.99999999999977
 11
2483.2568901432423
 21
529.99999999999977
  0
LINE
  8
_0-3_
  6
CONTINUOUS
 62
    4
 10
1947.3151877954001
 20
529.99999999999977
 11
2474.7716087690037
 21
529.99999999999977
  0
LINE
  8
_0-4_
  6
CONTINUOUS
 62
    3
 10
1984.0800722995763
 20
1305
 11
1992.5653536880536
 21
1305
  0
LINE
  8
_0-5_
  6
CONTINUOUS
 62
    4
 10
1984.3629150125261
 20
1334.9999999999997
 11
1984.1173394041761
 21
1334.9696155060241
  0
LINE
  8
_0-5_
  6
CONTINUOUS
 62
    4
 10
1984.1173394041761
 20
1334.9696155060241
 11
1983.8792254864185
 21
1334.8793852415715
  0
LINE
  8
_0-5_
  6
CONTINUOUS
 62
    4
 10
1983.8792254864185
 20
1334.8793852415715
 11
1983.655808230153
 21
1334.7320508075686
  0
LINE
  8
_0-5_
  6
CONTINUOUS
 62
    4
 10
1983.655808230153
 20
1334.7320508075686
 11
1983.453876055657
 21
1334.5320888862377
  0
LINE
  8
_0-5_
  6
CONTINUOUS
 62
    4
 10
1983.453876055657
 20
1334.5320888862377
 11
1983.2795645698688
 21
1334.2855752193731
  0
LINE
  8
_0-5_
  6
CONTINUOUS
 62
    4
 10
1983.2795645698688
 20
1334.2855752193731
 11
1983.1381701390794
 21
1333.9999999999997
  0
LINE
  8
_0-5_
  6
CONTINUOUS
 62
    4
 10
1983.1381701390794
 20
1333.9999999999997
 11
1983.0339889615188
 21
1333.6840402866509
  0
LINE
  8
_0-5_
  6
CONTINUOUS
 62
    4
 10
1983.0339889615188
 20
1333.6840402866509
 11
1982.9701865295489
 21
1333.3472963553335
  0
LINE
  8
_0-5_
  6
CONTINUOUS
 62
    4
 10
1982.9701865295489
 20
1333.3472963553335
 11
1982.9487014477799
 21
1332.9999999999997
  0
LINE
  8
_0-5_
  6
CONTINUOUS
 62
    4
 10
1984.3629150125261
 20
1333.6999999999998
 11
1984.2769635496033
 21
1333.6893654271082
  0
LINE
  8
_0-5_
  6
CONTINUOUS
 62
    4
 10
1984.2769635496033
 20
1333.6893654271082
 11
1984.1936236783885
 21
1333.6577848345498
  0
LINE
  8
_0-5_
  6
CONTINUOUS
 62
    4
 10
1984.1936236783885
 20
1333.6577848345498
 11
1984.1154276386955
 21
1333.6062177826488
  0
LINE
  8
_0-5_
  6
CONTINUOUS
 62
    4
 10
1984.1154276386955
 20
1333.6062177826488
 11
1984.0447513776216
 21
1333.536231110183
  0
LINE
  8
_0-5_
  6
CONTINUOUS
 62
    4
 10
1984.0447513776216
 20
1333.536231110183
 11
1983.9837423575959
 21
1333.4499513267803
  0
LINE
  8
_0-5_
  6
CONTINUOUS
 62
    4
 10
1983.9837423575959
 20
1333.4499513267803
 11
1983.9342543068198
 21
1333.3499999999999
  0
LINE
  8
_0-5_
  6
CONTINUOUS
 62
    4
 10
1983.9342543068198
 20
1333.3499999999999
 11
1983.8977908946735
 21
1333.2394141003278
  0
LINE
  8
_0-5_
  6
CONTINUOUS
 62
    4
 10
1983.8977908946735
 20
1333.2394141003278
 11
1983.8754600434842
 21
1333.1215537243665
  0
LINE
  8
_0-5_
  6
CONTINUOUS
 62
    4
 10
1983.8754600434842
 20
1333.1215537243665
 11
1983.8679402648649
 21
1332.9999999999997
  0
LINE
  8
_0-5_
  6
CONTINUOUS
 62
    4
 10
1982.9487014477795
 20
1290.9999999999995
 11
1982.9487014477795
 21
1332.9999999999997
  0
LINE
  8
_0-5_
  6
CONTINUOUS
 62
    4
 10
1982.9487014477795
 20
1290.9999999999995
 11
1982.9540727182215
 21
1290.913175911166
  0
LINE
  8
_0-5_
  6
CONTINUOUS
 62
    4
 10
1982.9540727182215
 20
1290.913175911166
 11
1982.9700233262142
 21
1290.8289899283367
  0
LINE
  8
_0-5_
  6
CONTINUOUS
 62
    4
 10
1982.9700233262142
 20
1290.8289899283367
 11
1982.9960686206045
 21
1290.7499999999995
  0
LINE
  8
_0-5_
  6
CONTINUOUS
 62
    4
 10
1982.9960686206045
 20
1290.7499999999995
 11
1983.0314172283015
 21
1290.6786061951563
  0
LINE
  8
_0-5_
  6
CONTINUOUS
 62
    4
 10
1983.0314172283015
 20
1290.6786061951563
 11
1983.0749950997487
 21
1290.6169777784402
  0
LINE
  8
_0-5_
  6
CONTINUOUS
 62
    4
 10
1983.0749950997487
 20
1290.6169777784402
 11
1983.1254781433726
 21
1290.5669872981072
  0
LINE
  8
_0-5_
  6
CONTINUOUS
 62
    4
 10
1983.1254781433726
 20
1290.5669872981072
 11
1983.1813324574391
 21
1290.5301536896063
  0
LINE
  8
_0-5_
  6
CONTINUOUS
 62
    4
 10
1983.1813324574391
 20
1290.5301536896063
 11
1983.2408609368785
 21
1290.5075961234933
  0
LINE
  8
_0-5_
  6
CONTINUOUS
 62
    4
 10
1983.2408609368785
 20
1290.5075961234933
 11
1983.302254838966
 21
1290.4999999999995
  0
LINE
  8
_0-5_
  6
CONTINUOUS
 62
    4
 10
1983.5143868736779
 20
1290.5
 11
1983.6126171170178
 21
1290.5121537975901
  0
LINE
  8
_0-5_
  6
CONTINUOUS
 62
    4
 10
1983.6126171170178
 20
1290.5121537975901
 11
1983.7078626841209
 21
1290.5482459033712
  0
LINE
  8
_0-5_
  6
CONTINUOUS
 62
    4
 10
1983.7078626841209
 20
1290.5482459033712
 11
1983.7972295866275
 21
1290.6071796769724
  0
LINE
  8
_0-5_
  6
CONTINUOUS
 62
    4
 10
1983.7972295866275
 20
1290.6071796769724
 11
1983.8780024564257
 21
1290.687164445505
  0
LINE
  8
_0-5_
  6
CONTINUOUS
 62
    4
 10
1983.8780024564257
 20
1290.687164445505
 11
1983.9477270507409
 21
1290.7857699122507
  0
LINE
  8
_0-5_
  6
CONTINUOUS
 62
    4
 10
1983.9477270507409
 20
1290.7857699122507
 11
1984.0042848230566
 21
1290.8999999999996
  0
LINE
  8
_0-5_
  6
CONTINUOUS
 62
    4
 10
1984.0042848230566
 20
1290.8999999999996
 11
1984.0459572940808
 21
1291.0263838853393
  0
LINE
  8
_0-5_
  6
CONTINUOUS
 62
    4
 10
1984.0459572940808
 20
1291.0263838853393
 11
1984.0714782668687
 21
1291.1610814578666
  0
LINE
  8
_0-5_
  6
CONTINUOUS
 62
    4
 10
1984.0714782668687
 20
1291.1610814578666
 11
1984.0800722995763
 21
1291.2999999999999
  0
LINE
  8
_0-5_
  6
CONTINUOUS
 62
    4
 10
1984.0800722995763
 20
1291.2999999999999
 11
1984.0714782668687
 21
1291.4389185421332
  0
LINE
  8
_0-5_
  6
CONTINUOUS
 62
    4
 10
1984.0714782668687
 20
1291.4389185421332
 11
1984.0459572940808
 21
1291.5736161146605
  0
LINE
  8
_0-5_
  6
CONTINUOUS
 62
    4
 10
1984.0459572940808
 20
1291.5736161146605
 11
1984.0042848230566
 21
1291.7000000000002
  0
LINE
  8
_0-5_
  6
CONTINUOUS
 62
    4
 10
1984.0042848230566
 20
1291.7000000000002
 11
1983.9477270507409
 21
1291.8142300877491
  0
LINE
  8
_0-5_
  6
CONTINUOUS
 62
    4
 10
1983.9477270507409
 20
1291.8142300877491
 11
1983.8780024564257
 21
1291.9128355544949
  0
LINE
  8
_0-5_
  6
CONTINUOUS
 62
    4
 10
1983.8780024564257
 20
1291.9128355544949
 11
1983.8679402648645
 21
1291.9244997998398
  0
LINE
  8
_0-5_
  6
CONTINUOUS
 62
    4
 10
1983.302254838966
 20
1290.4999999999997
 11
1983.5143868736779
 21
1290.4999999999997
  0
LINE
  8
_0-5_
  6
CONTINUOUS
 62
    4
 10
1983.867940264864
 20
1299.2755002001599
 11
1983.867940264864
 21
1291.9244997998396
  0
LINE
  8
_0-5_
  6
CONTINUOUS
 62
    4
 10
1983.8679402648645
 20
1299.2755002001601
 11
1983.9392499535524
 21
1299.3718118441965
  0
LINE
  8
_0-5_
  6
CONTINUOUS
 62
    4
 10
1983.9392499535524
 20
1299.3718118441965
 11
1983.9976503925493
 21
1299.4841722180713
  0
LINE
  8
_0-5_
  6
CONTINUOUS
 62
    4
 10
1983.9976503925493
 20
1299.4841722180713
 11
1984.0413671140684
 21
1299.6091673086807
  0
LINE
  8
_0-5_
  6
CONTINUOUS
 62
    4
 10
1984.0413671140684
 20
1299.6091673086807
 11
1984.069071807648
 21
1299.7429992034471
  0
LINE
  8
_0-5_
  6
CONTINUOUS
 62
    4
 10
1984.069071807648
 20
1299.7429992034471
 11
1984.0799226801932
 21
1299.8816014879707
  0
LINE
  8
_0-5_
  6
CONTINUOUS
 62
    4
 10
1984.0799226801932
 20
1299.8816014879707
 11
1984.0735900334323
 21
1300.0207628019725
  0
LINE
  8
_0-5_
  6
CONTINUOUS
 62
    4
 10
1984.0735900334323
 20
1300.0207628019725
 11
1984.0502662816329
 21
1300.1562547993448
  0
LINE
  8
_0-5_
  6
CONTINUOUS
 62
    4
 10
1984.0502662816329
 20
1300.1562547993448
 11
1984.0106601051907
 21
1300.2839606243107
  0
LINE
  8
_0-5_
  6
CONTINUOUS
 62
    4
 10
1984.0106601051907
 20
1300.2839606243107
 11
1983.9559749177353
 21
1300.4
  0
LINE
  8
_0-5_
  6
CONTINUOUS
 62
    4
 10
1983.9559749177353
 20
1300.4
 11
1983.8878723010157
 21
1300.5008471287014
  0
LINE
  8
_0-5_
  6
CONTINUOUS
 62
    4
 10
1983.8878723010157
 20
1300.5008471287014
 11
1983.8679402648645
 21
1300.5244997998399
  0
LINE
  8
_0-5_
  6
CONTINUOUS
 62
    4
 10
1983.867940264864
 20
1304.6999999999998
 11
1983.867940264864
 21
1300.5244997998397
  0
LINE
  8
_0-5_
  6
CONTINUOUS
 62
    4
 10
1984.0800722995763
 20
1304.9999999999997
 11
1984.0432359583242
 21
1304.9954423259034
  0
LINE
  8
_0-5_
  6
CONTINUOUS
 62
    4
 10
1984.0432359583242
 20
1304.9954423259034
 11
1984.0075188706603
 21
1304.9819077862355
  0
LINE
  8
_0-5_
  6
CONTINUOUS
 62
    4
 10
1984.0075188706603
 20
1304.9819077862355
 11
1983.9740062822204
 21
1304.959807621135
  0
LINE
  8
_0-5_
  6
CONTINUOUS
 62
    4
 10
1983.9740062822204
 20
1304.959807621135
 11
1983.9437164560458
 21
1304.9298133329355
  0
LINE
  8
_0-5_
  6
CONTINUOUS
 62
    4
 10
1983.9437164560458
 20
1304.9298133329355
 11
1983.9175697331777
 21
1304.892836282906
  0
LINE
  8
_0-5_
  6
CONTINUOUS
 62
    4
 10
1983.9175697331777
 20
1304.892836282906
 11
1983.8963605685594
 21
1304.8499999999999
  0
LINE
  8
_0-5_
  6
CONTINUOUS
 62
    4
 10
1983.8963605685594
 20
1304.8499999999999
 11
1983.8807333919253
 21
1304.8026060429974
  0
LINE
  8
_0-5_
  6
CONTINUOUS
 62
    4
 10
1983.8807333919253
 20
1304.8026060429974
 11
1983.8711630271295
 21
1304.7520944532998
  0
LINE
  8
_0-5_
  6
CONTINUOUS
 62
    4
 10
1983.8711630271295
 20
1304.7520944532998
 11
1983.8679402648645
 21
1304.6999999999998
  0
LINE
  8
_0-5_
  6
CONTINUOUS
 62
    4
 10
1983.867940264864
 20
1308.4496126617746
 11
1983.867940264864
 21
1332.9999999999997
  0
LINE
  8
_0-5_
  6
CONTINUOUS
 62
    4
 10
1983.8679402648649
 20
1308.4496126617746
 11
1983.8786828057493
 21
1308.2759644841075
  0
LINE
  8
_0-5_
  6
CONTINUOUS
 62
    4
 10
1983.8786828057493
 20
1308.2759644841075
 11
1983.9105840217343
 21
1308.1075925184491
  0
LINE
  8
_0-5_
  6
CONTINUOUS
 62
    4
 10
1983.9105840217343
 20
1308.1075925184491
 11
1983.9626746105145
 21
1307.9496126617746
  0
LINE
  8
_0-5_
  6
CONTINUOUS
 62
    4
 10
1983.9626746105145
 20
1307.9496126617746
 11
1984.0333718259091
 21
1307.806825052088
  0
LINE
  8
_0-5_
  6
CONTINUOUS
 62
    4
 10
1984.0333718259091
 20
1307.806825052088
 11
1984.120527568803
 21
1307.6835682186556
  0
LINE
  8
_0-5_
  6
CONTINUOUS
 62
    4
 10
1984.120527568803
 20
1307.6835682186556
 11
1984.2214936560512
 21
1307.58358725799
  0
LINE
  8
_0-5_
  6
CONTINUOUS
 62
    4
 10
1984.2214936560512
 20
1307.58358725799
 11
1984.3332022841836
 21
1307.5099200409886
  0
LINE
  8
_0-5_
  6
CONTINUOUS
 62
    4
 10
1984.3332022841836
 20
1307.5099200409886
 11
1984.4522592430625
 21
1307.4648049087622
  0
LINE
  8
_0-5_
  6
CONTINUOUS
 62
    4
 10
1984.4522592430625
 20
1307.4648049087622
 11
1984.5385213859876
 21
1307.4509476768325
  0
LINE
  8
_0-5_
  6
CONTINUOUS
 62
    4
 10
1993.0603284357148
 20
1299.8000000000001
 11
1993.0689224684219
 21
1299.6610814578666
  0
LINE
  8
_0-5_
  6
CONTINUOUS
 62
    4
 10
1993.0689224684219
 20
1299.6610814578666
 11
1993.0944434412099
 21
1299.5263838853395
  0
LINE
  8
_0-5_
  6
CONTINUOUS
 62
    4
 10
1993.0944434412099
 20
1299.5263838853395
 11
1993.1361159122343
 21
1299.4
  0
LINE
  8
_0-5_
  6
CONTINUOUS
 62
    4
 10
1993.1361159122343
 20
1299.4
 11
1993.19267368455
 21
1299.2857699122509
  0
LINE
  8
_0-5_
  6
CONTINUOUS
 62
    4
 10
1993.19267368455
 20
1299.2857699122509
 11
1993.2623982788652
 21
1299.187164445505
  0
LINE
  8
_0-5_
  6
CONTINUOUS
 62
    4
 10
1993.2623982788652
 20
1299.187164445505
 11
1993.3431711486637
 21
1299.1071796769729
  0
LINE
  8
_0-5_
  6
CONTINUOUS
 62
    4
 10
1993.3431711486637
 20
1299.1071796769729
 11
1993.43253805117
 21
1299.0482459033714
  0
LINE
  8
_0-5_
  6
CONTINUOUS
 62
    4
 10
1993.43253805117
 20
1299.0482459033714
 11
1993.5277836182731
 21
1299.0121537975903
  0
LINE
  8
_0-5_
  6
CONTINUOUS
 62
    4
 10
1993.5277836182731
 20
1299.0121537975903
 11
1993.626013861613
 21
1299.0000000000004
  0
LINE
  8
_0-5_
  6
CONTINUOUS
 62
    4
 10
1993.626013861613
 20
1299.0000000000004
 11
1993.7242441049529
 21
1299.0121537975903
  0
LINE
  8
_0-5_
  6
CONTINUOUS
 62
    4
 10
1993.7242441049529
 20
1299.0121537975903
 11
1993.819489672056
 21
1299.0482459033714
  0
LINE
  8
_0-5_
  6
CONTINUOUS
 62
    4
 10
1993.819489672056
 20
1299.0482459033714
 11
1993.9088565745623
 21
1299.1071796769729
  0
LINE
  8
_0-5_
  6
CONTINUOUS
 62
    4
 10
1993.9088565745623
 20
1299.1071796769729
 11
1993.9896294443608
 21
1299.187164445505
  0
LINE
  8
_0-5_
  6
CONTINUOUS
 62
    4
 10
1993.9896294443608
 20
1299.187164445505
 11
1994.059354038676
 21
1299.2857699122509
  0
LINE
  8
_0-5_
  6
CONTINUOUS
 62
    4
 10
1994.059354038676
 20
1299.2857699122509
 11
1994.1159118109917
 21
1299.4
  0
LINE
  8
_0-5_
  6
CONTINUOUS
 62
    4
 10
1994.1159118109917
 20
1299.4
 11
1994.1575842820159
 21
1299.5263838853395
  0
LINE
  8
_0-5_
  6
CONTINUOUS
 62
    4
 10
1994.1575842820159
 20
1299.5263838853395
 11
1994.1831052548038
 21
1299.6610814578666
  0
LINE
  8
_0-5_
  6
CONTINUOUS
 62
    4
 10
1994.1831052548038
 20
1299.6610814578666
 11
1994.1916992875117
 21
1299.8000000000001
  0
LINE
  8
_0-5_
  6
CONTINUOUS
 62
    4
 10
1991.9794652112298
 20
1335
 11
1984.3629150125261
 21
1335
  0
LINE
  8
_0-5_
  6
CONTINUOUS
 62
    4
 10
1993.3172347995032
 20
1333.6486486486483
 11
1993.2172649302565
 21
1333.9673177975396
  0
LINE
  8
_0-5_
  6
CONTINUOUS
 62
    4
 10
1993.2172649302565
 20
1333.9673177975396
 11
1993.0796851429045
 21
1334.256595484639
  0
LINE
  8
_0-5_
  6
CONTINUOUS
 62
    4
 10
1993.0796851429045
 20
1334.256595484639
 11
1992.9086757296663
 21
1334.5076921538061
  0
LINE
  8
_0-5_
  6
CONTINUOUS
 62
    4
 10
1992.9086757296663
 20
1334.5076921538061
 11
1992.709432725029
 21
1334.7129783598079
  0
LINE
  8
_0-5_
  6
CONTINUOUS
 62
    4
 10
1992.709432725029
 20
1334.7129783598079
 11
1992.488010026866
 21
1334.8662165851567
  0
LINE
  8
_0-5_
  6
CONTINUOUS
 62
    4
 10
1992.488010026866
 20
1334.8662165851567
 11
1992.251135451816
 21
1334.9627507639163
  0
LINE
  8
_0-5_
  6
CONTINUOUS
 62
    4
 10
1992.251135451816
 20
1334.9627507639163
 11
1992.0060063139776
 21
1334.9996477539141
  0
LINE
  8
_0-5_
  6
CONTINUOUS
 62
    4
 10
1992.0060063139776
 20
1334.9996477539141
 11
1991.9794652112298
 21
1334.9999999999997
  0
LINE
  8
_0-5_
  6
CONTINUOUS
 62
    4
 10
1992.4476845671254
 20
1333.2270270270264
 11
1992.4126951128891
 21
1333.3385612291388
  0
LINE
  8
_0-5_
  6
CONTINUOUS
 62
    4
 10
1992.4126951128891
 20
1333.3385612291388
 11
1992.3645421873156
 21
1333.4398084196236
  0
LINE
  8
_0-5_
  6
CONTINUOUS
 62
    4
 10
1992.3645421873156
 20
1333.4398084196236
 11
1992.3046888926824
 21
1333.5276922538319
  0
LINE
  8
_0-5_
  6
CONTINUOUS
 62
    4
 10
1992.3046888926824
 20
1333.5276922538319
 11
1992.2349538410594
 21
1333.5995424259326
  0
LINE
  8
_0-5_
  6
CONTINUOUS
 62
    4
 10
1992.2349538410594
 20
1333.5995424259326
 11
1992.1574558967022
 21
1333.6531758048047
  0
LINE
  8
_0-5_
  6
CONTINUOUS
 62
    4
 10
1992.1574558967022
 20
1333.6531758048047
 11
1992.0745497954351
 21
1333.6869627673704
  0
LINE
  8
_0-5_
  6
CONTINUOUS
 62
    4
 10
1992.0745497954351
 20
1333.6869627673704
 11
1991.9887545971917
 21
1333.6998767138697
  0
LINE
  8
_0-5_
  6
CONTINUOUS
 62
    4
 10
1991.9887545971917
 20
1333.6998767138697
 11
1991.9794652112298
 21
1333.6999999999998
  0
LINE
  8
_0-5_
  6
CONTINUOUS
 62
    4
 10
1984.3629150125261
 20
1333.7
 11
1991.9794652112298
 21
1333.7
  0
LINE
  8
_0-5_
  6
CONTINUOUS
 62
    4
 10
1992.447684567126
 20
1333.2270270270271
 11
1993.2458875019378
 21
1329.9346079027354
  0
LINE
  8
_0-5_
  6
CONTINUOUS
 62
    4
 10
1993.2095462092343
 20
1329.7247858648925
 11
1993.2258649154985
 21
1329.7509159129699
  0
LINE
  8
_0-5_
  6
CONTINUOUS
 62
    4
 10
1993.2258649154985
 20
1329.7509159129699
 11
1993.2387272527203
 21
1329.780656463108
  0
LINE
  8
_0-5_
  6
CONTINUOUS
 62
    4
 10
1993.2387272527203
 20
1329.780656463108
 11
1993.2477424052917
 21
1329.8131038637404
  0
LINE
  8
_0-5_
  6
CONTINUOUS
 62
    4
 10
1993.2477424052917
 20
1329.8131038637404
 11
1993.2526364523639
 21
1329.8472722170181
  0
LINE
  8
_0-5_
  6
CONTINUOUS
 62
    4
 10
1993.2526364523639
 20
1329.8472722170181
 11
1993.2532606907925
 21
1329.8821233348162
  0
LINE
  8
_0-5_
  6
CONTINUOUS
 62
    4
 10
1993.2532606907925
 20
1329.8821233348162
 11
1993.24959615341
 21
1329.9165982835565
  0
LINE
  8
_0-5_
  6
CONTINUOUS
 62
    4
 10
1993.24959615341
 20
1329.9165982835565
 11
1993.2458875019383
 21
1329.9346079027354
  0
LINE
  8
_0-5_
  6
CONTINUOUS
 62
    4
 10
1994.365609333987
 20
1329.3243243243246
 11
1994.3952705426124
 21
1329.1551353193999
  0
LINE
  8
_0-5_
  6
CONTINUOUS
 62
    4
 10
1994.3952705426124
 20
1329.1551353193999
 11
1994.4037067844251
 21
1328.9812326062979
  0
LINE
  8
_0-5_
  6
CONTINUOUS
 62
    4
 10
1994.4037067844251
 20
1328.9812326062979
 11
1994.3906617284869
 21
1328.807900130957
  0
LINE
  8
_0-5_
  6
CONTINUOUS
 62
    4
 10
1994.3906617284869
 20
1328.807900130957
 11
1994.356531742221
 21
1328.6404045129297
  0
LINE
  8
_0-5_
  6
CONTINUOUS
 62
    4
 10
1994.356531742221
 20
1328.6404045129297
 11
1994.3023538479897
 21
1328.4838350218128
  0
LINE
  8
_0-5_
  6
CONTINUOUS
 62
    4
 10
1994.3023538479897
 20
1328.4838350218128
 11
1994.2297742136934
 21
1328.342948942366
  0
LINE
  8
_0-5_
  6
CONTINUOUS
 62
    4
 10
1994.2297742136934
 20
1328.342948942366
 11
1994.1409981347942
 21
1328.2220270268217
  0
LINE
  8
_0-5_
  6
CONTINUOUS
 62
    4
 10
1994.1409981347942
 20
1328.2220270268217
 11
1994.0387230275255
 21
1328.1247434263941
  0
LINE
  8
_0-5_
  6
CONTINUOUS
 62
    4
 10
1994.0387230275255
 20
1328.1247434263941
 11
1993.9260564692685
 21
1328.0540540540539
  0
LINE
  8
_0-5_
  6
CONTINUOUS
 62
    4
 10
1993.9260564692685
 20
1328.0540540540539
 11
1993.8064217763837
 21
1328.0121067706099
  0
LINE
  8
_0-5_
  6
CONTINUOUS
 62
    4
 10
1993.8064217763837
 20
1328.0121067706099
 11
1993.6834539884762
 21
1328.0001761230428
  0
LINE
  8
_0-5_
  6
CONTINUOUS
 62
    4
 10
1993.6834539884762
 20
1328.0001761230428
 11
1993.560889419557
 21
1328.0186246180417
  0
LINE
  8
_0-5_
  6
CONTINUOUS
 62
    4
 10
1993.560889419557
 20
1328.0186246180417
 11
1993.442452132032
 21
1328.0668917074215
  0
LINE
  8
_0-5_
  6
CONTINUOUS
 62
    4
 10
1993.442452132032
 20
1328.0668917074215
 11
1993.3317407829506
 21
1328.1435108200957
  0
LINE
  8
_0-5_
  6
CONTINUOUS
 62
    4
 10
1993.3317407829506
 20
1328.1435108200957
 11
1993.2321192806318
 21
1328.2461539230966
  0
LINE
  8
_0-5_
  6
CONTINUOUS
 62
    4
 10
1993.2321192806318
 20
1328.2461539230966
 11
1993.1466145740128
 21
1328.3717022576802
  0
LINE
  8
_0-5_
  6
CONTINUOUS
 62
    4
 10
1993.1466145740128
 20
1328.3717022576802
 11
1993.0778246803367
 21
1328.5163411012299
  0
LINE
  8
_0-5_
  6
CONTINUOUS
 62
    4
 10
1993.0778246803367
 20
1328.5163411012299
 11
1993.0278397457136
 21
1328.6756756756756
  0
LINE
  8
_0-5_
  6
CONTINUOUS
 62
    4
 10
1993.0278397457136
 20
1328.6756756756756
 11
1992.9981785370882
 21
1328.8448646805998
  0
LINE
  8
_0-5_
  6
CONTINUOUS
 62
    4
 10
1992.9981785370882
 20
1328.8448646805998
 11
1992.9897422952753
 21
1329.0187673937018
  0
LINE
  8
_0-5_
  6
CONTINUOUS
 62
    4
 10
1992.9897422952753
 20
1329.0187673937018
 11
1993.0027873512135
 21
1329.1920998690429
  0
LINE
  8
_0-5_
  6
CONTINUOUS
 62
    4
 10
1993.0027873512135
 20
1329.1920998690429
 11
1993.0369173374792
 21
1329.3595954870702
  0
LINE
  8
_0-5_
  6
CONTINUOUS
 62
    4
 10
1993.0369173374792
 20
1329.3595954870702
 11
1993.0910952317108
 21
1329.5161649781871
  0
LINE
  8
_0-5_
  6
CONTINUOUS
 62
    4
 10
1993.0910952317108
 20
1329.5161649781871
 11
1993.1636748660068
 21
1329.6570510576339
  0
LINE
  8
_0-5_
  6
CONTINUOUS
 62
    4
 10
1993.1636748660068
 20
1329.6570510576339
 11
1993.2095462092333
 21
1329.7247858648925
  0
LINE
  8
_0-5_
  6
CONTINUOUS
 62
    4
 10
1993.3172347995034
 20
1333.6486486486483
 11
1994.365609333987
 21
1329.3243243243241
  0
LINE
  8
_0-5_
  6
CONTINUOUS
 62
    4
 10
1993.0603284357152
 20
1304.6999999999998
 11
1993.0603284357152
 21
1299.8000000000001
  0
LINE
  8
_0-5_
  6
CONTINUOUS
 62
    4
 10
1993.0603284357148
 20
1304.6999999999998
 11
1993.0571056734493
 21
1304.7520944532998
  0
LINE
  8
_0-5_
  6
CONTINUOUS
 62
    4
 10
1993.0571056734493
 20
1304.7520944532998
 11
1993.0475353086537
 21
1304.8026060429974
  0
LINE
  8
_0-5_
  6
CONTINUOUS
 62
    4
 10
1993.0475353086537
 20
1304.8026060429974
 11
1993.0319081320199
 21
1304.8499999999999
  0
LINE
  8
_0-5_
  6
CONTINUOUS
 62
    4
 10
1993.0319081320199
 20
1304.8499999999999
 11
1993.0106989674013
 21
1304.892836282906
  0
LINE
  8
_0-5_
  6
CONTINUOUS
 62
    4
 10
1993.0106989674013
 20
1304.892836282906
 11
1992.9845522445334
 21
1304.9298133329355
  0
LINE
  8
_0-5_
  6
CONTINUOUS
 62
    4
 10
1992.9845522445334
 20
1304.9298133329355
 11
1992.9542624183586
 21
1304.959807621135
  0
LINE
  8
_0-5_
  6
CONTINUOUS
 62
    4
 10
1992.9542624183586
 20
1304.959807621135
 11
1992.9207498299188
 21
1304.9819077862355
  0
LINE
  8
_0-5_
  6
CONTINUOUS
 62
    4
 10
1992.9207498299188
 20
1304.9819077862355
 11
1992.8850327422551
 21
1304.9954423259034
  0
LINE
  8
_0-5_
  6
CONTINUOUS
 62
    4
 10
1992.8850327422551
 20
1304.9954423259034
 11
1992.8481964010027
 21
1304.9999999999997
  0
LINE
  8
_0-5_
  6
CONTINUOUS
 62
    4
 10
1984.0800722995763
 20
1305
 11
1992.8481964010027
 21
1305
  0
LINE
  8
_0-5_
  6
CONTINUOUS
 62
    4
 10
1994.1916992875117
 20
1305.6503873382253
 11
1994.1916992875117
 21
1299.8000000000001
  0
LINE
  8
_0-5_
  6
CONTINUOUS
 62
    4
 10
1994.1916992875119
 20
1305.6503873382253
 11
1994.1809567466273
 21
1305.8240355158923
  0
LINE
  8
_0-5_
  6
CONTINUOUS
 62
    4
 10
1994.1809567466273
 20
1305.8240355158923
 11
1994.1490555306424
 21
1305.992407481551
  0
LINE
  8
_0-5_
  6
CONTINUOUS
 62
    4
 10
1994.1490555306424
 20
1305.992407481551
 11
1994.096964941862
 21
1306.1503873382253
  0
LINE
  8
_0-5_
  6
CONTINUOUS
 62
    4
 10
1994.096964941862
 20
1306.1503873382253
 11
1994.0262677264674
 21
1306.2931749479118
  0
LINE
  8
_0-5_
  6
CONTINUOUS
 62
    4
 10
1994.0262677264674
 20
1306.2931749479118
 11
1993.9391119835736
 21
1306.4164317813442
  0
LINE
  8
_0-5_
  6
CONTINUOUS
 62
    4
 10
1993.9391119835736
 20
1306.4164317813442
 11
1993.8381458963253
 21
1306.5164127420098
  0
LINE
  8
_0-5_
  6
CONTINUOUS
 62
    4
 10
1993.8381458963253
 20
1306.5164127420098
 11
1993.7264372681925
 21
1306.5900799590112
  0
LINE
  8
_0-5_
  6
CONTINUOUS
 62
    4
 10
1993.7264372681925
 20
1306.5900799590112
 11
1993.6073803093136
 21
1306.6351950912376
  0
LINE
  8
_0-5_
  6
CONTINUOUS
 62
    4
 10
1993.6073803093136
 20
1306.6351950912376
 11
1993.5211181663889
 21
1306.6490523231673
  0
LINE
  8
_0-5_
  6
CONTINUOUS
 62
    4
 10
1984.5385213859876
 20
1307.4509476768323
 11
1993.5211181663894
 21
1306.6490523231675
  0
LINE
  8
_0-4_
  6
CONTINUOUS
 62
    3
 10
1984.0800722995763
 20
1305
 11
1984.0800722995763
 21
1264.9999999999997
  0
LINE
  8
_0-4_
  6
CONTINUOUS
 62
    3
 10
1992.5653536880536
 20
1305
 11
1992.5653536880536
 21
1264.9999999999997
  0
LINE
  8
_0-5_
  6
CONTINUOUS
 62
    4
 10
2197.2067242494026
 20
1308.4496126617746
 11
2197.2174667902872
 21
1308.2759644841075
  0
LINE
  8
_0-5_
  6
CONTINUOUS
 62
    4
 10
2197.2174667902872
 20
1308.2759644841075
 11
2197.2493680062721
 21
1308.1075925184491
  0
LINE
  8
_0-5_
  6
CONTINUOUS
 62
    4
 10
2197.2493680062721
 20
1308.1075925184491
 11
2197.3014585950522
 21
1307.9496126617746
  0
LINE
  8
_0-5_
  6
CONTINUOUS
 62
    4
 10
2197.3014585950522
 20
1307.9496126617746
 11
2197.3721558104471
 21
1307.806825052088
  0
LINE
  8
_0-5_
  6
CONTINUOUS
 62
    4
 10
2197.3721558104471
 20
1307.806825052088
 11
2197.4593115533411
 21
1307.6835682186556
  0
LINE
  8
_0-5_
  6
CONTINUOUS
 62
    4
 10
2197.4593115533411
 20
1307.6835682186556
 11
2197.5602776405894
 21
1307.58358725799
  0
LINE
  8
_0-5_
  6
CONTINUOUS
 62
    4
 10
2197.5602776405894
 20
1307.58358725799
 11
2197.6719862687218
 21
1307.5099200409886
  0
LINE
  8
_0-5_
  6
CONTINUOUS
 62
    4
 10
2197.6719862687218
 20
1307.5099200409886
 11
2197.7910432276007
 21
1307.4648049087622
  0
LINE
  8
_0-5_
  6
CONTINUOUS
 62
    4
 10
2197.7910432276007
 20
1307.4648049087622
 11
2197.8773053705253
 21
1307.4509476768325
  0
LINE
  8
_0-5_
  6
CONTINUOUS
 62
    4
 10
2205.3182491957677
 20
1335
 11
2197.7016989970638
 21
1335
  0
LINE
  8
_0-5_
  6
CONTINUOUS
 62
    4
 10
2206.6560187840414
 20
1333.6486486486483
 11
2207.704393318525
 21
1329.3243243243241
  0
LINE
  8
_0-5_
  6
CONTINUOUS
 62
    4
 10
2207.5304832720494
 20
1305.6503873382253
 11
2207.5304832720494
 21
1299.8000000000001
  0
LINE
  8
_0-5_
  6
CONTINUOUS
 62
    4
 10
2207.5304832720498
 20
1305.6503873382253
 11
2207.5197407311652
 21
1305.8240355158923
  0
LINE
  8
_0-5_
  6
CONTINUOUS
 62
    4
 10
2207.5197407311652
 20
1305.8240355158923
 11
2207.4878395151804
 21
1305.992407481551
  0
LINE
  8
_0-5_
  6
CONTINUOUS
 62
    4
 10
2207.4878395151804
 20
1305.992407481551
 11
2207.4357489264002
 21
1306.1503873382253
  0
LINE
  8
_0-5_
  6
CONTINUOUS
 62
    4
 10
2207.4357489264002
 20
1306.1503873382253
 11
2207.3650517110054
 21
1306.2931749479118
  0
LINE
  8
_0-5_
  6
CONTINUOUS
 62
    4
 10
2207.3650517110054
 20
1306.2931749479118
 11
2207.2778959681113
 21
1306.4164317813442
  0
LINE
  8
_0-5_
  6
CONTINUOUS
 62
    4
 10
2207.2778959681113
 20
1306.4164317813442
 11
2207.176929880863
 21
1306.5164127420098
  0
LINE
  8
_0-5_
  6
CONTINUOUS
 62
    4
 10
2207.176929880863
 20
1306.5164127420098
 11
2207.0652212527306
 21
1306.5900799590112
  0
LINE
  8
_0-5_
  6
CONTINUOUS
 62
    4
 10
2207.0652212527306
 20
1306.5900799590112
 11
2206.9461642938517
 21
1306.6351950912376
  0
LINE
  8
_0-5_
  6
CONTINUOUS
 62
    4
 10
2206.9461642938517
 20
1306.6351950912376
 11
2206.8599021509271
 21
1306.6490523231673
  0
LINE
  8
_0-5_
  6
CONTINUOUS
 62
    4
 10
2197.8773053705253
 20
1307.4509476768323
 11
2206.8599021509271
 21
1306.6490523231675
  0
LINE
  8
_0-5_
  6
CONTINUOUS
 62
    4
 10
2206.9647978461512
 20
1299.0000000000004
 11
2207.0630280894911
 21
1299.0121537975903
  0
LINE
  8
_0-5_
  6
CONTINUOUS
 62
    4
 10
2207.0630280894911
 20
1299.0121537975903
 11
2207.1582736565942
 21
1299.0482459033714
  0
LINE
  8
_0-5_
  6
CONTINUOUS
 62
    4
 10
2207.1582736565942
 20
1299.0482459033714
 11
2207.2476405591005
 21
1299.1071796769729
  0
LINE
  8
_0-5_
  6
CONTINUOUS
 62
    4
 10
2207.2476405591005
 20
1299.1071796769729
 11
2207.3284134288987
 21
1299.187164445505
  0
LINE
  8
_0-5_
  6
CONTINUOUS
 62
    4
 10
2207.3284134288987
 20
1299.187164445505
 11
2207.3981380232139
 21
1299.2857699122509
  0
LINE
  8
_0-5_
  6
CONTINUOUS
 62
    4
 10
2207.3981380232139
 20
1299.2857699122509
 11
2207.4546957955299
 21
1299.4
  0
LINE
  8
_0-5_
  6
CONTINUOUS
 62
    4
 10
2207.4546957955299
 20
1299.4
 11
2207.4963682665543
 21
1299.5263838853395
  0
LINE
  8
_0-5_
  6
CONTINUOUS
 62
    4
 10
2207.4963682665543
 20
1299.5263838853395
 11
2207.5218892393422
 21
1299.6610814578666
  0
LINE
  8
_0-5_
  6
CONTINUOUS
 62
    4
 10
2207.5218892393422
 20
1299.6610814578666
 11
2207.5304832720498
 21
1299.8000000000001
  0
LINE
  8
_0-5_
  6
CONTINUOUS
 62
    4
 10
2206.6560187840409
 20
1333.6486486486483
 11
2206.5560489147947
 21
1333.9673177975396
  0
LINE
  8
_0-5_
  6
CONTINUOUS
 62
    4
 10
2206.5560489147947
 20
1333.9673177975396
 11
2206.4184691274426
 21
1334.256595484639
  0
LINE
  8
_0-5_
  6
CONTINUOUS
 62
    4
 10
2206.4184691274426
 20
1334.256595484639
 11
2206.2474597142045
 21
1334.5076921538061
  0
LINE
  8
_0-5_
  6
CONTINUOUS
 62
    4
 10
2206.2474597142045
 20
1334.5076921538061
 11
2206.0482167095669
 21
1334.7129783598079
  0
LINE
  8
_0-5_
  6
CONTINUOUS
 62
    4
 10
2206.0482167095669
 20
1334.7129783598079
 11
2205.8267940114042
 21
1334.8662165851567
  0
LINE
  8
_0-5_
  6
CONTINUOUS
 62
    4
 10
2205.8267940114042
 20
1334.8662165851567
 11
2205.5899194363541
 21
1334.9627507639163
  0
LINE
  8
_0-5_
  6
CONTINUOUS
 62
    4
 10
2205.5899194363541
 20
1334.9627507639163
 11
2205.3447902985158
 21
1334.9996477539141
  0
LINE
  8
_0-5_
  6
CONTINUOUS
 62
    4
 10
2205.3447902985158
 20
1334.9996477539141
 11
2205.3182491957677
 21
1334.9999999999997
  0
LINE
  8
_0-5_
  6
CONTINUOUS
 62
    4
 10
2207.704393318525
 20
1329.3243243243246
 11
2207.7340545271504
 21
1329.1551353193999
  0
LINE
  8
_0-5_
  6
CONTINUOUS
 62
    4
 10
2207.7340545271504
 20
1329.1551353193999
 11
2207.7424907689633
 21
1328.9812326062979
  0
LINE
  8
_0-5_
  6
CONTINUOUS
 62
    4
 10
2207.7424907689633
 20
1328.9812326062979
 11
2207.7294457130246
 21
1328.807900130957
  0
LINE
  8
_0-5_
  6
CONTINUOUS
 62
    4
 10
2207.7294457130246
 20
1328.807900130957
 11
2207.6953157267589
 21
1328.6404045129297
  0
LINE
  8
_0-5_
  6
CONTINUOUS
 62
    4
 10
2207.6953157267589
 20
1328.6404045129297
 11
2207.6411378325278
 21
1328.4838350218128
  0
LINE
  8
_0-5_
  6
CONTINUOUS
 62
    4
 10
2207.6411378325278
 20
1328.4838350218128
 11
2207.5685581982315
 21
1328.342948942366
  0
LINE
  8
_0-5_
  6
CONTINUOUS
 62
    4
 10
2207.5685581982315
 20
1328.342948942366
 11
2207.4797821193319
 21
1328.2220270268217
  0
LINE
  8
_0-5_
  6
CONTINUOUS
 62
    4
 10
2207.4797821193319
 20
1328.2220270268217
 11
2207.3775070120636
 21
1328.1247434263941
  0
LINE
  8
_0-5_
  6
CONTINUOUS
 62
    4
 10
2207.3775070120636
 20
1328.1247434263941
 11
2207.2648404538063
 21
1328.0540540540539
  0
LINE
  8
_0-5_
  6
CONTINUOUS
 62
    4
 10
2207.2648404538063
 20
1328.0540540540539
 11
2207.1452057609217
 21
1328.0121067706099
  0
LINE
  8
_0-5_
  6
CONTINUOUS
 62
    4
 10
2207.1452057609217
 20
1328.0121067706099
 11
2207.0355085243882
 21
1328
  0
LINE
  8
_0-5_
  6
CONTINUOUS
 62
    4
 10
2197.2067242494022
 20
1308.4496126617746
 11
2197.2067242494022
 21
1327.9999999999997
  0
LINE
  8
_0-4_
  6
CONTINUOUS
 62
    3
 10
2205.9041376725917
 20
1259
 11
2205.9041376725917
 21
1299
  0
LINE
  8
_0-5_
  6
CONTINUOUS
 62
    4
 10
1991.9794652112298
 20
1334.9999999999997
 11
2197.7016989970638
 21
1334.9999999999997
  0
LINE
  8
_0-5_
  6
CONTINUOUS
 62
    4
 10
1994.1916992875117
 20
1306.6000000000026
 11
2206.8599021509267
 21
1306.6000000000026
  0
LINE
  8
_0-5_
  6
CONTINUOUS
 62
    4
 10
1993.626013861613
 20
1299
 11
2206.9647978461512
 21
1299
  0
LINE
  8
_0-4_
  6
CONTINUOUS
 62
    3
 10
2438.0472939388641
 20
1305
 11
2429.5620125503864
 21
1305
  0
LINE
  8
_0-5_
  6
CONTINUOUS
 62
    4
 10
2439.1786647906606
 20
1332.9999999999997
 11
2439.1571797088913
 21
1333.3472963553335
  0
LINE
  8
_0-5_
  6
CONTINUOUS
 62
    4
 10
2439.1571797088913
 20
1333.3472963553335
 11
2439.0933772769217
 21
1333.6840402866509
  0
LINE
  8
_0-5_
  6
CONTINUOUS
 62
    4
 10
2439.0933772769217
 20
1333.6840402866509
 11
2438.9891960993609
 21
1333.9999999999997
  0
LINE
  8
_0-5_
  6
CONTINUOUS
 62
    4
 10
2438.9891960993609
 20
1333.9999999999997
 11
2438.8478016685717
 21
1334.2855752193731
  0
LINE
  8
_0-5_
  6
CONTINUOUS
 62
    4
 10
2438.8478016685717
 20
1334.2855752193731
 11
2438.673490182784
 21
1334.5320888862377
  0
LINE
  8
_0-5_
  6
CONTINUOUS
 62
    4
 10
2438.673490182784
 20
1334.5320888862377
 11
2438.4715580082875
 21
1334.7320508075686
  0
LINE
  8
_0-5_
  6
CONTINUOUS
 62
    4
 10
2438.4715580082875
 20
1334.7320508075686
 11
2438.2481407520222
 21
1334.8793852415715
  0
LINE
  8
_0-5_
  6
CONTINUOUS
 62
    4
 10
2438.2481407520222
 20
1334.8793852415715
 11
2438.0100268342644
 21
1334.9696155060241
  0
LINE
  8
_0-5_
  6
CONTINUOUS
 62
    4
 10
2438.0100268342644
 20
1334.9696155060241
 11
2437.7644512259143
 21
1334.9999999999997
  0
LINE
  8
_0-5_
  6
CONTINUOUS
 62
    4
 10
2438.2594259735756
 20
1332.9999999999997
 11
2438.2519061949565
 21
1333.1215537243665
  0
LINE
  8
_0-5_
  6
CONTINUOUS
 62
    4
 10
2438.2519061949565
 20
1333.1215537243665
 11
2438.229575343767
 21
1333.2394141003278
  0
LINE
  8
_0-5_
  6
CONTINUOUS
 62
    4
 10
2438.229575343767
 20
1333.2394141003278
 11
2438.1931119316209
 21
1333.3499999999999
  0
LINE
  8
_0-5_
  6
CONTINUOUS
 62
    4
 10
2438.1931119316209
 20
1333.3499999999999
 11
2438.1436238808446
 21
1333.4499513267803
  0
LINE
  8
_0-5_
  6
CONTINUOUS
 62
    4
 10
2438.1436238808446
 20
1333.4499513267803
 11
2438.0826148608189
 21
1333.536231110183
  0
LINE
  8
_0-5_
  6
CONTINUOUS
 62
    4
 10
2438.0826148608189
 20
1333.536231110183
 11
2438.011938599745
 21
1333.6062177826488
  0
LINE
  8
_0-5_
  6
CONTINUOUS
 62
    4
 10
2438.011938599745
 20
1333.6062177826488
 11
2437.9337425600519
 21
1333.6577848345498
  0
LINE
  8
_0-5_
  6
CONTINUOUS
 62
    4
 10
2437.9337425600519
 20
1333.6577848345498
 11
2437.8504026888367
 21
1333.6893654271082
  0
LINE
  8
_0-5_
  6
CONTINUOUS
 62
    4
 10
2437.8504026888367
 20
1333.6893654271082
 11
2437.7644512259143
 21
1333.6999999999998
  0
LINE
  8
_0-5_
  6
CONTINUOUS
 62
    4
 10
2439.1786647906606
 20
1290.9999999999995
 11
2439.1786647906606
 21
1332.9999999999997
  0
LINE
  8
_0-5_
  6
CONTINUOUS
 62
    4
 10
2438.8251113994742
 20
1290.4999999999995
 11
2438.886505301562
 21
1290.5075961234933
  0
LINE
  8
_0-5_
  6
CONTINUOUS
 62
    4
 10
2438.886505301562
 20
1290.5075961234933
 11
2438.946033781001
 21
1290.5301536896063
  0
LINE
  8
_0-5_
  6
CONTINUOUS
 62
    4
 10
2438.946033781001
 20
1290.5301536896063
 11
2439.0018880950674
 21
1290.5669872981072
  0
LINE
  8
_0-5_
  6
CONTINUOUS
 62
    4
 10
2439.0018880950674
 20
1290.5669872981072
 11
2439.0523711386917
 21
1290.6169777784402
  0
LINE
  8
_0-5_
  6
CONTINUOUS
 62
    4
 10
2439.0523711386917
 20
1290.6169777784402
 11
2439.0959490101386
 21
1290.6786061951563
  0
LINE
  8
_0-5_
  6
CONTINUOUS
 62
    4
 10
2439.0959490101386
 20
1290.6786061951563
 11
2439.131297617836
 21
1290.7499999999995
  0
LINE
  8
_0-5_
  6
CONTINUOUS
 62
    4
 10
2439.131297617836
 20
1290.7499999999995
 11
2439.1573429122263
 21
1290.8289899283367
  0
LINE
  8
_0-5_
  6
CONTINUOUS
 62
    4
 10
2439.1573429122263
 20
1290.8289899283367
 11
2439.1732935202185
 21
1290.913175911166
  0
LINE
  8
_0-5_
  6
CONTINUOUS
 62
    4
 10
2439.1732935202185
 20
1290.913175911166
 11
2439.1786647906606
 21
1290.9999999999995
  0
LINE
  8
_0-5_
  6
CONTINUOUS
 62
    4
 10
2438.2594259735756
 20
1291.9244997998398
 11
2438.1881162848881
 21
1291.8281881558032
  0
LINE
  8
_0-5_
  6
CONTINUOUS
 62
    4
 10
2438.1881162848881
 20
1291.8281881558032
 11
2438.129715845891
 21
1291.7158277819289
  0
LINE
  8
_0-5_
  6
CONTINUOUS
 62
    4
 10
2438.129715845891
 20
1291.7158277819289
 11
2438.0859991243719
 21
1291.5908326913195
  0
LINE
  8
_0-5_
  6
CONTINUOUS
 62
    4
 10
2438.0859991243719
 20
1291.5908326913195
 11
2438.0582944307921
 21
1291.4570007965528
  0
LINE
  8
_0-5_
  6
CONTINUOUS
 62
    4
 10
2438.0582944307921
 20
1291.4570007965528
 11
2438.0474435582468
 21
1291.3183985120292
  0
LINE
  8
_0-5_
  6
CONTINUOUS
 62
    4
 10
2438.0474435582468
 20
1291.3183985120292
 11
2438.053776205008
 21
1291.1792371980275
  0
LINE
  8
_0-5_
  6
CONTINUOUS
 62
    4
 10
2438.053776205008
 20
1291.1792371980275
 11
2438.0770999568076
 21
1291.0437452006549
  0
LINE
  8
_0-5_
  6
CONTINUOUS
 62
    4
 10
2438.0770999568076
 20
1291.0437452006549
 11
2438.1167061332498
 21
1290.9160393756892
  0
LINE
  8
_0-5_
  6
CONTINUOUS
 62
    4
 10
2438.1167061332498
 20
1290.9160393756892
 11
2438.1713913207049
 21
1290.7999999999997
  0
LINE
  8
_0-5_
  6
CONTINUOUS
 62
    4
 10
2438.1713913207049
 20
1290.7999999999997
 11
2438.2394939374248
 21
1290.6991528712983
  0
LINE
  8
_0-5_
  6
CONTINUOUS
 62
    4
 10
2438.2394939374248
 20
1290.6991528712983
 11
2438.3189447198615
 21
1290.6165621785589
  0
LINE
  8
_0-5_
  6
CONTINUOUS
 62
    4
 10
2438.3189447198615
 20
1290.6165621785589
 11
2438.4073295961943
 21
1290.5547373981878
  0
LINE
  8
_0-5_
  6
CONTINUOUS
 62
    4
 10
2438.4073295961943
 20
1290.5547373981878
 11
2438.5019630366819
 21
1290.5155570448516
  0
LINE
  8
_0-5_
  6
CONTINUOUS
 62
    4
 10
2438.5019630366819
 20
1290.5155570448516
 11
2438.5999696521207
 21
1290.5002115937604
  0
LINE
  8
_0-5_
  6
CONTINUOUS
 62
    4
 10
2438.5999696521207
 20
1290.5002115937604
 11
2438.6129793647623
 21
1290.5
  0
LINE
  8
_0-5_
  6
CONTINUOUS
 62
    4
 10
2438.8251113994742
 20
1290.4999999999997
 11
2438.6129793647623
 21
1290.4999999999997
  0
LINE
  8
_0-5_
  6
CONTINUOUS
 62
    4
 10
2438.259425973576
 20
1299.2755002001599
 11
2438.259425973576
 21
1291.9244997998396
  0
LINE
  8
_0-5_
  6
CONTINUOUS
 62
    4
 10
2438.2594259735756
 20
1300.5244997998399
 11
2438.1881162848881
 21
1300.4281881558035
  0
LINE
  8
_0-5_
  6
CONTINUOUS
 62
    4
 10
2438.1881162848881
 20
1300.4281881558035
 11
2438.129715845891
 21
1300.3158277819288
  0
LINE
  8
_0-5_
  6
CONTINUOUS
 62
    4
 10
2438.129715845891
 20
1300.3158277819288
 11
2438.0859991243719
 21
1300.1908326913194
  0
LINE
  8
_0-5_
  6
CONTINUOUS
 62
    4
 10
2438.0859991243719
 20
1300.1908326913194
 11
2438.0582944307921
 21
1300.0570007965529
  0
LINE
  8
_0-5_
  6
CONTINUOUS
 62
    4
 10
2438.0582944307921
 20
1300.0570007965529
 11
2438.0474435582468
 21
1299.9183985120293
  0
LINE
  8
_0-5_
  6
CONTINUOUS
 62
    4
 10
2438.0474435582468
 20
1299.9183985120293
 11
2438.053776205008
 21
1299.7792371980276
  0
LINE
  8
_0-5_
  6
CONTINUOUS
 62
    4
 10
2438.053776205008
 20
1299.7792371980276
 11
2438.0770999568076
 21
1299.6437452006553
  0
LINE
  8
_0-5_
  6
CONTINUOUS
 62
    4
 10
2438.0770999568076
 20
1299.6437452006553
 11
2438.1167061332498
 21
1299.5160393756893
  0
LINE
  8
_0-5_
  6
CONTINUOUS
 62
    4
 10
2438.1167061332498
 20
1299.5160393756893
 11
2438.1713913207049
 21
1299.4
  0
LINE
  8
_0-5_
  6
CONTINUOUS
 62
    4
 10
2438.1713913207049
 20
1299.4
 11
2438.2394939374248
 21
1299.2991528712987
  0
LINE
  8
_0-5_
  6
CONTINUOUS
 62
    4
 10
2438.2394939374248
 20
1299.2991528712987
 11
2438.2594259735756
 21
1299.2755002001601
  0
LINE
  8
_0-5_
  6
CONTINUOUS
 62
    4
 10
2438.259425973576
 20
1304.6999999999998
 11
2438.259425973576
 21
1300.5244997998397
  0
LINE
  8
_0-5_
  6
CONTINUOUS
 62
    4
 10
2438.259425973576
 20
1304.6999999999998
 11
2438.2562032113105
 21
1304.7520944532998
  0
LINE
  8
_0-5_
  6
CONTINUOUS
 62
    4
 10
2438.2562032113105
 20
1304.7520944532998
 11
2438.2466328465152
 21
1304.8026060429974
  0
LINE
  8
_0-5_
  6
CONTINUOUS
 62
    4
 10
2438.2466328465152
 20
1304.8026060429974
 11
2438.2310056698811
 21
1304.8499999999999
  0
LINE
  8
_0-5_
  6
CONTINUOUS
 62
    4
 10
2438.2310056698811
 20
1304.8499999999999
 11
2438.2097965052626
 21
1304.892836282906
  0
LINE
  8
_0-5_
  6
CONTINUOUS
 62
    4
 10
2438.2097965052626
 20
1304.892836282906
 11
2438.1836497823946
 21
1304.9298133329355
  0
LINE
  8
_0-5_
  6
CONTINUOUS
 62
    4
 10
2438.1836497823946
 20
1304.9298133329355
 11
2438.1533599562203
 21
1304.959807621135
  0
LINE
  8
_0-5_
  6
CONTINUOUS
 62
    4
 10
2438.1533599562203
 20
1304.959807621135
 11
2438.1198473677804
 21
1304.9819077862355
  0
LINE
  8
_0-5_
  6
CONTINUOUS
 62
    4
 10
2438.1198473677804
 20
1304.9819077862355
 11
2438.0841302801168
 21
1304.9954423259034
  0
LINE
  8
_0-5_
  6
CONTINUOUS
 62
    4
 10
2438.0841302801168
 20
1304.9954423259034
 11
2438.0472939388641
 21
1304.9999999999997
  0
LINE
  8
_0-5_
  6
CONTINUOUS
 62
    4
 10
2438.259425973576
 20
1308.4496126617746
 11
2438.259425973576
 21
1332.9999999999997
  0
LINE
  8
_0-5_
  6
CONTINUOUS
 62
    4
 10
2437.5888448524528
 20
1307.4509476768325
 11
2437.710913826193
 21
1307.4750894533935
  0
LINE
  8
_0-5_
  6
CONTINUOUS
 62
    4
 10
2437.710913826193
 20
1307.4750894533935
 11
2437.8281639822021
 21
1307.5288416245089
  0
LINE
  8
_0-5_
  6
CONTINUOUS
 62
    4
 10
2437.8281639822021
 20
1307.5288416245089
 11
2437.9370327338206
 21
1307.6105709576588
  0
LINE
  8
_0-5_
  6
CONTINUOUS
 62
    4
 10
2437.9370327338206
 20
1307.6105709576588
 11
2438.0342121591215
 21
1307.7177941484126
  0
LINE
  8
_0-5_
  6
CONTINUOUS
 62
    4
 10
2438.0342121591215
 20
1307.7177941484126
 11
2438.1167495104414
 21
1307.8472532743767
  0
LINE
  8
_0-5_
  6
CONTINUOUS
 62
    4
 10
2438.1167495104414
 20
1307.8472532743767
 11
2438.1821369321269
 21
1307.9950147855188
  0
LINE
  8
_0-5_
  6
CONTINUOUS
 62
    4
 10
2438.1821369321269
 20
1307.9950147855188
 11
2438.2283876604574
 21
1308.1565890230931
  0
LINE
  8
_0-5_
  6
CONTINUOUS
 62
    4
 10
2438.2283876604574
 20
1308.1565890230931
 11
2438.2540963904571
 21
1308.3270666356515
  0
LINE
  8
_0-5_
  6
CONTINUOUS
 62
    4
 10
2438.2540963904571
 20
1308.3270666356515
 11
2438.2594259735756
 21
1308.4496126617746
  0
LINE
  8
_0-5_
  6
CONTINUOUS
 62
    4
 10
2427.9356669509284
 20
1299.8000000000001
 11
2427.944260983636
 21
1299.6610814578666
  0
LINE
  8
_0-5_
  6
CONTINUOUS
 62
    4
 10
2427.944260983636
 20
1299.6610814578666
 11
2427.9697819564239
 21
1299.5263838853395
  0
LINE
  8
_0-5_
  6
CONTINUOUS
 62
    4
 10
2427.9697819564239
 20
1299.5263838853395
 11
2428.0114544274483
 21
1299.4
  0
LINE
  8
_0-5_
  6
CONTINUOUS
 62
    4
 10
2428.0114544274483
 20
1299.4
 11
2428.0680121997643
 21
1299.2857699122509
  0
LINE
  8
_0-5_
  6
CONTINUOUS
 62
    4
 10
2428.0680121997643
 20
1299.2857699122509
 11
2428.1377367940795
 21
1299.187164445505
  0
LINE
  8
_0-5_
  6
CONTINUOUS
 62
    4
 10
2428.1377367940795
 20
1299.187164445505
 11
2428.2185096638777
 21
1299.1071796769729
  0
LINE
  8
_0-5_
  6
CONTINUOUS
 62
    4
 10
2428.2185096638777
 20
1299.1071796769729
 11
2428.307876566384
 21
1299.0482459033714
  0
LINE
  8
_0-5_
  6
CONTINUOUS
 62
    4
 10
2428.307876566384
 20
1299.0482459033714
 11
2428.4031221334871
 21
1299.0121537975903
  0
LINE
  8
_0-5_
  6
CONTINUOUS
 62
    4
 10
2428.4031221334871
 20
1299.0121537975903
 11
2428.501352376827
 21
1299.0000000000004
  0
LINE
  8
_0-5_
  6
CONTINUOUS
 62
    4
 10
2428.501352376827
 20
1299.0000000000004
 11
2428.5995826201669
 21
1299.0121537975903
  0
LINE
  8
_0-5_
  6
CONTINUOUS
 62
    4
 10
2428.5995826201669
 20
1299.0121537975903
 11
2428.6948281872701
 21
1299.0482459033714
  0
LINE
  8
_0-5_
  6
CONTINUOUS
 62
    4
 10
2428.6948281872701
 20
1299.0482459033714
 11
2428.7841950897764
 21
1299.1071796769729
  0
LINE
  8
_0-5_
  6
CONTINUOUS
 62
    4
 10
2428.7841950897764
 20
1299.1071796769729
 11
2428.8649679595746
 21
1299.187164445505
  0
LINE
  8
_0-5_
  6
CONTINUOUS
 62
    4
 10
2428.8649679595746
 20
1299.187164445505
 11
2428.9346925538898
 21
1299.2857699122509
  0
LINE
  8
_0-5_
  6
CONTINUOUS
 62
    4
 10
2428.9346925538898
 20
1299.2857699122509
 11
2428.9912503262057
 21
1299.4
  0
LINE
  8
_0-5_
  6
CONTINUOUS
 62
    4
 10
2428.9912503262057
 20
1299.4
 11
2429.0329227972301
 21
1299.5263838853395
  0
LINE
  8
_0-5_
  6
CONTINUOUS
 62
    4
 10
2429.0329227972301
 20
1299.5263838853395
 11
2429.0584437700181
 21
1299.6610814578666
  0
LINE
  8
_0-5_
  6
CONTINUOUS
 62
    4
 10
2429.0584437700181
 20
1299.6610814578666
 11
2429.0670378027257
 21
1299.8000000000001
  0
LINE
  8
_0-5_
  6
CONTINUOUS
 62
    4
 10
2430.1479010272105
 20
1335
 11
2437.7644512259143
 21
1335
  0
LINE
  8
_0-5_
  6
CONTINUOUS
 62
    4
 10
2430.1479010272105
 20
1334.9999999999997
 11
2429.9023254188605
 21
1334.9696155060241
  0
LINE
  8
_0-5_
  6
CONTINUOUS
 62
    4
 10
2429.9023254188605
 20
1334.9696155060241
 11
2429.6642115011027
 21
1334.8793852415715
  0
LINE
  8
_0-5_
  6
CONTINUOUS
 62
    4
 10
2429.6642115011027
 20
1334.8793852415715
 11
2429.4407942448374
 21
1334.7320508075686
  0
LINE
  8
_0-5_
  6
CONTINUOUS
 62
    4
 10
2429.4407942448374
 20
1334.7320508075686
 11
2429.2388620703409
 21
1334.5320888862377
  0
LINE
  8
_0-5_
  6
CONTINUOUS
 62
    4
 10
2429.2388620703409
 20
1334.5320888862377
 11
2429.0645505845532
 21
1334.2855752193731
  0
LINE
  8
_0-5_
  6
CONTINUOUS
 62
    4
 10
2429.0645505845532
 20
1334.2855752193731
 11
2428.923156153764
 21
1333.9999999999997
  0
LINE
  8
_0-5_
  6
CONTINUOUS
 62
    4
 10
2428.923156153764
 20
1333.9999999999997
 11
2428.8189749762032
 21
1333.6840402866509
  0
LINE
  8
_0-5_
  6
CONTINUOUS
 62
    4
 10
2428.8189749762032
 20
1333.6840402866509
 11
2428.8101314389373
 21
1333.6486486486483
  0
LINE
  8
_0-5_
  6
CONTINUOUS
 62
    4
 10
2430.1479010272105
 20
1333.6999999999998
 11
2430.0619495642881
 21
1333.6893654271082
  0
LINE
  8
_0-5_
  6
CONTINUOUS
 62
    4
 10
2430.0619495642881
 20
1333.6893654271082
 11
2429.9786096930729
 21
1333.6577848345498
  0
LINE
  8
_0-5_
  6
CONTINUOUS
 62
    4
 10
2429.9786096930729
 20
1333.6577848345498
 11
2429.9004136533799
 21
1333.6062177826488
  0
LINE
  8
_0-5_
  6
CONTINUOUS
 62
    4
 10
2429.9004136533799
 20
1333.6062177826488
 11
2429.829737392306
 21
1333.536231110183
  0
LINE
  8
_0-5_
  6
CONTINUOUS
 62
    4
 10
2429.829737392306
 20
1333.536231110183
 11
2429.7687283722802
 21
1333.4499513267803
  0
LINE
  8
_0-5_
  6
CONTINUOUS
 62
    4
 10
2429.7687283722802
 20
1333.4499513267803
 11
2429.719240321504
 21
1333.3499999999999
  0
LINE
  8
_0-5_
  6
CONTINUOUS
 62
    4
 10
2429.719240321504
 20
1333.3499999999999
 11
2429.6827769093579
 21
1333.2394141003278
  0
LINE
  8
_0-5_
  6
CONTINUOUS
 62
    4
 10
2429.6827769093579
 20
1333.2394141003278
 11
2429.6796816713149
 21
1333.2270270270264
  0
LINE
  8
_0-5_
  6
CONTINUOUS
 62
    4
 10
2437.7644512259143
 20
1333.7
 11
2430.1479010272105
 21
1333.7
  0
LINE
  8
_0-5_
  6
CONTINUOUS
 62
    4
 10
2429.679681671314
 20
1333.2270270270271
 11
2428.8814787365026
 21
1329.9346079027354
  0
LINE
  8
_0-5_
  6
CONTINUOUS
 62
    4
 10
2428.8814787365026
 20
1329.9346079027354
 11
2428.8755464947776
 21
1329.9007701017508
  0
LINE
  8
_0-5_
  6
CONTINUOUS
 62
    4
 10
2428.8755464947776
 20
1329.9007701017508
 11
2428.8738592464146
 21
1329.8659895591304
  0
LINE
  8
_0-5_
  6
CONTINUOUS
 62
    4
 10
2428.8738592464146
 20
1329.8659895591304
 11
2428.8764682576024
 21
1329.8313230640624
  0
LINE
  8
_0-5_
  6
CONTINUOUS
 62
    4
 10
2428.8764682576024
 20
1329.8313230640624
 11
2428.8832942548556
 21
1329.7978239404569
  0
LINE
  8
_0-5_
  6
CONTINUOUS
 62
    4
 10
2428.8832942548556
 20
1329.7978239404569
 11
2428.8941298337017
 21
1329.7665100422336
  0
LINE
  8
_0-5_
  6
CONTINUOUS
 62
    4
 10
2428.8941298337017
 20
1329.7665100422336
 11
2428.9086457605612
 21
1329.738332826344
  0
LINE
  8
_0-5_
  6
CONTINUOUS
 62
    4
 10
2428.9086457605612
 20
1329.738332826344
 11
2428.9178200292062
 21
1329.7247858648925
  0
LINE
  8
_0-5_
  6
CONTINUOUS
 62
    4
 10
2428.9178200292067
 20
1329.7247858648925
 11
2428.9994135605284
 21
1329.5941356245048
  0
LINE
  8
_0-5_
  6
CONTINUOUS
 62
    4
 10
2428.9994135605284
 20
1329.5941356245048
 11
2429.0637252466372
 21
1329.4454328738142
  0
LINE
  8
_0-5_
  6
CONTINUOUS
 62
    4
 10
2429.0637252466372
 20
1329.4454328738142
 11
2429.1088010094945
 21
1329.2831958706524
  0
LINE
  8
_0-5_
  6
CONTINUOUS
 62
    4
 10
2429.1088010094945
 20
1329.2831958706524
 11
2429.1332712448547
 21
1329.1123541042652
  0
LINE
  8
_0-5_
  6
CONTINUOUS
 62
    4
 10
2429.1332712448547
 20
1329.1123541042652
 11
2429.1363924369998
 21
1328.9380985152731
  0
LINE
  8
_0-5_
  6
CONTINUOUS
 62
    4
 10
2429.1363924369998
 20
1328.9380985152731
 11
2429.1180697500853
 21
1328.7657237715714
  0
LINE
  8
_0-5_
  6
CONTINUOUS
 62
    4
 10
2429.1180697500853
 20
1328.7657237715714
 11
2429.0788599096813
 21
1328.6004673925206
  0
LINE
  8
_0-5_
  6
CONTINUOUS
 62
    4
 10
2429.0788599096813
 20
1328.6004673925206
 11
2429.0199542869477
 21
1328.447350609575
  0
LINE
  8
_0-5_
  6
CONTINUOUS
 62
    4
 10
2429.0199542869477
 20
1328.447350609575
 11
2428.9431426994237
 21
1328.3110257987032
  0
LINE
  8
_0-5_
  6
CONTINUOUS
 62
    4
 10
2428.9431426994237
 20
1328.3110257987032
 11
2428.850759028327
 21
1328.1956351203004
  0
LINE
  8
_0-5_
  6
CONTINUOUS
 62
    4
 10
2428.850759028327
 20
1328.1956351203004
 11
2428.7456103047561
 21
1328.1046846617389
  0
LINE
  8
_0-5_
  6
CONTINUOUS
 62
    4
 10
2428.7456103047561
 20
1328.1046846617389
 11
2428.6308914194682
 21
1328.0409379066786
  0
LINE
  8
_0-5_
  6
CONTINUOUS
 62
    4
 10
2428.6308914194682
 20
1328.0409379066786
 11
2428.5100880477434
 21
1328.0063317680155
  0
LINE
  8
_0-5_
  6
CONTINUOUS
 62
    4
 10
2428.5100880477434
 20
1328.0063317680155
 11
2428.386870738901
 21
1328.001917735761
  0
LINE
  8
_0-5_
  6
CONTINUOUS
 62
    4
 10
2428.386870738901
 20
1328.001917735761
 11
2428.2649833885193
 21
1328.027829928051
  0
LINE
  8
_0-5_
  6
CONTINUOUS
 62
    4
 10
2428.2649833885193
 20
1328.027829928051
 11
2428.1481294820623
 21
1328.0832810160354
  0
LINE
  8
_0-5_
  6
CONTINUOUS
 62
    4
 10
2428.1481294820623
 20
1328.0832810160354
 11
2428.0398595663464
 21
1328.1665861464653
  0
LINE
  8
_0-5_
  6
CONTINUOUS
 62
    4
 10
2428.0398595663464
 20
1328.1665861464653
 11
2427.9434633679734
 21
1328.2752141351074
  0
LINE
  8
_0-5_
  6
CONTINUOUS
 62
    4
 10
2427.9434633679734
 20
1328.2752141351074
 11
2427.8618698366517
 21
1328.4058643754949
  0
LINE
  8
_0-5_
  6
CONTINUOUS
 62
    4
 10
2427.8618698366517
 20
1328.4058643754949
 11
2427.7975581505429
 21
1328.5545671261857
  0
LINE
  8
_0-5_
  6
CONTINUOUS
 62
    4
 10
2427.7975581505429
 20
1328.5545671261857
 11
2427.7524823876856
 21
1328.7168041293475
  0
LINE
  8
_0-5_
  6
CONTINUOUS
 62
    4
 10
2427.7524823876856
 20
1328.7168041293475
 11
2427.7280121523253
 21
1328.8876458957349
  0
LINE
  8
_0-5_
  6
CONTINUOUS
 62
    4
 10
2427.7280121523253
 20
1328.8876458957349
 11
2427.7248909601803
 21
1329.0619014847268
  0
LINE
  8
_0-5_
  6
CONTINUOUS
 62
    4
 10
2427.7248909601803
 20
1329.0619014847268
 11
2427.7432136470947
 21
1329.2342762284285
  0
LINE
  8
_0-5_
  6
CONTINUOUS
 62
    4
 10
2427.7432136470947
 20
1329.2342762284285
 11
2427.7617569044532
 21
1329.3243243243246
  0
LINE
  8
_0-5_
  6
CONTINUOUS
 62
    4
 10
2428.8101314389368
 20
1333.6486486486483
 11
2427.7617569044532
 21
1329.3243243243241
  0
LINE
  8
_0-5_
  6
CONTINUOUS
 62
    4
 10
2429.0670378027248
 20
1304.6999999999998
 11
2429.0670378027248
 21
1299.8000000000001
  0
LINE
  8
_0-5_
  6
CONTINUOUS
 62
    4
 10
2429.2791698374376
 20
1304.9999999999997
 11
2429.2423334961849
 21
1304.9954423259034
  0
LINE
  8
_0-5_
  6
CONTINUOUS
 62
    4
 10
2429.2423334961849
 20
1304.9954423259034
 11
2429.2066164085213
 21
1304.9819077862355
  0
LINE
  8
_0-5_
  6
CONTINUOUS
 62
    4
 10
2429.2066164085213
 20
1304.9819077862355
 11
2429.1731038200814
 21
1304.959807621135
  0
LINE
  8
_0-5_
  6
CONTINUOUS
 62
    4
 10
2429.1731038200814
 20
1304.959807621135
 11
2429.1428139939071
 21
1304.9298133329355
  0
LINE
  8
_0-5_
  6
CONTINUOUS
 62
    4
 10
2429.1428139939071
 20
1304.9298133329355
 11
2429.1166672710392
 21
1304.892836282906
  0
LINE
  8
_0-5_
  6
CONTINUOUS
 62
    4
 10
2429.1166672710392
 20
1304.892836282906
 11
2429.0954581064206
 21
1304.8499999999999
  0
LINE
  8
_0-5_
  6
CONTINUOUS
 62
    4
 10
2429.0954581064206
 20
1304.8499999999999
 11
2429.0798309297865
 21
1304.8026060429974
  0
LINE
  8
_0-5_
  6
CONTINUOUS
 62
    4
 10
2429.0798309297865
 20
1304.8026060429974
 11
2429.0702605649912
 21
1304.7520944532998
  0
LINE
  8
_0-5_
  6
CONTINUOUS
 62
    4
 10
2429.0702605649912
 20
1304.7520944532998
 11
2429.0670378027257
 21
1304.6999999999998
  0
LINE
  8
_0-5_
  6
CONTINUOUS
 62
    4
 10
2438.0472939388641
 20
1305
 11
2429.2791698374376
 21
1305
  0
LINE
  8
_0-5_
  6
CONTINUOUS
 62
    4
 10
2427.9356669509288
 20
1305.6503873382253
 11
2427.9356669509288
 21
1299.8000000000001
  0
LINE
  8
_0-5_
  6
CONTINUOUS
 62
    4
 10
2428.6062480720511
 20
1306.6490523231673
 11
2428.4841790983109
 21
1306.6249105466063
  0
LINE
  8
_0-5_
  6
CONTINUOUS
 62
    4
 10
2428.4841790983109
 20
1306.6249105466063
 11
2428.3669289423019
 21
1306.5711583754909
  0
LINE
  8
_0-5_
  6
CONTINUOUS
 62
    4
 10
2428.3669289423019
 20
1306.5711583754909
 11
2428.2580601906834
 21
1306.489429042341
  0
LINE
  8
_0-5_
  6
CONTINUOUS
 62
    4
 10
2428.2580601906834
 20
1306.489429042341
 11
2428.1608807653824
 21
1306.3822058515872
  0
LINE
  8
_0-5_
  6
CONTINUOUS
 62
    4
 10
2428.1608807653824
 20
1306.3822058515872
 11
2428.0783434140626
 21
1306.2527467256227
  0
LINE
  8
_0-5_
  6
CONTINUOUS
 62
    4
 10
2428.0783434140626
 20
1306.2527467256227
 11
2428.0129559923771
 21
1306.104985214481
  0
LINE
  8
_0-5_
  6
CONTINUOUS
 62
    4
 10
2428.0129559923771
 20
1306.104985214481
 11
2427.9667052640465
 21
1305.9434109769067
  0
LINE
  8
_0-5_
  6
CONTINUOUS
 62
    4
 10
2427.9667052640465
 20
1305.9434109769067
 11
2427.9409965340469
 21
1305.7729333643483
  0
LINE
  8
_0-5_
  6
CONTINUOUS
 62
    4
 10
2427.9409965340469
 20
1305.7729333643483
 11
2427.9356669509284
 21
1305.6503873382253
  0
LINE
  8
_0-5_
  6
CONTINUOUS
 62
    4
 10
2437.5888448524528
 20
1307.4509476768323
 11
2428.6062480720511
 21
1306.6490523231675
  0
LINE
  8
_0-4_
  6
CONTINUOUS
 62
    3
 10
2429.5620125503864
 20
1264.9999999999997
 11
2429.5620125503864
 21
1305
  0
LINE
  8
_0-4_
  6
CONTINUOUS
 62
    3
 10
2438.0472939388641
 20
1264.9999999999997
 11
2438.0472939388641
 21
1305
  0
LINE
  8
_0-5_
  6
CONTINUOUS
 62
    4
 10
2212.9410204864543
 20
1307.4509476768325
 11
2213.0630894601945
 21
1307.4750894533935
  0
LINE
  8
_0-5_
  6
CONTINUOUS
 62
    4
 10
2213.0630894601945
 20
1307.4750894533935
 11
2213.1803396162035
 21
1307.5288416245089
  0
LINE
  8
_0-5_
  6
CONTINUOUS
 62
    4
 10
2213.1803396162035
 20
1307.5288416245089
 11
2213.289208367822
 21
1307.6105709576588
  0
LINE
  8
_0-5_
  6
CONTINUOUS
 62
    4
 10
2213.289208367822
 20
1307.6105709576588
 11
2213.386387793123
 21
1307.7177941484126
  0
LINE
  8
_0-5_
  6
CONTINUOUS
 62
    4
 10
2213.386387793123
 20
1307.7177941484126
 11
2213.4689251444428
 21
1307.8472532743767
  0
LINE
  8
_0-5_
  6
CONTINUOUS
 62
    4
 10
2213.4689251444428
 20
1307.8472532743767
 11
2213.5343125661283
 21
1307.9950147855188
  0
LINE
  8
_0-5_
  6
CONTINUOUS
 62
    4
 10
2213.5343125661283
 20
1307.9950147855188
 11
2213.5805632944588
 21
1308.1565890230931
  0
LINE
  8
_0-5_
  6
CONTINUOUS
 62
    4
 10
2213.5805632944588
 20
1308.1565890230931
 11
2213.6062720244585
 21
1308.3270666356515
  0
LINE
  8
_0-5_
  6
CONTINUOUS
 62
    4
 10
2213.6062720244585
 20
1308.3270666356515
 11
2213.611601607577
 21
1308.4496126617746
  0
LINE
  8
_0-5_
  6
CONTINUOUS
 62
    4
 10
2205.500076661212
 20
1335
 11
2213.1166268599158
 21
1335
  0
LINE
  8
_0-5_
  6
CONTINUOUS
 62
    4
 10
2213.6116016075775
 20
1308.4496126617746
 11
2213.6116016075775
 21
1327.9999999999997
  0
LINE
  8
_0-5_
  6
CONTINUOUS
 62
    4
 10
2212.9410204864543
 20
1307.4509476768323
 11
2205.4091629284898
 21
1306.7785628723206
  0
LINE
  8
_0-5_
  6
CONTINUOUS
 62
    4
 10
2430.1479010272105
 20
1335
 11
2213.1166268599158
 21
1335
  0
LINE
  8
_0-5_
  6
CONTINUOUS
 62
    4
 10
2428.43064169859
 20
1327.9999999999997
 11
2207.0355085243882
 21
1327.9999999999997
  0
LINE
  8
_0-5_
  6
CONTINUOUS
 62
    4
 10
2427.9356669509288
 20
1306.6000000000026
 11
2205.3367258997827
 21
1306.6000000000026
  0
LINE
  8
_0-5_
  6
CONTINUOUS
 62
    4
 10
2428.501352376827
 20
1299
 11
2206.9647978461512
 21
1299
  0
LINE
  8
_0-8_
  6
CONTINUOUS
 62
    4
 10
2086.0660171779823
 20
261.88599999999996
 11
2336.0660171779823
 21
261.88599999999996
  0
LINE
  8
_0-8_
  6
CONTINUOUS
 62
    4
 10
2336.0660171779823
 20
261.88599999999996
 11
2336.0660171779823
 21
331.88599999999979
  0
LINE
  8
_0-8_
  6
CONTINUOUS
 62
    4
 10
2336.0660171779823
 20
331.88599999999979
 11
2086.0660171779823
 21
331.88599999999979
  0
LINE
  8
_0-8_
  6
CONTINUOUS
 62
    4
 10
2086.0660171779823
 20
331.88599999999979
 11
2086.0660171779823
 21
261.88599999999996
  0
LINE
  8
_0-8_
  6
CONTINUOUS
 62
    4
 10
2211.0660171779823
 20
1782.9988906867313
 11
2217.5364933055452
 21
1758.8507450295046
  0
LINE
  8
_0-8_
  6
CONTINUOUS
 62
    4
 10
2211.0660171779823
 20
1782.9988906867313
 11
2204.5955410504193
 21
1758.8507450295046
  0
LINE
  8
_0-8_
  6
CONTINUOUS
 62
    4
 10
2211.0660171779823
 20
1782.9988906867313
 11
2211.0660171779823
 21
1722.9988906867313
  0
TEXT
  8
_0-8_
 62
    7
 10
2228.5398745658139
 20
1717.2344281206189
 40
35
 41
0.8571428571428568
 50
0
  1
Ｃ
  0
TEXT
  8
_0-8_
 62
    7
 10
2148.0660171779827
 20
279.38599999999979
 40
35
 41
0.8571428571428568
 50
0
  1
Ｃ立面図
  0
LINE
  8
_0-3_
  6
CONTINUOUS
 62
    5
 10
2435.8660171779824
 20
1335
 11
2435.8660171779824
 21
1342
  0
LINE
  8
_0-3_
  6
CONTINUOUS
 62
    5
 10
1986.2207793864215
 20
1335
 11
1986.2207793864215
 21
1342
  0
LINE
  8
_0-3_
  6
DASHED1
 62
    4
 10
2444.4112549695428
 20
1781.2132034355965
 11
2435.9259735953046
 21
1789.698484809835
  0
LINE
  8
_0-6_
  6
DASHED1
 62
    7
 10
2177.8319984622144
 20
1033.3598401976867
 11
2177.8319984622144
 21
1018.3598401976867
  0
LINE
  8
_0-6_
  6
DASHED1
 62
    7
 10
2824.8347032479059
 20
1033.3598401976867
 11
2177.8319984622144
 21
1033.3598401976867
  0
LINE
  8
_0-6_
  6
DASHED1
 62
    7
 10
2824.8347032479059
 20
1033.3598401976867
 11
2824.8347032479059
 21
1018.3598401976867
  0
LINE
  8
_0-6_
  6
DASHED1
 62
    7
 10
2824.8347032479059
 20
1018.3598401976867
 11
2177.8319984622144
 21
1018.3598401976867
  0
LINE
  8
_0-6_
  6
DASHED1
 62
    7
 10
2613.409775673128
 20
1033.3598401976867
 11
2613.409775673128
 21
1018.3598401976867
  0
LINE
  8
_0-6_
  6
DASHED1
 62
    7
 10
2177.8319984622144
 20
2405.5884912233177
 11
2613.409775673128
 21
1970.0107140124046
  0
LINE
  8
_0-6_
  6
DASHED1
 62
    7
 10
2613.409775673128
 20
1970.0107140124046
 11
2824.8347032479059
 21
2181.4356415871825
  0
LINE
  8
_0-6_
  6
DASHED1
 62
    7
 10
2824.8347032479059
 20
2181.4356415871825
 11
2389.2569260369923
 21
2617.0134187980956
  0
LINE
  8
_0-6_
  6
DASHED1
 62
    7
 10
2389.2569260369923
 20
2617.0134187980956
 11
2177.8319984622148
 21
2405.5884912233177
  0
TEXT
  8
_0-8_
 62
    7
 10
2452.3728813559323
 20
2325.2737940026077
 40
35
 41
0.8571428571428568
 50
-44.999999999999971
  1
棚　板
  0
TEXT
  8
_0-8_
 62
    7
 10
2622.7509778357239
 20
946.7601043024772
 40
35
 41
0.8571428571428568
 50
0
  1
棚　板
  0
LINE
  8
_0-8_
  6
CONTINUOUS
 62
    4
 10
1717.3789572353189
 20
1906.9791480744875
 11
1704.8789572353189
 21
1885.3285129798769
  0
LINE
  8
_0-8_
  6
CONTINUOUS
 62
    4
 10
1717.3789572353189
 20
1906.9791480744875
 11
1695.7283221407078
 21
1894.4791480744879
  0
LINE
  8
_0-8_
  6
CONTINUOUS
 62
    4
 10
1717.3789572353189
 20
1906.9791480744875
 11
1674.9525503641261
 21
1864.5527412032947
  0
TEXT
  8
_0-8_
 62
    7
 10
1680.1865077938277
 20
1847.8273003807571
 40
35
 41
0.8571428571428568
 50
-44.999999999999907
  1
Ａ
  0
LINE
  8
_0-8_
  6
CONTINUOUS
 62
    4
 10
2710.6636044343849
 20
1930.1848721119711
 11
2732.3142395289955
 21
1917.6848721119713
  0
LINE
  8
_0-8_
  6
CONTINUOUS
 62
    4
 10
2710.6636044343849
 20
1930.1848721119711
 11
2723.1636044343845
 21
1908.5342370173602
  0
LINE
  8
_0-8_
  6
CONTINUOUS
 62
    4
 10
2710.6636044343849
 20
1930.1848721119711
 11
2753.0900113055777
 21
1887.7584652407786
  0
TEXT
  8
_0-8_
 62
    7
 10
2743.8076754694193
 20
1917.6103890244996
 40
35
 41
0.8571428571428568
 50
-45
  1
Ｂ
  0
LINE
  8
_f-7_
  6
CONTINUOUS
 62
    7
 10
11.211582553814309
 20
1478.2679491924309
 11
11.211582553814309
 21
1481.732050807569
  0
LINE
  8
_f-7_
  6
CONTINUOUS
 62
    7
 10
11.211582553814309
 20
1481.732050807569
 11
14.211582553814992
 21
1480
  0
LINE
  8
_f-7_
  6
CONTINUOUS
 62
    7
 10
14.211582553814992
 20
1480
 11
11.211582553814309
 21
1478.2679491924309
  0
LINE
  8
_0-2_
  6
CONTINUOUS
 62
    5
 10
332.21158255381453
 20
2660
 11
332.21158255381453
 21
1760
  0
LINE
  8
_0-2_
  6
CONTINUOUS
 62
    5
 10
1232.2115825538144
 20
2660
 11
332.21158255381453
 21
2660
  0
LINE
  8
_0-2_
  6
CONTINUOUS
 62
    5
 10
352.21158255381453
 20
2640
 11
352.21158255381453
 21
1760
  0
LINE
  8
_0-2_
  6
CONTINUOUS
 62
    5
 10
1232.2115825538144
 20
2640
 11
352.21158255381453
 21
2640
  0
LINE
  8
_0-2_
  6
CONTINUOUS
 62
    5
 10
932.21158255381442
 20
1760
 11
332.21158255381453
 21
1760
  0
LINE
  8
_0-2_
  6
CONTINUOUS
 62
    5
 10
1232.2115825538144
 20
2660
 11
1232.2115825538144
 21
2060
  0
LINE
  8
_0-2_
  6
CONTINUOUS
 62
    5
 10
932.21158255381442
 20
2060
 11
932.21158255381442
 21
1760
  0
LINE
  8
_0-2_
  6
CONTINUOUS
 62
    5
 10
1232.2115825538144
 20
2060
 11
932.21158255381442
 21
2060
  0
LINE
  8
_0-2_
  6
CONTINUOUS
 62
    5
 10
911.21158255381465
 20
2081
 11
911.21158255381465
 21
1760
  0
LINE
  8
_0-2_
  6
CONTINUOUS
 62
    5
 10
1232.2115825538144
 20
2081
 11
911.21158255381465
 21
2081
  0
LINE
  8
_0-2_
  6
CONTINUOUS
 62
    5
 10
1232.2115825538144
 20
2075
 11
917.21158255381442
 21
2075
  0
LINE
  8
_0-2_
  6
CONTINUOUS
 62
    5
 10
917.21158255381442
 20
2075
 11
917.21158255381442
 21
1760
  0
CIRCLE
  8
_0-2_
  6
DASHED1
 62
    4
 10
882.21158255381465
 20
1367.5229988884236
 40
5
  0
CIRCLE
  8
_0-2_
  6
DASHED1
 62
    4
 10
882.21158255381465
 20
1367.5229988884236
 40
2
  0
LINE
  8
_0-2_
  6
CONTINUOUS
 62
    5
 10
911.21158255381442
 20
1379.9999999999997
 11
917.21158255381442
 21
1382.9999999999993
  0
LINE
  8
_0-2_
  6
CONTINUOUS
 62
    5
 10
924.21158255381487
 20
1382.9999999999993
 11
917.21158255381442
 21
1382.9999999999993
  0
ARC
  8
_0-2_
  6
CONTINUOUS
 62
    5
 10
924.21158255381487
 20
1374.999999999999
 40
8
 50
0
 51
90
  0
LINE
  8
_0-2_
  6
CONTINUOUS
 62
    5
 10
932.21158255381442
 20
1345.9999999999993
 11
932.21158255381442
 21
1374.999999999999
  0
ARC
  8
_0-2_
  6
CONTINUOUS
 62
    5
 10
931.21158255381442
 20
1345.9999999999993
 40
1
 50
270
 51
0
  0
ARC
  8
_0-2_
  6
CONTINUOUS
 62
    4
 10
931.21158255381442
 20
1345.9999999999993
 40
0.3999999999999999
 50
270
 51
0
  0
ARC
  8
_0-2_
  6
CONTINUOUS
 62
    4
 10
924.21158255381487
 20
1374.999999999999
 40
7.4000000000000021
 50
0
 51
90
  0
LINE
  8
_0-2_
  6
CONTINUOUS
 62
    4
 10
931.61158255381496
 20
1374.999999999999
 11
931.61158255381496
 21
1345.9999999999993
  0
LINE
  8
_0-2_
  6
CONTINUOUS
 62
    4
 10
924.21158255381487
 20
1382.3999999999991
 11
917.35322334031434
 21
1382.3999999999991
  0
LINE
  8
_0-2_
  6
CONTINUOUS
 62
    4
 10
911.35322334031388
 20
1379.3999999999996
 11
917.35322334031434
 21
1382.3999999999991
  0
LINE
  8
_0-2_
  6
CONTINUOUS
 62
    4
 10
922.81158255381387
 20
1345.9999999999993
 11
922.81158255381387
 21
1350.9999999999993
  0
LINE
  8
_0-2_
  6
CONTINUOUS
 62
    5
 10
922.81158255381387
 20
1350.9999999999993
 11
922.21158255381442
 21
1350.9999999999993
  0
LINE
  8
_0-2_
  6
CONTINUOUS
 62
    5
 10
922.21158255381442
 20
1345.9999999999993
 11
922.21158255381442
 21
1350.9999999999993
  0
LINE
  8
_0-2_
  6
CONTINUOUS
 62
    5
 10
923.21158255381487
 20
1344.9999999999997
 11
931.21158255381442
 21
1344.9999999999997
  0
ARC
  8
_0-2_
  6
CONTINUOUS
 62
    5
 10
923.21158255381487
 20
1345.9999999999993
 40
1
 50
180
 51
270
  0
ARC
  8
_0-2_
  6
CONTINUOUS
 62
    4
 10
923.21158255381487
 20
1345.9999999999993
 40
0.3999999999999999
 50
180
 51
270
  0
LINE
  8
_0-2_
  6
CONTINUOUS
 62
    4
 10
931.21158255381442
 20
1345.5999999999996
 11
923.21158255381487
 21
1345.5999999999996
  0
LINE
  8
_0-2_
  6
CONTINUOUS
 62
    4
 10
903.21158255381351
 20
1345.9999999999993
 11
903.21158255381351
 21
1356.9999999999986
  0
LINE
  8
_0-2_
  6
CONTINUOUS
 62
    4
 10
904.21158255381396
 20
1344.9999999999997
 11
923.21158255381487
 21
1344.9999999999997
  0
ARC
  8
_0-2_
  6
CONTINUOUS
 62
    4
 10
904.21158255381396
 20
1345.9999999999993
 40
1
 50
180
 51
270
  0
LINE
  8
_0-2_
  6
CONTINUOUS
 62
    5
 10
877.21158255381351
 20
1379.9999999999997
 11
893.35322334031434
 21
1379.9999999999997
  0
LINE
  8
_0-2_
  6
CONTINUOUS
 62
    5
 10
877.21158255381351
 20
1379.9999999999997
 11
911.21158255381442
 21
1379.9999999999997
  0
LINE
  8
_0-2_
  6
CONTINUOUS
 62
    4
 10
877.21158255381351
 20
1379.3999999999996
 11
911.35322334031388
 21
1379.3999999999996
  0
ARC
  8
_0-2_
  6
CONTINUOUS
 62
    4
 10
361.4896681138822
 20
1389.9999999999997
 40
10.600000000000003
 50
184.28915332882039
 51
270
  0
LINE
  8
_0-2_
  6
CONTINUOUS
 62
    4
 10
332.81158255381399
 20
1419.3999999999996
 11
341.78911410576404
 21
1419.3999999999996
  0
ARC
  8
_0-2_
  6
CONTINUOUS
 62
    4
 10
341.78911410576404
 20
1411.9999999999995
 40
7.4000000000000021
 50
4.2891533288205359
 51
90
  0
LINE
  8
_0-2_
  6
CONTINUOUS
 62
    4
 10
349.16838899893775
 20
1412.5534456169882
 11
350.91935542906469
 21
1389.2072265486378
  0
ARC
  8
_0-2_
  6
CONTINUOUS
 62
    5
 10
341.78911410576404
 20
1411.9999999999995
 40
8
 50
4.2891533288205359
 51
90
  0
LINE
  8
_0-2_
  6
CONTINUOUS
 62
    5
 10
349.76670858487125
 20
1412.598319585933
 11
351.51767501499818
 21
1389.2521005175833
  0
LINE
  8
_0-2_
  6
CONTINUOUS
 62
    5
 10
341.78911410576404
 20
1419.9999999999997
 11
332.21158255381453
 21
1419.9999999999997
  0
ARC
  8
_0-2_
  6
CONTINUOUS
 62
    5
 10
361.4896681138822
 20
1389.9999999999997
 40
10
 50
184.28915332882039
 51
270
  0
LINE
  8
_0-2_
  6
CONTINUOUS
 62
    4
 10
332.21158255381453
 20
1413.999999999999
 11
332.21158255381453
 21
1357.0000000000009
  0
LINE
  8
_0-2_
  6
CONTINUOUS
 62
    4
 10
332.81158255381399
 20
1419.3999999999996
 11
332.81158255381399
 21
1414.5999999999994
  0
LINE
  8
_0-2_
  6
CONTINUOUS
 62
    4
 10
332.81158255381399
 20
1418.999999999999
 11
333.41158255381344
 21
1418.999999999999
  0
LINE
  8
_0-2_
  6
CONTINUOUS
 62
    4
 10
333.41158255381344
 20
1418.999999999999
 11
333.41158255381344
 21
1413.999999999999
  0
LINE
  8
_0-2_
  6
CONTINUOUS
 62
    4
 10
332.21158255381453
 20
1413.999999999999
 11
333.41158255381344
 21
1413.999999999999
  0
LINE
  8
_0-2_
  6
CONTINUOUS
 62
    5
 10
332.21158255381453
 20
1419.9999999999997
 11
332.21158255381453
 21
1413.999999999999
  0
LINE
  8
_0-2_
  6
CONTINUOUS
 62
    5
 10
332.21158255381453
 20
1356.9999999999995
 11
903.21158255381351
 21
1356.9999999999995
  0
LINE
  8
_0-2_
  6
CONTINUOUS
 62
    7
 10
1232.2115825538144
 20
1419.9999999999997
 11
1232.2115825538144
 21
1344.9999999999995
  0
LINE
  8
_0-2_
  6
CONTINUOUS
 62
    7
 10
1232.2115825538144
 20
1419.9999999999997
 11
341.78911410576404
 21
1419.9999999999997
  0
LINE
  8
_0-2_
  6
CONTINUOUS
 62
    7
 10
1232.2115825538144
 20
1344.9999999999995
 11
931.21158255381442
 21
1344.9999999999995
  0
LINE
  8
_0-2_
  6
CONTINUOUS
 62
    5
 10
361.4896681138822
 20
1379.9999999999997
 11
877.21158255381351
 21
1379.9999999999997
  0
CIRCLE
  8
_0-2_
  6
DASHED1
 62
    4
 10
382.21149440547208
 20
1368.5000000000011
 40
2
  0
CIRCLE
  8
_0-2_
  6
DASHED1
 62
    4
 10
382.21167070215699
 20
1368.5774415274224
 40
5
  0
LINE
  8
_0-3_
  6
CONTINUOUS
 62
    5
 10
797.21158255381396
 20
529.99999999999977
 11
814.21158255381442
 21
529.99999999999977
  0
LINE
  8
_0-3_
  6
CONTINUOUS
 62
    5
 10
582.21158255381453
 20
529.99999999999977
 11
847.21158255381442
 21
529.99999999999977
  0
LINE
  8
_0-3_
  6
CONTINUOUS
 62
    5
 10
582.21158255381453
 20
1356.9999999999995
 11
582.21158255381453
 21
529.99999999999977
  0
LINE
  8
_0-3_
  6
CONTINUOUS
 62
    4
 10
859.21158255381442
 20
529.99999999999977
 11
847.21158255381442
 21
529.99999999999977
  0
LINE
  8
_0-3_
  6
CONTINUOUS
 62
    7
 10
1232.2115825538144
 20
1344.9999999999995
 11
1232.2115825538144
 21
529.99999999999977
  0
LINE
  8
_0-3_
  6
CONTINUOUS
 62
    7
 10
1232.2115825538144
 20
529.99999999999977
 11
859.21158255381442
 21
529.99999999999977
  0
ARC
  8
_0-5_
  6
CONTINUOUS
 62
    4
 10
1226.2115825538146
 20
1331
 40
3.0000000000000004
 50
270
 51
0
  0
LINE
  8
_0-2_
  6
CONTINUOUS
 62
    7
 10
924.21158255381487
 20
1382.9999999999993
 11
1232.2115825538144
 21
1382.9999999999993
  0
LINE
  8
_0-3_
  6
DASHED1
 62
    5
 10
582.21158255381453
 20
1760
 11
582.21158255381453
 21
2660
  0
POINT
  8
_0-9_
 62
    3
 10
352.21158255381453
 20
1499.9999999999997
  0
POINT
  8
_0-9_
 62
    3
 10
332.21158963389257
 20
1499.9999999999997
  0
LINE
  8
_0-9_
  6
CONTINUOUS
 62
    4
 10
352.21158255381453
 20
1509.9999999999997
 11
352.21158255381453
 21
1452.2073875056082
  0
POINT
  8
_0-9_
 62
    3
 10
332.21158255381453
 20
1579.9999999999997
  0
LINE
  8
_0-9_
  6
CONTINUOUS
 62
    4
 10
332.21158963389257
 20
1499.9999999999997
 11
288.94025389516627
 21
1499.9999999999997
  0
LINE
  8
_0-9_
  6
CONTINUOUS
 62
    4
 10
352.21158255381453
 20
1499.9999999999997
 11
332.21158963389257
 21
1499.9999999999997
  0
TEXT
  8
_0-9_
 62
    7
 10
286.98069851506289
 20
1499.9999999999997
 40
35
 41
0.6285714285714286
 50
0
  1
２０
  0
LINE
  8
_0-9_
  6
CONTINUOUS
 62
    4
 10
332.21158963389257
 20
1587.8564991263733
 11
332.21158963389257
 21
1452.2073875056082
  0
ARC
  8
_0-5_
  6
CONTINUOUS
 62
    4
 10
911.91158255381424
 20
1331
 40
3.0000000000000004
 50
205.84193276317509
 51
270
  0
LINE
  8
_0-5_
  6
CONTINUOUS
 62
    4
 10
911.91158255381424
 20
1327.9999999999997
 11
1226.2115825538146
 21
1327.9999999999997
  0
LINE
  8
_0-4_
  6
CONTINUOUS
 62
    3
 10
1229.2115825538146
 20
1335
 11
909.21158255381442
 21
1335
  0
ARC
  8
_0-7_
  6
DASHED1
 62
    4
 10
910.21158255381442
 20
1332.9999999999997
 40
2
 50
89.999999999999985
 51
180
  0
ARC
  8
_0-7_
  6
DASHED1
 62
    4
 10
910.21158255381442
 20
1332.9999999999997
 40
0.6999999999999997
 50
90
 51
180
  0
LINE
  8
_0-7_
  6
DASHED1
 62
    4
 10
908.21158255381465
 20
1291
 11
908.21158255381465
 21
1332.9999999999997
  0
ARC
  8
_0-7_
  6
DASHED1
 62
    4
 10
908.71158255381487
 20
1291
 40
0.5
 50
180
 51
270
  0
ARC
  8
_0-7_
  6
DASHED1
 62
    4
 10
909.0115825538146
 20
1291.2999999999997
 40
0.8000000000000001
 50
270
 51
51.317812546506686
  0
LINE
  8
_0-7_
  6
DASHED1
 62
    4
 10
908.71158255381487
 20
1290.4999999999997
 11
909.0115825538146
 21
1290.4999999999997
  0
LINE
  8
_0-7_
  6
DASHED1
 62
    4
 10
909.5115825538146
 20
1299.2755002001601
 11
909.5115825538146
 21
1291.9244997998396
  0
ARC
  8
_0-7_
  6
DASHED1
 62
    4
 10
909.0115825538146
 20
1299.8999999999998
 40
0.8000000000000001
 50
308.68218745349338
 51
51.317812546506658
  0
LINE
  8
_0-7_
  6
DASHED1
 62
    4
 10
909.5115825538146
 20
1304.7
 11
909.5115825538146
 21
1300.5244997998397
  0
ARC
  8
_0-7_
  6
DASHED1
 62
    4
 10
909.81158255381456
 20
1304.7
 40
0.2999999999999998
 50
90
 51
180
  0
LINE
  8
_0-7_
  6
DASHED1
 62
    4
 10
909.5115825538146
 20
1308.4496126617748
 11
909.5115825538146
 21
1332.9999999999997
  0
ARC
  8
_0-7_
  6
DASHED1
 62
    4
 10
910.51158255381483
 20
1308.4496126617748
 40
1
 50
180
 51
267.03906386583628
  0
LINE
  8
_0-7_
  6
DASHED1
 62
    4
 10
920.98301112524313
 20
1335
 11
910.21158255381442
 21
1335
  0
ARC
  8
_0-7_
  6
DASHED1
 62
    4
 10
920.98301112524313
 20
1332.9999999999997
 40
2
 50
18.92464441605048
 51
90
  0
ARC
  8
_0-7_
  6
DASHED1
 62
    4
 10
920.98301112524313
 20
1332.9999999999997
 40
0.6999999999999997
 50
18.924644416049972
 51
90
  0
LINE
  8
_0-7_
  6
DASHED1
 62
    4
 10
910.21158255381442
 20
1333.6999999999998
 11
920.98301112524313
 21
1333.6999999999998
  0
LINE
  8
_0-7_
  6
DASHED1
 62
    4
 10
921.64517328740521
 20
1333.2270270270269
 11
922.77400270144812
 21
1329.9346079027359
  0
ARC
  8
_0-7_
  6
DASHED1
 62
    4
 10
922.58481351225873
 20
1329.8697430378708
 40
0.2
 50
313.5489627682229
 51
18.924644416052935
  0
ARC
  8
_0-7_
  6
DASHED1
 62
    4
 10
923.41158255381469
 20
1329
 40
1
 50
133.54896276821992
 51
18.924644416049773
  0
LINE
  8
_0-7_
  6
DASHED1
 62
    4
 10
922.87490301713501
 20
1333.6486486486487
 11
924.35752849976051
 21
1329.3243243243241
  0
LINE
  8
_0-7_
  6
DASHED1
 62
    4
 10
922.5115825538146
 20
1304.7
 11
922.5115825538146
 21
1299.7999999999999
  0
ARC
  8
_0-7_
  6
DASHED1
 62
    4
 10
922.21158255381465
 20
1304.7
 40
0.2999999999999998
 50
0
 51
90
  0
LINE
  8
_0-7_
  6
DASHED1
 62
    4
 10
909.81158255381456
 20
1305
 11
922.21158255381465
 21
1305
  0
LINE
  8
_0-7_
  6
DASHED1
 62
    4
 10
924.11158255381451
 20
1305.6503873382255
 11
924.11158255381451
 21
1299.7999999999999
  0
ARC
  8
_0-7_
  6
DASHED1
 62
    4
 10
923.11158255381474
 20
1305.6503873382255
 40
1
 50
0.0000000000000127
 51
87.03906386583624
  0
LINE
  8
_0-7_
  6
DASHED1
 62
    4
 10
910.45992746838692
 20
1307.4509476768323
 11
923.16323763924265
 21
1306.6490523231673
  0
LINE
  8
_0-7_
  6
DASHED1
 62
    9
 10
924.11158255381451
 20
1305.6503873382255
 11
924.11158255381451
 21
1306.6000000000028
  0
LINE
  8
_0-7_
  6
DASHED1
 62
    9
 10
923.16323763924265
 20
1306.6490523231673
 11
924.11158255381451
 21
1306.6000000000028
  0
LINE
  8
_0-7_
  6
DASHED1
 62
    9
 10
920.96226397552754
 20
1327.9999999999997
 11
926.08367098780809
 21
1327.9999999999997
  0
ARC
  8
_0-7_
  6
DASHED1
 62
    4
 10
923.31158255381456
 20
1299.7999999999999
 40
0.8000000000000001
 50
180.00000000000005
 51
0
  0
LINE
  8
_0-7_
  6
DASHED1
 62
    9
 10
922.32311443730895
 20
1299
 11
924.42880907961512
 21
1299
  0
LINE
  8
_0-5_
  6
CONTINUOUS
 62
    4
 10
1229.2115825538146
 20
1306.6000000000028
 11
909.21158255381442
 21
1306.6000000000028
  0
LINE
  8
_0-5_
  6
CONTINUOUS
 62
    4
 10
1229.2115825538146
 20
1299
 11
909.21158255381442
 21
1299
  0
CIRCLE
  8
_0-2_
  6
DASHED1
 62
    4
 10
3419.1218352890059
 20
1367.5229988884236
 40
5
  0
CIRCLE
  8
_0-2_
  6
DASHED1
 62
    4
 10
3419.1218352890059
 20
1367.5229988884236
 40
2
  0
LINE
  8
_0-2_
  6
CONTINUOUS
 62
    5
 10
3390.1218352890059
 20
1379.9999999999997
 11
3384.1218352890059
 21
1382.9999999999993
  0
LINE
  8
_0-2_
  6
CONTINUOUS
 62
    5
 10
3377.1218352890055
 20
1382.9999999999993
 11
3384.1218352890059
 21
1382.9999999999993
  0
ARC
  8
_0-2_
  6
CONTINUOUS
 62
    5
 10
3377.1218352890055
 20
1374.999999999999
 40
8
 50
90
 51
180
  0
LINE
  8
_0-2_
  6
CONTINUOUS
 62
    5
 10
3369.1218352890059
 20
1345.9999999999993
 11
3369.1218352890059
 21
1374.999999999999
  0
ARC
  8
_0-2_
  6
CONTINUOUS
 62
    5
 10
3370.1218352890059
 20
1345.9999999999993
 40
1
 50
180
 51
270
  0
ARC
  8
_0-2_
  6
CONTINUOUS
 62
    4
 10
3370.1218352890059
 20
1345.9999999999993
 40
0.3999999999999999
 50
180
 51
270
  0
ARC
  8
_0-2_
  6
CONTINUOUS
 62
    4
 10
3377.1218352890055
 20
1374.999999999999
 40
7.4000000000000021
 50
90
 51
180
  0
LINE
  8
_0-2_
  6
CONTINUOUS
 62
    4
 10
3369.7218352890054
 20
1374.999999999999
 11
3369.7218352890054
 21
1345.9999999999993
  0
LINE
  8
_0-2_
  6
CONTINUOUS
 62
    4
 10
3377.1218352890055
 20
1382.3999999999991
 11
3383.980194502506
 21
1382.3999999999991
  0
LINE
  8
_0-2_
  6
CONTINUOUS
 62
    4
 10
3389.9801945025064
 20
1379.3999999999996
 11
3383.980194502506
 21
1382.3999999999991
  0
LINE
  8
_0-2_
  6
CONTINUOUS
 62
    4
 10
3378.5218352890065
 20
1345.9999999999993
 11
3378.5218352890065
 21
1350.9999999999993
  0
LINE
  8
_0-2_
  6
CONTINUOUS
 62
    5
 10
3378.5218352890065
 20
1350.9999999999993
 11
3379.1218352890059
 21
1350.9999999999993
  0
LINE
  8
_0-2_
  6
CONTINUOUS
 62
    5
 10
3379.1218352890059
 20
1345.9999999999993
 11
3379.1218352890059
 21
1350.9999999999993
  0
LINE
  8
_0-2_
  6
CONTINUOUS
 62
    5
 10
3378.1218352890055
 20
1344.9999999999997
 11
3370.1218352890059
 21
1344.9999999999997
  0
ARC
  8
_0-2_
  6
CONTINUOUS
 62
    5
 10
3378.1218352890055
 20
1345.9999999999993
 40
1
 50
270
 51
0
  0
ARC
  8
_0-2_
  6
CONTINUOUS
 62
    4
 10
3378.1218352890055
 20
1345.9999999999993
 40
0.3999999999999999
 50
270
 51
0
  0
LINE
  8
_0-2_
  6
CONTINUOUS
 62
    4
 10
3370.1218352890059
 20
1345.5999999999996
 11
3378.1218352890055
 21
1345.5999999999996
  0
LINE
  8
_0-2_
  6
CONTINUOUS
 62
    4
 10
3398.1218352890068
 20
1345.9999999999993
 11
3398.1218352890068
 21
1356.9999999999986
  0
LINE
  8
_0-2_
  6
CONTINUOUS
 62
    4
 10
3397.1218352890064
 20
1344.9999999999997
 11
3378.1218352890055
 21
1344.9999999999997
  0
ARC
  8
_0-2_
  6
CONTINUOUS
 62
    4
 10
3397.1218352890064
 20
1345.9999999999993
 40
1
 50
270
 51
0
  0
LINE
  8
_0-2_
  6
CONTINUOUS
 62
    5
 10
3424.1218352890068
 20
1379.9999999999997
 11
3407.980194502506
 21
1379.9999999999997
  0
LINE
  8
_0-2_
  6
CONTINUOUS
 62
    4
 10
3424.1218352890068
 20
1379.3999999999996
 11
3389.9801945025064
 21
1379.3999999999996
  0
ARC
  8
_0-2_
  6
CONTINUOUS
 62
    4
 10
3939.8437497289382
 20
1389.9999999999997
 40
10.600000000000003
 50
270
 51
355.71084667117958
  0
LINE
  8
_0-2_
  6
CONTINUOUS
 62
    4
 10
3968.5218352890065
 20
1419.3999999999996
 11
3959.5443037370564
 21
1419.3999999999996
  0
ARC
  8
_0-2_
  6
CONTINUOUS
 62
    4
 10
3959.5443037370564
 20
1411.9999999999995
 40
7.4000000000000021
 50
90.000000000000028
 51
175.71084667117946
  0
LINE
  8
_0-2_
  6
CONTINUOUS
 62
    4
 10
3952.1650288438827
 20
1412.5534456169882
 11
3950.4140624137558
 21
1389.2072265486378
  0
ARC
  8
_0-2_
  6
CONTINUOUS
 62
    5
 10
3959.5443037370564
 20
1411.9999999999995
 40
8
 50
90.000000000000028
 51
175.71084667117946
  0
LINE
  8
_0-2_
  6
CONTINUOUS
 62
    5
 10
3951.5667092579492
 20
1412.598319585933
 11
3949.8157428278223
 21
1389.2521005175833
  0
LINE
  8
_0-2_
  6
CONTINUOUS
 62
    5
 10
3959.5443037370564
 20
1419.9999999999997
 11
3969.1218352890059
 21
1419.9999999999997
  0
ARC
  8
_0-2_
  6
CONTINUOUS
 62
    5
 10
3939.8437497289382
 20
1389.9999999999997
 40
10
 50
270
 51
355.71084667117958
  0
LINE
  8
_0-2_
  6
CONTINUOUS
 62
    4
 10
3969.1218352890059
 20
1413.999999999999
 11
3969.1218352890059
 21
1357.0000000000009
  0
LINE
  8
_0-2_
  6
CONTINUOUS
 62
    4
 10
3968.5218352890065
 20
1419.3999999999996
 11
3968.5218352890065
 21
1414.5999999999994
  0
LINE
  8
_0-2_
  6
CONTINUOUS
 62
    4
 10
3968.5218352890065
 20
1418.999999999999
 11
3967.921835289007
 21
1418.999999999999
  0
LINE
  8
_0-2_
  6
CONTINUOUS
 62
    4
 10
3967.921835289007
 20
1418.999999999999
 11
3967.921835289007
 21
1413.999999999999
  0
LINE
  8
_0-2_
  6
CONTINUOUS
 62
    4
 10
3969.1218352890059
 20
1413.999999999999
 11
3967.921835289007
 21
1413.999999999999
  0
LINE
  8
_0-2_
  6
CONTINUOUS
 62
    5
 10
3969.1218352890059
 20
1419.9999999999997
 11
3969.1218352890059
 21
1413.999999999999
  0
LINE
  8
_0-2_
  6
CONTINUOUS
 62
    5
 10
3939.8437497289382
 20
1379.9999999999997
 11
3427.1218352890059
 21
1379.9999999999997
  0
LINE
  8
_0-2_
  6
CONTINUOUS
 62
    5
 10
3969.1218352890059
 20
1356.9999999999995
 11
3398.1218352890068
 21
1356.9999999999995
  0
LINE
  8
_0-2_
  6
CONTINUOUS
 62
    7
 10
3069.1218352890059
 20
1419.9999999999997
 11
3069.1218352890059
 21
1344.9999999999995
  0
LINE
  8
_0-2_
  6
CONTINUOUS
 62
    7
 10
3069.1218352890059
 20
1419.9999999999997
 11
3959.5443037370564
 21
1419.9999999999997
  0
LINE
  8
_0-2_
  6
CONTINUOUS
 62
    7
 10
3069.1218352890059
 20
1344.9999999999995
 11
3370.1218352890059
 21
1344.9999999999995
  0
LINE
  8
_0-2_
  6
CONTINUOUS
 62
    5
 10
3427.1218352890059
 20
1379.9999999999997
 11
3390.1218352890059
 21
1379.9999999999997
  0
CIRCLE
  8
_0-2_
  6
DASHED1
 62
    4
 10
3919.1219234373484
 20
1368.5000000000011
 40
2
  0
CIRCLE
  8
_0-2_
  6
DASHED1
 62
    4
 10
3919.1217471406635
 20
1368.5774415274224
 40
5
  0
LINE
  8
_0-3_
  6
CONTINUOUS
 62
    5
 10
3969.1218352890059
 20
1356.9999999999995
 11
3969.1218352890059
 21
529.99999999999977
  0
LINE
  8
_0-3_
  6
CONTINUOUS
 62
    5
 10
3969.1218352890059
 20
529.99999999999977
 11
3454.1218352890059
 21
529.99999999999977
  0
LINE
  8
_0-3_
  6
CONTINUOUS
 62
    4
 10
3442.1218352890059
 20
529.99999999999977
 11
3454.1218352890059
 21
529.99999999999977
  0
LINE
  8
_0-3_
  6
CONTINUOUS
 62
    7
 10
3069.1218352890059
 20
1344.9999999999995
 11
3069.1218352890059
 21
529.99999999999977
  0
LINE
  8
_0-3_
  6
CONTINUOUS
 62
    7
 10
3069.1218352890059
 20
529.99999999999977
 11
3442.1218352890059
 21
529.99999999999977
  0
ARC
  8
_0-5_
  6
CONTINUOUS
 62
    4
 10
3075.1218352890055
 20
1331
 40
3.0000000000000004
 50
180
 51
270
  0
ARC
  8
_0-5_
  6
CONTINUOUS
 62
    4
 10
3373.1218352890064
 20
1331
 40
3.0000000000000004
 50
270
 51
0
  0
LINE
  8
_0-4_
  6
CONTINUOUS
 62
    3
 10
3376.1218352890055
 20
1295
 11
3376.1218352890055
 21
1335
  0
LINE
  8
_0-5_
  6
CONTINUOUS
 62
    4
 10
3373.1218352890064
 20
1327.9999999999997
 11
3075.1218352890055
 21
1327.9999999999997
  0
LINE
  8
_0-5_
  6
CONTINUOUS
 62
    4
 10
3072.1218352890059
 20
1306.6000000000028
 11
3376.1218352890055
 21
1306.6000000000028
  0
LINE
  8
_0-5_
  6
CONTINUOUS
 62
    4
 10
3072.1218352890059
 20
1299
 11
3376.1218352890055
 21
1299
  0
LINE
  8
_0-4_
  6
CONTINUOUS
 62
    3
 10
3393.1218352890064
 20
1335
 11
3381.1218352890055
 21
1335
  0
ARC
  8
_0-5_
  6
CONTINUOUS
 62
    4
 10
3392.7240173117988
 20
1332.9999999999997
 40
2
 50
0
 51
90.000000000000028
  0
ARC
  8
_0-5_
  6
CONTINUOUS
 62
    4
 10
3392.7240173117988
 20
1332.9999999999997
 40
0.6999999999999997
 50
0
 51
90
  0
LINE
  8
_0-5_
  6
CONTINUOUS
 62
    4
 10
3394.7240173117988
 20
1290.9999999999995
 11
3394.7240173117988
 21
1332.9999999999997
  0
ARC
  8
_0-5_
  6
CONTINUOUS
 62
    4
 10
3394.2240173117988
 20
1290.9999999999995
 40
0.5
 50
270
 51
0
  0
ARC
  8
_0-5_
  6
CONTINUOUS
 62
    4
 10
3393.9240173117991
 20
1291.2999999999997
 40
0.8000000000000001
 50
128.68218745349332
 51
270
  0
LINE
  8
_0-5_
  6
CONTINUOUS
 62
    4
 10
3394.2240173117988
 20
1290.4999999999995
 11
3393.9240173117991
 21
1290.4999999999995
  0
LINE
  8
_0-5_
  6
CONTINUOUS
 62
    4
 10
3393.4240173117991
 20
1299.2755002001601
 11
3393.4240173117991
 21
1291.9244997998396
  0
ARC
  8
_0-5_
  6
CONTINUOUS
 62
    4
 10
3393.9240173117991
 20
1299.8999999999998
 40
0.8000000000000001
 50
128.68218745349332
 51
231.31781254650658
  0
LINE
  8
_0-5_
  6
CONTINUOUS
 62
    4
 10
3393.4240173117991
 20
1304.7
 11
3393.4240173117991
 21
1300.5244997998397
  0
ARC
  8
_0-5_
  6
CONTINUOUS
 62
    4
 10
3393.1240173117985
 20
1304.7
 40
0.2999999999999998
 50
0
 51
90
  0
LINE
  8
_0-5_
  6
CONTINUOUS
 62
    4
 10
3393.4240173117991
 20
1308.4496126617748
 11
3393.4240173117991
 21
1332.9999999999997
  0
ARC
  8
_0-5_
  6
CONTINUOUS
 62
    4
 10
3392.4240173117987
 20
1308.4496126617748
 40
1
 50
272.96093613416371
 51
0
  0
LINE
  8
_0-5_
  6
CONTINUOUS
 62
    4
 10
3381.9525887403706
 20
1335
 11
3392.7240173117988
 21
1335
  0
ARC
  8
_0-5_
  6
CONTINUOUS
 62
    4
 10
3381.9525887403706
 20
1332.9999999999997
 40
2
 50
90
 51
161.07535558394951
  0
ARC
  8
_0-5_
  6
CONTINUOUS
 62
    4
 10
3381.9525887403706
 20
1332.9999999999997
 40
0.6999999999999997
 50
90
 51
161.07535558395002
  0
LINE
  8
_0-5_
  6
CONTINUOUS
 62
    4
 10
3392.7240173117988
 20
1333.6999999999998
 11
3381.9525887403706
 21
1333.6999999999998
  0
LINE
  8
_0-5_
  6
CONTINUOUS
 62
    4
 10
3381.290426578208
 20
1333.2270270270269
 11
3380.1615971641654
 21
1329.9346079027359
  0
ARC
  8
_0-5_
  6
CONTINUOUS
 62
    4
 10
3380.350786353355
 20
1329.8697430378708
 40
0.2
 50
161.07535558394698
 51
226.45103723177706
  0
ARC
  8
_0-5_
  6
CONTINUOUS
 62
    4
 10
3379.5240173117986
 20
1329
 40
1
 50
161.07535558395028
 51
46.451037231780048
  0
LINE
  8
_0-5_
  6
CONTINUOUS
 62
    4
 10
3380.060696848478
 20
1333.6486486486487
 11
3378.5780713658527
 21
1329.3243243243241
  0
LINE
  8
_0-5_
  6
CONTINUOUS
 62
    4
 10
3380.4240173117987
 20
1304.7
 11
3380.4240173117987
 21
1299.7999999999999
  0
ARC
  8
_0-5_
  6
CONTINUOUS
 62
    4
 10
3380.7240173117988
 20
1304.7
 40
0.2999999999999998
 50
90
 51
180
  0
LINE
  8
_0-5_
  6
CONTINUOUS
 62
    4
 10
3393.1240173117985
 20
1305
 11
3380.7240173117988
 21
1305
  0
LINE
  8
_0-5_
  6
CONTINUOUS
 62
    4
 10
3378.8240173117992
 20
1305.6503873382255
 11
3378.8240173117992
 21
1299.7999999999999
  0
ARC
  8
_0-5_
  6
CONTINUOUS
 62
    4
 10
3379.8240173117987
 20
1305.6503873382255
 40
1
 50
92.960936134163759
 51
180
  0
LINE
  8
_0-5_
  6
CONTINUOUS
 62
    4
 10
3392.4756723972268
 20
1307.4509476768323
 11
3379.7723622263711
 21
1306.6490523231673
  0
ARC
  8
_0-5_
  6
CONTINUOUS
 62
    4
 10
3379.6240173117989
 20
1299.7999999999999
 40
0.8000000000000001
 50
180
 51
359.99999999999994
  0
CIRCLE
  8
_0-3_
  6
DASHED2
 62
    7
 10
3916.1218352890055
 20
894.99999999999977
 40
2.5
  0
CIRCLE
  8
_0-3_
  6
DASHED2
 62
    7
 10
3916.1218352890055
 20
954.99999999999977
 40
2.5
  0
CIRCLE
  8
_0-3_
  6
DASHED2
 62
    7
 10
3916.1218352890055
 20
1014.9999999999997
 40
2.5
  0
CIRCLE
  8
_0-3_
  6
DASHED2
 62
    7
 10
3916.1218352890055
 20
1074.9999999999997
 40
2.5
  0
CIRCLE
  8
_0-3_
  6
DASHED2
 62
    7
 10
3916.1218352890055
 20
1134.9999999999997
 40
2.5
  0
CIRCLE
  8
_0-3_
  6
DASHED2
 62
    7
 10
3666.1218352890055
 20
894.99999999999977
 40
2.5
  0
CIRCLE
  8
_0-3_
  6
DASHED2
 62
    7
 10
3666.1218352890055
 20
954.99999999999977
 40
2.5
  0
CIRCLE
  8
_0-3_
  6
DASHED2
 62
    7
 10
3666.1218352890055
 20
1014.9999999999997
 40
2.5
  0
CIRCLE
  8
_0-3_
  6
DASHED2
 62
    7
 10
3666.1218352890055
 20
1074.9999999999997
 40
2.5
  0
CIRCLE
  8
_0-3_
  6
DASHED2
 62
    7
 10
3666.1218352890055
 20
1134.9999999999997
 40
2.5
  0
LINE
  8
_0-6_
  6
DASHED1
 62
    7
 10
3652.1218352890059
 20
1018.3598401976867
 11
3951.1218352890055
 21
1018.3598401976867
  0
LINE
  8
_0-6_
  6
DASHED1
 62
    7
 10
3951.1218352890055
 20
1018.3598401976867
 11
3951.1218352890055
 21
1033.3598401976867
  0
LINE
  8
_0-6_
  6
DASHED1
 62
    7
 10
3951.1218352890055
 20
1033.3598401976867
 11
3652.1218352890059
 21
1033.3598401976867
  0
LINE
  8
_0-6_
  6
DASHED1
 62
    7
 10
3652.1218352890059
 20
1033.3598401976867
 11
3652.1218352890059
 21
1018.3598401976867
  0
LINE
  8
_0-6_
  6
DASHED1
 62
    7
 10
3951.1218352890055
 20
1356.9999999999995
 11
3951.1218352890055
 21
529.99999999999977
  0
LINE
  8
_0-6_
  6
DASHED1
 62
    7
 10
3955.1218352890055
 20
1356.9999999999995
 11
3955.1218352890055
 21
529.99999999999977
  0
LINE
  8
_0-9_
  6
CONTINUOUS
 62
    4
 10
1500.3636054322992
 20
530
 11
1272.2115825538144
 21
530
  0
LINE
  8
_0-9_
  6
CONTINUOUS
 62
    4
 10
1420.3636054322992
 20
530
 11
1272.2115825538144
 21
530
  0
POINT
  8
_0-9_
 62
    3
 10
1410.3636054322992
 20
530
  0
POINT
  8
_0-9_
 62
    3
 10
1490.3636054322992
 20
530
  0
LINE
  8
_0-9_
  6
CONTINUOUS
 62
    4
 10
1446.0342304998671
 20
2660
 11
1272.2115825538144
 21
2660
  0
POINT
  8
_0-9_
 62
    3
 10
332.21158255381453
 20
2784.8355872820752
  0
LINE
  8
_0-9_
  6
CONTINUOUS
 62
    4
 10
332.21158255381453
 20
2794.8355872820752
 11
332.21158255381453
 21
2700
  0
POINT
  8
_0-9_
 62
    3
 10
198.47028850877137
 20
2660
  0
LINE
  8
_0-9_
  6
CONTINUOUS
 62
    4
 10
188.47028850877137
 20
2660
 11
292.21158255381453
 21
2660
  0
POINT
  8
_0-9_
 62
    3
 10
198.47028850877137
 20
2660
  0
POINT
  8
_0-9_
 62
    3
 10
198.47028850877137
 20
1760
  0
LINE
  8
_0-9_
  6
CONTINUOUS
 62
    4
 10
188.47028850877137
 20
2660
 11
292.21158255381453
 21
2660
  0
LINE
  8
_0-9_
  6
CONTINUOUS
 62
    4
 10
188.47028850877137
 20
1760
 11
292.21158255381453
 21
1760
  0
LINE
  8
_0-9_
  6
CONTINUOUS
 62
    4
 10
198.47028850877137
 20
2660
 11
198.47028850877137
 21
1760
  0
TEXT
  8
_0-9_
 62
    7
 10
193.47028850877137
 20
2176.9
 40
35
 41
0.6285714285714286
 50
90
  1
９００
  0
POINT
  8
_0-9_
 62
    3
 10
198.47028850877137
 20
530
  0
POINT
  8
_0-9_
 62
    3
 10
198.47028850877137
 20
1419.9999999999997
  0
LINE
  8
_0-9_
  6
CONTINUOUS
 62
    4
 10
198.47028850877137
 20
530
 11
198.47028850877137
 21
1419.9999999999997
  0
TEXT
  8
_0-9_
 62
    7
 10
198.47028850877137
 20
941.89999999999986
 40
35
 41
0.6285714285714286
 50
90
  1
８９０
  0
LINE
  8
_0-9_
  6
CONTINUOUS
 62
    4
 10
188.47028850877137
 20
1419.9999999999997
 11
290.66756985946369
 21
1419.9999999999997
  0
LINE
  8
_0-9_
  6
CONTINUOUS
 62
    4
 10
188.47028850877137
 20
530
 11
290.66756985946369
 21
530
  0
POINT
  8
_0-9_
 62
    3
 10
332.21158255381453
 20
1579.9999999999997
  0
POINT
  8
_0-9_
 62
    3
 10
932.21158255381442
 20
1579.9999999999997
  0
LINE
  8
_0-9_
  6
CONTINUOUS
 62
    4
 10
332.21158255381453
 20
1589.9999999999997
 11
332.21158255381453
 21
1452.2073875056082
  0
LINE
  8
_0-9_
  6
CONTINUOUS
 62
    4
 10
332.21158255381453
 20
1579.9999999999997
 11
932.21158255381442
 21
1579.9999999999997
  0
TEXT
  8
_0-9_
 62
    7
 10
599.11158255381451
 20
1584.9999999999997
 40
35
 41
0.6285714285714286
 50
0
  1
６００
  0
LINE
  8
_0-9_
  6
CONTINUOUS
 62
    4
 10
932.21158255381442
 20
1589.9999999999997
 11
932.21158255381442
 21
1404.1046483782561
  0
POINT
  8
_0-9_
 62
    3
 10
332.21158255381453
 20
2784.8355872820752
  0
POINT
  8
_0-9_
 62
    3
 10
1232.2115825538144
 20
2784.8355872820752
  0
LINE
  8
_0-9_
  6
CONTINUOUS
 62
    4
 10
332.21158255381453
 20
2794.8355872820752
 11
332.21158255381453
 21
2700
  0
LINE
  8
_0-9_
  6
CONTINUOUS
 62
    4
 10
1232.2115825538144
 20
2794.8355872820752
 11
1232.2115825538144
 21
2700
  0
LINE
  8
_0-9_
  6
CONTINUOUS
 62
    4
 10
332.21158255381453
 20
2784.8355872820752
 11
1232.2115825538144
 21
2784.8355872820752
  0
TEXT
  8
_0-9_
 62
    7
 10
749.11158255381451
 20
2789.8355872820752
 40
35
 41
0.6285714285714286
 50
0
  1
９００
  0
LINE
  8
_0-2_
  6
DASHED1
 62
    5
 10
911.21158255381442
 20
1379.9999999999997
 11
1232.2115825538144
 21
1379.9999999999997
  0
POINT
  8
_0-9_
 62
    3
 10
1410.3636054322992
 20
530
  0
POINT
  8
_0-9_
 62
    3
 10
1330.3636054322992
 20
1335
  0
LINE
  8
_0-9_
  6
CONTINUOUS
 62
    4
 10
1340.3636054322992
 20
1335
 11
1272.2115825538144
 21
1335
  0
POINT
  8
_0-9_
 62
    3
 10
1490.3636054322992
 20
530
  0
POINT
  8
_0-9_
 62
    3
 10
1490.3636054322992
 20
1379.9999999999997
  0
LINE
  8
_0-9_
  6
CONTINUOUS
 62
    4
 10
1500.3636054322992
 20
530
 11
1272.2115825538144
 21
530
  0
LINE
  8
_0-9_
  6
CONTINUOUS
 62
    4
 10
1500.3636054322992
 20
1379.9999999999997
 11
1272.2115825538144
 21
1379.9999999999997
  0
LINE
  8
_0-9_
  6
CONTINUOUS
 62
    4
 10
1490.3636054322992
 20
530
 11
1490.3636054322992
 21
1379.9999999999997
  0
TEXT
  8
_0-9_
 62
    7
 10
1485.3636054322992
 20
921.89999999999986
 40
35
 41
0.6285714285714286
 50
90
  1
８５０
  0
POINT
  8
_0-9_
 62
    3
 10
3951.1218352890055
 20
1174.7218373962457
  0
POINT
  8
_0-9_
 62
    3
 10
3652.1218352890059
 20
1174.7218373962457
  0
LINE
  8
_0-9_
  6
CONTINUOUS
 62
    4
 10
3652.1218352890059
 20
1184.7218373962457
 11
3652.1218352890059
 21
1063.3598401976867
  0
LINE
  8
_0-9_
  6
CONTINUOUS
 62
    4
 10
3951.1218352890055
 20
1174.7218373962457
 11
3652.1218352890059
 21
1174.7218373962457
  0
TEXT
  8
_0-9_
 62
    7
 10
3768.521835289006
 20
1179.7218373962457
 40
35
 41
0.6285714285714286
 50
0
  1
２９９
  0
POINT
  8
_0-9_
 62
    3
 10
4057.2075289526064
 20
529.99999999999977
  0
POINT
  8
_0-9_
 62
    3
 10
4057.2075289526064
 20
894.99999999999977
  0
LINE
  8
_0-9_
  6
CONTINUOUS
 62
    4
 10
4067.2075289526064
 20
529.99999999999977
 11
3991.2267290284626
 21
529.99999999999977
  0
LINE
  8
_0-9_
  6
CONTINUOUS
 62
    4
 10
4067.2075289526064
 20
894.99999999999977
 11
3991.2267290284626
 21
894.99999999999977
  0
LINE
  8
_0-9_
  6
CONTINUOUS
 62
    4
 10
4057.2075289526064
 20
529.99999999999977
 11
4057.2075289526064
 21
894.99999999999977
  0
TEXT
  8
_0-9_
 62
    7
 10
4052.2075289526064
 20
679.39999999999963
 40
35
 41
0.6285714285714286
 50
90
  1
３６５
  0
POINT
  8
_0-9_
 62
    3
 10
4057.2075289526064
 20
894.99999999999977
  0
POINT
  8
_0-9_
 62
    3
 10
4057.2075289526064
 20
954.99999999999977
  0
LINE
  8
_0-9_
  6
CONTINUOUS
 62
    4
 10
4067.2075289526064
 20
894.99999999999977
 11
3991.2267290284626
 21
894.99999999999977
  0
LINE
  8
_0-9_
  6
CONTINUOUS
 62
    4
 10
4067.2075289526064
 20
954.99999999999977
 11
3991.2267290284626
 21
954.99999999999977
  0
LINE
  8
_0-9_
  6
CONTINUOUS
 62
    4
 10
4057.2075289526064
 20
894.99999999999977
 11
4057.2075289526064
 21
954.99999999999977
  0
TEXT
  8
_0-9_
 62
    7
 10
4052.2075289526064
 20
902.9499999999997
 40
35
 41
0.6285714285714286
 50
90
  1
６０
  0
POINT
  8
_0-9_
 62
    3
 10
4057.2075289526064
 20
1014.9999999999997
  0
LINE
  8
_0-9_
  6
CONTINUOUS
 62
    4
 10
4067.2075289526064
 20
1014.9999999999997
 11
3991.2267290284626
 21
1014.9999999999997
  0
LINE
  8
_0-9_
  6
CONTINUOUS
 62
    4
 10
4057.2075289526064
 20
954.99999999999977
 11
4057.2075289526064
 21
1014.9999999999997
  0
TEXT
  8
_0-9_
 62
    7
 10
4052.2075289526064
 20
962.9499999999997
 40
35
 41
0.6285714285714286
 50
90
  1
６０
  0
POINT
  8
_0-9_
 62
    3
 10
4057.2075289526064
 20
1074.9999999999997
  0
LINE
  8
_0-9_
  6
CONTINUOUS
 62
    4
 10
4067.2075289526064
 20
1074.9999999999997
 11
3991.2267290284626
 21
1074.9999999999997
  0
LINE
  8
_0-9_
  6
CONTINUOUS
 62
    4
 10
4057.2075289526064
 20
1014.9999999999997
 11
4057.2075289526064
 21
1074.9999999999997
  0
TEXT
  8
_0-9_
 62
    7
 10
4052.2075289526064
 20
1022.9499999999997
 40
35
 41
0.6285714285714286
 50
90
  1
６０
  0
POINT
  8
_0-9_
 62
    3
 10
4057.2075289526064
 20
1134.9999999999997
  0
LINE
  8
_0-9_
  6
CONTINUOUS
 62
    4
 10
4067.2075289526064
 20
1134.9999999999997
 11
3991.2267290284626
 21
1134.9999999999997
  0
LINE
  8
_0-9_
  6
CONTINUOUS
 62
    4
 10
4057.2075289526064
 20
1074.9999999999997
 11
4057.2075289526064
 21
1134.9999999999997
  0
TEXT
  8
_0-9_
 62
    7
 10
4052.2075289526064
 20
1082.9499999999998
 40
35
 41
0.6285714285714286
 50
90
  1
６０
  0
POINT
  8
_0-9_
 62
    3
 10
1490.3636054322992
 20
2660
  0
POINT
  8
_0-9_
 62
    3
 10
1490.3636054322992
 20
2060
  0
LINE
  8
_0-9_
  6
CONTINUOUS
 62
    4
 10
1500.3636054322992
 20
2660
 11
1272.2115825538144
 21
2660
  0
LINE
  8
_0-9_
  6
CONTINUOUS
 62
    4
 10
1500.3636054322992
 20
2060
 11
1272.2115825538144
 21
2060
  0
LINE
  8
_0-9_
  6
CONTINUOUS
 62
    4
 10
1490.3636054322992
 20
2660
 11
1490.3636054322992
 21
2060
  0
TEXT
  8
_0-9_
 62
    7
 10
1485.3636054322992
 20
2326.9
 40
35
 41
0.6285714285714286
 50
90
  1
６００
  0
LINE
  8
_0-9_
  6
DASHED1
 62
    5
 10
1232.2115825538144
 20
1940
 11
932.21158255381442
 21
1940
  0
POINT
  8
_0-9_
 62
    3
 10
1232.2115825538144
 20
1940
  0
POINT
  8
_0-9_
 62
    3
 10
932.21158255381442
 20
1940
  0
LINE
  8
_0-9_
  6
CONTINUOUS
 62
    4
 10
1232.2115825538144
 20
1930
 11
1232.2115825538144
 21
2020
  0
LINE
  8
_0-9_
  6
DASHED1
 62
    5
 10
1052.2115825538144
 20
2060
 11
1052.2115825538144
 21
1760
  0
POINT
  8
_0-9_
 62
    3
 10
1052.2115825538144
 20
1760
  0
POINT
  8
_0-9_
 62
    3
 10
1052.2115825538144
 20
2060
  0
LINE
  8
_0-9_
  6
CONTINUOUS
 62
    4
 10
1062.2115825538144
 20
1760
 11
972.21158255381442
 21
1760
  0
LINE
  8
_0-9_
  6
CONTINUOUS
 62
    4
 10
1232.2115825538144
 20
1940
 11
932.21158255381442
 21
1940
  0
TEXT
  8
_0-9_
 62
    7
 10
1110.4593220338981
 20
1945
 40
35
 41
0.6285714285714286
 50
0
  1
３００
  0
LINE
  8
_0-9_
  6
CONTINUOUS
 62
    4
 10
1052.2115825538144
 20
1760
 11
1052.2115825538144
 21
2060
  0
TEXT
  8
_0-9_
 62
    7
 10
1047.2115825538144
 20
1815.8895697522816
 40
35
 41
0.6285714285714286
 50
90
  1
３００
  0
POINT
  8
_0-9_
 62
    3
 10
3072.1218352890059
 20
409.99999999999971
  0
POINT
  8
_0-9_
 62
    3
 10
3376.1218352890055
 20
409.99999999999971
  0
LINE
  8
_0-9_
  6
CONTINUOUS
 62
    4
 10
3072.1218352890059
 20
399.99999999999971
 11
3072.1218352890059
 21
489.99999999999971
  0
LINE
  8
_0-9_
  6
CONTINUOUS
 62
    4
 10
3376.1218352890055
 20
399.99999999999971
 11
3376.1218352890055
 21
489.99999999999971
  0
LINE
  8
_0-9_
  6
CONTINUOUS
 62
    4
 10
3072.1218352890059
 20
409.99999999999971
 11
3376.1218352890055
 21
409.99999999999971
  0
TEXT
  8
_0-9_
 62
    7
 10
3191.021835289006
 20
414.99999999999971
 40
35
 41
0.6285714285714286
 50
0
  1
３０４
  0
POINT
  8
_0-9_
 62
    3
 10
1229.2115825538146
 20
409.99999999999971
  0
POINT
  8
_0-9_
 62
    3
 10
909.21158255381442
 20
409.99999999999971
  0
LINE
  8
_0-9_
  6
CONTINUOUS
 62
    4
 10
1229.2115825538146
 20
399.99999999999971
 11
1229.2115825538146
 21
489.99999999999971
  0
LINE
  8
_0-9_
  6
CONTINUOUS
 62
    4
 10
909.21158255381442
 20
399.99999999999971
 11
909.21158255381442
 21
489.99999999999971
  0
LINE
  8
_0-9_
  6
CONTINUOUS
 62
    4
 10
1229.2115825538146
 20
409.99999999999971
 11
909.21158255381442
 21
409.99999999999971
  0
TEXT
  8
_0-9_
 62
    7
 10
1036.1115825538145
 20
414.99999999999971
 40
35
 41
0.6285714285714286
 50
0
  1
３２０
  0
POINT
  8
_0-9_
 62
    3
 10
3949.1218423690838
 20
1499.9999999999997
  0
POINT
  8
_0-9_
 62
    3
 10
3969.1218352890059
 20
1499.9999999999997
  0
LINE
  8
_0-9_
  6
CONTINUOUS
 62
    4
 10
3949.1218423690838
 20
1509.9999999999997
 11
3949.1218423690838
 21
1452.2073875056082
  0
LINE
  8
_0-9_
  6
CONTINUOUS
 62
    4
 10
3969.1218352890059
 20
1509.9999999999997
 11
3969.1218352890059
 21
1452.2073875056082
  0
LINE
  8
_0-9_
  6
CONTINUOUS
 62
    4
 10
3969.1218352890059
 20
1499.9999999999997
 11
4012.393171027732
 21
1499.9999999999997
  0
LINE
  8
_0-9_
  6
CONTINUOUS
 62
    4
 10
3949.1218423690838
 20
1499.9999999999997
 11
3969.1218352890059
 21
1499.9999999999997
  0
TEXT
  8
_0-9_
 62
    7
 10
3970.2527264078353
 20
1499.9999999999997
 40
35
 41
0.6285714285714286
 50
0
  1
２０
  0
LINE
  8
_0-2_
  6
CONTINUOUS
 62
    7
 10
3377.1218352890055
 20
1382.9999999999993
 11
3069.1218352890059
 21
1382.9999999999993
  0
LINE
  8
_0-2_
  6
DASHED1
 62
    5
 10
3390.1218352890059
 20
1379.9999999999997
 11
3069.1218352890059
 21
1379.9999999999997
  0
LINE
  8
_0-8_
  6
CONTINUOUS
 62
    4
 10
1142.470664928292
 20
1680.9615384615381
 11
1392.470664928292
 21
1680.9615384615381
  0
LINE
  8
_0-8_
  6
CONTINUOUS
 62
    4
 10
1392.470664928292
 20
1680.9615384615381
 11
1392.470664928292
 21
1750.9615384615381
  0
LINE
  8
_0-8_
  6
CONTINUOUS
 62
    4
 10
1392.470664928292
 20
1750.9615384615381
 11
1142.470664928292
 21
1750.9615384615381
  0
LINE
  8
_0-8_
  6
CONTINUOUS
 62
    4
 10
1142.470664928292
 20
1750.9615384615381
 11
1142.470664928292
 21
1680.9615384615381
  0
TEXT
  8
_0-8_
 62
    7
 10
1220.470664928292
 20
1698.4615384615381
 40
35
 41
0.8571428571428568
 50
0
  1
平面図
  0
LINE
  8
_0-8_
  6
CONTINUOUS
 62
    4
 10
2625.5345501955671
 20
1680.9615384615381
 11
2875.5345501955671
 21
1680.9615384615381
  0
LINE
  8
_0-8_
  6
CONTINUOUS
 62
    4
 10
2875.5345501955671
 20
1680.9615384615381
 11
2875.5345501955671
 21
1750.9615384615381
  0
LINE
  8
_0-8_
  6
CONTINUOUS
 62
    4
 10
2875.5345501955671
 20
1750.9615384615381
 11
2625.5345501955671
 21
1750.9615384615381
  0
LINE
  8
_0-8_
  6
CONTINUOUS
 62
    4
 10
2625.5345501955671
 20
1750.9615384615381
 11
2625.5345501955671
 21
1680.9615384615381
  0
TEXT
  8
_0-8_
 62
    7
 10
2703.5345501955671
 20
1698.4615384615381
 40
35
 41
0.8571428571428568
 50
0
  1
平面図
  0
POINT
  8
_0-d_
 62
    3
 10
352.21158255381453
 20
2398.8461538461538
  0
POINT
  8
_0-d_
 62
    3
 10
1232.2115825538144
 20
2398.8461538461538
  0
LINE
  8
_0-d_
  6
CONTINUOUS
 62
    4
 10
352.21158255381453
 20
2398.8461538461538
 11
1232.2115825538144
 21
2398.8461538461538
  0
TEXT
  8
_0-d_
 62
    7
 10
759.11158255381451
 20
2403.8461538461538
 40
35
 41
0.6285714285714286
 50
0
  1
８８０
  0
POINT
  8
_0-d_
 62
    3
 10
496.83023872679029
 20
2640
  0
POINT
  8
_0-d_
 62
    3
 10
496.83023872679029
 20
1760
  0
LINE
  8
_0-d_
  6
CONTINUOUS
 62
    4
 10
496.83023872679029
 20
2640
 11
496.83023872679029
 21
1760
  0
TEXT
  8
_0-d_
 62
    7
 10
491.83023872679029
 20
2166.9
 40
35
 41
0.6285714285714286
 50
90
  1
８８０
  0
POINT
  8
_0-d_
 62
    3
 10
352.21158255381453
 20
1941.3170781473168
  0
POINT
  8
_0-d_
 62
    3
 10
911.21158255381465
 20
1941.3170781473168
  0
LINE
  8
_0-d_
  6
CONTINUOUS
 62
    4
 10
352.21158255381453
 20
1941.3170781473168
 11
911.21158255381465
 21
1941.3170781473168
  0
TEXT
  8
_0-d_
 62
    7
 10
598.6115825538144
 20
1946.3170781473168
 40
35
 41
0.6285714285714286
 50
0
  1
５５９
  0
POINT
  8
_0-d_
 62
    3
 10
1132.2199551112016
 20
2081
  0
POINT
  8
_0-d_
 62
    3
 10
1132.2199551112016
 20
2640
  0
LINE
  8
_0-d_
  6
CONTINUOUS
 62
    4
 10
1132.2199551112016
 20
2081
 11
1132.2199551112016
 21
2640
  0
TEXT
  8
_0-d_
 62
    7
 10
1127.2199551112016
 20
2327.4
 40
35
 41
0.6285714285714286
 50
90
  1
５５９
  0
TEXT
  8
_0-d_
 62
    7
 10
3345
 20
2362.4999999999981
 40
35
 41
0.8571428571428568
 50
0
  1
アルミ一文字把手
  0
TEXT
  8
_0-d_
 62
    7
 10
3159.8500000000003
 20
2362.4999999999981
 40
35
 41
0.8571428571428568
 50
0
  1
把　　手
  0
TEXT
  8
_0-d_
 62
    7
 10
3159.8500000000003
 20
2416.4999999999986
 40
35
 41
0.8571428571428568
 50
0
  1
丁　　番
  0
TEXT
  8
_0-d_
 62
    7
 10
3205
 20
2470.499999999999
 40
35
 41
0.8571428571428568
 50
0
  1
扉
  0
TEXT
  8
_0-d_
 62
    7
 10
3159.8500000000003
 20
2524.499999999999
 40
35
 41
0.8571428571428568
 50
0
  1
台　　輪
  0
TEXT
  8
_0-d_
 62
    7
 10
3345
 20
2578.499999999999
 40
35
 41
0.8571428571428568
 50
0
  1
片面フラッシュ　１７．５ｔ
  0
TEXT
  8
_0-d_
 62
    7
 10
3159.8500000000003
 20
2578.499999999999
 40
35
 41
0.8571428571428568
 50
0
  1
背　　板
  0
TEXT
  8
_0-d_
 62
    7
 10
3345
 20
2632.4999999999995
 40
35
 41
0.6857142857142857
 50
0
  1
片面フラッシュ　１７．５ｔ　ＥＢコーティング化粧板
  0
TEXT
  8
_0-d_
 62
    7
 10
3159.8500000000003
 20
2632.4999999999995
 40
35
 41
0.8571428571428568
 50
0
  1
地　　板
  0
TEXT
  8
_0-d_
 62
    7
 10
3345.0000000000009
 20
2686.5
 40
35
 41
0.6857142857142857
 50
0
  1
低圧メラミン化粧パーティクルボード　１２ｔ
  0
TEXT
  8
_0-d_
 62
    7
 10
3159.8500000000003
 20
2686.5
 40
35
 41
0.8571428571428568
 50
0
  1
側　　板
  0
TEXT
  8
_0-d_
 62
    7
 10
3144.8000000000001
 20
2740.4999999999995
 40
35
 41
0.8571428571428568
 50
0
  1
ト　ッ　プ
  0
TEXT
  8
_0-d_
 62
    7
 10
3345
 20
2800
 40
35
 41
0.8571428571428568
 50
0
  1
仕　　　　様
  0
LINE
  8
_0-d_
  6
CONTINUOUS
 62
    3
 10
4115
 20
2845
 11
3115
 21
2845
  0
LINE
  8
_0-d_
  6
CONTINUOUS
 62
    7
 10
4115
 20
2352.9999999999995
 11
3115
 21
2352.9999999999995
  0
LINE
  8
_0-d_
  6
CONTINUOUS
 62
    7
 10
4115
 20
2407.0000000000004
 11
3115
 21
2407.0000000000004
  0
LINE
  8
_0-d_
  6
CONTINUOUS
 62
    7
 10
4115
 20
2460.9999999999995
 11
3115
 21
2460.9999999999995
  0
LINE
  8
_0-d_
  6
CONTINUOUS
 62
    7
 10
4115
 20
2515
 11
3115
 21
2515
  0
LINE
  8
_0-d_
  6
CONTINUOUS
 62
    7
 10
4115
 20
2569
 11
3115
 21
2569
  0
LINE
  8
_0-d_
  6
CONTINUOUS
 62
    7
 10
4115
 20
2622.9999999999995
 11
3115
 21
2622.9999999999995
  0
LINE
  8
_0-d_
  6
CONTINUOUS
 62
    7
 10
4115
 20
2677.0000000000004
 11
3115
 21
2677.0000000000004
  0
LINE
  8
_0-d_
  6
CONTINUOUS
 62
    7
 10
4115
 20
2731
 11
3115
 21
2731
  0
LINE
  8
_0-d_
  6
CONTINUOUS
 62
    7
 10
4115
 20
2790
 11
3115
 21
2790
  0
LINE
  8
_0-d_
  6
CONTINUOUS
 62
    7
 10
4115
 20
2785
 11
3115
 21
2785
  0
TEXT
  8
_0-d_
 62
    7
 10
3344.999999999999
 20
2416.4999999999986
 40
35
 41
0.8571428571428568
 50
0
  1
ワンタッチスライド式丁番
  0
TEXT
  8
_0-d_
 62
    7
 10
3345
 20
2524.499999999999
 40
35
 41
0.8571428571428568
 50
0
  1
両面化粧パーティクルボード　１２ｔ
  0
TEXT
  8
_0-d_
 62
    7
 10
3345
 20
2470.499999999999
 40
35
 41
0.8571428571428568
 50
0
  1
両面化粧パーティクルボード　１２ｔ
  0
LINE
  8
_0-d_
  6
CONTINUOUS
 62
    7
 10
4100.0010000000002
 20
2352.9999999999995
 11
3115
 21
2352.9999999999995
  0
LINE
  8
_0-d_
  6
CONTINUOUS
 62
    7
 10
4100.0010000000011
 20
2352.9999999999995
 11
3115
 21
2352.9999999999995
  0
LINE
  8
_0-d_
  6
CONTINUOUS
 62
    3
 10
4115
 20
2352.9999999999995
 11
3115
 21
2352.9999999999995
  0
LINE
  8
_0-3_
  6
CONTINUOUS
 62
    5
 10
1938.8299064211616
 20
659.99999999999977
 11
1977.7207793864215
 21
659.99999999999977
  0
LINE
  8
_0-3_
  6
CONTINUOUS
 62
    5
 10
2483.2568901432423
 20
659.99999999999977
 11
2444.366017177982
 21
659.99999999999977
  0
LINE
  8
_0-3_
  6
CONTINUOUS
 62
    4
 10
1977.7207793864215
 20
659.99999999999977
 11
2444.366017177982
 21
659.99999999999977
  0
LINE
  8
_0-3_
  6
CONTINUOUS
 62
    5
 10
1986.2207793864215
 20
659.99999999999977
 11
1986.2207793864215
 21
664.99999999999988
  0
LINE
  8
_0-3_
  6
CONTINUOUS
 62
    5
 10
2435.8660171779824
 20
659.99999999999977
 11
2435.8660171779824
 21
664.99999999999988
  0
LINE
  8
_0-3_
  6
CONTINUOUS
 62
    5
 10
902.21158255381442
 20
659.99999999999977
 11
847.21158255381442
 21
659.99999999999977
  0
LINE
  8
_0-3_
  6
DASHED1
 62
    9
 10
582.21158255381453
 20
677.49999999999977
 11
902.21158255381442
 21
677.49999999999977
  0
LINE
  8
_0-3_
  6
DASHED1
 62
    9
 10
582.21158255381453
 20
659.99999999999977
 11
902.21158255381442
 21
659.99999999999977
  0
LINE
  8
_0-3_
  6
CONTINUOUS
 62
    7
 10
1232.2115825538144
 20
659.99999999999977
 11
902.21158255381442
 21
659.99999999999977
  0
LINE
  8
_0-7_
  6
DASHED1
 62
    3
 10
909.81632161162974
 20
665
 11
921.81632161162951
 21
665
  0
LINE
  8
_0-3_
  6
CONTINUOUS
 62
    5
 10
3454.1218352890059
 20
659.99999999999977
 11
3399.1218352890059
 21
659.99999999999977
  0
LINE
  8
_0-3_
  6
CONTINUOUS
 62
    7
 10
3399.1218352890059
 20
659.99999999999977
 11
3069.1218352890059
 21
659.99999999999977
  0
LINE
  8
_0-9_
  6
CONTINUOUS
 62
    4
 10
1420.3636054322992
 20
659.99999999999977
 11
1272.2115825538144
 21
659.99999999999977
  0
LINE
  8
_0-9_
  6
CONTINUOUS
 62
    4
 10
1340.3636054322992
 20
659.99999999999977
 11
1272.2115825538144
 21
659.99999999999977
  0
LINE
  8
_0-9_
  6
CONTINUOUS
 62
    4
 10
1340.3636054322992
 20
664.99999999999977
 11
1272.2115825538144
 21
664.99999999999977
  0
POINT
  8
_0-9_
 62
    3
 10
1330.3636054322992
 20
664.99999999999977
  0
POINT
  8
_0-9_
 62
    3
 10
1410.3636054322992
 20
659.99999999999977
  0
POINT
  8
_0-9_
 62
    3
 10
1330.3636054322992
 20
664.99999999999977
  0
POINT
  8
_0-9_
 62
    3
 10
1410.3636054322992
 20
659.99999999999977
  0
POINT
  8
_0-9_
 62
    3
 10
1410.3636054322992
 20
659.99999999999977
  0
POINT
  8
_0-9_
 62
    3
 10
1330.3636054322992
 20
664.99999999999977
  0
LINE
  8
_0-9_
  6
CONTINUOUS
 62
    4
 10
1340.3636054322992
 20
664.99999999999977
 11
1272.2115825538144
 21
664.99999999999977
  0
LINE
  8
_0-3_
  6
CONTINUOUS
 62
    5
 10
847.21158255381442
 20
659.99999999999977
 11
847.21158255381442
 21
529.99999999999977
  0
LINE
  8
_0-3_
  6
CONTINUOUS
 62
    4
 10
859.21158255381442
 20
659.99999999999977
 11
859.21158255381442
 21
529.99999999999977
  0
LINE
  8
_0-9_
  6
CONTINUOUS
 62
    4
 10
1410.3636054322992
 20
659.99999999999977
 11
1410.3636054322992
 21
530
  0
TEXT
  8
_0-9_
 62
    7
 10
1405.3636054322992
 20
561.89999999999986
 40
35
 41
0.6285714285714286
 50
90
  1
１３０
  0
LINE
  8
_0-9_
  6
CONTINUOUS
 62
    4
 10
1330.3636054322992
 20
664.99999999999977
 11
1330.3636054322992
 21
1335
  0
TEXT
  8
_0-9_
 62
    7
 10
1325.3636054322992
 20
966.89999999999963
 40
35
 41
0.6285714285714286
 50
90
  1
６７０
  0
LINE
  8
_0-7_
  6
DASHED1
 62
    3
 10
921.81632161162951
 20
664.99999999999988
 11
921.81632161162951
 21
1304.7
  0
LINE
  8
_0-7_
  6
DASHED1
 62
    3
 10
909.81632161162974
 20
1305
 11
909.81632161162974
 21
664.99999999999988
  0
LINE
  8
_0-3_
  6
CONTINUOUS
 62
    5
 10
902.21158255381442
 20
1356.9999999999995
 11
902.21158255381442
 21
659.99999999999977
  0
LINE
  8
_0-3_
  6
CONTINUOUS
 62
    5
 10
1977.7207793864215
 20
659.99999999999977
 11
1977.7207793864215
 21
1352.0000000000002
  0
LINE
  8
_0-3_
  6
CONTINUOUS
 62
    4
 10
1947.3151877954001
 20
529.99999999999977
 11
1947.3151877954001
 21
659.99999999999977
  0
LINE
  8
_0-3_
  6
CONTINUOUS
 62
    4
 10
1938.8299064211616
 20
529.99999999999977
 11
1938.8299064211616
 21
659.99999999999977
  0
LINE
  8
_0-3_
  6
CONTINUOUS
 62
    4
 10
2483.2568901432423
 20
529.99999999999977
 11
2483.2568901432423
 21
659.99999999999977
  0
LINE
  8
_0-3_
  6
CONTINUOUS
 62
    4
 10
2474.7716087690037
 20
529.99999999999977
 11
2474.7716087690037
 21
659.99999999999977
  0
LINE
  8
_0-3_
  6
CONTINUOUS
 62
    5
 10
2444.366017177982
 20
659.99999999999977
 11
2444.366017177982
 21
1352.0000000000002
  0
LINE
  8
_0-3_
  6
CONTINUOUS
 62
    5
 10
3454.1218352890059
 20
659.99999999999977
 11
3454.1218352890059
 21
529.99999999999977
  0
LINE
  8
_0-3_
  6
CONTINUOUS
 62
    4
 10
3442.1218352890059
 20
659.99999999999977
 11
3442.1218352890059
 21
529.99999999999977
  0
LINE
  8
_0-3_
  6
CONTINUOUS
 62
    5
 10
3399.1218352890059
 20
1356.9999999999995
 11
3399.1218352890059
 21
659.99999999999977
  0
LINE
  8
_0-4_
  6
CONTINUOUS
 62
    3
 10
1992.5653536880536
 20
662.99999999999977
 11
1984.0800722995763
 21
662.99999999999977
  0
LINE
  8
_0-4_
  6
CONTINUOUS
 62
    3
 10
2429.5620125503864
 20
662.99999999999977
 11
2438.0472939388641
 21
662.99999999999977
  0
LINE
  8
_0-4_
  6
CONTINUOUS
 62
    3
 10
1992.5653536880536
 20
662.99999999999977
 11
2205.9041376725917
 21
662.99999999999977
  0
LINE
  8
_0-4_
  6
CONTINUOUS
 62
    3
 10
2429.5620125503864
 20
662.99999999999977
 11
2205.9041376725917
 21
662.99999999999977
  0
LINE
  8
_0-4_
  6
CONTINUOUS
 62
    3
 10
3376.1218352890055
 20
662.99999999999977
 11
3072.1218352890059
 21
662.99999999999977
  0
LINE
  8
_0-4_
  6
CONTINUOUS
 62
    3
 10
3381.1218352890055
 20
662.99999999999977
 11
3393.1218352890064
 21
662.99999999999977
  0
LINE
  8
_0-4_
  6
CONTINUOUS
 62
    3
 10
909.21158255381442
 20
662.99999999999977
 11
1229.2115825538146
 21
662.99999999999977
  0
LINE
  8
_0-4_
  6
CONTINUOUS
 62
    3
 10
909.21158255381442
 20
1335
 11
909.21158255381442
 21
662.99999999999977
  0
LINE
  8
_0-4_
  6
CONTINUOUS
 62
    3
 10
1229.2115825538146
 20
1335
 11
1229.2115825538146
 21
662.99999999999977
  0
LINE
  8
_0-4_
  6
CONTINUOUS
 62
    3
 10
1984.0800722995763
 20
1277.0000000000002
 11
1984.0800722995763
 21
662.99999999999977
  0
LINE
  8
_0-4_
  6
CONTINUOUS
 62
    3
 10
1992.5653536880536
 20
1277.0000000000002
 11
1992.5653536880536
 21
662.99999999999977
  0
LINE
  8
_0-4_
  6
CONTINUOUS
 62
    3
 10
2205.9041376725917
 20
1271.0000000000004
 11
2205.9041376725917
 21
662.99999999999977
  0
LINE
  8
_0-4_
  6
CONTINUOUS
 62
    3
 10
2429.5620125503864
 20
1277.0000000000002
 11
2429.5620125503864
 21
662.99999999999977
  0
LINE
  8
_0-4_
  6
CONTINUOUS
 62
    3
 10
2438.0472939388641
 20
1277.0000000000002
 11
2438.0472939388641
 21
662.99999999999977
  0
LINE
  8
_0-4_
  6
CONTINUOUS
 62
    3
 10
3072.1218352890059
 20
1335
 11
3072.1218352890059
 21
662.99999999999977
  0
LINE
  8
_0-4_
  6
CONTINUOUS
 62
    3
 10
3376.1218352890055
 20
1335
 11
3376.1218352890055
 21
662.99999999999977
  0
LINE
  8
_0-4_
  6
CONTINUOUS
 62
    3
 10
3381.1218352890055
 20
1304.7
 11
3381.1218352890055
 21
662.99999999999977
  0
LINE
  8
_0-4_
  6
CONTINUOUS
 62
    3
 10
3393.1218352890064
 20
662.99999999999977
 11
3393.1218352890064
 21
1305
  0
LINE
  8
_0-4_
  6
CENTER1
 62
    4
 10
3376.1218352890055
 20
1335
 11
3072.1218352890059
 21
998.99999999999977
  0
LINE
  8
_0-4_
  6
CENTER1
 62
    4
 10
3072.1218352890059
 20
998.99999999999977
 11
3376.1218352890055
 21
662.99999999999977
  0
LINE
  8
_0-4_
  6
CENTER1
 62
    4
 10
909.81632161162974
 20
664.99999999999988
 11
1229.2115825538146
 21
998.99999999999977
  0
LINE
  8
_0-4_
  6
CENTER1
 62
    4
 10
1229.2115825538146
 20
998.99999999999977
 11
909.21158255381442
 21
1335
  0
LINE
  8
_0-d_
  6
CONTINUOUS
 62
    3
 10
4115
 20
2352.9999999999995
 11
3115
 21
2352.9999999999995
  0
LINE
  8
_0-d_
  6
CONTINUOUS
 62
    3
 10
3115
 20
2845
 11
3115
 21
2352.9999999999995
  0
LINE
  8
_0-d_
  6
CONTINUOUS
 62
    7
 10
3325
 20
2785
 11
3325
 21
2352.9999999999995
  0
LINE
  8
_0-d_
  6
CONTINUOUS
 62
    3
 10
4115
 20
2352.9999999999995
 11
4115
 21
2845
  0
TEXT
  8
_0-d_
 62
    7
 10
3345
 20
2740.4999999999995
 40
35
 41
0.6857142857142857
 50
0
  1
ステンレス４４３ＣＴ　銀河エンボス　０．６ｔ
  0
LINE
  8
_0-3_
  6
CONTINUOUS
 62
    4
 10
2160.1543289325509
 20
659.99999999999977
 11
2160.1543289325509
 21
529.99999999999977
  0
LINE
  8
_e-0_
  6
CONTINUOUS
 62
    7
 10
2243.7859302690862
 20
199.51965480360598
 11
2272.9339284698526
 21
210.12865853712995
  0
LINE
  8
_e-0_
  6
CONTINUOUS
 62
    7
 10
2237.6336615052869
 20
191.95952323799758
 11
2287.5529504706664
 21
210.12865853712895
  0
LINE
  8
_e-0_
  6
CONTINUOUS
 62
    7
 10
2234.2067375789874
 20
185.39133607135255
 11
2263.8643430051365
 21
196.18582166608263
  0
LINE
  8
_e-0_
  6
CONTINUOUS
 62
    7
 10
2232.2119570371696
 20
179.34440646785787
 11
2253.9586582709303
 21
187.25955841042662
  0
LINE
  8
_e-0_
  6
CONTINUOUS
 62
    7
 10
2231.2024514117433
 20
173.65608760649877
 11
2249.4574587956462
 21
180.3003669205492
  0
LINE
  8
_e-0_
  6
CONTINUOUS
 62
    7
 10
2230.9649088875535
 20
168.248740335938
 11
2249.3748102388385
 21
174.94939644358311
  0
LINE
  8
_e-0_
  6
CONTINUOUS
 62
    7
 10
2231.3837497438626
 20
163.08029707814966
 11
2249.8286640768283
 21
169.79369686893903
  0
LINE
  8
_e-0_
  6
CONTINUOUS
 62
    7
 10
2232.3950068941753
 20
158.12747571767488
 11
2251.269568818267
 21
164.99725444285843
  0
LINE
  8
_e-0_
  6
CONTINUOUS
 62
    7
 10
2233.9675550564961
 20
153.37894757832998
 11
2253.6625167678698
 21
160.54732740628253
  0
LINE
  8
_e-0_
  6
CONTINUOUS
 62
    7
 10
2236.0955302019183
 20
148.83257832814223
 11
2257.099910488102
 21
156.47754754152117
  0
LINE
  8
_e-0_
  6
CONTINUOUS
 62
    7
 10
2238.7970089264299
 20
144.49494730998821
 11
2261.880116002736
 21
152.89651120014326
  0
LINE
  8
_e-0_
  6
CONTINUOUS
 62
    7
 10
2242.1181877425701
 20
140.38286867935909
 11
2268.9468388985251
 21
150.14769912563821
  0
LINE
  8
_e-0_
  6
CONTINUOUS
 62
    7
 10
2246.1455691824353
 20
136.52782678312661
 11
2284.5651405528205
 21
150.51140717521263
  0
LINE
  8
_e-0_
  6
CONTINUOUS
 62
    7
 10
2251.0351047702797
 20
132.98658333410969
 11
2279.1844822576495
 21
143.2321188526356
  0
LINE
  8
_e-0_
  6
CONTINUOUS
 62
    7
 10
2279.5849322183671
 20
201.90764820482513
 11
2302.1719724714803
 21
210.12865853713066
  0
LINE
  8
_e-0_
  6
CONTINUOUS
 62
    7
 10
2260.5624543087296
 20
189.663143601351
 11
2313.0511299164636
 21
208.76745915862059
  0
LINE
  8
_e-0_
  6
CONTINUOUS
 62
    7
 10
2273.0696188494734
 20
188.89449034687174
 11
2313.0511299164636
 21
203.44657029624102
  0
LINE
  8
_e-0_
  6
CONTINUOUS
 62
    7
 10
2287.6886408502887
 20
188.89449034687174
 11
2313.0511299164636
 21
198.12568143386158
  0
LINE
  8
_e-0_
  6
CONTINUOUS
 62
    7
 10
2291.8751463425487
 20
185.09736486926669
 11
2313.0511299164636
 21
192.80479257148215
  0
LINE
  8
_e-0_
  6
CONTINUOUS
 62
    7
 10
2291.8751463425487
 20
179.77647600688726
 11
2313.0511299164636
 21
187.48390370910215
  0
LINE
  8
_e-0_
  6
CONTINUOUS
 62
    7
 10
2291.8751463425487
 20
174.45558714450783
 11
2313.0511299164636
 21
182.16301484672271
  0
LINE
  8
_e-0_
  6
CONTINUOUS
 62
    7
 10
2291.8751463425487
 20
169.13469828212839
 11
2313.0511299164636
 21
176.84212598434328
  0
LINE
  8
_e-0_
  6
CONTINUOUS
 62
    7
 10
2291.8008475696451
 20
163.78676687796939
 11
2313.0511299164636
 21
171.52123712196384
  0
LINE
  8
_e-0_
  6
CONTINUOUS
 62
    7
 10
2290.6539909363364
 20
158.04845633809463
 11
2313.0511299164636
 21
166.20034825958413
  0
LINE
  8
_e-0_
  6
CONTINUOUS
 62
    7
 10
2288.3949962857823
 20
151.90536066354695
 11
2313.0511299164636
 21
160.87945939720469
  0
LINE
  8
_e-0_
  6
CONTINUOUS
 62
    7
 10
2284.4003861827632
 20
145.13055262616916
 11
2311.8608666367176
 21
155.12535013005759
  0
LINE
  8
_e-0_
  6
CONTINUOUS
 62
    7
 10
2275.7463468865153
 20
136.65985105378524
 11
2309.0387712913652
 21
148.77730256370853
  0
LINE
  8
_e-0_
  6
CONTINUOUS
 62
    7
 10
2266.9791201478205
 20
128.14795262145821
 11
2304.1703780821812
 21
141.68446348448242
  0
LINE
  8
_e-0_
  6
CONTINUOUS
 62
    7
 10
2282.1376414569663
 20
128.34431431109749
 11
2292.7244583873175
 21
132.19760054937069
  0
LINE
  8
_e-0_
  6
CONTINUOUS
 62
    3
 10
2266.4464672734898
 20
197.56612819678281
 11
2262.3244734593249
 21
194.75680664380121
  0
LINE
  8
_e-0_
  6
CONTINUOUS
 62
    3
 10
2282.3868421919432
 20
128.14795262145651
 11
2266.9204010401704
 21
128.14795262145651
  0
ARC
  8
_e-0_
  6
CONTINUOUS
 62
    3
 10
2282.3868421919432
 20
133.14795262145651
 40
5
 50
270
 51
286.20399351045659
  0
LINE
  8
_e-0_
  6
CONTINUOUS
 62
    3
 10
2313.2288608412613
 20
210.12865853712895
 11
2313.2288608412613
 21
159.77346730566921
  0
ARC
  8
_e-0_
  6
CONTINUOUS
 62
    3
 10
2271.9221657766447
 20
169.15823653484835
 40
42.5
 50
286.20399351045648
 51
345.50707147989851
  0
ARC
  8
_e-0_
  6
CONTINUOUS
 62
    3
 10
2308.2288608412613
 20
159.77346730566921
 40
5
 50
345.50707147989879
 51
0.0000000000000159
  0
ARC
  8
_e-0_
  6
CONTINUOUS
 62
    3
 10
2250.0927387377205
 20
170.4956084628958
 40
40
 50
279.71265316664215
 51
332.69093929010892
  0
ARC
  8
_e-0_
  6
CONTINUOUS
 62
    3
 10
2255.9974857549714
 20
135.99729020443191
 40
5
 50
241.9452628118
 51
279.71265316664221
  0
ARC
  8
_e-0_
  6
CONTINUOUS
 62
    3
 10
2263.2643122966178
 20
205.12865853712895
 40
5
 50
90
 51
106.05338143786268
  0
LINE
  8
_e-0_
  6
CONTINUOUS
 62
    3
 10
2288.4334989152221
 20
210.12865853712881
 11
2278.2181989551913
 21
205.24067691222057
  0
LINE
  8
_e-0_
  6
CONTINUOUS
 62
    3
 10
2278.2181989551913
 20
205.24067691222057
 11
2272.2994583375816
 21
201.4444897898403
  0
LINE
  8
_e-0_
  6
CONTINUOUS
 62
    3
 10
2266.4464672734898
 20
197.56612819678252
 11
2272.2994583375816
 21
201.4444897898403
  0
ARC
  8
_e-0_
  6
CONTINUOUS
 62
    3
 10
2263.2643122966178
 20
205.12865853712895
 40
5
 50
90
 51
106.05338143786268
  0
ARC
  8
_e-0_
  6
CONTINUOUS
 62
    3
 10
2263.2643122966178
 20
205.12865853712895
 40
5
 50
90
 51
106.05338143786268
  0
LINE
  8
_e-0_
  6
CONTINUOUS
 62
    3
 10
2288.4334989152221
 20
210.12865853712895
 11
2263.2643122966178
 21
210.12865853712895
  0
ARC
  8
_e-0_
  6
CONTINUOUS
 62
    3
 10
2273.6342932765642
 20
169.09099082020304
 40
42.5
 50
106.05338143786271
 51
241.94526281180051
  0
ARC
  8
_e-0_
  6
CONTINUOUS
 62
    3
 10
2263.2643122966178
 20
205.12865853712895
 40
5
 50
90
 51
106.05338143786268
  0
LINE
  8
_e-0_
  6
CONTINUOUS
 62
    3
 10
2299.1719829458552
 20
210.12865853712895
 11
2313.2288608412613
 21
210.12865853712895
  0
ARC
  8
_e-0_
  6
CONTINUOUS
 62
    3
 10
2299.1719829458552
 20
205.12865853712895
 40
5
 50
90
 51
112.84552721528325
  0
LINE
  8
_e-0_
  6
CONTINUOUS
 62
    3
 10
2292.0528772673465
 20
188.89449034687004
 11
2269.0173546029673
 21
188.89449034687004
  0
ARC
  8
_e-0_
  6
CONTINUOUS
 62
    3
 10
2269.0173546029673
 20
183.89449034687004
 40
5
 50
90
 51
110.93110431809542
  0
ARC
  8
_e-0_
  6
CONTINUOUS
 62
    3
 10
2254.2292662802574
 20
177.70386452217394
 40
0.5
 50
165.368776721252
 51
224.67319701305797
  0
LINE
  8
_e-0_
  6
CONTINUOUS
 62
    3
 10
2253.8737020580624
 20
177.3523334653737
 11
2253.6837582739271
 21
177.54445650133447
  0
ARC
  8
_e-0_
  6
CONTINUOUS
 62
    3
 10
2276.1622566207875
 20
165.2142768803236
 40
25
 50
110.93110431809527
 51
150.17701829297226
  0
ARC
  8
_e-0_
  6
CONTINUOUS
 62
    3
 10
2254.0393224961217
 20
177.89598755813472
 40
0.5
 50
224.67319701305652
 51
330.17701829297561
  0
LINE
  8
_e-0_
  6
CONTINUOUS
 62
    3
 10
2297.2307430642558
 20
209.73643324104926
 11
2283.5233941157548
 21
203.96157353985984
  0
LINE
  8
_e-0_
  6
CONTINUOUS
 62
    3
 10
2283.5233941157548
 20
203.96157353985984
 11
2277.114528385443
 21
200.4613679180602
  0
ARC
  8
_e-0_
  6
CONTINUOUS
 62
    3
 10
2277.9347719955744
 20
171.51524603489747
 40
25
 50
126.05682261028302
 51
165.36877672125814
  0
ARC
  8
_e-0_
  6
CONTINUOUS
 62
    3
 10
2322.0287923520791
 20
111.11536133502738
 40
100
 50
116.68868989749238
 51
126.03335467187628
  0
LINE
  8
_e-0_
  6
CONTINUOUS
 62
    3
 10
2262.3244734593245
 20
194.75680664380149
 11
2254.3560414411385
 21
187.50185893935451
  0
LINE
  8
_e-0_
  6
CONTINUOUS
 62
    3
 10
2254.3560414411385
 20
187.50185893935451
 11
2252.5108960046536
 21
185.36863764275494
  0
ARC
  8
_e-0_
  6
CONTINUOUS
 62
    3
 10
2274.5493829743445
 20
174.5520307550089
 40
25
 50
169.07329675873063
 51
296.32138326661799
  0
LINE
  8
_e-0_
  6
CONTINUOUS
 62
    3
 10
2252.5108960046541
 20
185.36863764275494
 11
2250.002621066113
 21
179.29085759512361
  0
LINE
  8
_e-0_
  6
CONTINUOUS
 62
    3
 10
2292.0528772673465
 20
188.89449034687004
 11
2292.0528772673465
 21
164.42425885831653
  0
ARC
  8
_e-0_
  6
CONTINUOUS
 62
    3
 10
2277.2840925230507
 20
144.13090983307199
 40
5
 50
311.4163090429962
 51
326.13300916724881
  0
ARC
  8
_e-0_
  6
CONTINUOUS
 62
    3
 10
2252.285941088533
 20
168.73596234419835
 40
40
 50
316.78132524618342
 51
353.81191653224226
  0
ARC
  8
_e-0_
  6
CONTINUOUS
 62
    3
 10
2240.9001979970053
 20
185.376663785662
 40
60
 50
294.69555798319504
 51
311.41630904299643
  0
ARC
  8
_e-0_
  6
CONTINUOUS
 62
    3
 10
2271.9268153318698
 20
202.98067150791609
 40
75
 50
264.68313230529076
 51
266.17253517307824
  0
ARC
  8
_e-0_
  6
CONTINUOUS
 62
    3
 10
2265.0233680716155
 20
128.80121063143832
 40
0.5
 50
174.02086603460466
 51
264.68313230528985
  0
ARC
  8
_e-0_
  6
CONTINUOUS
 62
    3
 10
2267.0124878650103
 20
128.59287809071872
 40
2.5
 50
114.69555798319522
 51
174.02086603461154
  0
LINE
  8
_e-0_
  6
CONTINUOUS
 62
    7
 10
2376.8899919095943
 20
169.43032024062034
 11
2388.2618909747961
 21
173.56935300743344
  0
LINE
  8
_e-0_
  6
CONTINUOUS
 62
    3
 10
2436.2585234464268
 20
162.63312492519389
 11
2436.2585234464268
 21
136.49018622829544
  0
CIRCLE
  8
_e-0_
  6
CONTINUOUS
 62
    3
 10
2365.5167430510387
 20
162.46293449130519
 40
13.33773795583065
  0
CIRCLE
  8
_e-0_
  6
CONTINUOUS
 62
    3
 10
2365.2330256036634
 20
162.17921704393006
 40
25.691707563897665
  0
LINE
  8
_e-0_
  6
CONTINUOUS
 62
    3
 10
2399.4939617252575
 20
188.26250382114977
 11
2399.4939617252575
 21
136.49018622829544
  0
LINE
  8
_e-0_
  6
CONTINUOUS
 62
    3
 10
2399.4939617252575
 20
136.49018622829544
 11
2414.856930753669
 21
136.49018622829544
  0
LINE
  8
_e-0_
  6
CONTINUOUS
 62
    3
 10
2414.856930753669
 20
136.49018622829544
 11
2414.856930753669
 21
172.63312492519389
  0
LINE
  8
_e-0_
  6
CONTINUOUS
 62
    3
 10
2451.1774760289304
 20
136.49018622829544
 11
2436.2585234464268
 21
136.49018622829544
  0
LINE
  8
_e-0_
  6
CONTINUOUS
 62
    3
 10
2426.2585234464268
 20
172.63312492519389
 11
2414.856930753669
 21
172.63312492519389
  0
ARC
  8
_e-0_
  6
CONTINUOUS
 62
    3
 10
2426.2585234464268
 20
162.63312492519389
 40
10
 50
0
 51
90
  0
LINE
  8
_e-0_
  6
CONTINUOUS
 62
    3
 10
2426.1774760289299
 20
188.26250382114977
 11
2399.4939617252575
 21
188.26250382114977
  0
LINE
  8
_e-0_
  6
CONTINUOUS
 62
    3
 10
2451.1774760289304
 20
163.26250382114977
 11
2451.1774760289304
 21
136.49018622829544
  0
ARC
  8
_e-0_
  6
CONTINUOUS
 62
    3
 10
2426.1774760289299
 20
163.26250382114977
 40
25
 50
0
 51
90
  0
ARC
  8
_e-0_
  6
CONTINUOUS
 62
    3
 10
2486.2452606175233
 20
162.17653762406428
 40
13.33773795583065
 50
23.422555400004949
 51
97.191484740792631
  0
LINE
  8
_e-0_
  6
CONTINUOUS
 62
    3
 10
2474.0065761310629
 20
167.47841048365671
 11
2498.4839451039833
 21
167.47841048365671
  0
ARC
  8
_e-0_
  6
CONTINUOUS
 62
    3
 10
2486.2452606175233
 20
162.17653762406428
 40
13.33773795583065
 50
92.530763017635237
 51
156.57744459999506
  0
ARC
  8
_e-0_
  6
CONTINUOUS
 62
    3
 10
2486.2452606175233
 20
162.17653762406428
 40
13.33773795583065
 50
204.21097500392608
 51
316.0067678116265
  0
LINE
  8
_e-0_
  6
CONTINUOUS
 62
    3
 10
2474.0806890359867
 20
156.70676139316753
 11
2511.5200753562385
 21
156.70676139316753
  0
LINE
  8
_e-0_
  6
CONTINUOUS
 62
    3
 10
2495.8407207162626
 20
152.91249966689292
 11
2508.7092412098891
 21
149.78943472664496
  0
ARC
  8
_e-0_
  6
CONTINUOUS
 62
    3
 10
2486.5655867677851
 20
162.8171899245882
 40
25.691707563897665
 50
346.24110979921471
 51
329.53046432565093
  0
ARC
  8
_e-0_
  6
CONTINUOUS
 62
    3
 10
2546.5135590423406
 20
162.14309845353909
 40
11.089756641867943
 50
94.502189492040685
 51
357.22978420280037
  0
LINE
  8
_e-0_
  6
CONTINUOUS
 62
    3
 10
2556.5903561511468
 20
173.19863581905565
 11
2545.6430442891501
 21
173.19863581905565
  0
LINE
  8
_e-0_
  6
CONTINUOUS
 62
    3
 10
2557.5903561511468
 20
172.19863581905599
 11
2557.5903561511468
 21
161.60712439988742
  0
ARC
  8
_e-0_
  6
CONTINUOUS
 62
    3
 10
2556.5903561511468
 20
172.19863581905599
 40
1
 50
0
 51
90
  0
LINE
  8
_e-0_
  6
CONTINUOUS
 62
    3
 10
2548.9703457355517
 20
188.29058742736094
 11
2557.3930775458175
 21
188.29058742736094
  0
ARC
  8
_e-0_
  6
CONTINUOUS
 62
    3
 10
2546.9662856612039
 20
162.67716163604518
 40
25.691707563897665
 50
85.526146014136969
 51
347.40557840019874
  0
LINE
  8
_e-0_
  6
CONTINUOUS
 62
    3
 10
2557.3930775458175
 20
209.12865853712901
 11
2557.3930775458175
 21
188.29058742736094
  0
ARC
  8
_e-0_
  6
CONTINUOUS
 62
    3
 10
2558.3930775458175
 20
209.12865853712901
 40
1
 50
90
 51
180
  0
LINE
  8
_e-0_
  6
CONTINUOUS
 62
    3
 10
2572.0397992563612
 20
209.12865853712901
 11
2572.0397992563612
 21
157.07513043814088
  0
LINE
  8
_e-0_
  6
CONTINUOUS
 62
    3
 10
2571.0397992563616
 20
210.12865853712895
 11
2558.3930775458175
 21
210.12865853712895
  0
ARC
  8
_e-0_
  6
CONTINUOUS
 62
    3
 10
2571.0397992563616
 20
209.12865853712901
 40
1
 50
0
 51
90
  0
CIRCLE
  8
_e-0_
  6
CONTINUOUS
 62
    3
 10
2607.4932845795829
 20
162.61858771142584
 40
13.33773795583065
  0
CIRCLE
  8
_e-0_
  6
CONTINUOUS
 62
    3
 10
2607.2095671322085
 20
162.334870264051
 40
25.691707563897665
  0
ARC
  8
_e-0_
  6
CONTINUOUS
 62
    3
 10
2361.3056445788688
 20
183.56108960512415
 40
5
 50
90
 51
106.05338143786268
  0
ARC
  8
_e-0_
  6
CONTINUOUS
 62
    3
 10
2361.3056445788688
 20
183.56108960512415
 40
5
 50
90
 51
106.05338143786268
  0
ARC
  8
_e-0_
  6
CONTINUOUS
 62
    3
 10
2361.3056445788688
 20
183.56108960512415
 40
5
 50
90
 51
106.05338143786268
  0
ARC
  8
_e-0_
  6
CONTINUOUS
 62
    3
 10
2361.3056445788688
 20
183.56108960512415
 40
5
 50
90
 51
106.05338143786268
  0
LINE
  8
_e-0_
  6
CONTINUOUS
 62
    7
 10
2346.3470804331013
 20
179.59716504486777
 11
2368.5044577934554
 21
187.66179087344028
  0
LINE
  8
_e-0_
  6
CONTINUOUS
 62
    7
 10
2361.2415063076145
 20
179.69740385729494
 11
2376.5205845613304
 21
185.25853354867166
  0
LINE
  8
_e-0_
  6
CONTINUOUS
 62
    7
 10
2341.7511550984831
 20
172.60349616177705
 11
2361.2415063076145
 21
179.69740385729494
  0
LINE
  8
_e-0_
  6
CONTINUOUS
 62
    7
 10
2339.9278406436087
 20
166.61897511011602
 11
2357.2356669233163
 21
172.91850869577984
  0
LINE
  8
_e-0_
  6
CONTINUOUS
 62
    7
 10
2339.5613566552269
 20
161.16469698463049
 11
2352.6357267551816
 21
165.92337853279389
  0
LINE
  8
_e-0_
  6
CONTINUOUS
 62
    7
 10
2340.2704529847874
 20
156.10189807943811
 11
2352.3257797311662
 21
160.489678179473
  0
LINE
  8
_e-0_
  6
CONTINUOUS
 62
    7
 10
2341.9204823498939
 20
151.38157079162255
 11
2353.9794571535694
 21
155.77067867592631
  0
LINE
  8
_e-0_
  6
CONTINUOUS
 62
    7
 10
2344.504128974107
 20
147.00105239631881
 11
2357.564943671171
 21
151.75480018131679
  0
LINE
  8
_e-0_
  6
CONTINUOUS
 62
    7
 10
2348.1361647674011
 20
143.00211645248765
 11
2364.9879954656798
 21
149.13568121955449
  0
LINE
  8
_e-0_
  6
CONTINUOUS
 62
    7
 10
2353.1501292054063
 20
139.50616140121155
 11
2375.2534753949121
 21
147.55112149187283
  0
LINE
  8
_e-0_
  6
CONTINUOUS
 62
    7
 10
2360.6217579801264
 20
136.90472301431668
 11
2375.3071030149835
 21
142.24975148693374
  0
LINE
  8
_e-0_
  6
CONTINUOUS
 62
    7
 10
2375.3071030149835
 20
142.24975148693374
 11
2385.0115931457403
 21
145.78189703325932
  0
LINE
  8
_e-0_
  6
CONTINUOUS
 62
    7
 10
2374.4001538198344
 20
147.24053783828736
 11
2389.063020487204
 21
152.57738485422379
  0
LINE
  8
_e-0_
  6
CONTINUOUS
 62
    7
 10
2374.4883804748506
 20
152.59353857696169
 11
2390.6567834919524
 21
158.47835601080646
  0
LINE
  8
_e-0_
  6
CONTINUOUS
 62
    7
 10
2378.4912308361026
 20
159.37134582305873
 11
2390.8686178519897
 21
163.87634627483464
  0
LINE
  8
_e-0_
  6
CONTINUOUS
 62
    7
 10
2378.6565159204478
 20
164.75239353630797
 11
2390.0320630429459
 21
168.89275408738967
  0
LINE
  8
_e-0_
  6
CONTINUOUS
 62
    7
 10
2365.1397018509305
 20
175.7953421400316
 11
2381.7641004494612
 21
181.84612839247364
  0
LINE
  8
_e-0_
  6
CONTINUOUS
 62
    7
 10
2373.159843452322
 20
173.39354609515908
 11
2385.5507858710998
 21
177.90348031010012
  0
LINE
  8
_e-0_
  6
CONTINUOUS
 62
    7
 10
2399.4939617252575
 20
182.97838129215278
 11
2414.0119690553087
 21
188.26250382114977
  0
LINE
  8
_e-0_
  6
CONTINUOUS
 62
    7
 10
2399.4939617252575
 20
177.65749242977335
 11
2428.3670442872125
 21
188.16643505383524
  0
LINE
  8
_e-0_
  6
CONTINUOUS
 62
    7
 10
2399.4939617252575
 20
172.33660356739392
 11
2436.7743097980664
 21
185.90554058897964
  0
LINE
  8
_e-0_
  6
CONTINUOUS
 62
    7
 10
2399.4939617252575
 20
167.01571470501448
 11
2442.1110032081055
 21
182.52704927725858
  0
LINE
  8
_e-0_
  6
CONTINUOUS
 62
    7
 10
2399.4939617252575
 20
161.69482584263505
 11
2414.856930753669
 21
167.28648927893004
  0
LINE
  8
_e-0_
  6
CONTINUOUS
 62
    7
 10
2428.7090082786239
 20
172.32823318076128
 11
2445.9244086202584
 21
178.5941264760919
  0
LINE
  8
_e-0_
  6
CONTINUOUS
 62
    7
 10
2399.4939617252575
 20
156.37393698025562
 11
2414.856930753669
 21
161.96560041655061
  0
LINE
  8
_e-0_
  6
CONTINUOUS
 62
    7
 10
2403.3398935234458
 20
136.49018622829544
 11
2414.856930753669
 21
140.68204496703231
  0
LINE
  8
_e-0_
  6
CONTINUOUS
 62
    7
 10
2399.4939617252575
 20
140.41127039311675
 11
2414.856930753669
 21
146.00293382941202
  0
LINE
  8
_e-0_
  6
CONTINUOUS
 62
    7
 10
2399.4939617252575
 20
145.73215925549646
 11
2414.856930753669
 21
151.32382269179146
  0
LINE
  8
_e-0_
  6
CONTINUOUS
 62
    7
 10
2399.4939617252575
 20
151.0530481178759
 11
2414.856930753669
 21
156.64471155417118
  0
LINE
  8
_e-0_
  6
CONTINUOUS
 62
    7
 10
2436.2585234464268
 20
159.113365397844
 11
2451.1774760289304
 21
164.5434200643038
  0
LINE
  8
_e-0_
  6
CONTINUOUS
 62
    7
 10
2436.2585234464268
 20
153.79247653546485
 11
2451.1774760289304
 21
159.22253120192465
  0
LINE
  8
_e-0_
  6
CONTINUOUS
 62
    7
 10
2436.105047565391
 20
164.37839360784892
 11
2450.3687179376247
 21
169.56994505472636
  0
LINE
  8
_e-0_
  6
CONTINUOUS
 62
    7
 10
2436.2585234464268
 20
148.47158767308542
 11
2451.1774760289304
 21
153.90164233954521
  0
LINE
  8
_e-0_
  6
CONTINUOUS
 62
    7
 10
2436.2585234464268
 20
143.1506988107057
 11
2451.1774760289304
 21
148.5807534771655
  0
LINE
  8
_e-0_
  6
CONTINUOUS
 62
    7
 10
2436.2585234464268
 20
137.82980994832598
 11
2451.1774760289304
 21
143.25986461478606
  0
LINE
  8
_e-0_
  6
CONTINUOUS
 62
    7
 10
2447.1969595258929
 20
136.49018622829544
 11
2451.1774760289304
 21
137.93897575240634
  0
LINE
  8
_e-0_
  6
CONTINUOUS
 62
    7
 10
2434.0189024056153
 20
168.93998772771169
 11
2448.6296862431445
 21
174.25787814386978
  0
LINE
  8
_e-0_
  6
CONTINUOUS
 62
    7
 10
2469.1883842563338
 20
181.74063227593791
 11
2487.7135419125711
 21
188.48323824789645
  0
LINE
  8
_e-0_
  6
CONTINUOUS
 62
    7
 10
2463.6316388937825
 20
174.39725350219305
 11
2496.6904887083792
 21
186.42969081378254
  0
LINE
  8
_e-0_
  6
CONTINUOUS
 62
    7
 10
2461.4628990865917
 20
168.28700790412767
 11
2502.2794299488264
 21
183.14301020398858
  0
LINE
  8
_e-0_
  6
CONTINUOUS
 62
    7
 10
2461.4992419870632
 20
162.97934677574687
 11
2473.9894671720021
 21
167.52541696234658
  0
LINE
  8
_e-0_
  6
CONTINUOUS
 62
    7
 10
2492.1508316310541
 20
174.13561303910114
 11
2506.2885679576884
 21
179.28132824190015
  0
LINE
  8
_e-0_
  6
CONTINUOUS
 62
    7
 10
2496.6927278595248
 20
170.46783921101109
 11
2509.1784918759253
 21
175.01228566505261
  0
LINE
  8
_e-0_
  6
CONTINUOUS
 62
    7
 10
2463.2093427036916
 20
158.28088367181749
 11
2488.4793399340492
 21
167.47841048365671
  0
LINE
  8
_e-0_
  6
CONTINUOUS
 62
    7
 10
2462.8888794596255
 20
152.84335572742151
 11
2511.1140538755621
 21
170.39588375711787
  0
LINE
  8
_e-0_
  6
CONTINUOUS
 62
    7
 10
2465.300291731432
 20
148.400149154524
 11
2476.9283430630944
 21
152.63241372176821
  0
LINE
  8
_e-0_
  6
CONTINUOUS
 62
    7
 10
2488.1225212892722
 20
156.70676139316753
 11
2512.1228430370119
 21
165.44216412215632
  0
LINE
  8
_e-0_
  6
CONTINUOUS
 62
    7
 10
2502.7415432900879
 20
156.70676139316753
 11
2512.1151621126959
 21
160.11847963195407
  0
LINE
  8
_e-0_
  6
CONTINUOUS
 62
    7
 10
2468.7281740890052
 20
144.32690743686691
 11
2482.5550140975401
 21
149.35946563393486
  0
LINE
  8
_e-0_
  6
CONTINUOUS
 62
    7
 10
2473.4508580764295
 20
140.72493497175571
 11
2502.4973614552445
 21
151.29699761115659
  0
LINE
  8
_e-0_
  6
CONTINUOUS
 62
    7
 10
2480.3069495598269
 20
137.89945933273884
 11
2507.3767895083869
 21
147.75207532036432
  0
LINE
  8
_e-0_
  6
CONTINUOUS
 62
    7
 10
2552.6231690921717
 20
137.61596638527407
 11
2558.7418873346696
 21
139.84299769740459
  0
LINE
  8
_e-0_
  6
CONTINUOUS
 62
    7
 10
2539.4012676014826
 20
138.12447666464265
 11
2568.5435873921023
 21
148.73141362589478
  0
LINE
  8
_e-0_
  6
CONTINUOUS
 62
    7
 10
2532.9976800904732
 20
141.11465028049622
 11
2571.5269734698549
 21
155.13816621790056
  0
LINE
  8
_e-0_
  6
CONTINUOUS
 62
    7
 10
2522.081864354775
 20
169.06695144424446
 11
2572.0397992563612
 21
187.25015271383
  0
LINE
  8
_e-0_
  6
CONTINUOUS
 62
    7
 10
2524.5896829795606
 20
175.30061163898437
 11
2572.0397992563612
 21
192.57104157620943
  0
LINE
  8
_e-0_
  6
CONTINUOUS
 62
    7
 10
2557.3930775458175
 20
208.52362629350906
 11
2561.8028673926596
 21
210.12865853712895
  0
LINE
  8
_e-0_
  6
CONTINUOUS
 62
    7
 10
2557.3930775458175
 20
203.20273743112977
 11
2572.0397992563612
 21
208.53370816334788
  0
LINE
  8
_e-0_
  6
CONTINUOUS
 62
    7
 10
2557.3930775458175
 20
197.88184856875005
 11
2572.0397992563612
 21
203.21281930096859
  0
LINE
  8
_e-0_
  6
CONTINUOUS
 62
    7
 10
2557.3930775458175
 20
192.56095970637034
 11
2572.0397992563612
 21
197.89193043858915
  0
LINE
  8
_e-0_
  6
CONTINUOUS
 62
    7
 10
2531.3600319802562
 20
183.08570601321093
 11
2545.8030101140193
 21
188.34252014805827
  0
LINE
  8
_e-0_
  6
CONTINUOUS
 62
    7
 10
2548.0525958796984
 20
173.19863581905565
 11
2572.0397992563612
 21
181.92926385145057
  0
LINE
  8
_e-0_
  6
CONTINUOUS
 62
    7
 10
2521.2864022906337
 20
163.45653806802943
 11
2538.3752084417083
 21
169.67635484616607
  0
LINE
  8
_e-0_
  6
CONTINUOUS
 62
    7
 10
2521.6554107736333
 20
158.26995730965364
 11
2535.4846691325356
 21
163.30339571427089
  0
LINE
  8
_e-0_
  6
CONTINUOUS
 62
    7
 10
2522.9940114609526
 20
153.43627925302655
 11
2536.1404517985765
 21
158.22119222247806
  0
LINE
  8
_e-0_
  6
CONTINUOUS
 62
    7
 10
2525.2563435788042
 20
148.93881194156961
 11
2539.0354883761397
 21
153.95401050144357
  0
LINE
  8
_e-0_
  6
CONTINUOUS
 62
    7
 10
2528.5117312327797
 20
144.80278728623488
 11
2545.7561370732087
 21
151.07923771975691
  0
LINE
  8
_e-0_
  6
CONTINUOUS
 62
    7
 10
2554.2054905278623
 20
154.15455087604527
 11
2572.0397992563612
 21
160.64570840193255
  0
LINE
  8
_e-0_
  6
CONTINUOUS
 62
    7
 10
2557.505937791675
 20
160.67670430221767
 11
2572.0397992563612
 21
165.96659726431198
  0
LINE
  8
_e-0_
  6
CONTINUOUS
 62
    7
 10
2557.5903561511468
 20
166.02831893467055
 11
2572.0397992563612
 21
171.28748612669141
  0
LINE
  8
_e-0_
  6
CONTINUOUS
 62
    7
 10
2557.5903561511468
 20
171.34920779704998
 11
2572.0397992563612
 21
176.60837498907085
  0
LINE
  8
_e-0_
  6
CONTINUOUS
 62
    7
 10
2595.1467628188602
 20
185.01862193009401
 11
2601.869376832742
 21
187.46545332760774
  0
LINE
  8
_e-0_
  6
CONTINUOUS
 62
    7
 10
2585.5936460434281
 20
176.22068291698809
 11
2614.8426950414304
 21
186.86646613285404
  0
LINE
  8
_e-0_
  6
CONTINUOUS
 62
    7
 10
2608.5181174973608
 20
136.67650840108905
 11
2622.7000364868072
 21
141.83830477802189
  0
LINE
  8
_e-0_
  6
CONTINUOUS
 62
    7
 10
2598.2444761483161
 20
138.25809761488983
 11
2629.5534764025951
 21
149.65364177207987
  0
LINE
  8
_e-0_
  6
CONTINUOUS
 62
    7
 10
2582.6330921261528
 20
169.82224055178022
 11
2621.2234503919626
 21
183.86798229020314
  0
LINE
  8
_e-0_
  6
CONTINUOUS
 62
    7
 10
2592.2968185805402
 20
141.41421615899105
 11
2632.0809325371146
 21
155.89444943583799
  0
LINE
  8
_e-0_
  6
CONTINUOUS
 62
    7
 10
2588.0695495912832
 20
145.19650493704432
 11
2602.246111940276
 21
150.35635165629656
  0
LINE
  8
_e-0_
  6
CONTINUOUS
 62
    7
 10
2585.0094293819529
 20
149.40360112995108
 11
2597.3909335115822
 21
153.91010008858017
  0
LINE
  8
_e-0_
  6
CONTINUOUS
 62
    7
 10
2582.919829983693
 20
153.96393800982366
 11
2594.8695180063709
 21
158.31326875884542
  0
LINE
  8
_e-0_
  6
CONTINUOUS
 62
    7
 10
2581.7538748691904
 20
158.86045391603374
 11
2594.1774270088017
 21
163.38225709870641
  0
LINE
  8
_e-0_
  6
CONTINUOUS
 62
    7
 10
2581.5798124660104
 20
164.11798924475078
 11
2595.9853391150813
 21
169.36117215394091
  0
LINE
  8
_e-0_
  6
CONTINUOUS
 62
    7
 10
2611.9748325174678
 20
175.18087181340547
 11
2625.6969314853622
 21
180.17530738937352
  0
LINE
  8
_e-0_
  6
CONTINUOUS
 62
    7
 10
2617.2029460570038
 20
171.76286066078091
 11
2628.9430705154381
 21
176.03591651023151
  0
LINE
  8
_e-0_
  6
CONTINUOUS
 62
    7
 10
2619.9310564926913
 20
167.43492279278257
 11
2631.1973168341919
 21
171.53550620858254
  0
LINE
  8
_e-0_
  6
CONTINUOUS
 62
    7
 10
2620.8298424207368
 20
162.44116525518904
 11
2632.5279188691888
 21
166.69891688059578
  0
LINE
  8
_e-0_
  6
CONTINUOUS
 62
    7
 10
2619.394865425299
 20
156.5979874796136
 11
2632.8880000931144
 21
161.50908686564349
  0
TEXT
  8
_e-0_
 62
    7
 10
2642.8586825750176
 20
180.56247057449553
 40
35
 41
0.5714285714285711
 50
0
  1
ワンド
  0
TEXT
  8
_e-0_
 62
    7
 10
2649.7045100149039
 20
147.0179161190498
 40
30
 41
0.6666666666666666
 50
0
  1
株式
  0
TEXT
  8
_e-0_
 62
    7
 10
2649.0199272709155
 20
118.95002361551377
 40
30
 41
0.6666666666666666
 50
0
  1
会社
  0
LINE
  8
_0-d_
  6
CONTINUOUS
 62
    3
 10
4115
 20
2337.9999999999995
 11
4115
 21
1842.999999999999
  0
LINE
  8
_0-d_
  6
CONTINUOUS
 62
    7
 10
3800.2421204263214
 20
2267.9999999999995
 11
3800.2421204263214
 21
2147.9999999999995
  0
TEXT
  8
_0-d_
 62
    7
 10
3860.6210602131609
 20
2287.9999999999995
 40
35
 41
0.8571428571428568
 50
0
  1
扉　色
  0
TEXT
  8
_0-d_
 62
    7
 10
3715.7122200188969
 20
2220.4999999999995
 40
35
 41
0.8571428571428568
 50
0
  1
ＳＷ
  0
TEXT
  8
_0-d_
 62
    7
 10
3830.24212042632
 20
2220.4999999999995
 40
35
 41
0.8571428571428568
 50
0
  1
ホワイト
  0
TEXT
  8
_0-d_
 62
    7
 10
3720.7036754285845
 20
2161.0893268157797
 40
35
 41
0.8571428571428568
 50
0
  1
ＬＧ
  0
LINE
  8
_0-d_
  6
CONTINUOUS
 62
    3
 10
3700.2421204263214
 20
2337.9999999999995
 11
3700.2421204263214
 21
1842.999999999999
  0
LINE
  8
_0-d_
  6
CONTINUOUS
 62
    7
 10
3800.2421204263214
 20
2142.9999999999995
 11
3800.2421204263214
 21
1842.999999999999
  0
TEXT
  8
_0-d_
 62
    7
 10
3830.3411143313564
 20
2161.0893268157797
 40
35
 41
0.8571428571428568
 50
0
  1
木　　目
  0
TEXT
  8
_0-d_
 62
    7
 10
3715.7122200188969
 20
2095.4999999999995
 40
35
 41
0.8571428571428568
 50
0
  1
ＵＷ
  0
TEXT
  8
_0-d_
 62
    7
 10
3830.24212042632
 20
2095.4999999999995
 40
35
 41
0.8571428571428568
 50
0
  1
ｳﾙﾄﾗﾎﾜｲﾄ（艶有）
  0
TEXT
  8
_0-d_
 62
    7
 10
3720.7036754285845
 20
2036.0893268157797
 40
35
 41
0.8571428571428568
 50
0
  1
ＷＮ
  0
TEXT
  8
_0-d_
 62
    7
 10
3830.24212042632
 20
2035.4999999999993
 40
35
 41
0.8571428571428568
 50
0
  1
ｳｨﾝｻﾞｰﾅｯﾄ（艶有）
  0
TEXT
  8
_0-d_
 62
    7
 10
3720.7036754285845
 20
1976.0893268157794
 40
35
 41
0.8571428571428568
 50
0
  1
ＢＳ
  0
TEXT
  8
_0-d_
 62
    7
 10
3830.341114331356
 20
1976.0893268157794
 40
35
 41
0.8571428571428568
 50
0
  1
ブラックストーン
  0
TEXT
  8
_0-d_
 62
    7
 10
3720.7036754285845
 20
1916.0893268157792
 40
35
 41
0.8571428571428568
 50
0
  1
ＰＭ
  0
TEXT
  8
_0-d_
 62
    7
 10
3830.3411143313564
 20
1916.0893268157792
 40
35
 41
0.8571428571428568
 50
0
  1
ペールグレイン
  0
TEXT
  8
_0-d_
 62
    7
 10
3720.7036754285845
 20
1856.0893268157792
 40
35
 41
0.8571428571428568
 50
0
  1
ＭＤ
  0
LINE
  8
_0-d_
  6
CONTINUOUS
 62
    3
 10
4115
 20
2337.9999999999995
 11
3700.2421204263214
 21
2337.9999999999995
  0
LINE
  8
_0-d_
  6
CONTINUOUS
 62
    3
 10
4115
 20
1842.999999999999
 11
3700.2421204263214
 21
1842.999999999999
  0
LINE
  8
_0-d_
  6
CONTINUOUS
 62
    7
 10
3700.2421204263214
 20
2207.9999999999995
 11
4115
 21
2207.9999999999995
  0
LINE
  8
_0-d_
  6
CONTINUOUS
 62
    7
 10
4115
 20
2207.9999999999995
 11
3700.2421204263214
 21
2207.9999999999995
  0
LINE
  8
_0-d_
  6
CONTINUOUS
 62
    3
 10
4115
 20
2207.9999999999995
 11
3700.2421204263214
 21
2207.9999999999995
  0
LINE
  8
_0-d_
  6
CONTINUOUS
 62
    3
 10
4115
 20
2147.9999999999995
 11
3700.2421204263214
 21
2147.9999999999995
  0
LINE
  8
_0-d_
  6
CONTINUOUS
 62
    7
 10
4115
 20
2082.9999999999995
 11
3700.2421204263214
 21
2082.9999999999995
  0
LINE
  8
_0-d_
  6
CONTINUOUS
 62
    3
 10
4115
 20
2082.9999999999995
 11
3700.2421204263214
 21
2082.9999999999995
  0
LINE
  8
_0-d_
  6
CONTINUOUS
 62
    3
 10
4115
 20
2022.9999999999993
 11
3700.2421204263214
 21
2022.9999999999993
  0
LINE
  8
_0-d_
  6
CONTINUOUS
 62
    7
 10
3700.2421204263214
 20
2082.9999999999995
 11
4115
 21
2082.9999999999995
  0
LINE
  8
_0-d_
  6
CONTINUOUS
 62
    7
 10
4115
 20
2147.9999999999995
 11
3700.2421204263214
 21
2147.9999999999995
  0
LINE
  8
_0-d_
  6
CONTINUOUS
 62
    7
 10
4115
 20
2142.9999999999995
 11
3700.2421204263214
 21
2142.9999999999995
  0
LINE
  8
_0-d_
  6
CONTINUOUS
 62
    7
 10
4115
 20
2022.9999999999993
 11
3700.2421204263214
 21
2022.9999999999993
  0
LINE
  8
_0-d_
  6
CONTINUOUS
 62
    3
 10
4115
 20
2022.9999999999993
 11
3700.2421204263214
 21
2022.9999999999993
  0
LINE
  8
_0-d_
  6
CONTINUOUS
 62
    3
 10
4115
 20
1962.999999999999
 11
3700.2421204263214
 21
1962.999999999999
  0
LINE
  8
_0-d_
  6
CONTINUOUS
 62
    7
 10
3700.2421204263214
 20
2022.9999999999993
 11
4115
 21
2022.9999999999993
  0
LINE
  8
_0-d_
  6
CONTINUOUS
 62
    7
 10
4115
 20
1962.999999999999
 11
3700.2421204263214
 21
1962.999999999999
  0
LINE
  8
_0-d_
  6
CONTINUOUS
 62
    3
 10
4115
 20
1962.999999999999
 11
3700.2421204263214
 21
1962.999999999999
  0
LINE
  8
_0-d_
  6
CONTINUOUS
 62
    3
 10
4115
 20
1902.999999999999
 11
3700.2421204263214
 21
1902.999999999999
  0
LINE
  8
_0-d_
  6
CONTINUOUS
 62
    7
 10
3700.2421204263214
 20
1962.999999999999
 11
4115
 21
1962.999999999999
  0
LINE
  8
_0-d_
  6
CONTINUOUS
 62
    7
 10
4115
 20
1902.999999999999
 11
3700.2421204263214
 21
1902.999999999999
  0
LINE
  8
_0-d_
  6
CONTINUOUS
 62
    3
 10
4115
 20
1902.999999999999
 11
3700.2421204263214
 21
1902.999999999999
  0
LINE
  8
_0-d_
  6
CONTINUOUS
 62
    7
 10
3700.2421204263214
 20
1902.999999999999
 11
4115
 21
1902.999999999999
  0
LINE
  8
_0-d_
  6
CONTINUOUS
 62
    7
 10
4115
 20
2267.9999999999995
 11
3700.2421204263214
 21
2267.9999999999995
  0
LINE
  8
_0-d_
  6
CONTINUOUS
 62
    7
 10
4115
 20
2272.9999999999995
 11
3700.2421204263214
 21
2272.9999999999995
  0
TEXT
  8
_0-d_
 62
    7
 10
3830.3411143313564
 20
1856.0893268157792
 40
35
 41
0.8571428571428568
 50
0
  1
ダークグレイン
  0
TEXT
  8
_f-8_
 62
    7
 10
1551.410485310826
 20
138.36146729427042
 40
45
 41
0.8
 50
0
  1
ＫＴＤ６－８５－９０Ｃ
  0
TEXT
  8
_f-8_
 62
    7
 10
3043
 20
142.5
 40
35
 41
0.5714285714285711
 50
0
  1
２０２３．０５．０１
  0
TEXT
  8
_f-8_
 62
    7
 10
3582
 20
145
 40
30
 41
0.7333333333333329
 50
0
  1
Ｔ．Ｋ
  0
ENDSEC
  0
EOF
